  0
SECTION
  2
HEADER
  9
$ACADVER
  1
AC1018
  9
$ACADMAINTVER
 70
     0
  9
$DWGCODEPAGE
  3
ANSI_932
  9
$INSBASE
 10
0.0
 20
0.0
 30
0.0
  9
$EXTMIN
 10
-2100.0
 20
-1485.0
 30
0.0
  9
$EXTMAX
 10
2100.0
 20
1485.0
 30
0.0
  9
$LIMMIN
 10
-2100.0
 20
-1485.0
  9
$LIMMAX
 10
2100.0
 20
1485.0
  9
$ORTHOMODE
 70
     0
  9
$REGENMODE
 70
     1
  9
$FILLMODE
 70
     1
  9
$QTEXTMODE
 70
     0
  9
$MIRRTEXT
 70
     1
  9
$LTSCALE
 40
10.0
  9
$ATTMODE
 70
     1
  9
$TEXTSIZE
 40
2.5
  9
$TRACEWID
 40
1.0
  9
$TEXTSTYLE
  7
Standard
  9
$CLAYER
  8
0
  9
$CELTYPE
  6
ByLayer
  9
$CECOLOR
 62
   256
  9
$CELTSCALE
 40
1.0
  9
$DISPSILH
 70
     0
  9
$DIMSCALE
 40
1.0
  9
$DIMASZ
 40
2.5
  9
$DIMEXO
 40
0.625
  9
$DIMDLI
 40
3.75
  9
$DIMRND
 40
0.0
  9
$DIMDLE
 40
0.0
  9
$DIMEXE
 40
1.25
  9
$DIMTP
 40
0.0
  9
$DIMTM
 40
0.0
  9
$DIMTXT
 40
2.5
  9
$DIMCEN
 40
2.5
  9
$DIMTSZ
 40
0.0
  9
$DIMTOL
 70
     0
  9
$DIMLIM
 70
     0
  9
$DIMTIH
 70
     0
  9
$DIMTOH
 70
     0
  9
$DIMSE1
 70
     0
  9
$DIMSE2
 70
     0
  9
$DIMTAD
 70
     1
  9
$DIMZIN
 70
     8
  9
$DIMBLK
  1

  9
$DIMASO
 70
     1
  9
$DIMSHO
 70
     1
  9
$DIMPOST
  1

  9
$DIMAPOST
  1

  9
$DIMALT
 70
     0
  9
$DIMALTD
 70
     3
  9
$DIMALTF
 40
0.03937007874016
  9
$DIMLFAC
 40
1.0
  9
$DIMTOFL
 70
     1
  9
$DIMTVP
 40
0.0
  9
$DIMTIX
 70
     0
  9
$DIMSOXD
 70
     0
  9
$DIMSAH
 70
     0
  9
$DIMBLK1
  1

  9
$DIMBLK2
  1

  9
$DIMSTYLE
  2
ISO-25
  9
$DIMCLRD
 70
     0
  9
$DIMCLRE
 70
     0
  9
$DIMCLRT
 70
     0
  9
$DIMTFAC
 40
1.0
  9
$DIMGAP
 40
0.625
  9
$DIMJUST
 70
     0
  9
$DIMSD1
 70
     0
  9
$DIMSD2
 70
     0
  9
$DIMTOLJ
 70
     0
  9
$DIMTZIN
 70
     8
  9
$DIMALTZ
 70
     0
  9
$DIMALTTZ
 70
     0
  9
$DIMUPT
 70
     0
  9
$DIMDEC
 70
     2
  9
$DIMTDEC
 70
     2
  9
$DIMALTU
 70
     2
  9
$DIMALTTD
 70
     3
  9
$DIMTXSTY
  7
Standard
  9
$DIMAUNIT
 70
     0
  9
$DIMADEC
 70
     0
  9
$DIMALTRND
 40
0.0
  9
$DIMAZIN
 70
     0
  9
$DIMDSEP
 70
    44
  9
$DIMATFIT
 70
     3
  9
$DIMFRAC
 70
     0
  9
$DIMLDRBLK
  1

  9
$DIMLUNIT
 70
     2
  9
$DIMLWD
 70
    -2
  9
$DIMLWE
 70
    -2
  9
$DIMTMOVE
 70
     0
  9
$LUNITS
 70
     2
  9
$LUPREC
 70
     4
  9
$SKETCHINC
 40
1.0
  9
$FILLETRAD
 40
10.0
  9
$AUNITS
 70
     0
  9
$AUPREC
 70
     0
  9
$MENU
  1
.
  9
$ELEVATION
 40
0.0
  9
$PELEVATION
 40
0.0
  9
$THICKNESS
 40
0.0
  9
$LIMCHECK
 70
     0
  9
$CHAMFERA
 40
0.0
  9
$CHAMFERB
 40
0.0
  9
$CHAMFERC
 40
0.0
  9
$CHAMFERD
 40
0.0
  9
$SKPOLY
 70
     0
  9
$TDCREATE
 40
2459950.598120104
  9
$TDUCREATE
 40
2459950.223120104
  9
$TDUPDATE
 40
2459950.598120335
  9
$TDUUPDATE
 40
2459950.223120335
  9
$TDINDWG
 40
0.0000000116
  9
$TDUSRTIMER
 40
0.0000000116
  9
$USRTIMER
 70
     1
  9
$ANGBASE
 50
0.0
  9
$ANGDIR
 70
     0
  9
$PDMODE
 70
     0
  9
$PDSIZE
 40
0.0
  9
$PLINEWID
 40
0.0
  9
$SPLFRAME
 70
     0
  9
$SPLINETYPE
 70
     6
  9
$SPLINESEGS
 70
     8
  9
$HANDSEED
  5
481
  9
$SURFTAB1
 70
     6
  9
$SURFTAB2
 70
     6
  9
$SURFTYPE
 70
     6
  9
$SURFU
 70
     6
  9
$SURFV
 70
     6
  9
$UCSBASE
  2

  9
$UCSNAME
  2

  9
$UCSORG
 10
0.0
 20
0.0
 30
0.0
  9
$UCSXDIR
 10
1.0
 20
0.0
 30
0.0
  9
$UCSYDIR
 10
0.0
 20
1.0
 30
0.0
  9
$UCSORTHOREF
  2

  9
$UCSORTHOVIEW
 70
     0
  9
$UCSORGTOP
 10
0.0
 20
0.0
 30
0.0
  9
$UCSORGBOTTOM
 10
0.0
 20
0.0
 30
0.0
  9
$UCSORGLEFT
 10
0.0
 20
0.0
 30
0.0
  9
$UCSORGRIGHT
 10
0.0
 20
0.0
 30
0.0
  9
$UCSORGFRONT
 10
0.0
 20
0.0
 30
0.0
  9
$UCSORGBACK
 10
0.0
 20
0.0
 30
0.0
  9
$PUCSBASE
  2

  9
$PUCSNAME
  2

  9
$PUCSORG
 10
0.0
 20
0.0
 30
0.0
  9
$PUCSXDIR
 10
1.0
 20
0.0
 30
0.0
  9
$PUCSYDIR
 10
0.0
 20
1.0
 30
0.0
  9
$PUCSORTHOREF
  2

  9
$PUCSORTHOVIEW
 70
     0
  9
$PUCSORGTOP
 10
0.0
 20
0.0
 30
0.0
  9
$PUCSORGBOTTOM
 10
0.0
 20
0.0
 30
0.0
  9
$PUCSORGLEFT
 10
0.0
 20
0.0
 30
0.0
  9
$PUCSORGRIGHT
 10
0.0
 20
0.0
 30
0.0
  9
$PUCSORGFRONT
 10
0.0
 20
0.0
 30
0.0
  9
$PUCSORGBACK
 10
0.0
 20
0.0
 30
0.0
  9
$USERI1
 70
     0
  9
$USERI2
 70
     0
  9
$USERI3
 70
     0
  9
$USERI4
 70
     0
  9
$USERI5
 70
     0
  9
$USERR1
 40
0.0
  9
$USERR2
 40
0.0
  9
$USERR3
 40
0.0
  9
$USERR4
 40
0.0
  9
$USERR5
 40
0.0
  9
$WORLDVIEW
 70
     1
  9
$SHADEDGE
 70
     3
  9
$SHADEDIF
 70
    70
  9
$TILEMODE
 70
     1
  9
$MAXACTVP
 70
    64
  9
$PINSBASE
 10
0.0
 20
0.0
 30
0.0
  9
$PLIMCHECK
 70
     0
  9
$PEXTMIN
 10
1.000000000000000E+20
 20
1.000000000000000E+20
 30
1.000000000000000E+20
  9
$PEXTMAX
 10
-1.000000000000000E+20
 20
-1.000000000000000E+20
 30
-1.000000000000000E+20
  9
$PLIMMIN
 10
0.0
 20
0.0
  9
$PLIMMAX
 10
420.0
 20
297.0
  9
$UNITMODE
 70
     0
  9
$VISRETAIN
 70
     1
  9
$PLINEGEN
 70
     0
  9
$PSLTSCALE
 70
     1
  9
$TREEDEPTH
 70
  3020
  9
$CMLSTYLE
  2
Standard
  9
$CMLJUST
 70
     0
  9
$CMLSCALE
 40
20.0
  9
$PROXYGRAPHICS
 70
     1
  9
$MEASUREMENT
 70
     1
  9
$CELWEIGHT
370
    -1
  9
$ENDCAPS
280
     0
  9
$JOINSTYLE
280
     0
  9
$LWDISPLAY
290
     0
  9
$INSUNITS
 70
     4
  9
$HYPERLINKBASE
  1

  9
$STYLESHEET
  1

  9
$XEDIT
290
     1
  9
$CEPSNTYPE
380
     0
  9
$PSTYLEMODE
290
     1
  9
$FINGERPRINTGUID
  2
{D1C7892E-F9B4-4007-B83A-53422E5AF216}
  9
$VERSIONGUID
  2
{FAEB1C32-E019-11D5-929B-00C0DF256EC4}
  9
$EXTNAMES
290
     1
  9
$PSVPSCALE
 40
0.0
  9
$OLESTARTUP
290
     0
  9
$SORTENTS
280
   127
  9
$INDEXCTL
280
     0
  9
$HIDETEXT
280
     1
  9
$XCLIPFRAME
290
     0
  9
$HALOGAP
280
     0
  9
$OBSCOLOR
 70
   257
  9
$OBSLTYPE
280
     0
  9
$INTERSECTIONDISPLAY
280
     0
  9
$INTERSECTIONCOLOR
 70
   257
  9
$DIMASSOC
280
     2
  9
$PROJECTNAME
  1

  0
ENDSEC
  0
SECTION
  2
CLASSES
  0
CLASS
  1
ACDBDICTIONARYWDFLT
  2
AcDbDictionaryWithDefault
  3
ObjectDBX Classes
 90
        0
 91
        4
280
     0
281
     0
  0
CLASS
  1
VISUALSTYLE
  2
AcDbVisualStyle
  3
ObjectDBX Classes
 90
     4095
 91
        4
280
     0
281
     0
  0
CLASS
  1
MATERIAL
  2
AcDbMaterial
  3
ObjectDBX Classes
 90
     1153
 91
        4
280
     0
281
     0
  0
CLASS
  1
SCALE
  2
AcDbScale
  3
ObjectDBX Classes
 90
     1153
 91
        4
280
     0
281
     0
  0
CLASS
  1
TABLESTYLE
  2
AcDbTableStyle
  3
ObjectDBX Classes
 90
     4095
 91
        4
280
     0
281
     0
  0
CLASS
  1
MLEADERSTYLE
  2
AcDbMLeaderStyle
  3
ACDB_MLEADERSTYLE_CLASS
 90
     4095
 91
        4
280
     0
281
     0
  0
CLASS
  1
SUN
  2
AcDbSun
  3
SCENEOE
 90
     1153
 91
        4
280
     0
281
     0
  0
CLASS
  1
DICTIONARYVAR
  2
AcDbDictionaryVar
  3
ObjectDBX Classes
 90
        0
 91
        4
280
     0
281
     0
  0
CLASS
  1
CELLSTYLEMAP
  2
AcDbCellStyleMap
  3
ObjectDBX Classes
 90
     1152
 91
        4
280
     0
281
     0
  0
ENDSEC
  0
SECTION
  2
TABLES
  0
TABLE
  2
VPORT
  5
8
102
{ACAD_XDICTIONARY
360
438
102
}
330
0
100
AcDbSymbolTable
 70
     1
  0
VPORT
  5
29
330
8
100
AcDbSymbolTableRecord
100
AcDbViewportTableRecord
  2
*Active
 70
     0
 10
0.0
 20
0.0
 11
1.0
 21
1.0
 12
0.0
 22
0.0
 13
0.0
 23
0.0
 14
10.0
 24
10.0
 15
10.0
 25
10.0
 16
0.0
 26
0.0
 36
1.0
 17
0.0
 27
0.0
 37
0.0
 40
3267.0
 41
1.414141414141414
 42
50.0
 43
0.0
 44
0.0
 50
0.0
 51
0.0
 71
     0
 72
 10000
 73
     1
 74
     3
 75
     0
 76
     0
 77
     0
 78
     0
281
     0
 65
     1
110
0.0
120
0.0
130
0.0
111
1.0
121
0.0
131
0.0
112
0.0
122
1.0
132
0.0
 79
     0
146
0.0
  0
ENDTAB
  0
TABLE
  2
LTYPE
  5
5
330
0
100
AcDbSymbolTable
 70
     5
  0
LTYPE
  5
14
330
5
100
AcDbSymbolTableRecord
100
AcDbLinetypeTableRecord
  2
ByBlock
 70
     0
  3

 72
    65
 73
     0
 40
0.0
  0
LTYPE
  5
15
330
5
100
AcDbSymbolTableRecord
100
AcDbLinetypeTableRecord
  2
ByLayer
 70
     0
  3

 72
    65
 73
     0
 40
0.0
  0
LTYPE
  5
16
330
5
100
AcDbSymbolTableRecord
100
AcDbLinetypeTableRecord
  2
Continuous
 70
     0
  3
Solid line
 72
    65
 73
     0
 40
0.0
  0
LTYPE
  5
6F
330
5
100
AcDbSymbolTableRecord
100
AcDbLinetypeTableRecord
  2
JWW_DASHED3
 70
     0
  3
---  ------  ------  ------  ---
 72
    65
 73
     2
 40
3.386666666666667
 49
2.54
 74
     0
 49
-0.8466666666666667
 74
     0
  0
LTYPE
  5
70
330
5
100
AcDbSymbolTableRecord
100
AcDbLinetypeTableRecord
  2
JWW_DASHED2
 70
     0
  3
--    ----    ----    ----    --
 72
    65
 73
     2
 40
3.386666666666667
 49
1.693333333333333
 74
     0
 49
-1.693333333333333
 74
     0
  0
LTYPE
  5
71
330
5
100
AcDbSymbolTableRecord
100
AcDbLinetypeTableRecord
  2
JWW_CENTER1
 70
     0
  3
-----  --  ----------  --  -----
 72
    65
 73
     4
 40
6.773333333333333
 49
4.233333333333333
 74
     0
 49
-0.8466666666666667
 74
     0
 49
0.8466666666666667
 74
     0
 49
-0.8466666666666667
 74
     0
  0
LTYPE
  5
72
330
5
100
AcDbSymbolTableRecord
100
AcDbLinetypeTableRecord
  2
JWW_CENTER2
 70
     0
  3
-------------  --  -------------
 72
    65
 73
     4
 40
13.54666666666667
 49
11.00666666666667
 74
     0
 49
-0.8466666666666667
 74
     0
 49
0.8466666666666667
 74
     0
 49
-0.8466666666666667
 74
     0
  0
ENDTAB
  0
TABLE
  2
LAYER
  5
2
330
0
100
AcDbSymbolTable
 70
    15
  0
LAYER
  5
10
330
2
100
AcDbSymbolTableRecord
100
AcDbLayerTableRecord
  2
0
 70
     0
 62
     7
  6
Continuous
370
    -3
390
F
  0
LAYER
  5
73
330
2
100
AcDbSymbolTableRecord
100
AcDbLayerTableRecord
  2
C-4
 70
     0
 62
     7
  6
Continuous
370
    -3
390
F
  0
LAYER
  5
74
330
2
100
AcDbSymbolTableRecord
100
AcDbLayerTableRecord
  2
C-2
 70
     0
 62
     7
  6
Continuous
370
    -3
390
F
  0
LAYER
  5
75
330
2
100
AcDbSymbolTableRecord
100
AcDbLayerTableRecord
  2
C-5
 70
     0
 62
     7
  6
Continuous
370
    -3
390
F
  0
LAYER
  5
76
330
2
100
AcDbSymbolTableRecord
100
AcDbLayerTableRecord
  2
C-9
 70
     0
 62
     7
  6
Continuous
370
    -3
390
F
  0
LAYER
  5
77
330
2
100
AcDbSymbolTableRecord
100
AcDbLayerTableRecord
  2
D-1
 70
     0
 62
     7
  6
Continuous
370
    -3
390
F
  0
LAYER
  5
78
330
2
100
AcDbSymbolTableRecord
100
AcDbLayerTableRecord
  2
D-4
 70
     0
 62
     7
  6
Continuous
370
    -3
390
F
  0
LAYER
  5
79
330
2
100
AcDbSymbolTableRecord
100
AcDbLayerTableRecord
  2
D-6
 70
     0
 62
     7
  6
Continuous
370
    -3
390
F
  0
LAYER
  5
7A
330
2
100
AcDbSymbolTableRecord
100
AcDbLayerTableRecord
  2
D-5
 70
     0
 62
     7
  6
Continuous
370
    -3
390
F
  0
LAYER
  5
7B
330
2
100
AcDbSymbolTableRecord
100
AcDbLayerTableRecord
  2
D-0
 70
     0
 62
     7
  6
Continuous
370
    -3
390
F
  0
LAYER
  5
7C
330
2
100
AcDbSymbolTableRecord
100
AcDbLayerTableRecord
  2
D-9
 70
     0
 62
     7
  6
Continuous
370
    -3
390
F
  0
LAYER
  5
7D
330
2
100
AcDbSymbolTableRecord
100
AcDbLayerTableRecord
  2
D-2
 70
     0
 62
     7
  6
Continuous
370
    -3
390
F
  0
LAYER
  5
7E
330
2
100
AcDbSymbolTableRecord
100
AcDbLayerTableRecord
  2
F-5ﾚｲﾔ
 70
     0
 62
     7
  6
Continuous
370
    -3
390
F
  0
LAYER
  5
7F
330
2
100
AcDbSymbolTableRecord
100
AcDbLayerTableRecord
  2
C-1
 70
     0
 62
     7
  6
Continuous
370
    -3
390
F
  0
LAYER
  5
80
330
2
100
AcDbSymbolTableRecord
100
AcDbLayerTableRecord
  2
C-A
 70
     0
 62
     7
  6
Continuous
370
    -3
390
F
  0
ENDTAB
  0
TABLE
  2
STYLE
  5
3
330
0
100
AcDbSymbolTable
 70
     2
  0
STYLE
  5
11
330
3
100
AcDbSymbolTableRecord
100
AcDbTextStyleTableRecord
  2
Standard
 70
     0
 40
0.0
 41
1.0
 50
0.0
 71
     0
 42
2.5
  3
txt
  4

  0
STYLE
  5
6E
330
3
100
AcDbSymbolTableRecord
100
AcDbTextStyleTableRecord
  2
ＭＳ ゴシック
 70
     0
 40
1.0
 41
1.0
 50
0.0
 71
     0
 42
2.5
  3

  4

1001
ACAD
1000
MS Gothic
1071
    32817
  0
ENDTAB
  0
TABLE
  2
VIEW
  5
6
330
0
100
AcDbSymbolTable
 70
     0
  0
ENDTAB
  0
TABLE
  2
UCS
  5
7
330
0
100
AcDbSymbolTable
 70
     0
  0
ENDTAB
  0
TABLE
  2
APPID
  5
9
330
0
100
AcDbSymbolTable
 70
     2
  0
APPID
  5
12
330
9
100
AcDbSymbolTableRecord
100
AcDbRegAppTableRecord
  2
ACAD
 70
     0
  0
APPID
  5
477
330
9
100
AcDbSymbolTableRecord
100
AcDbRegAppTableRecord
  2
ACAD_MLEADERVER
 70
     0
  0
ENDTAB
  0
TABLE
  2
DIMSTYLE
  5
A
330
0
100
AcDbSymbolTable
 70
     1
100
AcDbDimStyleTable
  0
DIMSTYLE
105
27
330
A
100
AcDbSymbolTableRecord
100
AcDbDimStyleTableRecord
  2
ISO-25
 70
     0
 41
2.5
 42
0.625
 43
3.75
 44
1.25
 73
     0
 74
     0
 77
     1
 78
     8
140
2.5
141
2.5
143
0.03937007874016
147
0.625
171
     3
172
     1
178
     0
271
     2
272
     2
274
     3
278
    44
283
     0
284
     8
340
11
  0
ENDTAB
  0
TABLE
  2
BLOCK_RECORD
  5
1
330
0
100
AcDbSymbolTable
 70
     1
  0
BLOCK_RECORD
  5
1F
330
1
100
AcDbSymbolTableRecord
100
AcDbBlockTableRecord
  2
*Model_Space
340
22
  0
BLOCK_RECORD
  5
1B
330
1
100
AcDbSymbolTableRecord
100
AcDbBlockTableRecord
  2
*Paper_Space
340
1E
  0
BLOCK_RECORD
  5
23
330
1
100
AcDbSymbolTableRecord
100
AcDbBlockTableRecord
  2
*Paper_Space0
340
26
  0
ENDTAB
  0
ENDSEC
  0
SECTION
  2
BLOCKS
  0
BLOCK
  5
20
330
1F
100
AcDbEntity
  8
0
100
AcDbBlockBegin
  2
*Model_Space
 70
     0
 10
0.0
 20
0.0
 30
0.0
  3
*Model_Space
  1

  0
ENDBLK
  5
21
330
1F
100
AcDbEntity
  8
0
100
AcDbBlockEnd
  0
BLOCK
  5
1C
330
1B
100
AcDbEntity
 67
     1
  8
0
100
AcDbBlockBegin
  2
*Paper_Space
 70
     0
 10
0.0
 20
0.0
 30
0.0
  3
*Paper_Space
  1

  0
ENDBLK
  5
1D
330
1B
100
AcDbEntity
 67
     1
  8
0
100
AcDbBlockEnd
  0
BLOCK
  5
24
330
23
100
AcDbEntity
  8
0
100
AcDbBlockBegin
  2
*Paper_Space0
 70
     0
 10
0.0
 20
0.0
 30
0.0
  3
*Paper_Space0
  1

  0
ENDBLK
  5
25
330
23
100
AcDbEntity
  8
0
100
AcDbBlockEnd
  0
ENDSEC
  0
SECTION
  2
ENTITIES
  0
LWPOLYLINE
  5
81
330
1F
100
AcDbEntity
  8
C-4
  6
Continuous
 62
     7
370
     9
100
AcDbPolyline
 90
        4
 70
     1
 43
2.0
 10
687.9236301731421
 20
813.2623950855154
 42
0.4142135623731
 10
686.9236301731422
 20
814.2623950855153
 42
0.4142135623731
 10
685.9236301731423
 20
813.2623950855154
 42
0.4142135623731
 10
686.9236301731422
 20
812.2623950855154
 42
0.4142135623731
  0
LWPOLYLINE
  5
82
330
1F
100
AcDbEntity
  8
C-4
  6
Continuous
 62
     7
370
     9
100
AcDbPolyline
 90
        4
 70
     1
 43
2.0
 10
727.9230198215796
 20
813.2623950855154
 42
0.4142135623731
 10
726.9230198215797
 20
814.2623950855153
 42
0.4142135623731
 10
725.9230198215798
 20
813.2623950855154
 42
0.4142135623731
 10
726.9230198215797
 20
812.2623950855154
 42
0.4142135623731
  0
LINE
  5
83
330
1F
100
AcDbEntity
  8
C-2
  6
Continuous
 62
     3
370
     9
100
AcDbLine
 10
-865.7023661845438
 20
789.865227776605
 30
0.0
 11
-865.7023661845438
 21
684.8653762404984
 31
0.0
  0
LINE
  5
84
330
1F
100
AcDbEntity
  8
C-2
  6
Continuous
 62
     3
370
     9
100
AcDbLine
 10
726.9230198215797
 20
525.8250386006125
 30
0.0
 11
726.9230198215797
 21
755.8239416173988
 31
0.0
  0
LINE
  5
85
330
1F
100
AcDbEntity
  8
C-2
  6
Continuous
 62
     3
370
     9
100
AcDbLine
 10
686.9236301731422
 20
543.0331173458617
 30
0.0
 11
686.9236301731422
 21
773.0331338418498
 31
0.0
  0
LINE
  5
86
330
1F
100
AcDbEntity
  8
C-5
  6
Continuous
 62
     7
370
     9
100
AcDbLine
 10
815.2402310758026
 20
744.931640625
 30
0.0
 11
723.2663541226776
 21
661.8010154930323
 31
0.0
  0
LINE
  5
87
330
1F
100
AcDbEntity
  8
C-5
  6
Continuous
 62
     7
370
     9
100
AcDbLine
 10
723.2663541226776
 20
661.8010154930323
 30
0.0
 11
739.4652495513094
 21
680.8417572846283
 31
0.0
  0
LINE
  5
88
330
1F
100
AcDbEntity
  8
C-5
  6
Continuous
 62
     7
370
     9
100
AcDbLine
 10
723.2663541226776
 20
661.8010154930323
 30
0.0
 11
743.8422125739021
 21
676.0001022751269
 31
0.0
  0
LINE
  5
89
330
1F
100
AcDbEntity
  8
C-5
  6
Continuous
 62
     7
370
     9
100
AcDbLine
 10
489.297155431799
 20
464.8650215767526
 30
0.0
 11
927.3312130489865
 21
464.8650215767526
 31
0.0
  0
LINE
  5
8A
330
1F
100
AcDbEntity
  8
C-9
  6
Continuous
 62
     6
370
     9
100
AcDbLine
 10
692.1134330130911
 20
542.4241679423565
 30
0.0
 11
686.9236301731422
 21
546.7788613809123
 31
0.0
  0
LINE
  5
8B
330
1F
100
AcDbEntity
  8
C-9
  6
Continuous
 62
     6
370
     9
100
AcDbLine
 10
725.5435428103885
 20
526.372994087838
 30
0.0
 11
686.9236301731422
 21
558.779197899071
 31
0.0
  0
LINE
  5
8C
330
1F
100
AcDbEntity
  8
C-9
  6
Continuous
 62
     6
370
     9
100
AcDbLine
 10
691.4562328441724
 20
772.5738855310391
 30
0.0
 11
686.9236301731422
 21
769.9567145270271
 31
0.0
  0
LINE
  5
8D
330
1F
100
AcDbEntity
  8
C-9
  6
Continuous
 62
     6
370
     9
100
AcDbLine
 10
703.7022771062078
 20
767.6438945048565
 30
0.0
 11
686.9236301731422
 21
757.9566254486908
 31
0.0
  0
LINE
  5
8E
330
1F
100
AcDbEntity
  8
C-9
  6
Continuous
 62
     6
370
     9
100
AcDbLine
 10
713.0933606946792
 20
761.0657068201016
 30
0.0
 11
686.9236301731422
 21
745.9567838101776
 31
0.0
  0
LINE
  5
8F
330
1F
100
AcDbEntity
  8
C-9
  6
Continuous
 62
     6
370
     9
100
AcDbLine
 10
725.697945259713
 20
756.3433178051099
 30
0.0
 11
686.9236301731422
 21
733.9566947318415
 31
0.0
  0
LINE
  5
90
330
1F
100
AcDbEntity
  8
C-9
  6
Continuous
 62
     6
370
     9
100
AcDbLine
 10
726.9230198215797
 20
753.2154310071792
 30
0.0
 11
722.206074482686
 21
757.1737258498734
 31
0.0
  0
LINE
  5
91
330
1F
100
AcDbEntity
  8
C-9
  6
Continuous
 62
     6
370
     9
100
AcDbLine
 10
726.9230198215797
 20
741.2150944890203
 30
0.0
 11
689.007568359375
 21
773.0306594436234
 31
0.0
  0
LINE
  5
92
330
1F
100
AcDbEntity
  8
C-9
  6
Continuous
 62
     6
370
     9
100
AcDbLine
 10
726.9230198215797
 20
529.0510352882179
 30
0.0
 11
723.2020197687922
 21
526.9026390281886
 31
0.0
  0
LINE
  5
93
330
1F
100
AcDbEntity
  8
C-9
  6
Continuous
 62
     6
370
     9
100
AcDbLine
 10
726.9230198215797
 20
541.0507532068203
 30
0.0
 11
711.419677734375
 21
532.1001125026396
 31
0.0
  0
LINE
  5
94
330
1F
100
AcDbEntity
  8
C-9
  6
Continuous
 62
     6
370
     9
100
AcDbLine
 10
726.9230198215797
 20
553.0504711254224
 30
0.0
 11
701.9721778663433
 21
538.6452669710727
 31
0.0
  0
LINE
  5
95
330
1F
100
AcDbEntity
  8
C-9
  6
Continuous
 62
     6
370
     9
100
AcDbLine
 10
726.9230198215797
 20
565.0508076435813
 30
0.0
 11
688.8294116870776
 21
543.05736644848
 31
0.0
  0
LINE
  5
96
330
1F
100
AcDbEntity
  8
C-9
  6
Continuous
 62
     6
370
     9
100
AcDbLine
 10
726.9230198215797
 20
537.2153122360644
 30
0.0
 11
686.9236301731422
 21
570.7789158176731
 31
0.0
  0
LINE
  5
97
330
1F
100
AcDbEntity
  8
C-9
  6
Continuous
 62
     6
370
     9
100
AcDbLine
 10
726.9230198215797
 20
549.2156487542231
 30
0.0
 11
686.9236301731422
 21
582.7791286159209
 31
0.0
  0
LINE
  5
98
330
1F
100
AcDbEntity
  8
C-9
  6
Continuous
 62
     6
370
     9
100
AcDbLine
 10
726.9230198215797
 20
561.2153666728252
 30
0.0
 11
686.9236301731422
 21
594.7789702544342
 31
0.0
  0
LINE
  5
99
330
1F
100
AcDbEntity
  8
C-9
  6
Continuous
 62
     6
370
     9
100
AcDbLine
 10
726.9230198215797
 20
573.2155794710727
 30
0.0
 11
686.9236301731422
 21
606.7790593327703
 31
0.0
  0
LINE
  5
9A
330
1F
100
AcDbEntity
  8
C-9
  6
Continuous
 62
     6
370
     9
100
AcDbLine
 10
726.9230198215797
 20
729.2155002903294
 30
0.0
 11
686.9236301731422
 21
762.7789801520271
 31
0.0
  0
LINE
  5
9B
330
1F
100
AcDbEntity
  8
C-9
  6
Continuous
 62
     6
370
     9
100
AcDbLine
 10
726.9230198215797
 20
717.2151637721709
 30
0.0
 11
686.9236301731422
 21
750.7791385135135
 31
0.0
  0
LINE
  5
9C
330
1F
100
AcDbEntity
  8
C-9
  6
Continuous
 62
     6
370
     9
100
AcDbLine
 10
726.9230198215797
 20
705.21556957348
 30
0.0
 11
686.9236301731422
 21
738.7790494351776
 31
0.0
  0
LINE
  5
9D
330
1F
100
AcDbEntity
  8
C-9
  6
Continuous
 62
     6
370
     9
100
AcDbLine
 10
726.9230198215797
 20
693.2157279349665
 30
0.0
 11
686.9236301731422
 21
726.7792077966641
 31
0.0
  0
LINE
  5
9E
330
1F
100
AcDbEntity
  8
C-9
  6
Continuous
 62
     6
370
     9
100
AcDbLine
 10
726.9230198215797
 20
681.2153914168075
 30
0.0
 11
686.9236301731422
 21
714.7788712785052
 31
0.0
  0
LINE
  5
9F
330
1F
100
AcDbEntity
  8
C-9
  6
Continuous
 62
     6
370
     9
100
AcDbLine
 10
726.9230198215797
 20
669.215549778294
 30
0.0
 11
686.9236301731422
 21
702.7792770798144
 31
0.0
  0
LINE
  5
A0
330
1F
100
AcDbEntity
  8
C-9
  6
Continuous
 62
     6
370
     9
100
AcDbLine
 10
726.9230198215797
 20
657.2154606999578
 30
0.0
 11
686.9236301731422
 21
690.7789405616554
 31
0.0
  0
LINE
  5
A1
330
1F
100
AcDbEntity
  8
C-9
  6
Continuous
 62
     6
370
     9
100
AcDbLine
 10
726.9230198215797
 20
645.2156190614443
 30
0.0
 11
686.9236301731422
 21
678.7790989231419
 31
0.0
  0
LINE
  5
A2
330
1F
100
AcDbEntity
  8
C-9
  6
Continuous
 62
     6
370
     9
100
AcDbLine
 10
726.9230198215797
 20
633.2152825432856
 30
0.0
 11
686.9236301731422
 21
666.7790098448057
 31
0.0
  0
LINE
  5
A3
330
1F
100
AcDbEntity
  8
C-9
  6
Continuous
 62
     6
370
     9
100
AcDbLine
 10
726.9230198215797
 20
621.2151934649495
 30
0.0
 11
686.9236301731422
 21
654.7786733266471
 31
0.0
  0
LINE
  5
A4
330
1F
100
AcDbEntity
  8
C-9
  6
Continuous
 62
     6
370
     9
100
AcDbLine
 10
726.9230198215797
 20
609.215351826436
 30
0.0
 11
686.9236301731422
 21
642.7788316881336
 31
0.0
  0
LINE
  5
A5
330
1F
100
AcDbEntity
  8
C-9
  6
Continuous
 62
     6
370
     9
100
AcDbLine
 10
726.9230198215797
 20
597.2155101879224
 30
0.0
 11
686.9236301731422
 21
630.7792374894427
 31
0.0
  0
LINE
  5
A6
330
1F
100
AcDbEntity
  8
C-9
  6
Continuous
 62
     6
370
     9
100
AcDbLine
 10
726.9230198215797
 20
585.2154211095863
 30
0.0
 11
686.9236301731422
 21
618.7789009712839
 31
0.0
  0
LINE
  5
A7
330
1F
100
AcDbEntity
  8
C-9
  6
Continuous
 62
     6
370
     9
100
AcDbLine
 10
726.9230198215797
 20
577.0505255621833
 30
0.0
 11
686.9236301731422
 21
553.9567194758238
 31
0.0
  0
LINE
  5
A8
330
1F
100
AcDbEntity
  8
C-9
  6
Continuous
 62
     6
370
     9
100
AcDbLine
 10
726.9230198215797
 20
589.0507383604307
 30
0.0
 11
686.9236301731422
 21
565.956932274071
 31
0.0
  0
LINE
  5
A9
330
1F
100
AcDbEntity
  8
C-9
  6
Continuous
 62
     6
370
     9
100
AcDbLine
 10
726.9230198215797
 20
601.0505799989443
 30
0.0
 11
686.9236301731422
 21
577.95726879223
 31
0.0
  0
LINE
  5
AA
330
1F
100
AcDbEntity
  8
C-9
  6
Continuous
 62
     6
370
     9
100
AcDbLine
 10
726.9230198215797
 20
613.0504216374578
 30
0.0
 11
686.9236301731422
 21
589.9564918311867
 31
0.0
  0
LINE
  5
AB
330
1F
100
AcDbEntity
  8
C-9
  6
Continuous
 62
     6
370
     9
100
AcDbLine
 10
726.9230198215797
 20
745.0506591796875
 30
0.0
 11
686.9236301731422
 21
721.9568530933279
 31
0.0
  0
LINE
  5
AC
330
1F
100
AcDbEntity
  8
C-9
  6
Continuous
 62
     6
370
     9
100
AcDbLine
 10
726.9230198215797
 20
625.050510715794
 30
0.0
 11
686.9236301731422
 21
601.9567046294342
 31
0.0
  0
LINE
  5
AD
330
1F
100
AcDbEntity
  8
C-9
  6
Continuous
 62
     6
370
     9
100
AcDbLine
 10
726.9230198215797
 20
637.0508472339529
 30
0.0
 11
686.9236301731422
 21
613.9570411475929
 31
0.0
  0
LINE
  5
AE
330
1F
100
AcDbEntity
  8
C-9
  6
Continuous
 62
     6
370
     9
100
AcDbLine
 10
726.9230198215797
 20
649.0506888724665
 30
0.0
 11
686.9236301731422
 21
625.9568827861065
 31
0.0
  0
LINE
  5
AF
330
1F
100
AcDbEntity
  8
C-9
  6
Continuous
 62
     6
370
     9
100
AcDbLine
 10
726.9230198215797
 20
661.0502830711573
 30
0.0
 11
686.9236301731422
 21
637.9564769847974
 31
0.0
  0
LINE
  5
B0
330
1F
100
AcDbEntity
  8
C-9
  6
Continuous
 62
     6
370
     9
100
AcDbLine
 10
726.9230198215797
 20
673.0506195893158
 30
0.0
 11
686.9236301731422
 21
649.9568135029563
 31
0.0
  0
LINE
  5
B1
330
1F
100
AcDbEntity
  8
C-9
  6
Continuous
 62
     6
370
     9
100
AcDbLine
 10
726.9230198215797
 20
685.0502137880068
 30
0.0
 11
686.9236301731422
 21
661.9571500211151
 31
0.0
  0
LINE
  5
B2
330
1F
100
AcDbEntity
  8
C-9
  6
Continuous
 62
     6
370
     9
100
AcDbLine
 10
726.9230198215797
 20
697.0500554265203
 30
0.0
 11
686.9236301731422
 21
673.9567442198057
 31
0.0
  0
LINE
  5
B3
330
1F
100
AcDbEntity
  8
C-9
  6
Continuous
 62
     6
370
     9
100
AcDbLine
 10
726.9230198215797
 20
709.0503919446792
 30
0.0
 11
686.9236301731422
 21
685.9565858583193
 31
0.0
  0
LINE
  5
B4
330
1F
100
AcDbEntity
  8
C-9
  6
Continuous
 62
     6
370
     9
100
AcDbLine
 10
726.9230198215797
 20
721.050728462838
 30
0.0
 11
686.9236301731422
 21
697.9566749366554
 31
0.0
  0
LINE
  5
B5
330
1F
100
AcDbEntity
  8
C-9
  6
Continuous
 62
     6
370
     9
100
AcDbLine
 10
726.9230198215797
 20
733.050322661529
 30
0.0
 11
686.9236301731422
 21
709.9570114548144
 31
0.0
  0
LINE
  5
B6
330
1F
100
AcDbEntity
  8
C-4
  6
Continuous
 62
     7
370
     9
100
AcDbLine
 10
686.9236301731422
 20
813.2623950855154
 30
0.0
 11
726.9230198215797
 21
813.2623950855154
 31
0.0
  0
LINE
  5
B7
330
1F
100
AcDbEntity
  8
C-4
  6
Continuous
 62
     7
370
     9
100
AcDbLine
 10
686.9236301731422
 20
788.033430769637
 30
0.0
 11
686.9236301731422
 21
816.2623554951438
 31
0.0
  0
LINE
  5
B8
330
1F
100
AcDbEntity
  8
C-4
  6
Continuous
 62
     7
370
     9
100
AcDbLine
 10
726.9230198215797
 20
770.8239911053633
 30
0.0
 11
726.9230198215797
 21
816.2623554951438
 31
0.0
  0
ARC
  5
B9
330
1F
100
AcDbEntity
  8
C-2
  6
Continuous
 62
     3
370
     9
100
AcDbCircle
 10
682.9561800570104
 20
503.7821094409841
 30
0.0
 40
39.7122589317528
100
AcDbArc
 50
50.82627868652344
 51
129.1737060546875
  0
ARC
  5
BA
330
1F
100
AcDbEntity
  8
C-2
  6
Continuous
 62
     3
370
     9
100
AcDbCircle
 10
733.1270784945104
 20
565.3545400258658
 30
0.0
 40
39.7122589317528
100
AcDbArc
 50
230.8262786865234
 51
309.1737060546875
  0
ARC
  5
BB
330
1F
100
AcDbEntity
  8
C-2
  6
Continuous
 62
     3
370
     9
100
AcDbCircle
 10
733.1270784945104
 20
795.3544328019427
 30
0.0
 40
39.7122589317528
100
AcDbArc
 50
230.8262786865234
 51
309.1737060546875
  0
ARC
  5
BC
330
1F
100
AcDbEntity
  8
C-2
  6
Continuous
 62
     3
370
     9
100
AcDbCircle
 10
682.9561800570104
 20
733.7817547772383
 30
0.0
 40
39.7122589317528
100
AcDbArc
 50
50.82627868652344
 51
129.1737060546875
  0
TEXT
  5
BD
330
1F
100
AcDbEntity
  8
C-5
  6
Continuous
 62
     7
370
     9
100
AcDbText
 10
485.7357540646115
 20
475.795691973712
 30
0.0
 40
22.86
  1
メインバー表面　Ｓ＝１：１
 41
1.153846153846154
  7
ＭＳ ゴシック
100
AcDbText
  0
TEXT
  5
BE
330
1F
100
AcDbEntity
  8
C-4
  6
Continuous
 62
     2
370
     9
100
AcDbText
 10
696.9231682854729
 20
823.902164141681
 30
0.0
 40
30.48
  1
4
 41
0.9999999999999998
  7
ＭＳ ゴシック
100
AcDbText
  0
LINE
  5
BF
330
1F
100
AcDbEntity
  8
D-1
  6
Continuous
 62
     2
370
     9
100
AcDbLine
 10
-939.2753091207375
 20
-237.44897525793
 30
0.0
 11
-939.2753091207375
 21
-362.4487654495805
 31
0.0
  0
LINE
  5
C0
330
1F
100
AcDbEntity
  8
D-1
  6
Continuous
 62
     2
370
     9
100
AcDbLine
 10
-924.2750134816994
 20
-237.44897525793
 30
0.0
 11
-939.2753091207375
 21
-237.44897525793
 31
0.0
  0
LINE
  5
C1
330
1F
100
AcDbEntity
  8
D-4
  6
Continuous
 62
     7
370
     9
100
AcDbLine
 10
-498.2449927678932
 20
-237.4484803782887
 30
0.0
 11
-399.5897498479713
 21
-237.4484803782887
 31
0.0
  0
LINE
  5
C2
330
1F
100
AcDbEntity
  8
D-6
  6
Continuous
 62
     6
370
     9
100
AcDbLine
 10
-674.2751708379616
 20
-483.4586302567092
 30
0.0
 11
-578.2645621648659
 21
-387.4486605454057
 31
0.0
  0
LINE
  5
C3
330
1F
100
AcDbEntity
  8
D-6
  6
Continuous
 62
     6
370
     9
100
AcDbLine
 10
-674.2751708379616
 20
-387.4486605454057
 30
0.0
 11
-509.2743888250221
 21
-387.4486605454057
 31
0.0
  0
LINE
  5
C4
330
1F
100
AcDbEntity
  8
D-6
  6
Continuous
 62
     6
370
     9
100
AcDbLine
 10
-674.2751708379616
 20
-497.5993124771682
 30
0.0
 11
-564.1238608709206
 21
-387.4486605454057
 31
0.0
  0
LINE
  5
C5
330
1F
100
AcDbEntity
  8
D-6
  6
Continuous
 62
     6
370
     9
100
AcDbLine
 10
-924.2750134816994
 20
-562.448746376094
 30
0.0
 11
-924.2750134816994
 21
-737.4483267593948
 31
0.0
  0
LINE
  5
C6
330
1F
100
AcDbEntity
  8
D-6
  6
Continuous
 62
     6
370
     9
100
AcDbLine
 10
-674.2751708379616
 20
-387.4486605454057
 30
0.0
 11
-674.2751708379616
 21
-562.448746376094
 31
0.0
  0
LINE
  5
C7
330
1F
100
AcDbEntity
  8
D-6
  6
Continuous
 62
     6
370
     9
100
AcDbLine
 10
-924.2750134816994
 20
-562.448746376094
 30
0.0
 11
-674.2751708379616
 21
-562.448746376094
 31
0.0
  0
LINE
  5
C8
330
1F
100
AcDbEntity
  8
D-6
  6
JWW_DASHED3
 62
     6
370
     9
100
AcDbLine
 10
-861.9825282445778
 20
-664.948860817012
 30
0.0
 11
-861.9825282445778
 21
-562.448746376094
 31
0.0
  0
LINE
  5
C9
330
1F
100
AcDbEntity
  8
D-6
  6
JWW_DASHED3
 62
     6
370
     9
100
AcDbLine
 10
-816.9821372381081
 20
-562.448746376094
 30
0.0
 11
-816.9821372381081
 21
-664.948860817012
 31
0.0
  0
LINE
  5
CA
330
1F
100
AcDbEntity
  8
D-4
  6
Continuous
 62
     7
370
     9
100
AcDbLine
 10
-402.5901999822487
 20
-562.448746376094
 30
0.0
 11
-402.5901999822487
 21
-237.4484803782887
 31
0.0
  0
LINE
  5
CB
330
1F
100
AcDbEntity
  8
D-4
  6
Continuous
 62
     7
370
     9
100
AcDbLine
 10
-652.0387473455299
 20
-562.448746376094
 30
0.0
 11
-399.5897498479713
 21
-562.448746376094
 31
0.0
  0
LINE
  5
CC
330
1F
100
AcDbEntity
  8
D-6
  6
Continuous
 62
     6
370
     9
100
AcDbLine
 10
-924.2750134816994
 20
-237.4484803782887
 30
0.0
 11
-509.2743888250221
 21
-237.4484803782887
 31
0.0
  0
LINE
  5
CD
330
1F
100
AcDbEntity
  8
D-6
  6
Continuous
 62
     6
370
     9
100
AcDbLine
 10
-1074.275008713328
 20
-377.4486319351762
 30
0.0
 11
-1074.275008713328
 21
-737.4483267593948
 31
0.0
  0
LINE
  5
CE
330
1F
100
AcDbEntity
  8
D-1
  6
Continuous
 62
     2
370
     9
100
AcDbLine
 10
-939.2753091207375
 20
-362.4487654495805
 30
0.0
 11
-1074.275008713328
 21
-362.4487654495805
 31
0.0
  0
LINE
  5
CF
330
1F
100
AcDbEntity
  8
D-1
  6
Continuous
 62
     2
370
     9
100
AcDbLine
 10
-1074.275008713328
 20
-377.4491278458207
 30
0.0
 11
-939.2753091207375
 21
-377.4491278458207
 31
0.0
  0
LINE
  5
D0
330
1F
100
AcDbEntity
  8
D-1
  6
Continuous
 62
     2
370
     9
100
AcDbLine
 10
-1074.275008713328
 20
-377.4491278458207
 30
0.0
 11
-1074.275008713328
 21
-362.4487654495805
 31
0.0
  0
LINE
  5
D1
330
1F
100
AcDbEntity
  8
D-6
  6
Continuous
 62
     6
370
     9
100
AcDbLine
 10
-924.2750134816994
 20
-733.4563223648636
 30
0.0
 11
-753.2654013982643
 21
-562.448746376094
 31
0.0
  0
LINE
  5
D2
330
1F
100
AcDbEntity
  8
D-6
  6
Continuous
 62
     6
370
     9
100
AcDbLine
 10
-914.1255250326027
 20
-737.4483267593948
 30
0.0
 11
-739.124700104319
 21
-562.448746376094
 31
0.0
  0
LINE
  5
D3
330
1F
100
AcDbEntity
  8
D-4
  6
Continuous
 62
     7
370
     9
100
AcDbLine
 10
-1074.274512802683
 20
-797.531868629512
 30
0.0
 11
-674.2737021795143
 21
-797.531868629512
 31
0.0
  0
LINE
  5
D4
330
1F
100
AcDbEntity
  8
D-4
  6
Continuous
 62
     7
370
     9
100
AcDbLine
 10
-1074.274512802683
 20
-762.4486700821487
 30
0.0
 11
-1074.274512802683
 21
-800.531365089473
 31
0.0
  0
LINE
  5
D5
330
1F
100
AcDbEntity
  8
D-4
  6
Continuous
 62
     7
370
     9
100
AcDbLine
 10
-674.2737021795143
 20
-579.9481741715042
 30
0.0
 11
-674.2737021795143
 21
-800.531365089473
 31
0.0
  0
LINE
  5
D6
330
1F
100
AcDbEntity
  8
D-5
  6
Continuous
 62
     7
370
     9
100
AcDbLine
 10
-1416.269017731272
 20
-933.390137367305
 30
0.0
 11
-1416.269017731272
 21
-868.3908240128128
 31
0.0
  0
LINE
  5
D7
330
1F
100
AcDbEntity
  8
D-5
  6
Continuous
 62
     7
370
     9
100
AcDbLine
 10
-1416.269017731272
 20
-868.3908240128128
 30
0.0
 11
-841.2693419805397
 21
-868.3908240128128
 31
0.0
  0
LINE
  5
D8
330
1F
100
AcDbEntity
  8
D-5
  6
Continuous
 62
     7
370
     9
100
AcDbLine
 10
-841.2693419805397
 20
-868.3908240128128
 30
0.0
 11
-841.2693419805397
 21
-933.390137367305
 31
0.0
  0
LINE
  5
D9
330
1F
100
AcDbEntity
  8
D-5
  6
Continuous
 62
     7
370
     9
100
AcDbLine
 10
-841.2693419805397
 20
-933.390137367305
 30
0.0
 11
-1416.269017731272
 21
-933.390137367305
 31
0.0
  0
LINE
  5
DA
330
1F
100
AcDbEntity
  8
D-4
  6
Continuous
 62
     7
370
     9
100
AcDbLine
 10
-949.2738578604145
 20
-10.27702014928746
 30
0.0
 11
-944.2735936990608
 21
-10.27702014928746
 31
0.0
  0
LINE
  5
DB
330
1F
100
AcDbEntity
  8
D-4
  6
Continuous
 62
     7
370
     9
100
AcDbLine
 10
-1074.274512802683
 20
-119.0294710922806
 30
0.0
 11
-949.2738578604145
 21
-119.0294710922806
 31
0.0
  0
LINE
  5
DC
330
1F
100
AcDbEntity
  8
D-4
  6
Continuous
 62
     7
370
     9
100
AcDbLine
 10
-949.2738578604145
 20
-224.4929639626114
 30
0.0
 11
-949.2738578604145
 21
-7.277428321894881
 31
0.0
  0
LINE
  5
DD
330
1F
100
AcDbEntity
  8
D-4
  6
Continuous
 62
     7
370
     9
100
AcDbLine
 10
-939.2738249650826
 20
-224.4929639626114
 30
0.0
 11
-939.2738249650826
 21
-7.277428321894881
 31
0.0
  0
LINE
  5
DE
330
1F
100
AcDbEntity
  8
D-4
  6
Continuous
 62
     7
370
     9
100
AcDbLine
 10
-924.2750134816994
 20
-224.4929639626114
 30
0.0
 11
-924.2750134816994
 21
103.4191735457809
 31
0.0
  0
LINE
  5
DF
330
1F
100
AcDbEntity
  8
D-4
  6
Continuous
 62
     7
370
     9
100
AcDbLine
 10
-1074.274512802683
 20
-224.4929639626114
 30
0.0
 11
-1074.274512802683
 21
-116.0288969803422
 31
0.0
  0
LINE
  5
E0
330
1F
100
AcDbEntity
  8
D-4
  6
Continuous
 62
     7
370
     9
100
AcDbLine
 10
-944.2735936990608
 20
-10.27702014928746
 30
0.0
 11
-886.61318925532
 21
-10.27702014928746
 31
0.0
  0
LINE
  5
E1
330
1F
100
AcDbEntity
  8
D-4
  6
Continuous
 62
     7
370
     9
100
AcDbLine
 10
-1646.942807709299
 20
-119.0294710922806
 30
0.0
 11
-1074.274512802683
 21
-119.0294710922806
 31
0.0
  0
LINE
  5
E2
330
1F
100
AcDbEntity
  8
D-4
  6
Continuous
 62
     7
370
     9
100
AcDbLine
 10
-1646.942807709299
 20
-10.27702014928746
 30
0.0
 11
-949.2738578604145
 21
-10.27702014928746
 31
0.0
  0
LINE
  5
E3
330
1F
100
AcDbEntity
  8
D-4
  6
Continuous
 62
     7
370
     9
100
AcDbLine
 10
-1646.942807709299
 20
100.4187234115035
 30
0.0
 11
-924.2750134816994
 21
100.4187234115035
 31
0.0
  0
LINE
  5
E4
330
1F
100
AcDbEntity
  8
D-1
  6
Continuous
 62
     2
370
     9
100
AcDbLine
 10
-924.2750134816994
 20
-362.4487654495805
 30
0.0
 11
-924.2750134816994
 21
-237.44897525793
 31
0.0
  0
LINE
  5
E5
330
1F
100
AcDbEntity
  8
D-6
  6
Continuous
 62
     6
370
     9
100
AcDbLine
 10
-674.2751708379616
 20
-511.7402617264358
 30
0.0
 11
-549.9831977239479
 21
-387.4486605454057
 31
0.0
  0
LINE
  5
E6
330
1F
100
AcDbEntity
  8
D-6
  6
Continuous
 62
     6
370
     9
100
AcDbLine
 10
-899.9858250966896
 20
-737.4483267593948
 30
0.0
 11
-724.9850097051491
 21
-562.448746376094
 31
0.0
  0
LINE
  5
E7
330
1F
100
AcDbEntity
  8
D-4
  6
Continuous
 62
     7
370
     9
100
AcDbLine
 10
-1074.274512802683
 20
-643.0674521256058
 30
0.0
 11
-924.2750134816994
 21
-643.0674521256058
 31
0.0
  0
LINE
  5
E8
330
1F
100
AcDbEntity
  8
D-0
  6
Continuous
 62
     7
370
     9
100
AcDbLine
 10
-735.4571547857155
 20
-527.1431319046585
 30
0.0
 11
-735.4571547857155
 21
-525.6428496170608
 31
0.0
  0
LINE
  5
E9
330
1F
100
AcDbEntity
  8
D-0
  6
Continuous
 62
     7
370
     9
100
AcDbLine
 10
-735.4571547857155
 20
-525.6428496170608
 30
0.0
 11
-733.9571776738991
 21
-525.6428496170608
 31
0.0
  0
LINE
  5
EA
330
1F
100
AcDbEntity
  8
D-0
  6
Continuous
 62
     7
370
     9
100
AcDbLine
 10
-733.9571776738991
 20
-525.6428496170608
 30
0.0
 11
-733.9571776738991
 21
-527.1431319046585
 31
0.0
  0
LINE
  5
EB
330
1F
100
AcDbEntity
  8
D-0
  6
Continuous
 62
     7
370
     9
100
AcDbLine
 10
-733.9571776738991
 20
-527.1431319046585
 30
0.0
 11
-735.4571547857155
 21
-527.1431319046585
 31
0.0
  0
LINE
  5
EC
330
1F
100
AcDbEntity
  8
D-0
  6
Continuous
 62
     7
370
     9
100
AcDbLine
 10
-769.9710479131569
 20
-547.4454466629593
 30
0.0
 11
-769.9710479131569
 21
-545.9451643753616
 31
0.0
  0
LINE
  5
ED
330
1F
100
AcDbEntity
  8
D-0
  6
Continuous
 62
     7
370
     9
100
AcDbLine
 10
-769.9710479131569
 20
-545.9451643753616
 30
0.0
 11
-768.471566711985
 21
-545.9451643753616
 31
0.0
  0
LINE
  5
EE
330
1F
100
AcDbEntity
  8
D-0
  6
Continuous
 62
     7
370
     9
100
AcDbLine
 10
-768.471566711985
 20
-545.9451643753616
 30
0.0
 11
-768.471566711985
 21
-547.4454466629593
 31
0.0
  0
LINE
  5
EF
330
1F
100
AcDbEntity
  8
D-0
  6
Continuous
 62
     7
370
     9
100
AcDbLine
 10
-768.471566711985
 20
-547.4454466629593
 30
0.0
 11
-769.9710479131569
 21
-547.4454466629593
 31
0.0
  0
LINE
  5
F0
330
1F
100
AcDbEntity
  8
D-0
  6
Continuous
 62
     7
370
     9
100
AcDbLine
 10
-703.5997596135963
 20
-537.894303016719
 30
0.0
 11
-703.5997596135963
 21
-536.3940398026077
 31
0.0
  0
LINE
  5
F1
330
1F
100
AcDbEntity
  8
D-0
  6
Continuous
 62
     7
370
     9
100
AcDbLine
 10
-703.5997596135963
 20
-536.3940398026077
 30
0.0
 11
-702.0997825017799
 21
-536.3940398026077
 31
0.0
  0
LINE
  5
F2
330
1F
100
AcDbEntity
  8
D-0
  6
Continuous
 62
     7
370
     9
100
AcDbLine
 10
-702.0997825017799
 20
-536.3940398026077
 30
0.0
 11
-702.0997825017799
 21
-537.894303016719
 31
0.0
  0
LINE
  5
F3
330
1F
100
AcDbEntity
  8
D-0
  6
Continuous
 62
     7
370
     9
100
AcDbLine
 10
-702.0997825017799
 20
-537.894303016719
 30
0.0
 11
-703.5997596135963
 21
-537.894303016719
 31
0.0
  0
LINE
  5
F4
330
1F
100
AcDbEntity
  8
D-0
  6
Continuous
 62
     7
370
     9
100
AcDbLine
 10
-843.0098357549538
 20
-257.721101455745
 30
0.0
 11
-843.0098357549538
 21
-256.2207500267594
 31
0.0
  0
LINE
  5
F5
330
1F
100
AcDbEntity
  8
D-0
  6
Continuous
 62
     7
370
     9
100
AcDbLine
 10
-843.0098357549538
 20
-256.2207500267594
 30
0.0
 11
-841.5098586431374
 21
-256.2207500267594
 31
0.0
  0
LINE
  5
F6
330
1F
100
AcDbEntity
  8
D-0
  6
Continuous
 62
     7
370
     9
100
AcDbLine
 10
-841.5098586431374
 20
-256.2207500267594
 30
0.0
 11
-841.5098586431374
 21
-257.721101455745
 31
0.0
  0
LINE
  5
F7
330
1F
100
AcDbEntity
  8
D-0
  6
Continuous
 62
     7
370
     9
100
AcDbLine
 10
-841.5098586431374
 20
-257.721101455745
 30
0.0
 11
-843.0098357549538
 21
-257.721101455745
 31
0.0
  0
LINE
  5
F8
330
1F
100
AcDbEntity
  8
D-0
  6
Continuous
 62
     7
370
     9
100
AcDbLine
 10
-800.3744712224831
 20
-281.4074627686112
 30
0.0
 11
-800.3744712224831
 21
-279.9071137238114
 31
0.0
  0
LINE
  5
F9
330
1F
100
AcDbEntity
  8
D-0
  6
Continuous
 62
     7
370
     9
100
AcDbLine
 10
-800.3744712224831
 20
-279.9071137238114
 30
0.0
 11
-798.8744941106667
 21
-279.9071137238114
 31
0.0
  0
LINE
  5
FA
330
1F
100
AcDbEntity
  8
D-0
  6
Continuous
 62
     7
370
     9
100
AcDbLine
 10
-798.8744941106667
 20
-279.9071137238114
 30
0.0
 11
-798.8744941106667
 21
-281.4074627686112
 31
0.0
  0
LINE
  5
FB
330
1F
100
AcDbEntity
  8
D-0
  6
Continuous
 62
     7
370
     9
100
AcDbLine
 10
-798.8744941106667
 20
-281.4074627686112
 30
0.0
 11
-800.3744712224831
 21
-281.4074627686112
 31
0.0
  0
LINE
  5
FC
330
1F
100
AcDbEntity
  8
D-0
  6
Continuous
 62
     7
370
     9
100
AcDbLine
 10
-776.6885390630592
 20
-260.4282776642411
 30
0.0
 11
-776.6885390630592
 21
-258.9280502129166
 31
0.0
  0
LINE
  5
FD
330
1F
100
AcDbEntity
  8
D-0
  6
Continuous
 62
     7
370
     9
100
AcDbLine
 10
-776.6885390630592
 20
-258.9280502129166
 30
0.0
 11
-775.1885619512428
 21
-258.9280502129166
 31
0.0
  0
LINE
  5
FE
330
1F
100
AcDbEntity
  8
D-0
  6
Continuous
 62
     7
370
     9
100
AcDbLine
 10
-775.1885619512428
 20
-258.9280502129166
 30
0.0
 11
-775.1885619512428
 21
-260.4282776642411
 31
0.0
  0
LINE
  5
FF
330
1F
100
AcDbEntity
  8
D-0
  6
Continuous
 62
     7
370
     9
100
AcDbLine
 10
-775.1885619512428
 20
-260.4282776642411
 30
0.0
 11
-776.6885390630592
 21
-260.4282776642411
 31
0.0
  0
LINE
  5
100
330
1F
100
AcDbEntity
  8
D-0
  6
Continuous
 62
     7
370
     9
100
AcDbLine
 10
-848.4238162389626
 20
-296.972605400142
 30
0.0
 11
-848.4238162389626
 21
-295.4723135758011
 31
0.0
  0
LINE
  5
101
330
1F
100
AcDbEntity
  8
D-0
  6
Continuous
 62
     7
370
     9
100
AcDbLine
 10
-848.4238162389626
 20
-295.4723135758011
 30
0.0
 11
-846.9238391271462
 21
-295.4723135758011
 31
0.0
  0
LINE
  5
102
330
1F
100
AcDbEntity
  8
D-0
  6
Continuous
 62
     7
370
     9
100
AcDbLine
 10
-846.9238391271462
 20
-295.4723135758011
 30
0.0
 11
-846.9238391271462
 21
-296.972605400142
 31
0.0
  0
LINE
  5
103
330
1F
100
AcDbEntity
  8
D-0
  6
Continuous
 62
     7
370
     9
100
AcDbLine
 10
-846.9238391271462
 20
-296.972605400142
 30
0.0
 11
-848.4238162389626
 21
-296.972605400142
 31
0.0
  0
LINE
  5
104
330
1F
100
AcDbEntity
  8
D-0
  6
Continuous
 62
     7
370
     9
100
AcDbLine
 10
-872.1097483983864
 20
-332.840058021602
 30
0.0
 11
-872.1097483983864
 21
-331.3398329544633
 31
0.0
  0
LINE
  5
105
330
1F
100
AcDbEntity
  8
D-0
  6
Continuous
 62
     7
370
     9
100
AcDbLine
 10
-872.1097483983864
 20
-331.3398329544633
 30
0.0
 11
-870.60977128657
 21
-331.3398329544633
 31
0.0
  0
LINE
  5
106
330
1F
100
AcDbEntity
  8
D-0
  6
Continuous
 62
     7
370
     9
100
AcDbLine
 10
-870.60977128657
 20
-331.3398329544633
 30
0.0
 11
-870.60977128657
 21
-332.840058021602
 31
0.0
  0
LINE
  5
107
330
1F
100
AcDbEntity
  8
D-0
  6
Continuous
 62
     7
370
     9
100
AcDbLine
 10
-870.60977128657
 20
-332.840058021602
 30
0.0
 11
-872.1097483983864
 21
-332.840058021602
 31
0.0
  0
LINE
  5
108
330
1F
100
AcDbEntity
  8
D-0
  6
Continuous
 62
     7
370
     9
100
AcDbLine
 10
-776.0115447393288
 20
-329.4565645981401
 30
0.0
 11
-776.0115447393288
 21
-327.9562727737992
 31
0.0
  0
LINE
  5
109
330
1F
100
AcDbEntity
  8
D-0
  6
Continuous
 62
     7
370
     9
100
AcDbLine
 10
-776.0115447393288
 20
-327.9562727737992
 30
0.0
 11
-774.5115676275124
 21
-327.9562727737992
 31
0.0
  0
LINE
  5
10A
330
1F
100
AcDbEntity
  8
D-0
  6
Continuous
 62
     7
370
     9
100
AcDbLine
 10
-774.5115676275124
 20
-327.9562727737992
 30
0.0
 11
-774.5115676275124
 21
-329.4565645981401
 31
0.0
  0
LINE
  5
10B
330
1F
100
AcDbEntity
  8
D-0
  6
Continuous
 62
     7
370
     9
100
AcDbLine
 10
-774.5115676275124
 20
-329.4565645981401
 30
0.0
 11
-776.0115447393288
 21
-329.4565645981401
 31
0.0
  0
LINE
  5
10C
330
1F
100
AcDbEntity
  8
D-0
  6
Continuous
 62
     7
370
     9
100
AcDbLine
 10
-689.38831475886
 20
-267.1954480934708
 30
0.0
 11
-689.38831475886
 21
-265.6951586533158
 31
0.0
  0
LINE
  5
10D
330
1F
100
AcDbEntity
  8
D-0
  6
Continuous
 62
     7
370
     9
100
AcDbLine
 10
-689.38831475886
 20
-265.6951586533158
 30
0.0
 11
-687.8883376470436
 21
-265.6951586533158
 31
0.0
  0
LINE
  5
10E
330
1F
100
AcDbEntity
  8
D-0
  6
Continuous
 62
     7
370
     9
100
AcDbLine
 10
-687.8883376470436
 20
-265.6951586533158
 30
0.0
 11
-687.8883376470436
 21
-267.1954480934708
 31
0.0
  0
LINE
  5
10F
330
1F
100
AcDbEntity
  8
D-0
  6
Continuous
 62
     7
370
     9
100
AcDbLine
 10
-687.8883376470436
 20
-267.1954480934708
 30
0.0
 11
-689.38831475886
 21
-267.1954480934708
 31
0.0
  0
LINE
  5
110
330
1F
100
AcDbEntity
  8
D-0
  6
Continuous
 62
     7
370
     9
100
AcDbLine
 10
-647.4299445501198
 20
-258.3979098129838
 30
0.0
 11
-647.4299445501198
 21
-256.8975595760911
 31
0.0
  0
LINE
  5
111
330
1F
100
AcDbEntity
  8
D-0
  6
Continuous
 62
     7
370
     9
100
AcDbLine
 10
-647.4299445501198
 20
-256.8975595760911
 30
0.0
 11
-645.9299674383034
 21
-256.8975595760911
 31
0.0
  0
LINE
  5
112
330
1F
100
AcDbEntity
  8
D-0
  6
Continuous
 62
     7
370
     9
100
AcDbLine
 10
-645.9299674383034
 20
-256.8975595760911
 30
0.0
 11
-645.9299674383034
 21
-258.3979098129838
 31
0.0
  0
LINE
  5
113
330
1F
100
AcDbEntity
  8
D-0
  6
Continuous
 62
     7
370
     9
100
AcDbLine
 10
-645.9299674383034
 20
-258.3979098129838
 30
0.0
 11
-647.4299445501198
 21
-258.3979098129838
 31
0.0
  0
LINE
  5
114
330
1F
100
AcDbEntity
  8
D-0
  6
Continuous
 62
     7
370
     9
100
AcDbLine
 10
-596.6741004339088
 20
-261.1050884056656
 30
0.0
 11
-596.6741004339088
 21
-259.6048609543412
 31
0.0
  0
LINE
  5
115
330
1F
100
AcDbEntity
  8
D-0
  6
Continuous
 62
     7
370
     9
100
AcDbLine
 10
-596.6741004339088
 20
-259.6048609543412
 30
0.0
 11
-595.1741233220924
 21
-259.6048609543412
 31
0.0
  0
LINE
  5
116
330
1F
100
AcDbEntity
  8
D-0
  6
Continuous
 62
     7
370
     9
100
AcDbLine
 10
-595.1741233220924
 20
-259.6048609543412
 30
0.0
 11
-595.1741233220924
 21
-261.1050884056656
 31
0.0
  0
LINE
  5
117
330
1F
100
AcDbEntity
  8
D-0
  6
Continuous
 62
     7
370
     9
100
AcDbLine
 10
-595.1741233220924
 20
-261.1050884056656
 30
0.0
 11
-596.6741004339088
 21
-261.1050884056656
 31
0.0
  0
LINE
  5
118
330
1F
100
AcDbEntity
  8
D-0
  6
Continuous
 62
     7
370
     9
100
AcDbLine
 10
-531.7062964788307
 20
-259.0747205544083
 30
0.0
 11
-531.7062964788307
 21
-257.5744311142533
 31
0.0
  0
LINE
  5
119
330
1F
100
AcDbEntity
  8
D-0
  6
Continuous
 62
     7
370
     9
100
AcDbLine
 10
-531.7062964788307
 20
-257.5744311142533
 30
0.0
 11
-530.2063193670143
 21
-257.5744311142533
 31
0.0
  0
LINE
  5
11A
330
1F
100
AcDbEntity
  8
D-0
  6
Continuous
 62
     7
370
     9
100
AcDbLine
 10
-530.2063193670143
 20
-257.5744311142533
 30
0.0
 11
-530.2063193670143
 21
-259.0747205544083
 31
0.0
  0
LINE
  5
11B
330
1F
100
AcDbEntity
  8
D-0
  6
Continuous
 62
     7
370
     9
100
AcDbLine
 10
-530.2063193670143
 20
-259.0747205544083
 30
0.0
 11
-531.7062964788307
 21
-259.0747205544083
 31
0.0
  0
LINE
  5
11C
330
1F
100
AcDbEntity
  8
D-0
  6
Continuous
 62
     7
370
     9
100
AcDbLine
 10
-556.0692038884987
 20
-291.5586201477616
 30
0.0
 11
-556.0692038884987
 21
-290.0583330917923
 31
0.0
  0
LINE
  5
11D
330
1F
100
AcDbEntity
  8
D-0
  6
Continuous
 62
     7
370
     9
100
AcDbLine
 10
-556.0692038884987
 20
-290.0583330917923
 30
0.0
 11
-554.5692267766823
 21
-290.0583330917923
 31
0.0
  0
LINE
  5
11E
330
1F
100
AcDbEntity
  8
D-0
  6
Continuous
 62
     7
370
     9
100
AcDbLine
 10
-554.5692267766823
 20
-290.0583330917923
 30
0.0
 11
-554.5692267766823
 21
-291.5586201477616
 31
0.0
  0
LINE
  5
11F
330
1F
100
AcDbEntity
  8
D-0
  6
Continuous
 62
     7
370
     9
100
AcDbLine
 10
-554.5692267766823
 20
-291.5586201477616
 30
0.0
 11
-556.0692038884987
 21
-291.5586201477616
 31
0.0
  0
LINE
  5
120
330
1F
100
AcDbEntity
  8
D-0
  6
Continuous
 62
     7
370
     9
100
AcDbLine
 10
-595.9971061101784
 20
-315.2444855499833
 30
0.0
 11
-595.9971061101784
 21
-313.744198494014
 31
0.0
  0
LINE
  5
121
330
1F
100
AcDbEntity
  8
D-0
  6
Continuous
 62
     7
370
     9
100
AcDbLine
 10
-595.9971061101784
 20
-313.744198494014
 30
0.0
 11
-594.497128998362
 21
-313.744198494014
 31
0.0
  0
LINE
  5
122
330
1F
100
AcDbEntity
  8
D-0
  6
Continuous
 62
     7
370
     9
100
AcDbLine
 10
-594.497128998362
 20
-313.744198494014
 30
0.0
 11
-594.497128998362
 21
-315.2444855499833
 31
0.0
  0
LINE
  5
123
330
1F
100
AcDbEntity
  8
D-0
  6
Continuous
 62
     7
370
     9
100
AcDbLine
 10
-594.497128998362
 20
-315.2444855499833
 30
0.0
 11
-595.9971061101784
 21
-315.2444855499833
 31
0.0
  0
LINE
  5
124
330
1F
100
AcDbEntity
  8
D-0
  6
Continuous
 62
     7
370
     9
100
AcDbLine
 10
-623.7439933172096
 20
-329.4565645981401
 30
0.0
 11
-623.7439933172096
 21
-327.9562727737992
 31
0.0
  0
LINE
  5
125
330
1F
100
AcDbEntity
  8
D-0
  6
Continuous
 62
     7
370
     9
100
AcDbLine
 10
-623.7439933172096
 20
-327.9562727737992
 30
0.0
 11
-622.2435202947487
 21
-327.9562727737992
 31
0.0
  0
LINE
  5
126
330
1F
100
AcDbEntity
  8
D-0
  6
Continuous
 62
     7
370
     9
100
AcDbLine
 10
-622.2435202947487
 20
-327.9562727737992
 30
0.0
 11
-622.2435202947487
 21
-329.4565645981401
 31
0.0
  0
LINE
  5
127
330
1F
100
AcDbEntity
  8
D-0
  6
Continuous
 62
     7
370
     9
100
AcDbLine
 10
-622.2435202947487
 20
-329.4565645981401
 30
0.0
 11
-623.7439933172096
 21
-329.4565645981401
 31
0.0
  0
LINE
  5
128
330
1F
100
AcDbEntity
  8
D-0
  6
Continuous
 62
     7
370
     9
100
AcDbLine
 10
-648.7834372869362
 20
-300.3561560440629
 30
0.0
 11
-648.7834372869362
 21
-298.8558689880936
 31
0.0
  0
LINE
  5
129
330
1F
100
AcDbEntity
  8
D-0
  6
Continuous
 62
     7
370
     9
100
AcDbLine
 10
-648.7834372869362
 20
-298.8558689880936
 30
0.0
 11
-647.2834601751198
 21
-298.8558689880936
 31
0.0
  0
LINE
  5
12A
330
1F
100
AcDbEntity
  8
D-0
  6
Continuous
 62
     7
370
     9
100
AcDbLine
 10
-647.2834601751198
 20
-298.8558689880936
 30
0.0
 11
-647.2834601751198
 21
-300.3561560440629
 31
0.0
  0
LINE
  5
12B
330
1F
100
AcDbEntity
  8
D-0
  6
Continuous
 62
     7
370
     9
100
AcDbLine
 10
-647.2834601751198
 20
-300.3561560440629
 30
0.0
 11
-648.7834372869362
 21
-300.3561560440629
 31
0.0
  0
LINE
  5
12C
330
1F
100
AcDbEntity
  8
D-0
  6
Continuous
 62
     7
370
     9
100
AcDbLine
 10
-694.8022857061256
 20
-310.5073134232132
 30
0.0
 11
-694.8022857061256
 21
-309.0070883560746
 31
0.0
  0
LINE
  5
12D
330
1F
100
AcDbEntity
  8
D-0
  6
Continuous
 62
     7
370
     9
100
AcDbLine
 10
-694.8022857061256
 20
-309.0070883560746
 30
0.0
 11
-693.3023085943092
 21
-309.0070883560746
 31
0.0
  0
LINE
  5
12E
330
1F
100
AcDbEntity
  8
D-0
  6
Continuous
 62
     7
370
     9
100
AcDbLine
 10
-693.3023085943092
 20
-309.0070883560746
 30
0.0
 11
-693.3023085943092
 21
-310.5073134232132
 31
0.0
  0
LINE
  5
12F
330
1F
100
AcDbEntity
  8
D-0
  6
Continuous
 62
     7
370
     9
100
AcDbLine
 10
-693.3023085943092
 20
-310.5073134232132
 30
0.0
 11
-694.8022857061256
 21
-310.5073134232132
 31
0.0
  0
LINE
  5
130
330
1F
100
AcDbEntity
  8
D-0
  6
Continuous
 62
     7
370
     9
100
AcDbLine
 10
-683.2973304143776
 20
-351.1124388504594
 30
0.0
 11
-683.2973304143776
 21
-349.6122042465776
 31
0.0
  0
LINE
  5
131
330
1F
100
AcDbEntity
  8
D-0
  6
Continuous
 62
     7
370
     9
100
AcDbLine
 10
-683.2973304143776
 20
-349.6122042465776
 30
0.0
 11
-681.7973533025612
 21
-349.6122042465776
 31
0.0
  0
LINE
  5
132
330
1F
100
AcDbEntity
  8
D-0
  6
Continuous
 62
     7
370
     9
100
AcDbLine
 10
-681.7973533025612
 20
-349.6122042465776
 30
0.0
 11
-681.7973533025612
 21
-351.1124388504594
 31
0.0
  0
LINE
  5
133
330
1F
100
AcDbEntity
  8
D-0
  6
Continuous
 62
     7
370
     9
100
AcDbLine
 10
-681.7973533025612
 20
-351.1124388504594
 30
0.0
 11
-683.2973304143776
 21
-351.1124388504594
 31
0.0
  0
LINE
  5
134
330
1F
100
AcDbEntity
  8
D-0
  6
Continuous
 62
     7
370
     9
100
AcDbLine
 10
-628.4810080877174
 20
-364.6472136307328
 30
0.0
 11
-628.4810080877174
 21
-363.146921806392
 31
0.0
  0
LINE
  5
135
330
1F
100
AcDbEntity
  8
D-0
  6
Continuous
 62
     7
370
     9
100
AcDbLine
 10
-628.4810080877174
 20
-363.146921806392
 30
0.0
 11
-626.981030975901
 21
-363.146921806392
 31
0.0
  0
LINE
  5
136
330
1F
100
AcDbEntity
  8
D-0
  6
Continuous
 62
     7
370
     9
100
AcDbLine
 10
-626.981030975901
 20
-363.146921806392
 30
0.0
 11
-626.981030975901
 21
-364.6472136307328
 31
0.0
  0
LINE
  5
137
330
1F
100
AcDbEntity
  8
D-0
  6
Continuous
 62
     7
370
     9
100
AcDbLine
 10
-626.981030975901
 20
-364.6472136307328
 30
0.0
 11
-628.4810080877174
 21
-364.6472136307328
 31
0.0
  0
LINE
  5
138
330
1F
100
AcDbEntity
  8
D-0
  6
Continuous
 62
     7
370
     9
100
AcDbLine
 10
-570.9576621404518
 20
-363.2935873795121
 30
0.0
 11
-570.9576621404518
 21
-361.7932955551713
 31
0.0
  0
LINE
  5
139
330
1F
100
AcDbEntity
  8
D-0
  6
Continuous
 62
     7
370
     9
100
AcDbLine
 10
-570.9576621404518
 20
-361.7932955551713
 30
0.0
 11
-569.4576850286354
 21
-361.7932955551713
 31
0.0
  0
LINE
  5
13A
330
1F
100
AcDbEntity
  8
D-0
  6
Continuous
 62
     7
370
     9
100
AcDbLine
 10
-569.4576850286354
 20
-361.7932955551713
 30
0.0
 11
-569.4576850286354
 21
-363.2935873795121
 31
0.0
  0
LINE
  5
13B
330
1F
100
AcDbEntity
  8
D-0
  6
Continuous
 62
     7
370
     9
100
AcDbLine
 10
-569.4576850286354
 20
-363.2935873795121
 30
0.0
 11
-570.9576621404518
 21
-363.2935873795121
 31
0.0
  0
LINE
  5
13C
330
1F
100
AcDbEntity
  8
D-0
  6
Continuous
 62
     7
370
     9
100
AcDbLine
 10
-521.5553107610573
 20
-362.6167837906449
 30
0.0
 11
-521.5553107610573
 21
-361.1164919663041
 31
0.0
  0
LINE
  5
13D
330
1F
100
AcDbEntity
  8
D-0
  6
Continuous
 62
     7
370
     9
100
AcDbLine
 10
-521.5553107610573
 20
-361.1164919663041
 30
0.0
 11
-520.0548377385963
 21
-361.1164919663041
 31
0.0
  0
LINE
  5
13E
330
1F
100
AcDbEntity
  8
D-0
  6
Continuous
 62
     7
370
     9
100
AcDbLine
 10
-520.0548377385963
 20
-361.1164919663041
 30
0.0
 11
-520.0548377385963
 21
-362.6167837906449
 31
0.0
  0
LINE
  5
13F
330
1F
100
AcDbEntity
  8
D-0
  6
Continuous
 62
     7
370
     9
100
AcDbLine
 10
-520.0548377385963
 20
-362.6167837906449
 30
0.0
 11
-521.5553107610573
 21
-362.6167837906449
 31
0.0
  0
LINE
  5
140
330
1F
100
AcDbEntity
  8
D-0
  6
Continuous
 62
     7
370
     9
100
AcDbLine
 10
-533.7367835393776
 20
-322.6889006424516
 30
0.0
 11
-533.7367835393776
 21
-321.1886755753129
 31
0.0
  0
LINE
  5
141
330
1F
100
AcDbEntity
  8
D-0
  6
Continuous
 62
     7
370
     9
100
AcDbLine
 10
-533.7367835393776
 20
-321.1886755753129
 30
0.0
 11
-532.2363105169167
 21
-321.1886755753129
 31
0.0
  0
LINE
  5
142
330
1F
100
AcDbEntity
  8
D-0
  6
Continuous
 62
     7
370
     9
100
AcDbLine
 10
-532.2363105169167
 20
-321.1886755753129
 30
0.0
 11
-532.2363105169167
 21
-322.6889006424516
 31
0.0
  0
LINE
  5
143
330
1F
100
AcDbEntity
  8
D-0
  6
Continuous
 62
     7
370
     9
100
AcDbLine
 10
-532.2363105169167
 20
-322.6889006424516
 30
0.0
 11
-533.7367835393776
 21
-322.6889006424516
 31
0.0
  0
LINE
  5
144
330
1F
100
AcDbEntity
  8
D-0
  6
Continuous
 62
     7
370
     9
100
AcDbLine
 10
-1051.489764725291
 20
-418.9986578751176
 30
0.0
 11
-1051.489764725291
 21
-417.498318367061
 31
0.0
  0
LINE
  5
145
330
1F
100
AcDbEntity
  8
D-0
  6
Continuous
 62
     7
370
     9
100
AcDbLine
 10
-1051.489764725291
 20
-417.498318367061
 30
0.0
 11
-1049.989787613474
 21
-417.498318367061
 31
0.0
  0
LINE
  5
146
330
1F
100
AcDbEntity
  8
D-0
  6
Continuous
 62
     7
370
     9
100
AcDbLine
 10
-1049.989787613474
 20
-417.498318367061
 30
0.0
 11
-1049.989787613474
 21
-418.9986578751176
 31
0.0
  0
LINE
  5
147
330
1F
100
AcDbEntity
  8
D-0
  6
Continuous
 62
     7
370
     9
100
AcDbLine
 10
-1049.989787613474
 20
-418.9986578751176
 30
0.0
 11
-1051.489764725291
 21
-418.9986578751176
 31
0.0
  0
LINE
  5
148
330
1F
100
AcDbEntity
  8
D-0
  6
Continuous
 62
     7
370
     9
100
AcDbLine
 10
-964.6972766271462
 20
-582.3061148453323
 30
0.0
 11
-964.6972766271462
 21
-580.8058325577347
 31
0.0
  0
LINE
  5
149
330
1F
100
AcDbEntity
  8
D-0
  6
Continuous
 62
     7
370
     9
100
AcDbLine
 10
-964.6972766271462
 20
-580.8058325577347
 30
0.0
 11
-963.197297131144
 21
-580.8058325577347
 31
0.0
  0
LINE
  5
14A
330
1F
100
AcDbEntity
  8
D-0
  6
Continuous
 62
     7
370
     9
100
AcDbLine
 10
-963.197297131144
 20
-580.8058325577347
 30
0.0
 11
-963.197297131144
 21
-582.3061148453323
 31
0.0
  0
LINE
  5
14B
330
1F
100
AcDbEntity
  8
D-0
  6
Continuous
 62
     7
370
     9
100
AcDbLine
 10
-963.197297131144
 20
-582.3061148453323
 30
0.0
 11
-964.6972766271462
 21
-582.3061148453323
 31
0.0
  0
LINE
  5
14C
330
1F
100
AcDbEntity
  8
D-0
  6
Continuous
 62
     7
370
     9
100
AcDbLine
 10
-953.1453013172974
 20
-534.30932682043
 30
0.0
 11
-953.1453013172974
 21
-532.8090445328323
 31
0.0
  0
LINE
  5
14D
330
1F
100
AcDbEntity
  8
D-0
  6
Continuous
 62
     7
370
     9
100
AcDbLine
 10
-953.1453013172974
 20
-532.8090445328323
 30
0.0
 11
-951.6453210762371
 21
-532.8090445328323
 31
0.0
  0
LINE
  5
14E
330
1F
100
AcDbEntity
  8
D-0
  6
Continuous
 62
     7
370
     9
100
AcDbLine
 10
-951.6453210762371
 20
-532.8090445328323
 30
0.0
 11
-951.6453210762371
 21
-534.30932682043
 31
0.0
  0
LINE
  5
14F
330
1F
100
AcDbEntity
  8
D-0
  6
Continuous
 62
     7
370
     9
100
AcDbLine
 10
-951.6453210762371
 20
-534.30932682043
 30
0.0
 11
-953.1453013172974
 21
-534.30932682043
 31
0.0
  0
LINE
  5
150
330
1F
100
AcDbEntity
  8
D-0
  6
Continuous
 62
     7
370
     9
100
AcDbLine
 10
-1053.01250604304
 20
-584.5902411270706
 30
0.0
 11
-1053.01250604304
 21
-583.089958839473
 31
0.0
  0
LINE
  5
151
330
1F
100
AcDbEntity
  8
D-0
  6
Continuous
 62
     7
370
     9
100
AcDbLine
 10
-1053.01250604304
 20
-583.089958839473
 30
0.0
 11
-1051.512528931223
 21
-583.089958839473
 31
0.0
  0
LINE
  5
152
330
1F
100
AcDbEntity
  8
D-0
  6
Continuous
 62
     7
370
     9
100
AcDbLine
 10
-1051.512528931223
 20
-583.089958839473
 30
0.0
 11
-1051.512528931223
 21
-584.5902411270706
 31
0.0
  0
LINE
  5
153
330
1F
100
AcDbEntity
  8
D-0
  6
Continuous
 62
     7
370
     9
100
AcDbLine
 10
-1051.512528931223
 20
-584.5902411270706
 30
0.0
 11
-1053.01250604304
 21
-584.5902411270706
 31
0.0
  0
LINE
  5
154
330
1F
100
AcDbEntity
  8
D-0
  6
Continuous
 62
     7
370
     9
100
AcDbLine
 10
-1008.854891335093
 20
-587.6353995133011
 30
0.0
 11
-1008.854891335093
 21
-586.1351553726761
 31
0.0
  0
LINE
  5
155
330
1F
100
AcDbEntity
  8
D-0
  6
Continuous
 62
     7
370
     9
100
AcDbLine
 10
-1008.854891335093
 20
-586.1351553726761
 30
0.0
 11
-1007.354914223277
 21
-586.1351553726761
 31
0.0
  0
LINE
  5
156
330
1F
100
AcDbEntity
  8
D-0
  6
Continuous
 62
     7
370
     9
100
AcDbLine
 10
-1007.354914223277
 20
-586.1351553726761
 30
0.0
 11
-1007.354914223277
 21
-587.6353995133011
 31
0.0
  0
LINE
  5
157
330
1F
100
AcDbEntity
  8
D-0
  6
Continuous
 62
     7
370
     9
100
AcDbLine
 10
-1007.354914223277
 20
-587.6353995133011
 30
0.0
 11
-1008.854891335093
 21
-587.6353995133011
 31
0.0
  0
LINE
  5
158
330
1F
100
AcDbEntity
  8
D-0
  6
Continuous
 62
     7
370
     9
100
AcDbLine
 10
-1055.428020035349
 20
-530.1639715958206
 30
0.0
 11
-1055.428020035349
 21
-528.663689308223
 31
0.0
  0
LINE
  5
159
330
1F
100
AcDbEntity
  8
D-0
  6
Continuous
 62
     7
370
     9
100
AcDbLine
 10
-1055.428020035349
 20
-528.663689308223
 30
0.0
 11
-1053.92803338679
 21
-528.663689308223
 31
0.0
  0
LINE
  5
15A
330
1F
100
AcDbEntity
  8
D-0
  6
Continuous
 62
     7
370
     9
100
AcDbLine
 10
-1053.92803338679
 20
-528.663689308223
 30
0.0
 11
-1053.92803338679
 21
-530.1639715958206
 31
0.0
  0
LINE
  5
15B
330
1F
100
AcDbEntity
  8
D-0
  6
Continuous
 62
     7
370
     9
100
AcDbLine
 10
-1053.92803338679
 20
-530.1639715958206
 30
0.0
 11
-1055.428020035349
 21
-530.1639715958206
 31
0.0
  0
LINE
  5
15C
330
1F
100
AcDbEntity
  8
D-0
  6
Continuous
 62
     7
370
     9
100
AcDbLine
 10
-1047.683145081126
 20
-669.8604361343948
 30
0.0
 11
-1047.683145081126
 21
-668.3601156998245
 31
0.0
  0
LINE
  5
15D
330
1F
100
AcDbEntity
  8
D-0
  6
Continuous
 62
     7
370
     9
100
AcDbLine
 10
-1047.683145081126
 20
-668.3601156998245
 30
0.0
 11
-1046.183167969309
 21
-668.3601156998245
 31
0.0
  0
LINE
  5
15E
330
1F
100
AcDbEntity
  8
D-0
  6
Continuous
 62
     7
370
     9
100
AcDbLine
 10
-1046.183167969309
 20
-668.3601156998245
 30
0.0
 11
-1046.183167969309
 21
-669.8604361343948
 31
0.0
  0
LINE
  5
15F
330
1F
100
AcDbEntity
  8
D-0
  6
Continuous
 62
     7
370
     9
100
AcDbLine
 10
-1046.183167969309
 20
-669.8604361343948
 30
0.0
 11
-1047.683145081126
 21
-669.8604361343948
 31
0.0
  0
LINE
  5
160
330
1F
100
AcDbEntity
  8
D-0
  6
Continuous
 62
     7
370
     9
100
AcDbLine
 10
-995.9123053899635
 20
-666.0532538223831
 30
0.0
 11
-995.9123053899635
 21
-664.5529715347855
 31
0.0
  0
LINE
  5
161
330
1F
100
AcDbEntity
  8
D-0
  6
Continuous
 62
     7
370
     9
100
AcDbLine
 10
-995.9123053899635
 20
-664.5529715347855
 30
0.0
 11
-994.411827599131
 21
-664.5529715347855
 31
0.0
  0
LINE
  5
162
330
1F
100
AcDbEntity
  8
D-0
  6
Continuous
 62
     7
370
     9
100
AcDbLine
 10
-994.411827599131
 20
-664.5529715347855
 30
0.0
 11
-994.411827599131
 21
-666.0532538223831
 31
0.0
  0
LINE
  5
163
330
1F
100
AcDbEntity
  8
D-0
  6
Continuous
 62
     7
370
     9
100
AcDbLine
 10
-994.411827599131
 20
-666.0532538223831
 30
0.0
 11
-995.9123053899635
 21
-666.0532538223831
 31
0.0
  0
LINE
  5
164
330
1F
100
AcDbEntity
  8
D-0
  6
Continuous
 62
     7
370
     9
100
AcDbLine
 10
-946.0442733517517
 20
-667.9568259049026
 30
0.0
 11
-946.0442733517517
 21
-666.456543617305
 31
0.0
  0
LINE
  5
165
330
1F
100
AcDbEntity
  8
D-0
  6
Continuous
 62
     7
370
     9
100
AcDbLine
 10
-946.0442733517517
 20
-666.456543617305
 30
0.0
 11
-944.5442932597031
 21
-666.456543617305
 31
0.0
  0
LINE
  5
166
330
1F
100
AcDbEntity
  8
D-0
  6
Continuous
 62
     7
370
     9
100
AcDbLine
 10
-944.5442932597031
 20
-666.456543617305
 30
0.0
 11
-944.5442932597031
 21
-667.9568259049026
 31
0.0
  0
LINE
  5
167
330
1F
100
AcDbEntity
  8
D-0
  6
Continuous
 62
     7
370
     9
100
AcDbLine
 10
-944.5442932597031
 20
-667.9568259049026
 30
0.0
 11
-946.0442733517517
 21
-667.9568259049026
 31
0.0
  0
LINE
  5
168
330
1F
100
AcDbEntity
  8
D-0
  6
Continuous
 62
     7
370
     9
100
AcDbLine
 10
-970.7877602926125
 20
-693.8421408463089
 30
0.0
 11
-970.7877602926125
 21
-692.3418585587112
 31
0.0
  0
LINE
  5
169
330
1F
100
AcDbEntity
  8
D-0
  6
Continuous
 62
     7
370
     9
100
AcDbLine
 10
-970.7877602926125
 20
-692.3418585587112
 30
0.0
 11
-969.2877807966103
 21
-692.3418585587112
 31
0.0
  0
LINE
  5
16A
330
1F
100
AcDbEntity
  8
D-0
  6
Continuous
 62
     7
370
     9
100
AcDbLine
 10
-969.2877807966103
 20
-692.3418585587112
 30
0.0
 11
-969.2877807966103
 21
-693.8421408463089
 31
0.0
  0
LINE
  5
16B
330
1F
100
AcDbEntity
  8
D-0
  6
Continuous
 62
     7
370
     9
100
AcDbLine
 10
-969.2877807966103
 20
-693.8421408463089
 30
0.0
 11
-970.7877602926125
 21
-693.8421408463089
 31
0.0
  0
LINE
  5
16C
330
1F
100
AcDbEntity
  8
D-0
  6
Continuous
 62
     7
370
     9
100
AcDbLine
 10
-1011.138760124766
 20
-705.6431738663284
 30
0.0
 11
-1011.138760124766
 21
-704.1428915787308
 31
0.0
  0
LINE
  5
16D
330
1F
100
AcDbEntity
  8
D-0
  6
Continuous
 62
     7
370
     9
100
AcDbLine
 10
-1011.138760124766
 20
-704.1428915787308
 30
0.0
 11
-1009.638783012949
 21
-704.1428915787308
 31
0.0
  0
LINE
  5
16E
330
1F
100
AcDbEntity
  8
D-0
  6
Continuous
 62
     7
370
     9
100
AcDbLine
 10
-1009.638783012949
 20
-704.1428915787308
 30
0.0
 11
-1009.638783012949
 21
-705.6431738663284
 31
0.0
  0
LINE
  5
16F
330
1F
100
AcDbEntity
  8
D-0
  6
Continuous
 62
     7
370
     9
100
AcDbLine
 10
-1009.638783012949
 20
-705.6431738663284
 30
0.0
 11
-1011.138760124766
 21
-705.6431738663284
 31
0.0
  0
LINE
  5
170
330
1F
100
AcDbEntity
  8
D-0
  6
Continuous
 62
     7
370
     9
100
AcDbLine
 10
-1058.341867004954
 20
-703.3590857315628
 30
0.0
 11
-1058.341867004954
 21
-701.8588034439651
 31
0.0
  0
LINE
  5
171
330
1F
100
AcDbEntity
  8
D-0
  6
Continuous
 62
     7
370
     9
100
AcDbLine
 10
-1058.341867004954
 20
-701.8588034439651
 30
0.0
 11
-1056.841889893137
 21
-701.8588034439651
 31
0.0
  0
LINE
  5
172
330
1F
100
AcDbEntity
  8
D-0
  6
Continuous
 62
     7
370
     9
100
AcDbLine
 10
-1056.841889893137
 20
-701.8588034439651
 30
0.0
 11
-1056.841889893137
 21
-703.3590857315628
 31
0.0
  0
LINE
  5
173
330
1F
100
AcDbEntity
  8
D-0
  6
Continuous
 62
     7
370
     9
100
AcDbLine
 10
-1056.841889893137
 20
-703.3590857315628
 30
0.0
 11
-1058.341867004954
 21
-703.3590857315628
 31
0.0
  0
LINE
  5
174
330
1F
100
AcDbEntity
  8
D-0
  6
Continuous
 62
     7
370
     9
100
AcDbLine
 10
-1041.973229919993
 20
-731.9094626236526
 30
0.0
 11
-1041.973229919993
 21
-730.409180336055
 31
0.0
  0
LINE
  5
175
330
1F
100
AcDbEntity
  8
D-0
  6
Continuous
 62
     7
370
     9
100
AcDbLine
 10
-1041.973229919993
 20
-730.409180336055
 30
0.0
 11
-1040.473243271433
 21
-730.409180336055
 31
0.0
  0
LINE
  5
176
330
1F
100
AcDbEntity
  8
D-0
  6
Continuous
 62
     7
370
     9
100
AcDbLine
 10
-1040.473243271433
 20
-730.409180336055
 30
0.0
 11
-1040.473243271433
 21
-731.9094626236526
 31
0.0
  0
LINE
  5
177
330
1F
100
AcDbEntity
  8
D-0
  6
Continuous
 62
     7
370
     9
100
AcDbLine
 10
-1040.473243271433
 20
-731.9094626236526
 30
0.0
 11
-1041.973229919993
 21
-731.9094626236526
 31
0.0
  0
LINE
  5
178
330
1F
100
AcDbEntity
  8
D-0
  6
Continuous
 62
     7
370
     9
100
AcDbLine
 10
-990.2018895498146
 20
-730.3869025040237
 30
0.0
 11
-990.2018895498146
 21
-728.8866202164261
 31
0.0
  0
LINE
  5
179
330
1F
100
AcDbEntity
  8
D-0
  6
Continuous
 62
     7
370
     9
100
AcDbLine
 10
-990.2018895498146
 20
-728.8866202164261
 30
0.0
 11
-988.7019076696266
 21
-728.8866202164261
 31
0.0
  0
LINE
  5
17A
330
1F
100
AcDbEntity
  8
D-0
  6
Continuous
 62
     7
370
     9
100
AcDbLine
 10
-988.7019076696266
 20
-728.8866202164261
 30
0.0
 11
-988.7019076696266
 21
-730.3869025040237
 31
0.0
  0
LINE
  5
17B
330
1F
100
AcDbEntity
  8
D-0
  6
Continuous
 62
     7
370
     9
100
AcDbLine
 10
-988.7019076696266
 20
-730.3869025040237
 30
0.0
 11
-990.2018895498146
 21
-730.3869025040237
 31
0.0
  0
LINE
  5
17C
330
1F
100
AcDbEntity
  8
D-0
  6
Continuous
 62
     7
370
     9
100
AcDbLine
 10
-952.1352520337929
 20
-730.3869025040237
 30
0.0
 11
-952.1352520337929
 21
-728.8866202164261
 31
0.0
  0
LINE
  5
17D
330
1F
100
AcDbEntity
  8
D-0
  6
Continuous
 62
     7
370
     9
100
AcDbLine
 10
-952.1352520337929
 20
-728.8866202164261
 30
0.0
 11
-950.6347769251694
 21
-728.8866202164261
 31
0.0
  0
LINE
  5
17E
330
1F
100
AcDbEntity
  8
D-0
  6
Continuous
 62
     7
370
     9
100
AcDbLine
 10
-950.6347769251694
 20
-728.8866202164261
 30
0.0
 11
-950.6347769251694
 21
-730.3869025040237
 31
0.0
  0
LINE
  5
17F
330
1F
100
AcDbEntity
  8
D-0
  6
Continuous
 62
     7
370
     9
100
AcDbLine
 10
-950.6347769251694
 20
-730.3869025040237
 30
0.0
 11
-952.1352520337929
 21
-730.3869025040237
 31
0.0
  0
ARC
  5
180
330
1F
100
AcDbEntity
  8
D-1
  6
Continuous
 62
     2
370
     9
100
AcDbCircle
 10
-939.2753091207375
 20
-362.4487654495805
 30
0.0
 40
15.0
100
AcDbArc
 50
270.0
 51
0.0
  0
LWPOLYLINE
  5
181
330
1F
100
AcDbEntity
  8
D-4
  6
Continuous
 62
     7
370
     9
100
AcDbPolyline
 90
        4
 70
     1
 43
2.0
 10
-673.2737021795144
 20
-797.531868629512
 42
0.4142135623731
 10
-674.2737021795143
 20
-796.531868629512
 42
0.4142135623731
 10
-675.2737021795143
 20
-797.531868629512
 42
0.4142135623731
 10
-674.2737021795143
 20
-798.5318686295119
 42
0.4142135623731
  0
LWPOLYLINE
  5
182
330
1F
100
AcDbEntity
  8
D-4
  6
Continuous
 62
     7
370
     9
100
AcDbPolyline
 90
        4
 70
     1
 43
2.0
 10
-1073.274512802683
 20
-797.531868629512
 42
0.4142135623731
 10
-1074.274512802683
 20
-796.531868629512
 42
0.4142135623731
 10
-1075.274512802683
 20
-797.531868629512
 42
0.4142135623731
 10
-1074.274512802683
 20
-798.5318686295119
 42
0.4142135623731
  0
LWPOLYLINE
  5
183
330
1F
100
AcDbEntity
  8
D-4
  6
Continuous
 62
     7
370
     9
100
AcDbPolyline
 90
        4
 70
     1
 43
2.0
 10
-923.2750134816995
 20
-643.0674521256058
 42
0.4142135623731
 10
-924.2750134816994
 20
-642.0674521256058
 42
0.4142135623731
 10
-925.2750134816994
 20
-643.0674521256058
 42
0.4142135623731
 10
-924.2750134816994
 20
-644.0674521256057
 42
0.4142135623731
  0
LWPOLYLINE
  5
184
330
1F
100
AcDbEntity
  8
D-4
  6
Continuous
 62
     7
370
     9
100
AcDbPolyline
 90
        4
 70
     1
 43
2.0
 10
-1073.274512802683
 20
-643.0674521256058
 42
0.4142135623731
 10
-1074.274512802683
 20
-642.0674521256058
 42
0.4142135623731
 10
-1075.274512802683
 20
-643.0674521256058
 42
0.4142135623731
 10
-1074.274512802683
 20
-644.0674521256057
 42
0.4142135623731
  0
LWPOLYLINE
  5
185
330
1F
100
AcDbEntity
  8
D-4
  6
Continuous
 62
     7
370
     9
100
AcDbPolyline
 90
        4
 70
     1
 43
2.0
 10
-938.2738249650827
 20
-10.27702014928746
 42
0.4142135623731
 10
-939.2738249650826
 20
-9.277020149287459
 42
0.4142135623731
 10
-940.2738249650826
 20
-10.27702014928746
 42
0.4142135623731
 10
-939.2738249650826
 20
-11.27702014928746
 42
0.4142135623731
  0
LWPOLYLINE
  5
186
330
1F
100
AcDbEntity
  8
D-4
  6
Continuous
 62
     7
370
     9
100
AcDbPolyline
 90
        4
 70
     1
 43
2.0
 10
-1073.274512802683
 20
-119.0294710922806
 42
0.4142135623731
 10
-1074.274512802683
 20
-118.0294710922806
 42
0.4142135623731
 10
-1075.274512802683
 20
-119.0294710922806
 42
0.4142135623731
 10
-1074.274512802683
 20
-120.0294710922806
 42
0.4142135623731
  0
LWPOLYLINE
  5
187
330
1F
100
AcDbEntity
  8
D-4
  6
Continuous
 62
     7
370
     9
100
AcDbPolyline
 90
        4
 70
     1
 43
2.0
 10
-948.2738578604146
 20
-119.0294710922806
 42
0.4142135623731
 10
-949.2738578604145
 20
-118.0294710922806
 42
0.4142135623731
 10
-950.2738578604145
 20
-119.0294710922806
 42
0.4142135623731
 10
-949.2738578604145
 20
-120.0294710922806
 42
0.4142135623731
  0
LWPOLYLINE
  5
188
330
1F
100
AcDbEntity
  8
D-4
  6
Continuous
 62
     7
370
     9
100
AcDbPolyline
 90
        4
 70
     1
 43
2.0
 10
-948.2738578604146
 20
-10.27702014928746
 42
0.4142135623731
 10
-949.2738578604145
 20
-9.277020149287459
 42
0.4142135623731
 10
-950.2738578604145
 20
-10.27702014928746
 42
0.4142135623731
 10
-949.2738578604145
 20
-11.27702014928746
 42
0.4142135623731
  0
LWPOLYLINE
  5
189
330
1F
100
AcDbEntity
  8
D-4
  6
Continuous
 62
     7
370
     9
100
AcDbPolyline
 90
        4
 70
     1
 43
2.0
 10
-923.2750134816995
 20
-10.27702014928746
 42
0.4142135623731
 10
-924.2750134816994
 20
-9.277020149287459
 42
0.4142135623731
 10
-925.2750134816994
 20
-10.27702014928746
 42
0.4142135623731
 10
-924.2750134816994
 20
-11.27702014928746
 42
0.4142135623731
  0
LWPOLYLINE
  5
18A
330
1F
100
AcDbEntity
  8
D-4
  6
Continuous
 62
     7
370
     9
100
AcDbPolyline
 90
        4
 70
     1
 43
2.0
 10
-923.2750134816995
 20
100.4187234115035
 42
0.4142135623731
 10
-924.2750134816994
 20
101.4187234115035
 42
0.4142135623731
 10
-925.2750134816994
 20
100.4187234115035
 42
0.4142135623731
 10
-924.2750134816994
 20
99.41872341150356
 42
0.4142135623731
  0
LWPOLYLINE
  5
18B
330
1F
100
AcDbEntity
  8
D-4
  6
Continuous
 62
     7
370
     9
100
AcDbPolyline
 90
        4
 70
     1
 43
2.0
 10
-401.5901999822487
 20
-237.4484803782887
 42
0.4142135623731
 10
-402.5901999822487
 20
-236.4484803782887
 42
0.4142135623731
 10
-403.5901999822487
 20
-237.4484803782887
 42
0.4142135623731
 10
-402.5901999822487
 20
-238.4484803782887
 42
0.4142135623731
  0
LWPOLYLINE
  5
18C
330
1F
100
AcDbEntity
  8
D-4
  6
Continuous
 62
     7
370
     9
100
AcDbPolyline
 90
        4
 70
     1
 43
2.0
 10
-401.5901999822487
 20
-562.448746376094
 42
0.4142135623731
 10
-402.5901999822487
 20
-561.4487463760939
 42
0.4142135623731
 10
-403.5901999822487
 20
-562.448746376094
 42
0.4142135623731
 10
-402.5901999822487
 20
-563.448746376094
 42
0.4142135623731
  0
TEXT
  5
18D
330
1F
100
AcDbEntity
  8
D-4
  6
Continuous
 62
     2
370
     9
100
AcDbText
 10
-418.7602521673073
 20
-460.4535264383
 30
0.0
 40
30.48
  1
55～65
 50
90.00000250447756
 41
1.104166666666666
  7
ＭＳ ゴシック
100
AcDbText
  0
TEXT
  5
18E
330
1F
100
AcDbEntity
  8
D-4
  6
Continuous
 62
     2
370
     9
100
AcDbText
 10
-1058.47598222407
 20
-632.4276810074417
 30
0.0
 40
30.48
  1
25～30
 41
1.104166666666667
  7
ＭＳ ゴシック
100
AcDbText
  0
TEXT
  5
18F
330
1F
100
AcDbEntity
  8
D-4
  6
Continuous
 62
     2
370
     9
100
AcDbText
 10
-942.1426424136986
 20
-786.8916016007034
 30
0.0
 40
30.48
  1
75～80
 41
1.104166666666667
  7
ＭＳ ゴシック
100
AcDbText
  0
TEXT
  5
190
330
1F
100
AcDbEntity
  8
D-5
  6
Continuous
 62
     2
370
     9
100
AcDbText
 10
-1372.843801056467
 20
-911.7799072647659
 30
0.0
 40
30.48
  1
断面詳細図　Ｓ＝１：２
 41
1.113636363636363
  7
ＭＳ ゴシック
100
AcDbText
  0
TEXT
  5
191
330
1F
100
AcDbEntity
  8
D-4
  6
Continuous
 62
     2
370
     9
100
AcDbText
 10
-1033.023826157176
 20
-108.3891468430131
 30
0.0
 40
30.48
  1
25
 41
1.0625
  7
ＭＳ ゴシック
100
AcDbText
  0
TEXT
  5
192
330
1F
100
AcDbEntity
  8
D-4
  6
Continuous
 62
     2
370
     9
100
AcDbText
 10
-910.9736385694374
 20
0.3621978377730883
 30
0.0
 40
30.48
  1
3
 41
0.9999999999999998
  7
ＭＳ ゴシック
100
AcDbText
  0
TEXT
  5
193
330
1F
100
AcDbEntity
  8
D-4
  6
Continuous
 62
     2
370
     9
100
AcDbText
 10
-976.1146440854897
 20
0.3621978377730883
 30
0.0
 40
30.48
  1
2
 41
0.9999999999999998
  7
ＭＳ ゴシック
100
AcDbText
  0
LINE
  5
194
330
1F
100
AcDbEntity
  8
D-4
  6
Continuous
 62
     7
370
     9
100
AcDbLine
 10
-1074.26609185847
 20
-495.5514113236038
 30
0.0
 11
-924.2659798017372
 21
-495.5514113236038
 31
0.0
  0
LINE
  5
195
330
1F
100
AcDbEntity
  8
D-4
  6
Continuous
 62
     7
370
     9
100
AcDbLine
 10
-924.2659798017372
 20
-495.5514113236038
 30
0.0
 11
-754.2657580724587
 21
-495.5514113236038
 31
0.0
  0
LINE
  5
196
330
1F
100
AcDbEntity
  8
D-4
  6
Continuous
 62
     7
370
     9
100
AcDbLine
 10
-754.2657580724587
 20
-498.5514227676956
 30
0.0
 11
-754.2657580724587
 21
-413.9477412033647
 31
0.0
  0
LINE
  5
197
330
1F
100
AcDbEntity
  8
D-4
  6
Continuous
 62
     7
370
     9
100
AcDbLine
 10
-691.3097873082985
 20
-408.9478079605668
 30
0.0
 11
-749.2657580724587
 21
-408.9478079605668
 31
0.0
  0
LINE
  5
198
330
1F
100
AcDbEntity
  8
D-4
  6
Continuous
 62
     7
370
     9
100
AcDbLine
 10
-694.309779678904
 20
-377.4486319351762
 30
0.0
 11
-694.309779678904
 21
-494.1987578201858
 31
0.0
  0
LINE
  5
199
330
1F
100
AcDbEntity
  8
D-4
  6
Continuous
 62
     7
370
     9
100
AcDbLine
 10
-924.2659798017372
 20
-498.5514227676956
 30
0.0
 11
-924.2659798017372
 21
-413.9477412033647
 31
0.0
  0
LINE
  5
19A
330
1F
100
AcDbEntity
  8
D-9
  6
Continuous
 62
     4
370
     9
100
AcDbLine
 10
-884.2658009878029
 20
-408.9478079605668
 30
0.0
 11
-769.2657580724587
 21
-408.9478079605668
 31
0.0
  0
LINE
  5
19B
330
1F
100
AcDbEntity
  8
D-9
  6
Continuous
 62
     4
370
     9
100
AcDbLine
 10
-899.2658725133766
 20
-393.9477412033647
 30
0.0
 11
-899.2658725133766
 21
-379.9477736282914
 31
0.0
  0
LINE
  5
19C
330
1F
100
AcDbEntity
  8
D-9
  6
Continuous
 62
     4
370
     9
100
AcDbLine
 10
-754.2659488073219
 20
-393.9477412033647
 30
0.0
 11
-754.2659488073219
 21
-379.9477736282914
 31
0.0
  0
LINE
  5
19D
330
1F
100
AcDbEntity
  8
D-9
  6
Continuous
 62
     4
370
     9
100
AcDbLine
 10
-919.2659654966225
 20
-389.9478213120072
 30
0.0
 11
-919.2659654966225
 21
-379.9477736282914
 31
0.0
  0
LINE
  5
19E
330
1F
100
AcDbEntity
  8
D-9
  6
Continuous
 62
     4
370
     9
100
AcDbLine
 10
-899.2408480993141
 20
-389.9478213120072
 30
0.0
 11
-949.265676478533
 21
-389.9478213120072
 31
0.0
  0
LINE
  5
19F
330
1F
100
AcDbEntity
  8
D-9
  6
Continuous
 62
     4
370
     9
100
AcDbLine
 10
-754.2659488073219
 20
-379.9477736282914
 30
0.0
 11
-949.265676478533
 21
-379.9477736282914
 31
0.0
  0
LINE
  5
1A0
330
1F
100
AcDbEntity
  8
D-9
  6
Continuous
 62
     3
370
     9
100
AcDbLine
 10
-1049.266006027781
 20
-377.4491278458207
 30
0.0
 11
-1049.266006027781
 21
-399.9491087723344
 31
0.0
  0
LINE
  5
1A1
330
1F
100
AcDbEntity
  8
D-9
  6
Continuous
 62
     3
370
     9
100
AcDbLine
 10
-949.265676478533
 20
-399.9491087723344
 30
0.0
 11
-1049.266006027781
 21
-399.9491087723344
 31
0.0
  0
LINE
  5
1A2
330
1F
100
AcDbEntity
  8
D-9
  6
Continuous
 62
     3
370
     9
100
AcDbLine
 10
-949.265676478533
 20
-377.4491278458207
 30
0.0
 11
-1049.266006027781
 21
-377.4491278458207
 31
0.0
  0
LINE
  5
1A3
330
1F
100
AcDbEntity
  8
D-9
  6
Continuous
 62
     2
370
     9
100
AcDbLine
 10
-985.5161061635841
 20
-402.4477545548051
 30
0.0
 11
-985.5161061635841
 21
-399.9491087723344
 31
0.0
  0
LINE
  5
1A4
330
1F
100
AcDbEntity
  8
D-9
  6
Continuous
 62
     2
370
     9
100
AcDbLine
 10
-994.2668166509499
 20
-409.9471632767289
 30
0.0
 11
-985.5161061635841
 21
-402.4477545548051
 31
0.0
  0
LINE
  5
1A5
330
1F
100
AcDbEntity
  8
D-9
  6
Continuous
 62
     2
370
     9
100
AcDbLine
 10
-1004.265734230601
 20
-409.9471632767289
 30
0.0
 11
-994.2668166509499
 21
-409.9471632767289
 31
0.0
  0
LINE
  5
1A6
330
1F
100
AcDbEntity
  8
D-9
  6
Continuous
 62
     2
370
     9
100
AcDbLine
 10
-1013.016196762644
 20
-402.4477545548051
 30
0.0
 11
-1004.265734230601
 21
-409.9471632767289
 31
0.0
  0
LINE
  5
1A7
330
1F
100
AcDbEntity
  8
D-9
  6
Continuous
 62
     2
370
     9
100
AcDbLine
 10
-1013.016196762644
 20
-402.4477545548051
 30
0.0
 11
-1013.016196762644
 21
-399.9491087723344
 31
0.0
  0
LINE
  5
1A8
330
1F
100
AcDbEntity
  8
D-9
  6
Continuous
 62
     2
370
     9
100
AcDbLine
 10
-1013.016196762644
 20
-402.4477545548051
 30
0.0
 11
-985.5161061635841
 21
-402.4477545548051
 31
0.0
  0
LINE
  5
1A9
330
1F
100
AcDbEntity
  8
D-9
  6
Continuous
 62
     3
370
     9
100
AcDbLine
 10
-949.265676478533
 20
-377.4491278458207
 30
0.0
 11
-949.265676478533
 21
-399.9491087723344
 31
0.0
  0
LINE
  5
1AA
330
1F
100
AcDbEntity
  8
D-9
  6
Continuous
 62
     3
370
     9
100
AcDbLine
 10
-949.265676478533
 20
-387.4491278458207
 30
0.0
 11
-1049.266006027781
 21
-387.4491278458207
 31
0.0
  0
LINE
  5
1AB
330
1F
100
AcDbEntity
  8
D-9
  6
JWW_DASHED2
 62
     3
370
     9
100
AcDbLine
 10
-949.265676478533
 20
-389.9491087723344
 30
0.0
 11
-1049.266006027781
 21
-389.9491087723344
 31
0.0
  0
LINE
  5
1AC
330
1F
100
AcDbEntity
  8
D-9
  6
JWW_CENTER1
 62
     4
370
     9
100
AcDbLine
 10
-999.2658391347755
 20
-417.6881281662553
 30
0.0
 11
-999.2658391347755
 21
-377.4491278458207
 31
0.0
  0
ARC
  5
1AD
330
1F
100
AcDbEntity
  8
D-9
  6
Continuous
 62
     4
370
     9
100
AcDbCircle
 10
-884.2658009878029
 20
-393.9477412033647
 30
0.0
 40
15.00000238418579
100
AcDbArc
 50
180.0
 51
270.0
  0
ARC
  5
1AE
330
1F
100
AcDbEntity
  8
D-9
  6
Continuous
 62
     4
370
     9
100
AcDbCircle
 10
-769.2657580724587
 20
-393.9477412033647
 30
0.0
 40
15.00000238418579
100
AcDbArc
 50
270.0
 51
0.0
  0
LWPOLYLINE
  5
1AF
330
1F
100
AcDbEntity
  8
D-4
  6
Continuous
 62
     7
370
     9
100
AcDbPolyline
 90
        4
 70
     1
 43
2.0
 10
-1073.26609185847
 20
-495.5514113236038
 42
0.4142135623731
 10
-1074.26609185847
 20
-494.5514113236038
 42
0.4142135623731
 10
-1075.266091858469
 20
-495.5514113236038
 42
0.4142135623731
 10
-1074.26609185847
 20
-496.5514113236038
 42
0.4142135623731
  0
LWPOLYLINE
  5
1B0
330
1F
100
AcDbEntity
  8
D-4
  6
Continuous
 62
     7
370
     9
100
AcDbPolyline
 90
        4
 70
     1
 43
2.0
 10
-923.2659798017373
 20
-495.5514113236038
 42
0.4142135623731
 10
-924.2659798017372
 20
-494.5514113236038
 42
0.4142135623731
 10
-925.2659798017372
 20
-495.5514113236038
 42
0.4142135623731
 10
-924.2659798017372
 20
-496.5514113236038
 42
0.4142135623731
  0
LWPOLYLINE
  5
1B1
330
1F
100
AcDbEntity
  8
D-4
  6
Continuous
 62
     7
370
     9
100
AcDbPolyline
 90
        4
 70
     1
 43
2.0
 10
-753.2657580724588
 20
-495.5514113236038
 42
0.4142135623731
 10
-754.2657580724587
 20
-494.5514113236038
 42
0.4142135623731
 10
-755.2657580724587
 20
-495.5514113236038
 42
0.4142135623731
 10
-754.2657580724587
 20
-496.5514113236038
 42
0.4142135623731
  0
LWPOLYLINE
  5
1B2
330
1F
100
AcDbEntity
  8
D-4
  6
Continuous
 62
     7
370
     9
100
AcDbPolyline
 90
        4
 70
     1
 43
2.0
 10
-693.3097796789041
 20
-408.9478079605668
 42
0.4142135623731
 10
-694.309779678904
 20
-407.9478079605668
 42
0.4142135623731
 10
-695.309779678904
 20
-408.9478079605668
 42
0.4142135623731
 10
-694.309779678904
 20
-409.9478079605668
 42
0.4142135623731
  0
TEXT
  5
1B3
330
1F
100
AcDbEntity
  8
D-4
  6
Continuous
 62
     2
370
     9
100
AcDbText
 10
-1020.51603463801
 20
-483.9114075089065
 30
0.0
 40
30.48
  1
30
 41
1.0625
  7
ＭＳ ゴシック
100
AcDbText
  0
TEXT
  5
1B4
330
1F
100
AcDbEntity
  8
D-4
  6
Continuous
 62
     2
370
     9
100
AcDbText
 10
-913.8997879377235
 20
-483.9114075089065
 30
0.0
 40
30.48
  1
34
 41
1.0625
  7
ＭＳ ゴシック
100
AcDbText
  0
TEXT
  5
1B5
330
1F
100
AcDbEntity
  8
D-4
  6
Continuous
 62
     2
370
     9
100
AcDbText
 10
-705.9497834936012
 20
-480.6430215249699
 30
0.0
 40
30.48
  1
6.5
 50
90.00000250447674
 41
1.083333333333332
  7
ＭＳ ゴシック
100
AcDbText
  0
LINE
  5
1B6
330
1F
100
AcDbEntity
  8
D-4
  6
Continuous
 62
     7
370
     9
100
AcDbLine
 10
-890.2638450017799
 20
-377.4486319351762
 30
0.0
 11
-691.3092151037087
 21
-377.4486319351762
 31
0.0
  0
LWPOLYLINE
  5
1B7
330
1F
100
AcDbEntity
  8
D-4
  6
Continuous
 62
     7
370
     9
100
AcDbPolyline
 90
        4
 70
     1
 43
2.0
 10
-693.3097796789041
 20
-377.4486319351762
 42
0.4142135623731
 10
-694.309779678904
 20
-376.4486319351761
 42
0.4142135623731
 10
-695.309779678904
 20
-377.4486319351762
 42
0.4142135623731
 10
-694.309779678904
 20
-378.4486319351762
 42
0.4142135623731
  0
LINE
  5
1B8
330
1F
100
AcDbEntity
  8
D-4
  6
Continuous
 62
     7
370
     9
100
AcDbLine
 10
-694.309779678904
 20
-377.4486319351762
 30
0.0
 11
-694.309779678904
 21
-237.4484803782887
 31
0.0
  0
LWPOLYLINE
  5
1B9
330
1F
100
AcDbEntity
  8
D-4
  6
Continuous
 62
     7
370
     9
100
AcDbPolyline
 90
        4
 70
     1
 43
2.0
 10
-693.3097796789041
 20
-237.4484803782887
 42
0.4142135623731
 10
-694.309779678904
 20
-236.4484803782887
 42
0.4142135623731
 10
-695.309779678904
 20
-237.4484803782887
 42
0.4142135623731
 10
-694.309779678904
 20
-238.4484803782887
 42
0.4142135623731
  0
TEXT
  5
1BA
330
1F
100
AcDbEntity
  8
D-4
  6
Continuous
 62
     2
370
   211
100
AcDbText
 10
-709.949779678904
 20
-328.6985561567325
 30
0.0
 40
30.48
  1
28
 50
90.0
 41
1.062500000000001
  7
ＭＳ ゴシック
100
AcDbText
  0
LINE
  5
1BB
330
1F
100
AcDbEntity
  8
D-6
  6
Continuous
 62
     6
370
     9
100
AcDbLine
 10
-861.9825282445778
 20
-562.448746376094
 30
0.0
 11
-861.9825282445778
 21
-408.9478079605668
 31
0.0
  0
LINE
  5
1BC
330
1F
100
AcDbEntity
  8
D-6
  6
Continuous
 62
     6
370
     9
100
AcDbLine
 10
-816.9821372381081
 20
-562.448746376094
 30
0.0
 11
-816.9821372381081
 21
-408.9478079605668
 31
0.0
  0
LINE
  5
1BD
330
1F
100
AcDbEntity
  8
D-6
  6
Continuous
 62
     6
370
     9
100
AcDbLine
 10
-861.9825282445778
 20
-379.9477736282914
 30
0.0
 11
-861.9825282445778
 21
-344.9477736282914
 31
0.0
  0
LINE
  5
1BE
330
1F
100
AcDbEntity
  8
D-6
  6
Continuous
 62
     6
370
     9
100
AcDbLine
 10
-816.9821372381081
 20
-379.9477736282914
 30
0.0
 11
-816.9821372381081
 21
-344.9477736282914
 31
0.0
  0
LINE
  5
1BF
330
1F
100
AcDbEntity
  8
D-6
  6
Continuous
 62
     6
370
     9
100
AcDbLine
 10
-861.9825282445778
 20
-344.9477736282914
 30
0.0
 11
-816.9821372381081
 21
-344.9477736282914
 31
0.0
  0
LINE
  5
1C0
330
1F
100
AcDbEntity
  8
D-6
  6
JWW_CENTER2
 62
     6
370
     9
100
AcDbLine
 10
-839.4823375097145
 20
-327.4864451218217
 30
0.0
 11
-839.4823375097145
 21
-675.781265907344
 31
0.0
  0
LINE
  5
1C1
330
1F
100
AcDbEntity
  8
D-5
  6
Continuous
 62
     7
370
     9
100
AcDbLine
 10
-906.1559977880348
 20
-379.9477736282914
 30
0.0
 11
-892.3443093648781
 21
-359.1093508530229
 31
0.0
  0
LINE
  5
1C2
330
1F
100
AcDbEntity
  8
D-5
  6
Continuous
 62
     7
370
     9
100
AcDbLine
 10
-906.1559977880348
 20
-379.9477736282914
 30
0.0
 11
-887.4223199239601
 21
-363.3936659622758
 31
0.0
  0
LINE
  5
1C3
330
1F
100
AcDbEntity
  8
D-5
  6
Continuous
 62
     7
370
     9
100
AcDbLine
 10
-731.6068663946022
 20
-179.4003454971879
 30
0.0
 11
-906.1559977880348
 21
-379.9477736282914
 31
0.0
  0
TEXT
  5
1C4
330
1F
100
AcDbEntity
  8
D-5
  6
Continuous
 62
     7
370
     9
100
AcDbText
 10
-717.9626288762917
 20
-170.5114557266801
 30
0.0
 40
22.86
  1
アンカー＠５００
 41
1.145833333333333
  7
ＭＳ ゴシック
100
AcDbText
  0
LWPOLYLINE
  5
1C5
330
1F
100
AcDbEntity
  8
D-4
  6
Continuous
 62
     7
370
     9
100
AcDbPolyline
 90
        4
 70
     1
 43
2.0
 10
-1706.344478835382
 20
-237.44897525793
 42
0.4142135623731
 10
-1707.344478835382
 20
-236.44897525793
 42
0.4142135623731
 10
-1708.344478835382
 20
-237.44897525793
 42
0.4142135623731
 10
-1707.344478835382
 20
-238.44897525793
 42
0.4142135623731
  0
LWPOLYLINE
  5
1C6
330
1F
100
AcDbEntity
  8
D-4
  6
Continuous
 62
     7
370
     9
100
AcDbPolyline
 90
        4
 70
     1
 43
2.0
 10
-1706.344478835382
 20
-362.4488927779892
 42
0.4142135623731
 10
-1707.344478835382
 20
-361.4488927779892
 42
0.4142135623731
 10
-1708.344478835382
 20
-362.4488927779892
 42
0.4142135623731
 10
-1707.344478835382
 20
-363.4488927779892
 42
0.4142135623731
  0
LINE
  5
1C7
330
1F
100
AcDbEntity
  8
D-2
  6
Continuous
 62
     3
370
     9
100
AcDbLine
 10
-949.2753424993385
 20
-237.44897525793
 30
0.0
 11
-949.2753424993385
 21
-362.4488927779892
 31
0.0
  0
LINE
  5
1C8
330
1F
100
AcDbEntity
  8
D-2
  6
Continuous
 62
     3
370
     9
100
AcDbLine
 10
-969.2754084832917
 20
-237.44897525793
 30
0.0
 11
-969.2754084832917
 21
-362.4488927779892
 31
0.0
  0
LINE
  5
1C9
330
1F
100
AcDbEntity
  8
D-2
  6
Continuous
 62
     3
370
     9
100
AcDbLine
 10
-1646.943366510899
 20
-362.4488927779892
 30
0.0
 11
-949.2753424993385
 21
-362.4488927779892
 31
0.0
  0
LINE
  5
1CA
330
1F
100
AcDbEntity
  8
D-2
  6
Continuous
 62
     3
370
     9
100
AcDbLine
 10
-949.2753424993385
 20
-237.44897525793
 30
0.0
 11
-1646.943366510899
 21
-237.44897525793
 31
0.0
  0
LINE
  5
1CB
330
1F
100
AcDbEntity
  8
D-2
  6
Continuous
 62
     3
370
     9
100
AcDbLine
 10
-1646.943366510899
 20
-401.5758096118151
 30
0.0
 11
-1646.943366510899
 21
-202.8703735238717
 31
0.0
  0
LINE
  5
1CC
330
1F
100
AcDbEntity
  8
D-4
  6
Continuous
 62
     7
370
     9
100
AcDbLine
 10
-1707.344478835382
 20
-362.4488927779892
 30
0.0
 11
-1707.344478835382
 21
-237.44897525793
 31
0.0
  0
LINE
  5
1CD
330
1F
100
AcDbEntity
  8
D-4
  6
Continuous
 62
     7
370
     9
100
AcDbLine
 10
-1652.293386636004
 20
-362.4488927779892
 30
0.0
 11
-1710.344253665144
 21
-362.4488927779892
 31
0.0
  0
LINE
  5
1CE
330
1F
100
AcDbEntity
  8
D-4
  6
Continuous
 62
     7
370
     9
100
AcDbLine
 10
-1652.293386636004
 20
-237.44897525793
 30
0.0
 11
-1710.344253665144
 21
-237.44897525793
 31
0.0
  0
LINE
  5
1CF
330
1F
100
AcDbEntity
  8
D-2
  6
Continuous
 62
     3
370
     9
100
AcDbLine
 10
-1436.774971339605
 20
-337.4487484380926
 30
0.0
 11
-1461.775424979279
 21
-337.4487484380926
 31
0.0
  0
LINE
  5
1D0
330
1F
100
AcDbEntity
  8
D-2
  6
Continuous
 62
     3
370
     9
100
AcDbLine
 10
-1456.775161043469
 20
-237.44897525793
 30
0.0
 11
-1456.775161043469
 21
-337.4487484380926
 31
0.0
  0
LINE
  5
1D1
330
1F
100
AcDbEntity
  8
D-2
  6
Continuous
 62
     3
370
     9
100
AcDbLine
 10
-1441.775235275416
 20
-237.44897525793
 30
0.0
 11
-1441.775235275416
 21
-337.4487484380926
 31
0.0
  0
LINE
  5
1D2
330
1F
100
AcDbEntity
  8
D-2
  6
Continuous
 62
     3
370
     9
100
AcDbLine
 10
-1501.775556947185
 20
-323.6985174942582
 30
0.0
 11
-1461.775424979279
 21
-337.4487484380926
 31
0.0
  0
LINE
  5
1D3
330
1F
100
AcDbEntity
  8
D-2
  6
Continuous
 62
     3
370
     9
100
AcDbLine
 10
-1501.775556947185
 20
-296.199354665658
 30
0.0
 11
-1501.775556947185
 21
-323.6985174942582
 31
0.0
  0
LINE
  5
1D4
330
1F
100
AcDbEntity
  8
D-2
  6
Continuous
 62
     3
370
     9
100
AcDbLine
 10
-1436.774971339605
 20
-323.6985174942582
 30
0.0
 11
-1436.774971339605
 21
-337.4487484380926
 31
0.0
  0
LINE
  5
1D5
330
1F
100
AcDbEntity
  8
D-2
  6
Continuous
 62
     3
370
     9
100
AcDbLine
 10
-1436.774971339605
 20
-323.6985174942582
 30
0.0
 11
-1396.774715651788
 21
-323.6985174942582
 31
0.0
  0
LINE
  5
1D6
330
1F
100
AcDbEntity
  8
D-2
  6
Continuous
 62
     3
370
     9
100
AcDbLine
 10
-1396.774715651788
 20
-296.199354665658
 30
0.0
 11
-1396.774715651788
 21
-323.6985174942582
 31
0.0
  0
LINE
  5
1D7
330
1F
100
AcDbEntity
  8
D-2
  6
Continuous
 62
     3
370
     9
100
AcDbLine
 10
-1436.774971339605
 20
-282.4491237218235
 30
0.0
 11
-1396.774715651788
 21
-296.199354665658
 31
0.0
  0
LINE
  5
1D8
330
1F
100
AcDbEntity
  8
D-2
  6
Continuous
 62
     3
370
     9
100
AcDbLine
 10
-1461.775424979279
 20
-282.4491237218235
 30
0.0
 11
-1461.775424979279
 21
-296.199354665658
 31
0.0
  0
LINE
  5
1D9
330
1F
100
AcDbEntity
  8
D-2
  6
Continuous
 62
     3
370
     9
100
AcDbLine
 10
-1501.775556947185
 20
-296.199354665658
 30
0.0
 11
-1461.775424979279
 21
-296.199354665658
 31
0.0
  0
LINE
  5
1DA
330
1F
100
AcDbEntity
  8
D-2
  6
Continuous
 62
     3
370
     9
100
AcDbLine
 10
-1456.775161043469
 20
-282.4491237218235
 30
0.0
 11
-1461.775424979279
 21
-282.4491237218235
 31
0.0
  0
LINE
  5
1DB
330
1F
100
AcDbEntity
  8
D-2
  6
Continuous
 62
     3
370
     9
100
AcDbLine
 10
-1436.774971339605
 20
-282.4491237218235
 30
0.0
 11
-1441.775235275416
 21
-282.4491237218235
 31
0.0
  0
TEXT
  5
1DC
330
1F
100
AcDbEntity
  8
D-4
  6
Continuous
 62
     2
370
     9
100
AcDbText
 10
-1717.98449533137
 20
-321.1988185460423
 30
0.0
 40
30.48
  1
25
 50
90.0
 41
1.062500000000001
  7
ＭＳ ゴシック
100
AcDbText
  0
TEXT
  5
1DD
330
1F
100
AcDbEntity
  8
D-4
  6
Continuous
 62
     2
370
     9
100
AcDbText
 10
-1637.312761174117
 20
0.3631917210607227
 30
0.0
 40
30.48
  1
200
 41
1.083333333333333
  7
ＭＳ ゴシック
100
AcDbText
  0
TEXT
  5
1DE
330
1F
100
AcDbEntity
  8
D-4
  6
Continuous
 62
     2
370
     9
100
AcDbText
 10
-1637.312761174117
 20
-108.3892084452188
 30
0.0
 40
30.48
  1
150
 41
1.083333333333333
  7
ＭＳ ゴシック
100
AcDbText
  0
TEXT
  5
1DF
330
1F
100
AcDbEntity
  8
D-4
  6
Continuous
 62
     2
370
     9
100
AcDbText
 10
-1637.312761174117
 20
109.1155918873404
 30
0.0
 40
30.48
  1
210
 41
1.083333333333333
  7
ＭＳ ゴシック
100
AcDbText
  0
LINE
  5
1E0
330
1F
100
AcDbEntity
  8
D-5
  6
Continuous
 62
     7
370
     9
100
AcDbLine
 10
-1015.571330193238
 20
-237.44897525793
 30
0.0
 11
-1001.76063359137
 21
-216.6110442209809
 31
0.0
  0
LINE
  5
1E1
330
1F
100
AcDbEntity
  8
D-5
  6
Continuous
 62
     7
370
     9
100
AcDbLine
 10
-1015.571330193238
 20
-237.44897525793
 30
0.0
 11
-996.8376547133489
 21
-220.895363502559
 31
0.0
  0
LINE
  5
1E2
330
1F
100
AcDbEntity
  8
D-5
  6
Continuous
 62
     7
370
     9
100
AcDbLine
 10
-842.4021713016624
 20
-39.20718327514312
 30
0.0
 11
-1015.571330193238
 21
-237.44897525793
 31
0.0
  0
TEXT
  5
1E3
330
1F
100
AcDbEntity
  8
D-5
  6
Continuous
 62
     7
370
     9
100
AcDbText
 10
-839.9952004269791
 20
42.64889556248372
 30
0.0
 40
22.86
  1
ステンレス製グレーチング
 41
1.152777777777778
  7
ＭＳ ゴシック
100
AcDbText
  0
TEXT
  5
1E4
330
1F
100
AcDbEntity
  8
D-5
  6
Continuous
 62
     7
370
     9
100
AcDbText
 10
-839.9952004269791
 20
-31.45636203886786
 30
0.0
 40
22.86
  1
ＳＭＱ１２０２５（Ｐ＝３０）
 41
1.154761904761905
  7
ＭＳ ゴシック
100
AcDbText
  0
LINE
  5
1E5
330
1F
100
AcDbEntity
  8
D-5
  6
Continuous
 62
     7
370
     9
100
AcDbLine
 10
-842.4021713016624
 20
-39.20718327514312
 30
0.0
 11
-319.9275161664464
 21
-39.20718327514312
 31
0.0
  0
LINE
  5
1E6
330
1F
100
AcDbEntity
  8
D-5
  6
Continuous
 62
     7
370
     9
100
AcDbLine
 10
-924.2750170579781
 20
-283.5901318050797
 30
0.0
 11
-910.4643204561104
 21
-262.7522007681305
 31
0.0
  0
LINE
  5
1E7
330
1F
100
AcDbEntity
  8
D-5
  6
Continuous
 62
     7
370
     9
100
AcDbLine
 10
-924.2750170579781
 20
-283.5901318050797
 30
0.0
 11
-905.5413415780891
 21
-267.0365200497086
 31
0.0
  0
LINE
  5
1E8
330
1F
100
AcDbEntity
  8
D-5
  6
Continuous
 62
     7
370
     9
100
AcDbLine
 10
-774.4591358056892
 20
-111.4603106237824
 30
0.0
 11
-924.2750170579781
 21
-283.5901318050797
 31
0.0
  0
LINE
  5
1E9
330
1F
100
AcDbEntity
  8
D-5
  6
Continuous
 62
     7
370
     9
100
AcDbLine
 10
-774.4591358056892
 20
-111.4603106237824
 30
0.0
 11
-321.1319759240974
 21
-111.4603106237824
 31
0.0
  0
TEXT
  5
1EA
330
1F
100
AcDbEntity
  8
D-5
  6
Continuous
 62
     7
370
     9
100
AcDbText
 10
-771.3416460977422
 20
-102.4713422705135
 30
0.0
 40
22.86
  1
ステンレス製受枠ＲＬ－２５
 50
359.9999368586929
 41
1.153846153846155
  7
ＭＳ ゴシック
100
AcDbText
  0
LINE
  5
1EB
330
1F
100
AcDbEntity
  8
D-0
  6
Continuous
 62
     7
370
     9
100
AcDbLine
 10
-892.4463515833987
 20
-268.2111175461215
 30
0.0
 11
-892.4463515833987
 21
-266.7107673092288
 31
0.0
  0
LINE
  5
1EC
330
1F
100
AcDbEntity
  8
D-0
  6
Continuous
 62
     7
370
     9
100
AcDbLine
 10
-892.4463515833987
 20
-266.7107673092288
 30
0.0
 11
-890.9463744715823
 21
-266.7107673092288
 31
0.0
  0
LINE
  5
1ED
330
1F
100
AcDbEntity
  8
D-0
  6
Continuous
 62
     7
370
     9
100
AcDbLine
 10
-890.9463744715823
 20
-266.7107673092288
 30
0.0
 11
-890.9463744715823
 21
-268.2111175461215
 31
0.0
  0
LINE
  5
1EE
330
1F
100
AcDbEntity
  8
D-0
  6
Continuous
 62
     7
370
     9
100
AcDbLine
 10
-890.9463744715823
 20
-268.2111175461215
 30
0.0
 11
-892.4463515833987
 21
-268.2111175461215
 31
0.0
  0
LINE
  5
1EF
330
1F
100
AcDbEntity
  8
D-0
  6
Continuous
 62
     7
370
     9
100
AcDbLine
 10
-903.2054600483123
 20
-314.3612697997673
 30
0.0
 11
-903.2054600483123
 21
-312.8609195628746
 31
0.0
  0
LINE
  5
1F0
330
1F
100
AcDbEntity
  8
D-0
  6
Continuous
 62
     7
370
     9
100
AcDbLine
 10
-903.2054600483123
 20
-312.8609195628746
 30
0.0
 11
-901.7054829364959
 21
-312.8609195628746
 31
0.0
  0
LINE
  5
1F1
330
1F
100
AcDbEntity
  8
D-0
  6
Continuous
 62
     7
370
     9
100
AcDbLine
 10
-901.7054829364959
 20
-312.8609195628746
 30
0.0
 11
-901.7054829364959
 21
-314.3612697997673
 31
0.0
  0
LINE
  5
1F2
330
1F
100
AcDbEntity
  8
D-0
  6
Continuous
 62
     7
370
     9
100
AcDbLine
 10
-901.7054829364959
 20
-314.3612697997673
 30
0.0
 11
-903.2054600483123
 21
-314.3612697997673
 31
0.0
  0
TEXT
  5
1F3
330
1F
100
AcDbEntity
  8
D-5
  6
Continuous
 62
     2
370
     9
100
AcDbText
 10
-383.7068334967742
 20
-1367.879116636955
 30
0.0
 40
30.48
  1
ＳＭＱ　１２０２５（Ｐ＝３０）＋ＲＬ－２５
 41
0.8988095238095238
  7
ＭＳ ゴシック
100
AcDbText
  0
TEXT
  5
1F4
330
1F
100
AcDbEntity
  8
D-5
  6
Continuous
 62
     7
370
     9
100
AcDbText
 10
-839.9952004269791
 20
5.181681338982624
 30
0.0
 40
22.86
  1
滑り止め模様付　横断溝・側溝用
 41
1.155555555555555
  7
ＭＳ ゴシック
100
AcDbText
  0
TEXT
  5
1F5
330
1F
100
AcDbEntity
  8
F-5ﾚｲﾔ
  6
Continuous
 62
     2
370
     9
100
AcDbText
 10
-854.1323654116678
 20
-1322.942946424189
 30
0.0
 40
30.48
  1
ステンレス製グレーチング　滑り止め模様付　横断溝・側溝用
 41
0.8991071428571427
  7
ＭＳ ゴシック
100
AcDbText
  0
LWPOLYLINE
  5
1F6
330
1F
100
AcDbEntity
  8
C-4
  6
Continuous
 62
     7
370
     9
100
AcDbPolyline
 90
        4
 70
     1
 43
2.0
 10
-715.7026416675465
 20
866.8650364231419
 42
0.4142135623731
 10
-716.7026416675463
 20
867.8650364231419
 42
0.4142135623731
 10
-717.7026416675462
 20
866.8650364231419
 42
0.4142135623731
 10
-716.7026416675463
 20
865.865036423142
 42
0.4142135623731
  0
LWPOLYLINE
  5
1F7
330
1F
100
AcDbEntity
  8
C-4
  6
Continuous
 62
     7
370
     9
100
AcDbPolyline
 90
        4
 70
     1
 43
2.0
 10
-713.7023381413642
 20
866.8650364231419
 42
0.4142135623731
 10
-714.7023381413641
 20
867.8650364231419
 42
0.4142135623731
 10
-715.702338141364
 20
866.8650364231419
 42
0.4142135623731
 10
-714.7023381413641
 20
865.865036423142
 42
0.4142135623731
  0
LWPOLYLINE
  5
1F8
330
1F
100
AcDbEntity
  8
C-4
  6
Continuous
 62
     7
370
     9
100
AcDbPolyline
 90
        4
 70
     1
 43
2.0
 10
280.297699799409
 20
866.8650364231419
 42
0.4142135623731
 10
279.2976997994089
 20
867.8650364231419
 42
0.4142135623731
 10
278.2976997994089
 20
866.8650364231419
 42
0.4142135623731
 10
279.2976997994089
 20
865.865036423142
 42
0.4142135623731
  0
LWPOLYLINE
  5
1F9
330
1F
100
AcDbEntity
  8
C-4
  6
Continuous
 62
     7
370
     9
100
AcDbPolyline
 90
        4
 70
     1
 43
2.0
 10
282.2972610061236
 20
866.8650364231419
 42
0.4142135623731
 10
281.2972610061235
 20
867.8650364231419
 42
0.4142135623731
 10
280.2972610061235
 20
866.8650364231419
 42
0.4142135623731
 10
281.2972610061235
 20
865.865036423142
 42
0.4142135623731
  0
LWPOLYLINE
  5
1FA
330
1F
100
AcDbEntity
  8
C-4
  6
Continuous
 62
     7
370
     9
100
AcDbPolyline
 90
        4
 70
     1
 43
2.0
 10
-713.7023381413642
 20
946.8645580394849
 42
0.4142135623731
 10
-714.7023381413641
 20
947.8645580394848
 42
0.4142135623731
 10
-715.702338141364
 20
946.8645580394849
 42
0.4142135623731
 10
-714.7023381413641
 20
945.864558039485
 42
0.4142135623731
  0
LWPOLYLINE
  5
1FB
330
1F
100
AcDbEntity
  8
C-4
  6
Continuous
 62
     7
370
     9
100
AcDbPolyline
 90
        4
 70
     1
 43
2.0
 10
282.2972610061236
 20
946.8645580394849
 42
0.4142135623731
 10
281.2972610061235
 20
947.8645580394848
 42
0.4142135623731
 10
280.2972610061235
 20
946.8645580394849
 42
0.4142135623731
 10
281.2972610061235
 20
945.864558039485
 42
0.4142135623731
  0
LWPOLYLINE
  5
1FC
330
1F
100
AcDbEntity
  8
C-4
  6
Continuous
 62
     7
370
     9
100
AcDbPolyline
 90
        4
 70
     1
 43
2.0
 10
128.2978911528717
 20
804.8655247043919
 42
0.4142135623731
 10
127.2978911528717
 20
805.8655247043919
 42
0.4142135623731
 10
126.2978911528717
 20
804.8655247043919
 42
0.4142135623731
 10
127.2978911528717
 20
803.865524704392
 42
0.4142135623731
  0
LWPOLYLINE
  5
1FD
330
1F
100
AcDbEntity
  8
C-4
  6
Continuous
 62
     7
370
     9
100
AcDbPolyline
 90
        4
 70
     1
 43
2.0
 10
158.2974952491555
 20
804.8655247043919
 42
0.4142135623731
 10
157.2974952491555
 20
805.8655247043919
 42
0.4142135623731
 10
156.2974952491556
 20
804.8655247043919
 42
0.4142135623731
 10
157.2974952491555
 20
803.865524704392
 42
0.4142135623731
  0
LINE
  5
1FE
330
1F
100
AcDbEntity
  8
C-2
  6
Continuous
 62
     3
370
     9
100
AcDbLine
 10
-714.7023381413641
 20
569.8642545133023
 30
0.0
 11
-714.7023381413641
 21
769.8641720333617
 31
0.0
  0
LINE
  5
1FF
330
1F
100
AcDbEntity
  8
C-2
  6
Continuous
 62
     3
370
     9
100
AcDbLine
 10
-714.7023381413641
 20
769.8641720333617
 30
0.0
 11
279.2976997994089
 21
769.8641720333617
 31
0.0
  0
LINE
  5
200
330
1F
100
AcDbEntity
  8
C-2
  6
Continuous
 62
     3
370
     9
100
AcDbLine
 10
279.2976997994089
 20
569.8642545133023
 30
0.0
 11
-714.7023381413641
 21
569.8642545133023
 31
0.0
  0
LINE
  5
201
330
1F
100
AcDbEntity
  8
C-2
  6
Continuous
 62
     3
370
     9
100
AcDbLine
 10
279.2976997994089
 20
769.8641720333617
 30
0.0
 11
279.2976997994089
 21
569.8642545133023
 31
0.0
  0
LINE
  5
202
330
1F
100
AcDbEntity
  8
C-2
  6
Continuous
 62
     3
370
     9
100
AcDbLine
 10
-716.7026416675463
 20
769.8641720333617
 30
0.0
 11
-716.7026416675463
 21
569.8647493929477
 31
0.0
  0
LINE
  5
203
330
1F
100
AcDbEntity
  8
C-2
  6
Continuous
 62
     3
370
     9
100
AcDbLine
 10
281.2972610061235
 20
769.8651617926521
 30
0.0
 11
281.2972610061235
 21
569.8647493929477
 31
0.0
  0
LINE
  5
204
330
1F
100
AcDbEntity
  8
C-2
  6
Continuous
 62
     3
370
     9
100
AcDbLine
 10
-716.7026416675463
 20
769.8641720333617
 30
0.0
 11
-865.7023661845438
 21
769.8641720333617
 31
0.0
  0
LINE
  5
205
330
1F
100
AcDbEntity
  8
C-2
  6
Continuous
 62
     3
370
     9
100
AcDbLine
 10
-716.7026416675463
 20
569.8647493929477
 30
0.0
 11
-865.7023661845438
 21
569.8647493929477
 31
0.0
  0
LINE
  5
206
330
1F
100
AcDbEntity
  8
C-2
  6
Continuous
 62
     3
370
     9
100
AcDbLine
 10
439.2967430320948
 20
769.8651617926521
 30
0.0
 11
281.2972610061235
 21
769.8651617926521
 31
0.0
  0
LINE
  5
207
330
1F
100
AcDbEntity
  8
C-2
  6
Continuous
 62
     3
370
     9
100
AcDbLine
 10
439.2967430320948
 20
569.8647493929477
 30
0.0
 11
281.2972610061235
 21
569.8647493929477
 31
0.0
  0
LINE
  5
208
330
1F
100
AcDbEntity
  8
C-1
  6
JWW_DASHED3
 62
     2
370
     9
100
AcDbLine
 10
439.2967430320948
 20
594.8650793127113
 30
0.0
 11
-865.7023661845438
 21
594.8645844330658
 31
0.0
  0
LINE
  5
209
330
1F
100
AcDbEntity
  8
C-1
  6
JWW_DASHED3
 62
     2
370
     9
100
AcDbLine
 10
439.2967430320948
 20
744.8648318728885
 30
0.0
 11
-865.7023661845438
 21
744.8648318728885
 31
0.0
  0
LINE
  5
20A
330
1F
100
AcDbEntity
  8
C-1
  6
Continuous
 62
     2
370
     9
100
AcDbLine
 10
439.2967430320948
 20
771.8649704391894
 30
0.0
 11
-865.7023661845438
 21
771.8649704391894
 31
0.0
  0
LINE
  5
20B
330
1F
100
AcDbEntity
  8
C-1
  6
Continuous
 62
     2
370
     9
100
AcDbLine
 10
439.2967430320948
 20
774.865425728463
 30
0.0
 11
-865.7023661845438
 21
774.865425728463
 31
0.0
  0
LINE
  5
20C
330
1F
100
AcDbEntity
  8
C-1
  6
Continuous
 62
     2
370
     9
100
AcDbLine
 10
439.2967430320948
 20
567.8650644663219
 30
0.0
 11
-865.7023661845438
 21
567.8645695866766
 31
0.0
  0
LINE
  5
20D
330
1F
100
AcDbEntity
  8
C-1
  6
Continuous
 62
     2
370
     9
100
AcDbLine
 10
439.2967430320948
 20
564.8649803367823
 30
0.0
 11
-865.7023661845438
 21
564.864485457137
 31
0.0
  0
LINE
  5
20E
330
1F
100
AcDbEntity
  8
C-2
  6
Continuous
 62
     3
370
     9
100
AcDbLine
 10
-885.7020610087626
 20
654.8645349451016
 30
0.0
 11
-845.7018053209458
 21
684.8653762404984
 31
0.0
  0
LINE
  5
20F
330
1F
100
AcDbEntity
  8
C-2
  6
Continuous
 62
     3
370
     9
100
AcDbLine
 10
-885.7020610087626
 20
654.8645349451016
 30
0.0
 11
-865.7023661845438
 21
654.8645349451016
 31
0.0
  0
LINE
  5
210
330
1F
100
AcDbEntity
  8
C-2
  6
Continuous
 62
     3
370
     9
100
AcDbLine
 10
-865.7023661845438
 20
684.8653762404984
 30
0.0
 11
-845.7018053209458
 21
684.8653762404984
 31
0.0
  0
LINE
  5
211
330
1F
100
AcDbEntity
  8
C-2
  6
Continuous
 62
     3
370
     9
100
AcDbLine
 10
-865.7023661845438
 20
654.8645349451016
 30
0.0
 11
-865.7023661845438
 21
549.864683408995
 31
0.0
  0
LINE
  5
212
330
1F
100
AcDbEntity
  8
C-2
  6
Continuous
 62
     3
370
     9
100
AcDbLine
 10
419.2971719277872
 20
654.8645349451016
 30
0.0
 11
459.2975513355153
 21
684.8653762404984
 31
0.0
  0
LINE
  5
213
330
1F
100
AcDbEntity
  8
C-2
  6
Continuous
 62
     3
370
     9
100
AcDbLine
 10
419.2971719277872
 20
654.8645349451016
 30
0.0
 11
439.2967430320948
 21
654.8645349451016
 31
0.0
  0
LINE
  5
214
330
1F
100
AcDbEntity
  8
C-2
  6
Continuous
 62
     3
370
     9
100
AcDbLine
 10
439.2967430320948
 20
684.8653762404984
 30
0.0
 11
459.2975513355153
 21
684.8653762404984
 31
0.0
  0
LINE
  5
215
330
1F
100
AcDbEntity
  8
C-2
  6
Continuous
 62
     3
370
     9
100
AcDbLine
 10
439.2967430320948
 20
654.8645349451016
 30
0.0
 11
439.2967430320948
 21
549.864683408995
 31
0.0
  0
LINE
  5
216
330
1F
100
AcDbEntity
  8
C-2
  6
Continuous
 62
     3
370
     9
100
AcDbLine
 10
439.2967430320948
 20
789.865227776605
 30
0.0
 11
439.2967430320948
 21
684.8653762404984
 31
0.0
  0
LINE
  5
217
330
1F
100
AcDbEntity
  8
C-4
  6
Continuous
 62
     7
370
     9
100
AcDbLine
 10
-716.7026416675463
 20
786.8647724873313
 30
0.0
 11
-716.7026416675463
 21
869.8647493929477
 31
0.0
  0
LINE
  5
218
330
1F
100
AcDbEntity
  8
C-4
  6
Continuous
 62
     7
370
     9
100
AcDbLine
 10
-714.7023381413641
 20
786.8647724873313
 30
0.0
 11
-714.7023381413641
 21
949.8650133287586
 31
0.0
  0
LINE
  5
219
330
1F
100
AcDbEntity
  8
C-4
  6
Continuous
 62
     7
370
     9
100
AcDbLine
 10
279.2976997994089
 20
786.8647724873313
 30
0.0
 11
279.2976997994089
 21
869.8647493929477
 31
0.0
  0
LINE
  5
21A
330
1F
100
AcDbEntity
  8
C-4
  6
Continuous
 62
     7
370
     9
100
AcDbLine
 10
281.2972610061235
 20
786.8647724873313
 30
0.0
 11
281.2972610061235
 21
949.8650133287586
 31
0.0
  0
LINE
  5
21B
330
1F
100
AcDbEntity
  8
C-4
  6
Continuous
 62
     7
370
     9
100
AcDbLine
 10
-865.7023661845438
 20
946.8645580394849
 30
0.0
 11
439.2967430320948
 21
946.8645580394849
 31
0.0
  0
LINE
  5
21C
330
1F
100
AcDbEntity
  8
C-4
  6
Continuous
 62
     7
370
     9
100
AcDbLine
 10
-865.7023661845438
 20
866.8650364231419
 30
0.0
 11
439.2967430320948
 21
866.8650364231419
 31
0.0
  0
LINE
  5
21D
330
1F
100
AcDbEntity
  8
C-2
  6
Continuous
 62
     3
370
     9
100
AcDbLine
 10
-714.7023381413641
 20
765.8643073004646
 30
0.0
 11
279.2976997994089
 21
765.8643073004646
 31
0.0
  0
LINE
  5
21E
330
1F
100
AcDbEntity
  8
C-2
  6
Continuous
 62
     3
370
     9
100
AcDbLine
 10
279.2976997994089
 20
573.8641192461995
 30
0.0
 11
-714.7023381413641
 21
573.8641192461995
 31
0.0
  0
LINE
  5
21F
330
1F
100
AcDbEntity
  8
C-2
  6
Continuous
 62
     3
370
     9
100
AcDbLine
 10
-710.7024734084669
 20
573.8641192461995
 30
0.0
 11
-710.7024734084669
 21
765.8643073004646
 31
0.0
  0
LINE
  5
220
330
1F
100
AcDbEntity
  8
C-2
  6
Continuous
 62
     3
370
     9
100
AcDbLine
 10
-680.702374432538
 20
573.8641192461995
 30
0.0
 11
-680.702374432538
 21
765.8643073004646
 31
0.0
  0
LINE
  5
221
330
1F
100
AcDbEntity
  8
C-2
  6
Continuous
 62
     3
370
     9
100
AcDbLine
 10
-684.7027340450802
 20
573.8641192461995
 30
0.0
 11
-684.7027340450802
 21
765.8643073004646
 31
0.0
  0
LINE
  5
222
330
1F
100
AcDbEntity
  8
C-2
  6
Continuous
 62
     3
370
     9
100
AcDbLine
 10
-710.7024734084669
 20
668.3643567884292
 30
0.0
 11
-684.7027340450802
 21
668.3643567884292
 31
0.0
  0
LINE
  5
223
330
1F
100
AcDbEntity
  8
C-2
  6
Continuous
 62
     3
370
     9
100
AcDbLine
 10
-710.7024734084669
 20
671.3640697582349
 30
0.0
 11
-684.7027340450802
 21
671.3640697582349
 31
0.0
  0
LINE
  5
224
330
1F
100
AcDbEntity
  8
C-2
  6
Continuous
 62
     3
370
     9
100
AcDbLine
 10
-650.7026466163427
 20
573.8641192461995
 30
0.0
 11
-650.7026466163427
 21
765.8643073004646
 31
0.0
  0
LINE
  5
225
330
1F
100
AcDbEntity
  8
C-2
  6
Continuous
 62
     3
370
     9
100
AcDbLine
 10
-654.702635069151
 20
573.8641192461995
 30
0.0
 11
-654.702635069151
 21
765.8643073004646
 31
0.0
  0
LINE
  5
226
330
1F
100
AcDbEntity
  8
C-2
  6
Continuous
 62
     3
370
     9
100
AcDbLine
 10
-680.702374432538
 20
668.3643567884292
 30
0.0
 11
-654.702635069151
 21
668.3643567884292
 31
0.0
  0
LINE
  5
227
330
1F
100
AcDbEntity
  8
C-2
  6
Continuous
 62
     3
370
     9
100
AcDbLine
 10
-680.702374432538
 20
671.3640697582349
 30
0.0
 11
-654.702635069151
 21
671.3640697582349
 31
0.0
  0
LINE
  5
228
330
1F
100
AcDbEntity
  8
C-2
  6
Continuous
 62
     3
370
     9
100
AcDbLine
 10
-620.7025476404137
 20
573.8641192461995
 30
0.0
 11
-620.7025476404137
 21
765.8643073004646
 31
0.0
  0
LINE
  5
229
330
1F
100
AcDbEntity
  8
C-2
  6
Continuous
 62
     3
370
     9
100
AcDbLine
 10
-624.7024123733106
 20
573.8641192461995
 30
0.0
 11
-624.7024123733106
 21
765.8643073004646
 31
0.0
  0
LINE
  5
22A
330
1F
100
AcDbEntity
  8
C-2
  6
Continuous
 62
     3
370
     9
100
AcDbLine
 10
-650.7026466163427
 20
668.3643567884292
 30
0.0
 11
-624.7024123733106
 21
668.3643567884292
 31
0.0
  0
LINE
  5
22B
330
1F
100
AcDbEntity
  8
C-2
  6
Continuous
 62
     3
370
     9
100
AcDbLine
 10
-650.7026466163427
 20
671.3640697582349
 30
0.0
 11
-624.7024123733106
 21
671.3640697582349
 31
0.0
  0
LINE
  5
22C
330
1F
100
AcDbEntity
  8
C-2
  6
Continuous
 62
     3
370
     9
100
AcDbLine
 10
-590.7024486644846
 20
573.8641192461995
 30
0.0
 11
-590.7024486644846
 21
765.8643073004646
 31
0.0
  0
LINE
  5
22D
330
1F
100
AcDbEntity
  8
C-2
  6
Continuous
 62
     3
370
     9
100
AcDbLine
 10
-594.7023133973818
 20
573.8641192461995
 30
0.0
 11
-594.7023133973818
 21
765.8643073004646
 31
0.0
  0
LINE
  5
22E
330
1F
100
AcDbEntity
  8
C-2
  6
Continuous
 62
     3
370
     9
100
AcDbLine
 10
-620.7025476404137
 20
668.3643567884292
 30
0.0
 11
-594.7023133973818
 21
668.3643567884292
 31
0.0
  0
LINE
  5
22F
330
1F
100
AcDbEntity
  8
C-2
  6
Continuous
 62
     3
370
     9
100
AcDbLine
 10
-620.7025476404137
 20
671.3640697582349
 30
0.0
 11
-594.7023133973818
 21
671.3640697582349
 31
0.0
  0
LINE
  5
230
330
1F
100
AcDbEntity
  8
C-2
  6
Continuous
 62
     3
370
     9
100
AcDbLine
 10
-560.7027208482896
 20
573.8641192461995
 30
0.0
 11
-560.7027208482896
 21
765.8643073004646
 31
0.0
  0
LINE
  5
231
330
1F
100
AcDbEntity
  8
C-2
  6
Continuous
 62
     3
370
     9
100
AcDbLine
 10
-564.7027093010979
 20
573.8641192461995
 30
0.0
 11
-564.7027093010979
 21
765.8643073004646
 31
0.0
  0
LINE
  5
232
330
1F
100
AcDbEntity
  8
C-2
  6
Continuous
 62
     3
370
     9
100
AcDbLine
 10
-590.7024486644846
 20
668.3643567884292
 30
0.0
 11
-564.7027093010979
 21
668.3643567884292
 31
0.0
  0
LINE
  5
233
330
1F
100
AcDbEntity
  8
C-2
  6
Continuous
 62
     3
370
     9
100
AcDbLine
 10
-590.7024486644846
 20
671.3640697582349
 30
0.0
 11
-564.7027093010979
 21
671.3640697582349
 31
0.0
  0
LINE
  5
234
330
1F
100
AcDbEntity
  8
C-2
  6
Continuous
 62
     3
370
     9
100
AcDbLine
 10
-530.7026218723606
 20
573.8641192461995
 30
0.0
 11
-530.7026218723606
 21
765.8643073004646
 31
0.0
  0
LINE
  5
235
330
1F
100
AcDbEntity
  8
C-2
  6
Continuous
 62
     3
370
     9
100
AcDbLine
 10
-534.7026103251687
 20
573.8641192461995
 30
0.0
 11
-534.7026103251687
 21
765.8643073004646
 31
0.0
  0
LINE
  5
236
330
1F
100
AcDbEntity
  8
C-2
  6
Continuous
 62
     3
370
     9
100
AcDbLine
 10
-560.7027208482896
 20
668.3643567884292
 30
0.0
 11
-534.7026103251687
 21
668.3643567884292
 31
0.0
  0
LINE
  5
237
330
1F
100
AcDbEntity
  8
C-2
  6
Continuous
 62
     3
370
     9
100
AcDbLine
 10
-560.7027208482896
 20
671.3640697582349
 30
0.0
 11
-534.7026103251687
 21
671.3640697582349
 31
0.0
  0
LINE
  5
238
330
1F
100
AcDbEntity
  8
C-2
  6
Continuous
 62
     3
370
     9
100
AcDbLine
 10
-500.7025228964315
 20
573.8641192461995
 30
0.0
 11
-500.7025228964315
 21
765.8643073004646
 31
0.0
  0
LINE
  5
239
330
1F
100
AcDbEntity
  8
C-2
  6
Continuous
 62
     3
370
     9
100
AcDbLine
 10
-504.7023876293284
 20
573.8641192461995
 30
0.0
 11
-504.7023876293284
 21
765.8643073004646
 31
0.0
  0
LINE
  5
23A
330
1F
100
AcDbEntity
  8
C-2
  6
Continuous
 62
     3
370
     9
100
AcDbLine
 10
-530.7026218723606
 20
668.3643567884292
 30
0.0
 11
-504.7023876293284
 21
668.3643567884292
 31
0.0
  0
LINE
  5
23B
330
1F
100
AcDbEntity
  8
C-2
  6
Continuous
 62
     3
370
     9
100
AcDbLine
 10
-530.7026218723606
 20
671.3640697582349
 30
0.0
 11
-504.7023876293284
 21
671.3640697582349
 31
0.0
  0
LINE
  5
23C
330
1F
100
AcDbEntity
  8
C-2
  6
Continuous
 62
     3
370
     9
100
AcDbLine
 10
-470.7023002005911
 20
573.8641192461995
 30
0.0
 11
-470.7023002005911
 21
765.8643073004646
 31
0.0
  0
LINE
  5
23D
330
1F
100
AcDbEntity
  8
C-2
  6
Continuous
 62
     3
370
     9
100
AcDbLine
 10
-474.7022886533995
 20
573.8641192461995
 30
0.0
 11
-474.7022886533995
 21
765.8643073004646
 31
0.0
  0
LINE
  5
23E
330
1F
100
AcDbEntity
  8
C-2
  6
Continuous
 62
     3
370
     9
100
AcDbLine
 10
-500.7025228964315
 20
668.3643567884292
 30
0.0
 11
-474.7022886533995
 21
668.3643567884292
 31
0.0
  0
LINE
  5
23F
330
1F
100
AcDbEntity
  8
C-2
  6
Continuous
 62
     3
370
     9
100
AcDbLine
 10
-500.7025228964315
 20
671.3640697582349
 30
0.0
 11
-474.7022886533995
 21
671.3640697582349
 31
0.0
  0
LINE
  5
240
330
1F
100
AcDbEntity
  8
C-2
  6
Continuous
 62
     3
370
     9
100
AcDbLine
 10
-440.702201224662
 20
573.8641192461995
 30
0.0
 11
-440.702201224662
 21
765.8643073004646
 31
0.0
  0
LINE
  5
241
330
1F
100
AcDbEntity
  8
C-2
  6
Continuous
 62
     3
370
     9
100
AcDbLine
 10
-444.7026845571156
 20
573.8641192461995
 30
0.0
 11
-444.7026845571156
 21
765.8643073004646
 31
0.0
  0
LINE
  5
242
330
1F
100
AcDbEntity
  8
C-2
  6
Continuous
 62
     3
370
     9
100
AcDbLine
 10
-470.7023002005911
 20
668.3643567884292
 30
0.0
 11
-444.7026845571156
 21
668.3643567884292
 31
0.0
  0
LINE
  5
243
330
1F
100
AcDbEntity
  8
C-2
  6
Continuous
 62
     3
370
     9
100
AcDbLine
 10
-470.7023002005911
 20
671.3640697582349
 30
0.0
 11
-444.7026845571156
 21
671.3640697582349
 31
0.0
  0
LINE
  5
244
330
1F
100
AcDbEntity
  8
C-2
  6
Continuous
 62
     3
370
     9
100
AcDbLine
 10
-410.7025971283784
 20
573.8641192461995
 30
0.0
 11
-410.7025971283784
 21
765.8643073004646
 31
0.0
  0
LINE
  5
245
330
1F
100
AcDbEntity
  8
C-2
  6
Continuous
 62
     3
370
     9
100
AcDbLine
 10
-414.7024618612753
 20
573.8641192461995
 30
0.0
 11
-414.7024618612753
 21
765.8643073004646
 31
0.0
  0
LINE
  5
246
330
1F
100
AcDbEntity
  8
C-2
  6
Continuous
 62
     3
370
     9
100
AcDbLine
 10
-440.702201224662
 20
668.3643567884292
 30
0.0
 11
-414.7024618612753
 21
668.3643567884292
 31
0.0
  0
LINE
  5
247
330
1F
100
AcDbEntity
  8
C-2
  6
Continuous
 62
     3
370
     9
100
AcDbLine
 10
-440.702201224662
 20
671.3640697582349
 30
0.0
 11
-414.7024618612753
 21
671.3640697582349
 31
0.0
  0
LINE
  5
248
330
1F
100
AcDbEntity
  8
C-2
  6
Continuous
 62
     3
370
     9
100
AcDbLine
 10
-380.7024981524492
 20
573.8641192461995
 30
0.0
 11
-380.7024981524492
 21
765.8643073004646
 31
0.0
  0
LINE
  5
249
330
1F
100
AcDbEntity
  8
C-2
  6
Continuous
 62
     3
370
     9
100
AcDbLine
 10
-384.7023628853461
 20
573.8641192461995
 30
0.0
 11
-384.7023628853461
 21
765.8643073004646
 31
0.0
  0
LINE
  5
24A
330
1F
100
AcDbEntity
  8
C-2
  6
Continuous
 62
     3
370
     9
100
AcDbLine
 10
-410.7025971283784
 20
668.3643567884292
 30
0.0
 11
-384.7023628853461
 21
668.3643567884292
 31
0.0
  0
LINE
  5
24B
330
1F
100
AcDbEntity
  8
C-2
  6
Continuous
 62
     3
370
     9
100
AcDbLine
 10
-410.7025971283784
 20
671.3640697582349
 30
0.0
 11
-384.7023628853461
 21
671.3640697582349
 31
0.0
  0
LINE
  5
24C
330
1F
100
AcDbEntity
  8
C-2
  6
Continuous
 62
     3
370
     9
100
AcDbLine
 10
-350.7022754566088
 20
573.8641192461995
 30
0.0
 11
-350.7022754566088
 21
765.8643073004646
 31
0.0
  0
LINE
  5
24D
330
1F
100
AcDbEntity
  8
C-2
  6
Continuous
 62
     3
370
     9
100
AcDbLine
 10
-354.7027587890625
 20
573.8641192461995
 30
0.0
 11
-354.7027587890625
 21
765.8643073004646
 31
0.0
  0
LINE
  5
24E
330
1F
100
AcDbEntity
  8
C-2
  6
Continuous
 62
     3
370
     9
100
AcDbLine
 10
-380.7024981524492
 20
668.3643567884292
 30
0.0
 11
-354.7027587890625
 21
668.3643567884292
 31
0.0
  0
LINE
  5
24F
330
1F
100
AcDbEntity
  8
C-2
  6
Continuous
 62
     3
370
     9
100
AcDbLine
 10
-380.7024981524492
 20
671.3640697582349
 30
0.0
 11
-354.7027587890625
 21
671.3640697582349
 31
0.0
  0
LINE
  5
250
330
1F
100
AcDbEntity
  8
C-2
  6
Continuous
 62
     3
370
     9
100
AcDbLine
 10
-320.702671360325
 20
573.8641192461995
 30
0.0
 11
-320.702671360325
 21
765.8643073004646
 31
0.0
  0
LINE
  5
251
330
1F
100
AcDbEntity
  8
C-2
  6
Continuous
 62
     3
370
     9
100
AcDbLine
 10
-324.7025360932221
 20
573.8641192461995
 30
0.0
 11
-324.7025360932221
 21
765.8643073004646
 31
0.0
  0
LINE
  5
252
330
1F
100
AcDbEntity
  8
C-2
  6
Continuous
 62
     3
370
     9
100
AcDbLine
 10
-350.7022754566088
 20
668.3643567884292
 30
0.0
 11
-324.7025360932221
 21
668.3643567884292
 31
0.0
  0
LINE
  5
253
330
1F
100
AcDbEntity
  8
C-2
  6
Continuous
 62
     3
370
     9
100
AcDbLine
 10
-350.7022754566088
 20
671.3640697582349
 30
0.0
 11
-324.7025360932221
 21
671.3640697582349
 31
0.0
  0
LINE
  5
254
330
1F
100
AcDbEntity
  8
C-2
  6
Continuous
 62
     3
370
     9
100
AcDbLine
 10
-290.7024486644846
 20
573.8641192461995
 30
0.0
 11
-290.7024486644846
 21
765.8643073004646
 31
0.0
  0
LINE
  5
255
330
1F
100
AcDbEntity
  8
C-2
  6
Continuous
 62
     3
370
     9
100
AcDbLine
 10
-294.702437117293
 20
573.8641192461995
 30
0.0
 11
-294.702437117293
 21
765.8643073004646
 31
0.0
  0
LINE
  5
256
330
1F
100
AcDbEntity
  8
C-2
  6
Continuous
 62
     3
370
     9
100
AcDbLine
 10
-320.702671360325
 20
668.3643567884292
 30
0.0
 11
-294.702437117293
 21
668.3643567884292
 31
0.0
  0
LINE
  5
257
330
1F
100
AcDbEntity
  8
C-2
  6
Continuous
 62
     3
370
     9
100
AcDbLine
 10
-320.702671360325
 20
671.3640697582349
 30
0.0
 11
-294.702437117293
 21
671.3640697582349
 31
0.0
  0
LINE
  5
258
330
1F
100
AcDbEntity
  8
C-2
  6
Continuous
 62
     3
370
     9
100
AcDbLine
 10
-260.7023496885557
 20
573.8641192461995
 30
0.0
 11
-260.7023496885557
 21
765.8643073004646
 31
0.0
  0
LINE
  5
259
330
1F
100
AcDbEntity
  8
C-2
  6
Continuous
 62
     3
370
     9
100
AcDbLine
 10
-264.7023381413638
 20
573.8641192461995
 30
0.0
 11
-264.7023381413638
 21
765.8643073004646
 31
0.0
  0
LINE
  5
25A
330
1F
100
AcDbEntity
  8
C-2
  6
Continuous
 62
     3
370
     9
100
AcDbLine
 10
-290.7024486644846
 20
668.3643567884292
 30
0.0
 11
-264.7023381413638
 21
668.3643567884292
 31
0.0
  0
LINE
  5
25B
330
1F
100
AcDbEntity
  8
C-2
  6
Continuous
 62
     3
370
     9
100
AcDbLine
 10
-290.7024486644846
 20
671.3640697582349
 30
0.0
 11
-264.7023381413638
 21
671.3640697582349
 31
0.0
  0
LINE
  5
25C
330
1F
100
AcDbEntity
  8
C-2
  6
Continuous
 62
     3
370
     9
100
AcDbLine
 10
-230.7027455922719
 20
573.8641192461995
 30
0.0
 11
-230.7027455922719
 21
765.8643073004646
 31
0.0
  0
LINE
  5
25D
330
1F
100
AcDbEntity
  8
C-2
  6
Continuous
 62
     3
370
     9
100
AcDbLine
 10
-234.7026103251687
 20
573.8641192461995
 30
0.0
 11
-234.7026103251687
 21
765.8643073004646
 31
0.0
  0
LINE
  5
25E
330
1F
100
AcDbEntity
  8
C-2
  6
Continuous
 62
     3
370
     9
100
AcDbLine
 10
-260.7023496885557
 20
668.3643567884292
 30
0.0
 11
-234.7026103251687
 21
668.3643567884292
 31
0.0
  0
LINE
  5
25F
330
1F
100
AcDbEntity
  8
C-2
  6
Continuous
 62
     3
370
     9
100
AcDbLine
 10
-260.7023496885557
 20
671.3640697582349
 30
0.0
 11
-234.7026103251687
 21
671.3640697582349
 31
0.0
  0
LINE
  5
260
330
1F
100
AcDbEntity
  8
C-2
  6
Continuous
 62
     3
370
     9
100
AcDbLine
 10
-200.7026466163427
 20
573.8641192461995
 30
0.0
 11
-200.7026466163427
 21
765.8643073004646
 31
0.0
  0
LINE
  5
261
330
1F
100
AcDbEntity
  8
C-2
  6
Continuous
 62
     3
370
     9
100
AcDbLine
 10
-204.7025113492398
 20
573.8641192461995
 30
0.0
 11
-204.7025113492398
 21
765.8643073004646
 31
0.0
  0
LINE
  5
262
330
1F
100
AcDbEntity
  8
C-2
  6
Continuous
 62
     3
370
     9
100
AcDbLine
 10
-230.7027455922719
 20
668.3643567884292
 30
0.0
 11
-204.7025113492398
 21
668.3643567884292
 31
0.0
  0
LINE
  5
263
330
1F
100
AcDbEntity
  8
C-2
  6
Continuous
 62
     3
370
     9
100
AcDbLine
 10
-230.7027455922719
 20
671.3640697582349
 30
0.0
 11
-204.7025113492398
 21
671.3640697582349
 31
0.0
  0
LINE
  5
264
330
1F
100
AcDbEntity
  8
C-2
  6
Continuous
 62
     3
370
     9
100
AcDbLine
 10
-170.7025476404138
 20
573.8641192461995
 30
0.0
 11
-170.7025476404138
 21
765.8643073004646
 31
0.0
  0
LINE
  5
265
330
1F
100
AcDbEntity
  8
C-2
  6
Continuous
 62
     3
370
     9
100
AcDbLine
 10
-174.7024123733107
 20
573.8641192461995
 30
0.0
 11
-174.7024123733107
 21
765.8643073004646
 31
0.0
  0
LINE
  5
266
330
1F
100
AcDbEntity
  8
C-2
  6
Continuous
 62
     3
370
     9
100
AcDbLine
 10
-200.7026466163427
 20
668.3643567884292
 30
0.0
 11
-174.7024123733107
 21
668.3643567884292
 31
0.0
  0
LINE
  5
267
330
1F
100
AcDbEntity
  8
C-2
  6
Continuous
 62
     3
370
     9
100
AcDbLine
 10
-200.7026466163427
 20
671.3640697582349
 30
0.0
 11
-174.7024123733107
 21
671.3640697582349
 31
0.0
  0
LINE
  5
268
330
1F
100
AcDbEntity
  8
C-2
  6
Continuous
 62
     3
370
     9
100
AcDbLine
 10
-140.7028198242188
 20
573.8641192461995
 30
0.0
 11
-140.7028198242188
 21
765.8643073004646
 31
0.0
  0
LINE
  5
269
330
1F
100
AcDbEntity
  8
C-2
  6
Continuous
 62
     3
370
     9
100
AcDbLine
 10
-144.7021896774703
 20
573.8641192461995
 30
0.0
 11
-144.7021896774703
 21
765.8643073004646
 31
0.0
  0
LINE
  5
26A
330
1F
100
AcDbEntity
  8
C-2
  6
Continuous
 62
     3
370
     9
100
AcDbLine
 10
-170.7025476404138
 20
668.3643567884292
 30
0.0
 11
-144.7021896774703
 21
668.3643567884292
 31
0.0
  0
LINE
  5
26B
330
1F
100
AcDbEntity
  8
C-2
  6
Continuous
 62
     3
370
     9
100
AcDbLine
 10
-170.7025476404138
 20
671.3640697582349
 30
0.0
 11
-144.7021896774703
 21
671.3640697582349
 31
0.0
  0
LINE
  5
26C
330
1F
100
AcDbEntity
  8
C-2
  6
Continuous
 62
     3
370
     9
100
AcDbLine
 10
-110.7027208482896
 20
573.8641192461995
 30
0.0
 11
-110.7027208482896
 21
765.8643073004646
 31
0.0
  0
LINE
  5
26D
330
1F
100
AcDbEntity
  8
C-2
  6
Continuous
 62
     3
370
     9
100
AcDbLine
 10
-114.7025855811864
 20
573.8641192461995
 30
0.0
 11
-114.7025855811864
 21
765.8643073004646
 31
0.0
  0
LINE
  5
26E
330
1F
100
AcDbEntity
  8
C-2
  6
Continuous
 62
     3
370
     9
100
AcDbLine
 10
-140.7028198242188
 20
668.3643567884292
 30
0.0
 11
-114.7025855811864
 21
668.3643567884292
 31
0.0
  0
LINE
  5
26F
330
1F
100
AcDbEntity
  8
C-2
  6
Continuous
 62
     3
370
     9
100
AcDbLine
 10
-140.7028198242188
 20
671.3640697582349
 30
0.0
 11
-114.7025855811864
 21
671.3640697582349
 31
0.0
  0
LINE
  5
270
330
1F
100
AcDbEntity
  8
C-2
  6
Continuous
 62
     3
370
     9
100
AcDbLine
 10
-80.70249815244921
 20
573.8641192461995
 30
0.0
 11
-80.70249815244921
 21
765.8643073004646
 31
0.0
  0
LINE
  5
271
330
1F
100
AcDbEntity
  8
C-2
  6
Continuous
 62
     3
370
     9
100
AcDbLine
 10
-84.70248660525755
 20
573.8641192461995
 30
0.0
 11
-84.70248660525755
 21
765.8643073004646
 31
0.0
  0
LINE
  5
272
330
1F
100
AcDbEntity
  8
C-2
  6
Continuous
 62
     3
370
     9
100
AcDbLine
 10
-110.7027208482896
 20
668.3643567884292
 30
0.0
 11
-84.70248660525755
 21
668.3643567884292
 31
0.0
  0
LINE
  5
273
330
1F
100
AcDbEntity
  8
C-2
  6
Continuous
 62
     3
370
     9
100
AcDbLine
 10
-110.7027208482896
 20
671.3640697582349
 30
0.0
 11
-84.70248660525755
 21
671.3640697582349
 31
0.0
  0
LINE
  5
274
330
1F
100
AcDbEntity
  8
C-2
  6
Continuous
 62
     3
370
     9
100
AcDbLine
 10
-50.70239917652003
 20
573.8641192461995
 30
0.0
 11
-50.70239917652003
 21
765.8643073004646
 31
0.0
  0
LINE
  5
275
330
1F
100
AcDbEntity
  8
C-2
  6
Continuous
 62
     3
370
     9
100
AcDbLine
 10
-54.70226390941718
 20
573.8641192461995
 30
0.0
 11
-54.70226390941718
 21
765.8643073004646
 31
0.0
  0
LINE
  5
276
330
1F
100
AcDbEntity
  8
C-2
  6
Continuous
 62
     3
370
     9
100
AcDbLine
 10
-80.70249815244921
 20
668.3643567884292
 30
0.0
 11
-54.70226390941718
 21
668.3643567884292
 31
0.0
  0
LINE
  5
277
330
1F
100
AcDbEntity
  8
C-2
  6
Continuous
 62
     3
370
     9
100
AcDbLine
 10
-80.70249815244921
 20
671.3640697582349
 30
0.0
 11
-54.70226390941718
 21
671.3640697582349
 31
0.0
  0
LINE
  5
278
330
1F
100
AcDbEntity
  8
C-2
  6
Continuous
 62
     3
370
     9
100
AcDbLine
 10
-20.70230020059114
 20
573.8641192461995
 30
0.0
 11
-20.70230020059114
 21
765.8643073004646
 31
0.0
  0
LINE
  5
279
330
1F
100
AcDbEntity
  8
C-2
  6
Continuous
 62
     3
370
     9
100
AcDbLine
 10
-24.70265981313332
 20
573.8641192461995
 30
0.0
 11
-24.70265981313332
 21
765.8643073004646
 31
0.0
  0
LINE
  5
27A
330
1F
100
AcDbEntity
  8
C-2
  6
Continuous
 62
     3
370
     9
100
AcDbLine
 10
-50.70289405616535
 20
668.3643567884292
 30
0.0
 11
-24.70265981313332
 21
668.3643567884292
 31
0.0
  0
LINE
  5
27B
330
1F
100
AcDbEntity
  8
C-2
  6
Continuous
 62
     3
370
     9
100
AcDbLine
 10
-50.70289405616535
 20
671.3640697582349
 30
0.0
 11
-24.70265981313332
 21
671.3640697582349
 31
0.0
  0
LINE
  5
27C
330
1F
100
AcDbEntity
  8
C-2
  6
Continuous
 62
     3
370
     9
100
AcDbLine
 10
9.297303895692721
 20
573.8641192461995
 30
0.0
 11
9.297303895692721
 21
765.8643073004646
 31
0.0
  0
LINE
  5
27D
330
1F
100
AcDbEntity
  8
C-2
  6
Continuous
 62
     3
370
     9
100
AcDbLine
 10
5.297439162795854
 20
573.8641192461995
 30
0.0
 11
5.297439162795854
 21
765.8643073004646
 31
0.0
  0
LINE
  5
27E
330
1F
100
AcDbEntity
  8
C-2
  6
Continuous
 62
     3
370
     9
100
AcDbLine
 10
-20.70230020059114
 20
668.3643567884292
 30
0.0
 11
5.297439162795854
 21
668.3643567884292
 31
0.0
  0
LINE
  5
27F
330
1F
100
AcDbEntity
  8
C-2
  6
Continuous
 62
     3
370
     9
100
AcDbLine
 10
-20.70230020059114
 20
671.3640697582349
 30
0.0
 11
5.297439162795854
 21
671.3640697582349
 31
0.0
  0
LINE
  5
280
330
1F
100
AcDbEntity
  8
C-2
  6
Continuous
 62
     3
370
     9
100
AcDbLine
 10
39.29740287162161
 20
573.8641192461995
 30
0.0
 11
39.29740287162161
 21
765.8643073004646
 31
0.0
  0
LINE
  5
281
330
1F
100
AcDbEntity
  8
C-2
  6
Continuous
 62
     3
370
     9
100
AcDbLine
 10
35.29753813872475
 20
573.8641192461995
 30
0.0
 11
35.29753813872475
 21
765.8643073004646
 31
0.0
  0
LINE
  5
282
330
1F
100
AcDbEntity
  8
C-2
  6
Continuous
 62
     3
370
     9
100
AcDbLine
 10
9.297303895692721
 20
668.3643567884292
 30
0.0
 11
35.29753813872475
 21
668.3643567884292
 31
0.0
  0
LINE
  5
283
330
1F
100
AcDbEntity
  8
C-2
  6
Continuous
 62
     3
370
     9
100
AcDbLine
 10
9.297303895692721
 20
671.3640697582349
 30
0.0
 11
35.29753813872475
 21
671.3640697582349
 31
0.0
  0
LINE
  5
284
330
1F
100
AcDbEntity
  8
C-2
  6
Continuous
 62
     3
370
     9
100
AcDbLine
 10
69.29750184755086
 20
573.8641192461995
 30
0.0
 11
69.29750184755086
 21
765.8643073004646
 31
0.0
  0
LINE
  5
285
330
1F
100
AcDbEntity
  8
C-2
  6
Continuous
 62
     3
370
     9
100
AcDbLine
 10
65.29738967483127
 20
573.8641192461995
 30
0.0
 11
65.29738967483127
 21
765.8643073004646
 31
0.0
  0
LINE
  5
286
330
1F
100
AcDbEntity
  8
C-2
  6
Continuous
 62
     3
370
     9
100
AcDbLine
 10
39.29740287162161
 20
668.3643567884292
 30
0.0
 11
65.29738967483127
 21
668.3643567884292
 31
0.0
  0
LINE
  5
287
330
1F
100
AcDbEntity
  8
C-2
  6
Continuous
 62
     3
370
     9
100
AcDbLine
 10
39.29740287162161
 20
671.3640697582349
 30
0.0
 11
65.29738967483127
 21
671.3640697582349
 31
0.0
  0
LINE
  5
288
330
1F
100
AcDbEntity
  8
C-2
  6
Continuous
 62
     3
370
     9
100
AcDbLine
 10
99.29735338365731
 20
573.8641192461995
 30
0.0
 11
99.29735338365731
 21
765.8643073004646
 31
0.0
  0
LINE
  5
289
330
1F
100
AcDbEntity
  8
C-2
  6
Continuous
 62
     3
370
     9
100
AcDbLine
 10
95.29748865076023
 20
573.8641192461995
 30
0.0
 11
95.29748865076023
 21
765.8643073004646
 31
0.0
  0
LINE
  5
28A
330
1F
100
AcDbEntity
  8
C-2
  6
Continuous
 62
     3
370
     9
100
AcDbLine
 10
69.29750184755086
 20
668.3643567884292
 30
0.0
 11
95.29748865076023
 21
668.3643567884292
 31
0.0
  0
LINE
  5
28B
330
1F
100
AcDbEntity
  8
C-2
  6
Continuous
 62
     3
370
     9
100
AcDbLine
 10
69.29750184755086
 20
671.3640697582349
 30
0.0
 11
95.29748865076023
 21
671.3640697582349
 31
0.0
  0
LINE
  5
28C
330
1F
100
AcDbEntity
  8
C-2
  6
Continuous
 62
     3
370
     9
100
AcDbLine
 10
129.2979472392316
 20
573.8641192461995
 30
0.0
 11
129.2979472392316
 21
765.8643073004646
 31
0.0
  0
LINE
  5
28D
330
1F
100
AcDbEntity
  8
C-2
  6
Continuous
 62
     3
370
     9
100
AcDbLine
 10
125.2975876266894
 20
573.8641192461995
 30
0.0
 11
125.2975876266894
 21
765.8643073004646
 31
0.0
  0
LINE
  5
28E
330
1F
100
AcDbEntity
  8
C-2
  6
Continuous
 62
     3
370
     9
100
AcDbLine
 10
99.29735338365731
 20
668.3643567884292
 30
0.0
 11
125.2975876266894
 21
668.3643567884292
 31
0.0
  0
LINE
  5
28F
330
1F
100
AcDbEntity
  8
C-2
  6
Continuous
 62
     3
370
     9
100
AcDbLine
 10
99.29735338365731
 20
671.3640697582349
 30
0.0
 11
125.2975876266894
 21
671.3640697582349
 31
0.0
  0
LINE
  5
290
330
1F
100
AcDbEntity
  8
C-2
  6
Continuous
 62
     3
370
     9
100
AcDbLine
 10
159.2975513355154
 20
573.8641192461995
 30
0.0
 11
159.2975513355154
 21
765.8643073004646
 31
0.0
  0
LINE
  5
291
330
1F
100
AcDbEntity
  8
C-2
  6
Continuous
 62
     3
370
     9
100
AcDbLine
 10
155.2976866026182
 20
573.8641192461995
 30
0.0
 11
155.2976866026182
 21
765.8643073004646
 31
0.0
  0
LINE
  5
292
330
1F
100
AcDbEntity
  8
C-2
  6
Continuous
 62
     3
370
     9
100
AcDbLine
 10
129.2979472392316
 20
668.3643567884292
 30
0.0
 11
155.2976866026182
 21
668.3643567884292
 31
0.0
  0
LINE
  5
293
330
1F
100
AcDbEntity
  8
C-2
  6
Continuous
 62
     3
370
     9
100
AcDbLine
 10
129.2979472392316
 20
671.3640697582349
 30
0.0
 11
155.2976866026182
 21
671.3640697582349
 31
0.0
  0
LINE
  5
294
330
1F
100
AcDbEntity
  8
C-2
  6
Continuous
 62
     3
370
     9
100
AcDbLine
 10
189.2976503114443
 20
573.8641192461995
 30
0.0
 11
189.2976503114443
 21
765.8643073004646
 31
0.0
  0
LINE
  5
295
330
1F
100
AcDbEntity
  8
C-2
  6
Continuous
 62
     3
370
     9
100
AcDbLine
 10
185.2977855785474
 20
573.8641192461995
 30
0.0
 11
185.2977855785474
 21
765.8643073004646
 31
0.0
  0
LINE
  5
296
330
1F
100
AcDbEntity
  8
C-2
  6
Continuous
 62
     3
370
     9
100
AcDbLine
 10
159.2975513355154
 20
668.3643567884292
 30
0.0
 11
185.2977855785474
 21
668.3643567884292
 31
0.0
  0
LINE
  5
297
330
1F
100
AcDbEntity
  8
C-2
  6
Continuous
 62
     3
370
     9
100
AcDbLine
 10
159.2975513355154
 20
671.3640697582349
 30
0.0
 11
185.2977855785474
 21
671.3640697582349
 31
0.0
  0
LINE
  5
298
330
1F
100
AcDbEntity
  8
C-2
  6
Continuous
 62
     3
370
     9
100
AcDbLine
 10
219.2979967271961
 20
573.8641192461995
 30
0.0
 11
219.2979967271961
 21
765.8643073004646
 31
0.0
  0
LINE
  5
299
330
1F
100
AcDbEntity
  8
C-2
  6
Continuous
 62
     3
370
     9
100
AcDbLine
 10
215.2973896748312
 20
573.8641192461995
 30
0.0
 11
215.2973896748312
 21
765.8643073004646
 31
0.0
  0
LINE
  5
29A
330
1F
100
AcDbEntity
  8
C-2
  6
Continuous
 62
     3
370
     9
100
AcDbLine
 10
189.2976503114443
 20
668.3643567884292
 30
0.0
 11
215.2973896748312
 21
668.3643567884292
 31
0.0
  0
LINE
  5
29B
330
1F
100
AcDbEntity
  8
C-2
  6
Continuous
 62
     3
370
     9
100
AcDbLine
 10
189.2976503114443
 20
671.3640697582349
 30
0.0
 11
215.2973896748312
 21
671.3640697582349
 31
0.0
  0
LINE
  5
29C
330
1F
100
AcDbEntity
  8
C-2
  6
Continuous
 62
     3
370
     9
100
AcDbLine
 10
249.2980957031249
 20
573.8641192461995
 30
0.0
 11
249.2980957031249
 21
765.8643073004646
 31
0.0
  0
LINE
  5
29D
330
1F
100
AcDbEntity
  8
C-2
  6
Continuous
 62
     3
370
     9
100
AcDbLine
 10
245.2974886507601
 20
573.8641192461995
 30
0.0
 11
245.2974886507601
 21
765.8643073004646
 31
0.0
  0
LINE
  5
29E
330
1F
100
AcDbEntity
  8
C-2
  6
Continuous
 62
     3
370
     9
100
AcDbLine
 10
219.2979967271961
 20
668.3643567884292
 30
0.0
 11
245.2974886507601
 21
668.3643567884292
 31
0.0
  0
LINE
  5
29F
330
1F
100
AcDbEntity
  8
C-2
  6
Continuous
 62
     3
370
     9
100
AcDbLine
 10
219.2979967271961
 20
671.3640697582349
 30
0.0
 11
245.2974886507601
 21
671.3640697582349
 31
0.0
  0
LINE
  5
2A0
330
1F
100
AcDbEntity
  8
C-2
  6
Continuous
 62
     3
370
     9
100
AcDbLine
 10
275.2975876266893
 20
573.8641192461995
 30
0.0
 11
275.2975876266893
 21
765.8643073004646
 31
0.0
  0
LINE
  5
2A1
330
1F
100
AcDbEntity
  8
C-2
  6
Continuous
 62
     3
370
     9
100
AcDbLine
 10
249.2980957031249
 20
668.3643567884292
 30
0.0
 11
275.2975876266893
 21
668.3643567884292
 31
0.0
  0
LINE
  5
2A2
330
1F
100
AcDbEntity
  8
C-2
  6
Continuous
 62
     3
370
     9
100
AcDbLine
 10
249.2980957031249
 20
671.3640697582349
 30
0.0
 11
275.2975876266893
 21
671.3640697582349
 31
0.0
  0
LINE
  5
2A3
330
1F
100
AcDbEntity
  8
C-9
  6
Continuous
 62
     6
370
     9
100
AcDbLine
 10
-714.7023381413641
 20
659.9741672825169
 30
0.0
 11
-714.188529349662
 21
659.4604822107266
 31
0.0
  0
LINE
  5
2A4
330
1F
100
AcDbEntity
  8
C-9
  6
Continuous
 62
     6
370
     9
100
AcDbLine
 10
-714.7023381413641
 20
662.8024044552367
 30
0.0
 11
-712.600584287901
 21
660.7006506017738
 31
0.0
  0
LINE
  5
2A5
330
1F
100
AcDbEntity
  8
C-9
  6
Continuous
 62
     6
370
     9
100
AcDbLine
 10
-714.7023381413641
 20
665.6303941881336
 30
0.0
 11
-711.0126392261401
 21
661.940818992821
 31
0.0
  0
LINE
  5
2A6
330
1F
100
AcDbEntity
  8
C-9
  6
Continuous
 62
     6
370
     9
100
AcDbLine
 10
-714.7023381413641
 20
668.4596211201438
 30
0.0
 11
-710.7024734084669
 21
664.4592615076016
 31
0.0
  0
LINE
  5
2A7
330
1F
100
AcDbEntity
  8
C-9
  6
Continuous
 62
     6
370
     9
100
AcDbLine
 10
-714.7023381413641
 20
671.2876108530406
 30
0.0
 11
-710.7024734084669
 21
667.2872512404984
 31
0.0
  0
LINE
  5
2A8
330
1F
100
AcDbEntity
  8
C-9
  6
Continuous
 62
     6
370
     9
100
AcDbLine
 10
-714.7023381413641
 20
674.1158480257602
 30
0.0
 11
-710.7024734084669
 21
670.1159832928633
 31
0.0
  0
LINE
  5
2A9
330
1F
100
AcDbEntity
  8
C-9
  6
Continuous
 62
     6
370
     9
100
AcDbLine
 10
-714.7023381413641
 20
676.944580078125
 30
0.0
 11
-710.7024734084669
 21
672.9444679054054
 31
0.0
  0
LINE
  5
2AA
330
1F
100
AcDbEntity
  8
C-9
  6
Continuous
 62
     6
370
     9
100
AcDbLine
 10
-714.7023381413641
 20
679.7730646906675
 30
0.0
 11
-710.7024734084669
 21
675.772705078125
 31
0.0
  0
LINE
  5
2AB
330
1F
100
AcDbEntity
  8
C-9
  6
Continuous
 62
     6
370
     9
100
AcDbLine
 10
-714.7023381413641
 20
682.601301863387
 30
0.0
 11
-710.7024734084669
 21
678.6014371304901
 31
0.0
  0
LINE
  5
2AC
330
1F
100
AcDbEntity
  8
C-9
  6
Continuous
 62
     6
370
     9
100
AcDbLine
 10
-714.7023381413641
 20
685.4292915962839
 30
0.0
 11
-710.7024734084669
 21
681.4299217430323
 31
0.0
  0
LINE
  5
2AD
330
1F
100
AcDbEntity
  8
C-9
  6
Continuous
 62
     6
370
     9
100
AcDbLine
 10
-714.7023381413641
 20
688.2580236486488
 30
0.0
 11
-710.7024734084669
 21
684.2581589157519
 31
0.0
  0
LINE
  5
2AE
330
1F
100
AcDbEntity
  8
C-9
  6
Continuous
 62
     6
370
     9
100
AcDbLine
 10
-714.7023381413641
 20
691.0867557010135
 30
0.0
 11
-710.7024734084669
 21
687.0861486486488
 31
0.0
  0
LINE
  5
2AF
330
1F
100
AcDbEntity
  8
C-9
  6
Continuous
 62
     6
370
     9
100
AcDbLine
 10
-714.7023381413641
 20
693.9147454339106
 30
0.0
 11
-710.7024734084669
 21
689.9153755806589
 31
0.0
  0
LINE
  5
2B0
330
1F
100
AcDbEntity
  8
C-9
  6
Continuous
 62
     6
370
     9
100
AcDbLine
 10
-714.7023381413641
 20
696.7434774862755
 30
0.0
 11
-710.7024734084669
 21
692.7436127533783
 31
0.0
  0
LINE
  5
2B1
330
1F
100
AcDbEntity
  8
C-9
  6
Continuous
 62
     6
370
     9
100
AcDbLine
 10
-714.7023381413641
 20
699.5719620988177
 30
0.0
 11
-710.7024734084669
 21
695.5716024862755
 31
0.0
  0
LINE
  5
2B2
330
1F
100
AcDbEntity
  8
C-9
  6
Continuous
 62
     6
370
     9
100
AcDbLine
 10
-714.7023381413641
 20
702.4001992715373
 30
0.0
 11
-710.7024734084669
 21
698.4003345386404
 31
0.0
  0
LINE
  5
2B3
330
1F
100
AcDbEntity
  8
C-9
  6
Continuous
 62
     6
370
     9
100
AcDbLine
 10
-714.7023381413641
 20
705.2284364442568
 30
0.0
 11
-710.7024734084669
 21
701.2288191511825
 31
0.0
  0
LINE
  5
2B4
330
1F
100
AcDbEntity
  8
C-9
  6
Continuous
 62
     6
370
     9
100
AcDbLine
 10
-714.7023381413641
 20
708.0569210567992
 30
0.0
 11
-710.7024734084669
 21
704.0570563239021
 31
0.0
  0
LINE
  5
2B5
330
1F
100
AcDbEntity
  8
C-9
  6
Continuous
 62
     6
370
     9
100
AcDbLine
 10
-714.7023381413641
 20
710.8856531091641
 30
0.0
 11
-710.7024734084669
 21
706.8850460567992
 31
0.0
  0
LINE
  5
2B6
330
1F
100
AcDbEntity
  8
C-9
  6
Continuous
 62
     6
370
     9
100
AcDbLine
 10
-714.7023381413641
 20
713.713642842061
 30
0.0
 11
-710.7024734084669
 21
709.7142729888092
 31
0.0
  0
LINE
  5
2B7
330
1F
100
AcDbEntity
  8
C-9
  6
Continuous
 62
     6
370
     9
100
AcDbLine
 10
-714.7023381413641
 20
716.5423748944258
 30
0.0
 11
-710.7024734084669
 21
712.5422627217063
 31
0.0
  0
LINE
  5
2B8
330
1F
100
AcDbEntity
  8
C-9
  6
Continuous
 62
     6
370
     9
100
AcDbLine
 10
-714.7023381413641
 20
719.3708595069679
 30
0.0
 11
-710.7024734084669
 21
715.3704998944258
 31
0.0
  0
LINE
  5
2B9
330
1F
100
AcDbEntity
  8
C-9
  6
Continuous
 62
     6
370
     9
100
AcDbLine
 10
-714.7023381413641
 20
722.1990966796875
 30
0.0
 11
-710.7024734084669
 21
718.1992319467906
 31
0.0
  0
LINE
  5
2BA
330
1F
100
AcDbEntity
  8
C-9
  6
Continuous
 62
     6
370
     9
100
AcDbLine
 10
-714.7023381413641
 20
725.0273338524073
 30
0.0
 11
-710.7024734084669
 21
721.0277165593328
 31
0.0
  0
LINE
  5
2BB
330
1F
100
AcDbEntity
  8
C-9
  6
Continuous
 62
     6
370
     9
100
AcDbLine
 10
-714.7023381413641
 20
727.8558184649495
 30
0.0
 11
-710.7024734084669
 21
723.8559537320526
 31
0.0
  0
LINE
  5
2BC
330
1F
100
AcDbEntity
  8
C-9
  6
Continuous
 62
     6
370
     9
100
AcDbLine
 10
-714.7023381413641
 20
730.6845505173144
 30
0.0
 11
-710.7024734084669
 21
726.6841909047721
 31
0.0
  0
LINE
  5
2BD
330
1F
100
AcDbEntity
  8
C-9
  6
Continuous
 62
     6
370
     9
100
AcDbLine
 10
-714.7023381413641
 20
733.5125402502113
 30
0.0
 11
-710.7024734084669
 21
729.5126755173144
 31
0.0
  0
LINE
  5
2BE
330
1F
100
AcDbEntity
  8
C-9
  6
Continuous
 62
     6
370
     9
100
AcDbLine
 10
-714.7023381413641
 20
736.341272302576
 30
0.0
 11
-710.7024734084669
 21
732.3414075696792
 31
0.0
  0
LINE
  5
2BF
330
1F
100
AcDbEntity
  8
C-9
  6
Continuous
 62
     6
370
     9
100
AcDbLine
 10
-714.7023381413641
 20
739.1700043549408
 30
0.0
 11
-710.7024734084669
 21
735.169397302576
 31
0.0
  0
LINE
  5
2C0
330
1F
100
AcDbEntity
  8
C-9
  6
Continuous
 62
     6
370
     9
100
AcDbLine
 10
-714.7023381413641
 20
741.997994087838
 30
0.0
 11
-710.7024734084669
 21
737.9981293549408
 31
0.0
  0
LINE
  5
2C1
330
1F
100
AcDbEntity
  8
C-9
  6
Continuous
 62
     6
370
     9
100
AcDbLine
 10
-714.7023381413641
 20
744.8262312605575
 30
0.0
 11
-710.7024734084669
 21
740.8266139674834
 31
0.0
  0
LINE
  5
2C2
330
1F
100
AcDbEntity
  8
C-9
  6
Continuous
 62
     6
370
     9
100
AcDbLine
 10
-714.7023381413641
 20
747.655210752745
 30
0.0
 11
-710.7024734084669
 21
743.6548511402029
 31
0.0
  0
LINE
  5
2C3
330
1F
100
AcDbEntity
  8
C-9
  6
Continuous
 62
     6
370
     9
100
AcDbLine
 10
-714.7023381413641
 20
750.4834479254646
 30
0.0
 11
-710.7024734084669
 21
746.4830883129224
 31
0.0
  0
LINE
  5
2C4
330
1F
100
AcDbEntity
  8
C-9
  6
Continuous
 62
     6
370
     9
100
AcDbLine
 10
-714.7023381413641
 20
753.3114376583617
 30
0.0
 11
-710.7024734084669
 21
749.3115729254646
 31
0.0
  0
LINE
  5
2C5
330
1F
100
AcDbEntity
  8
C-9
  6
Continuous
 62
     6
370
     9
100
AcDbLine
 10
-714.7023381413641
 20
756.1401697107266
 30
0.0
 11
-710.7024734084669
 21
752.1403049778294
 31
0.0
  0
LINE
  5
2C6
330
1F
100
AcDbEntity
  8
C-9
  6
Continuous
 62
     6
370
     9
100
AcDbLine
 10
-714.7023381413641
 20
758.9689017630915
 30
0.0
 11
-710.7024734084669
 21
754.9682947107266
 31
0.0
  0
LINE
  5
2C7
330
1F
100
AcDbEntity
  8
C-9
  6
Continuous
 62
     6
370
     9
100
AcDbLine
 10
-714.7023381413641
 20
761.7968914959883
 30
0.0
 11
-710.7024734084669
 21
757.796531883446
 31
0.0
  0
LINE
  5
2C8
330
1F
100
AcDbEntity
  8
C-9
  6
Continuous
 62
     6
370
     9
100
AcDbLine
 10
-714.7023381413641
 20
764.6251286687078
 30
0.0
 11
-710.7024734084669
 21
760.6257588154563
 31
0.0
  0
LINE
  5
2C9
330
1F
100
AcDbEntity
  8
C-9
  6
Continuous
 62
     6
370
     9
100
AcDbLine
 10
-713.1129084406672
 20
765.8648021801099
 30
0.0
 11
-710.7024734084669
 21
763.4537485483531
 31
0.0
  0
LINE
  5
2CA
330
1F
100
AcDbEntity
  8
C-9
  6
Continuous
 62
     6
370
     9
100
AcDbLine
 10
-714.7023381413641
 20
660.2505575644005
 30
0.0
 11
-710.7024734084669
 21
664.2509171769427
 31
0.0
  0
LINE
  5
2CB
330
1F
100
AcDbEntity
  8
C-9
  6
Continuous
 62
     6
370
     9
100
AcDbLine
 10
-714.7023381413641
 20
663.0792896167654
 30
0.0
 11
-710.7024734084669
 21
667.0791543496623
 31
0.0
  0
LINE
  5
2CC
330
1F
100
AcDbEntity
  8
C-9
  6
Continuous
 62
     6
370
     9
100
AcDbLine
 10
-714.7023381413641
 20
665.9077742293075
 30
0.0
 11
-710.7024734084669
 21
669.9078864020271
 31
0.0
  0
LINE
  5
2CD
330
1F
100
AcDbEntity
  8
C-9
  6
Continuous
 62
     6
370
     9
100
AcDbLine
 10
-714.7023381413641
 20
668.7360114020271
 30
0.0
 11
-710.7024734084669
 21
672.7363710145693
 31
0.0
  0
LINE
  5
2CE
330
1F
100
AcDbEntity
  8
C-9
  6
Continuous
 62
     6
370
     9
100
AcDbLine
 10
-714.7023381413641
 20
671.5647434543919
 30
0.0
 11
-710.7024734084669
 21
675.5646081872891
 31
0.0
  0
LINE
  5
2CF
330
1F
100
AcDbEntity
  8
C-9
  6
Continuous
 62
     6
370
     9
100
AcDbLine
 10
-714.7023381413641
 20
674.3932280669342
 30
0.0
 11
-710.7024734084669
 21
678.392597920186
 31
0.0
  0
LINE
  5
2D0
330
1F
100
AcDbEntity
  8
C-9
  6
Continuous
 62
     6
370
     9
100
AcDbLine
 10
-714.7023381413641
 20
677.221465239654
 30
0.0
 11
-710.7024734084669
 21
681.2213299725508
 31
0.0
  0
LINE
  5
2D1
330
1F
100
AcDbEntity
  8
C-9
  6
Continuous
 62
     6
370
     9
100
AcDbLine
 10
-714.7023381413641
 20
680.0494549725508
 30
0.0
 11
-710.7024734084669
 21
684.0500620249156
 31
0.0
  0
LINE
  5
2D2
330
1F
100
AcDbEntity
  8
C-9
  6
Continuous
 62
     6
370
     9
100
AcDbLine
 10
-714.7023381413641
 20
682.8781870249156
 30
0.0
 11
-710.7024734084669
 21
686.8780517578125
 31
0.0
  0
LINE
  5
2D3
330
1F
100
AcDbEntity
  8
C-9
  6
Continuous
 62
     6
370
     9
100
AcDbLine
 10
-714.7023381413641
 20
685.7069190772804
 30
0.0
 11
-710.7024734084669
 21
689.7067838101776
 31
0.0
  0
LINE
  5
2D4
330
1F
100
AcDbEntity
  8
C-9
  6
Continuous
 62
     6
370
     9
100
AcDbLine
 10
-714.7023381413641
 20
688.5349088101776
 30
0.0
 11
-710.7024734084669
 21
692.5352684227198
 31
0.0
  0
LINE
  5
2D5
330
1F
100
AcDbEntity
  8
C-9
  6
Continuous
 62
     6
370
     9
100
AcDbLine
 10
-714.7023381413641
 20
691.3636408625425
 30
0.0
 11
-710.7024734084669
 21
695.3635055954394
 31
0.0
  0
LINE
  5
2D6
330
1F
100
AcDbEntity
  8
C-9
  6
Continuous
 62
     6
370
     9
100
AcDbLine
 10
-714.7023381413641
 20
694.1921254750846
 30
0.0
 11
-710.7024734084669
 21
698.1917427681589
 31
0.0
  0
LINE
  5
2D7
330
1F
100
AcDbEntity
  8
C-9
  6
Continuous
 62
     6
370
     9
100
AcDbLine
 10
-714.7023381413641
 20
697.0203626478042
 30
0.0
 11
-710.7024734084669
 21
701.020227380701
 31
0.0
  0
LINE
  5
2D8
330
1F
100
AcDbEntity
  8
C-9
  6
Continuous
 62
     6
370
     9
100
AcDbLine
 10
-714.7023381413641
 20
699.8485998205238
 30
0.0
 11
-710.7024734084669
 21
703.8489594330658
 31
0.0
  0
LINE
  5
2D9
330
1F
100
AcDbEntity
  8
C-9
  6
Continuous
 62
     6
370
     9
100
AcDbLine
 10
-714.7023381413641
 20
702.6770844330658
 30
0.0
 11
-710.7024734084669
 21
706.676949165963
 31
0.0
  0
LINE
  5
2DA
330
1F
100
AcDbEntity
  8
C-9
  6
Continuous
 62
     6
370
     9
100
AcDbLine
 10
-714.7023381413641
 20
705.5058164854307
 30
0.0
 11
-710.7024734084669
 21
709.5056812183279
 31
0.0
  0
LINE
  5
2DB
330
1F
100
AcDbEntity
  8
C-9
  6
Continuous
 62
     6
370
     9
100
AcDbLine
 10
-714.7023381413641
 20
708.3338062183279
 30
0.0
 11
-710.7024734084669
 21
712.3344132706927
 31
0.0
  0
LINE
  5
2DC
330
1F
100
AcDbEntity
  8
C-9
  6
Continuous
 62
     6
370
     9
100
AcDbLine
 10
-714.7023381413641
 20
711.1625382706927
 30
0.0
 11
-710.7024734084669
 21
715.1624030035896
 31
0.0
  0
LINE
  5
2DD
330
1F
100
AcDbEntity
  8
C-9
  6
Continuous
 62
     6
370
     9
100
AcDbLine
 10
-714.7023381413641
 20
713.9912703230575
 30
0.0
 11
-710.7024734084669
 21
717.9906401763092
 31
0.0
  0
LINE
  5
2DE
330
1F
100
AcDbEntity
  8
C-9
  6
Continuous
 62
     6
370
     9
100
AcDbLine
 10
-714.7023381413641
 20
716.8192600559544
 30
0.0
 11
-710.7024734084669
 21
720.8191247888516
 31
0.0
  0
LINE
  5
2DF
330
1F
100
AcDbEntity
  8
C-9
  6
Continuous
 62
     6
370
     9
100
AcDbLine
 10
-714.7023381413641
 20
719.6474972286742
 30
0.0
 11
-710.7024734084669
 21
723.6478568412165
 31
0.0
  0
LINE
  5
2E0
330
1F
100
AcDbEntity
  8
C-9
  6
Continuous
 62
     6
370
     9
100
AcDbLine
 10
-714.7023381413641
 20
722.4759818412165
 30
0.0
 11
-710.7024734084669
 21
726.476094013936
 31
0.0
  0
LINE
  5
2E1
330
1F
100
AcDbEntity
  8
C-9
  6
Continuous
 62
     6
370
     9
100
AcDbLine
 10
-714.7023381413641
 20
725.3047138935813
 30
0.0
 11
-710.7024734084669
 21
729.3045786264781
 31
0.0
  0
LINE
  5
2E2
330
1F
100
AcDbEntity
  8
C-9
  6
Continuous
 62
     6
370
     9
100
AcDbLine
 10
-714.7023381413641
 20
728.1329510663008
 30
0.0
 11
-710.7024734084669
 21
732.1333106788429
 31
0.0
  0
LINE
  5
2E3
330
1F
100
AcDbEntity
  8
C-9
  6
Continuous
 62
     6
370
     9
100
AcDbLine
 10
-714.7023381413641
 20
730.9609407991977
 30
0.0
 11
-710.7024734084669
 21
734.9613004117401
 31
0.0
  0
LINE
  5
2E4
330
1F
100
AcDbEntity
  8
C-9
  6
Continuous
 62
     6
370
     9
100
AcDbLine
 10
-714.7023381413641
 20
733.7901677312078
 30
0.0
 11
-710.7024734084669
 21
737.7895375844596
 31
0.0
  0
LINE
  5
2E5
330
1F
100
AcDbEntity
  8
C-9
  6
Continuous
 62
     6
370
     9
100
AcDbLine
 10
-714.7023381413641
 20
736.618157464105
 30
0.0
 11
-710.7024734084669
 21
740.6187645164698
 31
0.0
  0
LINE
  5
2E6
330
1F
100
AcDbEntity
  8
C-9
  6
Continuous
 62
     6
370
     9
100
AcDbLine
 10
-714.7023381413641
 20
739.4463946368245
 30
0.0
 11
-710.7024734084669
 21
743.4467542493667
 31
0.0
  0
LINE
  5
2E7
330
1F
100
AcDbEntity
  8
C-9
  6
Continuous
 62
     6
370
     9
100
AcDbLine
 10
-714.7023381413641
 20
742.2751266891894
 30
0.0
 11
-710.7024734084669
 21
746.2749914220863
 31
0.0
  0
LINE
  5
2E8
330
1F
100
AcDbEntity
  8
C-9
  6
Continuous
 62
     6
370
     9
100
AcDbLine
 10
-714.7023381413641
 20
745.1036113017315
 30
0.0
 11
-710.7024734084669
 21
749.1034760346283
 31
0.0
  0
LINE
  5
2E9
330
1F
100
AcDbEntity
  8
C-9
  6
Continuous
 62
     6
370
     9
100
AcDbLine
 10
-714.7023381413641
 20
747.931848474451
 30
0.0
 11
-710.7024734084669
 21
751.9322080869932
 31
0.0
  0
LINE
  5
2EA
330
1F
100
AcDbEntity
  8
C-9
  6
Continuous
 62
     6
370
     9
100
AcDbLine
 10
-714.7023381413641
 20
750.7603330869932
 30
0.0
 11
-710.7024734084669
 21
754.760445259713
 31
0.0
  0
LINE
  5
2EB
330
1F
100
AcDbEntity
  8
C-9
  6
Continuous
 62
     6
370
     9
100
AcDbLine
 10
-714.7023381413641
 20
753.5890651393584
 30
0.0
 11
-710.7024734084669
 21
757.5884349926099
 31
0.0
  0
LINE
  5
2EC
330
1F
100
AcDbEntity
  8
C-9
  6
Continuous
 62
     6
370
     9
100
AcDbLine
 10
-714.7023381413641
 20
756.4170548722552
 30
0.0
 11
-710.7024734084669
 21
760.4171670449748
 31
0.0
  0
LINE
  5
2ED
330
1F
100
AcDbEntity
  8
C-9
  6
Continuous
 62
     6
370
     9
100
AcDbLine
 10
-714.7023381413641
 20
759.24578692462
 30
0.0
 11
-710.7024734084669
 21
763.2456516575169
 31
0.0
  0
LINE
  5
2EE
330
1F
100
AcDbEntity
  8
C-9
  6
Continuous
 62
     6
370
     9
100
AcDbLine
 10
-714.7023381413641
 20
762.0740240973396
 30
0.0
 11
-710.9120549382391
 21
765.8648021801099
 31
0.0
  0
LINE
  5
2EF
330
1F
100
AcDbEntity
  8
C-9
  6
Continuous
 62
     6
370
     9
100
AcDbLine
 10
-714.7023381413641
 20
764.9025087098818
 30
0.0
 11
-713.7401683910471
 21
765.8648021801099
 31
0.0
  0
LINE
  5
2F0
330
1F
100
AcDbEntity
  8
C-9
  6
Continuous
 62
     6
370
     9
100
AcDbLine
 10
-684.7022391654349
 20
672.6779752164276
 30
0.0
 11
-680.7028693121833
 21
676.6783348289698
 31
0.0
  0
LINE
  5
2F1
330
1F
100
AcDbEntity
  8
C-9
  6
Continuous
 62
     6
370
     9
100
AcDbLine
 10
-684.7022391654349
 20
675.5067072687925
 30
0.0
 11
-680.7028693121833
 21
679.5065720016894
 31
0.0
  0
LINE
  5
2F2
330
1F
100
AcDbEntity
  8
C-9
  6
Continuous
 62
     6
370
     9
100
AcDbLine
 10
-684.7022391654349
 20
678.3351918813346
 30
0.0
 11
-680.7028693121833
 21
682.3350566142315
 31
0.0
  0
LINE
  5
2F3
330
1F
100
AcDbEntity
  8
C-9
  6
Continuous
 62
     6
370
     9
100
AcDbLine
 10
-684.7022391654349
 20
681.1634290540542
 30
0.0
 11
-680.7028693121833
 21
685.163293786951
 31
0.0
  0
LINE
  5
2F4
330
1F
100
AcDbEntity
  8
C-9
  6
Continuous
 62
     6
370
     9
100
AcDbLine
 10
-684.7022391654349
 20
683.9916662267738
 30
0.0
 11
-680.7028693121833
 21
687.9920258393158
 31
0.0
  0
LINE
  5
2F5
330
1F
100
AcDbEntity
  8
C-9
  6
Continuous
 62
     6
370
     9
100
AcDbLine
 10
-684.7022391654349
 20
686.8201508393158
 30
0.0
 11
-680.7028693121833
 21
690.820015572213
 31
0.0
  0
LINE
  5
2F6
330
1F
100
AcDbEntity
  8
C-9
  6
Continuous
 62
     6
370
     9
100
AcDbLine
 10
-684.7022391654349
 20
689.6488828916807
 30
0.0
 11
-680.7028693121833
 21
693.6487476245779
 31
0.0
  0
LINE
  5
2F7
330
1F
100
AcDbEntity
  8
C-9
  6
Continuous
 62
     6
370
     9
100
AcDbLine
 10
-684.7022391654349
 20
692.4768726245779
 30
0.0
 11
-680.7028693121833
 21
696.47723223712
 31
0.0
  0
LINE
  5
2F8
330
1F
100
AcDbEntity
  8
C-9
  6
Continuous
 62
     6
370
     9
100
AcDbLine
 10
-684.7022391654349
 20
695.3056046769427
 30
0.0
 11
-680.7028693121833
 21
699.3054694098396
 31
0.0
  0
LINE
  5
2F9
330
1F
100
AcDbEntity
  8
C-9
  6
Continuous
 62
     6
370
     9
100
AcDbLine
 10
-684.7022391654349
 20
698.1340892894849
 30
0.0
 11
-680.7028693121833
 21
702.1337065825592
 31
0.0
  0
LINE
  5
2FA
330
1F
100
AcDbEntity
  8
C-9
  6
Continuous
 62
     6
370
     9
100
AcDbLine
 10
-684.7022391654349
 20
700.9623264622044
 30
0.0
 11
-680.7028693121833
 21
704.9621911951016
 31
0.0
  0
LINE
  5
2FB
330
1F
100
AcDbEntity
  8
C-9
  6
Continuous
 62
     6
370
     9
100
AcDbLine
 10
-684.7022391654349
 20
703.7903161951016
 30
0.0
 11
-680.7028693121833
 21
707.7909232474665
 31
0.0
  0
LINE
  5
2FC
330
1F
100
AcDbEntity
  8
C-9
  6
Continuous
 62
     6
370
     9
100
AcDbLine
 10
-684.7022391654349
 20
706.6190482474665
 30
0.0
 11
-680.7028693121833
 21
710.6189129803633
 31
0.0
  0
LINE
  5
2FD
330
1F
100
AcDbEntity
  8
C-9
  6
Continuous
 62
     6
370
     9
100
AcDbLine
 10
-684.7022391654349
 20
709.4477802998313
 30
0.0
 11
-680.7028693121833
 21
713.4476450327281
 31
0.0
  0
LINE
  5
2FE
330
1F
100
AcDbEntity
  8
C-9
  6
Continuous
 62
     6
370
     9
100
AcDbLine
 10
-684.7022391654349
 20
712.2757700327281
 30
0.0
 11
-680.7028693121833
 21
716.2761296452703
 31
0.0
  0
LINE
  5
2FF
330
1F
100
AcDbEntity
  8
C-9
  6
Continuous
 62
     6
370
     9
100
AcDbLine
 10
-684.7022391654349
 20
715.1045020850929
 30
0.0
 11
-680.7028693121833
 21
719.1043668179901
 31
0.0
  0
LINE
  5
300
330
1F
100
AcDbEntity
  8
C-9
  6
Continuous
 62
     6
370
     9
100
AcDbLine
 10
-684.7022391654349
 20
717.9329866976352
 30
0.0
 11
-680.7028693121833
 21
721.933098870355
 31
0.0
  0
LINE
  5
301
330
1F
100
AcDbEntity
  8
C-9
  6
Continuous
 62
     6
370
     9
100
AcDbLine
 10
-684.7022391654349
 20
720.761223870355
 30
0.0
 11
-680.7028693121833
 21
724.7610886032519
 31
0.0
  0
LINE
  5
302
330
1F
100
AcDbEntity
  8
C-9
  6
Continuous
 62
     6
370
     9
100
AcDbLine
 10
-684.7022391654349
 20
723.5894610430745
 30
0.0
 11
-680.7028693121833
 21
727.5898206556167
 31
0.0
  0
LINE
  5
303
330
1F
100
AcDbEntity
  8
C-9
  6
Continuous
 62
     6
370
     9
100
AcDbLine
 10
-684.7022391654349
 20
726.4179456556167
 30
0.0
 11
-680.7028693121833
 21
730.4178103885135
 31
0.0
  0
LINE
  5
304
330
1F
100
AcDbEntity
  8
C-9
  6
Continuous
 62
     6
370
     9
100
AcDbLine
 10
-684.7022391654349
 20
729.2466777079815
 30
0.0
 11
-680.7028693121833
 21
733.2465424408783
 31
0.0
  0
LINE
  5
305
330
1F
100
AcDbEntity
  8
C-9
  6
Continuous
 62
     6
370
     9
100
AcDbLine
 10
-684.7022391654349
 20
732.0746674408783
 30
0.0
 11
-680.7028693121833
 21
736.0752744932432
 31
0.0
  0
LINE
  5
306
330
1F
100
AcDbEntity
  8
C-9
  6
Continuous
 62
     6
370
     9
100
AcDbLine
 10
-684.7022391654349
 20
734.9033994932432
 30
0.0
 11
-680.7028693121833
 21
738.9032642261404
 31
0.0
  0
LINE
  5
307
330
1F
100
AcDbEntity
  8
C-9
  6
Continuous
 62
     6
370
     9
100
AcDbLine
 10
-684.7022391654349
 20
737.7321315456084
 30
0.0
 11
-680.7028693121833
 21
741.7315013988599
 31
0.0
  0
LINE
  5
308
330
1F
100
AcDbEntity
  8
C-9
  6
Continuous
 62
     6
370
     9
100
AcDbLine
 10
-684.7022391654349
 20
740.5601212785052
 30
0.0
 11
-680.7028693121833
 21
744.5604808910474
 31
0.0
  0
LINE
  5
309
330
1F
100
AcDbEntity
  8
C-9
  6
Continuous
 62
     6
370
     9
100
AcDbLine
 10
-684.7022391654349
 20
743.3883584512248
 30
0.0
 11
-680.7028693121833
 21
747.3887180637669
 31
0.0
  0
LINE
  5
30A
330
1F
100
AcDbEntity
  8
C-9
  6
Continuous
 62
     6
370
     9
100
AcDbLine
 10
-684.7022391654349
 20
746.2168430637669
 30
0.0
 11
-680.7028693121833
 21
750.2169552364867
 31
0.0
  0
LINE
  5
30B
330
1F
100
AcDbEntity
  8
C-9
  6
Continuous
 62
     6
370
     9
100
AcDbLine
 10
-684.7022391654349
 20
749.0455751161318
 30
0.0
 11
-680.7028693121833
 21
753.045439849029
 31
0.0
  0
LINE
  5
30C
330
1F
100
AcDbEntity
  8
C-9
  6
Continuous
 62
     6
370
     9
100
AcDbLine
 10
-684.7022391654349
 20
751.8738122888516
 30
0.0
 11
-680.7028693121833
 21
755.8741719013938
 31
0.0
  0
LINE
  5
30D
330
1F
100
AcDbEntity
  8
C-9
  6
Continuous
 62
     6
370
     9
100
AcDbLine
 10
-684.7022391654349
 20
754.7022969013938
 30
0.0
 11
-680.7028693121833
 21
758.7021616342906
 31
0.0
  0
LINE
  5
30E
330
1F
100
AcDbEntity
  8
C-9
  6
Continuous
 62
     6
370
     9
100
AcDbLine
 10
-684.7022391654349
 20
757.5310289537586
 30
0.0
 11
-680.7028693121833
 21
761.5303988070102
 31
0.0
  0
LINE
  5
30F
330
1F
100
AcDbEntity
  8
C-9
  6
Continuous
 62
     6
370
     9
100
AcDbLine
 10
-684.7022391654349
 20
760.3590186866554
 30
0.0
 11
-680.7028693121833
 21
764.3596257390203
 31
0.0
  0
LINE
  5
310
330
1F
100
AcDbEntity
  8
C-9
  6
Continuous
 62
     6
370
     9
100
AcDbLine
 10
-684.7022391654349
 20
673.5138269372891
 30
0.0
 11
-683.3060599662161
 21
672.1175240181589
 31
0.0
  0
LINE
  5
311
330
1F
100
AcDbEntity
  8
C-9
  6
Continuous
 62
     6
370
     9
100
AcDbLine
 10
-684.7022391654349
 20
676.342558989654
 30
0.0
 11
-681.7179911845437
 21
673.3576924092063
 31
0.0
  0
LINE
  5
312
330
1F
100
AcDbEntity
  8
C-9
  6
Continuous
 62
     6
370
     9
100
AcDbLine
 10
-684.7022391654349
 20
679.1705487225508
 30
0.0
 11
-680.7028693121833
 21
675.170683989654
 31
0.0
  0
LINE
  5
313
330
1F
100
AcDbEntity
  8
C-9
  6
Continuous
 62
     6
370
     9
100
AcDbLine
 10
-684.7022391654349
 20
681.9987858952703
 30
0.0
 11
-680.7028693121833
 21
677.9994160420188
 31
0.0
  0
LINE
  5
314
330
1F
100
AcDbEntity
  8
C-9
  6
Continuous
 62
     6
370
     9
100
AcDbLine
 10
-684.7022391654349
 20
684.8277653874578
 30
0.0
 11
-680.7028693121833
 21
680.8274057749156
 31
0.0
  0
LINE
  5
315
330
1F
100
AcDbEntity
  8
C-9
  6
Continuous
 62
     6
370
     9
100
AcDbLine
 10
-684.7022391654349
 20
687.6560025601776
 30
0.0
 11
-680.7028693121833
 21
683.6556429476352
 31
0.0
  0
LINE
  5
316
330
1F
100
AcDbEntity
  8
C-9
  6
Continuous
 62
     6
370
     9
100
AcDbLine
 10
-684.7022391654349
 20
690.4842397328971
 30
0.0
 11
-680.7028693121833
 21
686.4846224398227
 31
0.0
  0
LINE
  5
317
330
1F
100
AcDbEntity
  8
C-9
  6
Continuous
 62
     6
370
     9
100
AcDbLine
 10
-684.7022391654349
 20
693.3127243454394
 30
0.0
 11
-680.7028693121833
 21
689.3128596125425
 31
0.0
  0
LINE
  5
318
330
1F
100
AcDbEntity
  8
C-9
  6
Continuous
 62
     6
370
     9
100
AcDbLine
 10
-684.7022391654349
 20
696.1414563978042
 30
0.0
 11
-680.7028693121833
 21
692.141096785262
 31
0.0
  0
LINE
  5
319
330
1F
100
AcDbEntity
  8
C-9
  6
Continuous
 62
     6
370
     9
100
AcDbLine
 10
-684.7022391654349
 20
698.9696935705238
 30
0.0
 11
-680.7028693121833
 21
694.9695813978042
 31
0.0
  0
LINE
  5
31A
330
1F
100
AcDbEntity
  8
C-9
  6
Continuous
 62
     6
370
     9
100
AcDbLine
 10
-684.7022391654349
 20
701.7976833034209
 30
0.0
 11
-680.7028693121833
 21
697.798313450169
 31
0.0
  0
LINE
  5
31B
330
1F
100
AcDbEntity
  8
C-9
  6
Continuous
 62
     6
370
     9
100
AcDbLine
 10
-684.7022391654349
 20
704.6264153557856
 30
0.0
 11
-680.7028693121833
 21
700.6263031830658
 31
0.0
  0
LINE
  5
31C
330
1F
100
AcDbEntity
  8
C-9
  6
Continuous
 62
     6
370
     9
100
AcDbLine
 10
-684.7022391654349
 20
707.4548999683279
 30
0.0
 11
-680.7028693121833
 21
703.4545403557856
 31
0.0
  0
LINE
  5
31D
330
1F
100
AcDbEntity
  8
C-9
  6
Continuous
 62
     6
370
     9
100
AcDbLine
 10
-684.7022391654349
 20
710.2831371410474
 30
0.0
 11
-680.7028693121833
 21
706.2835198479731
 31
0.0
  0
LINE
  5
31E
330
1F
100
AcDbEntity
  8
C-9
  6
Continuous
 62
     6
370
     9
100
AcDbLine
 10
-684.7022391654349
 20
713.1116217535896
 30
0.0
 11
-680.7028693121833
 21
709.1117570206927
 31
0.0
  0
LINE
  5
31F
330
1F
100
AcDbEntity
  8
C-9
  6
Continuous
 62
     6
370
     9
100
AcDbLine
 10
-684.7022391654349
 20
715.9403538059544
 30
0.0
 11
-680.7028693121833
 21
711.9399941934123
 31
0.0
  0
LINE
  5
320
330
1F
100
AcDbEntity
  8
C-9
  6
Continuous
 62
     6
370
     9
100
AcDbLine
 10
-684.7022391654349
 20
718.7683435388516
 30
0.0
 11
-680.7028693121833
 21
714.7684788059544
 31
0.0
  0
LINE
  5
321
330
1F
100
AcDbEntity
  8
C-9
  6
Continuous
 62
     6
370
     9
100
AcDbLine
 10
-684.7022391654349
 20
721.5970755912165
 30
0.0
 11
-680.7028693121833
 21
717.5972108583193
 31
0.0
  0
LINE
  5
322
330
1F
100
AcDbEntity
  8
C-9
  6
Continuous
 62
     6
370
     9
100
AcDbLine
 10
-684.7022391654349
 20
724.4258076435813
 30
0.0
 11
-680.7028693121833
 21
720.4252005912165
 31
0.0
  0
LINE
  5
323
330
1F
100
AcDbEntity
  8
C-9
  6
Continuous
 62
     6
370
     9
100
AcDbLine
 10
-684.7022391654349
 20
727.2537973764781
 30
0.0
 11
-680.7028693121833
 21
723.2539326435813
 31
0.0
  0
LINE
  5
324
330
1F
100
AcDbEntity
  8
C-9
  6
Continuous
 62
     6
370
     9
100
AcDbLine
 10
-684.7022391654349
 20
730.0820345491977
 30
0.0
 11
-680.7028693121833
 21
726.082664695946
 31
0.0
  0
LINE
  5
325
330
1F
100
AcDbEntity
  8
C-9
  6
Continuous
 62
     6
370
     9
100
AcDbLine
 10
-684.7022391654349
 20
732.9105191617401
 30
0.0
 11
-680.7028693121833
 21
728.9106544288429
 31
0.0
  0
LINE
  5
326
330
1F
100
AcDbEntity
  8
C-9
  6
Continuous
 62
     6
370
     9
100
AcDbLine
 10
-684.7022391654349
 20
735.739251214105
 30
0.0
 11
-680.7028693121833
 21
731.7388916015625
 31
0.0
  0
LINE
  5
327
330
1F
100
AcDbEntity
  8
C-9
  6
Continuous
 62
     6
370
     9
100
AcDbLine
 10
-684.7022391654349
 20
738.5674883868245
 30
0.0
 11
-680.7028693121833
 21
734.567376214105
 31
0.0
  0
LINE
  5
328
330
1F
100
AcDbEntity
  8
C-9
  6
Continuous
 62
     6
370
     9
100
AcDbLine
 10
-684.7022391654349
 20
741.3959729993667
 30
0.0
 11
-680.7028693121833
 21
737.3961082664698
 31
0.0
  0
LINE
  5
329
330
1F
100
AcDbEntity
  8
C-9
  6
Continuous
 62
     6
370
     9
100
AcDbLine
 10
-684.7022391654349
 20
744.2242101720863
 30
0.0
 11
-680.7028693121833
 21
740.2243454391894
 31
0.0
  0
LINE
  5
32A
330
1F
100
AcDbEntity
  8
C-9
  6
Continuous
 62
     6
370
     9
100
AcDbLine
 10
-684.7022391654349
 20
747.0526947846283
 30
0.0
 11
-680.7028693121833
 21
743.0528300517315
 31
0.0
  0
LINE
  5
32B
330
1F
100
AcDbEntity
  8
C-9
  6
Continuous
 62
     6
370
     9
100
AcDbLine
 10
-684.7022391654349
 20
749.8809319573481
 30
0.0
 11
-680.7028693121833
 21
745.881067224451
 31
0.0
  0
LINE
  5
32C
330
1F
100
AcDbEntity
  8
C-9
  6
Continuous
 62
     6
370
     9
100
AcDbLine
 10
-684.7022391654349
 20
752.709664009713
 30
0.0
 11
-680.7028693121833
 21
748.7095518369932
 31
0.0
  0
LINE
  5
32D
330
1F
100
AcDbEntity
  8
C-9
  6
Continuous
 62
     6
370
     9
100
AcDbLine
 10
-684.7022391654349
 20
755.5381486222552
 30
0.0
 11
-680.7028693121833
 21
751.537789009713
 31
0.0
  0
LINE
  5
32E
330
1F
100
AcDbEntity
  8
C-9
  6
Continuous
 62
     6
370
     9
100
AcDbLine
 10
-684.7022391654349
 20
758.3663857949748
 30
0.0
 11
-680.7028693121833
 21
754.3665210620779
 31
0.0
  0
LINE
  5
32F
330
1F
100
AcDbEntity
  8
C-9
  6
Continuous
 62
     6
370
     9
100
AcDbLine
 10
-684.7022391654349
 20
761.1943755278717
 30
0.0
 11
-680.7028693121833
 21
757.19500567462
 31
0.0
  0
LINE
  5
330
330
1F
100
AcDbEntity
  8
C-9
  6
Continuous
 62
     6
370
     9
100
AcDbLine
 10
-684.7022391654349
 20
764.0236024598818
 30
0.0
 11
-680.7028693121833
 21
760.0232428473396
 31
0.0
  0
LINE
  5
331
330
1F
100
AcDbEntity
  8
C-9
  6
Continuous
 62
     6
370
     9
100
AcDbLine
 10
-684.7022391654349
 20
763.187255859375
 30
0.0
 11
-682.0261774836359
 21
765.8638124208193
 31
0.0
  0
LINE
  5
332
330
1F
100
AcDbEntity
  8
C-9
  6
Continuous
 62
     6
370
     9
100
AcDbLine
 10
-683.7148305532094
 20
765.8638124208193
 30
0.0
 11
-680.7028693121833
 21
762.8512325802367
 31
0.0
  0
LINE
  5
333
330
1F
100
AcDbEntity
  8
C-9
  6
Continuous
 62
     6
370
     9
100
AcDbLine
 10
-680.8860985008446
 20
765.8638124208193
 30
0.0
 11
-680.7028693121833
 21
765.6804595122467
 31
0.0
  0
LINE
  5
334
330
1F
100
AcDbEntity
  8
C-9
  6
Continuous
 62
     6
370
     9
100
AcDbLine
 10
-654.702635069151
 20
684.1797204919766
 30
0.0
 11
-654.0119068042651
 21
683.4891159470019
 31
0.0
  0
LINE
  5
335
330
1F
100
AcDbEntity
  8
C-9
  6
Continuous
 62
     6
370
     9
100
AcDbLine
 10
-654.702635069151
 20
687.007957664696
 30
0.0
 11
-652.4234668628588
 21
684.728789458404
 31
0.0
  0
LINE
  5
336
330
1F
100
AcDbEntity
  8
C-9
  6
Continuous
 62
     6
370
     9
100
AcDbLine
 10
-654.702635069151
 20
689.8361948374156
 30
0.0
 11
-650.8355218010979
 21
685.9694527290964
 31
0.0
  0
LINE
  5
337
330
1F
100
AcDbEntity
  8
C-9
  6
Continuous
 62
     6
370
     9
100
AcDbLine
 10
-654.702635069151
 20
692.6646794499578
 30
0.0
 11
-650.7026466163427
 21
688.664814717061
 31
0.0
  0
LINE
  5
338
330
1F
100
AcDbEntity
  8
C-9
  6
Continuous
 62
     6
370
     9
100
AcDbLine
 10
-654.702635069151
 20
695.4934115023227
 30
0.0
 11
-650.7026466163427
 21
691.4930518897804
 31
0.0
  0
LINE
  5
339
330
1F
100
AcDbEntity
  8
C-9
  6
Continuous
 62
     6
370
     9
100
AcDbLine
 10
-654.702635069151
 20
698.3214012352198
 30
0.0
 11
-650.7026466163427
 21
694.3215365023227
 31
0.0
  0
LINE
  5
33A
330
1F
100
AcDbEntity
  8
C-9
  6
Continuous
 62
     6
370
     9
100
AcDbLine
 10
-654.702635069151
 20
701.1501332875846
 30
0.0
 11
-650.7026466163427
 21
697.1502685546875
 31
0.0
  0
LINE
  5
33B
330
1F
100
AcDbEntity
  8
C-9
  6
Continuous
 62
     6
370
     9
100
AcDbLine
 10
-654.702635069151
 20
703.9788653399495
 30
0.0
 11
-650.7026466163427
 21
699.9782582875846
 31
0.0
  0
LINE
  5
33C
330
1F
100
AcDbEntity
  8
C-9
  6
Continuous
 62
     6
370
     9
100
AcDbLine
 10
-654.702635069151
 20
706.8068550728464
 30
0.0
 11
-650.7026466163427
 21
702.8069903399495
 31
0.0
  0
LINE
  5
33D
330
1F
100
AcDbEntity
  8
C-9
  6
Continuous
 62
     6
370
     9
100
AcDbLine
 10
-654.702635069151
 20
709.6350922455658
 30
0.0
 11
-650.7026466163427
 21
705.6354749524917
 31
0.0
  0
LINE
  5
33E
330
1F
100
AcDbEntity
  8
C-9
  6
Continuous
 62
     6
370
     9
100
AcDbLine
 10
-654.702635069151
 20
712.4635768581084
 30
0.0
 11
-650.7026466163427
 21
708.4637121252113
 31
0.0
  0
LINE
  5
33F
330
1F
100
AcDbEntity
  8
C-9
  6
Continuous
 62
     6
370
     9
100
AcDbLine
 10
-654.702635069151
 20
715.2923089104731
 30
0.0
 11
-650.7026466163427
 21
711.2919492979307
 31
0.0
  0
LINE
  5
340
330
1F
100
AcDbEntity
  8
C-9
  6
Continuous
 62
     6
370
     9
100
AcDbLine
 10
-654.702635069151
 20
718.12029864337
 30
0.0
 11
-650.7026466163427
 21
714.1204339104731
 31
0.0
  0
LINE
  5
341
330
1F
100
AcDbEntity
  8
C-9
  6
Continuous
 62
     6
370
     9
100
AcDbLine
 10
-654.702635069151
 20
720.9490306957349
 30
0.0
 11
-650.7026466163427
 21
716.949165962838
 31
0.0
  0
LINE
  5
342
330
1F
100
AcDbEntity
  8
C-9
  6
Continuous
 62
     6
370
     9
100
AcDbLine
 10
-654.702635069151
 20
723.7777627480998
 30
0.0
 11
-650.7026466163427
 21
719.7771556957349
 31
0.0
  0
LINE
  5
343
330
1F
100
AcDbEntity
  8
C-9
  6
Continuous
 62
     6
370
     9
100
AcDbLine
 10
-654.702635069151
 20
726.6057524809967
 30
0.0
 11
-650.7026466163427
 21
722.6058877480998
 31
0.0
  0
LINE
  5
344
330
1F
100
AcDbEntity
  8
C-9
  6
Continuous
 62
     6
370
     9
100
AcDbLine
 10
-654.702635069151
 20
729.4344845333617
 30
0.0
 11
-650.7026466163427
 21
725.4346198004646
 31
0.0
  0
LINE
  5
345
330
1F
100
AcDbEntity
  8
C-9
  6
Continuous
 62
     6
370
     9
100
AcDbLine
 10
-654.702635069151
 20
732.2624742662586
 30
0.0
 11
-650.7026466163427
 21
728.2626095333617
 31
0.0
  0
LINE
  5
346
330
1F
100
AcDbEntity
  8
C-9
  6
Continuous
 62
     6
370
     9
100
AcDbLine
 10
-654.702635069151
 20
735.0912063186234
 30
0.0
 11
-650.7026466163427
 21
731.0908467060813
 31
0.0
  0
LINE
  5
347
330
1F
100
AcDbEntity
  8
C-9
  6
Continuous
 62
     6
370
     9
100
AcDbLine
 10
-654.702635069151
 20
737.9191960515203
 30
0.0
 11
-650.7026466163427
 21
733.9193313186234
 31
0.0
  0
LINE
  5
348
330
1F
100
AcDbEntity
  8
C-9
  6
Continuous
 62
     6
370
     9
100
AcDbLine
 10
-654.702635069151
 20
740.7479281038852
 30
0.0
 11
-650.7026466163427
 21
736.7480633709883
 31
0.0
  0
LINE
  5
349
330
1F
100
AcDbEntity
  8
C-9
  6
Continuous
 62
     6
370
     9
100
AcDbLine
 10
-654.702635069151
 20
743.57666015625
 30
0.0
 11
-650.7026466163427
 21
739.5760531038852
 31
0.0
  0
LINE
  5
34A
330
1F
100
AcDbEntity
  8
C-9
  6
Continuous
 62
     6
370
     9
100
AcDbLine
 10
-654.702635069151
 20
746.4046498891471
 30
0.0
 11
-650.7026466163427
 21
742.40478515625
 31
0.0
  0
LINE
  5
34B
330
1F
100
AcDbEntity
  8
C-9
  6
Continuous
 62
     6
370
     9
100
AcDbLine
 10
-654.702635069151
 20
749.2328870618667
 30
0.0
 11
-650.7026466163427
 21
745.2335172086151
 31
0.0
  0
LINE
  5
34C
330
1F
100
AcDbEntity
  8
C-9
  6
Continuous
 62
     6
370
     9
100
AcDbLine
 10
-654.702635069151
 20
752.0613716744089
 30
0.0
 11
-650.7026466163427
 21
748.061506941512
 31
0.0
  0
LINE
  5
34D
330
1F
100
AcDbEntity
  8
C-9
  6
Continuous
 62
     6
370
     9
100
AcDbLine
 10
-654.702635069151
 20
754.8901037267738
 30
0.0
 11
-650.7026466163427
 21
750.8897441142315
 31
0.0
  0
LINE
  5
34E
330
1F
100
AcDbEntity
  8
C-9
  6
Continuous
 62
     6
370
     9
100
AcDbLine
 10
-654.702635069151
 20
757.7183408994932
 30
0.0
 11
-650.7026466163427
 21
753.7182287267738
 31
0.0
  0
LINE
  5
34F
330
1F
100
AcDbEntity
  8
C-9
  6
Continuous
 62
     6
370
     9
100
AcDbLine
 10
-654.702635069151
 20
760.5468255120356
 30
0.0
 11
-650.7026466163427
 21
756.5469607791385
 31
0.0
  0
LINE
  5
350
330
1F
100
AcDbEntity
  8
C-9
  6
Continuous
 62
     6
370
     9
100
AcDbLine
 10
-654.702635069151
 20
763.3755575644005
 30
0.0
 11
-650.7026466163427
 21
759.3751979518584
 31
0.0
  0
LINE
  5
351
330
1F
100
AcDbEntity
  8
C-9
  6
Continuous
 62
     6
370
     9
100
AcDbLine
 10
-651.4245522988807
 20
685.509214658995
 30
0.0
 11
-650.7026466163427
 21
686.2309966216217
 31
0.0
  0
LINE
  5
352
330
1F
100
AcDbEntity
  8
C-9
  6
Continuous
 62
     6
370
     9
100
AcDbLine
 10
-654.702635069151
 20
685.0598639410896
 30
0.0
 11
-650.7026466163427
 21
689.0592337943415
 31
0.0
  0
LINE
  5
353
330
1F
100
AcDbEntity
  8
C-9
  6
Continuous
 62
     6
370
     9
100
AcDbLine
 10
-654.702635069151
 20
687.8878536739867
 30
0.0
 11
-650.7026466163427
 21
691.8877184068836
 31
0.0
  0
LINE
  5
354
330
1F
100
AcDbEntity
  8
C-9
  6
Continuous
 62
     6
370
     9
100
AcDbLine
 10
-654.702635069151
 20
690.7160908467063
 30
0.0
 11
-650.7026466163427
 21
694.7164504592484
 31
0.0
  0
LINE
  5
355
330
1F
100
AcDbEntity
  8
C-9
  6
Continuous
 62
     6
370
     9
100
AcDbLine
 10
-654.702635069151
 20
693.5445754592484
 30
0.0
 11
-650.7026466163427
 21
697.5444401921453
 31
0.0
  0
LINE
  5
356
330
1F
100
AcDbEntity
  8
C-9
  6
Continuous
 62
     6
370
     9
100
AcDbLine
 10
-654.702635069151
 20
696.3733075116133
 30
0.0
 11
-650.7026466163427
 21
700.3731722445102
 31
0.0
  0
LINE
  5
357
330
1F
100
AcDbEntity
  8
C-9
  6
Continuous
 62
     6
370
     9
100
AcDbLine
 10
-654.702635069151
 20
699.2012972445102
 30
0.0
 11
-650.7026466163427
 21
703.201904296875
 31
0.0
  0
LINE
  5
358
330
1F
100
AcDbEntity
  8
C-9
  6
Continuous
 62
     6
370
     9
100
AcDbLine
 10
-654.702635069151
 20
702.030029296875
 30
0.0
 11
-650.7026466163427
 21
706.0298940297721
 31
0.0
  0
LINE
  5
359
330
1F
100
AcDbEntity
  8
C-9
  6
Continuous
 62
     6
370
     9
100
AcDbLine
 10
-654.702635069151
 20
704.8587613492401
 30
0.0
 11
-650.7026466163427
 21
708.8581312024917
 31
0.0
  0
LINE
  5
35A
330
1F
100
AcDbEntity
  8
C-9
  6
Continuous
 62
     6
370
     9
100
AcDbLine
 10
-654.702635069151
 20
707.686751082137
 30
0.0
 11
-650.7026466163427
 21
711.6871106946792
 31
0.0
  0
LINE
  5
35B
330
1F
100
AcDbEntity
  8
C-9
  6
Continuous
 62
     6
370
     9
100
AcDbLine
 10
-654.702635069151
 20
710.5149882548565
 30
0.0
 11
-650.7026466163427
 21
714.5153478673988
 31
0.0
  0
LINE
  5
35C
330
1F
100
AcDbEntity
  8
C-9
  6
Continuous
 62
     6
370
     9
100
AcDbLine
 10
-654.702635069151
 20
713.343967747044
 30
0.0
 11
-650.7026466163427
 21
717.3435850401182
 31
0.0
  0
LINE
  5
35D
330
1F
100
AcDbEntity
  8
C-9
  6
Continuous
 62
     6
370
     9
100
AcDbLine
 10
-654.702635069151
 20
716.1722049197635
 30
0.0
 11
-650.7026466163427
 21
720.1720696526606
 31
0.0
  0
LINE
  5
35E
330
1F
100
AcDbEntity
  8
C-9
  6
Continuous
 62
     6
370
     9
100
AcDbLine
 10
-654.702635069151
 20
719.0004420924834
 30
0.0
 11
-650.7026466163427
 21
723.0008017050255
 31
0.0
  0
LINE
  5
35F
330
1F
100
AcDbEntity
  8
C-9
  6
Continuous
 62
     6
370
     9
100
AcDbLine
 10
-654.702635069151
 20
721.8289267050255
 30
0.0
 11
-650.7026466163427
 21
725.8287914379224
 31
0.0
  0
LINE
  5
360
330
1F
100
AcDbEntity
  8
C-9
  6
Continuous
 62
     6
370
     9
100
AcDbLine
 10
-654.702635069151
 20
724.6576587573904
 30
0.0
 11
-650.7026466163427
 21
728.6575234902873
 31
0.0
  0
LINE
  5
361
330
1F
100
AcDbEntity
  8
C-9
  6
Continuous
 62
     6
370
     9
100
AcDbLine
 10
-654.702635069151
 20
727.4856484902873
 30
0.0
 11
-650.7026466163427
 21
731.4862555426521
 31
0.0
  0
LINE
  5
362
330
1F
100
AcDbEntity
  8
C-9
  6
Continuous
 62
     6
370
     9
100
AcDbLine
 10
-654.702635069151
 20
730.3143805426521
 30
0.0
 11
-650.7026466163427
 21
734.3142452755492
 31
0.0
  0
LINE
  5
363
330
1F
100
AcDbEntity
  8
C-9
  6
Continuous
 62
     6
370
     9
100
AcDbLine
 10
-654.702635069151
 20
733.1431125950169
 30
0.0
 11
-650.7026466163427
 21
737.1424824482688
 31
0.0
  0
LINE
  5
364
330
1F
100
AcDbEntity
  8
C-9
  6
Continuous
 62
     6
370
     9
100
AcDbLine
 10
-654.702635069151
 20
735.9711023279141
 30
0.0
 11
-650.7026466163427
 21
739.970967060811
 31
0.0
  0
LINE
  5
365
330
1F
100
AcDbEntity
  8
C-9
  6
Continuous
 62
     6
370
     9
100
AcDbLine
 10
-654.702635069151
 20
738.7993395006336
 30
0.0
 11
-650.7026466163427
 21
742.7996991131758
 31
0.0
  0
LINE
  5
366
330
1F
100
AcDbEntity
  8
C-9
  6
Continuous
 62
     6
370
     9
100
AcDbLine
 10
-654.702635069151
 20
741.6278241131758
 30
0.0
 11
-650.7026466163427
 21
745.6279362858953
 31
0.0
  0
LINE
  5
367
330
1F
100
AcDbEntity
  8
C-9
  6
Continuous
 62
     6
370
     9
100
AcDbLine
 10
-654.702635069151
 20
744.4565561655406
 30
0.0
 11
-650.7026466163427
 21
748.4564208984375
 31
0.0
  0
LINE
  5
368
330
1F
100
AcDbEntity
  8
C-9
  6
Continuous
 62
     6
370
     9
100
AcDbLine
 10
-654.702635069151
 20
747.2847933382602
 30
0.0
 11
-650.7026466163427
 21
751.2851529508026
 31
0.0
  0
LINE
  5
369
330
1F
100
AcDbEntity
  8
C-9
  6
Continuous
 62
     6
370
     9
100
AcDbLine
 10
-654.702635069151
 20
750.1132779508026
 30
0.0
 11
-650.7026466163427
 21
754.1131426836995
 31
0.0
  0
LINE
  5
36A
330
1F
100
AcDbEntity
  8
C-9
  6
Continuous
 62
     6
370
     9
100
AcDbLine
 10
-654.702635069151
 20
752.9420100031675
 30
0.0
 11
-650.7026466163427
 21
756.941379856419
 31
0.0
  0
LINE
  5
36B
330
1F
100
AcDbEntity
  8
C-9
  6
Continuous
 62
     6
370
     9
100
AcDbLine
 10
-654.702635069151
 20
755.7699997360644
 30
0.0
 11
-650.7026466163427
 21
759.7701119087839
 31
0.0
  0
LINE
  5
36C
330
1F
100
AcDbEntity
  8
C-9
  6
Continuous
 62
     6
370
     9
100
AcDbLine
 10
-654.702635069151
 20
758.5982369087839
 30
0.0
 11
-650.7026466163427
 21
762.598596521326
 31
0.0
  0
LINE
  5
36D
330
1F
100
AcDbEntity
  8
C-9
  6
Continuous
 62
     6
370
     9
100
AcDbLine
 10
-654.702635069151
 20
761.4269689611488
 30
0.0
 11
-650.7026466163427
 21
765.4268336940459
 31
0.0
  0
LINE
  5
36E
330
1F
100
AcDbEntity
  8
C-9
  6
Continuous
 62
     6
370
     9
100
AcDbLine
 10
-654.3627764727617
 20
765.8638124208193
 30
0.0
 11
-650.7026466163427
 21
762.2036825644005
 31
0.0
  0
LINE
  5
36F
330
1F
100
AcDbEntity
  8
C-9
  6
Continuous
 62
     6
370
     9
100
AcDbLine
 10
-651.5345393000422
 20
765.8638124208193
 30
0.0
 11
-650.7026466163427
 21
765.0324146167654
 31
0.0
  0
LINE
  5
370
330
1F
100
AcDbEntity
  8
C-9
  6
Continuous
 62
     6
370
     9
100
AcDbLine
 10
-654.702635069151
 20
764.2554535736908
 30
0.0
 11
-653.0942762220227
 21
765.8638124208193
 31
0.0
  0
LINE
  5
371
330
1F
100
AcDbEntity
  8
C-9
  6
Continuous
 62
     6
370
     9
100
AcDbLine
 10
-623.519773741026
 20
695.1192824904984
 30
0.0
 11
-620.7025476404137
 21
697.9358899915542
 31
0.0
  0
LINE
  5
372
330
1F
100
AcDbEntity
  8
C-9
  6
Continuous
 62
     6
370
     9
100
AcDbLine
 10
-624.7024123733106
 20
696.7647573110221
 30
0.0
 11
-620.7025476404137
 21
700.764622043919
 31
0.0
  0
LINE
  5
373
330
1F
100
AcDbEntity
  8
C-9
  6
Continuous
 62
     6
370
     9
100
AcDbLine
 10
-624.7024123733106
 20
699.592747043919
 30
0.0
 11
-620.7025476404137
 21
703.5933540962839
 31
0.0
  0
LINE
  5
374
330
1F
100
AcDbEntity
  8
C-9
  6
Continuous
 62
     6
370
     9
100
AcDbLine
 10
-624.7024123733106
 20
702.4214790962839
 30
0.0
 11
-620.7025476404137
 21
706.4213438291807
 31
0.0
  0
LINE
  5
375
330
1F
100
AcDbEntity
  8
C-9
  6
Continuous
 62
     6
370
     9
100
AcDbLine
 10
-624.7024123733106
 20
705.2502111486488
 30
0.0
 11
-620.7025476404137
 21
709.2500758815459
 31
0.0
  0
LINE
  5
376
330
1F
100
AcDbEntity
  8
C-9
  6
Continuous
 62
     6
370
     9
100
AcDbLine
 10
-624.7024123733106
 20
708.0782008815459
 30
0.0
 11
-620.7025476404137
 21
712.078560494088
 31
0.0
  0
LINE
  5
377
330
1F
100
AcDbEntity
  8
C-9
  6
Continuous
 62
     6
370
     9
100
AcDbLine
 10
-624.7024123733106
 20
710.9064380542654
 30
0.0
 11
-620.7025476404137
 21
714.9067976668075
 31
0.0
  0
LINE
  5
378
330
1F
100
AcDbEntity
  8
C-9
  6
Continuous
 62
     6
370
     9
100
AcDbLine
 10
-624.7024123733106
 20
713.7354175464529
 30
0.0
 11
-620.7025476404137
 21
717.7350348395271
 31
0.0
  0
LINE
  5
379
330
1F
100
AcDbEntity
  8
C-9
  6
Continuous
 62
     6
370
     9
100
AcDbLine
 10
-624.7024123733106
 20
716.5636547191724
 30
0.0
 11
-620.7025476404137
 21
720.5635194520693
 31
0.0
  0
LINE
  5
37A
330
1F
100
AcDbEntity
  8
C-9
  6
Continuous
 62
     6
370
     9
100
AcDbLine
 10
-624.7024123733106
 20
719.3918918918919
 30
0.0
 11
-620.7025476404137
 21
723.3922515044342
 31
0.0
  0
LINE
  5
37B
330
1F
100
AcDbEntity
  8
C-9
  6
Continuous
 62
     6
370
     9
100
AcDbLine
 10
-624.7024123733106
 20
722.2203765044342
 30
0.0
 11
-620.7025476404137
 21
726.2202412373313
 31
0.0
  0
LINE
  5
37C
330
1F
100
AcDbEntity
  8
C-9
  6
Continuous
 62
     6
370
     9
100
AcDbLine
 10
-624.7024123733106
 20
725.0491085567992
 30
0.0
 11
-620.7025476404137
 21
729.048973289696
 31
0.0
  0
LINE
  5
37D
330
1F
100
AcDbEntity
  8
C-9
  6
Continuous
 62
     6
370
     9
100
AcDbLine
 10
-624.7024123733106
 20
727.877098289696
 30
0.0
 11
-620.7025476404137
 21
731.877705342061
 31
0.0
  0
LINE
  5
37E
330
1F
100
AcDbEntity
  8
C-9
  6
Continuous
 62
     6
370
     9
100
AcDbLine
 10
-624.7024123733106
 20
730.705830342061
 30
0.0
 11
-620.7025476404137
 21
734.7056950749578
 31
0.0
  0
LINE
  5
37F
330
1F
100
AcDbEntity
  8
C-9
  6
Continuous
 62
     6
370
     9
100
AcDbLine
 10
-624.7024123733106
 20
733.5345623944258
 30
0.0
 11
-620.7025476404137
 21
737.5339322476776
 31
0.0
  0
LINE
  5
380
330
1F
100
AcDbEntity
  8
C-9
  6
Continuous
 62
     6
370
     9
100
AcDbLine
 10
-624.7024123733106
 20
736.3625521273227
 30
0.0
 11
-620.7025476404137
 21
740.3624168602198
 31
0.0
  0
LINE
  5
381
330
1F
100
AcDbEntity
  8
C-9
  6
Continuous
 62
     6
370
     9
100
AcDbLine
 10
-624.7024123733106
 20
739.1907893000425
 30
0.0
 11
-620.7025476404137
 21
743.1911489125846
 31
0.0
  0
LINE
  5
382
330
1F
100
AcDbEntity
  8
C-9
  6
Continuous
 62
     6
370
     9
100
AcDbLine
 10
-624.7024123733106
 20
742.0192739125846
 30
0.0
 11
-620.7025476404137
 21
746.0193860853042
 31
0.0
  0
LINE
  5
383
330
1F
100
AcDbEntity
  8
C-9
  6
Continuous
 62
     6
370
     9
100
AcDbLine
 10
-624.7024123733106
 20
744.8480059649495
 30
0.0
 11
-620.7025476404137
 21
748.847375818201
 31
0.0
  0
LINE
  5
384
330
1F
100
AcDbEntity
  8
C-9
  6
Continuous
 62
     6
370
     9
100
AcDbLine
 10
-624.7024123733106
 20
747.6759956978464
 30
0.0
 11
-620.7025476404137
 21
751.6766027502113
 31
0.0
  0
LINE
  5
385
330
1F
100
AcDbEntity
  8
C-9
  6
Continuous
 62
     6
370
     9
100
AcDbLine
 10
-624.7024123733106
 20
750.5047277502113
 30
0.0
 11
-620.7025476404137
 21
754.5045924831084
 31
0.0
  0
LINE
  5
386
330
1F
100
AcDbEntity
  8
C-9
  6
Continuous
 62
     6
370
     9
100
AcDbLine
 10
-624.7024123733106
 20
753.333459802576
 30
0.0
 11
-620.7025476404137
 21
757.3328296558279
 31
0.0
  0
LINE
  5
387
330
1F
100
AcDbEntity
  8
C-9
  6
Continuous
 62
     6
370
     9
100
AcDbLine
 10
-624.7024123733106
 20
756.1614495354731
 30
0.0
 11
-620.7025476404137
 21
760.16131426837
 31
0.0
  0
LINE
  5
388
330
1F
100
AcDbEntity
  8
C-9
  6
Continuous
 62
     6
370
     9
100
AcDbLine
 10
-624.7024123733106
 20
758.9896867081927
 30
0.0
 11
-620.7025476404137
 21
762.9900463207349
 31
0.0
  0
LINE
  5
389
330
1F
100
AcDbEntity
  8
C-9
  6
Continuous
 62
     6
370
     9
100
AcDbLine
 10
-624.7024123733106
 20
761.8181713207349
 30
0.0
 11
-620.7025476404137
 21
765.8182834934544
 31
0.0
  0
LINE
  5
38A
330
1F
100
AcDbEntity
  8
C-9
  6
Continuous
 62
     6
370
     9
100
AcDbLine
 10
-624.7024123733106
 20
764.6469033730998
 30
0.0
 11
-623.4861219251477
 21
765.8638124208193
 31
0.0
  0
LINE
  5
38B
330
1F
100
AcDbEntity
  8
C-9
  6
Continuous
 62
     6
370
     9
100
AcDbLine
 10
-624.7024123733106
 20
696.9975981841217
 30
0.0
 11
-623.1293137009078
 21
695.4238809121623
 31
0.0
  0
LINE
  5
38C
330
1F
100
AcDbEntity
  8
C-9
  6
Continuous
 62
     6
370
     9
100
AcDbLine
 10
-624.7024123733106
 20
699.8258353568415
 30
0.0
 11
-621.5408737595016
 21
696.6640493032096
 31
0.0
  0
LINE
  5
38D
330
1F
100
AcDbEntity
  8
C-9
  6
Continuous
 62
     6
370
     9
100
AcDbLine
 10
-624.7024123733106
 20
702.6538250897383
 30
0.0
 11
-620.7025476404137
 21
698.6544552364867
 31
0.0
  0
LINE
  5
38E
330
1F
100
AcDbEntity
  8
C-9
  6
Continuous
 62
     6
370
     9
100
AcDbLine
 10
-624.7024123733106
 20
705.4825571421031
 30
0.0
 11
-620.7025476404137
 21
701.4826924092063
 31
0.0
  0
LINE
  5
38F
330
1F
100
AcDbEntity
  8
C-9
  6
Continuous
 62
     6
370
     9
100
AcDbLine
 10
-624.7024123733106
 20
708.3110417546453
 30
0.0
 11
-620.7025476404137
 21
704.3106821421031
 31
0.0
  0
LINE
  5
390
330
1F
100
AcDbEntity
  8
C-9
  6
Continuous
 62
     6
370
     9
100
AcDbLine
 10
-624.7024123733106
 20
711.1392789273651
 30
0.0
 11
-620.7025476404137
 21
707.1394141944679
 31
0.0
  0
LINE
  5
391
330
1F
100
AcDbEntity
  8
C-9
  6
Continuous
 62
     6
370
     9
100
AcDbLine
 10
-624.7024123733106
 20
713.96801097973
 30
0.0
 11
-620.7025476404137
 21
709.9678988070102
 31
0.0
  0
LINE
  5
392
330
1F
100
AcDbEntity
  8
C-9
  6
Continuous
 62
     6
370
     9
100
AcDbLine
 10
-624.7024123733106
 20
716.7964955922721
 30
0.0
 11
-620.7025476404137
 21
712.79613597973
 31
0.0
  0
LINE
  5
393
330
1F
100
AcDbEntity
  8
C-9
  6
Continuous
 62
     6
370
     9
100
AcDbLine
 10
-624.7024123733106
 20
719.6247327649917
 30
0.0
 11
-620.7025476404137
 21
715.6248680320948
 31
0.0
  0
LINE
  5
394
330
1F
100
AcDbEntity
  8
C-9
  6
Continuous
 62
     6
370
     9
100
AcDbLine
 10
-624.7024123733106
 20
722.4527224978885
 30
0.0
 11
-620.7025476404137
 21
718.453352644637
 31
0.0
  0
LINE
  5
395
330
1F
100
AcDbEntity
  8
C-9
  6
Continuous
 62
     6
370
     9
100
AcDbLine
 10
-624.7024123733106
 20
725.2814545502533
 30
0.0
 11
-620.7025476404137
 21
721.2815898173565
 31
0.0
  0
LINE
  5
396
330
1F
100
AcDbEntity
  8
C-9
  6
Continuous
 62
     6
370
     9
100
AcDbLine
 10
-624.7024123733106
 20
728.1101866026182
 30
0.0
 11
-620.7025476404137
 21
724.1095795502533
 31
0.0
  0
LINE
  5
397
330
1F
100
AcDbEntity
  8
C-9
  6
Continuous
 62
     6
370
     9
100
AcDbLine
 10
-624.7024123733106
 20
730.9381763355154
 30
0.0
 11
-620.7025476404137
 21
726.9383116026182
 31
0.0
  0
LINE
  5
398
330
1F
100
AcDbEntity
  8
C-9
  6
Continuous
 62
     6
370
     9
100
AcDbLine
 10
-624.7024123733106
 20
733.7666609480575
 30
0.0
 11
-620.7025476404137
 21
729.7667962151606
 31
0.0
  0
LINE
  5
399
330
1F
100
AcDbEntity
  8
C-9
  6
Continuous
 62
     6
370
     9
100
AcDbLine
 10
-624.7024123733106
 20
736.5953930004224
 30
0.0
 11
-620.7025476404137
 21
732.5950333878802
 31
0.0
  0
LINE
  5
39A
330
1F
100
AcDbEntity
  8
C-9
  6
Continuous
 62
     6
370
     9
100
AcDbLine
 10
-624.7024123733106
 20
739.4236301731419
 30
0.0
 11
-620.7025476404137
 21
735.4235180004224
 31
0.0
  0
LINE
  5
39B
330
1F
100
AcDbEntity
  8
C-9
  6
Continuous
 62
     6
370
     9
100
AcDbLine
 10
-624.7024123733106
 20
742.2516199060391
 30
0.0
 11
-620.7025476404137
 21
738.2522500527873
 31
0.0
  0
LINE
  5
39C
330
1F
100
AcDbEntity
  8
C-9
  6
Continuous
 62
     6
370
     9
100
AcDbLine
 10
-624.7024123733106
 20
745.0808468380492
 30
0.0
 11
-620.7025476404137
 21
741.0804872255068
 31
0.0
  0
LINE
  5
39D
330
1F
100
AcDbEntity
  8
C-9
  6
Continuous
 62
     6
370
     9
100
AcDbLine
 10
-624.7024123733106
 20
747.9090840107688
 30
0.0
 11
-620.7025476404137
 21
743.908476958404
 31
0.0
  0
LINE
  5
39E
330
1F
100
AcDbEntity
  8
C-9
  6
Continuous
 62
     6
370
     9
100
AcDbLine
 10
-624.7024123733106
 20
750.7370737436656
 30
0.0
 11
-620.7025476404137
 21
746.7377038904141
 31
0.0
  0
LINE
  5
39F
330
1F
100
AcDbEntity
  8
C-9
  6
Continuous
 62
     6
370
     9
100
AcDbLine
 10
-624.7024123733106
 20
753.5658057960304
 30
0.0
 11
-620.7025476404137
 21
749.5659410631336
 31
0.0
  0
LINE
  5
3A0
330
1F
100
AcDbEntity
  8
C-9
  6
Continuous
 62
     6
370
     9
100
AcDbLine
 10
-624.7024123733106
 20
756.3942904085727
 30
0.0
 11
-620.7025476404137
 21
752.3939307960304
 31
0.0
  0
LINE
  5
3A1
330
1F
100
AcDbEntity
  8
C-9
  6
Continuous
 62
     6
370
     9
100
AcDbLine
 10
-624.7024123733106
 20
759.2225275812925
 30
0.0
 11
-620.7025476404137
 21
755.2226628483953
 31
0.0
  0
LINE
  5
3A2
330
1F
100
AcDbEntity
  8
C-9
  6
Continuous
 62
     6
370
     9
100
AcDbLine
 10
-624.7024123733106
 20
762.0510121938346
 30
0.0
 11
-620.7025476404137
 21
758.0511474609375
 31
0.0
  0
LINE
  5
3A3
330
1F
100
AcDbEntity
  8
C-9
  6
Continuous
 62
     6
370
     9
100
AcDbLine
 10
-624.7024123733106
 20
764.8792493665542
 30
0.0
 11
-620.7025476404137
 21
760.8793846336573
 31
0.0
  0
LINE
  5
3A4
330
1F
100
AcDbEntity
  8
C-9
  6
Continuous
 62
     6
370
     9
100
AcDbLine
 10
-622.8583670951224
 20
765.8638124208193
 30
0.0
 11
-620.7025476404137
 21
763.7073743665542
 31
0.0
  0
LINE
  5
3A5
330
1F
100
AcDbEntity
  8
C-9
  6
Continuous
 62
     6
370
     9
100
AcDbLine
 10
-594.7023133973818
 20
707.890888935811
 30
0.0
 11
-593.8342944995776
 21
707.0228700380068
 31
0.0
  0
LINE
  5
3A6
330
1F
100
AcDbEntity
  8
C-9
  6
Continuous
 62
     6
370
     9
100
AcDbLine
 10
-594.7023133973818
 20
710.7191261085304
 30
0.0
 11
-592.2463494378167
 21
708.2635333086995
 31
0.0
  0
LINE
  5
3A7
330
1F
100
AcDbEntity
  8
C-9
  6
Continuous
 62
     6
370
     9
100
AcDbLine
 10
-594.7023133973818
 20
713.5476107210727
 30
0.0
 11
-590.7024486644846
 21
709.5477459881758
 31
0.0
  0
LINE
  5
3A8
330
1F
100
AcDbEntity
  8
C-9
  6
Continuous
 62
     6
370
     9
100
AcDbLine
 10
-594.7023133973818
 20
716.3763427734375
 30
0.0
 11
-590.7024486644846
 21
712.3759831608953
 31
0.0
  0
LINE
  5
3A9
330
1F
100
AcDbEntity
  8
C-9
  6
Continuous
 62
     6
370
     9
100
AcDbLine
 10
-594.7023133973818
 20
719.2045799461573
 30
0.0
 11
-590.7024486644846
 21
715.2044677734375
 31
0.0
  0
LINE
  5
3AA
330
1F
100
AcDbEntity
  8
C-9
  6
Continuous
 62
     6
370
     9
100
AcDbLine
 10
-594.7023133973818
 20
722.0330645586995
 30
0.0
 11
-590.7024486644846
 21
718.0331998258026
 31
0.0
  0
LINE
  5
3AB
330
1F
100
AcDbEntity
  8
C-9
  6
Continuous
 62
     6
370
     9
100
AcDbLine
 10
-594.7023133973818
 20
724.8617966110644
 30
0.0
 11
-590.7024486644846
 21
720.8614369985221
 31
0.0
  0
LINE
  5
3AC
330
1F
100
AcDbEntity
  8
C-9
  6
Continuous
 62
     6
370
     9
100
AcDbLine
 10
-594.7023133973818
 20
727.6897863439613
 30
0.0
 11
-590.7024486644846
 21
723.689426731419
 31
0.0
  0
LINE
  5
3AD
330
1F
100
AcDbEntity
  8
C-9
  6
Continuous
 62
     6
370
     9
100
AcDbLine
 10
-594.7023133973818
 20
730.5180235166807
 30
0.0
 11
-590.7024486644846
 21
726.5186536634292
 31
0.0
  0
LINE
  5
3AE
330
1F
100
AcDbEntity
  8
C-9
  6
Continuous
 62
     6
370
     9
100
AcDbLine
 10
-594.7023133973818
 20
733.3467555690459
 30
0.0
 11
-590.7024486644846
 21
729.346643396326
 31
0.0
  0
LINE
  5
3AF
330
1F
100
AcDbEntity
  8
C-9
  6
Continuous
 62
     6
370
     9
100
AcDbLine
 10
-594.7023133973818
 20
736.175240181588
 30
0.0
 11
-590.7024486644846
 21
732.1748805690459
 31
0.0
  0
LINE
  5
3B0
330
1F
100
AcDbEntity
  8
C-9
  6
Continuous
 62
     6
370
     9
100
AcDbLine
 10
-594.7023133973818
 20
739.0034773543075
 30
0.0
 11
-590.7024486644846
 21
735.003365181588
 31
0.0
  0
LINE
  5
3B1
330
1F
100
AcDbEntity
  8
C-9
  6
Continuous
 62
     6
370
     9
100
AcDbLine
 10
-594.7023133973818
 20
741.8319619668498
 30
0.0
 11
-590.7024486644846
 21
737.8320972339529
 31
0.0
  0
LINE
  5
3B2
330
1F
100
AcDbEntity
  8
C-9
  6
Continuous
 62
     6
370
     9
100
AcDbLine
 10
-594.7023133973818
 20
744.6606940192146
 30
0.0
 11
-590.7024486644846
 21
740.6603344066724
 31
0.0
  0
LINE
  5
3B3
330
1F
100
AcDbEntity
  8
C-9
  6
Continuous
 62
     6
370
     9
100
AcDbLine
 10
-594.7023133973818
 20
747.4886837521117
 30
0.0
 11
-590.7024486644846
 21
743.4883241395693
 31
0.0
  0
LINE
  5
3B4
330
1F
100
AcDbEntity
  8
C-9
  6
Continuous
 62
     6
370
     9
100
AcDbLine
 10
-594.7023133973818
 20
750.3169209248313
 30
0.0
 11
-590.7024486644846
 21
746.3175510715794
 31
0.0
  0
LINE
  5
3B5
330
1F
100
AcDbEntity
  8
C-9
  6
Continuous
 62
     6
370
     9
100
AcDbLine
 10
-594.7023133973818
 20
753.145652977196
 30
0.0
 11
-590.7024486644846
 21
749.1455408044766
 31
0.0
  0
LINE
  5
3B6
330
1F
100
AcDbEntity
  8
C-9
  6
Continuous
 62
     6
370
     9
100
AcDbLine
 10
-594.7023133973818
 20
755.9741375897383
 30
0.0
 11
-590.7024486644846
 21
751.973777977196
 31
0.0
  0
LINE
  5
3B7
330
1F
100
AcDbEntity
  8
C-9
  6
Continuous
 62
     6
370
     9
100
AcDbLine
 10
-594.7023133973818
 20
758.8023747624578
 30
0.0
 11
-590.7024486644846
 21
754.802510029561
 31
0.0
  0
LINE
  5
3B8
330
1F
100
AcDbEntity
  8
C-9
  6
Continuous
 62
     6
370
     9
100
AcDbLine
 10
-594.7023133973818
 20
761.630859375
 30
0.0
 11
-590.7024486644846
 21
757.6309946421031
 31
0.0
  0
LINE
  5
3B9
330
1F
100
AcDbEntity
  8
C-9
  6
Continuous
 62
     6
370
     9
100
AcDbLine
 10
-594.7023133973818
 20
764.4595914273651
 30
0.0
 11
-590.7024486644846
 21
760.4592318148227
 31
0.0
  0
LINE
  5
3BA
330
1F
100
AcDbEntity
  8
C-9
  6
Continuous
 62
     6
370
     9
100
AcDbLine
 10
-594.7023133973818
 20
706.545311180321
 30
0.0
 11
-590.7024486644846
 21
710.5456707928633
 31
0.0
  0
LINE
  5
3BB
330
1F
100
AcDbEntity
  8
C-9
  6
Continuous
 62
     6
370
     9
100
AcDbLine
 10
-594.7023133973818
 20
709.3737957928633
 30
0.0
 11
-590.7024486644846
 21
713.3739079655828
 31
0.0
  0
LINE
  5
3BC
330
1F
100
AcDbEntity
  8
C-9
  6
Continuous
 62
     6
370
     9
100
AcDbLine
 10
-594.7023133973818
 20
712.2025278452281
 30
0.0
 11
-590.7024486644846
 21
716.20189769848
 31
0.0
  0
LINE
  5
3BD
330
1F
100
AcDbEntity
  8
C-9
  6
Continuous
 62
     6
370
     9
100
AcDbLine
 10
-594.7023133973818
 20
715.030517578125
 30
0.0
 11
-590.7024486644846
 21
719.0311246304901
 31
0.0
  0
LINE
  5
3BE
330
1F
100
AcDbEntity
  8
C-9
  6
Continuous
 62
     6
370
     9
100
AcDbLine
 10
-594.7023133973818
 20
717.8587547508448
 30
0.0
 11
-590.7024486644846
 21
721.859114363387
 31
0.0
  0
LINE
  5
3BF
330
1F
100
AcDbEntity
  8
C-9
  6
Continuous
 62
     6
370
     9
100
AcDbLine
 10
-594.7023133973818
 20
720.687981682855
 30
0.0
 11
-590.7024486644846
 21
724.6873515361065
 31
0.0
  0
LINE
  5
3C0
330
1F
100
AcDbEntity
  8
C-9
  6
Continuous
 62
     6
370
     9
100
AcDbLine
 10
-594.7023133973818
 20
723.5159714157519
 30
0.0
 11
-590.7024486644846
 21
727.5158361486488
 31
0.0
  0
LINE
  5
3C1
330
1F
100
AcDbEntity
  8
C-9
  6
Continuous
 62
     6
370
     9
100
AcDbLine
 10
-594.7023133973818
 20
726.3442085884714
 30
0.0
 11
-590.7024486644846
 21
730.3445682010135
 31
0.0
  0
LINE
  5
3C2
330
1F
100
AcDbEntity
  8
C-9
  6
Continuous
 62
     6
370
     9
100
AcDbLine
 10
-594.7023133973818
 20
729.1726932010135
 30
0.0
 11
-590.7024486644846
 21
733.1728053737334
 31
0.0
  0
LINE
  5
3C3
330
1F
100
AcDbEntity
  8
C-9
  6
Continuous
 62
     6
370
     9
100
AcDbLine
 10
-594.7023133973818
 20
732.0014252533783
 30
0.0
 11
-590.7024486644846
 21
736.0012899862755
 31
0.0
  0
LINE
  5
3C4
330
1F
100
AcDbEntity
  8
C-9
  6
Continuous
 62
     6
370
     9
100
AcDbLine
 10
-594.7023133973818
 20
734.8296624260981
 30
0.0
 11
-590.7024486644846
 21
738.8300220386404
 31
0.0
  0
LINE
  5
3C5
330
1F
100
AcDbEntity
  8
C-9
  6
Continuous
 62
     6
370
     9
100
AcDbLine
 10
-594.7023133973818
 20
737.6581470386404
 30
0.0
 11
-590.7024486644846
 21
741.6582592113599
 31
0.0
  0
LINE
  5
3C6
330
1F
100
AcDbEntity
  8
C-9
  6
Continuous
 62
     6
370
     9
100
AcDbLine
 10
-594.7023133973818
 20
740.4868790910052
 30
0.0
 11
-590.7024486644846
 21
744.4862489442568
 31
0.0
  0
LINE
  5
3C7
330
1F
100
AcDbEntity
  8
C-9
  6
Continuous
 62
     6
370
     9
100
AcDbLine
 10
-594.7023133973818
 20
743.3148688239021
 30
0.0
 11
-590.7024486644846
 21
747.3149809966217
 31
0.0
  0
LINE
  5
3C8
330
1F
100
AcDbEntity
  8
C-9
  6
Continuous
 62
     6
370
     9
100
AcDbLine
 10
-594.7023133973818
 20
746.1431059966217
 30
0.0
 11
-590.7024486644846
 21
750.1434656091641
 31
0.0
  0
LINE
  5
3C9
330
1F
100
AcDbEntity
  8
C-9
  6
Continuous
 62
     6
370
     9
100
AcDbLine
 10
-594.7023133973818
 20
748.9718380489867
 30
0.0
 11
-590.7024486644846
 21
752.9717027818836
 31
0.0
  0
LINE
  5
3CA
330
1F
100
AcDbEntity
  8
C-9
  6
Continuous
 62
     6
370
     9
100
AcDbLine
 10
-594.7023133973818
 20
751.800322661529
 30
0.0
 11
-590.7024486644846
 21
755.8001873944258
 31
0.0
  0
LINE
  5
3CB
330
1F
100
AcDbEntity
  8
C-9
  6
Continuous
 62
     6
370
     9
100
AcDbLine
 10
-594.7023133973818
 20
754.6285598342484
 30
0.0
 11
-590.7024486644846
 21
758.6289194467906
 31
0.0
  0
LINE
  5
3CC
330
1F
100
AcDbEntity
  8
C-9
  6
Continuous
 62
     6
370
     9
100
AcDbLine
 10
-594.7023133973818
 20
757.4570444467906
 30
0.0
 11
-590.7024486644846
 21
761.4571566195102
 31
0.0
  0
LINE
  5
3CD
330
1F
100
AcDbEntity
  8
C-9
  6
Continuous
 62
     6
370
     9
100
AcDbLine
 10
-594.7023133973818
 20
760.2857764991554
 30
0.0
 11
-590.7024486644846
 21
764.2851463524073
 31
0.0
  0
LINE
  5
3CE
330
1F
100
AcDbEntity
  8
C-9
  6
Continuous
 62
     6
370
     9
100
AcDbLine
 10
-594.7023133973818
 20
763.114013671875
 30
0.0
 11
-591.9525146484375
 21
765.8638124208193
 31
0.0
  0
LINE
  5
3CF
330
1F
100
AcDbEntity
  8
C-9
  6
Continuous
 62
     6
370
     9
100
AcDbLine
 10
-593.2782972181164
 20
765.8638124208193
 30
0.0
 11
-590.7024486644846
 21
763.2877164273651
 31
0.0
  0
LINE
  5
3D0
330
1F
100
AcDbEntity
  8
C-5
  6
Continuous
 62
     7
370
     9
100
AcDbLine
 10
-502.7027027027026
 20
379.8648648648648
 30
0.0
 11
-502.7027027027026
 21
444.8644607131547
 31
0.0
  0
LINE
  5
3D1
330
1F
100
AcDbEntity
  8
C-5
  6
Continuous
 62
     7
370
     9
100
AcDbLine
 10
-502.7027027027026
 20
444.8644607131547
 30
0.0
 11
72.29721481735659
 21
444.8644607131547
 31
0.0
  0
LINE
  5
3D2
330
1F
100
AcDbEntity
  8
C-5
  6
Continuous
 62
     7
370
     9
100
AcDbLine
 10
72.29721481735659
 20
444.8644607131547
 30
0.0
 11
72.29721481735659
 21
379.8648648648648
 31
0.0
  0
LINE
  5
3D3
330
1F
100
AcDbEntity
  8
C-5
  6
Continuous
 62
     7
370
     9
100
AcDbLine
 10
72.29721481735659
 20
379.8648648648648
 30
0.0
 11
-502.7027027027026
 21
379.8648648648648
 31
0.0
  0
LINE
  5
3D4
330
1F
100
AcDbEntity
  8
C-4
  6
Continuous
 62
     7
370
     9
100
AcDbLine
 10
127.2978911528717
 20
804.8655247043919
 30
0.0
 11
157.2974952491555
 21
804.8655247043919
 31
0.0
  0
LINE
  5
3D5
330
1F
100
AcDbEntity
  8
C-4
  6
Continuous
 62
     7
370
     9
100
AcDbLine
 10
127.2978911528717
 20
761.8654323268584
 30
0.0
 11
127.2978911528717
 21
807.8657325538429
 31
0.0
  0
LINE
  5
3D6
330
1F
100
AcDbEntity
  8
C-4
  6
Continuous
 62
     7
370
     9
100
AcDbLine
 10
157.2974952491555
 20
761.8654323268584
 30
0.0
 11
157.2974952491555
 21
807.8657325538429
 31
0.0
  0
TEXT
  5
3D7
330
1F
100
AcDbEntity
  8
C-4
  6
Continuous
 62
     2
370
     9
100
AcDbText
 10
-742.6636566986908
 20
877.5043105996623
 30
0.0
 40
30.48
  1
2
 41
0.9999999999999998
  7
ＭＳ ゴシック
100
AcDbText
  0
TEXT
  5
3D8
330
1F
100
AcDbEntity
  8
C-4
  6
Continuous
 62
     2
370
     9
100
AcDbText
 10
-250.202364534945
 20
877.5043105996623
 30
0.0
 40
30.48
  1
994
 41
1.083333333333333
  7
ＭＳ ゴシック
100
AcDbText
  0
TEXT
  5
3D9
330
1F
100
AcDbEntity
  8
C-4
  6
Continuous
 62
     2
370
     9
100
AcDbText
 10
253.3360661687078
 20
877.5043105996623
 30
0.0
 40
30.48
  1
2
 41
0.9999999999999998
  7
ＭＳ ゴシック
100
AcDbText
  0
TEXT
  5
3DA
330
1F
100
AcDbEntity
  8
C-4
  6
Continuous
 62
     2
370
     9
100
AcDbText
 10
-249.2025839315878
 20
957.5045745354731
 30
0.0
 40
30.48
  1
996
 41
1.083333333333333
  7
ＭＳ ゴシック
100
AcDbText
  0
TEXT
  5
3DB
330
1F
100
AcDbEntity
  8
C-5
  6
Continuous
 62
     2
370
     9
100
AcDbText
 10
-482.70263671875
 20
398.0045349451016
 30
0.0
 40
30.48
  1
平面詳細図　Ｓ＝１：１０
 41
1.114583333333333
  7
ＭＳ ゴシック
100
AcDbText
  0
TEXT
  5
3DC
330
1F
100
AcDbEntity
  8
C-4
  6
Continuous
 62
     2
370
     9
100
AcDbText
 10
121.0478086729307
 20
815.5055412003802
 30
0.0
 40
30.48
  1
30
 41
1.0625
  7
ＭＳ ゴシック
100
AcDbText
  0
LINE
  5
3DD
330
1F
100
AcDbEntity
  8
C-A
  6
Continuous
 62
     3
370
     9
100
AcDbLine
 10
-458.9523672109908
 20
779.8654393592461
 30
0.0
 11
-460.2023672109908
 21
779.8654393592461
 31
0.0
  0
LINE
  5
3DE
330
1F
100
AcDbEntity
  8
C-A
  6
Continuous
 62
     3
370
     9
100
AcDbLine
 10
-458.9523672109908
 20
779.8654393592461
 30
0.0
 11
-458.9523672109908
 21
808.8654236236199
 31
0.0
  0
LINE
  5
3DF
330
1F
100
AcDbEntity
  8
C-A
  6
Continuous
 62
     3
370
     9
100
AcDbLine
 10
-460.207036400443
 20
775.8654260078039
 30
0.0
 11
-459.6938833242712
 21
775.8654260078039
 31
0.0
  0
LINE
  5
3E0
330
1F
100
AcDbEntity
  8
C-A
  6
Continuous
 62
     3
370
     9
100
AcDbLine
 10
-475.7023061758332
 20
775.8654260078039
 30
0.0
 11
-475.2023366934122
 21
775.8654260078039
 31
0.0
  0
LINE
  5
3E1
330
1F
100
AcDbEntity
  8
C-A
  6
Continuous
 62
     3
370
     9
100
AcDbLine
 10
-476.4524282461457
 20
779.8654393592461
 30
0.0
 11
-475.2024587637243
 21
779.8654393592461
 31
0.0
  0
LINE
  5
3E2
330
1F
100
AcDbEntity
  8
C-A
  6
Continuous
 62
     3
370
     9
100
AcDbLine
 10
-476.4524282461457
 20
779.8654393592461
 30
0.0
 11
-476.4524282461457
 21
808.8654236236199
 31
0.0
  0
LINE
  5
3E3
330
1F
100
AcDbEntity
  8
C-A
  6
Continuous
 62
     3
370
     9
100
AcDbLine
 10
-458.9523672109908
 20
808.8654236236199
 30
0.0
 11
-476.4524282461457
 21
808.8654236236199
 31
0.0
  0
LINE
  5
3E4
330
1F
100
AcDbEntity
  8
C-A
  6
JWW_DASHED2
 62
     3
370
     9
100
AcDbLine
 10
-460.9523977285676
 20
779.7195238509745
 30
0.0
 11
-460.9523977285676
 21
808.8654236236199
 31
0.0
  0
LINE
  5
3E5
330
1F
100
AcDbEntity
  8
C-A
  6
JWW_DASHED2
 62
     3
370
     9
100
AcDbLine
 10
-474.4524282461475
 20
779.7195238509745
 30
0.0
 11
-474.4524282461475
 21
808.8654236236199
 31
0.0
  0
LINE
  5
3E6
330
1F
100
AcDbEntity
  8
C-A
  6
Continuous
 62
     3
370
     9
100
AcDbLine
 10
41.04760227143061
 20
779.8654393592461
 30
0.0
 11
39.79760227143061
 21
779.8654393592461
 31
0.0
  0
LINE
  5
3E7
330
1F
100
AcDbEntity
  8
C-A
  6
Continuous
 62
     3
370
     9
100
AcDbLine
 10
41.04760227143061
 20
779.8654393592461
 30
0.0
 11
41.04760227143061
 21
808.8654236236199
 31
0.0
  0
LINE
  5
3E8
330
1F
100
AcDbEntity
  8
C-A
  6
Continuous
 62
     3
370
     9
100
AcDbLine
 10
39.79296359955697
 20
775.8654260078039
 30
0.0
 11
40.30614719330742
 21
775.8654260078039
 31
0.0
  0
LINE
  5
3E9
330
1F
100
AcDbEntity
  8
C-A
  6
Continuous
 62
     3
370
     9
100
AcDbLine
 10
24.29772434174311
 20
775.8654260078039
 30
0.0
 11
24.79766330658776
 21
775.8654260078039
 31
0.0
  0
LINE
  5
3EA
330
1F
100
AcDbEntity
  8
C-A
  6
Continuous
 62
     3
370
     9
100
AcDbLine
 10
23.54754123627572
 20
779.8654393592461
 30
0.0
 11
24.79754123627572
 21
779.8654393592461
 31
0.0
  0
LINE
  5
3EB
330
1F
100
AcDbEntity
  8
C-A
  6
Continuous
 62
     3
370
     9
100
AcDbLine
 10
23.54754123627572
 20
779.8654393592461
 30
0.0
 11
23.54754123627572
 21
808.8654236236199
 31
0.0
  0
LINE
  5
3EC
330
1F
100
AcDbEntity
  8
C-A
  6
Continuous
 62
     3
370
     9
100
AcDbLine
 10
41.04760227143061
 20
808.8654236236199
 30
0.0
 11
23.54754123627572
 21
808.8654236236199
 31
0.0
  0
LINE
  5
3ED
330
1F
100
AcDbEntity
  8
C-A
  6
JWW_DASHED2
 62
     3
370
     9
100
AcDbLine
 10
39.04760227143242
 20
779.7195238509745
 30
0.0
 11
39.04760227143242
 21
808.8654236236199
 31
0.0
  0
LINE
  5
3EE
330
1F
100
AcDbEntity
  8
C-A
  6
JWW_DASHED2
 62
     3
370
     9
100
AcDbLine
 10
25.54760227143106
 20
779.7195238509745
 30
0.0
 11
25.54760227143106
 21
808.8654236236199
 31
0.0
  0
LINE
  5
3EF
330
1F
100
AcDbEntity
  8
C-A
  6
JWW_CENTER2
 62
     7
370
     9
100
AcDbLine
 10
-467.7023672109908
 20
766.3972448745336
 30
0.0
 11
-467.7023672109908
 21
813.7976440826038
 31
0.0
  0
LINE
  5
3F0
330
1F
100
AcDbEntity
  8
C-A
  6
JWW_CENTER2
 62
     7
370
     9
100
AcDbLine
 10
-473.4783681875524
 20
798.8653778472509
 30
0.0
 11
-461.9263357168506
 21
798.8653778472509
 31
0.0
  0
LINE
  5
3F1
330
1F
100
AcDbEntity
  8
C-A
  6
JWW_CENTER2
 62
     7
370
     9
100
AcDbLine
 10
26.52160129486901
 20
798.8653778472509
 30
0.0
 11
38.07366428314936
 21
798.8653778472509
 31
0.0
  0
LINE
  5
3F2
330
1F
100
AcDbEntity
  8
C-A
  6
JWW_CENTER2
 62
     7
370
     9
100
AcDbLine
 10
32.29766330658776
 20
766.3972448745336
 30
0.0
 11
32.29766330658776
 21
813.7976440826038
 31
0.0
  0
ARC
  5
3F3
330
1F
100
AcDbEntity
  8
C-A
  6
Continuous
 62
     3
370
     9
100
AcDbCircle
 10
-459.7023061758341
 20
773.8654441276163
 30
0.0
 40
1.999999642372131
100
AcDbArc
 50
29.99926757812499
 51
89.75836181640624
  0
ARC
  5
3F4
330
1F
100
AcDbEntity
  8
C-A
  6
Continuous
 62
     3
370
     9
100
AcDbCircle
 10
-460.2023672109908
 20
777.8654202857593
 30
0.0
 40
1.999999642372131
100
AcDbArc
 50
90.0
 51
269.86669921875
  0
ARC
  5
3F5
330
1F
100
AcDbEntity
  8
C-A
  6
Continuous
 62
     3
370
     9
100
AcDbCircle
 10
-475.7023061758332
 20
773.8654441276163
 30
0.0
 40
1.999999642372131
100
AcDbArc
 50
90.2759552001953
 51
150.0004730224609
  0
ARC
  5
3F6
330
1F
100
AcDbEntity
  8
C-A
  6
Continuous
 62
     3
370
     9
100
AcDbCircle
 10
-475.2024587637243
 20
777.8654202857593
 30
0.0
 40
1.999999642372131
100
AcDbArc
 50
270.0
 51
90.0
  0
CIRCLE
  5
3F7
330
1F
100
AcDbEntity
  8
C-A
  6
Continuous
 62
     3
370
     9
100
AcDbCircle
 10
-467.7023672109908
 20
798.8653778472509
 30
0.0
 40
4.249999523162842
  0
ARC
  5
3F8
330
1F
100
AcDbEntity
  8
C-A
  6
Continuous
 62
     3
370
     9
100
AcDbCircle
 10
40.29766330658731
 20
773.8654441276163
 30
0.0
 40
1.999999642372131
100
AcDbArc
 50
29.99926757812499
 51
89.75836181640624
  0
ARC
  5
3F9
330
1F
100
AcDbEntity
  8
C-A
  6
Continuous
 62
     3
370
     9
100
AcDbCircle
 10
39.79760227143061
 20
777.8654202857593
 30
0.0
 40
1.999999642372131
100
AcDbArc
 50
90.0
 51
269.86669921875
  0
ARC
  5
3FA
330
1F
100
AcDbEntity
  8
C-A
  6
Continuous
 62
     3
370
     9
100
AcDbCircle
 10
24.29772434174311
 20
773.8654441276163
 30
0.0
 40
1.999999642372131
100
AcDbArc
 50
90.2759552001953
 51
150.0004730224609
  0
ARC
  5
3FB
330
1F
100
AcDbEntity
  8
C-A
  6
Continuous
 62
     3
370
     9
100
AcDbCircle
 10
24.79754123627572
 20
777.8654202857593
 30
0.0
 40
1.999999642372131
100
AcDbArc
 50
270.0
 51
90.0
  0
CIRCLE
  5
3FC
330
1F
100
AcDbEntity
  8
C-A
  6
Continuous
 62
     3
370
     9
100
AcDbCircle
 10
32.29766330658776
 20
798.8653778472509
 30
0.0
 40
4.249999523162842
  0
LINE
  5
3FD
330
1F
100
AcDbEntity
  8
C-A
  6
Continuous
 62
     3
370
     9
100
AcDbLine
 10
-458.9523669446794
 20
559.864822854888
 30
0.0
 11
-460.2023669446794
 21
559.864822854888
 31
0.0
  0
LINE
  5
3FE
330
1F
100
AcDbEntity
  8
C-A
  6
Continuous
 62
     3
370
     9
100
AcDbLine
 10
-458.9523669446794
 20
559.864822854888
 30
0.0
 11
-458.9523669446794
 21
530.8648381136775
 31
0.0
  0
LINE
  5
3FF
330
1F
100
AcDbEntity
  8
C-A
  6
Continuous
 62
     3
370
     9
100
AcDbLine
 10
-460.2070361341316
 20
563.864838113677
 30
0.0
 11
-459.6938830579597
 21
563.864838113677
 31
0.0
  0
LINE
  5
400
330
1F
100
AcDbEntity
  8
C-A
  6
Continuous
 62
     3
370
     9
100
AcDbLine
 10
-475.7023059095218
 20
563.864838113677
 30
0.0
 11
-475.2023364271008
 21
563.864838113677
 31
0.0
  0
LINE
  5
401
330
1F
100
AcDbEntity
  8
C-A
  6
Continuous
 62
     3
370
     9
100
AcDbLine
 10
-476.4524279798343
 20
559.864822854888
 30
0.0
 11
-475.2024584974129
 21
559.864822854888
 31
0.0
  0
LINE
  5
402
330
1F
100
AcDbEntity
  8
C-A
  6
Continuous
 62
     3
370
     9
100
AcDbLine
 10
-476.4524279798343
 20
559.864822854888
 30
0.0
 11
-476.4524279798343
 21
530.8648381136775
 31
0.0
  0
LINE
  5
403
330
1F
100
AcDbEntity
  8
C-A
  6
Continuous
 62
     3
370
     9
100
AcDbLine
 10
-458.9523669446794
 20
530.8648381136775
 30
0.0
 11
-476.4524279798343
 21
530.8648381136775
 31
0.0
  0
LINE
  5
404
330
1F
100
AcDbEntity
  8
C-A
  6
JWW_DASHED2
 62
     3
370
     9
100
AcDbLine
 10
-460.9523974622562
 20
560.010727395904
 30
0.0
 11
-460.9523974622562
 21
530.8648381136775
 31
0.0
  0
LINE
  5
405
330
1F
100
AcDbEntity
  8
C-A
  6
JWW_DASHED2
 62
     3
370
     9
100
AcDbLine
 10
-474.4524279798361
 20
560.010727395904
 30
0.0
 11
-474.4524279798361
 21
530.8648381136775
 31
0.0
  0
LINE
  5
406
330
1F
100
AcDbEntity
  8
C-4
  6
Continuous
 62
     7
370
     9
100
AcDbLine
 10
32.29772460805634
 20
520.1457829378976
 30
0.0
 11
32.29772460805634
 21
476.8646092318428
 31
0.0
  0
LINE
  5
407
330
1F
100
AcDbEntity
  8
C-4
  6
Continuous
 62
     7
370
     9
100
AcDbLine
 10
-467.7023669446794
 20
520.1457829378976
 30
0.0
 11
-467.7023669446794
 21
476.8646092318428
 31
0.0
  0
LINE
  5
408
330
1F
100
AcDbEntity
  8
C-4
  6
Continuous
 62
     7
370
     9
100
AcDbLine
 10
-467.7023669446794
 20
479.8646702669973
 30
0.0
 11
32.29772460805634
 21
479.8646702669973
 31
0.0
  0
LINE
  5
409
330
1F
100
AcDbEntity
  8
C-A
  6
Continuous
 62
     3
370
     9
100
AcDbLine
 10
41.04760253774202
 20
559.864822854888
 30
0.0
 11
39.79760253774202
 21
559.864822854888
 31
0.0
  0
LINE
  5
40A
330
1F
100
AcDbEntity
  8
C-A
  6
Continuous
 62
     3
370
     9
100
AcDbLine
 10
41.04760253774202
 20
559.864822854888
 30
0.0
 11
41.04760253774202
 21
530.8648381136775
 31
0.0
  0
LINE
  5
40B
330
1F
100
AcDbEntity
  8
C-A
  6
Continuous
 62
     3
370
     9
100
AcDbLine
 10
39.79296386586839
 20
563.864838113677
 30
0.0
 11
40.30614745961884
 21
563.864838113677
 31
0.0
  0
LINE
  5
40C
330
1F
100
AcDbEntity
  8
C-A
  6
Continuous
 62
     3
370
     9
100
AcDbLine
 10
24.29772460805452
 20
563.864838113677
 30
0.0
 11
24.79766357289918
 21
563.864838113677
 31
0.0
  0
LINE
  5
40D
330
1F
100
AcDbEntity
  8
C-A
  6
Continuous
 62
     3
370
     9
100
AcDbLine
 10
23.54754150258714
 20
559.864822854888
 30
0.0
 11
24.79754150258714
 21
559.864822854888
 31
0.0
  0
LINE
  5
40E
330
1F
100
AcDbEntity
  8
C-A
  6
Continuous
 62
     3
370
     9
100
AcDbLine
 10
23.54754150258714
 20
559.864822854888
 30
0.0
 11
23.54754150258714
 21
530.8648381136775
 31
0.0
  0
LINE
  5
40F
330
1F
100
AcDbEntity
  8
C-A
  6
Continuous
 62
     3
370
     9
100
AcDbLine
 10
41.04760253774202
 20
530.8648381136775
 30
0.0
 11
23.54754150258714
 21
530.8648381136775
 31
0.0
  0
LINE
  5
410
330
1F
100
AcDbEntity
  8
C-A
  6
JWW_DASHED2
 62
     3
370
     9
100
AcDbLine
 10
39.04760253774384
 20
560.010727395904
 30
0.0
 11
39.04760253774384
 21
530.8648381136775
 31
0.0
  0
LINE
  5
411
330
1F
100
AcDbEntity
  8
C-A
  6
JWW_DASHED2
 62
     3
370
     9
100
AcDbLine
 10
25.54760253774248
 20
560.010727395904
 30
0.0
 11
25.54760253774248
 21
530.8648381136775
 31
0.0
  0
LINE
  5
412
330
1F
100
AcDbEntity
  8
C-A
  6
JWW_CENTER2
 62
     7
370
     9
100
AcDbLine
 10
26.52160156118043
 20
540.8648838900442
 30
0.0
 11
38.07366454946077
 21
540.8648838900442
 31
0.0
  0
LINE
  5
413
330
1F
100
AcDbEntity
  8
C-A
  6
JWW_CENTER2
 62
     7
370
     9
100
AcDbLine
 10
32.29766357289918
 20
573.333008279694
 30
0.0
 11
32.29766357289918
 21
525.9326176546936
 31
0.0
  0
LINE
  5
414
330
1F
100
AcDbEntity
  8
C-A
  6
JWW_CENTER2
 62
     7
370
     9
100
AcDbLine
 10
-473.478367921241
 20
540.8648838900442
 30
0.0
 11
-461.9263354505392
 21
540.8648838900442
 31
0.0
  0
LINE
  5
415
330
1F
100
AcDbEntity
  8
C-A
  6
JWW_CENTER2
 62
     7
370
     9
100
AcDbLine
 10
-467.7023669446794
 20
573.333008279694
 30
0.0
 11
-467.7023669446794
 21
525.9326176546936
 31
0.0
  0
ARC
  5
416
330
1F
100
AcDbEntity
  8
C-A
  6
Continuous
 62
     3
370
     9
100
AcDbCircle
 10
-459.7023059095227
 20
565.8648075960989
 30
0.0
 40
1.999999642372131
100
AcDbArc
 50
270.2416229248047
 51
330.0007171630859
  0
ARC
  5
417
330
1F
100
AcDbEntity
  8
C-A
  6
Continuous
 62
     3
370
     9
100
AcDbCircle
 10
-460.2023669446794
 20
561.8648381136788
 30
0.0
 40
1.999999642372131
100
AcDbArc
 50
90.13328552246095
 51
270.0
  0
ARC
  5
418
330
1F
100
AcDbEntity
  8
C-A
  6
Continuous
 62
     3
370
     9
100
AcDbCircle
 10
-475.7023059095218
 20
565.8648075960989
 30
0.0
 40
1.999999642372131
100
AcDbArc
 50
209.99951171875
 51
269.7240295410157
  0
ARC
  5
419
330
1F
100
AcDbEntity
  8
C-A
  6
Continuous
 62
     3
370
     9
100
AcDbCircle
 10
-475.2024584974129
 20
561.8648381136788
 30
0.0
 40
1.999999642372131
100
AcDbArc
 50
270.0
 51
90.0
  0
CIRCLE
  5
41A
330
1F
100
AcDbEntity
  8
C-A
  6
Continuous
 62
     3
370
     9
100
AcDbCircle
 10
-467.7023669446794
 20
540.8648838900442
 30
0.0
 40
4.249999523162842
  0
ARC
  5
41B
330
1F
100
AcDbEntity
  8
C-A
  6
Continuous
 62
     3
370
     9
100
AcDbCircle
 10
40.29766357289873
 20
565.8648075960989
 30
0.0
 40
1.999999642372131
100
AcDbArc
 50
270.2416229248047
 51
330.0007171630859
  0
ARC
  5
41C
330
1F
100
AcDbEntity
  8
C-A
  6
Continuous
 62
     3
370
     9
100
AcDbCircle
 10
39.79760253774202
 20
561.8648381136788
 30
0.0
 40
1.999999642372131
100
AcDbArc
 50
90.13328552246095
 51
270.0
  0
ARC
  5
41D
330
1F
100
AcDbEntity
  8
C-A
  6
Continuous
 62
     3
370
     9
100
AcDbCircle
 10
24.29772460805452
 20
565.8648075960989
 30
0.0
 40
1.999999642372131
100
AcDbArc
 50
209.99951171875
 51
269.7240295410157
  0
ARC
  5
41E
330
1F
100
AcDbEntity
  8
C-A
  6
Continuous
 62
     3
370
     9
100
AcDbCircle
 10
24.79754150258714
 20
561.8648381136788
 30
0.0
 40
1.999999642372131
100
AcDbArc
 50
270.0
 51
90.0
  0
CIRCLE
  5
41F
330
1F
100
AcDbEntity
  8
C-A
  6
Continuous
 62
     3
370
     9
100
AcDbCircle
 10
32.29766357289918
 20
540.8648838900442
 30
0.0
 40
4.249999523162842
  0
LWPOLYLINE
  5
420
330
1F
100
AcDbEntity
  8
C-4
  6
Continuous
 62
     7
370
     9
100
AcDbPolyline
 90
        4
 70
     1
 43
2.0
 10
33.29772460805634
 20
479.8646702669973
 42
0.4142135623731
 10
32.29772460805634
 20
480.8646702669973
 42
0.4142135623731
 10
31.29772460805634
 20
479.8646702669973
 42
0.4142135623731
 10
32.29772460805634
 20
478.8646702669973
 42
0.4142135623731
  0
LWPOLYLINE
  5
421
330
1F
100
AcDbEntity
  8
C-4
  6
Continuous
 62
     7
370
     9
100
AcDbPolyline
 90
        4
 70
     1
 43
2.0
 10
-466.7023669446794
 20
479.8646702669973
 42
0.4142135623731
 10
-467.7023669446794
 20
480.8646702669973
 42
0.4142135623731
 10
-468.7023669446794
 20
479.8646702669973
 42
0.4142135623731
 10
-467.7023669446794
 20
478.8646702669973
 42
0.4142135623731
  0
TEXT
  5
422
330
1F
100
AcDbEntity
  8
C-4
  6
Continuous
 62
     2
370
     9
100
AcDbText
 10
-250.2023364271008
 20
490.5044413851613
 30
0.0
 40
30.48
  1
500
 41
1.083333333333333
  7
ＭＳ ゴシック
100
AcDbText
  0
LINE
  5
423
330
1F
100
AcDbEntity
  8
D-5
  6
Continuous
 62
     7
370
     9
100
AcDbLine
 10
-243.0568076086021
 20
-287.4487690580818
 30
0.0
 11
-243.0568076086021
 21
-237.4484803782887
 31
0.0
  0
LINE
  5
424
330
1F
100
AcDbEntity
  8
D-5
  6
Continuous
 62
     7
370
     9
100
AcDbLine
 10
-243.0568076086021
 20
-237.4484803782887
 30
0.0
 11
-18.05705504842471
 21
-237.4484803782887
 31
0.0
  0
LINE
  5
425
330
1F
100
AcDbEntity
  8
D-5
  6
Continuous
 62
     7
370
     9
100
AcDbLine
 10
-18.05705504842471
 20
-237.4484803782887
 30
0.0
 11
-18.05705504842471
 21
-287.4487690580818
 31
0.0
  0
LINE
  5
426
330
1F
100
AcDbEntity
  8
D-5
  6
Continuous
 62
     7
370
     9
100
AcDbLine
 10
-18.05705504842471
 20
-287.4487690580818
 30
0.0
 11
-243.0568076086021
 21
-287.4487690580818
 31
0.0
  0
TEXT
  5
427
330
1F
100
AcDbEntity
  8
D-5
  6
Continuous
 62
     2
370
     9
100
AcDbText
 10
-195.5567746166258
 20
-276.8086288421823
 30
0.0
 40
30.48
  1
仕　様
 41
1.083333333333333
  7
ＭＳ ゴシック
100
AcDbText
  0
TEXT
  5
428
330
1F
100
AcDbEntity
  8
D-5
  6
Continuous
 62
     2
370
     9
100
AcDbText
 10
-81.25514671003252
 20
-452.7346743065646
 30
0.0
 40
30.48
  1
材質：メインバー　ＦＢ４×２５（ＳＵＳ３０４）
 41
1.119565217391304
  7
ＭＳ ゴシック
100
AcDbText
  0
TEXT
  5
429
330
1F
100
AcDbEntity
  8
D-5
  6
Continuous
 62
     2
370
     9
100
AcDbText
 10
-81.25514671003252
 20
-507.7349794823459
 30
0.0
 40
30.48
  1
　　　クロスバー　ＦＢ３×２０（ＳＵＳ３０４）
 41
1.119565217391304
  7
ＭＳ ゴシック
100
AcDbText
  0
TEXT
  5
42A
330
1F
100
AcDbEntity
  8
D-5
  6
Continuous
 62
     2
370
     9
100
AcDbText
 10
-81.25514671003252
 20
-562.7350372183045
 30
0.0
 40
30.48
  1
　　　サイドバー　ＦＢ４×２５（ＳＵＳ３０４）
 41
1.119565217391304
  7
ＭＳ ゴシック
100
AcDbText
  0
TEXT
  5
42B
330
1F
100
AcDbEntity
  8
D-5
  6
Continuous
 62
     2
370
     9
100
AcDbText
 10
-81.25514671003252
 20
-617.7349712343519
 30
0.0
 40
30.48
  1
定尺：９９４
 41
1.104166666666667
  7
ＭＳ ゴシック
100
AcDbText
  0
TEXT
  5
42C
330
1F
100
AcDbEntity
  8
D-5
  6
Continuous
 62
     2
370
     9
100
AcDbText
 10
-86.25769282631182
 20
-735.5688088644976
 30
0.0
 40
30.48
  1
材質：ステンレス鋼板ｔ＝３．０（ＳＵＳ３０４）
 41
1.119565217391304
  7
ＭＳ ゴシック
100
AcDbText
  0
TEXT
  5
42D
330
1F
100
AcDbEntity
  8
D-5
  6
Continuous
 62
     2
370
     9
100
AcDbText
 10
-145.9698357706478
 20
-680.568541835689
 30
0.0
 40
30.48
  1
ステンレス製受枠　ＲＬ－２５
 41
1.116071428571428
  7
ＭＳ ゴシック
100
AcDbText
  0
TEXT
  5
42E
330
1F
100
AcDbEntity
  8
D-5
  6
Continuous
 62
     2
370
     9
100
AcDbText
 10
-86.25792170814776
 20
-845.5686181296343
 30
0.0
 40
30.48
  1
施工場所の状況に合わせて、アンカーをプライヤー等で折り曲げてご使用ください。
 41
1.121710526315789
  7
ＭＳ ゴシック
100
AcDbText
  0
TEXT
  5
42F
330
1F
100
AcDbEntity
  8
D-5
  6
Continuous
 62
     2
370
     9
100
AcDbText
 10
-86.25768866214017
 20
-790.5685799826631
 30
0.0
 40
30.48
  1
定尺：２０００
 50
359.999957696904
 41
1.107142857142866
  7
ＭＳ ゴシック
100
AcDbText
  0
TEXT
  5
430
330
1F
100
AcDbEntity
  8
D-5
  6
Continuous
 62
     2
370
     9
100
AcDbText
 10
-143.1951978584763
 20
-393.4381893004115
 30
0.0
 40
30.48
  1
ＳＭＱ　１２０２５（Ｐ＝３０）
 41
1.116666666666666
  7
ＭＳ ゴシック
100
AcDbText
  0
TEXT
  5
431
330
1F
100
AcDbEntity
  8
D-5
  6
Continuous
 62
     2
370
     9
100
AcDbText
 10
-143.1951978584763
 20
-342.0799021387293
 30
0.0
 40
30.48
  1
ステンレス製グレーチング　滑り止め模様付　横断溝・側溝用
 41
1.120535714285714
  7
ＭＳ ゴシック
100
AcDbText
  0
TEXT
  5
432
330
1F
100
AcDbEntity
  8
D-5
  6
Continuous
 62
     7
370
     9
100
AcDbText
 10
-717.9626288762917
 20
-209.8293783188431
 30
0.0
 40
22.86
  1
ｔ＝２．０（ＳＥＣＣ）
 41
1.151515151515152
  7
ＭＳ ゴシック
100
AcDbText
  0
LINE
  5
433
330
1F
100
AcDbEntity
  8
D-5
  6
Continuous
 62
     7
370
     9
100
AcDbLine
 10
-731.6068663946022
 20
-179.4003454971879
 30
0.0
 11
-340.9881780629175
 21
-179.4003454971879
 31
0.0
  0
TEXT
  5
434
330
1F
100
AcDbEntity
  8
D-5
  6
Continuous
 62
     3
370
     9
100
AcDbText
 10
31.94294495157521
 20
-211.4902878771102
 30
0.0
 40
38.1
  1
※適用荷重：Ｔ－１４（横断溝用）
 41
1.09375
  7
ＭＳ ゴシック
100
AcDbText
  0
TEXT
  5
435
330
1F
100
AcDbEntity
  8
D-5
  6
Continuous
 62
     3
370
     9
100
AcDbText
 10
31.94294495157521
 20
-280.3983982849686
 30
0.0
 40
38.1
  1
※適用荷重：Ｔ－２０（側溝用）
 41
1.093333333333333
  7
ＭＳ ゴシック
100
AcDbText
  0
TEXT
  5
436
330
1F
100
AcDbEntity
  8
C-5
  6
Continuous
 62
     7
370
     9
100
AcDbText
 10
822.3145356049408
 20
756.2369349134292
 30
0.0
 40
22.86
  1
ローレット模様
 41
1.142857142857143
  7
ＭＳ ゴシック
100
AcDbText
  0
LINE
  5
437
330
1F
100
AcDbEntity
  8
C-5
  6
Continuous
 62
     7
370
     9
100
AcDbLine
 10
815.2402310758026
 20
744.931640625
 30
0.0
 11
1062.314535604941
 21
744.931640625
 31
0.0
  0
ENDSEC
  0
SECTION
  2
OBJECTS
  0
DICTIONARY
  5
C
330
0
100
AcDbDictionary
281
     1
  3
ACAD_DETAILVIEWSTYLE
350
47D
  3
ACAD_GROUP
350
D
  3
ACAD_LAYOUT
350
1A
  3
ACAD_MATERIAL
350
43
  3
ACAD_MLEADERSTYLE
350
6B
  3
ACAD_MLINESTYLE
350
17
  3
ACAD_PLOTSETTINGS
350
19
  3
ACAD_PLOTSTYLENAME
350
E
  3
ACAD_SCALELIST
350
47
  3
ACAD_SECTIONVIEWSTYLE
350
47E
  3
ACAD_TABLESTYLE
350
69
  3
ACAD_VISUALSTYLE
350
2A
  3
ACDB_RECOMPOSE_DATA
350
47A
  3
AcDbVariableDictionary
350
43A
  0
DICTIONARY
  5
438
330
8
100
AcDbDictionary
280
     1
281
     1
  3
ACAD_XREC_ROUNDTRIP
360
439
  0
DICTIONARY
  5
47D
102
{ACAD_REACTORS
330
C
102
}
330
C
100
AcDbDictionary
281
     1
  0
DICTIONARY
  5
D
102
{ACAD_REACTORS
330
C
102
}
330
C
100
AcDbDictionary
281
     1
  0
DICTIONARY
  5
1A
102
{ACAD_REACTORS
330
C
102
}
330
C
100
AcDbDictionary
281
     1
  3
Layout1
350
1E
  3
Layout2
350
26
  3
Model
350
22
  0
DICTIONARY
  5
43
102
{ACAD_REACTORS
330
C
102
}
330
C
100
AcDbDictionary
281
     1
  3
ByBlock
350
45
  3
ByLayer
350
44
  3
Global
350
46
  0
DICTIONARY
  5
6B
102
{ACAD_REACTORS
330
C
102
}
330
C
100
AcDbDictionary
281
     1
  3
Standard
350
6C
  0
DICTIONARY
  5
17
102
{ACAD_REACTORS
330
C
102
}
330
C
100
AcDbDictionary
281
     1
  3
Standard
350
18
  0
DICTIONARY
  5
19
102
{ACAD_REACTORS
330
C
102
}
330
C
100
AcDbDictionary
281
     1
  0
ACDBDICTIONARYWDFLT
  5
E
102
{ACAD_REACTORS
330
C
102
}
330
C
100
AcDbDictionary
281
     1
  3
Normal
350
F
100
AcDbDictionaryWithDefault
340
F
  0
DICTIONARY
  5
47
102
{ACAD_REACTORS
330
C
102
}
330
C
100
AcDbDictionary
281
     1
  3
A0
350
48
  3
A1
350
49
  3
A2
350
4A
  3
A3
350
4B
  3
A4
350
4C
  3
A5
350
4D
  3
A6
350
4E
  3
A7
350
4F
  3
A8
350
50
  3
A9
350
51
  3
B0
350
52
  3
B1
350
53
  3
B2
350
54
  3
B3
350
55
  3
B4
350
56
  3
B5
350
57
  3
B6
350
58
  3
B7
350
59
  3
B8
350
5A
  3
B9
350
5B
  3
C0
350
5C
  3
C1
350
5D
  3
C2
350
5E
  3
C3
350
5F
  3
C4
350
60
  3
C5
350
61
  3
C6
350
62
  3
C7
350
63
  3
C8
350
64
  3
C9
350
65
  3
D0
350
66
  3
D1
350
67
  3
D2
350
68
  0
DICTIONARY
  5
47E
102
{ACAD_REACTORS
330
C
102
}
330
C
100
AcDbDictionary
281
     1
  0
DICTIONARY
  5
69
102
{ACAD_REACTORS
330
C
102
}
330
C
100
AcDbDictionary
281
     1
  3
Standard
350
6A
  0
DICTIONARY
  5
2A
102
{ACAD_REACTORS
330
C
102
}
330
C
100
AcDbDictionary
281
     1
  3
2dWireframe
350
2F
  3
Basic
350
32
  3
Brighten
350
36
  3
ColorChange
350
3A
  3
Conceptual
350
34
  3
Dim
350
35
  3
EdgeColorOff
350
3D
  3
Facepattern
350
39
  3
Flat
350
2B
  3
FlatWithEdges
350
2C
  3
Gouraud
350
2D
  3
GouraudWithEdges
350
2E
  3
Hidden
350
31
  3
JitterOff
350
3B
  3
Linepattern
350
38
  3
OverhangOff
350
3C
  3
Realistic
350
33
  3
Shaded
350
42
  3
Shaded with edges
350
41
  3
Shades of Gray
350
3E
  3
Sketchy
350
3F
  3
Thicken
350
37
  3
Wireframe
350
30
  3
X-Ray
350
40
  0
XRECORD
  5
47A
102
{ACAD_REACTORS
330
C
102
}
330
C
100
AcDbXrecord
280
     1
 90
        1
330
6A
  0
DICTIONARY
  5
43A
102
{ACAD_REACTORS
330
C
102
}
330
C
100
AcDbDictionary
281
     1
  3
CANNOSCALE
350
43B
  3
CENTEREXE
350
47F
  3
CENTERLTYPEFILE
350
480
  3
CMLEADERSTYLE
350
47C
  3
CTABLESTYLE
350
47B
  3
MSLTSCALE
350
43C
  3
XCLIPFRAME
350
43D
  0
XRECORD
  5
439
102
{ACAD_REACTORS
330
438
102
}
330
438
100
AcDbXrecord
280
     1
102
VTR_0.000_0.000_1.000_1.000_VISUALSTYLE
340
2F
102
VTR_0.000_0.000_1.000_1.000_GRIDDISPLAY
 70
     3
102
VTR_0.000_0.000_1.000_1.000_GRIDMAJOR
 70
     5
102
VTR_0.000_0.000_1.000_1.000_DEFAULTLIGHTING
280
     1
102
VTR_0.000_0.000_1.000_1.000_DEFAULTLIGHTINGTYPE
 70
     1
102
VTR_0.000_0.000_1.000_1.000_BRIGHTNESS
141
0.0
102
VTR_0.000_0.000_1.000_1.000_CONTRAST
142
0.0
  0
LAYOUT
  5
1E
102
{ACAD_REACTORS
330
1A
102
}
330
1A
100
AcDbPlotSettings
  1

  2
none_device
  4

  6

 40
0.0
 41
0.0
 42
0.0
 43
0.0
 44
0.0
 45
0.0
 46
0.0
 47
0.0
 48
0.0
 49
0.0
140
0.0
141
0.0
142
1.0
143
1.0
 70
   688
 72
     1
 73
     0
 74
     5
  7

 75
    16
 76
     0
 77
     5
 78
   300
147
1.0
148
0.0
149
0.0
100
AcDbLayout
  1
Layout1
 70
     1
 71
     1
 10
0.0
 20
0.0
 11
420.0
 21
297.0
 12
0.0
 22
0.0
 32
0.0
 14
1.000000000000000E+20
 24
1.000000000000000E+20
 34
1.000000000000000E+20
 15
-1.000000000000000E+20
 25
-1.000000000000000E+20
 35
-1.000000000000000E+20
146
0.0
 13
0.0
 23
0.0
 33
0.0
 16
1.0
 26
0.0
 36
0.0
 17
0.0
 27
1.0
 37
0.0
 76
     0
330
1B
  0
LAYOUT
  5
26
102
{ACAD_REACTORS
330
1A
102
}
330
1A
100
AcDbPlotSettings
  1

  2
none_device
  4

  6

 40
0.0
 41
0.0
 42
0.0
 43
0.0
 44
0.0
 45
0.0
 46
0.0
 47
0.0
 48
0.0
 49
0.0
140
0.0
141
0.0
142
1.0
143
1.0
 70
   688
 72
     1
 73
     0
 74
     5
  7

 75
    16
 76
     0
 77
     5
 78
   300
147
1.0
148
0.0
149
0.0
100
AcDbLayout
  1
Layout2
 70
     1
 71
     2
 10
0.0
 20
0.0
 11
0.0
 21
0.0
 12
0.0
 22
0.0
 32
0.0
 14
0.0
 24
0.0
 34
0.0
 15
0.0
 25
0.0
 35
0.0
146
0.0
 13
0.0
 23
0.0
 33
0.0
 16
1.0
 26
0.0
 36
0.0
 17
0.0
 27
1.0
 37
0.0
 76
     0
330
23
  0
LAYOUT
  5
22
102
{ACAD_REACTORS
330
1A
102
}
330
1A
100
AcDbPlotSettings
  1

  2
none_device
  4
Letter_(8.50_x_11.00_Inches)
  6

 40
6.35
 41
6.35
 42
6.35000508
 43
6.35000508
 44
215.9
 45
279.4
 46
0.0
 47
0.0
 48
0.0
 49
0.0
140
0.0
141
0.0
142
1.0
143
1.0
 70
  1712
 72
     1
 73
     0
 74
     0
  7

 75
     0
 76
     0
 77
     5
 78
   300
147
1.0
148
0.0
149
0.0
100
AcDbLayout
  1
Model
 70
     1
 71
     0
 10
-2100.0
 20
-1485.0
 11
2100.0
 21
1485.0
 12
0.0
 22
0.0
 32
0.0
 14
-2100.0
 24
-1485.0
 34
0.0
 15
2100.0
 25
1485.0
 35
0.0
146
0.0
 13
0.0
 23
0.0
 33
0.0
 16
1.0
 26
0.0
 36
0.0
 17
0.0
 27
1.0
 37
0.0
 76
     0
330
1F
331
29
  0
MATERIAL
  5
45
102
{ACAD_REACTORS
330
43
102
}
102
{ACAD_XDICTIONARY
360
470
102
}
330
43
100
AcDbMaterial
  1
ByBlock
  0
MATERIAL
  5
44
102
{ACAD_REACTORS
330
43
102
}
102
{ACAD_XDICTIONARY
360
46E
102
}
330
43
100
AcDbMaterial
  1
ByLayer
  0
MATERIAL
  5
46
102
{ACAD_REACTORS
330
43
102
}
102
{ACAD_XDICTIONARY
360
472
102
}
330
43
100
AcDbMaterial
  1
Global
  0
MLEADERSTYLE
  5
6C
102
{ACAD_REACTORS
330
6B
102
}
102
{ACAD_XDICTIONARY
360
478
102
}
330
6B
100
AcDbMLeaderStyle
170
     2
171
     1
172
     0
 90
        2
 40
0.0
 41
0.0
173
     1
 91
-1056964608
340
14
 92
       -2
290
     1
 42
2.0
291
     1
 43
8.0
  3
Standard
341
0
 44
4.0
300

342
11
174
     1
178
     6
175
     1
176
     0
 93
-1056964608
 45
4.0
292
     0
297
     0
 46
4.0
343
0
 94
-1056964608
 47
1.0
 49
1.0
140
1.0
293
     1
141
0.0
294
     1
177
     0
142
1.0
295
     0
296
     0
143
3.75
1001
ACAD_MLEADERVER
1070
     2
  0
MLINESTYLE
  5
18
102
{ACAD_REACTORS
330
17
102
}
330
17
100
AcDbMlineStyle
  2
Standard
 70
     0
  3

 62
   256
 51
90.0
 52
90.0
 71
     2
 49
0.5
 62
   256
  6
BYLAYER
 49
-0.5
 62
   256
  6
BYLAYER
  0
ACDBPLACEHOLDER
  5
F
102
{ACAD_REACTORS
330
E
102
}
330
E
  0
SCALE
  5
48
102
{ACAD_REACTORS
330
47
102
}
330
47
100
AcDbScale
 70
     0
300
1:1
140
1.0
141
1.0
290
     1
  0
SCALE
  5
49
102
{ACAD_REACTORS
330
47
102
}
330
47
100
AcDbScale
 70
     0
300
1:2
140
1.0
141
2.0
290
     0
  0
SCALE
  5
4A
102
{ACAD_REACTORS
330
47
102
}
330
47
100
AcDbScale
 70
     0
300
1:4
140
1.0
141
4.0
290
     0
  0
SCALE
  5
4B
102
{ACAD_REACTORS
330
47
102
}
330
47
100
AcDbScale
 70
     0
300
1:5
140
1.0
141
5.0
290
     0
  0
SCALE
  5
4C
102
{ACAD_REACTORS
330
47
102
}
330
47
100
AcDbScale
 70
     0
300
1:8
140
1.0
141
8.0
290
     0
  0
SCALE
  5
4D
102
{ACAD_REACTORS
330
47
102
}
330
47
100
AcDbScale
 70
     0
300
1:10
140
1.0
141
10.0
290
     0
  0
SCALE
  5
4E
102
{ACAD_REACTORS
330
47
102
}
330
47
100
AcDbScale
 70
     0
300
1:16
140
1.0
141
16.0
290
     0
  0
SCALE
  5
4F
102
{ACAD_REACTORS
330
47
102
}
330
47
100
AcDbScale
 70
     0
300
1:20
140
1.0
141
20.0
290
     0
  0
SCALE
  5
50
102
{ACAD_REACTORS
330
47
102
}
330
47
100
AcDbScale
 70
     0
300
1:30
140
1.0
141
30.0
290
     0
  0
SCALE
  5
51
102
{ACAD_REACTORS
330
47
102
}
330
47
100
AcDbScale
 70
     0
300
1:40
140
1.0
141
40.0
290
     0
  0
SCALE
  5
52
102
{ACAD_REACTORS
330
47
102
}
330
47
100
AcDbScale
 70
     0
300
1:50
140
1.0
141
50.0
290
     0
  0
SCALE
  5
53
102
{ACAD_REACTORS
330
47
102
}
330
47
100
AcDbScale
 70
     0
300
1:100
140
1.0
141
100.0
290
     0
  0
SCALE
  5
54
102
{ACAD_REACTORS
330
47
102
}
330
47
100
AcDbScale
 70
     0
300
2:1
140
2.0
141
1.0
290
     0
  0
SCALE
  5
55
102
{ACAD_REACTORS
330
47
102
}
330
47
100
AcDbScale
 70
     0
300
4:1
140
4.0
141
1.0
290
     0
  0
SCALE
  5
56
102
{ACAD_REACTORS
330
47
102
}
330
47
100
AcDbScale
 70
     0
300
8:1
140
8.0
141
1.0
290
     0
  0
SCALE
  5
57
102
{ACAD_REACTORS
330
47
102
}
330
47
100
AcDbScale
 70
     0
300
10:1
140
10.0
141
1.0
290
     0
  0
SCALE
  5
58
102
{ACAD_REACTORS
330
47
102
}
330
47
100
AcDbScale
 70
     0
300
100:1
140
100.0
141
1.0
290
     0
  0
SCALE
  5
59
102
{ACAD_REACTORS
330
47
102
}
330
47
100
AcDbScale
 70
     0
300
1/128" = 1'-0"
140
0.0078125
141
12.0
290
     0
  0
SCALE
  5
5A
102
{ACAD_REACTORS
330
47
102
}
330
47
100
AcDbScale
 70
     0
300
1/64" = 1'-0"
140
0.015625
141
12.0
290
     0
  0
SCALE
  5
5B
102
{ACAD_REACTORS
330
47
102
}
330
47
100
AcDbScale
 70
     0
300
1/32" = 1'-0"
140
0.03125
141
12.0
290
     0
  0
SCALE
  5
5C
102
{ACAD_REACTORS
330
47
102
}
330
47
100
AcDbScale
 70
     0
300
1/16" = 1'-0"
140
0.0625
141
12.0
290
     0
  0
SCALE
  5
5D
102
{ACAD_REACTORS
330
47
102
}
330
47
100
AcDbScale
 70
     0
300
3/32" = 1'-0"
140
0.09375
141
12.0
290
     0
  0
SCALE
  5
5E
102
{ACAD_REACTORS
330
47
102
}
330
47
100
AcDbScale
 70
     0
300
1/8" = 1'-0"
140
0.125
141
12.0
290
     0
  0
SCALE
  5
5F
102
{ACAD_REACTORS
330
47
102
}
330
47
100
AcDbScale
 70
     0
300
3/16" = 1'-0"
140
0.1875
141
12.0
290
     0
  0
SCALE
  5
60
102
{ACAD_REACTORS
330
47
102
}
330
47
100
AcDbScale
 70
     0
300
1/4" = 1'-0"
140
0.25
141
12.0
290
     0
  0
SCALE
  5
61
102
{ACAD_REACTORS
330
47
102
}
330
47
100
AcDbScale
 70
     0
300
3/8" = 1'-0"
140
0.375
141
12.0
290
     0
  0
SCALE
  5
62
102
{ACAD_REACTORS
330
47
102
}
330
47
100
AcDbScale
 70
     0
300
1/2" = 1'-0"
140
0.5
141
12.0
290
     0
  0
SCALE
  5
63
102
{ACAD_REACTORS
330
47
102
}
330
47
100
AcDbScale
 70
     0
300
3/4" = 1'-0"
140
0.75
141
12.0
290
     0
  0
SCALE
  5
64
102
{ACAD_REACTORS
330
47
102
}
330
47
100
AcDbScale
 70
     0
300
1" = 1'-0"
140
1.0
141
12.0
290
     0
  0
SCALE
  5
65
102
{ACAD_REACTORS
330
47
102
}
330
47
100
AcDbScale
 70
     0
300
1-1/2" = 1'-0"
140
1.5
141
12.0
290
     0
  0
SCALE
  5
66
102
{ACAD_REACTORS
330
47
102
}
330
47
100
AcDbScale
 70
     0
300
3" = 1'-0"
140
3.0
141
12.0
290
     0
  0
SCALE
  5
67
102
{ACAD_REACTORS
330
47
102
}
330
47
100
AcDbScale
 70
     0
300
6" = 1'-0"
140
6.0
141
12.0
290
     0
  0
SCALE
  5
68
102
{ACAD_REACTORS
330
47
102
}
330
47
100
AcDbScale
 70
     0
300
1'-0" = 1'-0"
140
12.0
141
12.0
290
     0
  0
TABLESTYLE
  5
6A
102
{ACAD_REACTORS
330
69
102
}
102
{ACAD_XDICTIONARY
360
474
102
}
330
69
100
AcDbTableStyle
  3
Standard
 70
     0
 71
     0
 40
0.06
 41
0.06
280
     0
281
     0
  7
Standard
140
4.5
170
     2
 62
     0
 63
   257
283
     0
274
    -2
284
     1
 64
     0
275
    -2
285
     1
 65
     0
276
    -2
286
     1
 66
     0
277
    -2
287
     1
 67
     0
278
    -2
288
     1
 68
     0
279
    -2
289
     1
 69
     0
  7
Standard
140
6.0
170
     5
 62
     0
 63
   257
283
     0
274
    -2
284
     1
 64
     0
275
    -2
285
     1
 65
     0
276
    -2
286
     1
 66
     0
277
    -2
287
     1
 67
     0
278
    -2
288
     1
 68
     0
279
    -2
289
     1
 69
     0
  7
Standard
140
4.5
170
     5
 62
     0
 63
   257
283
     0
274
    -2
284
     1
 64
     0
275
    -2
285
     1
 65
     0
276
    -2
286
     1
 66
     0
277
    -2
287
     1
 67
     0
278
    -2
288
     1
 68
     0
279
    -2
289
     1
 69
     0
  0
VISUALSTYLE
  5
2F
102
{ACAD_REACTORS
330
2A
102
}
102
{ACAD_XDICTIONARY
360
446
102
}
330
2A
100
AcDbVisualStyle
  2
2dWireframe
 70
     4
 71
     0
 72
     2
 73
     0
 90
        0
 40
0.6
 41
30.0
 62
     5
 63
     7
421
 16777215
 74
     1
 91
        4
 64
     7
 65
   257
 75
     1
175
     1
 42
1.0
 92
        0
 66
   257
 43
1.0
 76
     1
 77
     6
 78
     2
 67
     7
 79
     5
170
     0
171
     0
290
     0
174
     0
 93
        1
 44
0.0
173
     0
291
     0
 45
0.0
1001
ACAD
1000
AcDbSavedByObjectVersion
1070
     0
  0
VISUALSTYLE
  5
32
102
{ACAD_REACTORS
330
2A
102
}
102
{ACAD_XDICTIONARY
360
44C
102
}
330
2A
100
AcDbVisualStyle
  2
Basic
 70
     7
 71
     1
 72
     0
 73
     1
 90
        0
 40
0.6
 41
30.0
 62
     5
 63
     7
421
 16777215
 74
     0
 91
        4
 64
     7
 65
   257
 75
     1
175
     1
 42
1.0
 92
        8
 66
     7
 43
1.0
 76
     1
 77
     6
 78
     2
 67
     7
 79
     5
170
     0
171
     0
290
     0
174
     0
 93
        1
 44
0.0
173
     0
291
     1
 45
0.0
1001
ACAD
1000
AcDbSavedByObjectVersion
1070
     0
  0
VISUALSTYLE
  5
36
102
{ACAD_REACTORS
330
2A
102
}
102
{ACAD_XDICTIONARY
360
454
102
}
330
2A
100
AcDbVisualStyle
  2
Brighten
 70
    12
 71
     2
 72
     2
 73
     0
 90
        0
 40
0.6
 41
30.0
 62
     5
 63
     7
421
 16777215
 74
     1
 91
        4
 64
     7
 65
   257
 75
     1
175
     1
 42
1.0
 92
        8
 66
     7
 43
1.0
 76
     1
 77
     6
 78
     2
 67
     7
 79
     5
170
     0
171
     0
290
     0
174
     0
 93
        1
 44
50.0
173
     0
291
     1
 45
0.0
1001
ACAD
1000
AcDbSavedByObjectVersion
1070
     0
  0
VISUALSTYLE
  5
3A
102
{ACAD_REACTORS
330
2A
102
}
102
{ACAD_XDICTIONARY
360
45C
102
}
330
2A
100
AcDbVisualStyle
  2
ColorChange
 70
    16
 71
     2
 72
     2
 73
     3
 90
        0
 40
0.6
 41
30.0
 62
     5
 63
     8
421
  8421504
 74
     1
 91
        4
 64
     7
 65
   257
 75
     1
175
     1
 42
1.0
 92
        8
 66
     8
424
  8421504
 43
1.0
 76
     1
 77
     6
 78
     2
 67
     7
 79
     5
170
     0
171
     0
290
     0
174
     0
 93
        1
 44
0.0
173
     0
291
     1
 45
0.0
1001
ACAD
1000
AcDbSavedByObjectVersion
1070
     0
  0
VISUALSTYLE
  5
34
102
{ACAD_REACTORS
330
2A
102
}
102
{ACAD_XDICTIONARY
360
450
102
}
330
2A
100
AcDbVisualStyle
  2
Conceptual
 70
     9
 71
     3
 72
     2
 73
     0
 90
        0
 40
0.6
 41
30.0
 62
     5
 63
     7
421
 16777215
 74
     2
 91
        2
 64
     7
 65
   257
 75
     1
175
     1
 42
179.0
 92
        8
 66
     7
 43
1.0
 76
     1
 77
     6
 78
     2
 67
     7
 79
     3
170
     0
171
     0
290
     0
174
     0
 93
        1
 44
0.0
173
     0
291
     0
 45
0.0
1001
ACAD
1000
AcDbSavedByObjectVersion
1070
     0
  0
VISUALSTYLE
  5
35
102
{ACAD_REACTORS
330
2A
102
}
102
{ACAD_XDICTIONARY
360
452
102
}
330
2A
100
AcDbVisualStyle
  2
Dim
 70
    11
 71
     2
 72
     2
 73
     0
 90
        0
 40
0.6
 41
30.0
 62
     5
 63
     7
421
 16777215
 74
     1
 91
        4
 64
     7
 65
   257
 75
     1
175
     1
 42
1.0
 92
        8
 66
     7
 43
1.0
 76
     1
 77
     6
 78
     2
 67
     7
 79
     5
170
     0
171
     0
290
     0
174
     0
 93
        1
 44
-50.0
173
     0
291
     1
 45
0.0
1001
ACAD
1000
AcDbSavedByObjectVersion
1070
     0
  0
VISUALSTYLE
  5
3D
102
{ACAD_REACTORS
330
2A
102
}
102
{ACAD_XDICTIONARY
360
462
102
}
330
2A
100
AcDbVisualStyle
  2
EdgeColorOff
 70
    22
 71
     2
 72
     2
 73
     0
 90
        0
 40
0.6
 41
30.0
 62
     5
 63
     7
421
 16777215
 74
     1
 91
        4
 64
     7
 65
   257
 75
     1
175
     1
 42
1.0
 92
        8
 66
     7
 43
1.0
 76
     1
 77
     6
 78
     2
 67
     7
 79
     5
170
     0
171
     0
290
     0
174
     0
 93
        1
 44
0.0
173
     0
291
     1
 45
0.0
1001
ACAD
1000
AcDbSavedByObjectVersion
1070
     0
  0
VISUALSTYLE
  5
39
102
{ACAD_REACTORS
330
2A
102
}
102
{ACAD_XDICTIONARY
360
45A
102
}
330
2A
100
AcDbVisualStyle
  2
Facepattern
 70
    15
 71
     2
 72
     2
 73
     0
 90
        0
 40
0.6
 41
30.0
 62
     5
 63
     7
421
 16777215
 74
     1
 91
        4
 64
     7
 65
   257
 75
     1
175
     1
 42
1.0
 92
        8
 66
     7
 43
1.0
 76
     1
 77
     6
 78
     2
 67
     7
 79
     5
170
     0
171
     0
290
     0
174
     0
 93
        1
 44
0.0
173
     0
291
     1
 45
0.0
1001
ACAD
1000
AcDbSavedByObjectVersion
1070
     0
  0
VISUALSTYLE
  5
2B
102
{ACAD_REACTORS
330
2A
102
}
102
{ACAD_XDICTIONARY
360
43E
102
}
330
2A
100
AcDbVisualStyle
  2
Flat
 70
     0
 71
     2
 72
     1
 73
     1
 90
        2
 40
0.6
 41
30.0
 62
     5
 63
     7
421
 16777215
 74
     0
 91
        0
 64
     7
 65
   257
 75
     1
175
     1
 42
1.0
 92
        8
 66
     7
 43
1.0
 76
     1
 77
     6
 78
     2
 67
     7
 79
     5
170
     0
171
     0
290
     0
174
     0
 93
       13
 44
0.0
173
     0
291
     1
 45
0.0
1001
ACAD
1000
AcDbSavedByObjectVersion
1070
     0
  0
VISUALSTYLE
  5
2C
102
{ACAD_REACTORS
330
2A
102
}
102
{ACAD_XDICTIONARY
360
440
102
}
330
2A
100
AcDbVisualStyle
  2
FlatWithEdges
 70
     1
 71
     2
 72
     1
 73
     1
 90
        2
 40
0.6
 41
30.0
 62
     5
 63
     7
421
 16777215
 74
     1
 91
        0
 64
     7
 65
   257
 75
     1
175
     1
 42
1.0
 92
        0
 66
   257
 43
1.0
 76
     1
 77
     6
 78
     2
 67
     7
 79
     5
170
     0
171
     0
290
     0
174
     0
 93
       13
 44
0.0
173
     0
291
     1
 45
0.0
1001
ACAD
1000
AcDbSavedByObjectVersion
1070
     0
  0
VISUALSTYLE
  5
2D
102
{ACAD_REACTORS
330
2A
102
}
102
{ACAD_XDICTIONARY
360
442
102
}
330
2A
100
AcDbVisualStyle
  2
Gouraud
 70
     2
 71
     2
 72
     2
 73
     1
 90
        2
 40
0.6
 41
30.0
 62
     5
 63
     7
421
 16777215
 74
     0
 91
        0
 64
     7
 65
   257
 75
     1
175
     1
 42
1.0
 92
        0
 66
     7
 43
1.0
 76
     1
 77
     6
 78
     2
 67
     7
 79
     5
170
     0
171
     0
290
     0
174
     0
 93
       13
 44
0.0
173
     0
291
     1
 45
0.0
1001
ACAD
1000
AcDbSavedByObjectVersion
1070
     0
  0
VISUALSTYLE
  5
2E
102
{ACAD_REACTORS
330
2A
102
}
102
{ACAD_XDICTIONARY
360
444
102
}
330
2A
100
AcDbVisualStyle
  2
GouraudWithEdges
 70
     3
 71
     2
 72
     2
 73
     1
 90
        2
 40
0.6
 41
30.0
 62
     5
 63
     7
421
 16777215
 74
     1
 91
        0
 64
     7
 65
   257
 75
     1
175
     1
 42
1.0
 92
        0
 66
   257
 43
1.0
 76
     1
 77
     6
 78
     2
 67
     7
 79
     5
170
     0
171
     0
290
     0
174
     0
 93
       13
 44
0.0
173
     0
291
     1
 45
0.0
1001
ACAD
1000
AcDbSavedByObjectVersion
1070
     0
  0
VISUALSTYLE
  5
31
102
{ACAD_REACTORS
330
2A
102
}
102
{ACAD_XDICTIONARY
360
44A
102
}
330
2A
100
AcDbVisualStyle
  2
Hidden
 70
     6
 71
     1
 72
     2
 73
     2
 90
        0
 40
0.6
 41
30.0
 62
     5
 63
     7
421
 16777215
 74
     2
 91
        2
 64
     7
 65
   257
 75
     2
175
     1
 42
40.0
 92
        0
 66
   257
 43
1.0
 76
     1
 77
     6
 78
     2
 67
     7
 79
     3
170
     0
171
     0
290
     0
174
     0
 93
        1
 44
0.0
173
     0
291
     0
 45
0.0
1001
ACAD
1000
AcDbSavedByObjectVersion
1070
     0
  0
VISUALSTYLE
  5
3B
102
{ACAD_REACTORS
330
2A
102
}
102
{ACAD_XDICTIONARY
360
45E
102
}
330
2A
100
AcDbVisualStyle
  2
JitterOff
 70
    20
 71
     2
 72
     2
 73
     0
 90
        0
 40
0.6
 41
30.0
 62
     5
 63
     7
421
 16777215
 74
     1
 91
        4
 64
     7
 65
   257
 75
     1
175
     1
 42
1.0
 92
       10
 66
     7
 43
1.0
 76
     1
 77
     6
 78
     2
 67
     7
 79
     5
170
     0
171
     0
290
     0
174
     0
 93
        1
 44
0.0
173
     0
291
     1
 45
0.0
1001
ACAD
1000
AcDbSavedByObjectVersion
1070
     0
  0
VISUALSTYLE
  5
38
102
{ACAD_REACTORS
330
2A
102
}
102
{ACAD_XDICTIONARY
360
458
102
}
330
2A
100
AcDbVisualStyle
  2
Linepattern
 70
    14
 71
     2
 72
     2
 73
     0
 90
        0
 40
0.6
 41
30.0
 62
     5
 63
     7
421
 16777215
 74
     1
 91
        4
 64
     7
 65
   257
 75
     7
175
     7
 42
1.0
 92
        8
 66
     7
 43
1.0
 76
     1
 77
     6
 78
     2
 67
     7
 79
     5
170
     0
171
     0
290
     0
174
     0
 93
        1
 44
0.0
173
     0
291
     1
 45
0.0
1001
ACAD
1000
AcDbSavedByObjectVersion
1070
     0
  0
VISUALSTYLE
  5
3C
102
{ACAD_REACTORS
330
2A
102
}
102
{ACAD_XDICTIONARY
360
460
102
}
330
2A
100
AcDbVisualStyle
  2
OverhangOff
 70
    21
 71
     2
 72
     2
 73
     0
 90
        0
 40
0.6
 41
30.0
 62
     5
 63
     7
421
 16777215
 74
     1
 91
        4
 64
     7
 65
   257
 75
     1
175
     1
 42
1.0
 92
        9
 66
     7
 43
1.0
 76
     1
 77
     6
 78
     2
 67
     7
 79
     5
170
     0
171
     0
290
     0
174
     0
 93
        1
 44
0.0
173
     0
291
     1
 45
0.0
1001
ACAD
1000
AcDbSavedByObjectVersion
1070
     0
  0
VISUALSTYLE
  5
33
102
{ACAD_REACTORS
330
2A
102
}
102
{ACAD_XDICTIONARY
360
44E
102
}
330
2A
100
AcDbVisualStyle
  2
Realistic
 70
     8
 71
     2
 72
     3
 73
     0
 90
        2
 40
0.6
 41
30.0
 62
     5
 63
     7
421
 16777215
 74
     0
 91
        0
 64
     7
 65
   257
 75
     1
175
     1
 42
1.0
 92
        8
 66
   257
 43
1.0
 76
     1
 77
     6
 78
     2
 67
     7
 79
     3
170
     0
171
     0
290
     0
174
     0
 93
       13
 44
0.0
173
     0
291
     0
 45
0.0
1001
ACAD
1000
AcDbSavedByObjectVersion
1070
     0
  0
VISUALSTYLE
  5
42
102
{ACAD_REACTORS
330
2A
102
}
102
{ACAD_XDICTIONARY
360
46C
102
}
330
2A
100
AcDbVisualStyle
  2
Shaded
 70
    27
 71
     2
 72
     2
 73
     1
 90
        2
 40
0.6
 41
30.0
 62
     5
 63
     7
421
 16777215
 74
     0
 91
        4
 64
     7
 65
   257
 75
     1
175
     1
 42
1.0
 92
        8
 66
   257
 43
1.0
 76
     1
 77
     6
 78
     2
 67
     8
425
  7895160
 79
     3
170
     0
171
     0
290
     0
174
     0
 93
        5
 44
0.0
173
     0
291
     0
 45
0.0
1001
ACAD
1000
AcDbSavedByObjectVersion
1070
     0
  0
VISUALSTYLE
  5
41
102
{ACAD_REACTORS
330
2A
102
}
102
{ACAD_XDICTIONARY
360
46A
102
}
330
2A
100
AcDbVisualStyle
  2
Shaded with edges
 70
    26
 71
     2
 72
     2
 73
     1
 90
        2
 40
0.6
 41
30.0
 62
     5
 63
     7
421
 16777215
 74
     1
 91
       10
 64
     7
 65
   257
 75
     2
175
     1
 42
1.0
 92
        8
 66
   257
 43
1.0
 76
     1
 77
     6
 78
     2
 67
     7
 79
     3
170
     0
171
     0
290
     0
174
     0
 93
        5
 44
0.0
173
     0
291
     0
 45
0.0
1001
ACAD
1000
AcDbSavedByObjectVersion
1070
     0
  0
VISUALSTYLE
  5
3E
102
{ACAD_REACTORS
330
2A
102
}
102
{ACAD_XDICTIONARY
360
464
102
}
330
2A
100
AcDbVisualStyle
  2
Shades of Gray
 70
    23
 71
     2
 72
     2
 73
     3
 90
        0
 40
0.6
 41
30.0
 62
     5
 63
     7
421
 16777215
 74
     2
 91
        2
 64
     7
 65
     7
 75
     1
175
     1
 42
40.0
 92
        8
 66
     7
 43
1.0
 76
     1
 77
     6
 78
     2
 67
     7
 79
     3
170
     0
171
     0
290
     0
174
     0
 93
        1
 44
0.0
173
     0
291
     0
 45
0.0
1001
ACAD
1000
AcDbSavedByObjectVersion
1070
     0
  0
VISUALSTYLE
  5
3F
102
{ACAD_REACTORS
330
2A
102
}
102
{ACAD_XDICTIONARY
360
466
102
}
330
2A
100
AcDbVisualStyle
  2
Sketchy
 70
    24
 71
     1
 72
     2
 73
     2
 90
        0
 40
0.6
 41
30.0
 62
     5
 63
     7
421
 16777215
 74
     2
 91
        2
 64
     7
 65
     7
 75
     1
175
     1
 42
40.0
 92
       11
 66
     7
 43
1.0
 76
     1
 77
     6
 78
     2
 67
     7
 79
     6
170
     0
171
     0
290
     0
174
     0
 93
        1
 44
0.0
173
     0
291
     0
 45
0.0
1001
ACAD
1000
AcDbSavedByObjectVersion
1070
     0
  0
VISUALSTYLE
  5
37
102
{ACAD_REACTORS
330
2A
102
}
102
{ACAD_XDICTIONARY
360
456
102
}
330
2A
100
AcDbVisualStyle
  2
Thicken
 70
    13
 71
     2
 72
     2
 73
     0
 90
        0
 40
0.6
 41
30.0
 62
     5
 63
     7
421
 16777215
 74
     1
 91
        4
 64
     7
 65
   257
 75
     1
175
     1
 42
1.0
 92
       12
 66
     7
 43
1.0
 76
     1
 77
     6
 78
     2
 67
     7
 79
     5
170
     0
171
     0
290
     0
174
     0
 93
        1
 44
0.0
173
     0
291
     1
 45
0.0
1001
ACAD
1000
AcDbSavedByObjectVersion
1070
     0
  0
VISUALSTYLE
  5
30
102
{ACAD_REACTORS
330
2A
102
}
102
{ACAD_XDICTIONARY
360
448
102
}
330
2A
100
AcDbVisualStyle
  2
Wireframe
 70
     5
 71
     0
 72
     2
 73
     0
 90
        0
 40
0.6
 41
30.0
 62
     5
 63
     7
421
 16777215
 74
     1
 91
        4
 64
     7
 65
   257
 75
     1
175
     1
 42
1.0
 92
        0
 66
   257
 43
1.0
 76
     1
 77
     6
 78
     2
 67
     7
 79
     3
170
     0
171
     0
290
     0
174
     0
 93
        1
 44
0.0
173
     0
291
     0
 45
0.0
1001
ACAD
1000
AcDbSavedByObjectVersion
1070
     0
  0
VISUALSTYLE
  5
40
102
{ACAD_REACTORS
330
2A
102
}
102
{ACAD_XDICTIONARY
360
468
102
}
330
2A
100
AcDbVisualStyle
  2
X-Ray
 70
    25
 71
     2
 72
     2
 73
     1
 90
        1
 40
0.5
 41
30.0
 62
     5
 63
     7
421
 16777215
 74
     1
 91
        0
 64
     7
 65
   257
 75
     1
175
     1
 42
1.0
 92
        8
 66
     7
 43
1.0
 76
     1
 77
     6
 78
     2
 67
     7
 79
     3
170
     0
171
     0
290
     0
174
     0
 93
       13
 44
0.0
173
     0
291
     0
 45
0.0
1001
ACAD
1000
AcDbSavedByObjectVersion
1070
     0
  0
DICTIONARYVAR
  5
43B
102
{ACAD_REACTORS
330
43A
102
}
330
43A
100
DictionaryVariables
280
     0
  1
1:1
  0
DICTIONARYVAR
  5
47F
102
{ACAD_REACTORS
330
43A
102
}
330
43A
100
DictionaryVariables
280
     0
  1
3.500000
  0
DICTIONARYVAR
  5
480
102
{ACAD_REACTORS
330
43A
102
}
330
43A
100
DictionaryVariables
280
     0
  1
acadiso.lin
  0
DICTIONARYVAR
  5
47C
102
{ACAD_REACTORS
330
43A
102
}
330
43A
100
DictionaryVariables
280
     0
  1
Standard
  0
DICTIONARYVAR
  5
47B
102
{ACAD_REACTORS
330
43A
102
}
330
43A
100
DictionaryVariables
280
     0
  1
Standard
  0
DICTIONARYVAR
  5
43C
102
{ACAD_REACTORS
330
43A
102
}
330
43A
100
DictionaryVariables
280
     0
  1
1
  0
DICTIONARYVAR
  5
43D
102
{ACAD_REACTORS
330
43A
102
}
330
43A
100
DictionaryVariables
280
     0
  1
2
  0
DICTIONARY
  5
470
330
45
100
AcDbDictionary
280
     1
281
     1
  3
ACAD_XREC_ROUNDTRIP
360
471
  0
DICTIONARY
  5
46E
330
44
100
AcDbDictionary
280
     1
281
     1
  3
ACAD_XREC_ROUNDTRIP
360
46F
  0
DICTIONARY
  5
472
330
46
100
AcDbDictionary
280
     1
281
     1
  3
ACAD_XREC_ROUNDTRIP
360
473
  0
DICTIONARY
  5
478
330
6C
100
AcDbDictionary
280
     1
281
     1
  3
ACAD_XREC_ROUNDTRIP
360
479
  0
DICTIONARY
  5
474
330
6A
100
AcDbDictionary
280
     1
281
     1
  3
ACAD_ROUNDTRIP_2008_TABLESTYLE_CELLSTYLEMAP
360
476
  3
ACAD_XREC_ROUNDTRIP
360
475
  0
DICTIONARY
  5
446
330
2F
100
AcDbDictionary
280
     1
281
     1
  3
ACAD_XREC_ROUNDTRIP
360
447
  0
DICTIONARY
  5
44C
330
32
100
AcDbDictionary
280
     1
281
     1
  3
ACAD_XREC_ROUNDTRIP
360
44D
  0
DICTIONARY
  5
454
330
36
100
AcDbDictionary
280
     1
281
     1
  3
ACAD_XREC_ROUNDTRIP
360
455
  0
DICTIONARY
  5
45C
330
3A
100
AcDbDictionary
280
     1
281
     1
  3
ACAD_XREC_ROUNDTRIP
360
45D
  0
DICTIONARY
  5
450
330
34
100
AcDbDictionary
280
     1
281
     1
  3
ACAD_XREC_ROUNDTRIP
360
451
  0
DICTIONARY
  5
452
330
35
100
AcDbDictionary
280
     1
281
     1
  3
ACAD_XREC_ROUNDTRIP
360
453
  0
DICTIONARY
  5
462
330
3D
100
AcDbDictionary
280
     1
281
     1
  3
ACAD_XREC_ROUNDTRIP
360
463
  0
DICTIONARY
  5
45A
330
39
100
AcDbDictionary
280
     1
281
     1
  3
ACAD_XREC_ROUNDTRIP
360
45B
  0
DICTIONARY
  5
43E
330
2B
100
AcDbDictionary
280
     1
281
     1
  3
ACAD_XREC_ROUNDTRIP
360
43F
  0
DICTIONARY
  5
440
330
2C
100
AcDbDictionary
280
     1
281
     1
  3
ACAD_XREC_ROUNDTRIP
360
441
  0
DICTIONARY
  5
442
330
2D
100
AcDbDictionary
280
     1
281
     1
  3
ACAD_XREC_ROUNDTRIP
360
443
  0
DICTIONARY
  5
444
330
2E
100
AcDbDictionary
280
     1
281
     1
  3
ACAD_XREC_ROUNDTRIP
360
445
  0
DICTIONARY
  5
44A
330
31
100
AcDbDictionary
280
     1
281
     1
  3
ACAD_XREC_ROUNDTRIP
360
44B
  0
DICTIONARY
  5
45E
330
3B
100
AcDbDictionary
280
     1
281
     1
  3
ACAD_XREC_ROUNDTRIP
360
45F
  0
DICTIONARY
  5
458
330
38
100
AcDbDictionary
280
     1
281
     1
  3
ACAD_XREC_ROUNDTRIP
360
459
  0
DICTIONARY
  5
460
330
3C
100
AcDbDictionary
280
     1
281
     1
  3
ACAD_XREC_ROUNDTRIP
360
461
  0
DICTIONARY
  5
44E
330
33
100
AcDbDictionary
280
     1
281
     1
  3
ACAD_XREC_ROUNDTRIP
360
44F
  0
DICTIONARY
  5
46C
330
42
100
AcDbDictionary
280
     1
281
     1
  3
ACAD_XREC_ROUNDTRIP
360
46D
  0
DICTIONARY
  5
46A
330
41
100
AcDbDictionary
280
     1
281
     1
  3
ACAD_XREC_ROUNDTRIP
360
46B
  0
DICTIONARY
  5
464
330
3E
100
AcDbDictionary
280
     1
281
     1
  3
ACAD_XREC_ROUNDTRIP
360
465
  0
DICTIONARY
  5
466
330
3F
100
AcDbDictionary
280
     1
281
     1
  3
ACAD_XREC_ROUNDTRIP
360
467
  0
DICTIONARY
  5
456
330
37
100
AcDbDictionary
280
     1
281
     1
  3
ACAD_XREC_ROUNDTRIP
360
457
  0
DICTIONARY
  5
448
330
30
100
AcDbDictionary
280
     1
281
     1
  3
ACAD_XREC_ROUNDTRIP
360
449
  0
DICTIONARY
  5
468
330
40
100
AcDbDictionary
280
     1
281
     1
  3
ACAD_XREC_ROUNDTRIP
360
469
  0
XRECORD
  5
471
102
{ACAD_REACTORS
330
470
102
}
330
470
100
AcDbXrecord
280
     1
102
MATERIAL
148
0.0
149
0.0
149
0.0
 93
        0
 94
      127
282
     0
 72
     1
 77
     1
171
     1
175
     1
179
     1
273
     0
  0
XRECORD
  5
46F
102
{ACAD_REACTORS
330
46E
102
}
330
46E
100
AcDbXrecord
280
     1
102
MATERIAL
148
0.0
149
0.0
149
0.0
 93
        0
 94
      127
282
     0
 72
     1
 77
     1
171
     1
175
     1
179
     1
273
     0
  0
XRECORD
  5
473
102
{ACAD_REACTORS
330
472
102
}
330
472
100
AcDbXrecord
280
     1
102
MATERIAL
148
0.0
149
0.0
149
0.0
 93
        0
 94
      127
282
     0
 72
     1
 77
     1
171
     1
175
     1
179
     1
273
     0
  0
XRECORD
  5
479
102
{ACAD_REACTORS
330
478
102
}
330
478
100
AcDbXrecord
280
     1
102
ACAD_ROUNDTRIP_2010_MLEADER_STYLE
  0
CELLSTYLEMAP
  5
476
102
{ACAD_REACTORS
330
474
102
}
330
474
100
AcDbCellStyleMap
 90
        3
300
CELLSTYLE
  1
TABLEFORMAT_BEGIN
 90
        5
170
     1
 91
        0
 92
    32768
 62
   257
 93
        1
300
CONTENTFORMAT
  1
CONTENTFORMAT_BEGIN
 90
        0
 91
        0
 92
        4
 93
        0
300

 40
0.0
140
1.0
 94
        5
 62
     0
340
11
144
6.0
309
CONTENTFORMAT_END
171
     1
301
MARGIN
  1
CELLMARGIN_BEGIN
 40
1.5
 40
1.5
 40
1.5
 40
1.5
 40
1.5
 40
1.5
309
CELLMARGIN_END
 94
        6
 95
        1
302
GRIDFORMAT
  1
GRIDFORMAT_BEGIN
 90
        0
 91
        1
 62
     0
 92
       -2
340
14
 93
        0
 40
0.045
309
GRIDFORMAT_END
 95
        2
302
GRIDFORMAT
  1
GRIDFORMAT_BEGIN
 90
        0
 91
        1
 62
     0
 92
       -2
340
14
 93
        0
 40
0.045
309
GRIDFORMAT_END
 95
        4
302
GRIDFORMAT
  1
GRIDFORMAT_BEGIN
 90
        0
 91
        1
 62
     0
 92
       -2
340
14
 93
        0
 40
0.045
309
GRIDFORMAT_END
 95
        8
302
GRIDFORMAT
  1
GRIDFORMAT_BEGIN
 90
        0
 91
        1
 62
     0
 92
       -2
340
14
 93
        0
 40
0.045
309
GRIDFORMAT_END
 95
       16
302
GRIDFORMAT
  1
GRIDFORMAT_BEGIN
 90
        0
 91
        1
 62
     0
 92
       -2
340
14
 93
        0
 40
0.045
309
GRIDFORMAT_END
 95
       32
302
GRIDFORMAT
  1
GRIDFORMAT_BEGIN
 90
        0
 91
        1
 62
     0
 92
       -2
340
14
 93
        0
 40
0.045
309
GRIDFORMAT_END
309
TABLEFORMAT_END
  1
CELLSTYLE_BEGIN
 90
        1
 91
        1
300
_TITLE
309
CELLSTYLE_END
300
CELLSTYLE
  1
TABLEFORMAT_BEGIN
 90
        5
170
     1
 91
        0
 92
        0
 62
   257
 93
        1
300
CONTENTFORMAT
  1
CONTENTFORMAT_BEGIN
 90
        0
 91
        0
 92
        4
 93
        0
300

 40
0.0
140
1.0
 94
        5
 62
     0
340
11
144
4.5
309
CONTENTFORMAT_END
171
     1
301
MARGIN
  1
CELLMARGIN_BEGIN
 40
1.5
 40
1.5
 40
1.5
 40
1.5
 40
1.5
 40
1.5
309
CELLMARGIN_END
 94
        6
 95
        1
302
GRIDFORMAT
  1
GRIDFORMAT_BEGIN
 90
        0
 91
        1
 62
     0
 92
       -2
340
14
 93
        0
 40
0.045
309
GRIDFORMAT_END
 95
        2
302
GRIDFORMAT
  1
GRIDFORMAT_BEGIN
 90
        0
 91
        1
 62
     0
 92
       -2
340
14
 93
        0
 40
0.045
309
GRIDFORMAT_END
 95
        4
302
GRIDFORMAT
  1
GRIDFORMAT_BEGIN
 90
        0
 91
        1
 62
     0
 92
       -2
340
14
 93
        0
 40
0.045
309
GRIDFORMAT_END
 95
        8
302
GRIDFORMAT
  1
GRIDFORMAT_BEGIN
 90
        0
 91
        1
 62
     0
 92
       -2
340
14
 93
        0
 40
0.045
309
GRIDFORMAT_END
 95
       16
302
GRIDFORMAT
  1
GRIDFORMAT_BEGIN
 90
        0
 91
        1
 62
     0
 92
       -2
340
14
 93
        0
 40
0.045
309
GRIDFORMAT_END
 95
       32
302
GRIDFORMAT
  1
GRIDFORMAT_BEGIN
 90
        0
 91
        1
 62
     0
 92
       -2
340
14
 93
        0
 40
0.045
309
GRIDFORMAT_END
309
TABLEFORMAT_END
  1
CELLSTYLE_BEGIN
 90
        2
 91
        1
300
_HEADER
309
CELLSTYLE_END
300
CELLSTYLE
  1
TABLEFORMAT_BEGIN
 90
        5
170
     1
 91
        0
 92
        0
 62
   257
 93
        1
300
CONTENTFORMAT
  1
CONTENTFORMAT_BEGIN
 90
        0
 91
        0
 92
        4
 93
        0
300

 40
0.0
140
1.0
 94
        2
 62
     0
340
11
144
4.5
309
CONTENTFORMAT_END
171
     1
301
MARGIN
  1
CELLMARGIN_BEGIN
 40
1.5
 40
1.5
 40
1.5
 40
1.5
 40
1.5
 40
1.5
309
CELLMARGIN_END
 94
        6
 95
        1
302
GRIDFORMAT
  1
GRIDFORMAT_BEGIN
 90
        0
 91
        1
 62
     0
 92
       -2
340
14
 93
        0
 40
0.045
309
GRIDFORMAT_END
 95
        2
302
GRIDFORMAT
  1
GRIDFORMAT_BEGIN
 90
        0
 91
        1
 62
     0
 92
       -2
340
14
 93
        0
 40
0.045
309
GRIDFORMAT_END
 95
        4
302
GRIDFORMAT
  1
GRIDFORMAT_BEGIN
 90
        0
 91
        1
 62
     0
 92
       -2
340
14
 93
        0
 40
0.045
309
GRIDFORMAT_END
 95
        8
302
GRIDFORMAT
  1
GRIDFORMAT_BEGIN
 90
        0
 91
        1
 62
     0
 92
       -2
340
14
 93
        0
 40
0.045
309
GRIDFORMAT_END
 95
       16
302
GRIDFORMAT
  1
GRIDFORMAT_BEGIN
 90
        0
 91
        1
 62
     0
 92
       -2
340
14
 93
        0
 40
0.045
309
GRIDFORMAT_END
 95
       32
302
GRIDFORMAT
  1
GRIDFORMAT_BEGIN
 90
        0
 91
        1
 62
     0
 92
       -2
340
14
 93
        0
 40
0.045
309
GRIDFORMAT_END
309
TABLEFORMAT_END
  1
CELLSTYLE_BEGIN
 90
        3
 91
        2
300
_DATA
309
CELLSTYLE_END
  0
XRECORD
  5
475
102
{ACAD_REACTORS
330
474
102
}
330
474
100
AcDbXrecord
280
     1
102
ACAD_ROUNDTRIP_PRE2007_TABLESTYLE
 90
        4
 91
        0
  1

 92
        4
 93
        0
  2

 94
        4
 95
        0
  3

  0
XRECORD
  5
447
102
{ACAD_REACTORS
330
446
102
}
330
446
100
AcDbXrecord
280
     1
102
RTVSPropertyOp0
 70
     1
102
RTVSPropertyOp1
 70
     1
102
RTVSPropertyOp2
 70
     1
102
RTVSPropertyOp3
 70
     1
102
RTVSPropertyOp4
 70
     1
102
RTVSPropertyOp5
 70
     1
102
RTVSPropertyOp6
 70
     1
102
RTVSPropertyOp7
 70
     1
102
RTVSPropertyOp8
 70
     1
102
RTVSPropertyOp9
 70
     1
102
RTVSPropertyOp10
 70
     1
102
RTVSPropertyOp11
 70
     1
102
RTVSPropertyOp12
 70
     1
102
RTVSPropertyOp13
 70
     1
102
RTVSPropertyOp14
 70
     1
102
RTVSPropertyOp15
 70
     1
102
RTVSPropertyOp16
 70
     1
102
RTVSPropertyOp17
 70
     1
102
RTVSPropertyOp18
 70
     1
102
RTVSPropertyOp19
 70
     1
102
RTVSPropertyOp20
 70
     1
102
RTVSPropertyOp21
 70
     1
102
RTVSPropertyOp22
 70
     1
102
RTVSPropertyOp23
 70
     1
102
RTVSPropertyOp24
 70
     1
102
RTVSPropertyOp25
 70
     1
102
RTVSPropertyOp26
 70
     1
102
RTVSPropertyOp27
 70
     1
102
RTVSPropertyOp28
 70
     1
102
RTVSPropertyOp29
 70
     1
102
RTVSPropertyOp30
 70
     1
102
RTVSPropertyOp31
 70
     1
102
RTVSPropertyOp32
 70
     1
102
RTVSPropertyOp33
 70
     1
102
RTVSPropertyOp34
 70
     1
102
RTVSPropertyOp35
 70
     1
102
RTVSPropertyOp36
 70
     1
102
RTVSPropertyOp37
 70
     1
102
RTVSPropertyOp38
 70
     1
102
RTVSPropertyOp39
 70
     1
102
RTVSPropertyOp40
 70
     1
102
RTVSPropertyOp41
 70
     1
102
RTVSPropertyOp42
 70
     1
102
RTVSPropertyOp43
 70
     1
102
RTVSPropertyOp44
 70
     1
102
RTVSPropertyOp45
 70
     1
102
RTVSPropertyOp46
 70
     1
102
RTVSPropertyOp47
 70
     1
102
RTVSPropertyOp48
 70
     1
102
RTVSPropertyOp49
 70
     1
102
RTVSPropertyOp50
 70
     1
102
RTVSPropertyOp51
 70
     0
102
RTVSPropertyOp52
 70
     0
102
RTVSPropertyOp53
 70
     1
102
RTVSPropertyOp54
 70
     1
102
RTVSPropertyOp55
 70
     1
102
RTVSPropertyOp56
 70
     1
102
RTVSPropertyOp57
 70
     1
102
RTVSPost2010Prop28
280
     1
102
RTVSPost2010PropOp28
 70
     1
102
RTVSPost2010Prop29
280
     1
102
RTVSPost2010PropOp29
 70
     1
102
RTVSPost2010Prop30
280
     0
102
RTVSPost2010PropOp30
 70
     1
102
RTVSPost2010Prop31
280
     0
102
RTVSPost2010PropOp31
 70
     1
102
RTVSPost2010Prop32
280
     0
102
RTVSPost2010PropOp32
 70
     1
102
RTVSPost2010Prop33
280
     0
102
RTVSPost2010PropOp33
 70
     1
102
RTVSPost2010Prop34
280
     0
102
RTVSPost2010PropOp34
 70
     1
102
RTVSPost2010Prop35
280
     0
102
RTVSPost2010PropOp35
 70
     1
102
RTVSPost2010Prop36
280
     0
102
RTVSPost2010PropOp36
 70
     1
102
RTVSPost2010Prop37
 90
       50
102
RTVSPost2010PropOp37
 70
     1
102
RTVSPost2010Prop38
140
0.0
102
RTVSPost2010PropOp38
 70
     1
102
RTVSPost2010Prop39
140
1.0
102
RTVSPost2010PropOp39
 70
     1
102
RTVSPost2010Prop40
 90
        0
102
RTVSPost2010PropOp40
 70
     1
102
RTVSPost2010Prop41ColorIndex
 90
       18
102
RTVSPost2010Prop41ColorRGB
 90
        0
102
RTVSPost2010PropOp41
 70
     1
102
RTVSPost2010Prop42
 90
       50
102
RTVSPost2010PropOp42
 70
     1
102
RTVSPost2010Prop43
 90
        3
102
RTVSPost2010PropOp43
 70
     1
102
RTVSPost2010Prop44ColorIndex
 90
        5
102
RTVSPost2010Prop44ColorRGB
 90
      255
102
RTVSPost2010PropOp44
 70
     1
102
RTVSPost2010Prop45
280
     0
102
RTVSPost2010PropOp45
 70
     1
102
RTVSPost2010Prop46
 90
       50
102
RTVSPost2010PropOp46
 70
     1
102
RTVSPost2010Prop47
 90
       50
102
RTVSPost2010PropOp47
 70
     1
102
RTVSPost2010Prop48
 90
       50
102
RTVSPost2010PropOp48
 70
     1
102
RTVSPost2010Prop49
280
     0
102
RTVSPost2010PropOp49
 70
     1
102
RTVSPost2010Prop50
 90
       50
102
RTVSPost2010PropOp50
 70
     1
102
RTVSPost2010Prop51ColorIndex
 90
      256
102
RTVSPost2010Prop51ColorRGB
 90
-16777216
102
RTVSPost2010PropOp51
 70
     0
102
RTVSPost2010Prop52
140
1.0
102
RTVSPost2010PropOp52
 70
     0
102
RTVSPost2010Prop53
 90
        2
102
RTVSPost2010PropOp53
 70
     1
102
RTVSPost2010Prop54
  1
strokes_ogs.tif
102
RTVSPost2010PropOp54
 70
     1
102
RTVSPost2010Prop55
280
     0
102
RTVSPost2010PropOp55
 70
     1
102
RTVSPost2010Prop56
140
1.0
102
RTVSPost2010PropOp56
 70
     1
102
RTVSPost2010Prop57
140
1.0
102
RTVSPost2010PropOp57
 70
     1
  0
XRECORD
  5
44D
102
{ACAD_REACTORS
330
44C
102
}
330
44C
100
AcDbXrecord
280
     1
102
RTVSPropertyOp0
 70
     1
102
RTVSPropertyOp1
 70
     1
102
RTVSPropertyOp2
 70
     1
102
RTVSPropertyOp3
 70
     1
102
RTVSPropertyOp4
 70
     1
102
RTVSPropertyOp5
 70
     1
102
RTVSPropertyOp6
 70
     1
102
RTVSPropertyOp7
 70
     1
102
RTVSPropertyOp8
 70
     1
102
RTVSPropertyOp9
 70
     1
102
RTVSPropertyOp10
 70
     1
102
RTVSPropertyOp11
 70
     1
102
RTVSPropertyOp12
 70
     1
102
RTVSPropertyOp13
 70
     1
102
RTVSPropertyOp14
 70
     1
102
RTVSPropertyOp15
 70
     1
102
RTVSPropertyOp16
 70
     1
102
RTVSPropertyOp17
 70
     1
102
RTVSPropertyOp18
 70
     1
102
RTVSPropertyOp19
 70
     1
102
RTVSPropertyOp20
 70
     1
102
RTVSPropertyOp21
 70
     1
102
RTVSPropertyOp22
 70
     1
102
RTVSPropertyOp23
 70
     1
102
RTVSPropertyOp24
 70
     1
102
RTVSPropertyOp25
 70
     1
102
RTVSPropertyOp26
 70
     1
102
RTVSPropertyOp27
 70
     1
102
RTVSPropertyOp28
 70
     1
102
RTVSPropertyOp29
 70
     1
102
RTVSPropertyOp30
 70
     1
102
RTVSPropertyOp31
 70
     1
102
RTVSPropertyOp32
 70
     1
102
RTVSPropertyOp33
 70
     1
102
RTVSPropertyOp34
 70
     1
102
RTVSPropertyOp35
 70
     1
102
RTVSPropertyOp36
 70
     1
102
RTVSPropertyOp37
 70
     1
102
RTVSPropertyOp38
 70
     1
102
RTVSPropertyOp39
 70
     1
102
RTVSPropertyOp40
 70
     1
102
RTVSPropertyOp41
 70
     1
102
RTVSPropertyOp42
 70
     1
102
RTVSPropertyOp43
 70
     1
102
RTVSPropertyOp44
 70
     1
102
RTVSPropertyOp45
 70
     1
102
RTVSPropertyOp46
 70
     1
102
RTVSPropertyOp47
 70
     1
102
RTVSPropertyOp48
 70
     1
102
RTVSPropertyOp49
 70
     1
102
RTVSPropertyOp50
 70
     1
102
RTVSPropertyOp51
 70
     0
102
RTVSPropertyOp52
 70
     0
102
RTVSPropertyOp53
 70
     1
102
RTVSPropertyOp54
 70
     1
102
RTVSPropertyOp55
 70
     1
102
RTVSPropertyOp56
 70
     1
102
RTVSPropertyOp57
 70
     1
102
RTVSPost2010Prop28
280
     0
102
RTVSPost2010PropOp28
 70
     1
102
RTVSPost2010Prop29
280
     1
102
RTVSPost2010PropOp29
 70
     1
102
RTVSPost2010Prop30
280
     1
102
RTVSPost2010PropOp30
 70
     1
102
RTVSPost2010Prop31
280
     0
102
RTVSPost2010PropOp31
 70
     1
102
RTVSPost2010Prop32
280
     0
102
RTVSPost2010PropOp32
 70
     1
102
RTVSPost2010Prop33
280
     0
102
RTVSPost2010PropOp33
 70
     1
102
RTVSPost2010Prop34
280
     0
102
RTVSPost2010PropOp34
 70
     1
102
RTVSPost2010Prop35
280
     0
102
RTVSPost2010PropOp35
 70
     1
102
RTVSPost2010Prop36
280
     0
102
RTVSPost2010PropOp36
 70
     1
102
RTVSPost2010Prop37
 90
       50
102
RTVSPost2010PropOp37
 70
     1
102
RTVSPost2010Prop38
140
0.0
102
RTVSPost2010PropOp38
 70
     1
102
RTVSPost2010Prop39
140
1.0
102
RTVSPost2010PropOp39
 70
     1
102
RTVSPost2010Prop40
 90
        0
102
RTVSPost2010PropOp40
 70
     1
102
RTVSPost2010Prop41ColorIndex
 90
       18
102
RTVSPost2010Prop41ColorRGB
 90
        0
102
RTVSPost2010PropOp41
 70
     1
102
RTVSPost2010Prop42
 90
       50
102
RTVSPost2010PropOp42
 70
     1
102
RTVSPost2010Prop43
 90
        3
102
RTVSPost2010PropOp43
 70
     1
102
RTVSPost2010Prop44ColorIndex
 90
        5
102
RTVSPost2010Prop44ColorRGB
 90
      255
102
RTVSPost2010PropOp44
 70
     1
102
RTVSPost2010Prop45
280
     0
102
RTVSPost2010PropOp45
 70
     1
102
RTVSPost2010Prop46
 90
       50
102
RTVSPost2010PropOp46
 70
     1
102
RTVSPost2010Prop47
 90
       50
102
RTVSPost2010PropOp47
 70
     1
102
RTVSPost2010Prop48
 90
       50
102
RTVSPost2010PropOp48
 70
     1
102
RTVSPost2010Prop49
280
     0
102
RTVSPost2010PropOp49
 70
     1
102
RTVSPost2010Prop50
 90
       50
102
RTVSPost2010PropOp50
 70
     1
102
RTVSPost2010Prop51ColorIndex
 90
      256
102
RTVSPost2010Prop51ColorRGB
 90
-16777216
102
RTVSPost2010PropOp51
 70
     0
102
RTVSPost2010Prop52
140
1.0
102
RTVSPost2010PropOp52
 70
     0
102
RTVSPost2010Prop53
 90
        2
102
RTVSPost2010PropOp53
 70
     1
102
RTVSPost2010Prop54
  1
strokes_ogs.tif
102
RTVSPost2010PropOp54
 70
     1
102
RTVSPost2010Prop55
280
     0
102
RTVSPost2010PropOp55
 70
     1
102
RTVSPost2010Prop56
140
1.0
102
RTVSPost2010PropOp56
 70
     1
102
RTVSPost2010Prop57
140
1.0
102
RTVSPost2010PropOp57
 70
     1
  0
XRECORD
  5
455
102
{ACAD_REACTORS
330
454
102
}
330
454
100
AcDbXrecord
280
     1
102
RTVSPropertyOp0
 70
     1
102
RTVSPropertyOp1
 70
     1
102
RTVSPropertyOp2
 70
     1
102
RTVSPropertyOp3
 70
     1
102
RTVSPropertyOp4
 70
     1
102
RTVSPropertyOp5
 70
     1
102
RTVSPropertyOp6
 70
     1
102
RTVSPropertyOp7
 70
     1
102
RTVSPropertyOp8
 70
     1
102
RTVSPropertyOp9
 70
     1
102
RTVSPropertyOp10
 70
     1
102
RTVSPropertyOp11
 70
     1
102
RTVSPropertyOp12
 70
     1
102
RTVSPropertyOp13
 70
     1
102
RTVSPropertyOp14
 70
     1
102
RTVSPropertyOp15
 70
     1
102
RTVSPropertyOp16
 70
     1
102
RTVSPropertyOp17
 70
     1
102
RTVSPropertyOp18
 70
     1
102
RTVSPropertyOp19
 70
     1
102
RTVSPropertyOp20
 70
     1
102
RTVSPropertyOp21
 70
     1
102
RTVSPropertyOp22
 70
     1
102
RTVSPropertyOp23
 70
     1
102
RTVSPropertyOp24
 70
     1
102
RTVSPropertyOp25
 70
     1
102
RTVSPropertyOp26
 70
     1
102
RTVSPropertyOp27
 70
     1
102
RTVSPropertyOp28
 70
     1
102
RTVSPropertyOp29
 70
     1
102
RTVSPropertyOp30
 70
     1
102
RTVSPropertyOp31
 70
     1
102
RTVSPropertyOp32
 70
     1
102
RTVSPropertyOp33
 70
     1
102
RTVSPropertyOp34
 70
     1
102
RTVSPropertyOp35
 70
     1
102
RTVSPropertyOp36
 70
     1
102
RTVSPropertyOp37
 70
     1
102
RTVSPropertyOp38
 70
     1
102
RTVSPropertyOp39
 70
     1
102
RTVSPropertyOp40
 70
     1
102
RTVSPropertyOp41
 70
     1
102
RTVSPropertyOp42
 70
     1
102
RTVSPropertyOp43
 70
     1
102
RTVSPropertyOp44
 70
     1
102
RTVSPropertyOp45
 70
     1
102
RTVSPropertyOp46
 70
     1
102
RTVSPropertyOp47
 70
     1
102
RTVSPropertyOp48
 70
     1
102
RTVSPropertyOp49
 70
     1
102
RTVSPropertyOp50
 70
     1
102
RTVSPropertyOp51
 70
     0
102
RTVSPropertyOp52
 70
     0
102
RTVSPropertyOp53
 70
     1
102
RTVSPropertyOp54
 70
     1
102
RTVSPropertyOp55
 70
     1
102
RTVSPropertyOp56
 70
     1
102
RTVSPropertyOp57
 70
     1
102
RTVSPost2010Prop28
280
     0
102
RTVSPost2010PropOp28
 70
     1
102
RTVSPost2010Prop29
280
     1
102
RTVSPost2010PropOp29
 70
     1
102
RTVSPost2010Prop30
280
     1
102
RTVSPost2010PropOp30
 70
     1
102
RTVSPost2010Prop31
280
     0
102
RTVSPost2010PropOp31
 70
     1
102
RTVSPost2010Prop32
280
     0
102
RTVSPost2010PropOp32
 70
     1
102
RTVSPost2010Prop33
280
     0
102
RTVSPost2010PropOp33
 70
     1
102
RTVSPost2010Prop34
280
     0
102
RTVSPost2010PropOp34
 70
     1
102
RTVSPost2010Prop35
280
     0
102
RTVSPost2010PropOp35
 70
     1
102
RTVSPost2010Prop36
280
     0
102
RTVSPost2010PropOp36
 70
     1
102
RTVSPost2010Prop37
 90
       50
102
RTVSPost2010PropOp37
 70
     1
102
RTVSPost2010Prop38
140
0.0
102
RTVSPost2010PropOp38
 70
     1
102
RTVSPost2010Prop39
140
1.0
102
RTVSPost2010PropOp39
 70
     1
102
RTVSPost2010Prop40
 90
        0
102
RTVSPost2010PropOp40
 70
     1
102
RTVSPost2010Prop41ColorIndex
 90
       18
102
RTVSPost2010Prop41ColorRGB
 90
        0
102
RTVSPost2010PropOp41
 70
     1
102
RTVSPost2010Prop42
 90
       50
102
RTVSPost2010PropOp42
 70
     1
102
RTVSPost2010Prop43
 90
        3
102
RTVSPost2010PropOp43
 70
     1
102
RTVSPost2010Prop44ColorIndex
 90
        5
102
RTVSPost2010Prop44ColorRGB
 90
      255
102
RTVSPost2010PropOp44
 70
     1
102
RTVSPost2010Prop45
280
     0
102
RTVSPost2010PropOp45
 70
     1
102
RTVSPost2010Prop46
 90
       50
102
RTVSPost2010PropOp46
 70
     1
102
RTVSPost2010Prop47
 90
       50
102
RTVSPost2010PropOp47
 70
     1
102
RTVSPost2010Prop48
 90
       50
102
RTVSPost2010PropOp48
 70
     1
102
RTVSPost2010Prop49
280
     0
102
RTVSPost2010PropOp49
 70
     1
102
RTVSPost2010Prop50
 90
       50
102
RTVSPost2010PropOp50
 70
     1
102
RTVSPost2010Prop51ColorIndex
 90
      256
102
RTVSPost2010Prop51ColorRGB
 90
-16777216
102
RTVSPost2010PropOp51
 70
     0
102
RTVSPost2010Prop52
140
1.0
102
RTVSPost2010PropOp52
 70
     0
102
RTVSPost2010Prop53
 90
        2
102
RTVSPost2010PropOp53
 70
     1
102
RTVSPost2010Prop54
  1
strokes_ogs.tif
102
RTVSPost2010PropOp54
 70
     1
102
RTVSPost2010Prop55
280
     0
102
RTVSPost2010PropOp55
 70
     1
102
RTVSPost2010Prop56
140
1.0
102
RTVSPost2010PropOp56
 70
     1
102
RTVSPost2010Prop57
140
1.0
102
RTVSPost2010PropOp57
 70
     1
  0
XRECORD
  5
45D
102
{ACAD_REACTORS
330
45C
102
}
330
45C
100
AcDbXrecord
280
     1
102
RTVSPropertyOp0
 70
     1
102
RTVSPropertyOp1
 70
     1
102
RTVSPropertyOp2
 70
     1
102
RTVSPropertyOp3
 70
     1
102
RTVSPropertyOp4
 70
     1
102
RTVSPropertyOp5
 70
     1
102
RTVSPropertyOp6
 70
     1
102
RTVSPropertyOp7
 70
     1
102
RTVSPropertyOp8
 70
     1
102
RTVSPropertyOp9
 70
     1
102
RTVSPropertyOp10
 70
     1
102
RTVSPropertyOp11
 70
     1
102
RTVSPropertyOp12
 70
     1
102
RTVSPropertyOp13
 70
     1
102
RTVSPropertyOp14
 70
     1
102
RTVSPropertyOp15
 70
     1
102
RTVSPropertyOp16
 70
     1
102
RTVSPropertyOp17
 70
     1
102
RTVSPropertyOp18
 70
     1
102
RTVSPropertyOp19
 70
     1
102
RTVSPropertyOp20
 70
     1
102
RTVSPropertyOp21
 70
     1
102
RTVSPropertyOp22
 70
     1
102
RTVSPropertyOp23
 70
     1
102
RTVSPropertyOp24
 70
     1
102
RTVSPropertyOp25
 70
     1
102
RTVSPropertyOp26
 70
     1
102
RTVSPropertyOp27
 70
     1
102
RTVSPropertyOp28
 70
     1
102
RTVSPropertyOp29
 70
     1
102
RTVSPropertyOp30
 70
     1
102
RTVSPropertyOp31
 70
     1
102
RTVSPropertyOp32
 70
     1
102
RTVSPropertyOp33
 70
     1
102
RTVSPropertyOp34
 70
     1
102
RTVSPropertyOp35
 70
     1
102
RTVSPropertyOp36
 70
     1
102
RTVSPropertyOp37
 70
     1
102
RTVSPropertyOp38
 70
     1
102
RTVSPropertyOp39
 70
     1
102
RTVSPropertyOp40
 70
     1
102
RTVSPropertyOp41
 70
     1
102
RTVSPropertyOp42
 70
     1
102
RTVSPropertyOp43
 70
     1
102
RTVSPropertyOp44
 70
     1
102
RTVSPropertyOp45
 70
     1
102
RTVSPropertyOp46
 70
     1
102
RTVSPropertyOp47
 70
     1
102
RTVSPropertyOp48
 70
     1
102
RTVSPropertyOp49
 70
     1
102
RTVSPropertyOp50
 70
     1
102
RTVSPropertyOp51
 70
     0
102
RTVSPropertyOp52
 70
     0
102
RTVSPropertyOp53
 70
     1
102
RTVSPropertyOp54
 70
     1
102
RTVSPropertyOp55
 70
     1
102
RTVSPropertyOp56
 70
     1
102
RTVSPropertyOp57
 70
     1
102
RTVSPost2010Prop28
280
     0
102
RTVSPost2010PropOp28
 70
     1
102
RTVSPost2010Prop29
280
     1
102
RTVSPost2010PropOp29
 70
     1
102
RTVSPost2010Prop30
280
     1
102
RTVSPost2010PropOp30
 70
     1
102
RTVSPost2010Prop31
280
     0
102
RTVSPost2010PropOp31
 70
     1
102
RTVSPost2010Prop32
280
     0
102
RTVSPost2010PropOp32
 70
     1
102
RTVSPost2010Prop33
280
     0
102
RTVSPost2010PropOp33
 70
     1
102
RTVSPost2010Prop34
280
     0
102
RTVSPost2010PropOp34
 70
     1
102
RTVSPost2010Prop35
280
     0
102
RTVSPost2010PropOp35
 70
     1
102
RTVSPost2010Prop36
280
     0
102
RTVSPost2010PropOp36
 70
     1
102
RTVSPost2010Prop37
 90
       50
102
RTVSPost2010PropOp37
 70
     1
102
RTVSPost2010Prop38
140
0.0
102
RTVSPost2010PropOp38
 70
     1
102
RTVSPost2010Prop39
140
1.0
102
RTVSPost2010PropOp39
 70
     1
102
RTVSPost2010Prop40
 90
        0
102
RTVSPost2010PropOp40
 70
     1
102
RTVSPost2010Prop41ColorIndex
 90
       18
102
RTVSPost2010Prop41ColorRGB
 90
        0
102
RTVSPost2010PropOp41
 70
     1
102
RTVSPost2010Prop42
 90
       50
102
RTVSPost2010PropOp42
 70
     1
102
RTVSPost2010Prop43
 90
        3
102
RTVSPost2010PropOp43
 70
     1
102
RTVSPost2010Prop44ColorIndex
 90
        5
102
RTVSPost2010Prop44ColorRGB
 90
      255
102
RTVSPost2010PropOp44
 70
     1
102
RTVSPost2010Prop45
280
     0
102
RTVSPost2010PropOp45
 70
     1
102
RTVSPost2010Prop46
 90
       50
102
RTVSPost2010PropOp46
 70
     1
102
RTVSPost2010Prop47
 90
       50
102
RTVSPost2010PropOp47
 70
     1
102
RTVSPost2010Prop48
 90
       50
102
RTVSPost2010PropOp48
 70
     1
102
RTVSPost2010Prop49
280
     0
102
RTVSPost2010PropOp49
 70
     1
102
RTVSPost2010Prop50
 90
       50
102
RTVSPost2010PropOp50
 70
     1
102
RTVSPost2010Prop51ColorIndex
 90
      256
102
RTVSPost2010Prop51ColorRGB
 90
-16777216
102
RTVSPost2010PropOp51
 70
     0
102
RTVSPost2010Prop52
140
1.0
102
RTVSPost2010PropOp52
 70
     0
102
RTVSPost2010Prop53
 90
        2
102
RTVSPost2010PropOp53
 70
     1
102
RTVSPost2010Prop54
  1
strokes_ogs.tif
102
RTVSPost2010PropOp54
 70
     1
102
RTVSPost2010Prop55
280
     0
102
RTVSPost2010PropOp55
 70
     1
102
RTVSPost2010Prop56
140
1.0
102
RTVSPost2010PropOp56
 70
     1
102
RTVSPost2010Prop57
140
1.0
102
RTVSPost2010PropOp57
 70
     1
  0
XRECORD
  5
451
102
{ACAD_REACTORS
330
450
102
}
330
450
100
AcDbXrecord
280
     1
102
RTVSPropertyOp0
 70
     1
102
RTVSPropertyOp1
 70
     1
102
RTVSPropertyOp2
 70
     1
102
RTVSPropertyOp3
 70
     1
102
RTVSPropertyOp4
 70
     1
102
RTVSPropertyOp5
 70
     1
102
RTVSPropertyOp6
 70
     1
102
RTVSPropertyOp7
 70
     1
102
RTVSPropertyOp8
 70
     1
102
RTVSPropertyOp9
 70
     1
102
RTVSPropertyOp10
 70
     1
102
RTVSPropertyOp11
 70
     1
102
RTVSPropertyOp12
 70
     1
102
RTVSPropertyOp13
 70
     1
102
RTVSPropertyOp14
 70
     1
102
RTVSPropertyOp15
 70
     1
102
RTVSPropertyOp16
 70
     1
102
RTVSPropertyOp17
 70
     1
102
RTVSPropertyOp18
 70
     1
102
RTVSPropertyOp19
 70
     1
102
RTVSPropertyOp20
 70
     1
102
RTVSPropertyOp21
 70
     1
102
RTVSPropertyOp22
 70
     1
102
RTVSPropertyOp23
 70
     1
102
RTVSPropertyOp24
 70
     1
102
RTVSPropertyOp25
 70
     1
102
RTVSPropertyOp26
 70
     1
102
RTVSPropertyOp27
 70
     1
102
RTVSPropertyOp28
 70
     1
102
RTVSPropertyOp29
 70
     1
102
RTVSPropertyOp30
 70
     1
102
RTVSPropertyOp31
 70
     1
102
RTVSPropertyOp32
 70
     1
102
RTVSPropertyOp33
 70
     1
102
RTVSPropertyOp34
 70
     1
102
RTVSPropertyOp35
 70
     1
102
RTVSPropertyOp36
 70
     1
102
RTVSPropertyOp37
 70
     1
102
RTVSPropertyOp38
 70
     1
102
RTVSPropertyOp39
 70
     1
102
RTVSPropertyOp40
 70
     1
102
RTVSPropertyOp41
 70
     1
102
RTVSPropertyOp42
 70
     1
102
RTVSPropertyOp43
 70
     1
102
RTVSPropertyOp44
 70
     1
102
RTVSPropertyOp45
 70
     1
102
RTVSPropertyOp46
 70
     1
102
RTVSPropertyOp47
 70
     1
102
RTVSPropertyOp48
 70
     1
102
RTVSPropertyOp49
 70
     1
102
RTVSPropertyOp50
 70
     1
102
RTVSPropertyOp51
 70
     0
102
RTVSPropertyOp52
 70
     0
102
RTVSPropertyOp53
 70
     1
102
RTVSPropertyOp54
 70
     1
102
RTVSPropertyOp55
 70
     1
102
RTVSPropertyOp56
 70
     1
102
RTVSPropertyOp57
 70
     1
102
RTVSPost2010Prop28
280
     0
102
RTVSPost2010PropOp28
 70
     1
102
RTVSPost2010Prop29
280
     1
102
RTVSPost2010PropOp29
 70
     1
102
RTVSPost2010Prop30
280
     1
102
RTVSPost2010PropOp30
 70
     1
102
RTVSPost2010Prop31
280
     0
102
RTVSPost2010PropOp31
 70
     1
102
RTVSPost2010Prop32
280
     0
102
RTVSPost2010PropOp32
 70
     1
102
RTVSPost2010Prop33
280
     0
102
RTVSPost2010PropOp33
 70
     1
102
RTVSPost2010Prop34
280
     0
102
RTVSPost2010PropOp34
 70
     1
102
RTVSPost2010Prop35
280
     0
102
RTVSPost2010PropOp35
 70
     1
102
RTVSPost2010Prop36
280
     0
102
RTVSPost2010PropOp36
 70
     1
102
RTVSPost2010Prop37
 90
       50
102
RTVSPost2010PropOp37
 70
     1
102
RTVSPost2010Prop38
140
0.0
102
RTVSPost2010PropOp38
 70
     1
102
RTVSPost2010Prop39
140
1.0
102
RTVSPost2010PropOp39
 70
     1
102
RTVSPost2010Prop40
 90
        0
102
RTVSPost2010PropOp40
 70
     1
102
RTVSPost2010Prop41ColorIndex
 90
       18
102
RTVSPost2010Prop41ColorRGB
 90
        0
102
RTVSPost2010PropOp41
 70
     1
102
RTVSPost2010Prop42
 90
       50
102
RTVSPost2010PropOp42
 70
     1
102
RTVSPost2010Prop43
 90
        3
102
RTVSPost2010PropOp43
 70
     1
102
RTVSPost2010Prop44ColorIndex
 90
        5
102
RTVSPost2010Prop44ColorRGB
 90
      255
102
RTVSPost2010PropOp44
 70
     1
102
RTVSPost2010Prop45
280
     0
102
RTVSPost2010PropOp45
 70
     1
102
RTVSPost2010Prop46
 90
       50
102
RTVSPost2010PropOp46
 70
     1
102
RTVSPost2010Prop47
 90
       50
102
RTVSPost2010PropOp47
 70
     1
102
RTVSPost2010Prop48
 90
       50
102
RTVSPost2010PropOp48
 70
     1
102
RTVSPost2010Prop49
280
     0
102
RTVSPost2010PropOp49
 70
     1
102
RTVSPost2010Prop50
 90
       50
102
RTVSPost2010PropOp50
 70
     1
102
RTVSPost2010Prop51ColorIndex
 90
      256
102
RTVSPost2010Prop51ColorRGB
 90
-16777216
102
RTVSPost2010PropOp51
 70
     0
102
RTVSPost2010Prop52
140
1.0
102
RTVSPost2010PropOp52
 70
     0
102
RTVSPost2010Prop53
 90
        2
102
RTVSPost2010PropOp53
 70
     1
102
RTVSPost2010Prop54
  1
strokes_ogs.tif
102
RTVSPost2010PropOp54
 70
     1
102
RTVSPost2010Prop55
280
     0
102
RTVSPost2010PropOp55
 70
     1
102
RTVSPost2010Prop56
140
1.0
102
RTVSPost2010PropOp56
 70
     1
102
RTVSPost2010Prop57
140
1.0
102
RTVSPost2010PropOp57
 70
     1
  0
XRECORD
  5
453
102
{ACAD_REACTORS
330
452
102
}
330
452
100
AcDbXrecord
280
     1
102
RTVSPropertyOp0
 70
     1
102
RTVSPropertyOp1
 70
     1
102
RTVSPropertyOp2
 70
     1
102
RTVSPropertyOp3
 70
     1
102
RTVSPropertyOp4
 70
     1
102
RTVSPropertyOp5
 70
     1
102
RTVSPropertyOp6
 70
     1
102
RTVSPropertyOp7
 70
     1
102
RTVSPropertyOp8
 70
     1
102
RTVSPropertyOp9
 70
     1
102
RTVSPropertyOp10
 70
     1
102
RTVSPropertyOp11
 70
     1
102
RTVSPropertyOp12
 70
     1
102
RTVSPropertyOp13
 70
     1
102
RTVSPropertyOp14
 70
     1
102
RTVSPropertyOp15
 70
     1
102
RTVSPropertyOp16
 70
     1
102
RTVSPropertyOp17
 70
     1
102
RTVSPropertyOp18
 70
     1
102
RTVSPropertyOp19
 70
     1
102
RTVSPropertyOp20
 70
     1
102
RTVSPropertyOp21
 70
     1
102
RTVSPropertyOp22
 70
     1
102
RTVSPropertyOp23
 70
     1
102
RTVSPropertyOp24
 70
     1
102
RTVSPropertyOp25
 70
     1
102
RTVSPropertyOp26
 70
     1
102
RTVSPropertyOp27
 70
     1
102
RTVSPropertyOp28
 70
     1
102
RTVSPropertyOp29
 70
     1
102
RTVSPropertyOp30
 70
     1
102
RTVSPropertyOp31
 70
     1
102
RTVSPropertyOp32
 70
     1
102
RTVSPropertyOp33
 70
     1
102
RTVSPropertyOp34
 70
     1
102
RTVSPropertyOp35
 70
     1
102
RTVSPropertyOp36
 70
     1
102
RTVSPropertyOp37
 70
     1
102
RTVSPropertyOp38
 70
     1
102
RTVSPropertyOp39
 70
     1
102
RTVSPropertyOp40
 70
     1
102
RTVSPropertyOp41
 70
     1
102
RTVSPropertyOp42
 70
     1
102
RTVSPropertyOp43
 70
     1
102
RTVSPropertyOp44
 70
     1
102
RTVSPropertyOp45
 70
     1
102
RTVSPropertyOp46
 70
     1
102
RTVSPropertyOp47
 70
     1
102
RTVSPropertyOp48
 70
     1
102
RTVSPropertyOp49
 70
     1
102
RTVSPropertyOp50
 70
     1
102
RTVSPropertyOp51
 70
     0
102
RTVSPropertyOp52
 70
     0
102
RTVSPropertyOp53
 70
     1
102
RTVSPropertyOp54
 70
     1
102
RTVSPropertyOp55
 70
     1
102
RTVSPropertyOp56
 70
     1
102
RTVSPropertyOp57
 70
     1
102
RTVSPost2010Prop28
280
     0
102
RTVSPost2010PropOp28
 70
     1
102
RTVSPost2010Prop29
280
     1
102
RTVSPost2010PropOp29
 70
     1
102
RTVSPost2010Prop30
280
     1
102
RTVSPost2010PropOp30
 70
     1
102
RTVSPost2010Prop31
280
     0
102
RTVSPost2010PropOp31
 70
     1
102
RTVSPost2010Prop32
280
     0
102
RTVSPost2010PropOp32
 70
     1
102
RTVSPost2010Prop33
280
     0
102
RTVSPost2010PropOp33
 70
     1
102
RTVSPost2010Prop34
280
     0
102
RTVSPost2010PropOp34
 70
     1
102
RTVSPost2010Prop35
280
     0
102
RTVSPost2010PropOp35
 70
     1
102
RTVSPost2010Prop36
280
     0
102
RTVSPost2010PropOp36
 70
     1
102
RTVSPost2010Prop37
 90
       50
102
RTVSPost2010PropOp37
 70
     1
102
RTVSPost2010Prop38
140
0.0
102
RTVSPost2010PropOp38
 70
     1
102
RTVSPost2010Prop39
140
1.0
102
RTVSPost2010PropOp39
 70
     1
102
RTVSPost2010Prop40
 90
        0
102
RTVSPost2010PropOp40
 70
     1
102
RTVSPost2010Prop41ColorIndex
 90
       18
102
RTVSPost2010Prop41ColorRGB
 90
        0
102
RTVSPost2010PropOp41
 70
     1
102
RTVSPost2010Prop42
 90
       50
102
RTVSPost2010PropOp42
 70
     1
102
RTVSPost2010Prop43
 90
        3
102
RTVSPost2010PropOp43
 70
     1
102
RTVSPost2010Prop44ColorIndex
 90
        5
102
RTVSPost2010Prop44ColorRGB
 90
      255
102
RTVSPost2010PropOp44
 70
     1
102
RTVSPost2010Prop45
280
     0
102
RTVSPost2010PropOp45
 70
     1
102
RTVSPost2010Prop46
 90
       50
102
RTVSPost2010PropOp46
 70
     1
102
RTVSPost2010Prop47
 90
       50
102
RTVSPost2010PropOp47
 70
     1
102
RTVSPost2010Prop48
 90
       50
102
RTVSPost2010PropOp48
 70
     1
102
RTVSPost2010Prop49
280
     0
102
RTVSPost2010PropOp49
 70
     1
102
RTVSPost2010Prop50
 90
       50
102
RTVSPost2010PropOp50
 70
     1
102
RTVSPost2010Prop51ColorIndex
 90
      256
102
RTVSPost2010Prop51ColorRGB
 90
-16777216
102
RTVSPost2010PropOp51
 70
     0
102
RTVSPost2010Prop52
140
1.0
102
RTVSPost2010PropOp52
 70
     0
102
RTVSPost2010Prop53
 90
        2
102
RTVSPost2010PropOp53
 70
     1
102
RTVSPost2010Prop54
  1
strokes_ogs.tif
102
RTVSPost2010PropOp54
 70
     1
102
RTVSPost2010Prop55
280
     0
102
RTVSPost2010PropOp55
 70
     1
102
RTVSPost2010Prop56
140
1.0
102
RTVSPost2010PropOp56
 70
     1
102
RTVSPost2010Prop57
140
1.0
102
RTVSPost2010PropOp57
 70
     1
  0
XRECORD
  5
463
102
{ACAD_REACTORS
330
462
102
}
330
462
100
AcDbXrecord
280
     1
102
RTVSPropertyOp0
 70
     0
102
RTVSPropertyOp1
 70
     0
102
RTVSPropertyOp2
 70
     0
102
RTVSPropertyOp3
 70
     0
102
RTVSPropertyOp4
 70
     0
102
RTVSPropertyOp5
 70
     0
102
RTVSPropertyOp6
 70
     0
102
RTVSPropertyOp7
 70
     0
102
RTVSPropertyOp8
 70
     0
102
RTVSPropertyOp9
 70
     0
102
RTVSPropertyOp10
 70
     0
102
RTVSPropertyOp11
 70
     0
102
RTVSPropertyOp12
 70
     0
102
RTVSPropertyOp13
 70
     0
102
RTVSPropertyOp14
 70
     2
102
RTVSPropertyOp15
 70
     0
102
RTVSPropertyOp16
 70
     0
102
RTVSPropertyOp17
 70
     0
102
RTVSPropertyOp18
 70
     0
102
RTVSPropertyOp19
 70
     0
102
RTVSPropertyOp20
 70
     0
102
RTVSPropertyOp21
 70
     0
102
RTVSPropertyOp22
 70
     0
102
RTVSPropertyOp23
 70
     0
102
RTVSPropertyOp24
 70
     0
102
RTVSPropertyOp25
 70
     0
102
RTVSPropertyOp26
 70
     0
102
RTVSPropertyOp27
 70
     0
102
RTVSPropertyOp28
 70
     0
102
RTVSPropertyOp29
 70
     0
102
RTVSPropertyOp30
 70
     0
102
RTVSPropertyOp31
 70
     0
102
RTVSPropertyOp32
 70
     0
102
RTVSPropertyOp33
 70
     0
102
RTVSPropertyOp34
 70
     0
102
RTVSPropertyOp35
 70
     0
102
RTVSPropertyOp36
 70
     0
102
RTVSPropertyOp37
 70
     0
102
RTVSPropertyOp38
 70
     0
102
RTVSPropertyOp39
 70
     0
102
RTVSPropertyOp40
 70
     0
102
RTVSPropertyOp41
 70
     0
102
RTVSPropertyOp42
 70
     0
102
RTVSPropertyOp43
 70
     0
102
RTVSPropertyOp44
 70
     0
102
RTVSPropertyOp45
 70
     0
102
RTVSPropertyOp46
 70
     0
102
RTVSPropertyOp47
 70
     0
102
RTVSPropertyOp48
 70
     0
102
RTVSPropertyOp49
 70
     0
102
RTVSPropertyOp50
 70
     0
102
RTVSPropertyOp51
 70
     0
102
RTVSPropertyOp52
 70
     0
102
RTVSPropertyOp53
 70
     0
102
RTVSPropertyOp54
 70
     0
102
RTVSPropertyOp55
 70
     0
102
RTVSPropertyOp56
 70
     0
102
RTVSPropertyOp57
 70
     0
102
RTVSPost2010Prop28
280
     0
102
RTVSPost2010PropOp28
 70
     0
102
RTVSPost2010Prop29
280
     1
102
RTVSPost2010PropOp29
 70
     0
102
RTVSPost2010Prop30
280
     1
102
RTVSPost2010PropOp30
 70
     0
102
RTVSPost2010Prop31
280
     0
102
RTVSPost2010PropOp31
 70
     0
102
RTVSPost2010Prop32
280
     0
102
RTVSPost2010PropOp32
 70
     0
102
RTVSPost2010Prop33
280
     0
102
RTVSPost2010PropOp33
 70
     0
102
RTVSPost2010Prop34
280
     0
102
RTVSPost2010PropOp34
 70
     0
102
RTVSPost2010Prop35
280
     0
102
RTVSPost2010PropOp35
 70
     0
102
RTVSPost2010Prop36
280
     0
102
RTVSPost2010PropOp36
 70
     0
102
RTVSPost2010Prop37
 90
       50
102
RTVSPost2010PropOp37
 70
     0
102
RTVSPost2010Prop38
140
0.0
102
RTVSPost2010PropOp38
 70
     0
102
RTVSPost2010Prop39
140
1.0
102
RTVSPost2010PropOp39
 70
     0
102
RTVSPost2010Prop40
 90
        0
102
RTVSPost2010PropOp40
 70
     0
102
RTVSPost2010Prop41ColorIndex
 90
       18
102
RTVSPost2010Prop41ColorRGB
 90
        0
102
RTVSPost2010PropOp41
 70
     0
102
RTVSPost2010Prop42
 90
       50
102
RTVSPost2010PropOp42
 70
     0
102
RTVSPost2010Prop43
 90
        3
102
RTVSPost2010PropOp43
 70
     0
102
RTVSPost2010Prop44ColorIndex
 90
        5
102
RTVSPost2010Prop44ColorRGB
 90
      255
102
RTVSPost2010PropOp44
 70
     0
102
RTVSPost2010Prop45
280
     0
102
RTVSPost2010PropOp45
 70
     0
102
RTVSPost2010Prop46
 90
       50
102
RTVSPost2010PropOp46
 70
     0
102
RTVSPost2010Prop47
 90
       50
102
RTVSPost2010PropOp47
 70
     0
102
RTVSPost2010Prop48
 90
       50
102
RTVSPost2010PropOp48
 70
     0
102
RTVSPost2010Prop49
280
     0
102
RTVSPost2010PropOp49
 70
     0
102
RTVSPost2010Prop50
 90
       50
102
RTVSPost2010PropOp50
 70
     0
102
RTVSPost2010Prop51ColorIndex
 90
      256
102
RTVSPost2010Prop51ColorRGB
 90
-16777216
102
RTVSPost2010PropOp51
 70
     0
102
RTVSPost2010Prop52
140
1.0
102
RTVSPost2010PropOp52
 70
     0
102
RTVSPost2010Prop53
 90
        2
102
RTVSPost2010PropOp53
 70
     0
102
RTVSPost2010Prop54
  1
strokes_ogs.tif
102
RTVSPost2010PropOp54
 70
     0
102
RTVSPost2010Prop55
280
     0
102
RTVSPost2010PropOp55
 70
     0
102
RTVSPost2010Prop56
140
1.0
102
RTVSPost2010PropOp56
 70
     0
102
RTVSPost2010Prop57
140
1.0
102
RTVSPost2010PropOp57
 70
     0
  0
XRECORD
  5
45B
102
{ACAD_REACTORS
330
45A
102
}
330
45A
100
AcDbXrecord
280
     1
102
RTVSPropertyOp0
 70
     1
102
RTVSPropertyOp1
 70
     1
102
RTVSPropertyOp2
 70
     1
102
RTVSPropertyOp3
 70
     1
102
RTVSPropertyOp4
 70
     1
102
RTVSPropertyOp5
 70
     1
102
RTVSPropertyOp6
 70
     1
102
RTVSPropertyOp7
 70
     1
102
RTVSPropertyOp8
 70
     1
102
RTVSPropertyOp9
 70
     1
102
RTVSPropertyOp10
 70
     1
102
RTVSPropertyOp11
 70
     1
102
RTVSPropertyOp12
 70
     1
102
RTVSPropertyOp13
 70
     1
102
RTVSPropertyOp14
 70
     1
102
RTVSPropertyOp15
 70
     1
102
RTVSPropertyOp16
 70
     1
102
RTVSPropertyOp17
 70
     1
102
RTVSPropertyOp18
 70
     1
102
RTVSPropertyOp19
 70
     1
102
RTVSPropertyOp20
 70
     1
102
RTVSPropertyOp21
 70
     1
102
RTVSPropertyOp22
 70
     1
102
RTVSPropertyOp23
 70
     1
102
RTVSPropertyOp24
 70
     1
102
RTVSPropertyOp25
 70
     1
102
RTVSPropertyOp26
 70
     1
102
RTVSPropertyOp27
 70
     1
102
RTVSPropertyOp28
 70
     1
102
RTVSPropertyOp29
 70
     1
102
RTVSPropertyOp30
 70
     1
102
RTVSPropertyOp31
 70
     1
102
RTVSPropertyOp32
 70
     1
102
RTVSPropertyOp33
 70
     1
102
RTVSPropertyOp34
 70
     1
102
RTVSPropertyOp35
 70
     1
102
RTVSPropertyOp36
 70
     1
102
RTVSPropertyOp37
 70
     1
102
RTVSPropertyOp38
 70
     1
102
RTVSPropertyOp39
 70
     1
102
RTVSPropertyOp40
 70
     1
102
RTVSPropertyOp41
 70
     1
102
RTVSPropertyOp42
 70
     1
102
RTVSPropertyOp43
 70
     1
102
RTVSPropertyOp44
 70
     1
102
RTVSPropertyOp45
 70
     1
102
RTVSPropertyOp46
 70
     1
102
RTVSPropertyOp47
 70
     1
102
RTVSPropertyOp48
 70
     1
102
RTVSPropertyOp49
 70
     1
102
RTVSPropertyOp50
 70
     1
102
RTVSPropertyOp51
 70
     0
102
RTVSPropertyOp52
 70
     0
102
RTVSPropertyOp53
 70
     1
102
RTVSPropertyOp54
 70
     1
102
RTVSPropertyOp55
 70
     1
102
RTVSPropertyOp56
 70
     1
102
RTVSPropertyOp57
 70
     1
102
RTVSPost2010Prop28
280
     0
102
RTVSPost2010PropOp28
 70
     1
102
RTVSPost2010Prop29
280
     1
102
RTVSPost2010PropOp29
 70
     1
102
RTVSPost2010Prop30
280
     1
102
RTVSPost2010PropOp30
 70
     1
102
RTVSPost2010Prop31
280
     0
102
RTVSPost2010PropOp31
 70
     1
102
RTVSPost2010Prop32
280
     0
102
RTVSPost2010PropOp32
 70
     1
102
RTVSPost2010Prop33
280
     0
102
RTVSPost2010PropOp33
 70
     1
102
RTVSPost2010Prop34
280
     0
102
RTVSPost2010PropOp34
 70
     1
102
RTVSPost2010Prop35
280
     0
102
RTVSPost2010PropOp35
 70
     1
102
RTVSPost2010Prop36
280
     0
102
RTVSPost2010PropOp36
 70
     1
102
RTVSPost2010Prop37
 90
       50
102
RTVSPost2010PropOp37
 70
     1
102
RTVSPost2010Prop38
140
0.0
102
RTVSPost2010PropOp38
 70
     1
102
RTVSPost2010Prop39
140
1.0
102
RTVSPost2010PropOp39
 70
     1
102
RTVSPost2010Prop40
 90
        0
102
RTVSPost2010PropOp40
 70
     1
102
RTVSPost2010Prop41ColorIndex
 90
       18
102
RTVSPost2010Prop41ColorRGB
 90
        0
102
RTVSPost2010PropOp41
 70
     1
102
RTVSPost2010Prop42
 90
       50
102
RTVSPost2010PropOp42
 70
     1
102
RTVSPost2010Prop43
 90
        3
102
RTVSPost2010PropOp43
 70
     1
102
RTVSPost2010Prop44ColorIndex
 90
        5
102
RTVSPost2010Prop44ColorRGB
 90
      255
102
RTVSPost2010PropOp44
 70
     1
102
RTVSPost2010Prop45
280
     0
102
RTVSPost2010PropOp45
 70
     1
102
RTVSPost2010Prop46
 90
       50
102
RTVSPost2010PropOp46
 70
     1
102
RTVSPost2010Prop47
 90
       50
102
RTVSPost2010PropOp47
 70
     1
102
RTVSPost2010Prop48
 90
       50
102
RTVSPost2010PropOp48
 70
     1
102
RTVSPost2010Prop49
280
     0
102
RTVSPost2010PropOp49
 70
     1
102
RTVSPost2010Prop50
 90
       50
102
RTVSPost2010PropOp50
 70
     1
102
RTVSPost2010Prop51ColorIndex
 90
      256
102
RTVSPost2010Prop51ColorRGB
 90
-16777216
102
RTVSPost2010PropOp51
 70
     0
102
RTVSPost2010Prop52
140
1.0
102
RTVSPost2010PropOp52
 70
     0
102
RTVSPost2010Prop53
 90
        2
102
RTVSPost2010PropOp53
 70
     1
102
RTVSPost2010Prop54
  1
strokes_ogs.tif
102
RTVSPost2010PropOp54
 70
     1
102
RTVSPost2010Prop55
280
     0
102
RTVSPost2010PropOp55
 70
     1
102
RTVSPost2010Prop56
140
1.0
102
RTVSPost2010PropOp56
 70
     1
102
RTVSPost2010Prop57
140
1.0
102
RTVSPost2010PropOp57
 70
     1
  0
XRECORD
  5
43F
102
{ACAD_REACTORS
330
43E
102
}
330
43E
100
AcDbXrecord
280
     1
102
RTVSPropertyOp0
 70
     1
102
RTVSPropertyOp1
 70
     1
102
RTVSPropertyOp2
 70
     1
102
RTVSPropertyOp3
 70
     1
102
RTVSPropertyOp4
 70
     1
102
RTVSPropertyOp5
 70
     1
102
RTVSPropertyOp6
 70
     1
102
RTVSPropertyOp7
 70
     1
102
RTVSPropertyOp8
 70
     1
102
RTVSPropertyOp9
 70
     1
102
RTVSPropertyOp10
 70
     1
102
RTVSPropertyOp11
 70
     1
102
RTVSPropertyOp12
 70
     1
102
RTVSPropertyOp13
 70
     1
102
RTVSPropertyOp14
 70
     1
102
RTVSPropertyOp15
 70
     1
102
RTVSPropertyOp16
 70
     1
102
RTVSPropertyOp17
 70
     1
102
RTVSPropertyOp18
 70
     1
102
RTVSPropertyOp19
 70
     1
102
RTVSPropertyOp20
 70
     1
102
RTVSPropertyOp21
 70
     1
102
RTVSPropertyOp22
 70
     1
102
RTVSPropertyOp23
 70
     1
102
RTVSPropertyOp24
 70
     1
102
RTVSPropertyOp25
 70
     1
102
RTVSPropertyOp26
 70
     1
102
RTVSPropertyOp27
 70
     1
102
RTVSPropertyOp28
 70
     1
102
RTVSPropertyOp29
 70
     1
102
RTVSPropertyOp30
 70
     1
102
RTVSPropertyOp31
 70
     1
102
RTVSPropertyOp32
 70
     1
102
RTVSPropertyOp33
 70
     1
102
RTVSPropertyOp34
 70
     1
102
RTVSPropertyOp35
 70
     1
102
RTVSPropertyOp36
 70
     1
102
RTVSPropertyOp37
 70
     1
102
RTVSPropertyOp38
 70
     1
102
RTVSPropertyOp39
 70
     1
102
RTVSPropertyOp40
 70
     1
102
RTVSPropertyOp41
 70
     1
102
RTVSPropertyOp42
 70
     1
102
RTVSPropertyOp43
 70
     1
102
RTVSPropertyOp44
 70
     1
102
RTVSPropertyOp45
 70
     1
102
RTVSPropertyOp46
 70
     1
102
RTVSPropertyOp47
 70
     1
102
RTVSPropertyOp48
 70
     1
102
RTVSPropertyOp49
 70
     1
102
RTVSPropertyOp50
 70
     1
102
RTVSPropertyOp51
 70
     0
102
RTVSPropertyOp52
 70
     0
102
RTVSPropertyOp53
 70
     1
102
RTVSPropertyOp54
 70
     1
102
RTVSPropertyOp55
 70
     1
102
RTVSPropertyOp56
 70
     1
102
RTVSPropertyOp57
 70
     1
102
RTVSPost2010Prop28
280
     0
102
RTVSPost2010PropOp28
 70
     1
102
RTVSPost2010Prop29
280
     1
102
RTVSPost2010PropOp29
 70
     1
102
RTVSPost2010Prop30
280
     1
102
RTVSPost2010PropOp30
 70
     1
102
RTVSPost2010Prop31
280
     0
102
RTVSPost2010PropOp31
 70
     1
102
RTVSPost2010Prop32
280
     0
102
RTVSPost2010PropOp32
 70
     1
102
RTVSPost2010Prop33
280
     0
102
RTVSPost2010PropOp33
 70
     1
102
RTVSPost2010Prop34
280
     0
102
RTVSPost2010PropOp34
 70
     1
102
RTVSPost2010Prop35
280
     0
102
RTVSPost2010PropOp35
 70
     1
102
RTVSPost2010Prop36
280
     0
102
RTVSPost2010PropOp36
 70
     1
102
RTVSPost2010Prop37
 90
       50
102
RTVSPost2010PropOp37
 70
     1
102
RTVSPost2010Prop38
140
0.0
102
RTVSPost2010PropOp38
 70
     1
102
RTVSPost2010Prop39
140
1.0
102
RTVSPost2010PropOp39
 70
     1
102
RTVSPost2010Prop40
 90
        0
102
RTVSPost2010PropOp40
 70
     1
102
RTVSPost2010Prop41ColorIndex
 90
       18
102
RTVSPost2010Prop41ColorRGB
 90
        0
102
RTVSPost2010PropOp41
 70
     1
102
RTVSPost2010Prop42
 90
       50
102
RTVSPost2010PropOp42
 70
     1
102
RTVSPost2010Prop43
 90
        3
102
RTVSPost2010PropOp43
 70
     1
102
RTVSPost2010Prop44ColorIndex
 90
        5
102
RTVSPost2010Prop44ColorRGB
 90
      255
102
RTVSPost2010PropOp44
 70
     1
102
RTVSPost2010Prop45
280
     0
102
RTVSPost2010PropOp45
 70
     1
102
RTVSPost2010Prop46
 90
       50
102
RTVSPost2010PropOp46
 70
     1
102
RTVSPost2010Prop47
 90
       50
102
RTVSPost2010PropOp47
 70
     1
102
RTVSPost2010Prop48
 90
       50
102
RTVSPost2010PropOp48
 70
     1
102
RTVSPost2010Prop49
280
     0
102
RTVSPost2010PropOp49
 70
     1
102
RTVSPost2010Prop50
 90
       50
102
RTVSPost2010PropOp50
 70
     1
102
RTVSPost2010Prop51ColorIndex
 90
      256
102
RTVSPost2010Prop51ColorRGB
 90
-16777216
102
RTVSPost2010PropOp51
 70
     0
102
RTVSPost2010Prop52
140
1.0
102
RTVSPost2010PropOp52
 70
     0
102
RTVSPost2010Prop53
 90
        2
102
RTVSPost2010PropOp53
 70
     1
102
RTVSPost2010Prop54
  1
strokes_ogs.tif
102
RTVSPost2010PropOp54
 70
     1
102
RTVSPost2010Prop55
280
     0
102
RTVSPost2010PropOp55
 70
     1
102
RTVSPost2010Prop56
140
1.0
102
RTVSPost2010PropOp56
 70
     1
102
RTVSPost2010Prop57
140
1.0
102
RTVSPost2010PropOp57
 70
     1
  0
XRECORD
  5
441
102
{ACAD_REACTORS
330
440
102
}
330
440
100
AcDbXrecord
280
     1
102
RTVSPropertyOp0
 70
     1
102
RTVSPropertyOp1
 70
     1
102
RTVSPropertyOp2
 70
     1
102
RTVSPropertyOp3
 70
     1
102
RTVSPropertyOp4
 70
     1
102
RTVSPropertyOp5
 70
     1
102
RTVSPropertyOp6
 70
     1
102
RTVSPropertyOp7
 70
     1
102
RTVSPropertyOp8
 70
     1
102
RTVSPropertyOp9
 70
     1
102
RTVSPropertyOp10
 70
     1
102
RTVSPropertyOp11
 70
     1
102
RTVSPropertyOp12
 70
     1
102
RTVSPropertyOp13
 70
     1
102
RTVSPropertyOp14
 70
     1
102
RTVSPropertyOp15
 70
     1
102
RTVSPropertyOp16
 70
     1
102
RTVSPropertyOp17
 70
     1
102
RTVSPropertyOp18
 70
     1
102
RTVSPropertyOp19
 70
     1
102
RTVSPropertyOp20
 70
     1
102
RTVSPropertyOp21
 70
     1
102
RTVSPropertyOp22
 70
     1
102
RTVSPropertyOp23
 70
     1
102
RTVSPropertyOp24
 70
     1
102
RTVSPropertyOp25
 70
     1
102
RTVSPropertyOp26
 70
     1
102
RTVSPropertyOp27
 70
     1
102
RTVSPropertyOp28
 70
     1
102
RTVSPropertyOp29
 70
     1
102
RTVSPropertyOp30
 70
     1
102
RTVSPropertyOp31
 70
     1
102
RTVSPropertyOp32
 70
     1
102
RTVSPropertyOp33
 70
     1
102
RTVSPropertyOp34
 70
     1
102
RTVSPropertyOp35
 70
     1
102
RTVSPropertyOp36
 70
     1
102
RTVSPropertyOp37
 70
     1
102
RTVSPropertyOp38
 70
     1
102
RTVSPropertyOp39
 70
     1
102
RTVSPropertyOp40
 70
     1
102
RTVSPropertyOp41
 70
     1
102
RTVSPropertyOp42
 70
     1
102
RTVSPropertyOp43
 70
     1
102
RTVSPropertyOp44
 70
     1
102
RTVSPropertyOp45
 70
     1
102
RTVSPropertyOp46
 70
     1
102
RTVSPropertyOp47
 70
     1
102
RTVSPropertyOp48
 70
     1
102
RTVSPropertyOp49
 70
     1
102
RTVSPropertyOp50
 70
     1
102
RTVSPropertyOp51
 70
     0
102
RTVSPropertyOp52
 70
     0
102
RTVSPropertyOp53
 70
     1
102
RTVSPropertyOp54
 70
     1
102
RTVSPropertyOp55
 70
     1
102
RTVSPropertyOp56
 70
     1
102
RTVSPropertyOp57
 70
     1
102
RTVSPost2010Prop28
280
     0
102
RTVSPost2010PropOp28
 70
     1
102
RTVSPost2010Prop29
280
     1
102
RTVSPost2010PropOp29
 70
     1
102
RTVSPost2010Prop30
280
     1
102
RTVSPost2010PropOp30
 70
     1
102
RTVSPost2010Prop31
280
     0
102
RTVSPost2010PropOp31
 70
     1
102
RTVSPost2010Prop32
280
     0
102
RTVSPost2010PropOp32
 70
     1
102
RTVSPost2010Prop33
280
     0
102
RTVSPost2010PropOp33
 70
     1
102
RTVSPost2010Prop34
280
     0
102
RTVSPost2010PropOp34
 70
     1
102
RTVSPost2010Prop35
280
     0
102
RTVSPost2010PropOp35
 70
     1
102
RTVSPost2010Prop36
280
     0
102
RTVSPost2010PropOp36
 70
     1
102
RTVSPost2010Prop37
 90
       50
102
RTVSPost2010PropOp37
 70
     1
102
RTVSPost2010Prop38
140
0.0
102
RTVSPost2010PropOp38
 70
     1
102
RTVSPost2010Prop39
140
1.0
102
RTVSPost2010PropOp39
 70
     1
102
RTVSPost2010Prop40
 90
        0
102
RTVSPost2010PropOp40
 70
     1
102
RTVSPost2010Prop41ColorIndex
 90
       18
102
RTVSPost2010Prop41ColorRGB
 90
        0
102
RTVSPost2010PropOp41
 70
     1
102
RTVSPost2010Prop42
 90
       50
102
RTVSPost2010PropOp42
 70
     1
102
RTVSPost2010Prop43
 90
        3
102
RTVSPost2010PropOp43
 70
     1
102
RTVSPost2010Prop44ColorIndex
 90
        5
102
RTVSPost2010Prop44ColorRGB
 90
      255
102
RTVSPost2010PropOp44
 70
     1
102
RTVSPost2010Prop45
280
     0
102
RTVSPost2010PropOp45
 70
     1
102
RTVSPost2010Prop46
 90
       50
102
RTVSPost2010PropOp46
 70
     1
102
RTVSPost2010Prop47
 90
       50
102
RTVSPost2010PropOp47
 70
     1
102
RTVSPost2010Prop48
 90
       50
102
RTVSPost2010PropOp48
 70
     1
102
RTVSPost2010Prop49
280
     0
102
RTVSPost2010PropOp49
 70
     1
102
RTVSPost2010Prop50
 90
       50
102
RTVSPost2010PropOp50
 70
     1
102
RTVSPost2010Prop51ColorIndex
 90
      256
102
RTVSPost2010Prop51ColorRGB
 90
-16777216
102
RTVSPost2010PropOp51
 70
     0
102
RTVSPost2010Prop52
140
1.0
102
RTVSPost2010PropOp52
 70
     0
102
RTVSPost2010Prop53
 90
        2
102
RTVSPost2010PropOp53
 70
     1
102
RTVSPost2010Prop54
  1
strokes_ogs.tif
102
RTVSPost2010PropOp54
 70
     1
102
RTVSPost2010Prop55
280
     0
102
RTVSPost2010PropOp55
 70
     1
102
RTVSPost2010Prop56
140
1.0
102
RTVSPost2010PropOp56
 70
     1
102
RTVSPost2010Prop57
140
1.0
102
RTVSPost2010PropOp57
 70
     1
  0
XRECORD
  5
443
102
{ACAD_REACTORS
330
442
102
}
330
442
100
AcDbXrecord
280
     1
102
RTVSPropertyOp0
 70
     1
102
RTVSPropertyOp1
 70
     1
102
RTVSPropertyOp2
 70
     1
102
RTVSPropertyOp3
 70
     1
102
RTVSPropertyOp4
 70
     1
102
RTVSPropertyOp5
 70
     1
102
RTVSPropertyOp6
 70
     1
102
RTVSPropertyOp7
 70
     1
102
RTVSPropertyOp8
 70
     1
102
RTVSPropertyOp9
 70
     1
102
RTVSPropertyOp10
 70
     1
102
RTVSPropertyOp11
 70
     1
102
RTVSPropertyOp12
 70
     1
102
RTVSPropertyOp13
 70
     1
102
RTVSPropertyOp14
 70
     1
102
RTVSPropertyOp15
 70
     1
102
RTVSPropertyOp16
 70
     1
102
RTVSPropertyOp17
 70
     1
102
RTVSPropertyOp18
 70
     1
102
RTVSPropertyOp19
 70
     1
102
RTVSPropertyOp20
 70
     1
102
RTVSPropertyOp21
 70
     1
102
RTVSPropertyOp22
 70
     1
102
RTVSPropertyOp23
 70
     1
102
RTVSPropertyOp24
 70
     1
102
RTVSPropertyOp25
 70
     1
102
RTVSPropertyOp26
 70
     1
102
RTVSPropertyOp27
 70
     1
102
RTVSPropertyOp28
 70
     1
102
RTVSPropertyOp29
 70
     1
102
RTVSPropertyOp30
 70
     1
102
RTVSPropertyOp31
 70
     1
102
RTVSPropertyOp32
 70
     1
102
RTVSPropertyOp33
 70
     1
102
RTVSPropertyOp34
 70
     1
102
RTVSPropertyOp35
 70
     1
102
RTVSPropertyOp36
 70
     1
102
RTVSPropertyOp37
 70
     1
102
RTVSPropertyOp38
 70
     1
102
RTVSPropertyOp39
 70
     1
102
RTVSPropertyOp40
 70
     1
102
RTVSPropertyOp41
 70
     1
102
RTVSPropertyOp42
 70
     1
102
RTVSPropertyOp43
 70
     1
102
RTVSPropertyOp44
 70
     1
102
RTVSPropertyOp45
 70
     1
102
RTVSPropertyOp46
 70
     1
102
RTVSPropertyOp47
 70
     1
102
RTVSPropertyOp48
 70
     1
102
RTVSPropertyOp49
 70
     1
102
RTVSPropertyOp50
 70
     1
102
RTVSPropertyOp51
 70
     0
102
RTVSPropertyOp52
 70
     0
102
RTVSPropertyOp53
 70
     1
102
RTVSPropertyOp54
 70
     1
102
RTVSPropertyOp55
 70
     1
102
RTVSPropertyOp56
 70
     1
102
RTVSPropertyOp57
 70
     1
102
RTVSPost2010Prop28
280
     0
102
RTVSPost2010PropOp28
 70
     1
102
RTVSPost2010Prop29
280
     1
102
RTVSPost2010PropOp29
 70
     1
102
RTVSPost2010Prop30
280
     1
102
RTVSPost2010PropOp30
 70
     1
102
RTVSPost2010Prop31
280
     0
102
RTVSPost2010PropOp31
 70
     1
102
RTVSPost2010Prop32
280
     0
102
RTVSPost2010PropOp32
 70
     1
102
RTVSPost2010Prop33
280
     0
102
RTVSPost2010PropOp33
 70
     1
102
RTVSPost2010Prop34
280
     0
102
RTVSPost2010PropOp34
 70
     1
102
RTVSPost2010Prop35
280
     0
102
RTVSPost2010PropOp35
 70
     1
102
RTVSPost2010Prop36
280
     0
102
RTVSPost2010PropOp36
 70
     1
102
RTVSPost2010Prop37
 90
       50
102
RTVSPost2010PropOp37
 70
     1
102
RTVSPost2010Prop38
140
0.0
102
RTVSPost2010PropOp38
 70
     1
102
RTVSPost2010Prop39
140
1.0
102
RTVSPost2010PropOp39
 70
     1
102
RTVSPost2010Prop40
 90
        0
102
RTVSPost2010PropOp40
 70
     1
102
RTVSPost2010Prop41ColorIndex
 90
       18
102
RTVSPost2010Prop41ColorRGB
 90
        0
102
RTVSPost2010PropOp41
 70
     1
102
RTVSPost2010Prop42
 90
       50
102
RTVSPost2010PropOp42
 70
     1
102
RTVSPost2010Prop43
 90
        3
102
RTVSPost2010PropOp43
 70
     1
102
RTVSPost2010Prop44ColorIndex
 90
        5
102
RTVSPost2010Prop44ColorRGB
 90
      255
102
RTVSPost2010PropOp44
 70
     1
102
RTVSPost2010Prop45
280
     0
102
RTVSPost2010PropOp45
 70
     1
102
RTVSPost2010Prop46
 90
       50
102
RTVSPost2010PropOp46
 70
     1
102
RTVSPost2010Prop47
 90
       50
102
RTVSPost2010PropOp47
 70
     1
102
RTVSPost2010Prop48
 90
       50
102
RTVSPost2010PropOp48
 70
     1
102
RTVSPost2010Prop49
280
     0
102
RTVSPost2010PropOp49
 70
     1
102
RTVSPost2010Prop50
 90
       50
102
RTVSPost2010PropOp50
 70
     1
102
RTVSPost2010Prop51ColorIndex
 90
      256
102
RTVSPost2010Prop51ColorRGB
 90
-16777216
102
RTVSPost2010PropOp51
 70
     0
102
RTVSPost2010Prop52
140
1.0
102
RTVSPost2010PropOp52
 70
     0
102
RTVSPost2010Prop53
 90
        2
102
RTVSPost2010PropOp53
 70
     1
102
RTVSPost2010Prop54
  1
strokes_ogs.tif
102
RTVSPost2010PropOp54
 70
     1
102
RTVSPost2010Prop55
280
     0
102
RTVSPost2010PropOp55
 70
     1
102
RTVSPost2010Prop56
140
1.0
102
RTVSPost2010PropOp56
 70
     1
102
RTVSPost2010Prop57
140
1.0
102
RTVSPost2010PropOp57
 70
     1
  0
XRECORD
  5
445
102
{ACAD_REACTORS
330
444
102
}
330
444
100
AcDbXrecord
280
     1
102
RTVSPropertyOp0
 70
     1
102
RTVSPropertyOp1
 70
     1
102
RTVSPropertyOp2
 70
     1
102
RTVSPropertyOp3
 70
     1
102
RTVSPropertyOp4
 70
     1
102
RTVSPropertyOp5
 70
     1
102
RTVSPropertyOp6
 70
     1
102
RTVSPropertyOp7
 70
     1
102
RTVSPropertyOp8
 70
     1
102
RTVSPropertyOp9
 70
     1
102
RTVSPropertyOp10
 70
     1
102
RTVSPropertyOp11
 70
     1
102
RTVSPropertyOp12
 70
     1
102
RTVSPropertyOp13
 70
     1
102
RTVSPropertyOp14
 70
     1
102
RTVSPropertyOp15
 70
     1
102
RTVSPropertyOp16
 70
     1
102
RTVSPropertyOp17
 70
     1
102
RTVSPropertyOp18
 70
     1
102
RTVSPropertyOp19
 70
     1
102
RTVSPropertyOp20
 70
     1
102
RTVSPropertyOp21
 70
     1
102
RTVSPropertyOp22
 70
     1
102
RTVSPropertyOp23
 70
     1
102
RTVSPropertyOp24
 70
     1
102
RTVSPropertyOp25
 70
     1
102
RTVSPropertyOp26
 70
     1
102
RTVSPropertyOp27
 70
     1
102
RTVSPropertyOp28
 70
     1
102
RTVSPropertyOp29
 70
     1
102
RTVSPropertyOp30
 70
     1
102
RTVSPropertyOp31
 70
     1
102
RTVSPropertyOp32
 70
     1
102
RTVSPropertyOp33
 70
     1
102
RTVSPropertyOp34
 70
     1
102
RTVSPropertyOp35
 70
     1
102
RTVSPropertyOp36
 70
     1
102
RTVSPropertyOp37
 70
     1
102
RTVSPropertyOp38
 70
     1
102
RTVSPropertyOp39
 70
     1
102
RTVSPropertyOp40
 70
     1
102
RTVSPropertyOp41
 70
     1
102
RTVSPropertyOp42
 70
     1
102
RTVSPropertyOp43
 70
     1
102
RTVSPropertyOp44
 70
     1
102
RTVSPropertyOp45
 70
     1
102
RTVSPropertyOp46
 70
     1
102
RTVSPropertyOp47
 70
     1
102
RTVSPropertyOp48
 70
     1
102
RTVSPropertyOp49
 70
     1
102
RTVSPropertyOp50
 70
     1
102
RTVSPropertyOp51
 70
     0
102
RTVSPropertyOp52
 70
     0
102
RTVSPropertyOp53
 70
     1
102
RTVSPropertyOp54
 70
     1
102
RTVSPropertyOp55
 70
     1
102
RTVSPropertyOp56
 70
     1
102
RTVSPropertyOp57
 70
     1
102
RTVSPost2010Prop28
280
     0
102
RTVSPost2010PropOp28
 70
     1
102
RTVSPost2010Prop29
280
     1
102
RTVSPost2010PropOp29
 70
     1
102
RTVSPost2010Prop30
280
     1
102
RTVSPost2010PropOp30
 70
     1
102
RTVSPost2010Prop31
280
     0
102
RTVSPost2010PropOp31
 70
     1
102
RTVSPost2010Prop32
280
     0
102
RTVSPost2010PropOp32
 70
     1
102
RTVSPost2010Prop33
280
     0
102
RTVSPost2010PropOp33
 70
     1
102
RTVSPost2010Prop34
280
     0
102
RTVSPost2010PropOp34
 70
     1
102
RTVSPost2010Prop35
280
     0
102
RTVSPost2010PropOp35
 70
     1
102
RTVSPost2010Prop36
280
     0
102
RTVSPost2010PropOp36
 70
     1
102
RTVSPost2010Prop37
 90
       50
102
RTVSPost2010PropOp37
 70
     1
102
RTVSPost2010Prop38
140
0.0
102
RTVSPost2010PropOp38
 70
     1
102
RTVSPost2010Prop39
140
1.0
102
RTVSPost2010PropOp39
 70
     1
102
RTVSPost2010Prop40
 90
        0
102
RTVSPost2010PropOp40
 70
     1
102
RTVSPost2010Prop41ColorIndex
 90
       18
102
RTVSPost2010Prop41ColorRGB
 90
        0
102
RTVSPost2010PropOp41
 70
     1
102
RTVSPost2010Prop42
 90
       50
102
RTVSPost2010PropOp42
 70
     1
102
RTVSPost2010Prop43
 90
        3
102
RTVSPost2010PropOp43
 70
     1
102
RTVSPost2010Prop44ColorIndex
 90
        5
102
RTVSPost2010Prop44ColorRGB
 90
      255
102
RTVSPost2010PropOp44
 70
     1
102
RTVSPost2010Prop45
280
     0
102
RTVSPost2010PropOp45
 70
     1
102
RTVSPost2010Prop46
 90
       50
102
RTVSPost2010PropOp46
 70
     1
102
RTVSPost2010Prop47
 90
       50
102
RTVSPost2010PropOp47
 70
     1
102
RTVSPost2010Prop48
 90
       50
102
RTVSPost2010PropOp48
 70
     1
102
RTVSPost2010Prop49
280
     0
102
RTVSPost2010PropOp49
 70
     1
102
RTVSPost2010Prop50
 90
       50
102
RTVSPost2010PropOp50
 70
     1
102
RTVSPost2010Prop51ColorIndex
 90
      256
102
RTVSPost2010Prop51ColorRGB
 90
-16777216
102
RTVSPost2010PropOp51
 70
     0
102
RTVSPost2010Prop52
140
1.0
102
RTVSPost2010PropOp52
 70
     0
102
RTVSPost2010Prop53
 90
        2
102
RTVSPost2010PropOp53
 70
     1
102
RTVSPost2010Prop54
  1
strokes_ogs.tif
102
RTVSPost2010PropOp54
 70
     1
102
RTVSPost2010Prop55
280
     0
102
RTVSPost2010PropOp55
 70
     1
102
RTVSPost2010Prop56
140
1.0
102
RTVSPost2010PropOp56
 70
     1
102
RTVSPost2010Prop57
140
1.0
102
RTVSPost2010PropOp57
 70
     1
  0
XRECORD
  5
44B
102
{ACAD_REACTORS
330
44A
102
}
330
44A
100
AcDbXrecord
280
     1
102
RTVSPropertyOp0
 70
     1
102
RTVSPropertyOp1
 70
     1
102
RTVSPropertyOp2
 70
     1
102
RTVSPropertyOp3
 70
     1
102
RTVSPropertyOp4
 70
     1
102
RTVSPropertyOp5
 70
     1
102
RTVSPropertyOp6
 70
     1
102
RTVSPropertyOp7
 70
     1
102
RTVSPropertyOp8
 70
     1
102
RTVSPropertyOp9
 70
     1
102
RTVSPropertyOp10
 70
     1
102
RTVSPropertyOp11
 70
     1
102
RTVSPropertyOp12
 70
     1
102
RTVSPropertyOp13
 70
     1
102
RTVSPropertyOp14
 70
     1
102
RTVSPropertyOp15
 70
     1
102
RTVSPropertyOp16
 70
     1
102
RTVSPropertyOp17
 70
     1
102
RTVSPropertyOp18
 70
     1
102
RTVSPropertyOp19
 70
     1
102
RTVSPropertyOp20
 70
     1
102
RTVSPropertyOp21
 70
     1
102
RTVSPropertyOp22
 70
     1
102
RTVSPropertyOp23
 70
     1
102
RTVSPropertyOp24
 70
     1
102
RTVSPropertyOp25
 70
     1
102
RTVSPropertyOp26
 70
     1
102
RTVSPropertyOp27
 70
     1
102
RTVSPropertyOp28
 70
     1
102
RTVSPropertyOp29
 70
     1
102
RTVSPropertyOp30
 70
     1
102
RTVSPropertyOp31
 70
     1
102
RTVSPropertyOp32
 70
     1
102
RTVSPropertyOp33
 70
     1
102
RTVSPropertyOp34
 70
     1
102
RTVSPropertyOp35
 70
     1
102
RTVSPropertyOp36
 70
     1
102
RTVSPropertyOp37
 70
     1
102
RTVSPropertyOp38
 70
     1
102
RTVSPropertyOp39
 70
     1
102
RTVSPropertyOp40
 70
     1
102
RTVSPropertyOp41
 70
     1
102
RTVSPropertyOp42
 70
     1
102
RTVSPropertyOp43
 70
     1
102
RTVSPropertyOp44
 70
     1
102
RTVSPropertyOp45
 70
     1
102
RTVSPropertyOp46
 70
     1
102
RTVSPropertyOp47
 70
     1
102
RTVSPropertyOp48
 70
     1
102
RTVSPropertyOp49
 70
     1
102
RTVSPropertyOp50
 70
     1
102
RTVSPropertyOp51
 70
     0
102
RTVSPropertyOp52
 70
     0
102
RTVSPropertyOp53
 70
     1
102
RTVSPropertyOp54
 70
     1
102
RTVSPropertyOp55
 70
     1
102
RTVSPropertyOp56
 70
     1
102
RTVSPropertyOp57
 70
     1
102
RTVSPost2010Prop28
280
     0
102
RTVSPost2010PropOp28
 70
     1
102
RTVSPost2010Prop29
280
     1
102
RTVSPost2010PropOp29
 70
     1
102
RTVSPost2010Prop30
280
     1
102
RTVSPost2010PropOp30
 70
     1
102
RTVSPost2010Prop31
280
     0
102
RTVSPost2010PropOp31
 70
     1
102
RTVSPost2010Prop32
280
     0
102
RTVSPost2010PropOp32
 70
     1
102
RTVSPost2010Prop33
280
     0
102
RTVSPost2010PropOp33
 70
     1
102
RTVSPost2010Prop34
280
     0
102
RTVSPost2010PropOp34
 70
     1
102
RTVSPost2010Prop35
280
     0
102
RTVSPost2010PropOp35
 70
     1
102
RTVSPost2010Prop36
280
     0
102
RTVSPost2010PropOp36
 70
     1
102
RTVSPost2010Prop37
 90
       50
102
RTVSPost2010PropOp37
 70
     1
102
RTVSPost2010Prop38
140
0.0
102
RTVSPost2010PropOp38
 70
     1
102
RTVSPost2010Prop39
140
1.0
102
RTVSPost2010PropOp39
 70
     1
102
RTVSPost2010Prop40
 90
        0
102
RTVSPost2010PropOp40
 70
     1
102
RTVSPost2010Prop41ColorIndex
 90
       18
102
RTVSPost2010Prop41ColorRGB
 90
        0
102
RTVSPost2010PropOp41
 70
     1
102
RTVSPost2010Prop42
 90
       50
102
RTVSPost2010PropOp42
 70
     1
102
RTVSPost2010Prop43
 90
        3
102
RTVSPost2010PropOp43
 70
     1
102
RTVSPost2010Prop44ColorIndex
 90
        5
102
RTVSPost2010Prop44ColorRGB
 90
      255
102
RTVSPost2010PropOp44
 70
     1
102
RTVSPost2010Prop45
280
     0
102
RTVSPost2010PropOp45
 70
     1
102
RTVSPost2010Prop46
 90
       50
102
RTVSPost2010PropOp46
 70
     1
102
RTVSPost2010Prop47
 90
       50
102
RTVSPost2010PropOp47
 70
     1
102
RTVSPost2010Prop48
 90
       50
102
RTVSPost2010PropOp48
 70
     1
102
RTVSPost2010Prop49
280
     0
102
RTVSPost2010PropOp49
 70
     1
102
RTVSPost2010Prop50
 90
       50
102
RTVSPost2010PropOp50
 70
     1
102
RTVSPost2010Prop51ColorIndex
 90
      256
102
RTVSPost2010Prop51ColorRGB
 90
-16777216
102
RTVSPost2010PropOp51
 70
     0
102
RTVSPost2010Prop52
140
1.0
102
RTVSPost2010PropOp52
 70
     0
102
RTVSPost2010Prop53
 90
        2
102
RTVSPost2010PropOp53
 70
     1
102
RTVSPost2010Prop54
  1
strokes_ogs.tif
102
RTVSPost2010PropOp54
 70
     1
102
RTVSPost2010Prop55
280
     0
102
RTVSPost2010PropOp55
 70
     1
102
RTVSPost2010Prop56
140
1.0
102
RTVSPost2010PropOp56
 70
     1
102
RTVSPost2010Prop57
140
1.0
102
RTVSPost2010PropOp57
 70
     1
  0
XRECORD
  5
45F
102
{ACAD_REACTORS
330
45E
102
}
330
45E
100
AcDbXrecord
280
     1
102
RTVSPropertyOp0
 70
     0
102
RTVSPropertyOp1
 70
     0
102
RTVSPropertyOp2
 70
     0
102
RTVSPropertyOp3
 70
     0
102
RTVSPropertyOp4
 70
     0
102
RTVSPropertyOp5
 70
     0
102
RTVSPropertyOp6
 70
     0
102
RTVSPropertyOp7
 70
     0
102
RTVSPropertyOp8
 70
     0
102
RTVSPropertyOp9
 70
     0
102
RTVSPropertyOp10
 70
     0
102
RTVSPropertyOp11
 70
     0
102
RTVSPropertyOp12
 70
     0
102
RTVSPropertyOp13
 70
     0
102
RTVSPropertyOp14
 70
     2
102
RTVSPropertyOp15
 70
     0
102
RTVSPropertyOp16
 70
     0
102
RTVSPropertyOp17
 70
     0
102
RTVSPropertyOp18
 70
     0
102
RTVSPropertyOp19
 70
     0
102
RTVSPropertyOp20
 70
     0
102
RTVSPropertyOp21
 70
     0
102
RTVSPropertyOp22
 70
     0
102
RTVSPropertyOp23
 70
     0
102
RTVSPropertyOp24
 70
     0
102
RTVSPropertyOp25
 70
     0
102
RTVSPropertyOp26
 70
     0
102
RTVSPropertyOp27
 70
     0
102
RTVSPropertyOp28
 70
     0
102
RTVSPropertyOp29
 70
     0
102
RTVSPropertyOp30
 70
     0
102
RTVSPropertyOp31
 70
     0
102
RTVSPropertyOp32
 70
     0
102
RTVSPropertyOp33
 70
     0
102
RTVSPropertyOp34
 70
     0
102
RTVSPropertyOp35
 70
     0
102
RTVSPropertyOp36
 70
     0
102
RTVSPropertyOp37
 70
     0
102
RTVSPropertyOp38
 70
     0
102
RTVSPropertyOp39
 70
     0
102
RTVSPropertyOp40
 70
     0
102
RTVSPropertyOp41
 70
     0
102
RTVSPropertyOp42
 70
     0
102
RTVSPropertyOp43
 70
     0
102
RTVSPropertyOp44
 70
     0
102
RTVSPropertyOp45
 70
     0
102
RTVSPropertyOp46
 70
     0
102
RTVSPropertyOp47
 70
     0
102
RTVSPropertyOp48
 70
     0
102
RTVSPropertyOp49
 70
     0
102
RTVSPropertyOp50
 70
     0
102
RTVSPropertyOp51
 70
     0
102
RTVSPropertyOp52
 70
     0
102
RTVSPropertyOp53
 70
     0
102
RTVSPropertyOp54
 70
     0
102
RTVSPropertyOp55
 70
     0
102
RTVSPropertyOp56
 70
     0
102
RTVSPropertyOp57
 70
     0
102
RTVSPost2010Prop28
280
     0
102
RTVSPost2010PropOp28
 70
     0
102
RTVSPost2010Prop29
280
     1
102
RTVSPost2010PropOp29
 70
     0
102
RTVSPost2010Prop30
280
     1
102
RTVSPost2010PropOp30
 70
     0
102
RTVSPost2010Prop31
280
     0
102
RTVSPost2010PropOp31
 70
     0
102
RTVSPost2010Prop32
280
     0
102
RTVSPost2010PropOp32
 70
     0
102
RTVSPost2010Prop33
280
     0
102
RTVSPost2010PropOp33
 70
     0
102
RTVSPost2010Prop34
280
     0
102
RTVSPost2010PropOp34
 70
     0
102
RTVSPost2010Prop35
280
     0
102
RTVSPost2010PropOp35
 70
     0
102
RTVSPost2010Prop36
280
     0
102
RTVSPost2010PropOp36
 70
     0
102
RTVSPost2010Prop37
 90
       50
102
RTVSPost2010PropOp37
 70
     0
102
RTVSPost2010Prop38
140
0.0
102
RTVSPost2010PropOp38
 70
     0
102
RTVSPost2010Prop39
140
1.0
102
RTVSPost2010PropOp39
 70
     0
102
RTVSPost2010Prop40
 90
        0
102
RTVSPost2010PropOp40
 70
     0
102
RTVSPost2010Prop41ColorIndex
 90
       18
102
RTVSPost2010Prop41ColorRGB
 90
        0
102
RTVSPost2010PropOp41
 70
     0
102
RTVSPost2010Prop42
 90
       50
102
RTVSPost2010PropOp42
 70
     0
102
RTVSPost2010Prop43
 90
        3
102
RTVSPost2010PropOp43
 70
     0
102
RTVSPost2010Prop44ColorIndex
 90
        5
102
RTVSPost2010Prop44ColorRGB
 90
      255
102
RTVSPost2010PropOp44
 70
     0
102
RTVSPost2010Prop45
280
     0
102
RTVSPost2010PropOp45
 70
     0
102
RTVSPost2010Prop46
 90
       50
102
RTVSPost2010PropOp46
 70
     0
102
RTVSPost2010Prop47
 90
       50
102
RTVSPost2010PropOp47
 70
     0
102
RTVSPost2010Prop48
 90
       50
102
RTVSPost2010PropOp48
 70
     0
102
RTVSPost2010Prop49
280
     0
102
RTVSPost2010PropOp49
 70
     0
102
RTVSPost2010Prop50
 90
       50
102
RTVSPost2010PropOp50
 70
     0
102
RTVSPost2010Prop51ColorIndex
 90
      256
102
RTVSPost2010Prop51ColorRGB
 90
-16777216
102
RTVSPost2010PropOp51
 70
     0
102
RTVSPost2010Prop52
140
1.0
102
RTVSPost2010PropOp52
 70
     0
102
RTVSPost2010Prop53
 90
        2
102
RTVSPost2010PropOp53
 70
     0
102
RTVSPost2010Prop54
  1
strokes_ogs.tif
102
RTVSPost2010PropOp54
 70
     0
102
RTVSPost2010Prop55
280
     0
102
RTVSPost2010PropOp55
 70
     0
102
RTVSPost2010Prop56
140
1.0
102
RTVSPost2010PropOp56
 70
     0
102
RTVSPost2010Prop57
140
1.0
102
RTVSPost2010PropOp57
 70
     0
  0
XRECORD
  5
459
102
{ACAD_REACTORS
330
458
102
}
330
458
100
AcDbXrecord
280
     1
102
RTVSPropertyOp0
 70
     1
102
RTVSPropertyOp1
 70
     1
102
RTVSPropertyOp2
 70
     1
102
RTVSPropertyOp3
 70
     1
102
RTVSPropertyOp4
 70
     1
102
RTVSPropertyOp5
 70
     1
102
RTVSPropertyOp6
 70
     1
102
RTVSPropertyOp7
 70
     1
102
RTVSPropertyOp8
 70
     1
102
RTVSPropertyOp9
 70
     1
102
RTVSPropertyOp10
 70
     1
102
RTVSPropertyOp11
 70
     1
102
RTVSPropertyOp12
 70
     1
102
RTVSPropertyOp13
 70
     1
102
RTVSPropertyOp14
 70
     1
102
RTVSPropertyOp15
 70
     1
102
RTVSPropertyOp16
 70
     1
102
RTVSPropertyOp17
 70
     1
102
RTVSPropertyOp18
 70
     1
102
RTVSPropertyOp19
 70
     1
102
RTVSPropertyOp20
 70
     1
102
RTVSPropertyOp21
 70
     1
102
RTVSPropertyOp22
 70
     1
102
RTVSPropertyOp23
 70
     1
102
RTVSPropertyOp24
 70
     1
102
RTVSPropertyOp25
 70
     1
102
RTVSPropertyOp26
 70
     1
102
RTVSPropertyOp27
 70
     1
102
RTVSPropertyOp28
 70
     1
102
RTVSPropertyOp29
 70
     1
102
RTVSPropertyOp30
 70
     1
102
RTVSPropertyOp31
 70
     1
102
RTVSPropertyOp32
 70
     1
102
RTVSPropertyOp33
 70
     1
102
RTVSPropertyOp34
 70
     1
102
RTVSPropertyOp35
 70
     1
102
RTVSPropertyOp36
 70
     1
102
RTVSPropertyOp37
 70
     1
102
RTVSPropertyOp38
 70
     1
102
RTVSPropertyOp39
 70
     1
102
RTVSPropertyOp40
 70
     1
102
RTVSPropertyOp41
 70
     1
102
RTVSPropertyOp42
 70
     1
102
RTVSPropertyOp43
 70
     1
102
RTVSPropertyOp44
 70
     1
102
RTVSPropertyOp45
 70
     1
102
RTVSPropertyOp46
 70
     1
102
RTVSPropertyOp47
 70
     1
102
RTVSPropertyOp48
 70
     1
102
RTVSPropertyOp49
 70
     1
102
RTVSPropertyOp50
 70
     1
102
RTVSPropertyOp51
 70
     0
102
RTVSPropertyOp52
 70
     0
102
RTVSPropertyOp53
 70
     1
102
RTVSPropertyOp54
 70
     1
102
RTVSPropertyOp55
 70
     1
102
RTVSPropertyOp56
 70
     1
102
RTVSPropertyOp57
 70
     1
102
RTVSPost2010Prop28
280
     0
102
RTVSPost2010PropOp28
 70
     1
102
RTVSPost2010Prop29
280
     1
102
RTVSPost2010PropOp29
 70
     1
102
RTVSPost2010Prop30
280
     1
102
RTVSPost2010PropOp30
 70
     1
102
RTVSPost2010Prop31
280
     0
102
RTVSPost2010PropOp31
 70
     1
102
RTVSPost2010Prop32
280
     0
102
RTVSPost2010PropOp32
 70
     1
102
RTVSPost2010Prop33
280
     0
102
RTVSPost2010PropOp33
 70
     1
102
RTVSPost2010Prop34
280
     0
102
RTVSPost2010PropOp34
 70
     1
102
RTVSPost2010Prop35
280
     0
102
RTVSPost2010PropOp35
 70
     1
102
RTVSPost2010Prop36
280
     0
102
RTVSPost2010PropOp36
 70
     1
102
RTVSPost2010Prop37
 90
       50
102
RTVSPost2010PropOp37
 70
     1
102
RTVSPost2010Prop38
140
0.0
102
RTVSPost2010PropOp38
 70
     1
102
RTVSPost2010Prop39
140
1.0
102
RTVSPost2010PropOp39
 70
     1
102
RTVSPost2010Prop40
 90
        0
102
RTVSPost2010PropOp40
 70
     1
102
RTVSPost2010Prop41ColorIndex
 90
       18
102
RTVSPost2010Prop41ColorRGB
 90
        0
102
RTVSPost2010PropOp41
 70
     1
102
RTVSPost2010Prop42
 90
       50
102
RTVSPost2010PropOp42
 70
     1
102
RTVSPost2010Prop43
 90
        3
102
RTVSPost2010PropOp43
 70
     1
102
RTVSPost2010Prop44ColorIndex
 90
        5
102
RTVSPost2010Prop44ColorRGB
 90
      255
102
RTVSPost2010PropOp44
 70
     1
102
RTVSPost2010Prop45
280
     0
102
RTVSPost2010PropOp45
 70
     1
102
RTVSPost2010Prop46
 90
       50
102
RTVSPost2010PropOp46
 70
     1
102
RTVSPost2010Prop47
 90
       50
102
RTVSPost2010PropOp47
 70
     1
102
RTVSPost2010Prop48
 90
       50
102
RTVSPost2010PropOp48
 70
     1
102
RTVSPost2010Prop49
280
     0
102
RTVSPost2010PropOp49
 70
     1
102
RTVSPost2010Prop50
 90
       50
102
RTVSPost2010PropOp50
 70
     1
102
RTVSPost2010Prop51ColorIndex
 90
      256
102
RTVSPost2010Prop51ColorRGB
 90
-16777216
102
RTVSPost2010PropOp51
 70
     0
102
RTVSPost2010Prop52
140
1.0
102
RTVSPost2010PropOp52
 70
     0
102
RTVSPost2010Prop53
 90
        2
102
RTVSPost2010PropOp53
 70
     1
102
RTVSPost2010Prop54
  1
strokes_ogs.tif
102
RTVSPost2010PropOp54
 70
     1
102
RTVSPost2010Prop55
280
     0
102
RTVSPost2010PropOp55
 70
     1
102
RTVSPost2010Prop56
140
1.0
102
RTVSPost2010PropOp56
 70
     1
102
RTVSPost2010Prop57
140
1.0
102
RTVSPost2010PropOp57
 70
     1
  0
XRECORD
  5
461
102
{ACAD_REACTORS
330
460
102
}
330
460
100
AcDbXrecord
280
     1
102
RTVSPropertyOp0
 70
     0
102
RTVSPropertyOp1
 70
     0
102
RTVSPropertyOp2
 70
     0
102
RTVSPropertyOp3
 70
     0
102
RTVSPropertyOp4
 70
     0
102
RTVSPropertyOp5
 70
     0
102
RTVSPropertyOp6
 70
     0
102
RTVSPropertyOp7
 70
     0
102
RTVSPropertyOp8
 70
     0
102
RTVSPropertyOp9
 70
     0
102
RTVSPropertyOp10
 70
     0
102
RTVSPropertyOp11
 70
     0
102
RTVSPropertyOp12
 70
     0
102
RTVSPropertyOp13
 70
     0
102
RTVSPropertyOp14
 70
     2
102
RTVSPropertyOp15
 70
     0
102
RTVSPropertyOp16
 70
     0
102
RTVSPropertyOp17
 70
     0
102
RTVSPropertyOp18
 70
     0
102
RTVSPropertyOp19
 70
     0
102
RTVSPropertyOp20
 70
     0
102
RTVSPropertyOp21
 70
     0
102
RTVSPropertyOp22
 70
     0
102
RTVSPropertyOp23
 70
     0
102
RTVSPropertyOp24
 70
     0
102
RTVSPropertyOp25
 70
     0
102
RTVSPropertyOp26
 70
     0
102
RTVSPropertyOp27
 70
     0
102
RTVSPropertyOp28
 70
     0
102
RTVSPropertyOp29
 70
     0
102
RTVSPropertyOp30
 70
     0
102
RTVSPropertyOp31
 70
     0
102
RTVSPropertyOp32
 70
     0
102
RTVSPropertyOp33
 70
     0
102
RTVSPropertyOp34
 70
     0
102
RTVSPropertyOp35
 70
     0
102
RTVSPropertyOp36
 70
     0
102
RTVSPropertyOp37
 70
     0
102
RTVSPropertyOp38
 70
     0
102
RTVSPropertyOp39
 70
     0
102
RTVSPropertyOp40
 70
     0
102
RTVSPropertyOp41
 70
     0
102
RTVSPropertyOp42
 70
     0
102
RTVSPropertyOp43
 70
     0
102
RTVSPropertyOp44
 70
     0
102
RTVSPropertyOp45
 70
     0
102
RTVSPropertyOp46
 70
     0
102
RTVSPropertyOp47
 70
     0
102
RTVSPropertyOp48
 70
     0
102
RTVSPropertyOp49
 70
     0
102
RTVSPropertyOp50
 70
     0
102
RTVSPropertyOp51
 70
     0
102
RTVSPropertyOp52
 70
     0
102
RTVSPropertyOp53
 70
     0
102
RTVSPropertyOp54
 70
     0
102
RTVSPropertyOp55
 70
     0
102
RTVSPropertyOp56
 70
     0
102
RTVSPropertyOp57
 70
     0
102
RTVSPost2010Prop28
280
     0
102
RTVSPost2010PropOp28
 70
     0
102
RTVSPost2010Prop29
280
     1
102
RTVSPost2010PropOp29
 70
     0
102
RTVSPost2010Prop30
280
     1
102
RTVSPost2010PropOp30
 70
     0
102
RTVSPost2010Prop31
280
     0
102
RTVSPost2010PropOp31
 70
     0
102
RTVSPost2010Prop32
280
     0
102
RTVSPost2010PropOp32
 70
     0
102
RTVSPost2010Prop33
280
     0
102
RTVSPost2010PropOp33
 70
     0
102
RTVSPost2010Prop34
280
     0
102
RTVSPost2010PropOp34
 70
     0
102
RTVSPost2010Prop35
280
     0
102
RTVSPost2010PropOp35
 70
     0
102
RTVSPost2010Prop36
280
     0
102
RTVSPost2010PropOp36
 70
     0
102
RTVSPost2010Prop37
 90
       50
102
RTVSPost2010PropOp37
 70
     0
102
RTVSPost2010Prop38
140
0.0
102
RTVSPost2010PropOp38
 70
     0
102
RTVSPost2010Prop39
140
1.0
102
RTVSPost2010PropOp39
 70
     0
102
RTVSPost2010Prop40
 90
        0
102
RTVSPost2010PropOp40
 70
     0
102
RTVSPost2010Prop41ColorIndex
 90
       18
102
RTVSPost2010Prop41ColorRGB
 90
        0
102
RTVSPost2010PropOp41
 70
     0
102
RTVSPost2010Prop42
 90
       50
102
RTVSPost2010PropOp42
 70
     0
102
RTVSPost2010Prop43
 90
        3
102
RTVSPost2010PropOp43
 70
     0
102
RTVSPost2010Prop44ColorIndex
 90
        5
102
RTVSPost2010Prop44ColorRGB
 90
      255
102
RTVSPost2010PropOp44
 70
     0
102
RTVSPost2010Prop45
280
     0
102
RTVSPost2010PropOp45
 70
     0
102
RTVSPost2010Prop46
 90
       50
102
RTVSPost2010PropOp46
 70
     0
102
RTVSPost2010Prop47
 90
       50
102
RTVSPost2010PropOp47
 70
     0
102
RTVSPost2010Prop48
 90
       50
102
RTVSPost2010PropOp48
 70
     0
102
RTVSPost2010Prop49
280
     0
102
RTVSPost2010PropOp49
 70
     0
102
RTVSPost2010Prop50
 90
       50
102
RTVSPost2010PropOp50
 70
     0
102
RTVSPost2010Prop51ColorIndex
 90
      256
102
RTVSPost2010Prop51ColorRGB
 90
-16777216
102
RTVSPost2010PropOp51
 70
     0
102
RTVSPost2010Prop52
140
1.0
102
RTVSPost2010PropOp52
 70
     0
102
RTVSPost2010Prop53
 90
        2
102
RTVSPost2010PropOp53
 70
     0
102
RTVSPost2010Prop54
  1
strokes_ogs.tif
102
RTVSPost2010PropOp54
 70
     0
102
RTVSPost2010Prop55
280
     0
102
RTVSPost2010PropOp55
 70
     0
102
RTVSPost2010Prop56
140
1.0
102
RTVSPost2010PropOp56
 70
     0
102
RTVSPost2010Prop57
140
1.0
102
RTVSPost2010PropOp57
 70
     0
  0
XRECORD
  5
44F
102
{ACAD_REACTORS
330
44E
102
}
330
44E
100
AcDbXrecord
280
     1
102
RTVSPropertyOp0
 70
     1
102
RTVSPropertyOp1
 70
     1
102
RTVSPropertyOp2
 70
     1
102
RTVSPropertyOp3
 70
     1
102
RTVSPropertyOp4
 70
     1
102
RTVSPropertyOp5
 70
     1
102
RTVSPropertyOp6
 70
     1
102
RTVSPropertyOp7
 70
     1
102
RTVSPropertyOp8
 70
     1
102
RTVSPropertyOp9
 70
     1
102
RTVSPropertyOp10
 70
     1
102
RTVSPropertyOp11
 70
     1
102
RTVSPropertyOp12
 70
     1
102
RTVSPropertyOp13
 70
     1
102
RTVSPropertyOp14
 70
     1
102
RTVSPropertyOp15
 70
     1
102
RTVSPropertyOp16
 70
     1
102
RTVSPropertyOp17
 70
     1
102
RTVSPropertyOp18
 70
     1
102
RTVSPropertyOp19
 70
     1
102
RTVSPropertyOp20
 70
     1
102
RTVSPropertyOp21
 70
     1
102
RTVSPropertyOp22
 70
     1
102
RTVSPropertyOp23
 70
     1
102
RTVSPropertyOp24
 70
     1
102
RTVSPropertyOp25
 70
     1
102
RTVSPropertyOp26
 70
     1
102
RTVSPropertyOp27
 70
     1
102
RTVSPropertyOp28
 70
     1
102
RTVSPropertyOp29
 70
     1
102
RTVSPropertyOp30
 70
     1
102
RTVSPropertyOp31
 70
     1
102
RTVSPropertyOp32
 70
     1
102
RTVSPropertyOp33
 70
     1
102
RTVSPropertyOp34
 70
     1
102
RTVSPropertyOp35
 70
     1
102
RTVSPropertyOp36
 70
     1
102
RTVSPropertyOp37
 70
     1
102
RTVSPropertyOp38
 70
     1
102
RTVSPropertyOp39
 70
     1
102
RTVSPropertyOp40
 70
     1
102
RTVSPropertyOp41
 70
     1
102
RTVSPropertyOp42
 70
     1
102
RTVSPropertyOp43
 70
     1
102
RTVSPropertyOp44
 70
     1
102
RTVSPropertyOp45
 70
     1
102
RTVSPropertyOp46
 70
     1
102
RTVSPropertyOp47
 70
     1
102
RTVSPropertyOp48
 70
     1
102
RTVSPropertyOp49
 70
     1
102
RTVSPropertyOp50
 70
     1
102
RTVSPropertyOp51
 70
     0
102
RTVSPropertyOp52
 70
     0
102
RTVSPropertyOp53
 70
     1
102
RTVSPropertyOp54
 70
     1
102
RTVSPropertyOp55
 70
     1
102
RTVSPropertyOp56
 70
     1
102
RTVSPropertyOp57
 70
     1
102
RTVSPost2010Prop28
280
     0
102
RTVSPost2010PropOp28
 70
     1
102
RTVSPost2010Prop29
280
     1
102
RTVSPost2010PropOp29
 70
     1
102
RTVSPost2010Prop30
280
     1
102
RTVSPost2010PropOp30
 70
     1
102
RTVSPost2010Prop31
280
     0
102
RTVSPost2010PropOp31
 70
     1
102
RTVSPost2010Prop32
280
     0
102
RTVSPost2010PropOp32
 70
     1
102
RTVSPost2010Prop33
280
     0
102
RTVSPost2010PropOp33
 70
     1
102
RTVSPost2010Prop34
280
     0
102
RTVSPost2010PropOp34
 70
     1
102
RTVSPost2010Prop35
280
     0
102
RTVSPost2010PropOp35
 70
     1
102
RTVSPost2010Prop36
280
     0
102
RTVSPost2010PropOp36
 70
     1
102
RTVSPost2010Prop37
 90
       50
102
RTVSPost2010PropOp37
 70
     1
102
RTVSPost2010Prop38
140
0.0
102
RTVSPost2010PropOp38
 70
     1
102
RTVSPost2010Prop39
140
1.0
102
RTVSPost2010PropOp39
 70
     1
102
RTVSPost2010Prop40
 90
        0
102
RTVSPost2010PropOp40
 70
     1
102
RTVSPost2010Prop41ColorIndex
 90
       18
102
RTVSPost2010Prop41ColorRGB
 90
        0
102
RTVSPost2010PropOp41
 70
     1
102
RTVSPost2010Prop42
 90
       50
102
RTVSPost2010PropOp42
 70
     1
102
RTVSPost2010Prop43
 90
        3
102
RTVSPost2010PropOp43
 70
     1
102
RTVSPost2010Prop44ColorIndex
 90
        5
102
RTVSPost2010Prop44ColorRGB
 90
      255
102
RTVSPost2010PropOp44
 70
     1
102
RTVSPost2010Prop45
280
     0
102
RTVSPost2010PropOp45
 70
     1
102
RTVSPost2010Prop46
 90
       50
102
RTVSPost2010PropOp46
 70
     1
102
RTVSPost2010Prop47
 90
       50
102
RTVSPost2010PropOp47
 70
     1
102
RTVSPost2010Prop48
 90
       50
102
RTVSPost2010PropOp48
 70
     1
102
RTVSPost2010Prop49
280
     0
102
RTVSPost2010PropOp49
 70
     1
102
RTVSPost2010Prop50
 90
       50
102
RTVSPost2010PropOp50
 70
     1
102
RTVSPost2010Prop51ColorIndex
 90
      256
102
RTVSPost2010Prop51ColorRGB
 90
-16777216
102
RTVSPost2010PropOp51
 70
     0
102
RTVSPost2010Prop52
140
1.0
102
RTVSPost2010PropOp52
 70
     0
102
RTVSPost2010Prop53
 90
        2
102
RTVSPost2010PropOp53
 70
     1
102
RTVSPost2010Prop54
  1
strokes_ogs.tif
102
RTVSPost2010PropOp54
 70
     1
102
RTVSPost2010Prop55
280
     0
102
RTVSPost2010PropOp55
 70
     1
102
RTVSPost2010Prop56
140
1.0
102
RTVSPost2010PropOp56
 70
     1
102
RTVSPost2010Prop57
140
1.0
102
RTVSPost2010PropOp57
 70
     1
  0
XRECORD
  5
46D
102
{ACAD_REACTORS
330
46C
102
}
330
46C
100
AcDbXrecord
280
     1
102
RTVSPropertyOp0
 70
     1
102
RTVSPropertyOp1
 70
     1
102
RTVSPropertyOp2
 70
     1
102
RTVSPropertyOp3
 70
     1
102
RTVSPropertyOp4
 70
     1
102
RTVSPropertyOp5
 70
     1
102
RTVSPropertyOp6
 70
     1
102
RTVSPropertyOp7
 70
     1
102
RTVSPropertyOp8
 70
     1
102
RTVSPropertyOp9
 70
     1
102
RTVSPropertyOp10
 70
     1
102
RTVSPropertyOp11
 70
     1
102
RTVSPropertyOp12
 70
     1
102
RTVSPropertyOp13
 70
     1
102
RTVSPropertyOp14
 70
     1
102
RTVSPropertyOp15
 70
     1
102
RTVSPropertyOp16
 70
     1
102
RTVSPropertyOp17
 70
     1
102
RTVSPropertyOp18
 70
     1
102
RTVSPropertyOp19
 70
     1
102
RTVSPropertyOp20
 70
     1
102
RTVSPropertyOp21
 70
     1
102
RTVSPropertyOp22
 70
     1
102
RTVSPropertyOp23
 70
     1
102
RTVSPropertyOp24
 70
     1
102
RTVSPropertyOp25
 70
     1
102
RTVSPropertyOp26
 70
     1
102
RTVSPropertyOp27
 70
     1
102
RTVSPropertyOp28
 70
     1
102
RTVSPropertyOp29
 70
     1
102
RTVSPropertyOp30
 70
     1
102
RTVSPropertyOp31
 70
     1
102
RTVSPropertyOp32
 70
     1
102
RTVSPropertyOp33
 70
     1
102
RTVSPropertyOp34
 70
     1
102
RTVSPropertyOp35
 70
     1
102
RTVSPropertyOp36
 70
     1
102
RTVSPropertyOp37
 70
     1
102
RTVSPropertyOp38
 70
     1
102
RTVSPropertyOp39
 70
     1
102
RTVSPropertyOp40
 70
     1
102
RTVSPropertyOp41
 70
     1
102
RTVSPropertyOp42
 70
     1
102
RTVSPropertyOp43
 70
     1
102
RTVSPropertyOp44
 70
     1
102
RTVSPropertyOp45
 70
     1
102
RTVSPropertyOp46
 70
     1
102
RTVSPropertyOp47
 70
     1
102
RTVSPropertyOp48
 70
     1
102
RTVSPropertyOp49
 70
     1
102
RTVSPropertyOp50
 70
     1
102
RTVSPropertyOp51
 70
     0
102
RTVSPropertyOp52
 70
     0
102
RTVSPropertyOp53
 70
     1
102
RTVSPropertyOp54
 70
     1
102
RTVSPropertyOp55
 70
     1
102
RTVSPropertyOp56
 70
     1
102
RTVSPropertyOp57
 70
     1
102
RTVSPost2010Prop28
280
     0
102
RTVSPost2010PropOp28
 70
     1
102
RTVSPost2010Prop29
280
     1
102
RTVSPost2010PropOp29
 70
     1
102
RTVSPost2010Prop30
280
     1
102
RTVSPost2010PropOp30
 70
     1
102
RTVSPost2010Prop31
280
     0
102
RTVSPost2010PropOp31
 70
     1
102
RTVSPost2010Prop32
280
     0
102
RTVSPost2010PropOp32
 70
     1
102
RTVSPost2010Prop33
280
     0
102
RTVSPost2010PropOp33
 70
     1
102
RTVSPost2010Prop34
280
     0
102
RTVSPost2010PropOp34
 70
     1
102
RTVSPost2010Prop35
280
     0
102
RTVSPost2010PropOp35
 70
     1
102
RTVSPost2010Prop36
280
     0
102
RTVSPost2010PropOp36
 70
     1
102
RTVSPost2010Prop37
 90
       50
102
RTVSPost2010PropOp37
 70
     1
102
RTVSPost2010Prop38
140
0.0
102
RTVSPost2010PropOp38
 70
     1
102
RTVSPost2010Prop39
140
1.0
102
RTVSPost2010PropOp39
 70
     1
102
RTVSPost2010Prop40
 90
        0
102
RTVSPost2010PropOp40
 70
     1
102
RTVSPost2010Prop41ColorIndex
 90
       18
102
RTVSPost2010Prop41ColorRGB
 90
        0
102
RTVSPost2010PropOp41
 70
     1
102
RTVSPost2010Prop42
 90
       50
102
RTVSPost2010PropOp42
 70
     1
102
RTVSPost2010Prop43
 90
        3
102
RTVSPost2010PropOp43
 70
     1
102
RTVSPost2010Prop44ColorIndex
 90
        5
102
RTVSPost2010Prop44ColorRGB
 90
      255
102
RTVSPost2010PropOp44
 70
     1
102
RTVSPost2010Prop45
280
     0
102
RTVSPost2010PropOp45
 70
     1
102
RTVSPost2010Prop46
 90
       50
102
RTVSPost2010PropOp46
 70
     1
102
RTVSPost2010Prop47
 90
       50
102
RTVSPost2010PropOp47
 70
     1
102
RTVSPost2010Prop48
 90
       50
102
RTVSPost2010PropOp48
 70
     1
102
RTVSPost2010Prop49
280
     0
102
RTVSPost2010PropOp49
 70
     1
102
RTVSPost2010Prop50
 90
       50
102
RTVSPost2010PropOp50
 70
     1
102
RTVSPost2010Prop51ColorIndex
 90
      256
102
RTVSPost2010Prop51ColorRGB
 90
-16777216
102
RTVSPost2010PropOp51
 70
     0
102
RTVSPost2010Prop52
140
1.0
102
RTVSPost2010PropOp52
 70
     0
102
RTVSPost2010Prop53
 90
        2
102
RTVSPost2010PropOp53
 70
     1
102
RTVSPost2010Prop54
  1
strokes_ogs.tif
102
RTVSPost2010PropOp54
 70
     1
102
RTVSPost2010Prop55
280
     0
102
RTVSPost2010PropOp55
 70
     1
102
RTVSPost2010Prop56
140
1.0
102
RTVSPost2010PropOp56
 70
     1
102
RTVSPost2010Prop57
140
1.0
102
RTVSPost2010PropOp57
 70
     1
  0
XRECORD
  5
46B
102
{ACAD_REACTORS
330
46A
102
}
330
46A
100
AcDbXrecord
280
     1
102
RTVSPropertyOp0
 70
     1
102
RTVSPropertyOp1
 70
     1
102
RTVSPropertyOp2
 70
     1
102
RTVSPropertyOp3
 70
     1
102
RTVSPropertyOp4
 70
     1
102
RTVSPropertyOp5
 70
     1
102
RTVSPropertyOp6
 70
     1
102
RTVSPropertyOp7
 70
     1
102
RTVSPropertyOp8
 70
     1
102
RTVSPropertyOp9
 70
     1
102
RTVSPropertyOp10
 70
     1
102
RTVSPropertyOp11
 70
     1
102
RTVSPropertyOp12
 70
     1
102
RTVSPropertyOp13
 70
     1
102
RTVSPropertyOp14
 70
     1
102
RTVSPropertyOp15
 70
     1
102
RTVSPropertyOp16
 70
     1
102
RTVSPropertyOp17
 70
     1
102
RTVSPropertyOp18
 70
     1
102
RTVSPropertyOp19
 70
     1
102
RTVSPropertyOp20
 70
     1
102
RTVSPropertyOp21
 70
     1
102
RTVSPropertyOp22
 70
     1
102
RTVSPropertyOp23
 70
     1
102
RTVSPropertyOp24
 70
     1
102
RTVSPropertyOp25
 70
     1
102
RTVSPropertyOp26
 70
     1
102
RTVSPropertyOp27
 70
     1
102
RTVSPropertyOp28
 70
     1
102
RTVSPropertyOp29
 70
     1
102
RTVSPropertyOp30
 70
     1
102
RTVSPropertyOp31
 70
     1
102
RTVSPropertyOp32
 70
     1
102
RTVSPropertyOp33
 70
     1
102
RTVSPropertyOp34
 70
     1
102
RTVSPropertyOp35
 70
     1
102
RTVSPropertyOp36
 70
     1
102
RTVSPropertyOp37
 70
     1
102
RTVSPropertyOp38
 70
     1
102
RTVSPropertyOp39
 70
     1
102
RTVSPropertyOp40
 70
     1
102
RTVSPropertyOp41
 70
     1
102
RTVSPropertyOp42
 70
     1
102
RTVSPropertyOp43
 70
     1
102
RTVSPropertyOp44
 70
     1
102
RTVSPropertyOp45
 70
     1
102
RTVSPropertyOp46
 70
     1
102
RTVSPropertyOp47
 70
     1
102
RTVSPropertyOp48
 70
     1
102
RTVSPropertyOp49
 70
     1
102
RTVSPropertyOp50
 70
     1
102
RTVSPropertyOp51
 70
     0
102
RTVSPropertyOp52
 70
     0
102
RTVSPropertyOp53
 70
     1
102
RTVSPropertyOp54
 70
     1
102
RTVSPropertyOp55
 70
     1
102
RTVSPropertyOp56
 70
     1
102
RTVSPropertyOp57
 70
     1
102
RTVSPost2010Prop28
280
     0
102
RTVSPost2010PropOp28
 70
     1
102
RTVSPost2010Prop29
280
     1
102
RTVSPost2010PropOp29
 70
     1
102
RTVSPost2010Prop30
280
     1
102
RTVSPost2010PropOp30
 70
     1
102
RTVSPost2010Prop31
280
     0
102
RTVSPost2010PropOp31
 70
     1
102
RTVSPost2010Prop32
280
     0
102
RTVSPost2010PropOp32
 70
     1
102
RTVSPost2010Prop33
280
     0
102
RTVSPost2010PropOp33
 70
     1
102
RTVSPost2010Prop34
280
     0
102
RTVSPost2010PropOp34
 70
     1
102
RTVSPost2010Prop35
280
     0
102
RTVSPost2010PropOp35
 70
     1
102
RTVSPost2010Prop36
280
     0
102
RTVSPost2010PropOp36
 70
     1
102
RTVSPost2010Prop37
 90
       50
102
RTVSPost2010PropOp37
 70
     1
102
RTVSPost2010Prop38
140
0.0
102
RTVSPost2010PropOp38
 70
     1
102
RTVSPost2010Prop39
140
1.0
102
RTVSPost2010PropOp39
 70
     1
102
RTVSPost2010Prop40
 90
        0
102
RTVSPost2010PropOp40
 70
     1
102
RTVSPost2010Prop41ColorIndex
 90
       18
102
RTVSPost2010Prop41ColorRGB
 90
        0
102
RTVSPost2010PropOp41
 70
     1
102
RTVSPost2010Prop42
 90
       50
102
RTVSPost2010PropOp42
 70
     1
102
RTVSPost2010Prop43
 90
        3
102
RTVSPost2010PropOp43
 70
     1
102
RTVSPost2010Prop44ColorIndex
 90
        5
102
RTVSPost2010Prop44ColorRGB
 90
      255
102
RTVSPost2010PropOp44
 70
     1
102
RTVSPost2010Prop45
280
     0
102
RTVSPost2010PropOp45
 70
     1
102
RTVSPost2010Prop46
 90
       50
102
RTVSPost2010PropOp46
 70
     1
102
RTVSPost2010Prop47
 90
       50
102
RTVSPost2010PropOp47
 70
     1
102
RTVSPost2010Prop48
 90
       50
102
RTVSPost2010PropOp48
 70
     1
102
RTVSPost2010Prop49
280
     0
102
RTVSPost2010PropOp49
 70
     1
102
RTVSPost2010Prop50
 90
       50
102
RTVSPost2010PropOp50
 70
     1
102
RTVSPost2010Prop51ColorIndex
 90
      256
102
RTVSPost2010Prop51ColorRGB
 90
-16777216
102
RTVSPost2010PropOp51
 70
     0
102
RTVSPost2010Prop52
140
1.0
102
RTVSPost2010PropOp52
 70
     0
102
RTVSPost2010Prop53
 90
        2
102
RTVSPost2010PropOp53
 70
     1
102
RTVSPost2010Prop54
  1
strokes_ogs.tif
102
RTVSPost2010PropOp54
 70
     1
102
RTVSPost2010Prop55
280
     0
102
RTVSPost2010PropOp55
 70
     1
102
RTVSPost2010Prop56
140
1.0
102
RTVSPost2010PropOp56
 70
     1
102
RTVSPost2010Prop57
140
1.0
102
RTVSPost2010PropOp57
 70
     1
  0
XRECORD
  5
465
102
{ACAD_REACTORS
330
464
102
}
330
464
100
AcDbXrecord
280
     1
102
RTVSPropertyOp0
 70
     1
102
RTVSPropertyOp1
 70
     1
102
RTVSPropertyOp2
 70
     1
102
RTVSPropertyOp3
 70
     1
102
RTVSPropertyOp4
 70
     1
102
RTVSPropertyOp5
 70
     1
102
RTVSPropertyOp6
 70
     1
102
RTVSPropertyOp7
 70
     1
102
RTVSPropertyOp8
 70
     1
102
RTVSPropertyOp9
 70
     1
102
RTVSPropertyOp10
 70
     1
102
RTVSPropertyOp11
 70
     1
102
RTVSPropertyOp12
 70
     1
102
RTVSPropertyOp13
 70
     1
102
RTVSPropertyOp14
 70
     1
102
RTVSPropertyOp15
 70
     1
102
RTVSPropertyOp16
 70
     1
102
RTVSPropertyOp17
 70
     1
102
RTVSPropertyOp18
 70
     1
102
RTVSPropertyOp19
 70
     1
102
RTVSPropertyOp20
 70
     1
102
RTVSPropertyOp21
 70
     1
102
RTVSPropertyOp22
 70
     1
102
RTVSPropertyOp23
 70
     1
102
RTVSPropertyOp24
 70
     1
102
RTVSPropertyOp25
 70
     1
102
RTVSPropertyOp26
 70
     1
102
RTVSPropertyOp27
 70
     1
102
RTVSPropertyOp28
 70
     1
102
RTVSPropertyOp29
 70
     1
102
RTVSPropertyOp30
 70
     1
102
RTVSPropertyOp31
 70
     1
102
RTVSPropertyOp32
 70
     1
102
RTVSPropertyOp33
 70
     1
102
RTVSPropertyOp34
 70
     1
102
RTVSPropertyOp35
 70
     1
102
RTVSPropertyOp36
 70
     1
102
RTVSPropertyOp37
 70
     1
102
RTVSPropertyOp38
 70
     1
102
RTVSPropertyOp39
 70
     1
102
RTVSPropertyOp40
 70
     1
102
RTVSPropertyOp41
 70
     1
102
RTVSPropertyOp42
 70
     1
102
RTVSPropertyOp43
 70
     1
102
RTVSPropertyOp44
 70
     1
102
RTVSPropertyOp45
 70
     1
102
RTVSPropertyOp46
 70
     1
102
RTVSPropertyOp47
 70
     1
102
RTVSPropertyOp48
 70
     1
102
RTVSPropertyOp49
 70
     1
102
RTVSPropertyOp50
 70
     1
102
RTVSPropertyOp51
 70
     0
102
RTVSPropertyOp52
 70
     0
102
RTVSPropertyOp53
 70
     1
102
RTVSPropertyOp54
 70
     1
102
RTVSPropertyOp55
 70
     1
102
RTVSPropertyOp56
 70
     1
102
RTVSPropertyOp57
 70
     1
102
RTVSPost2010Prop28
280
     0
102
RTVSPost2010PropOp28
 70
     1
102
RTVSPost2010Prop29
280
     1
102
RTVSPost2010PropOp29
 70
     1
102
RTVSPost2010Prop30
280
     1
102
RTVSPost2010PropOp30
 70
     1
102
RTVSPost2010Prop31
280
     0
102
RTVSPost2010PropOp31
 70
     1
102
RTVSPost2010Prop32
280
     0
102
RTVSPost2010PropOp32
 70
     1
102
RTVSPost2010Prop33
280
     0
102
RTVSPost2010PropOp33
 70
     1
102
RTVSPost2010Prop34
280
     0
102
RTVSPost2010PropOp34
 70
     1
102
RTVSPost2010Prop35
280
     0
102
RTVSPost2010PropOp35
 70
     1
102
RTVSPost2010Prop36
280
     0
102
RTVSPost2010PropOp36
 70
     1
102
RTVSPost2010Prop37
 90
       50
102
RTVSPost2010PropOp37
 70
     1
102
RTVSPost2010Prop38
140
0.0
102
RTVSPost2010PropOp38
 70
     1
102
RTVSPost2010Prop39
140
1.0
102
RTVSPost2010PropOp39
 70
     1
102
RTVSPost2010Prop40
 90
        0
102
RTVSPost2010PropOp40
 70
     1
102
RTVSPost2010Prop41ColorIndex
 90
       18
102
RTVSPost2010Prop41ColorRGB
 90
        0
102
RTVSPost2010PropOp41
 70
     1
102
RTVSPost2010Prop42
 90
       50
102
RTVSPost2010PropOp42
 70
     1
102
RTVSPost2010Prop43
 90
        3
102
RTVSPost2010PropOp43
 70
     1
102
RTVSPost2010Prop44ColorIndex
 90
        5
102
RTVSPost2010Prop44ColorRGB
 90
      255
102
RTVSPost2010PropOp44
 70
     1
102
RTVSPost2010Prop45
280
     0
102
RTVSPost2010PropOp45
 70
     1
102
RTVSPost2010Prop46
 90
       50
102
RTVSPost2010PropOp46
 70
     1
102
RTVSPost2010Prop47
 90
       50
102
RTVSPost2010PropOp47
 70
     1
102
RTVSPost2010Prop48
 90
       50
102
RTVSPost2010PropOp48
 70
     1
102
RTVSPost2010Prop49
280
     0
102
RTVSPost2010PropOp49
 70
     1
102
RTVSPost2010Prop50
 90
       50
102
RTVSPost2010PropOp50
 70
     1
102
RTVSPost2010Prop51ColorIndex
 90
      256
102
RTVSPost2010Prop51ColorRGB
 90
-16777216
102
RTVSPost2010PropOp51
 70
     0
102
RTVSPost2010Prop52
140
1.0
102
RTVSPost2010PropOp52
 70
     0
102
RTVSPost2010Prop53
 90
        2
102
RTVSPost2010PropOp53
 70
     1
102
RTVSPost2010Prop54
  1
strokes_ogs.tif
102
RTVSPost2010PropOp54
 70
     1
102
RTVSPost2010Prop55
280
     0
102
RTVSPost2010PropOp55
 70
     1
102
RTVSPost2010Prop56
140
1.0
102
RTVSPost2010PropOp56
 70
     1
102
RTVSPost2010Prop57
140
1.0
102
RTVSPost2010PropOp57
 70
     1
  0
XRECORD
  5
467
102
{ACAD_REACTORS
330
466
102
}
330
466
100
AcDbXrecord
280
     1
102
RTVSPropertyOp0
 70
     1
102
RTVSPropertyOp1
 70
     1
102
RTVSPropertyOp2
 70
     1
102
RTVSPropertyOp3
 70
     1
102
RTVSPropertyOp4
 70
     1
102
RTVSPropertyOp5
 70
     1
102
RTVSPropertyOp6
 70
     1
102
RTVSPropertyOp7
 70
     1
102
RTVSPropertyOp8
 70
     1
102
RTVSPropertyOp9
 70
     1
102
RTVSPropertyOp10
 70
     1
102
RTVSPropertyOp11
 70
     1
102
RTVSPropertyOp12
 70
     1
102
RTVSPropertyOp13
 70
     1
102
RTVSPropertyOp14
 70
     1
102
RTVSPropertyOp15
 70
     1
102
RTVSPropertyOp16
 70
     1
102
RTVSPropertyOp17
 70
     1
102
RTVSPropertyOp18
 70
     1
102
RTVSPropertyOp19
 70
     1
102
RTVSPropertyOp20
 70
     1
102
RTVSPropertyOp21
 70
     1
102
RTVSPropertyOp22
 70
     1
102
RTVSPropertyOp23
 70
     1
102
RTVSPropertyOp24
 70
     1
102
RTVSPropertyOp25
 70
     1
102
RTVSPropertyOp26
 70
     1
102
RTVSPropertyOp27
 70
     1
102
RTVSPropertyOp28
 70
     1
102
RTVSPropertyOp29
 70
     1
102
RTVSPropertyOp30
 70
     1
102
RTVSPropertyOp31
 70
     1
102
RTVSPropertyOp32
 70
     1
102
RTVSPropertyOp33
 70
     1
102
RTVSPropertyOp34
 70
     1
102
RTVSPropertyOp35
 70
     1
102
RTVSPropertyOp36
 70
     1
102
RTVSPropertyOp37
 70
     1
102
RTVSPropertyOp38
 70
     1
102
RTVSPropertyOp39
 70
     1
102
RTVSPropertyOp40
 70
     1
102
RTVSPropertyOp41
 70
     1
102
RTVSPropertyOp42
 70
     1
102
RTVSPropertyOp43
 70
     1
102
RTVSPropertyOp44
 70
     1
102
RTVSPropertyOp45
 70
     1
102
RTVSPropertyOp46
 70
     1
102
RTVSPropertyOp47
 70
     1
102
RTVSPropertyOp48
 70
     1
102
RTVSPropertyOp49
 70
     1
102
RTVSPropertyOp50
 70
     1
102
RTVSPropertyOp51
 70
     0
102
RTVSPropertyOp52
 70
     0
102
RTVSPropertyOp53
 70
     1
102
RTVSPropertyOp54
 70
     1
102
RTVSPropertyOp55
 70
     1
102
RTVSPropertyOp56
 70
     1
102
RTVSPropertyOp57
 70
     1
102
RTVSPost2010Prop28
280
     0
102
RTVSPost2010PropOp28
 70
     1
102
RTVSPost2010Prop29
280
     1
102
RTVSPost2010PropOp29
 70
     1
102
RTVSPost2010Prop30
280
     1
102
RTVSPost2010PropOp30
 70
     1
102
RTVSPost2010Prop31
280
     0
102
RTVSPost2010PropOp31
 70
     1
102
RTVSPost2010Prop32
280
     0
102
RTVSPost2010PropOp32
 70
     1
102
RTVSPost2010Prop33
280
     0
102
RTVSPost2010PropOp33
 70
     1
102
RTVSPost2010Prop34
280
     0
102
RTVSPost2010PropOp34
 70
     1
102
RTVSPost2010Prop35
280
     0
102
RTVSPost2010PropOp35
 70
     1
102
RTVSPost2010Prop36
280
     0
102
RTVSPost2010PropOp36
 70
     1
102
RTVSPost2010Prop37
 90
       50
102
RTVSPost2010PropOp37
 70
     1
102
RTVSPost2010Prop38
140
0.0
102
RTVSPost2010PropOp38
 70
     1
102
RTVSPost2010Prop39
140
1.0
102
RTVSPost2010PropOp39
 70
     1
102
RTVSPost2010Prop40
 90
        0
102
RTVSPost2010PropOp40
 70
     1
102
RTVSPost2010Prop41ColorIndex
 90
       18
102
RTVSPost2010Prop41ColorRGB
 90
        0
102
RTVSPost2010PropOp41
 70
     1
102
RTVSPost2010Prop42
 90
       50
102
RTVSPost2010PropOp42
 70
     1
102
RTVSPost2010Prop43
 90
        3
102
RTVSPost2010PropOp43
 70
     1
102
RTVSPost2010Prop44ColorIndex
 90
        5
102
RTVSPost2010Prop44ColorRGB
 90
      255
102
RTVSPost2010PropOp44
 70
     1
102
RTVSPost2010Prop45
280
     0
102
RTVSPost2010PropOp45
 70
     1
102
RTVSPost2010Prop46
 90
       50
102
RTVSPost2010PropOp46
 70
     1
102
RTVSPost2010Prop47
 90
       50
102
RTVSPost2010PropOp47
 70
     1
102
RTVSPost2010Prop48
 90
       50
102
RTVSPost2010PropOp48
 70
     1
102
RTVSPost2010Prop49
280
     0
102
RTVSPost2010PropOp49
 70
     1
102
RTVSPost2010Prop50
 90
       50
102
RTVSPost2010PropOp50
 70
     1
102
RTVSPost2010Prop51ColorIndex
 90
      256
102
RTVSPost2010Prop51ColorRGB
 90
-16777216
102
RTVSPost2010PropOp51
 70
     0
102
RTVSPost2010Prop52
140
1.0
102
RTVSPost2010PropOp52
 70
     0
102
RTVSPost2010Prop53
 90
        2
102
RTVSPost2010PropOp53
 70
     1
102
RTVSPost2010Prop54
  1
strokes_ogs.tif
102
RTVSPost2010PropOp54
 70
     1
102
RTVSPost2010Prop55
280
     0
102
RTVSPost2010PropOp55
 70
     1
102
RTVSPost2010Prop56
140
1.0
102
RTVSPost2010PropOp56
 70
     1
102
RTVSPost2010Prop57
140
1.0
102
RTVSPost2010PropOp57
 70
     1
  0
XRECORD
  5
457
102
{ACAD_REACTORS
330
456
102
}
330
456
100
AcDbXrecord
280
     1
102
RTVSPropertyOp0
 70
     1
102
RTVSPropertyOp1
 70
     1
102
RTVSPropertyOp2
 70
     1
102
RTVSPropertyOp3
 70
     1
102
RTVSPropertyOp4
 70
     1
102
RTVSPropertyOp5
 70
     1
102
RTVSPropertyOp6
 70
     1
102
RTVSPropertyOp7
 70
     1
102
RTVSPropertyOp8
 70
     1
102
RTVSPropertyOp9
 70
     1
102
RTVSPropertyOp10
 70
     1
102
RTVSPropertyOp11
 70
     1
102
RTVSPropertyOp12
 70
     1
102
RTVSPropertyOp13
 70
     1
102
RTVSPropertyOp14
 70
     1
102
RTVSPropertyOp15
 70
     1
102
RTVSPropertyOp16
 70
     1
102
RTVSPropertyOp17
 70
     1
102
RTVSPropertyOp18
 70
     1
102
RTVSPropertyOp19
 70
     1
102
RTVSPropertyOp20
 70
     1
102
RTVSPropertyOp21
 70
     1
102
RTVSPropertyOp22
 70
     1
102
RTVSPropertyOp23
 70
     1
102
RTVSPropertyOp24
 70
     1
102
RTVSPropertyOp25
 70
     1
102
RTVSPropertyOp26
 70
     1
102
RTVSPropertyOp27
 70
     1
102
RTVSPropertyOp28
 70
     1
102
RTVSPropertyOp29
 70
     1
102
RTVSPropertyOp30
 70
     1
102
RTVSPropertyOp31
 70
     1
102
RTVSPropertyOp32
 70
     1
102
RTVSPropertyOp33
 70
     1
102
RTVSPropertyOp34
 70
     1
102
RTVSPropertyOp35
 70
     1
102
RTVSPropertyOp36
 70
     1
102
RTVSPropertyOp37
 70
     1
102
RTVSPropertyOp38
 70
     1
102
RTVSPropertyOp39
 70
     1
102
RTVSPropertyOp40
 70
     1
102
RTVSPropertyOp41
 70
     1
102
RTVSPropertyOp42
 70
     1
102
RTVSPropertyOp43
 70
     1
102
RTVSPropertyOp44
 70
     1
102
RTVSPropertyOp45
 70
     1
102
RTVSPropertyOp46
 70
     1
102
RTVSPropertyOp47
 70
     1
102
RTVSPropertyOp48
 70
     1
102
RTVSPropertyOp49
 70
     1
102
RTVSPropertyOp50
 70
     1
102
RTVSPropertyOp51
 70
     0
102
RTVSPropertyOp52
 70
     0
102
RTVSPropertyOp53
 70
     1
102
RTVSPropertyOp54
 70
     1
102
RTVSPropertyOp55
 70
     1
102
RTVSPropertyOp56
 70
     1
102
RTVSPropertyOp57
 70
     1
102
RTVSPost2010Prop28
280
     0
102
RTVSPost2010PropOp28
 70
     1
102
RTVSPost2010Prop29
280
     1
102
RTVSPost2010PropOp29
 70
     1
102
RTVSPost2010Prop30
280
     1
102
RTVSPost2010PropOp30
 70
     1
102
RTVSPost2010Prop31
280
     0
102
RTVSPost2010PropOp31
 70
     1
102
RTVSPost2010Prop32
280
     0
102
RTVSPost2010PropOp32
 70
     1
102
RTVSPost2010Prop33
280
     0
102
RTVSPost2010PropOp33
 70
     1
102
RTVSPost2010Prop34
280
     0
102
RTVSPost2010PropOp34
 70
     1
102
RTVSPost2010Prop35
280
     0
102
RTVSPost2010PropOp35
 70
     1
102
RTVSPost2010Prop36
280
     0
102
RTVSPost2010PropOp36
 70
     1
102
RTVSPost2010Prop37
 90
       50
102
RTVSPost2010PropOp37
 70
     1
102
RTVSPost2010Prop38
140
0.0
102
RTVSPost2010PropOp38
 70
     1
102
RTVSPost2010Prop39
140
1.0
102
RTVSPost2010PropOp39
 70
     1
102
RTVSPost2010Prop40
 90
        0
102
RTVSPost2010PropOp40
 70
     1
102
RTVSPost2010Prop41ColorIndex
 90
       18
102
RTVSPost2010Prop41ColorRGB
 90
        0
102
RTVSPost2010PropOp41
 70
     1
102
RTVSPost2010Prop42
 90
       50
102
RTVSPost2010PropOp42
 70
     1
102
RTVSPost2010Prop43
 90
        3
102
RTVSPost2010PropOp43
 70
     1
102
RTVSPost2010Prop44ColorIndex
 90
        5
102
RTVSPost2010Prop44ColorRGB
 90
      255
102
RTVSPost2010PropOp44
 70
     1
102
RTVSPost2010Prop45
280
     0
102
RTVSPost2010PropOp45
 70
     1
102
RTVSPost2010Prop46
 90
       50
102
RTVSPost2010PropOp46
 70
     1
102
RTVSPost2010Prop47
 90
       50
102
RTVSPost2010PropOp47
 70
     1
102
RTVSPost2010Prop48
 90
       50
102
RTVSPost2010PropOp48
 70
     1
102
RTVSPost2010Prop49
280
     0
102
RTVSPost2010PropOp49
 70
     1
102
RTVSPost2010Prop50
 90
       50
102
RTVSPost2010PropOp50
 70
     1
102
RTVSPost2010Prop51ColorIndex
 90
      256
102
RTVSPost2010Prop51ColorRGB
 90
-16777216
102
RTVSPost2010PropOp51
 70
     0
102
RTVSPost2010Prop52
140
1.0
102
RTVSPost2010PropOp52
 70
     0
102
RTVSPost2010Prop53
 90
        2
102
RTVSPost2010PropOp53
 70
     1
102
RTVSPost2010Prop54
  1
strokes_ogs.tif
102
RTVSPost2010PropOp54
 70
     1
102
RTVSPost2010Prop55
280
     0
102
RTVSPost2010PropOp55
 70
     1
102
RTVSPost2010Prop56
140
1.0
102
RTVSPost2010PropOp56
 70
     1
102
RTVSPost2010Prop57
140
1.0
102
RTVSPost2010PropOp57
 70
     1
  0
XRECORD
  5
449
102
{ACAD_REACTORS
330
448
102
}
330
448
100
AcDbXrecord
280
     1
102
RTVSPropertyOp0
 70
     1
102
RTVSPropertyOp1
 70
     1
102
RTVSPropertyOp2
 70
     1
102
RTVSPropertyOp3
 70
     1
102
RTVSPropertyOp4
 70
     1
102
RTVSPropertyOp5
 70
     1
102
RTVSPropertyOp6
 70
     1
102
RTVSPropertyOp7
 70
     1
102
RTVSPropertyOp8
 70
     1
102
RTVSPropertyOp9
 70
     1
102
RTVSPropertyOp10
 70
     1
102
RTVSPropertyOp11
 70
     1
102
RTVSPropertyOp12
 70
     1
102
RTVSPropertyOp13
 70
     1
102
RTVSPropertyOp14
 70
     1
102
RTVSPropertyOp15
 70
     1
102
RTVSPropertyOp16
 70
     1
102
RTVSPropertyOp17
 70
     1
102
RTVSPropertyOp18
 70
     1
102
RTVSPropertyOp19
 70
     1
102
RTVSPropertyOp20
 70
     1
102
RTVSPropertyOp21
 70
     1
102
RTVSPropertyOp22
 70
     1
102
RTVSPropertyOp23
 70
     1
102
RTVSPropertyOp24
 70
     1
102
RTVSPropertyOp25
 70
     1
102
RTVSPropertyOp26
 70
     1
102
RTVSPropertyOp27
 70
     1
102
RTVSPropertyOp28
 70
     1
102
RTVSPropertyOp29
 70
     1
102
RTVSPropertyOp30
 70
     1
102
RTVSPropertyOp31
 70
     1
102
RTVSPropertyOp32
 70
     1
102
RTVSPropertyOp33
 70
     1
102
RTVSPropertyOp34
 70
     1
102
RTVSPropertyOp35
 70
     1
102
RTVSPropertyOp36
 70
     1
102
RTVSPropertyOp37
 70
     1
102
RTVSPropertyOp38
 70
     1
102
RTVSPropertyOp39
 70
     1
102
RTVSPropertyOp40
 70
     1
102
RTVSPropertyOp41
 70
     1
102
RTVSPropertyOp42
 70
     1
102
RTVSPropertyOp43
 70
     1
102
RTVSPropertyOp44
 70
     1
102
RTVSPropertyOp45
 70
     1
102
RTVSPropertyOp46
 70
     1
102
RTVSPropertyOp47
 70
     1
102
RTVSPropertyOp48
 70
     1
102
RTVSPropertyOp49
 70
     1
102
RTVSPropertyOp50
 70
     1
102
RTVSPropertyOp51
 70
     0
102
RTVSPropertyOp52
 70
     0
102
RTVSPropertyOp53
 70
     1
102
RTVSPropertyOp54
 70
     1
102
RTVSPropertyOp55
 70
     1
102
RTVSPropertyOp56
 70
     1
102
RTVSPropertyOp57
 70
     1
102
RTVSPost2010Prop28
280
     0
102
RTVSPost2010PropOp28
 70
     1
102
RTVSPost2010Prop29
280
     1
102
RTVSPost2010PropOp29
 70
     1
102
RTVSPost2010Prop30
280
     1
102
RTVSPost2010PropOp30
 70
     1
102
RTVSPost2010Prop31
280
     0
102
RTVSPost2010PropOp31
 70
     1
102
RTVSPost2010Prop32
280
     0
102
RTVSPost2010PropOp32
 70
     1
102
RTVSPost2010Prop33
280
     0
102
RTVSPost2010PropOp33
 70
     1
102
RTVSPost2010Prop34
280
     0
102
RTVSPost2010PropOp34
 70
     1
102
RTVSPost2010Prop35
280
     0
102
RTVSPost2010PropOp35
 70
     1
102
RTVSPost2010Prop36
280
     0
102
RTVSPost2010PropOp36
 70
     1
102
RTVSPost2010Prop37
 90
       50
102
RTVSPost2010PropOp37
 70
     1
102
RTVSPost2010Prop38
140
0.0
102
RTVSPost2010PropOp38
 70
     1
102
RTVSPost2010Prop39
140
1.0
102
RTVSPost2010PropOp39
 70
     1
102
RTVSPost2010Prop40
 90
        0
102
RTVSPost2010PropOp40
 70
     1
102
RTVSPost2010Prop41ColorIndex
 90
       18
102
RTVSPost2010Prop41ColorRGB
 90
        0
102
RTVSPost2010PropOp41
 70
     1
102
RTVSPost2010Prop42
 90
       50
102
RTVSPost2010PropOp42
 70
     1
102
RTVSPost2010Prop43
 90
        3
102
RTVSPost2010PropOp43
 70
     1
102
RTVSPost2010Prop44ColorIndex
 90
        5
102
RTVSPost2010Prop44ColorRGB
 90
      255
102
RTVSPost2010PropOp44
 70
     1
102
RTVSPost2010Prop45
280
     0
102
RTVSPost2010PropOp45
 70
     1
102
RTVSPost2010Prop46
 90
       50
102
RTVSPost2010PropOp46
 70
     1
102
RTVSPost2010Prop47
 90
       50
102
RTVSPost2010PropOp47
 70
     1
102
RTVSPost2010Prop48
 90
       50
102
RTVSPost2010PropOp48
 70
     1
102
RTVSPost2010Prop49
280
     0
102
RTVSPost2010PropOp49
 70
     1
102
RTVSPost2010Prop50
 90
       50
102
RTVSPost2010PropOp50
 70
     1
102
RTVSPost2010Prop51ColorIndex
 90
      256
102
RTVSPost2010Prop51ColorRGB
 90
-16777216
102
RTVSPost2010PropOp51
 70
     0
102
RTVSPost2010Prop52
140
1.0
102
RTVSPost2010PropOp52
 70
     0
102
RTVSPost2010Prop53
 90
        2
102
RTVSPost2010PropOp53
 70
     1
102
RTVSPost2010Prop54
  1
strokes_ogs.tif
102
RTVSPost2010PropOp54
 70
     1
102
RTVSPost2010Prop55
280
     0
102
RTVSPost2010PropOp55
 70
     1
102
RTVSPost2010Prop56
140
1.0
102
RTVSPost2010PropOp56
 70
     1
102
RTVSPost2010Prop57
140
1.0
102
RTVSPost2010PropOp57
 70
     1
  0
XRECORD
  5
469
102
{ACAD_REACTORS
330
468
102
}
330
468
100
AcDbXrecord
280
     1
102
RTVSPropertyOp0
 70
     1
102
RTVSPropertyOp1
 70
     1
102
RTVSPropertyOp2
 70
     1
102
RTVSPropertyOp3
 70
     1
102
RTVSPropertyOp4
 70
     1
102
RTVSPropertyOp5
 70
     1
102
RTVSPropertyOp6
 70
     1
102
RTVSPropertyOp7
 70
     1
102
RTVSPropertyOp8
 70
     1
102
RTVSPropertyOp9
 70
     1
102
RTVSPropertyOp10
 70
     1
102
RTVSPropertyOp11
 70
     1
102
RTVSPropertyOp12
 70
     1
102
RTVSPropertyOp13
 70
     1
102
RTVSPropertyOp14
 70
     1
102
RTVSPropertyOp15
 70
     1
102
RTVSPropertyOp16
 70
     1
102
RTVSPropertyOp17
 70
     1
102
RTVSPropertyOp18
 70
     1
102
RTVSPropertyOp19
 70
     1
102
RTVSPropertyOp20
 70
     1
102
RTVSPropertyOp21
 70
     1
102
RTVSPropertyOp22
 70
     1
102
RTVSPropertyOp23
 70
     1
102
RTVSPropertyOp24
 70
     1
102
RTVSPropertyOp25
 70
     1
102
RTVSPropertyOp26
 70
     1
102
RTVSPropertyOp27
 70
     1
102
RTVSPropertyOp28
 70
     1
102
RTVSPropertyOp29
 70
     1
102
RTVSPropertyOp30
 70
     1
102
RTVSPropertyOp31
 70
     1
102
RTVSPropertyOp32
 70
     1
102
RTVSPropertyOp33
 70
     1
102
RTVSPropertyOp34
 70
     1
102
RTVSPropertyOp35
 70
     1
102
RTVSPropertyOp36
 70
     1
102
RTVSPropertyOp37
 70
     1
102
RTVSPropertyOp38
 70
     1
102
RTVSPropertyOp39
 70
     1
102
RTVSPropertyOp40
 70
     1
102
RTVSPropertyOp41
 70
     1
102
RTVSPropertyOp42
 70
     1
102
RTVSPropertyOp43
 70
     1
102
RTVSPropertyOp44
 70
     1
102
RTVSPropertyOp45
 70
     1
102
RTVSPropertyOp46
 70
     1
102
RTVSPropertyOp47
 70
     1
102
RTVSPropertyOp48
 70
     1
102
RTVSPropertyOp49
 70
     1
102
RTVSPropertyOp50
 70
     1
102
RTVSPropertyOp51
 70
     0
102
RTVSPropertyOp52
 70
     0
102
RTVSPropertyOp53
 70
     1
102
RTVSPropertyOp54
 70
     1
102
RTVSPropertyOp55
 70
     1
102
RTVSPropertyOp56
 70
     1
102
RTVSPropertyOp57
 70
     1
102
RTVSPost2010Prop28
280
     0
102
RTVSPost2010PropOp28
 70
     1
102
RTVSPost2010Prop29
280
     1
102
RTVSPost2010PropOp29
 70
     1
102
RTVSPost2010Prop30
280
     1
102
RTVSPost2010PropOp30
 70
     1
102
RTVSPost2010Prop31
280
     0
102
RTVSPost2010PropOp31
 70
     1
102
RTVSPost2010Prop32
280
     0
102
RTVSPost2010PropOp32
 70
     1
102
RTVSPost2010Prop33
280
     0
102
RTVSPost2010PropOp33
 70
     1
102
RTVSPost2010Prop34
280
     0
102
RTVSPost2010PropOp34
 70
     1
102
RTVSPost2010Prop35
280
     0
102
RTVSPost2010PropOp35
 70
     1
102
RTVSPost2010Prop36
280
     0
102
RTVSPost2010PropOp36
 70
     1
102
RTVSPost2010Prop37
 90
       50
102
RTVSPost2010PropOp37
 70
     1
102
RTVSPost2010Prop38
140
0.0
102
RTVSPost2010PropOp38
 70
     1
102
RTVSPost2010Prop39
140
1.0
102
RTVSPost2010PropOp39
 70
     1
102
RTVSPost2010Prop40
 90
        0
102
RTVSPost2010PropOp40
 70
     1
102
RTVSPost2010Prop41ColorIndex
 90
       18
102
RTVSPost2010Prop41ColorRGB
 90
        0
102
RTVSPost2010PropOp41
 70
     1
102
RTVSPost2010Prop42
 90
       50
102
RTVSPost2010PropOp42
 70
     1
102
RTVSPost2010Prop43
 90
        3
102
RTVSPost2010PropOp43
 70
     1
102
RTVSPost2010Prop44ColorIndex
 90
        5
102
RTVSPost2010Prop44ColorRGB
 90
      255
102
RTVSPost2010PropOp44
 70
     1
102
RTVSPost2010Prop45
280
     0
102
RTVSPost2010PropOp45
 70
     1
102
RTVSPost2010Prop46
 90
       50
102
RTVSPost2010PropOp46
 70
     1
102
RTVSPost2010Prop47
 90
       50
102
RTVSPost2010PropOp47
 70
     1
102
RTVSPost2010Prop48
 90
       50
102
RTVSPost2010PropOp48
 70
     1
102
RTVSPost2010Prop49
280
     0
102
RTVSPost2010PropOp49
 70
     1
102
RTVSPost2010Prop50
 90
       50
102
RTVSPost2010PropOp50
 70
     1
102
RTVSPost2010Prop51ColorIndex
 90
      256
102
RTVSPost2010Prop51ColorRGB
 90
-16777216
102
RTVSPost2010PropOp51
 70
     0
102
RTVSPost2010Prop52
140
1.0
102
RTVSPost2010PropOp52
 70
     0
102
RTVSPost2010Prop53
 90
        2
102
RTVSPost2010PropOp53
 70
     1
102
RTVSPost2010Prop54
  1
strokes_ogs.tif
102
RTVSPost2010PropOp54
 70
     1
102
RTVSPost2010Prop55
280
     0
102
RTVSPost2010PropOp55
 70
     1
102
RTVSPost2010Prop56
140
1.0
102
RTVSPost2010PropOp56
 70
     1
102
RTVSPost2010Prop57
140
1.0
102
RTVSPost2010PropOp57
 70
     1
  0
ENDSEC
  0
EOF
