  0
SECTION
  2
HEADER
  9
$ACADVER
  1
AC1018
  9
$ACADMAINTVER
 70
     0
  9
$DWGCODEPAGE
  3
ANSI_932
  9
$INSBASE
 10
0.0
 20
0.0
 30
0.0
  9
$EXTMIN
 10
-2100.0
 20
-1485.0
 30
0.0
  9
$EXTMAX
 10
2100.0
 20
1485.0
 30
0.0
  9
$LIMMIN
 10
-2100.0
 20
-1485.0
  9
$LIMMAX
 10
2100.0
 20
1485.0
  9
$ORTHOMODE
 70
     0
  9
$REGENMODE
 70
     1
  9
$FILLMODE
 70
     1
  9
$QTEXTMODE
 70
     0
  9
$MIRRTEXT
 70
     1
  9
$LTSCALE
 40
10.0
  9
$ATTMODE
 70
     1
  9
$TEXTSIZE
 40
2.5
  9
$TRACEWID
 40
1.0
  9
$TEXTSTYLE
  7
Standard
  9
$CLAYER
  8
0
  9
$CELTYPE
  6
ByLayer
  9
$CECOLOR
 62
   256
  9
$CELTSCALE
 40
1.0
  9
$DISPSILH
 70
     0
  9
$DIMSCALE
 40
1.0
  9
$DIMASZ
 40
2.5
  9
$DIMEXO
 40
0.625
  9
$DIMDLI
 40
3.75
  9
$DIMRND
 40
0.0
  9
$DIMDLE
 40
0.0
  9
$DIMEXE
 40
1.25
  9
$DIMTP
 40
0.0
  9
$DIMTM
 40
0.0
  9
$DIMTXT
 40
2.5
  9
$DIMCEN
 40
2.5
  9
$DIMTSZ
 40
0.0
  9
$DIMTOL
 70
     0
  9
$DIMLIM
 70
     0
  9
$DIMTIH
 70
     0
  9
$DIMTOH
 70
     0
  9
$DIMSE1
 70
     0
  9
$DIMSE2
 70
     0
  9
$DIMTAD
 70
     1
  9
$DIMZIN
 70
     8
  9
$DIMBLK
  1

  9
$DIMASO
 70
     1
  9
$DIMSHO
 70
     1
  9
$DIMPOST
  1

  9
$DIMAPOST
  1

  9
$DIMALT
 70
     0
  9
$DIMALTD
 70
     3
  9
$DIMALTF
 40
0.03937007874016
  9
$DIMLFAC
 40
1.0
  9
$DIMTOFL
 70
     1
  9
$DIMTVP
 40
0.0
  9
$DIMTIX
 70
     0
  9
$DIMSOXD
 70
     0
  9
$DIMSAH
 70
     0
  9
$DIMBLK1
  1

  9
$DIMBLK2
  1

  9
$DIMSTYLE
  2
ISO-25
  9
$DIMCLRD
 70
     0
  9
$DIMCLRE
 70
     0
  9
$DIMCLRT
 70
     0
  9
$DIMTFAC
 40
1.0
  9
$DIMGAP
 40
0.625
  9
$DIMJUST
 70
     0
  9
$DIMSD1
 70
     0
  9
$DIMSD2
 70
     0
  9
$DIMTOLJ
 70
     0
  9
$DIMTZIN
 70
     8
  9
$DIMALTZ
 70
     0
  9
$DIMALTTZ
 70
     0
  9
$DIMUPT
 70
     0
  9
$DIMDEC
 70
     2
  9
$DIMTDEC
 70
     2
  9
$DIMALTU
 70
     2
  9
$DIMALTTD
 70
     3
  9
$DIMTXSTY
  7
Standard
  9
$DIMAUNIT
 70
     0
  9
$DIMADEC
 70
     0
  9
$DIMALTRND
 40
0.0
  9
$DIMAZIN
 70
     0
  9
$DIMDSEP
 70
    44
  9
$DIMATFIT
 70
     3
  9
$DIMFRAC
 70
     0
  9
$DIMLDRBLK
  1

  9
$DIMLUNIT
 70
     2
  9
$DIMLWD
 70
    -2
  9
$DIMLWE
 70
    -2
  9
$DIMTMOVE
 70
     0
  9
$LUNITS
 70
     2
  9
$LUPREC
 70
     4
  9
$SKETCHINC
 40
1.0
  9
$FILLETRAD
 40
10.0
  9
$AUNITS
 70
     0
  9
$AUPREC
 70
     0
  9
$MENU
  1
.
  9
$ELEVATION
 40
0.0
  9
$PELEVATION
 40
0.0
  9
$THICKNESS
 40
0.0
  9
$LIMCHECK
 70
     0
  9
$CHAMFERA
 40
0.0
  9
$CHAMFERB
 40
0.0
  9
$CHAMFERC
 40
0.0
  9
$CHAMFERD
 40
0.0
  9
$SKPOLY
 70
     0
  9
$TDCREATE
 40
2460418.431973866
  9
$TDUCREATE
 40
2460418.056973866
  9
$TDUPDATE
 40
2460418.431973982
  9
$TDUUPDATE
 40
2460418.056973982
  9
$TDINDWG
 40
0.0000000116
  9
$TDUSRTIMER
 40
0.0000000116
  9
$USRTIMER
 70
     1
  9
$ANGBASE
 50
0.0
  9
$ANGDIR
 70
     0
  9
$PDMODE
 70
     0
  9
$PDSIZE
 40
0.0
  9
$PLINEWID
 40
0.0
  9
$SPLFRAME
 70
     0
  9
$SPLINETYPE
 70
     6
  9
$SPLINESEGS
 70
     8
  9
$HANDSEED
  5
3F3
  9
$SURFTAB1
 70
     6
  9
$SURFTAB2
 70
     6
  9
$SURFTYPE
 70
     6
  9
$SURFU
 70
     6
  9
$SURFV
 70
     6
  9
$UCSBASE
  2

  9
$UCSNAME
  2

  9
$UCSORG
 10
0.0
 20
0.0
 30
0.0
  9
$UCSXDIR
 10
1.0
 20
0.0
 30
0.0
  9
$UCSYDIR
 10
0.0
 20
1.0
 30
0.0
  9
$UCSORTHOREF
  2

  9
$UCSORTHOVIEW
 70
     0
  9
$UCSORGTOP
 10
0.0
 20
0.0
 30
0.0
  9
$UCSORGBOTTOM
 10
0.0
 20
0.0
 30
0.0
  9
$UCSORGLEFT
 10
0.0
 20
0.0
 30
0.0
  9
$UCSORGRIGHT
 10
0.0
 20
0.0
 30
0.0
  9
$UCSORGFRONT
 10
0.0
 20
0.0
 30
0.0
  9
$UCSORGBACK
 10
0.0
 20
0.0
 30
0.0
  9
$PUCSBASE
  2

  9
$PUCSNAME
  2

  9
$PUCSORG
 10
0.0
 20
0.0
 30
0.0
  9
$PUCSXDIR
 10
1.0
 20
0.0
 30
0.0
  9
$PUCSYDIR
 10
0.0
 20
1.0
 30
0.0
  9
$PUCSORTHOREF
  2

  9
$PUCSORTHOVIEW
 70
     0
  9
$PUCSORGTOP
 10
0.0
 20
0.0
 30
0.0
  9
$PUCSORGBOTTOM
 10
0.0
 20
0.0
 30
0.0
  9
$PUCSORGLEFT
 10
0.0
 20
0.0
 30
0.0
  9
$PUCSORGRIGHT
 10
0.0
 20
0.0
 30
0.0
  9
$PUCSORGFRONT
 10
0.0
 20
0.0
 30
0.0
  9
$PUCSORGBACK
 10
0.0
 20
0.0
 30
0.0
  9
$USERI1
 70
     0
  9
$USERI2
 70
     0
  9
$USERI3
 70
     0
  9
$USERI4
 70
     0
  9
$USERI5
 70
     0
  9
$USERR1
 40
0.0
  9
$USERR2
 40
0.0
  9
$USERR3
 40
0.0
  9
$USERR4
 40
0.0
  9
$USERR5
 40
0.0
  9
$WORLDVIEW
 70
     1
  9
$SHADEDGE
 70
     3
  9
$SHADEDIF
 70
    70
  9
$TILEMODE
 70
     1
  9
$MAXACTVP
 70
    64
  9
$PINSBASE
 10
0.0
 20
0.0
 30
0.0
  9
$PLIMCHECK
 70
     0
  9
$PEXTMIN
 10
1.000000000000000E+20
 20
1.000000000000000E+20
 30
1.000000000000000E+20
  9
$PEXTMAX
 10
-1.000000000000000E+20
 20
-1.000000000000000E+20
 30
-1.000000000000000E+20
  9
$PLIMMIN
 10
0.0
 20
0.0
  9
$PLIMMAX
 10
420.0
 20
297.0
  9
$UNITMODE
 70
     0
  9
$VISRETAIN
 70
     1
  9
$PLINEGEN
 70
     0
  9
$PSLTSCALE
 70
     1
  9
$TREEDEPTH
 70
  3020
  9
$CMLSTYLE
  2
Standard
  9
$CMLJUST
 70
     0
  9
$CMLSCALE
 40
20.0
  9
$PROXYGRAPHICS
 70
     1
  9
$MEASUREMENT
 70
     1
  9
$CELWEIGHT
370
    -1
  9
$ENDCAPS
280
     0
  9
$JOINSTYLE
280
     0
  9
$LWDISPLAY
290
     0
  9
$INSUNITS
 70
     4
  9
$HYPERLINKBASE
  1

  9
$STYLESHEET
  1

  9
$XEDIT
290
     1
  9
$CEPSNTYPE
380
     0
  9
$PSTYLEMODE
290
     1
  9
$FINGERPRINTGUID
  2
{986EFA6F-2D1E-4DEE-BB0C-F99C8DA8CB32}
  9
$VERSIONGUID
  2
{FAEB1C32-E019-11D5-929B-00C0DF256EC4}
  9
$EXTNAMES
290
     1
  9
$PSVPSCALE
 40
0.0
  9
$OLESTARTUP
290
     0
  9
$SORTENTS
280
   127
  9
$INDEXCTL
280
     0
  9
$HIDETEXT
280
     1
  9
$XCLIPFRAME
290
     0
  9
$HALOGAP
280
     0
  9
$OBSCOLOR
 70
   257
  9
$OBSLTYPE
280
     0
  9
$INTERSECTIONDISPLAY
280
     0
  9
$INTERSECTIONCOLOR
 70
   257
  9
$DIMASSOC
280
     2
  9
$PROJECTNAME
  1

  0
ENDSEC
  0
SECTION
  2
CLASSES
  0
CLASS
  1
ACDBDICTIONARYWDFLT
  2
AcDbDictionaryWithDefault
  3
ObjectDBX Classes
 90
        0
 91
        4
280
     0
281
     0
  0
CLASS
  1
VISUALSTYLE
  2
AcDbVisualStyle
  3
ObjectDBX Classes
 90
     4095
 91
        4
280
     0
281
     0
  0
CLASS
  1
MATERIAL
  2
AcDbMaterial
  3
ObjectDBX Classes
 90
     1153
 91
        4
280
     0
281
     0
  0
CLASS
  1
SCALE
  2
AcDbScale
  3
ObjectDBX Classes
 90
     1153
 91
        4
280
     0
281
     0
  0
CLASS
  1
TABLESTYLE
  2
AcDbTableStyle
  3
ObjectDBX Classes
 90
     4095
 91
        4
280
     0
281
     0
  0
CLASS
  1
MLEADERSTYLE
  2
AcDbMLeaderStyle
  3
ACDB_MLEADERSTYLE_CLASS
 90
     4095
 91
        4
280
     0
281
     0
  0
CLASS
  1
SUN
  2
AcDbSun
  3
SCENEOE
 90
     1153
 91
        4
280
     0
281
     0
  0
CLASS
  1
DICTIONARYVAR
  2
AcDbDictionaryVar
  3
ObjectDBX Classes
 90
        0
 91
        4
280
     0
281
     0
  0
CLASS
  1
CELLSTYLEMAP
  2
AcDbCellStyleMap
  3
ObjectDBX Classes
 90
     1152
 91
        4
280
     0
281
     0
  0
ENDSEC
  0
SECTION
  2
TABLES
  0
TABLE
  2
VPORT
  5
8
102
{ACAD_XDICTIONARY
360
3AA
102
}
330
0
100
AcDbSymbolTable
 70
     1
  0
VPORT
  5
29
330
8
100
AcDbSymbolTableRecord
100
AcDbViewportTableRecord
  2
*Active
 70
     0
 10
0.0
 20
0.0
 11
1.0
 21
1.0
 12
0.0
 22
0.0
 13
0.0
 23
0.0
 14
10.0
 24
10.0
 15
10.0
 25
10.0
 16
0.0
 26
0.0
 36
1.0
 17
0.0
 27
0.0
 37
0.0
 40
3267.0
 41
1.414141414141414
 42
50.0
 43
0.0
 44
0.0
 50
0.0
 51
0.0
 71
     0
 72
 10000
 73
     1
 74
     3
 75
     0
 76
     0
 77
     0
 78
     0
281
     0
 65
     1
110
0.0
120
0.0
130
0.0
111
1.0
121
0.0
131
0.0
112
0.0
122
1.0
132
0.0
 79
     0
146
0.0
  0
ENDTAB
  0
TABLE
  2
LTYPE
  5
5
330
0
100
AcDbSymbolTable
 70
     3
  0
LTYPE
  5
14
330
5
100
AcDbSymbolTableRecord
100
AcDbLinetypeTableRecord
  2
ByBlock
 70
     0
  3

 72
    65
 73
     0
 40
0.0
  0
LTYPE
  5
15
330
5
100
AcDbSymbolTableRecord
100
AcDbLinetypeTableRecord
  2
ByLayer
 70
     0
  3

 72
    65
 73
     0
 40
0.0
  0
LTYPE
  5
16
330
5
100
AcDbSymbolTableRecord
100
AcDbLinetypeTableRecord
  2
Continuous
 70
     0
  3
Solid line
 72
    65
 73
     0
 40
0.0
  0
LTYPE
  5
6F
330
5
100
AcDbSymbolTableRecord
100
AcDbLinetypeTableRecord
  2
JWW_DASHED3
 70
     0
  3
---  ------  ------  ------  ---
 72
    65
 73
     2
 40
3.386666666666667
 49
2.54
 74
     0
 49
-0.8466666666666667
 74
     0
  0
LTYPE
  5
70
330
5
100
AcDbSymbolTableRecord
100
AcDbLinetypeTableRecord
  2
JWW_PHANTOM1
 70
     0
  3
----  -  -  --------  -  -  ----
 72
    65
 73
     6
 40
6.773333333333333
 49
3.386666666666667
 74
     0
 49
-0.8466666666666667
 74
     0
 49
0.4233333333333333
 74
     0
 49
-0.8466666666666667
 74
     0
 49
0.4233333333333333
 74
     0
 49
-0.8466666666666667
 74
     0
  0
ENDTAB
  0
TABLE
  2
LAYER
  5
2
330
0
100
AcDbSymbolTable
 70
    12
  0
LAYER
  5
10
330
2
100
AcDbSymbolTableRecord
100
AcDbLayerTableRecord
  2
0
 70
     0
 62
     7
  6
Continuous
370
    -3
390
F
  0
LAYER
  5
71
330
2
100
AcDbSymbolTableRecord
100
AcDbLayerTableRecord
  2
F-5
 70
     0
 62
     7
  6
Continuous
370
    -3
390
F
  0
LAYER
  5
72
330
2
100
AcDbSymbolTableRecord
100
AcDbLayerTableRecord
  2
C-2
 70
     0
 62
     7
  6
Continuous
370
    -3
390
F
  0
LAYER
  5
73
330
2
100
AcDbSymbolTableRecord
100
AcDbLayerTableRecord
  2
C-5
 70
     0
 62
     7
  6
Continuous
370
    -3
390
F
  0
LAYER
  5
74
330
2
100
AcDbSymbolTableRecord
100
AcDbLayerTableRecord
  2
C-9
 70
     0
 62
     7
  6
Continuous
370
    -3
390
F
  0
LAYER
  5
75
330
2
100
AcDbSymbolTableRecord
100
AcDbLayerTableRecord
  2
C-4
 70
     0
 62
     7
  6
Continuous
370
    -3
390
F
  0
LAYER
  5
76
330
2
100
AcDbSymbolTableRecord
100
AcDbLayerTableRecord
  2
C-1
 70
     0
 62
     7
  6
Continuous
370
    -3
390
F
  0
LAYER
  5
77
330
2
100
AcDbSymbolTableRecord
100
AcDbLayerTableRecord
  2
A-6
 70
     0
 62
     7
  6
Continuous
370
    -3
390
F
  0
LAYER
  5
78
330
2
100
AcDbSymbolTableRecord
100
AcDbLayerTableRecord
  2
A-2
 70
     0
 62
     7
  6
Continuous
370
    -3
390
F
  0
LAYER
  5
79
330
2
100
AcDbSymbolTableRecord
100
AcDbLayerTableRecord
  2
A-0
 70
     0
 62
     7
  6
Continuous
370
    -3
390
F
  0
LAYER
  5
7A
330
2
100
AcDbSymbolTableRecord
100
AcDbLayerTableRecord
  2
A-5
 70
     0
 62
     7
  6
Continuous
370
    -3
390
F
  0
LAYER
  5
7B
330
2
100
AcDbSymbolTableRecord
100
AcDbLayerTableRecord
  2
A-4
 70
     0
 62
     7
  6
Continuous
370
    -3
390
F
  0
ENDTAB
  0
TABLE
  2
STYLE
  5
3
330
0
100
AcDbSymbolTable
 70
     2
  0
STYLE
  5
11
330
3
100
AcDbSymbolTableRecord
100
AcDbTextStyleTableRecord
  2
Standard
 70
     0
 40
0.0
 41
1.0
 50
0.0
 71
     0
 42
2.5
  3
txt
  4

  0
STYLE
  5
6E
330
3
100
AcDbSymbolTableRecord
100
AcDbTextStyleTableRecord
  2
ＭＳ ゴシック
 70
     0
 40
1.0
 41
1.0
 50
0.0
 71
     0
 42
2.5
  3

  4

1001
ACAD
1000
MS Gothic
1071
    32817
  0
ENDTAB
  0
TABLE
  2
VIEW
  5
6
330
0
100
AcDbSymbolTable
 70
     0
  0
ENDTAB
  0
TABLE
  2
UCS
  5
7
330
0
100
AcDbSymbolTable
 70
     0
  0
ENDTAB
  0
TABLE
  2
APPID
  5
9
330
0
100
AcDbSymbolTable
 70
     2
  0
APPID
  5
12
330
9
100
AcDbSymbolTableRecord
100
AcDbRegAppTableRecord
  2
ACAD
 70
     0
  0
APPID
  5
3E9
330
9
100
AcDbSymbolTableRecord
100
AcDbRegAppTableRecord
  2
ACAD_MLEADERVER
 70
     0
  0
ENDTAB
  0
TABLE
  2
DIMSTYLE
  5
A
330
0
100
AcDbSymbolTable
 70
     1
100
AcDbDimStyleTable
  0
DIMSTYLE
105
27
330
A
100
AcDbSymbolTableRecord
100
AcDbDimStyleTableRecord
  2
ISO-25
 70
     0
 41
2.5
 42
0.625
 43
3.75
 44
1.25
 73
     0
 74
     0
 77
     1
 78
     8
140
2.5
141
2.5
143
0.03937007874016
147
0.625
171
     3
172
     1
178
     0
271
     2
272
     2
274
     3
278
    44
283
     0
284
     8
340
11
  0
ENDTAB
  0
TABLE
  2
BLOCK_RECORD
  5
1
330
0
100
AcDbSymbolTable
 70
     1
  0
BLOCK_RECORD
  5
1F
330
1
100
AcDbSymbolTableRecord
100
AcDbBlockTableRecord
  2
*Model_Space
340
22
  0
BLOCK_RECORD
  5
1B
330
1
100
AcDbSymbolTableRecord
100
AcDbBlockTableRecord
  2
*Paper_Space
340
1E
  0
BLOCK_RECORD
  5
23
330
1
100
AcDbSymbolTableRecord
100
AcDbBlockTableRecord
  2
*Paper_Space0
340
26
  0
ENDTAB
  0
ENDSEC
  0
SECTION
  2
BLOCKS
  0
BLOCK
  5
20
330
1F
100
AcDbEntity
  8
0
100
AcDbBlockBegin
  2
*Model_Space
 70
     0
 10
0.0
 20
0.0
 30
0.0
  3
*Model_Space
  1

  0
ENDBLK
  5
21
330
1F
100
AcDbEntity
  8
0
100
AcDbBlockEnd
  0
BLOCK
  5
1C
330
1B
100
AcDbEntity
 67
     1
  8
0
100
AcDbBlockBegin
  2
*Paper_Space
 70
     0
 10
0.0
 20
0.0
 30
0.0
  3
*Paper_Space
  1

  0
ENDBLK
  5
1D
330
1B
100
AcDbEntity
 67
     1
  8
0
100
AcDbBlockEnd
  0
BLOCK
  5
24
330
23
100
AcDbEntity
  8
0
100
AcDbBlockBegin
  2
*Paper_Space0
 70
     0
 10
0.0
 20
0.0
 30
0.0
  3
*Paper_Space0
  1

  0
ENDBLK
  5
25
330
23
100
AcDbEntity
  8
0
100
AcDbBlockEnd
  0
ENDSEC
  0
SECTION
  2
ENTITIES
  0
TEXT
  5
7C
330
1F
100
AcDbEntity
  8
F-5
  6
Continuous
 62
     2
370
     9
100
AcDbText
 10
-849.5525494276795
 20
-1322.868498092265
 30
0.0
 40
30.48
  1
滑り止め模様付　歩道Ｕ字溝用　ステンレス製グレーチング
 41
0.899074074074074
  7
ＭＳ ゴシック
100
AcDbText
  0
LINE
  5
7D
330
1F
100
AcDbEntity
  8
C-2
  6
Continuous
 62
     3
370
     9
100
AcDbLine
 10
702.3914307585121
 20
603.2323752628779
 30
0.0
 11
702.3914307585121
 21
833.2314019995755
 31
0.0
  0
LINE
  5
7E
330
1F
100
AcDbEntity
  8
C-2
  6
Continuous
 62
     3
370
     9
100
AcDbLine
 10
662.3922885498971
 20
620.4404540081271
 30
0.0
 11
662.3922885498971
 21
850.4405942240265
 31
0.0
  0
LINE
  5
7F
330
1F
100
AcDbEntity
  8
C-5
  6
Continuous
 62
     7
370
     9
100
AcDbLine
 10
790.708642012735
 20
822.3391010071769
 30
0.0
 11
698.73476505961
 21
739.2082284353864
 31
0.0
  0
LINE
  5
80
330
1F
100
AcDbEntity
  8
C-5
  6
Continuous
 62
     7
370
     9
100
AcDbLine
 10
698.73476505961
 20
739.2082284353864
 30
0.0
 11
714.9336604882419
 21
758.2492176668052
 31
0.0
  0
LINE
  5
81
330
1F
100
AcDbEntity
  8
C-5
  6
Continuous
 62
     7
370
     9
100
AcDbLine
 10
698.73476505961
 20
739.2082284353864
 30
0.0
 11
719.3108709506575
 21
753.4075626573036
 31
0.0
  0
LINE
  5
82
330
1F
100
AcDbEntity
  8
C-5
  6
Continuous
 62
     7
370
     9
100
AcDbLine
 10
464.7655663687314
 20
542.2723582390182
 30
0.0
 11
902.799623985919
 21
542.2723582390182
 31
0.0
  0
LINE
  5
83
330
1F
100
AcDbEntity
  8
C-9
  6
Continuous
 62
     6
370
     5
100
AcDbLine
 10
667.5815965102013
 20
619.8315046046221
 30
0.0
 11
662.3922885498971
 21
624.1861980431779
 31
0.0
  0
LINE
  5
84
330
1F
100
AcDbEntity
  8
C-9
  6
Continuous
 62
     6
370
     5
100
AcDbLine
 10
701.012201187144
 20
603.7803307501033
 30
0.0
 11
662.3922885498971
 21
636.1865345613364
 31
0.0
  0
LINE
  5
85
330
1F
100
AcDbEntity
  8
C-9
  6
Continuous
 62
     6
370
     5
100
AcDbLine
 10
666.9248912209273
 20
849.9813459132158
 30
0.0
 11
662.3922885498971
 21
847.3641749092039
 31
0.0
  0
LINE
  5
86
330
1F
100
AcDbEntity
  8
C-9
  6
Continuous
 62
     6
370
     5
100
AcDbLine
 10
679.1706880431402
 20
845.0513548870333
 30
0.0
 11
662.3922885498971
 21
835.363838391045
 31
0.0
  0
LINE
  5
87
330
1F
100
AcDbEntity
  8
C-9
  6
Continuous
 62
     6
370
     5
100
AcDbLine
 10
688.562019071434
 20
838.4729197624557
 30
0.0
 11
662.3922885498971
 21
823.3642441923541
 31
0.0
  0
LINE
  5
88
330
1F
100
AcDbEntity
  8
C-9
  6
Continuous
 62
     6
370
     5
100
AcDbLine
 10
701.1666036364679
 20
833.7507781872866
 30
0.0
 11
662.3922885498971
 21
811.3639076741956
 31
0.0
  0
LINE
  5
89
330
1F
100
AcDbEntity
  8
C-9
  6
Continuous
 62
     6
370
     5
100
AcDbLine
 10
702.3914307585121
 20
830.622891389356
 30
0.0
 11
697.6744854196183
 21
834.5811862320502
 31
0.0
  0
LINE
  5
8A
330
1F
100
AcDbEntity
  8
C-9
  6
Continuous
 62
     6
370
     5
100
AcDbLine
 10
702.3914307585121
 20
818.622554871197
 30
0.0
 11
664.4762267361305
 21
850.4381198258002
 31
0.0
  0
LINE
  5
8B
330
1F
100
AcDbEntity
  8
C-9
  6
Continuous
 62
     6
370
     5
100
AcDbLine
 10
702.3914307585121
 20
606.4583719504835
 30
0.0
 11
698.6704307057246
 21
604.3099756904539
 31
0.0
  0
LINE
  5
8C
330
1F
100
AcDbEntity
  8
C-9
  6
Continuous
 62
     6
370
     5
100
AcDbLine
 10
702.3914307585121
 20
618.4580898690856
 30
0.0
 11
686.8883361111305
 21
609.507449164905
 31
0.0
  0
LINE
  5
8D
330
1F
100
AcDbEntity
  8
C-9
  6
Continuous
 62
     6
370
     5
100
AcDbLine
 10
702.3914307585121
 20
630.4579315075991
 30
0.0
 11
677.4405888032757
 21
616.0526036333383
 31
0.0
  0
LINE
  5
8E
330
1F
100
AcDbEntity
  8
C-9
  6
Continuous
 62
     6
370
     5
100
AcDbLine
 10
702.3914307585121
 20
642.4581443058466
 30
0.0
 11
664.29782262401
 21
620.4647031107453
 31
0.0
  0
LINE
  5
8F
330
1F
100
AcDbEntity
  8
C-9
  6
Continuous
 62
     6
370
     5
100
AcDbLine
 10
702.3914307585121
 20
614.6226488983297
 30
0.0
 11
662.3922885498971
 21
648.1862524799387
 31
0.0
  0
LINE
  5
90
330
1F
100
AcDbEntity
  8
C-9
  6
Continuous
 62
     6
370
     5
100
AcDbLine
 10
702.3914307585121
 20
626.6229854164885
 30
0.0
 11
662.3922885498971
 21
660.1864652781862
 31
0.0
  0
LINE
  5
91
330
1F
100
AcDbEntity
  8
C-9
  6
Continuous
 62
     6
370
     5
100
AcDbLine
 10
702.3914307585121
 20
638.6227033350908
 30
0.0
 11
662.3922885498971
 21
672.1861831967883
 31
0.0
  0
LINE
  5
92
330
1F
100
AcDbEntity
  8
C-9
  6
Continuous
 62
     6
370
     5
100
AcDbLine
 10
702.3914307585121
 20
650.6229161333383
 30
0.0
 11
662.3922885498971
 21
684.186519714947
 31
0.0
  0
LINE
  5
93
330
1F
100
AcDbEntity
  8
C-9
  6
Continuous
 62
     6
370
     5
100
AcDbLine
 10
702.3914307585121
 20
806.6227132326835
 30
0.0
 11
662.3922885498971
 21
840.1864405342039
 31
0.0
  0
LINE
  5
94
330
1F
100
AcDbEntity
  8
C-9
  6
Continuous
 62
     6
370
     5
100
AcDbLine
 10
702.3914307585121
 20
794.6226241543474
 30
0.0
 11
662.3922885498971
 21
828.1865988956904
 31
0.0
  0
LINE
  5
95
330
1F
100
AcDbEntity
  8
C-9
  6
Continuous
 62
     6
370
     5
100
AcDbLine
 10
702.3914307585121
 20
782.6227825158342
 30
0.0
 11
662.3922885498971
 21
816.1862623775318
 31
0.0
  0
LINE
  5
96
330
1F
100
AcDbEntity
  8
C-9
  6
Continuous
 62
     6
370
     5
100
AcDbLine
 10
702.3914307585121
 20
770.6229408773206
 30
0.0
 11
662.3922885498971
 21
804.1866681788408
 31
0.0
  0
LINE
  5
97
330
1F
100
AcDbEntity
  8
C-9
  6
Continuous
 62
     6
370
     5
100
AcDbLine
 10
702.3914307585121
 20
758.6228517989844
 30
0.0
 11
662.3922885498971
 21
792.1863316606821
 31
0.0
  0
LINE
  5
98
330
1F
100
AcDbEntity
  8
C-9
  6
Continuous
 62
     6
370
     5
100
AcDbLine
 10
702.3914307585121
 20
746.6230101604708
 30
0.0
 11
662.3922885498971
 21
780.1864900221685
 31
0.0
  0
LINE
  5
99
330
1F
100
AcDbEntity
  8
C-9
  6
Continuous
 62
     6
370
     5
100
AcDbLine
 10
702.3914307585121
 20
734.622673642312
 30
0.0
 11
662.3922885498971
 21
768.1864009438323
 31
0.0
  0
LINE
  5
9A
330
1F
100
AcDbEntity
  8
C-9
  6
Continuous
 62
     6
370
     5
100
AcDbLine
 10
702.3914307585121
 20
722.623079443621
 30
0.0
 11
662.3922885498971
 21
756.1865593053187
 31
0.0
  0
LINE
  5
9B
330
1F
100
AcDbEntity
  8
C-9
  6
Continuous
 62
     6
370
     5
100
AcDbLine
 10
702.3914307585121
 20
710.6227429254625
 30
0.0
 11
662.3922885498971
 21
744.1862227871599
 31
0.0
  0
LINE
  5
9C
330
1F
100
AcDbEntity
  8
C-9
  6
Continuous
 62
     6
370
     5
100
AcDbLine
 10
702.3914307585121
 20
698.6225301272148
 30
0.0
 11
662.3922885498971
 21
732.186133708824
 31
0.0
  0
LINE
  5
9D
330
1F
100
AcDbEntity
  8
C-9
  6
Continuous
 62
     6
370
     5
100
AcDbLine
 10
702.3914307585121
 20
686.6226884887012
 30
0.0
 11
662.3922885498971
 21
720.1862920703104
 31
0.0
  0
LINE
  5
9E
330
1F
100
AcDbEntity
  8
C-9
  6
Continuous
 62
     6
370
     5
100
AcDbLine
 10
702.3914307585121
 20
674.6229705700991
 30
0.0
 11
662.3922885498971
 21
708.1864504317969
 31
0.0
  0
LINE
  5
9F
330
1F
100
AcDbEntity
  8
C-9
  6
Continuous
 62
     6
370
     5
100
AcDbLine
 10
702.3914307585121
 20
662.6227577718519
 30
0.0
 11
662.3922885498971
 21
696.1862376335495
 31
0.0
  0
LINE
  5
A0
330
1F
100
AcDbEntity
  8
C-9
  6
Continuous
 62
     6
370
     5
100
AcDbLine
 10
702.3914307585121
 20
654.457862224449
 30
0.0
 11
662.3922885498971
 21
631.364056138089
 31
0.0
  0
LINE
  5
A1
330
1F
100
AcDbEntity
  8
C-9
  6
Continuous
 62
     6
370
     5
100
AcDbLine
 10
702.3914307585121
 20
666.4581987426075
 30
0.0
 11
662.3922885498971
 21
643.3643926562479
 31
0.0
  0
LINE
  5
A2
330
1F
100
AcDbEntity
  8
C-9
  6
Continuous
 62
     6
370
     5
100
AcDbLine
 10
702.3914307585121
 20
678.4579166612099
 30
0.0
 11
662.3922885498971
 21
655.3646054544953
 31
0.0
  0
LINE
  5
A3
330
1F
100
AcDbEntity
  8
C-9
  6
Continuous
 62
     6
370
     5
100
AcDbLine
 10
702.3914307585121
 20
690.457634579812
 30
0.0
 11
662.3922885498971
 21
667.3638284934523
 31
0.0
  0
LINE
  5
A4
330
1F
100
AcDbEntity
  8
C-9
  6
Continuous
 62
     6
370
     5
100
AcDbLine
 10
702.3914307585121
 20
822.4578721220416
 30
0.0
 11
662.3922885498971
 21
799.3640660356821
 31
0.0
  0
LINE
  5
A5
330
1F
100
AcDbEntity
  8
C-9
  6
Continuous
 62
     6
370
     5
100
AcDbLine
 10
702.3914307585121
 20
702.4579710979708
 30
0.0
 11
662.3922885498971
 21
679.3641650116109
 31
0.0
  0
LINE
  5
A6
330
1F
100
AcDbEntity
  8
C-9
  6
Continuous
 62
     6
370
     5
100
AcDbLine
 10
702.3914307585121
 20
714.4580601763071
 30
0.0
 11
662.3922885498971
 21
691.3643778098585
 31
0.0
  0
LINE
  5
A7
330
1F
100
AcDbEntity
  8
C-9
  6
Continuous
 62
     6
370
     5
100
AcDbLine
 10
702.3914307585121
 20
726.4579018148206
 30
0.0
 11
662.3922885498971
 21
703.3640957284606
 31
0.0
  0
LINE
  5
A8
330
1F
100
AcDbEntity
  8
C-9
  6
Continuous
 62
     6
370
     5
100
AcDbLine
 10
702.3914307585121
 20
738.4577434533342
 30
0.0
 11
662.3922885498971
 21
715.3639373669741
 31
0.0
  0
LINE
  5
A9
330
1F
100
AcDbEntity
  8
C-9
  6
Continuous
 62
     6
370
     5
100
AcDbLine
 10
702.3914307585121
 20
750.45783253167
 30
0.0
 11
662.3922885498971
 21
727.3640264453104
 31
0.0
  0
LINE
  5
AA
330
1F
100
AcDbEntity
  8
C-9
  6
Continuous
 62
     6
370
     5
100
AcDbLine
 10
702.3914307585121
 20
762.4576741701835
 30
0.0
 11
662.3922885498971
 21
739.3643629634693
 31
0.0
  0
LINE
  5
AB
330
1F
100
AcDbEntity
  8
C-9
  6
Continuous
 62
     6
370
     5
100
AcDbLine
 10
702.3914307585121
 20
774.457515808697
 30
0.0
 11
662.3922885498971
 21
751.3642046019825
 31
0.0
  0
LINE
  5
AC
330
1F
100
AcDbEntity
  8
C-9
  6
Continuous
 62
     6
370
     5
100
AcDbLine
 10
702.3914307585121
 20
786.4576048870333
 30
0.0
 11
662.3922885498971
 21
763.3637988006734
 31
0.0
  0
LINE
  5
AD
330
1F
100
AcDbEntity
  8
C-9
  6
Continuous
 62
     6
370
     5
100
AcDbLine
 10
702.3914307585121
 20
798.4579414051922
 30
0.0
 11
662.3922885498971
 21
775.3641353188323
 31
0.0
  0
LINE
  5
AE
330
1F
100
AcDbEntity
  8
C-9
  6
Continuous
 62
     6
370
     5
100
AcDbLine
 10
702.3914307585121
 20
810.4577830437057
 30
0.0
 11
662.3922885498971
 21
787.3644718369911
 31
0.0
  0
LINE
  5
AF
330
1F
100
AcDbEntity
  8
C-4
  6
Continuous
 62
     7
370
     9
100
AcDbLine
 10
662.3922885498971
 20
890.6696080278696
 30
0.0
 11
702.3914307585121
 21
890.6696080278696
 31
0.0
  0
LINE
  5
B0
330
1F
100
AcDbEntity
  8
C-4
  6
Continuous
 62
     7
370
     9
100
AcDbLine
 10
662.3922885498971
 20
865.4408911518137
 30
0.0
 11
662.3922885498971
 21
893.6698158773206
 31
0.0
  0
LINE
  5
B1
330
1F
100
AcDbEntity
  8
C-4
  6
Continuous
 62
     7
370
     9
100
AcDbLine
 10
702.3914307585121
 20
848.2312040477175
 30
0.0
 11
702.3914307585121
 21
893.6698158773206
 31
0.0
  0
ARC
  5
B2
330
1F
100
AcDbEntity
  8
C-2
  6
Continuous
 62
     3
370
     9
100
AcDbCircle
 10
658.424590993943
 20
581.1894461032495
 30
0.0
 40
39.7122589317528
100
AcDbArc
 50
50.82627868652344
 51
129.1737060546875
  0
ARC
  5
B3
330
1F
100
AcDbEntity
  8
C-2
  6
Continuous
 62
     3
370
     9
100
AcDbCircle
 10
708.5957368712652
 20
642.7618766881312
 30
0.0
 40
39.7122589317528
100
AcDbArc
 50
230.8262786865234
 51
309.1737060546875
  0
ARC
  5
B4
330
1F
100
AcDbEntity
  8
C-2
  6
Continuous
 62
     3
370
     9
100
AcDbCircle
 10
708.5957368712652
 20
872.7618931841196
 30
0.0
 40
39.7122589317528
100
AcDbArc
 50
230.8262786865234
 51
309.1737060546875
  0
ARC
  5
B5
330
1F
100
AcDbEntity
  8
C-2
  6
Continuous
 62
     3
370
     9
100
AcDbCircle
 10
658.424590993943
 20
811.1889677195925
 30
0.0
 40
39.7122589317528
100
AcDbArc
 50
50.82627868652344
 51
129.1737060546875
  0
TEXT
  5
B6
330
1F
100
AcDbEntity
  8
C-5
  6
Continuous
 62
     7
370
     9
100
AcDbText
 10
797.782897053909
 20
833.644395295606
 30
0.0
 40
22.86
  1
ローレット模様
 41
1.142857142857143
  7
ＭＳ ゴシック
100
AcDbText
  0
TEXT
  5
B7
330
1F
100
AcDbEntity
  8
C-5
  6
Continuous
 62
     7
370
     9
100
AcDbText
 10
461.2041650015439
 20
553.2030286359776
 30
0.0
 40
22.86
  1
メインバー表面　Ｓ＝１：１
 41
1.153846153846154
  7
ＭＳ ゴシック
100
AcDbText
  0
TEXT
  5
B8
330
1F
100
AcDbEntity
  8
C-4
  6
Continuous
 62
     2
370
     9
100
AcDbText
 10
672.3918596542046
 20
901.3093770840352
 30
0.0
 40
30.48
  1
4
 41
0.9999999999999998
  7
ＭＳ ゴシック
100
AcDbText
  0
LWPOLYLINE
  5
B9
330
1F
100
AcDbEntity
  8
C-4
  6
Continuous
 62
     7
370
     9
100
AcDbPolyline
 90
        4
 70
     1
 43
2.0
 10
663.392288549897
 20
890.6696080278696
 42
0.4142135623731
 10
662.3922885498971
 20
891.6696080278695
 42
0.4142135623731
 10
661.3922885498971
 20
890.6696080278696
 42
0.4142135623731
 10
662.3922885498971
 20
889.6696080278696
 42
0.4142135623731
  0
LWPOLYLINE
  5
BA
330
1F
100
AcDbEntity
  8
C-4
  6
Continuous
 62
     7
370
     9
100
AcDbPolyline
 90
        4
 70
     1
 43
2.0
 10
703.3914307585121
 20
890.6696080278696
 42
0.4142135623731
 10
702.3914307585121
 20
891.6696080278695
 42
0.4142135623731
 10
701.3914307585122
 20
890.6696080278696
 42
0.4142135623731
 10
702.3914307585121
 20
889.6696080278696
 42
0.4142135623731
  0
LINE
  5
BB
330
1F
100
AcDbEntity
  8
C-2
  6
Continuous
 62
     3
370
     9
100
AcDbLine
 10
-1424.427127222289
 20
822.9986436722522
 30
0.0
 11
-1424.427127222289
 21
738.9987624433671
 31
0.0
  0
LINE
  5
BC
330
1F
100
AcDbEntity
  8
C-2
  6
Continuous
 62
     3
370
     9
100
AcDbLine
 10
-1411.427257540595
 20
822.9986436722522
 30
0.0
 11
-1411.427257540595
 21
738.9987624433671
 31
0.0
  0
LINE
  5
BD
330
1F
100
AcDbEntity
  8
C-2
  6
Continuous
 62
     3
370
     9
100
AcDbLine
 10
-1415.427245993404
 20
822.9986436722522
 30
0.0
 11
-1415.427245993404
 21
738.9987624433671
 31
0.0
  0
LINE
  5
BE
330
1F
100
AcDbEntity
  8
C-2
  6
Continuous
 62
     3
370
     9
100
AcDbLine
 10
-436.4268863808613
 20
822.9986436722522
 30
0.0
 11
-436.4268863808613
 21
738.9987624433671
 31
0.0
  0
LINE
  5
BF
330
1F
100
AcDbEntity
  8
C-1
  6
Continuous
 62
     2
370
     9
100
AcDbLine
 10
-1428.426991955186
 20
738.9987624433671
 30
0.0
 11
-436.4268863808613
 21
738.9987624433671
 31
0.0
  0
LINE
  5
C0
330
1F
100
AcDbEntity
  8
C-2
  6
Continuous
 62
     3
370
     9
100
AcDbLine
 10
-1428.426991955186
 20
822.9986436722522
 30
0.0
 11
-1428.426991955186
 21
738.9987624433671
 31
0.0
  0
LINE
  5
C1
330
1F
100
AcDbEntity
  8
C-1
  6
Continuous
 62
     2
370
     9
100
AcDbLine
 10
-436.4268863808613
 20
852.9982477685361
 30
0.0
 11
-1428.426991955186
 21
852.9982477685361
 31
0.0
  0
LINE
  5
C2
330
1F
100
AcDbEntity
  8
C-1
  6
Continuous
 62
     2
370
     9
100
AcDbLine
 10
-1428.426991955186
 20
708.9981685877929
 30
0.0
 11
-436.4268863808613
 21
708.9981685877929
 31
0.0
  0
LINE
  5
C3
330
1F
100
AcDbEntity
  8
C-1
  6
Continuous
 62
     2
370
     9
100
AcDbLine
 10
-1428.426991955186
 20
822.9986436722522
 30
0.0
 11
-1428.426991955186
 21
852.9982477685361
 31
0.0
  0
LINE
  5
C4
330
1F
100
AcDbEntity
  8
C-1
  6
Continuous
 62
     2
370
     9
100
AcDbLine
 10
-1428.426991955186
 20
708.9981685877929
 30
0.0
 11
-1428.426991955186
 21
738.9987624433671
 31
0.0
  0
LINE
  5
C5
330
1F
100
AcDbEntity
  8
C-1
  6
Continuous
 62
     2
370
     9
100
AcDbLine
 10
-436.4268863808613
 20
852.9982477685361
 30
0.0
 11
-436.4268863808613
 21
822.9986436722522
 31
0.0
  0
LINE
  5
C6
330
1F
100
AcDbEntity
  8
C-1
  6
Continuous
 62
     2
370
     9
100
AcDbLine
 10
-436.4268863808613
 20
738.9987624433671
 30
0.0
 11
-436.4268863808613
 21
708.9981685877929
 31
0.0
  0
LINE
  5
C7
330
1F
100
AcDbEntity
  8
C-1
  6
JWW_DASHED3
 62
     2
370
     9
100
AcDbLine
 10
-1428.426991955186
 20
735.9983071540934
 30
0.0
 11
-436.4268863808613
 21
735.9983071540934
 31
0.0
  0
LINE
  5
C8
330
1F
100
AcDbEntity
  8
C-2
  6
Continuous
 62
     3
370
     9
100
AcDbLine
 10
-440.4272459934035
 20
822.9986436722522
 30
0.0
 11
-440.4272459934035
 21
738.9987624433671
 31
0.0
  0
LINE
  5
C9
330
1F
100
AcDbEntity
  8
C-1
  6
Continuous
 62
     2
370
     9
100
AcDbLine
 10
-436.4268863808613
 20
822.9986436722522
 30
0.0
 11
-1428.426991955186
 21
822.9986436722522
 31
0.0
  0
LINE
  5
CA
330
1F
100
AcDbEntity
  8
C-1
  6
JWW_DASHED3
 62
     2
370
     9
100
AcDbLine
 10
-436.4268863808613
 20
825.9986040818807
 30
0.0
 11
-1428.426991955186
 21
825.9986040818807
 31
0.0
  0
LINE
  5
CB
330
1F
100
AcDbEntity
  8
C-1
  6
JWW_PHANTOM1
 62
     2
370
     9
100
AcDbLine
 10
-1430.427666641102
 20
852.9982477685361
 30
0.0
 11
-1580.427295481368
 21
852.9982477685361
 31
0.0
  0
LINE
  5
CC
330
1F
100
AcDbEntity
  8
C-1
  6
JWW_PHANTOM1
 62
     2
370
     9
100
AcDbLine
 10
-1430.427666641102
 20
708.9981685877929
 30
0.0
 11
-1430.427666641102
 21
852.9982477685361
 31
0.0
  0
LINE
  5
CD
330
1F
100
AcDbEntity
  8
C-1
  6
JWW_PHANTOM1
 62
     2
370
     9
100
AcDbLine
 10
-1430.427666641102
 20
708.9981685877929
 30
0.0
 11
-1580.427295481368
 21
708.9981685877929
 31
0.0
  0
LINE
  5
CE
330
1F
100
AcDbEntity
  8
C-1
  6
JWW_PHANTOM1
 62
     2
370
     9
100
AcDbLine
 10
-1430.427666641102
 20
822.9986436722522
 30
0.0
 11
-1580.427295481368
 21
822.9986436722522
 31
0.0
  0
LINE
  5
CF
330
1F
100
AcDbEntity
  8
C-1
  6
JWW_PHANTOM1
 62
     2
370
     9
100
AcDbLine
 10
-1430.427666641102
 20
738.9987624433671
 30
0.0
 11
-1580.427295481368
 21
738.9987624433671
 31
0.0
  0
LINE
  5
D0
330
1F
100
AcDbEntity
  8
C-1
  6
JWW_PHANTOM1
 62
     2
370
     9
100
AcDbLine
 10
-434.427820053792
 20
852.9982477685361
 30
0.0
 11
-284.4280674936149
 21
852.9982477685361
 31
0.0
  0
LINE
  5
D1
330
1F
100
AcDbEntity
  8
C-1
  6
JWW_PHANTOM1
 62
     2
370
     9
100
AcDbLine
 10
-434.427820053792
 20
708.9981685877929
 30
0.0
 11
-434.427820053792
 21
852.9982477685361
 31
0.0
  0
LINE
  5
D2
330
1F
100
AcDbEntity
  8
C-1
  6
JWW_PHANTOM1
 62
     2
370
     9
100
AcDbLine
 10
-434.427820053792
 20
708.9981685877929
 30
0.0
 11
-284.4280674936149
 21
708.9981685877929
 31
0.0
  0
LINE
  5
D3
330
1F
100
AcDbEntity
  8
C-1
  6
JWW_PHANTOM1
 62
     2
370
     9
100
AcDbLine
 10
-434.427820053792
 20
822.9986436722522
 30
0.0
 11
-284.4280674936149
 21
822.9986436722522
 31
0.0
  0
LINE
  5
D4
330
1F
100
AcDbEntity
  8
C-1
  6
JWW_PHANTOM1
 62
     2
370
     9
100
AcDbLine
 10
-434.427820053792
 20
738.9987624433671
 30
0.0
 11
-284.4280674936149
 21
738.9987624433671
 31
0.0
  0
LINE
  5
D5
330
1F
100
AcDbEntity
  8
C-1
  6
Continuous
 62
     2
370
     9
100
AcDbLine
 10
-1597.747959345916
 20
770.9986700658333
 30
0.0
 11
-1563.107250216377
 21
790.9987360497861
 31
0.0
  0
LINE
  5
D6
330
1F
100
AcDbEntity
  8
C-1
  6
Continuous
 62
     2
370
     9
100
AcDbLine
 10
-1580.427295481368
 20
872.9983137524887
 30
0.0
 11
-1580.427295481368
 21
790.9987360497861
 31
0.0
  0
LINE
  5
D7
330
1F
100
AcDbEntity
  8
C-1
  6
Continuous
 62
     2
370
     9
100
AcDbLine
 10
-1580.427295481368
 20
790.9987360497861
 30
0.0
 11
-1563.107250216377
 21
790.9987360497861
 31
0.0
  0
LINE
  5
D8
330
1F
100
AcDbEntity
  8
C-1
  6
Continuous
 62
     2
370
     9
100
AcDbLine
 10
-1597.747959345916
 20
770.9986700658333
 30
0.0
 11
-1580.427295481368
 21
770.9986700658333
 31
0.0
  0
LINE
  5
D9
330
1F
100
AcDbEntity
  8
C-1
  6
Continuous
 62
     2
370
     9
100
AcDbLine
 10
-1580.427295481368
 20
770.9986700658333
 30
0.0
 11
-1580.427295481368
 21
688.99810260384
 31
0.0
  0
LINE
  5
DA
330
1F
100
AcDbEntity
  8
C-1
  6
Continuous
 62
     2
370
     9
100
AcDbLine
 10
-301.7486076382514
 20
770.9986700658333
 30
0.0
 11
-267.1080222286233
 21
790.9987360497861
 31
0.0
  0
LINE
  5
DB
330
1F
100
AcDbEntity
  8
C-1
  6
Continuous
 62
     2
370
     9
100
AcDbLine
 10
-284.4280674936149
 20
872.9983137524887
 30
0.0
 11
-284.4280674936149
 21
790.9987360497861
 31
0.0
  0
LINE
  5
DC
330
1F
100
AcDbEntity
  8
C-1
  6
Continuous
 62
     2
370
     9
100
AcDbLine
 10
-284.4280674936149
 20
790.9987360497861
 30
0.0
 11
-267.1080222286233
 21
790.9987360497861
 31
0.0
  0
LINE
  5
DD
330
1F
100
AcDbEntity
  8
C-1
  6
Continuous
 62
     2
370
     9
100
AcDbLine
 10
-301.7486076382514
 20
770.9986700658333
 30
0.0
 11
-284.4280674936149
 21
770.9986700658333
 31
0.0
  0
LINE
  5
DE
330
1F
100
AcDbEntity
  8
C-1
  6
Continuous
 62
     2
370
     9
100
AcDbLine
 10
-284.4280674936149
 20
770.9986700658333
 30
0.0
 11
-284.4280674936149
 21
688.99810260384
 31
0.0
  0
LINE
  5
DF
330
1F
100
AcDbEntity
  8
C-4
  6
Continuous
 62
     7
370
     9
100
AcDbLine
 10
-1430.427666641102
 20
864.9973470875817
 30
0.0
 11
-1430.427666641102
 21
947.9973239931984
 31
0.0
  0
LINE
  5
E0
330
1F
100
AcDbEntity
  8
C-4
  6
Continuous
 62
     7
370
     9
100
AcDbLine
 10
-1428.426991955186
 20
864.9973470875817
 30
0.0
 11
-1428.426991955186
 21
1027.997835368832
 31
0.0
  0
LINE
  5
E1
330
1F
100
AcDbEntity
  8
C-4
  6
Continuous
 62
     7
370
     9
100
AcDbLine
 10
-436.4273812605066
 20
864.9973470875817
 30
0.0
 11
-436.4273812605066
 21
947.9973239931984
 31
0.0
  0
LINE
  5
E2
330
1F
100
AcDbEntity
  8
C-4
  6
Continuous
 62
     7
370
     9
100
AcDbLine
 10
-434.427820053792
 20
864.9973470875817
 30
0.0
 11
-434.427820053792
 21
1027.997835368832
 31
0.0
  0
LINE
  5
E3
330
1F
100
AcDbEntity
  8
C-4
  6
Continuous
 62
     7
370
     9
100
AcDbLine
 10
-1580.427295481368
 20
1024.997132639735
 30
0.0
 11
-284.4280674936149
 21
1024.997132639735
 31
0.0
  0
LINE
  5
E4
330
1F
100
AcDbEntity
  8
C-4
  6
Continuous
 62
     7
370
     9
100
AcDbLine
 10
-1580.427295481368
 20
944.997858463215
 30
0.0
 11
-284.4280674936149
 21
944.997858463215
 31
0.0
  0
LINE
  5
E5
330
1F
100
AcDbEntity
  8
C-5
  6
Continuous
 62
     7
370
     9
100
AcDbLine
 10
-1219.927021647964
 20
543.9986139794736
 30
0.0
 11
-1219.927021647964
 21
608.9982098277632
 31
0.0
  0
LINE
  5
E6
330
1F
100
AcDbEntity
  8
C-5
  6
Continuous
 62
     7
370
     9
100
AcDbLine
 10
-1219.927021647964
 20
608.9982098277632
 30
0.0
 11
-644.9271041279053
 21
608.9982098277632
 31
0.0
  0
LINE
  5
E7
330
1F
100
AcDbEntity
  8
C-5
  6
Continuous
 62
     7
370
     9
100
AcDbLine
 10
-644.9271041279053
 20
608.9982098277632
 30
0.0
 11
-644.9271041279053
 21
543.9986139794736
 31
0.0
  0
LINE
  5
E8
330
1F
100
AcDbEntity
  8
C-5
  6
Continuous
 62
     7
370
     9
100
AcDbLine
 10
-644.9271041279053
 20
543.9986139794736
 30
0.0
 11
-1219.927021647964
 21
543.9986139794736
 31
0.0
  0
LINE
  5
E9
330
1F
100
AcDbEntity
  8
C-2
  6
Continuous
 62
     3
370
     9
100
AcDbLine
 10
-1398.427387858902
 20
822.9986436722522
 30
0.0
 11
-1398.427387858902
 21
738.9987624433671
 31
0.0
  0
LINE
  5
EA
330
1F
100
AcDbEntity
  8
C-2
  6
Continuous
 62
     3
370
     9
100
AcDbLine
 10
-1402.42737631171
 20
822.9986436722522
 30
0.0
 11
-1402.42737631171
 21
738.9987624433671
 31
0.0
  0
LINE
  5
EB
330
1F
100
AcDbEntity
  8
C-2
  6
Continuous
 62
     3
370
     9
100
AcDbLine
 10
-1385.427518177208
 20
822.9986436722522
 30
0.0
 11
-1385.427518177208
 21
738.9987624433671
 31
0.0
  0
LINE
  5
EC
330
1F
100
AcDbEntity
  8
C-2
  6
Continuous
 62
     3
370
     9
100
AcDbLine
 10
-1389.427506630017
 20
822.9986436722522
 30
0.0
 11
-1389.427506630017
 21
738.9987624433671
 31
0.0
  0
LINE
  5
ED
330
1F
100
AcDbEntity
  8
C-2
  6
Continuous
 62
     3
370
     9
100
AcDbLine
 10
-1372.427648495515
 20
822.9986436722522
 30
0.0
 11
-1372.427648495515
 21
738.9987624433671
 31
0.0
  0
LINE
  5
EE
330
1F
100
AcDbEntity
  8
C-2
  6
Continuous
 62
     3
370
     9
100
AcDbLine
 10
-1376.427636948323
 20
822.9986436722522
 30
0.0
 11
-1376.427636948323
 21
738.9987624433671
 31
0.0
  0
LINE
  5
EF
330
1F
100
AcDbEntity
  8
C-2
  6
Continuous
 62
     3
370
     9
100
AcDbLine
 10
-1359.427778813822
 20
822.9986436722522
 30
0.0
 11
-1359.427778813822
 21
738.9987624433671
 31
0.0
  0
LINE
  5
F0
330
1F
100
AcDbEntity
  8
C-2
  6
Continuous
 62
     3
370
     9
100
AcDbLine
 10
-1363.42776726663
 20
822.9986436722522
 30
0.0
 11
-1363.42776726663
 21
738.9987624433671
 31
0.0
  0
LINE
  5
F1
330
1F
100
AcDbEntity
  8
C-2
  6
Continuous
 62
     3
370
     9
100
AcDbLine
 10
-1346.427909132128
 20
822.9986436722522
 30
0.0
 11
-1346.427909132128
 21
738.9987624433671
 31
0.0
  0
LINE
  5
F2
330
1F
100
AcDbEntity
  8
C-2
  6
Continuous
 62
     3
370
     9
100
AcDbLine
 10
-1350.427897584937
 20
822.9986436722522
 30
0.0
 11
-1350.427897584937
 21
738.9987624433671
 31
0.0
  0
LINE
  5
F3
330
1F
100
AcDbEntity
  8
C-2
  6
Continuous
 62
     3
370
     9
100
AcDbLine
 10
-1333.428039450435
 20
822.9986436722522
 30
0.0
 11
-1333.428039450435
 21
738.9987624433671
 31
0.0
  0
LINE
  5
F4
330
1F
100
AcDbEntity
  8
C-2
  6
Continuous
 62
     3
370
     9
100
AcDbLine
 10
-1337.428027903243
 20
822.9986436722522
 30
0.0
 11
-1337.428027903243
 21
738.9987624433671
 31
0.0
  0
LINE
  5
F5
330
1F
100
AcDbEntity
  8
C-2
  6
Continuous
 62
     3
370
     9
100
AcDbLine
 10
-1320.428169768742
 20
822.9986436722522
 30
0.0
 11
-1320.428169768742
 21
738.9987624433671
 31
0.0
  0
LINE
  5
F6
330
1F
100
AcDbEntity
  8
C-2
  6
Continuous
 62
     3
370
     9
100
AcDbLine
 10
-1324.42815822155
 20
822.9986436722522
 30
0.0
 11
-1324.42815822155
 21
738.9987624433671
 31
0.0
  0
LINE
  5
F7
330
1F
100
AcDbEntity
  8
C-2
  6
Continuous
 62
     3
370
     9
100
AcDbLine
 10
-1307.428300087048
 20
822.9986436722522
 30
0.0
 11
-1307.428300087048
 21
738.9987624433671
 31
0.0
  0
LINE
  5
F8
330
1F
100
AcDbEntity
  8
C-2
  6
Continuous
 62
     3
370
     9
100
AcDbLine
 10
-1311.428288539856
 20
822.9986436722522
 30
0.0
 11
-1311.428288539856
 21
738.9987624433671
 31
0.0
  0
LINE
  5
F9
330
1F
100
AcDbEntity
  8
C-2
  6
Continuous
 62
     3
370
     9
100
AcDbLine
 10
-1294.428430405354
 20
822.9986436722522
 30
0.0
 11
-1294.428430405354
 21
738.9987624433671
 31
0.0
  0
LINE
  5
FA
330
1F
100
AcDbEntity
  8
C-2
  6
Continuous
 62
     3
370
     9
100
AcDbLine
 10
-1298.428418858163
 20
822.9986436722522
 30
0.0
 11
-1298.428418858163
 21
738.9987624433671
 31
0.0
  0
LINE
  5
FB
330
1F
100
AcDbEntity
  8
C-2
  6
Continuous
 62
     3
370
     9
100
AcDbLine
 10
-1281.428560723661
 20
822.9986436722522
 30
0.0
 11
-1281.428560723661
 21
738.9987624433671
 31
0.0
  0
LINE
  5
FC
330
1F
100
AcDbEntity
  8
C-2
  6
Continuous
 62
     3
370
     9
100
AcDbLine
 10
-1285.428549176469
 20
822.9986436722522
 30
0.0
 11
-1285.428549176469
 21
738.9987624433671
 31
0.0
  0
LINE
  5
FD
330
1F
100
AcDbEntity
  8
C-2
  6
Continuous
 62
     3
370
     9
100
AcDbLine
 10
-1268.428691041968
 20
822.9986436722522
 30
0.0
 11
-1268.428691041968
 21
738.9987624433671
 31
0.0
  0
LINE
  5
FE
330
1F
100
AcDbEntity
  8
C-2
  6
Continuous
 62
     3
370
     9
100
AcDbLine
 10
-1272.428679494776
 20
822.9986436722522
 30
0.0
 11
-1272.428679494776
 21
738.9987624433671
 31
0.0
  0
LINE
  5
FF
330
1F
100
AcDbEntity
  8
C-2
  6
Continuous
 62
     3
370
     9
100
AcDbLine
 10
-1255.428821360274
 20
822.9986436722522
 30
0.0
 11
-1255.428821360274
 21
738.9987624433671
 31
0.0
  0
LINE
  5
100
330
1F
100
AcDbEntity
  8
C-2
  6
Continuous
 62
     3
370
     9
100
AcDbLine
 10
-1259.428809813083
 20
822.9986436722522
 30
0.0
 11
-1259.428809813083
 21
738.9987624433671
 31
0.0
  0
LINE
  5
101
330
1F
100
AcDbEntity
  8
C-2
  6
Continuous
 62
     3
370
     9
100
AcDbLine
 10
-1242.428951678581
 20
822.9986436722522
 30
0.0
 11
-1242.428951678581
 21
738.9987624433671
 31
0.0
  0
LINE
  5
102
330
1F
100
AcDbEntity
  8
C-2
  6
Continuous
 62
     3
370
     9
100
AcDbLine
 10
-1246.428940131389
 20
822.9986436722522
 30
0.0
 11
-1246.428940131389
 21
738.9987624433671
 31
0.0
  0
LINE
  5
103
330
1F
100
AcDbEntity
  8
C-2
  6
Continuous
 62
     3
370
     9
100
AcDbLine
 10
-1229.429081996888
 20
822.9986436722522
 30
0.0
 11
-1229.429081996888
 21
738.9987624433671
 31
0.0
  0
LINE
  5
104
330
1F
100
AcDbEntity
  8
C-2
  6
Continuous
 62
     3
370
     9
100
AcDbLine
 10
-1233.429070449696
 20
822.9986436722522
 30
0.0
 11
-1233.429070449696
 21
738.9987624433671
 31
0.0
  0
LINE
  5
105
330
1F
100
AcDbEntity
  8
C-2
  6
Continuous
 62
     3
370
     9
100
AcDbLine
 10
-1216.429212315194
 20
822.9986436722522
 30
0.0
 11
-1216.429212315194
 21
738.9987624433671
 31
0.0
  0
LINE
  5
106
330
1F
100
AcDbEntity
  8
C-2
  6
Continuous
 62
     3
370
     9
100
AcDbLine
 10
-1220.429200768002
 20
822.9986436722522
 30
0.0
 11
-1220.429200768002
 21
738.9987624433671
 31
0.0
  0
LINE
  5
107
330
1F
100
AcDbEntity
  8
C-2
  6
Continuous
 62
     3
370
     9
100
AcDbLine
 10
-1203.429342633501
 20
822.9986436722522
 30
0.0
 11
-1203.429342633501
 21
738.9987624433671
 31
0.0
  0
LINE
  5
108
330
1F
100
AcDbEntity
  8
C-2
  6
Continuous
 62
     3
370
     9
100
AcDbLine
 10
-1207.429331086309
 20
822.9986436722522
 30
0.0
 11
-1207.429331086309
 21
738.9987624433671
 31
0.0
  0
LINE
  5
109
330
1F
100
AcDbEntity
  8
C-2
  6
Continuous
 62
     3
370
     9
100
AcDbLine
 10
-1190.429472951807
 20
822.9986436722522
 30
0.0
 11
-1190.429472951807
 21
738.9987624433671
 31
0.0
  0
LINE
  5
10A
330
1F
100
AcDbEntity
  8
C-2
  6
Continuous
 62
     3
370
     9
100
AcDbLine
 10
-1194.429461404616
 20
822.9986436722522
 30
0.0
 11
-1194.429461404616
 21
738.9987624433671
 31
0.0
  0
LINE
  5
10B
330
1F
100
AcDbEntity
  8
C-2
  6
Continuous
 62
     3
370
     9
100
AcDbLine
 10
-1177.429603270114
 20
822.9986436722522
 30
0.0
 11
-1177.429603270114
 21
738.9987624433671
 31
0.0
  0
LINE
  5
10C
330
1F
100
AcDbEntity
  8
C-2
  6
Continuous
 62
     3
370
     9
100
AcDbLine
 10
-1181.429591722922
 20
822.9986436722522
 30
0.0
 11
-1181.429591722922
 21
738.9987624433671
 31
0.0
  0
LINE
  5
10D
330
1F
100
AcDbEntity
  8
C-2
  6
Continuous
 62
     3
370
     9
100
AcDbLine
 10
-1164.42973358842
 20
822.9986436722522
 30
0.0
 11
-1164.42973358842
 21
738.9987624433671
 31
0.0
  0
LINE
  5
10E
330
1F
100
AcDbEntity
  8
C-2
  6
Continuous
 62
     3
370
     9
100
AcDbLine
 10
-1168.429722041229
 20
822.9986436722522
 30
0.0
 11
-1168.429722041229
 21
738.9987624433671
 31
0.0
  0
LINE
  5
10F
330
1F
100
AcDbEntity
  8
C-2
  6
Continuous
 62
     3
370
     9
100
AcDbLine
 10
-1151.429863906727
 20
822.9986436722522
 30
0.0
 11
-1151.429863906727
 21
738.9987624433671
 31
0.0
  0
LINE
  5
110
330
1F
100
AcDbEntity
  8
C-2
  6
Continuous
 62
     3
370
     9
100
AcDbLine
 10
-1155.429852359535
 20
822.9986436722522
 30
0.0
 11
-1155.429852359535
 21
738.9987624433671
 31
0.0
  0
LINE
  5
111
330
1F
100
AcDbEntity
  8
C-2
  6
Continuous
 62
     3
370
     9
100
AcDbLine
 10
-1138.429994225034
 20
822.9986436722522
 30
0.0
 11
-1138.429994225034
 21
738.9987624433671
 31
0.0
  0
LINE
  5
112
330
1F
100
AcDbEntity
  8
C-2
  6
Continuous
 62
     3
370
     9
100
AcDbLine
 10
-1142.429982677842
 20
822.9986436722522
 30
0.0
 11
-1142.429982677842
 21
738.9987624433671
 31
0.0
  0
LINE
  5
113
330
1F
100
AcDbEntity
  8
C-2
  6
Continuous
 62
     3
370
     9
100
AcDbLine
 10
-1125.43012454334
 20
822.9986436722522
 30
0.0
 11
-1125.43012454334
 21
738.9987624433671
 31
0.0
  0
LINE
  5
114
330
1F
100
AcDbEntity
  8
C-2
  6
Continuous
 62
     3
370
     9
100
AcDbLine
 10
-1129.430112996149
 20
822.9986436722522
 30
0.0
 11
-1129.430112996149
 21
738.9987624433671
 31
0.0
  0
LINE
  5
115
330
1F
100
AcDbEntity
  8
C-2
  6
Continuous
 62
     3
370
     9
100
AcDbLine
 10
-1112.430254861647
 20
822.9986436722522
 30
0.0
 11
-1112.430254861647
 21
738.9987624433671
 31
0.0
  0
LINE
  5
116
330
1F
100
AcDbEntity
  8
C-2
  6
Continuous
 62
     3
370
     9
100
AcDbLine
 10
-1116.430243314455
 20
822.9986436722522
 30
0.0
 11
-1116.430243314455
 21
738.9987624433671
 31
0.0
  0
LINE
  5
117
330
1F
100
AcDbEntity
  8
C-2
  6
Continuous
 62
     3
370
     9
100
AcDbLine
 10
-1099.430385179953
 20
822.9986436722522
 30
0.0
 11
-1099.430385179953
 21
738.9987624433671
 31
0.0
  0
LINE
  5
118
330
1F
100
AcDbEntity
  8
C-2
  6
Continuous
 62
     3
370
     9
100
AcDbLine
 10
-1103.430373632762
 20
822.9986436722522
 30
0.0
 11
-1103.430373632762
 21
738.9987624433671
 31
0.0
  0
LINE
  5
119
330
1F
100
AcDbEntity
  8
C-2
  6
Continuous
 62
     3
370
     9
100
AcDbLine
 10
-1086.43051549826
 20
822.9986436722522
 30
0.0
 11
-1086.43051549826
 21
738.9987624433671
 31
0.0
  0
LINE
  5
11A
330
1F
100
AcDbEntity
  8
C-2
  6
Continuous
 62
     3
370
     9
100
AcDbLine
 10
-1090.430503951068
 20
822.9986436722522
 30
0.0
 11
-1090.430503951068
 21
738.9987624433671
 31
0.0
  0
LINE
  5
11B
330
1F
100
AcDbEntity
  8
C-2
  6
Continuous
 62
     3
370
     9
100
AcDbLine
 10
-1073.430645816567
 20
822.9986436722522
 30
0.0
 11
-1073.430645816567
 21
738.9987624433671
 31
0.0
  0
LINE
  5
11C
330
1F
100
AcDbEntity
  8
C-2
  6
Continuous
 62
     3
370
     9
100
AcDbLine
 10
-1077.430634269375
 20
822.9986436722522
 30
0.0
 11
-1077.430634269375
 21
738.9987624433671
 31
0.0
  0
LINE
  5
11D
330
1F
100
AcDbEntity
  8
C-2
  6
Continuous
 62
     3
370
     9
100
AcDbLine
 10
-1060.430776134873
 20
822.9986436722522
 30
0.0
 11
-1060.430776134873
 21
738.9987624433671
 31
0.0
  0
LINE
  5
11E
330
1F
100
AcDbEntity
  8
C-2
  6
Continuous
 62
     3
370
     9
100
AcDbLine
 10
-1064.430764587681
 20
822.9986436722522
 30
0.0
 11
-1064.430764587681
 21
738.9987624433671
 31
0.0
  0
LINE
  5
11F
330
1F
100
AcDbEntity
  8
C-2
  6
Continuous
 62
     3
370
     9
100
AcDbLine
 10
-1047.43090645318
 20
822.9986436722522
 30
0.0
 11
-1047.43090645318
 21
738.9987624433671
 31
0.0
  0
LINE
  5
120
330
1F
100
AcDbEntity
  8
C-2
  6
Continuous
 62
     3
370
     9
100
AcDbLine
 10
-1051.430894905988
 20
822.9986436722522
 30
0.0
 11
-1051.430894905988
 21
738.9987624433671
 31
0.0
  0
LINE
  5
121
330
1F
100
AcDbEntity
  8
C-2
  6
Continuous
 62
     3
370
     9
100
AcDbLine
 10
-1034.431036771486
 20
822.9986436722522
 30
0.0
 11
-1034.431036771486
 21
738.9987624433671
 31
0.0
  0
LINE
  5
122
330
1F
100
AcDbEntity
  8
C-2
  6
Continuous
 62
     3
370
     9
100
AcDbLine
 10
-1038.431025224295
 20
822.9986436722522
 30
0.0
 11
-1038.431025224295
 21
738.9987624433671
 31
0.0
  0
LINE
  5
123
330
1F
100
AcDbEntity
  8
C-2
  6
Continuous
 62
     3
370
     9
100
AcDbLine
 10
-1021.431167089793
 20
822.9986436722522
 30
0.0
 11
-1021.431167089793
 21
738.9987624433671
 31
0.0
  0
LINE
  5
124
330
1F
100
AcDbEntity
  8
C-2
  6
Continuous
 62
     3
370
     9
100
AcDbLine
 10
-1025.431155542601
 20
822.9986436722522
 30
0.0
 11
-1025.431155542601
 21
738.9987624433671
 31
0.0
  0
LINE
  5
125
330
1F
100
AcDbEntity
  8
C-2
  6
Continuous
 62
     3
370
     9
100
AcDbLine
 10
-1008.4312974081
 20
822.9986436722522
 30
0.0
 11
-1008.4312974081
 21
738.9987624433671
 31
0.0
  0
LINE
  5
126
330
1F
100
AcDbEntity
  8
C-2
  6
Continuous
 62
     3
370
     9
100
AcDbLine
 10
-1012.431285860908
 20
822.9986436722522
 30
0.0
 11
-1012.431285860908
 21
738.9987624433671
 31
0.0
  0
LINE
  5
127
330
1F
100
AcDbEntity
  8
C-2
  6
Continuous
 62
     3
370
     9
100
AcDbLine
 10
-995.4314277264061
 20
822.9986436722522
 30
0.0
 11
-995.4314277264061
 21
738.9987624433671
 31
0.0
  0
LINE
  5
128
330
1F
100
AcDbEntity
  8
C-2
  6
Continuous
 62
     3
370
     9
100
AcDbLine
 10
-999.4314161792145
 20
822.9986436722522
 30
0.0
 11
-999.4314161792145
 21
738.9987624433671
 31
0.0
  0
LINE
  5
129
330
1F
100
AcDbEntity
  8
C-2
  6
Continuous
 62
     3
370
     9
100
AcDbLine
 10
-982.4315580447126
 20
822.9986436722522
 30
0.0
 11
-982.4315580447126
 21
738.9987624433671
 31
0.0
  0
LINE
  5
12A
330
1F
100
AcDbEntity
  8
C-2
  6
Continuous
 62
     3
370
     9
100
AcDbLine
 10
-986.4315464975209
 20
822.9986436722522
 30
0.0
 11
-986.4315464975209
 21
738.9987624433671
 31
0.0
  0
LINE
  5
12B
330
1F
100
AcDbEntity
  8
C-2
  6
Continuous
 62
     3
370
     9
100
AcDbLine
 10
-969.4316883630194
 20
822.9986436722522
 30
0.0
 11
-969.4316883630194
 21
738.9987624433671
 31
0.0
  0
LINE
  5
12C
330
1F
100
AcDbEntity
  8
C-2
  6
Continuous
 62
     3
370
     9
100
AcDbLine
 10
-973.4316768158277
 20
822.9986436722522
 30
0.0
 11
-973.4316768158277
 21
738.9987624433671
 31
0.0
  0
LINE
  5
12D
330
1F
100
AcDbEntity
  8
C-2
  6
Continuous
 62
     3
370
     9
100
AcDbLine
 10
-956.4318186813259
 20
822.9986436722522
 30
0.0
 11
-956.4318186813259
 21
738.9987624433671
 31
0.0
  0
LINE
  5
12E
330
1F
100
AcDbEntity
  8
C-2
  6
Continuous
 62
     3
370
     9
100
AcDbLine
 10
-960.4318071341343
 20
822.9986436722522
 30
0.0
 11
-960.4318071341343
 21
738.9987624433671
 31
0.0
  0
LINE
  5
12F
330
1F
100
AcDbEntity
  8
C-2
  6
Continuous
 62
     3
370
     9
100
AcDbLine
 10
-943.4318252797211
 20
822.9986436722522
 30
0.0
 11
-943.4318252797211
 21
738.9987624433671
 31
0.0
  0
LINE
  5
130
330
1F
100
AcDbEntity
  8
C-2
  6
Continuous
 62
     3
370
     9
100
AcDbLine
 10
-947.4319374524407
 20
822.9986436722522
 30
0.0
 11
-947.4319374524407
 21
738.9987624433671
 31
0.0
  0
LINE
  5
131
330
1F
100
AcDbEntity
  8
C-2
  6
Continuous
 62
     3
370
     9
100
AcDbLine
 10
-930.4320793179392
 20
822.9986436722522
 30
0.0
 11
-930.4320793179392
 21
738.9987624433671
 31
0.0
  0
LINE
  5
132
330
1F
100
AcDbEntity
  8
C-2
  6
Continuous
 62
     3
370
     9
100
AcDbLine
 10
-934.431944050836
 20
822.9986436722522
 30
0.0
 11
-934.431944050836
 21
738.9987624433671
 31
0.0
  0
LINE
  5
133
330
1F
100
AcDbEntity
  8
C-2
  6
Continuous
 62
     3
370
     9
100
AcDbLine
 10
-917.4323333561568
 20
822.9986436722522
 30
0.0
 11
-917.4323333561568
 21
738.9987624433671
 31
0.0
  0
LINE
  5
134
330
1F
100
AcDbEntity
  8
C-2
  6
Continuous
 62
     3
370
     9
100
AcDbLine
 10
-921.432198089054
 20
822.9986436722522
 30
0.0
 11
-921.432198089054
 21
738.9987624433671
 31
0.0
  0
LINE
  5
135
330
1F
100
AcDbEntity
  8
C-2
  6
Continuous
 62
     3
370
     9
100
AcDbLine
 10
-904.4323399545522
 20
822.9986436722522
 30
0.0
 11
-904.4323399545522
 21
738.9987624433671
 31
0.0
  0
LINE
  5
136
330
1F
100
AcDbEntity
  8
C-2
  6
Continuous
 62
     3
370
     9
100
AcDbLine
 10
-908.4324521272717
 20
822.9986436722522
 30
0.0
 11
-908.4324521272717
 21
738.9987624433671
 31
0.0
  0
LINE
  5
137
330
1F
100
AcDbEntity
  8
C-2
  6
Continuous
 62
     3
370
     9
100
AcDbLine
 10
-891.4323465529475
 20
822.9986436722522
 30
0.0
 11
-891.4323465529475
 21
738.9987624433671
 31
0.0
  0
LINE
  5
138
330
1F
100
AcDbEntity
  8
C-2
  6
Continuous
 62
     3
370
     9
100
AcDbLine
 10
-895.432458725667
 20
822.9986436722522
 30
0.0
 11
-895.432458725667
 21
738.9987624433671
 31
0.0
  0
LINE
  5
139
330
1F
100
AcDbEntity
  8
C-2
  6
Continuous
 62
     3
370
     9
100
AcDbLine
 10
-878.4326005911655
 20
822.9986436722522
 30
0.0
 11
-878.4326005911655
 21
738.9987624433671
 31
0.0
  0
LINE
  5
13A
330
1F
100
AcDbEntity
  8
C-2
  6
Continuous
 62
     3
370
     9
100
AcDbLine
 10
-882.4324653240624
 20
822.9986436722522
 30
0.0
 11
-882.4324653240624
 21
738.9987624433671
 31
0.0
  0
LINE
  5
13B
330
1F
100
AcDbEntity
  8
C-2
  6
Continuous
 62
     3
370
     9
100
AcDbLine
 10
-865.4328546293834
 20
822.9986436722522
 30
0.0
 11
-865.4328546293834
 21
738.9987624433671
 31
0.0
  0
LINE
  5
13C
330
1F
100
AcDbEntity
  8
C-2
  6
Continuous
 62
     3
370
     9
100
AcDbLine
 10
-869.4327193622803
 20
822.9986436722522
 30
0.0
 11
-869.4327193622803
 21
738.9987624433671
 31
0.0
  0
LINE
  5
13D
330
1F
100
AcDbEntity
  8
C-2
  6
Continuous
 62
     3
370
     9
100
AcDbLine
 10
-852.4328612277784
 20
822.9986436722522
 30
0.0
 11
-852.4328612277784
 21
738.9987624433671
 31
0.0
  0
LINE
  5
13E
330
1F
100
AcDbEntity
  8
C-2
  6
Continuous
 62
     3
370
     9
100
AcDbLine
 10
-856.4329734004982
 20
822.9986436722522
 30
0.0
 11
-856.4329734004982
 21
738.9987624433671
 31
0.0
  0
LINE
  5
13F
330
1F
100
AcDbEntity
  8
C-2
  6
Continuous
 62
     3
370
     9
100
AcDbLine
 10
-839.4328678261738
 20
822.9986436722522
 30
0.0
 11
-839.4328678261738
 21
738.9987624433671
 31
0.0
  0
LINE
  5
140
330
1F
100
AcDbEntity
  8
C-2
  6
Continuous
 62
     3
370
     9
100
AcDbLine
 10
-843.4329799988933
 20
822.9986436722522
 30
0.0
 11
-843.4329799988933
 21
738.9987624433671
 31
0.0
  0
LINE
  5
141
330
1F
100
AcDbEntity
  8
C-2
  6
Continuous
 62
     3
370
     9
100
AcDbLine
 10
-826.4331218643918
 20
822.9986436722522
 30
0.0
 11
-826.4331218643918
 21
738.9987624433671
 31
0.0
  0
LINE
  5
142
330
1F
100
AcDbEntity
  8
C-2
  6
Continuous
 62
     3
370
     9
100
AcDbLine
 10
-830.4329865972886
 20
822.9986436722522
 30
0.0
 11
-830.4329865972886
 21
738.9987624433671
 31
0.0
  0
LINE
  5
143
330
1F
100
AcDbEntity
  8
C-2
  6
Continuous
 62
     3
370
     9
100
AcDbLine
 10
-813.4333759026097
 20
822.9986436722522
 30
0.0
 11
-813.4333759026097
 21
738.9987624433671
 31
0.0
  0
LINE
  5
144
330
1F
100
AcDbEntity
  8
C-2
  6
Continuous
 62
     3
370
     9
100
AcDbLine
 10
-817.4332406355065
 20
822.9986436722522
 30
0.0
 11
-817.4332406355065
 21
738.9987624433671
 31
0.0
  0
LINE
  5
145
330
1F
100
AcDbEntity
  8
C-2
  6
Continuous
 62
     3
370
     9
100
AcDbLine
 10
-800.4333825010051
 20
822.9986436722522
 30
0.0
 11
-800.4333825010051
 21
738.9987624433671
 31
0.0
  0
LINE
  5
146
330
1F
100
AcDbEntity
  8
C-2
  6
Continuous
 62
     3
370
     9
100
AcDbLine
 10
-804.4334946737246
 20
822.9986436722522
 30
0.0
 11
-804.4334946737246
 21
738.9987624433671
 31
0.0
  0
LINE
  5
147
330
1F
100
AcDbEntity
  8
C-2
  6
Continuous
 62
     3
370
     9
100
AcDbLine
 10
-787.4333890994001
 20
822.9986436722522
 30
0.0
 11
-787.4333890994001
 21
738.9987624433671
 31
0.0
  0
LINE
  5
148
330
1F
100
AcDbEntity
  8
C-2
  6
Continuous
 62
     3
370
     9
100
AcDbLine
 10
-791.4335012721199
 20
822.9986436722522
 30
0.0
 11
-791.4335012721199
 21
738.9987624433671
 31
0.0
  0
LINE
  5
149
330
1F
100
AcDbEntity
  8
C-2
  6
Continuous
 62
     3
370
     9
100
AcDbLine
 10
-774.433643137618
 20
822.9986436722522
 30
0.0
 11
-774.433643137618
 21
738.9987624433671
 31
0.0
  0
LINE
  5
14A
330
1F
100
AcDbEntity
  8
C-2
  6
Continuous
 62
     3
370
     9
100
AcDbLine
 10
-778.4335078705152
 20
822.9986436722522
 30
0.0
 11
-778.4335078705152
 21
738.9987624433671
 31
0.0
  0
LINE
  5
14B
330
1F
100
AcDbEntity
  8
C-2
  6
Continuous
 62
     3
370
     9
100
AcDbLine
 10
-761.433897175836
 20
822.9986436722522
 30
0.0
 11
-761.433897175836
 21
738.9987624433671
 31
0.0
  0
LINE
  5
14C
330
1F
100
AcDbEntity
  8
C-2
  6
Continuous
 62
     3
370
     9
100
AcDbLine
 10
-765.4337619087329
 20
822.9986436722522
 30
0.0
 11
-765.4337619087329
 21
738.9987624433671
 31
0.0
  0
LINE
  5
14D
330
1F
100
AcDbEntity
  8
C-2
  6
Continuous
 62
     3
370
     9
100
AcDbLine
 10
-748.4339037742313
 20
822.9986436722522
 30
0.0
 11
-748.4339037742313
 21
738.9987624433671
 31
0.0
  0
LINE
  5
14E
330
1F
100
AcDbEntity
  8
C-2
  6
Continuous
 62
     3
370
     9
100
AcDbLine
 10
-752.4340159469509
 20
822.9986436722522
 30
0.0
 11
-752.4340159469509
 21
738.9987624433671
 31
0.0
  0
LINE
  5
14F
330
1F
100
AcDbEntity
  8
C-2
  6
Continuous
 62
     3
370
     9
100
AcDbLine
 10
-735.4339103726267
 20
822.9986436722522
 30
0.0
 11
-735.4339103726267
 21
738.9987624433671
 31
0.0
  0
LINE
  5
150
330
1F
100
AcDbEntity
  8
C-2
  6
Continuous
 62
     3
370
     9
100
AcDbLine
 10
-739.4340225453461
 20
822.9986436722522
 30
0.0
 11
-739.4340225453461
 21
738.9987624433671
 31
0.0
  0
LINE
  5
151
330
1F
100
AcDbEntity
  8
C-2
  6
Continuous
 62
     3
370
     9
100
AcDbLine
 10
-722.4341644108443
 20
822.9986436722522
 30
0.0
 11
-722.4341644108443
 21
738.9987624433671
 31
0.0
  0
LINE
  5
152
330
1F
100
AcDbEntity
  8
C-2
  6
Continuous
 62
     3
370
     9
100
AcDbLine
 10
-726.4340291437416
 20
822.9986436722522
 30
0.0
 11
-726.4340291437416
 21
738.9987624433671
 31
0.0
  0
LINE
  5
153
330
1F
100
AcDbEntity
  8
C-2
  6
Continuous
 62
     3
370
     9
100
AcDbLine
 10
-709.4344184490624
 20
822.9986436722522
 30
0.0
 11
-709.4344184490624
 21
738.9987624433671
 31
0.0
  0
LINE
  5
154
330
1F
100
AcDbEntity
  8
C-2
  6
Continuous
 62
     3
370
     9
100
AcDbLine
 10
-713.4342831819592
 20
822.9986436722522
 30
0.0
 11
-713.4342831819592
 21
738.9987624433671
 31
0.0
  0
LINE
  5
155
330
1F
100
AcDbEntity
  8
C-2
  6
Continuous
 62
     3
370
     9
100
AcDbLine
 10
-696.4344250474576
 20
822.9986436722522
 30
0.0
 11
-696.4344250474576
 21
738.9987624433671
 31
0.0
  0
LINE
  5
156
330
1F
100
AcDbEntity
  8
C-2
  6
Continuous
 62
     3
370
     9
100
AcDbLine
 10
-700.4345372201772
 20
822.9986436722522
 30
0.0
 11
-700.4345372201772
 21
738.9987624433671
 31
0.0
  0
LINE
  5
157
330
1F
100
AcDbEntity
  8
C-2
  6
Continuous
 62
     3
370
     9
100
AcDbLine
 10
-683.434431645853
 20
822.9986436722522
 30
0.0
 11
-683.434431645853
 21
738.9987624433671
 31
0.0
  0
LINE
  5
158
330
1F
100
AcDbEntity
  8
C-2
  6
Continuous
 62
     3
370
     9
100
AcDbLine
 10
-687.4345438185725
 20
822.9986436722522
 30
0.0
 11
-687.4345438185725
 21
738.9987624433671
 31
0.0
  0
LINE
  5
159
330
1F
100
AcDbEntity
  8
C-2
  6
Continuous
 62
     3
370
     9
100
AcDbLine
 10
-670.4346856840709
 20
822.9986436722522
 30
0.0
 11
-670.4346856840709
 21
738.9987624433671
 31
0.0
  0
LINE
  5
15A
330
1F
100
AcDbEntity
  8
C-2
  6
Continuous
 62
     3
370
     9
100
AcDbLine
 10
-674.4345504169678
 20
822.9986436722522
 30
0.0
 11
-674.4345504169678
 21
738.9987624433671
 31
0.0
  0
LINE
  5
15B
330
1F
100
AcDbEntity
  8
C-2
  6
Continuous
 62
     3
370
     9
100
AcDbLine
 10
-657.4349397222886
 20
822.9986436722522
 30
0.0
 11
-657.4349397222886
 21
738.9987624433671
 31
0.0
  0
LINE
  5
15C
330
1F
100
AcDbEntity
  8
C-2
  6
Continuous
 62
     3
370
     9
100
AcDbLine
 10
-661.4348044551857
 20
822.9986436722522
 30
0.0
 11
-661.4348044551857
 21
738.9987624433671
 31
0.0
  0
LINE
  5
15D
330
1F
100
AcDbEntity
  8
C-2
  6
Continuous
 62
     3
370
     9
100
AcDbLine
 10
-644.4349463206839
 20
822.9986436722522
 30
0.0
 11
-644.4349463206839
 21
738.9987624433671
 31
0.0
  0
LINE
  5
15E
330
1F
100
AcDbEntity
  8
C-2
  6
Continuous
 62
     3
370
     9
100
AcDbLine
 10
-648.4350584934034
 20
822.9986436722522
 30
0.0
 11
-648.4350584934034
 21
738.9987624433671
 31
0.0
  0
LINE
  5
15F
330
1F
100
AcDbEntity
  8
C-2
  6
Continuous
 62
     3
370
     9
100
AcDbLine
 10
-631.4349529190793
 20
822.9986436722522
 30
0.0
 11
-631.4349529190793
 21
738.9987624433671
 31
0.0
  0
LINE
  5
160
330
1F
100
AcDbEntity
  8
C-2
  6
Continuous
 62
     3
370
     9
100
AcDbLine
 10
-635.4350650917988
 20
822.9986436722522
 30
0.0
 11
-635.4350650917988
 21
738.9987624433671
 31
0.0
  0
LINE
  5
161
330
1F
100
AcDbEntity
  8
C-2
  6
Continuous
 62
     3
370
     9
100
AcDbLine
 10
-618.4352069572972
 20
822.9986436722522
 30
0.0
 11
-618.4352069572972
 21
738.9987624433671
 31
0.0
  0
LINE
  5
162
330
1F
100
AcDbEntity
  8
C-2
  6
Continuous
 62
     3
370
     9
100
AcDbLine
 10
-622.435071690194
 20
822.9986436722522
 30
0.0
 11
-622.435071690194
 21
738.9987624433671
 31
0.0
  0
LINE
  5
163
330
1F
100
AcDbEntity
  8
C-2
  6
Continuous
 62
     3
370
     9
100
AcDbLine
 10
-605.4354609955149
 20
822.9986436722522
 30
0.0
 11
-605.4354609955149
 21
738.9987624433671
 31
0.0
  0
LINE
  5
164
330
1F
100
AcDbEntity
  8
C-2
  6
Continuous
 62
     3
370
     9
100
AcDbLine
 10
-609.4353257284121
 20
822.9986436722522
 30
0.0
 11
-609.4353257284121
 21
738.9987624433671
 31
0.0
  0
LINE
  5
165
330
1F
100
AcDbEntity
  8
C-2
  6
Continuous
 62
     3
370
     9
100
AcDbLine
 10
-592.4354675939103
 20
822.9986436722522
 30
0.0
 11
-592.4354675939103
 21
738.9987624433671
 31
0.0
  0
LINE
  5
166
330
1F
100
AcDbEntity
  8
C-2
  6
Continuous
 62
     3
370
     9
100
AcDbLine
 10
-596.4355797666301
 20
822.9986436722522
 30
0.0
 11
-596.4355797666301
 21
738.9987624433671
 31
0.0
  0
LINE
  5
167
330
1F
100
AcDbEntity
  8
C-2
  6
Continuous
 62
     3
370
     9
100
AcDbLine
 10
-579.4354741923055
 20
822.9986436722522
 30
0.0
 11
-579.4354741923055
 21
738.9987624433671
 31
0.0
  0
LINE
  5
168
330
1F
100
AcDbEntity
  8
C-2
  6
Continuous
 62
     3
370
     9
100
AcDbLine
 10
-583.4355863650251
 20
822.9986436722522
 30
0.0
 11
-583.4355863650251
 21
738.9987624433671
 31
0.0
  0
LINE
  5
169
330
1F
100
AcDbEntity
  8
C-2
  6
Continuous
 62
     3
370
     9
100
AcDbLine
 10
-566.4357282305235
 20
822.9986436722522
 30
0.0
 11
-566.4357282305235
 21
738.9987624433671
 31
0.0
  0
LINE
  5
16A
330
1F
100
AcDbEntity
  8
C-2
  6
Continuous
 62
     3
370
     9
100
AcDbLine
 10
-570.4355929634204
 20
822.9986436722522
 30
0.0
 11
-570.4355929634204
 21
738.9987624433671
 31
0.0
  0
LINE
  5
16B
330
1F
100
AcDbEntity
  8
C-2
  6
Continuous
 62
     3
370
     9
100
AcDbLine
 10
-553.4359822687416
 20
822.9986436722522
 30
0.0
 11
-553.4359822687416
 21
738.9987624433671
 31
0.0
  0
LINE
  5
16C
330
1F
100
AcDbEntity
  8
C-2
  6
Continuous
 62
     3
370
     9
100
AcDbLine
 10
-557.4358470016384
 20
822.9986436722522
 30
0.0
 11
-557.4358470016384
 21
738.9987624433671
 31
0.0
  0
LINE
  5
16D
330
1F
100
AcDbEntity
  8
C-2
  6
Continuous
 62
     3
370
     9
100
AcDbLine
 10
-540.4359888671365
 20
822.9986436722522
 30
0.0
 11
-540.4359888671365
 21
738.9987624433671
 31
0.0
  0
LINE
  5
16E
330
1F
100
AcDbEntity
  8
C-2
  6
Continuous
 62
     3
370
     9
100
AcDbLine
 10
-544.4361010398563
 20
822.9986436722522
 30
0.0
 11
-544.4361010398563
 21
738.9987624433671
 31
0.0
  0
LINE
  5
16F
330
1F
100
AcDbEntity
  8
C-2
  6
Continuous
 62
     3
370
     9
100
AcDbLine
 10
-527.4359954655318
 20
822.9986436722522
 30
0.0
 11
-527.4359954655318
 21
738.9987624433671
 31
0.0
  0
LINE
  5
170
330
1F
100
AcDbEntity
  8
C-2
  6
Continuous
 62
     3
370
     9
100
AcDbLine
 10
-531.4361076382517
 20
822.9986436722522
 30
0.0
 11
-531.4361076382517
 21
738.9987624433671
 31
0.0
  0
LINE
  5
171
330
1F
100
AcDbEntity
  8
C-2
  6
Continuous
 62
     3
370
     9
100
AcDbLine
 10
-514.4362495037499
 20
822.9986436722522
 30
0.0
 11
-514.4362495037499
 21
738.9987624433671
 31
0.0
  0
LINE
  5
172
330
1F
100
AcDbEntity
  8
C-2
  6
Continuous
 62
     3
370
     9
100
AcDbLine
 10
-518.4361142366467
 20
822.9986436722522
 30
0.0
 11
-518.4361142366467
 21
738.9987624433671
 31
0.0
  0
LINE
  5
173
330
1F
100
AcDbEntity
  8
C-2
  6
Continuous
 62
     3
370
     9
100
AcDbLine
 10
-501.4365035419678
 20
822.9986436722522
 30
0.0
 11
-501.4365035419678
 21
738.9987624433671
 31
0.0
  0
LINE
  5
174
330
1F
100
AcDbEntity
  8
C-2
  6
Continuous
 62
     3
370
     9
100
AcDbLine
 10
-505.4363682748647
 20
822.9986436722522
 30
0.0
 11
-505.4363682748647
 21
738.9987624433671
 31
0.0
  0
LINE
  5
175
330
1F
100
AcDbEntity
  8
C-2
  6
Continuous
 62
     3
370
     9
100
AcDbLine
 10
-488.4365101403631
 20
822.9986436722522
 30
0.0
 11
-488.4365101403631
 21
738.9987624433671
 31
0.0
  0
LINE
  5
176
330
1F
100
AcDbEntity
  8
C-2
  6
Continuous
 62
     3
370
     9
100
AcDbLine
 10
-492.4366223130826
 20
822.9986436722522
 30
0.0
 11
-492.4366223130826
 21
738.9987624433671
 31
0.0
  0
LINE
  5
177
330
1F
100
AcDbEntity
  8
C-2
  6
Continuous
 62
     3
370
     9
100
AcDbLine
 10
-475.4365167387584
 20
822.9986436722522
 30
0.0
 11
-475.4365167387584
 21
738.9987624433671
 31
0.0
  0
LINE
  5
178
330
1F
100
AcDbEntity
  8
C-2
  6
Continuous
 62
     3
370
     9
100
AcDbLine
 10
-479.436628911478
 20
822.9986436722522
 30
0.0
 11
-479.436628911478
 21
738.9987624433671
 31
0.0
  0
LINE
  5
179
330
1F
100
AcDbEntity
  8
C-2
  6
Continuous
 62
     3
370
     9
100
AcDbLine
 10
-462.4367707769761
 20
822.9986436722522
 30
0.0
 11
-462.4367707769761
 21
738.9987624433671
 31
0.0
  0
LINE
  5
17A
330
1F
100
AcDbEntity
  8
C-2
  6
Continuous
 62
     3
370
     9
100
AcDbLine
 10
-466.4366355098733
 20
822.9986436722522
 30
0.0
 11
-466.4366355098733
 21
738.9987624433671
 31
0.0
  0
LINE
  5
17B
330
1F
100
AcDbEntity
  8
C-2
  6
Continuous
 62
     3
370
     9
100
AcDbLine
 10
-449.4370248151941
 20
822.9986436722522
 30
0.0
 11
-449.4370248151941
 21
738.9987624433671
 31
0.0
  0
LINE
  5
17C
330
1F
100
AcDbEntity
  8
C-2
  6
Continuous
 62
     3
370
     9
100
AcDbLine
 10
-453.436889548091
 20
822.9986436722522
 30
0.0
 11
-453.436889548091
 21
738.9987624433671
 31
0.0
  0
LINE
  5
17D
330
1F
100
AcDbEntity
  8
C-4
  6
Continuous
 62
     7
370
     9
100
AcDbLine
 10
-581.4355302786655
 20
872.9983137524887
 30
0.0
 11
-568.4357843168834
 21
872.9983137524887
 31
0.0
  0
LINE
  5
17E
330
1F
100
AcDbEntity
  8
C-4
  6
Continuous
 62
     7
370
     9
100
AcDbLine
 10
-581.4355302786655
 20
812.6096352790934
 30
0.0
 11
-581.4355302786655
 21
875.9982741621171
 31
0.0
  0
LINE
  5
17F
330
1F
100
AcDbEntity
  8
C-4
  6
Continuous
 62
     7
370
     9
100
AcDbLine
 10
-568.4357843168834
 20
812.6096352790934
 30
0.0
 11
-568.4357843168834
 21
875.9982741621171
 31
0.0
  0
LINE
  5
180
330
1F
100
AcDbEntity
  8
C-9
  6
Continuous
 62
     6
370
     5
100
AcDbLine
 10
-1428.426991955186
 20
756.70580359096
 30
0.0
 11
-1424.426756062555
 21
752.7059388580632
 31
0.0
  0
LINE
  5
181
330
1F
100
AcDbEntity
  8
C-9
  6
Continuous
 62
     6
370
     5
100
AcDbLine
 10
-1428.426991955186
 20
759.534535643325
 30
0.0
 11
-1424.426756062555
 21
755.5341760307828
 31
0.0
  0
LINE
  5
182
330
1F
100
AcDbEntity
  8
C-9
  6
Continuous
 62
     6
370
     5
100
AcDbLine
 10
-1428.426991955186
 20
762.3627728160444
 30
0.0
 11
-1424.426756062555
 21
758.362660643325
 31
0.0
  0
LINE
  5
183
330
1F
100
AcDbEntity
  8
C-9
  6
Continuous
 62
     6
370
     5
100
AcDbLine
 10
-1428.426991955186
 20
765.1912574285866
 30
0.0
 11
-1424.426756062555
 21
761.1913926956897
 31
0.0
  0
LINE
  5
184
330
1F
100
AcDbEntity
  8
C-9
  6
Continuous
 62
     6
370
     5
100
AcDbLine
 10
-1428.426991955186
 20
768.0194946013064
 30
0.0
 11
-1424.426756062555
 21
764.0196298684093
 31
0.0
  0
LINE
  5
185
330
1F
100
AcDbEntity
  8
C-9
  6
Continuous
 62
     6
370
     5
100
AcDbLine
 10
-1428.426991955186
 20
770.8479792138486
 30
0.0
 11
-1424.426756062555
 21
766.8481144809517
 31
0.0
  0
LINE
  5
186
330
1F
100
AcDbEntity
  8
C-9
  6
Continuous
 62
     6
370
     5
100
AcDbLine
 10
-1428.426991955186
 20
773.6767112662135
 30
0.0
 11
-1424.426756062555
 21
769.6763516536713
 31
0.0
  0
LINE
  5
187
330
1F
100
AcDbEntity
  8
C-9
  6
Continuous
 62
     6
370
     5
100
AcDbLine
 10
-1428.426991955186
 20
776.504948438933
 30
0.0
 11
-1424.426756062555
 21
772.5048362662135
 31
0.0
  0
LINE
  5
188
330
1F
100
AcDbEntity
  8
C-9
  6
Continuous
 62
     6
370
     5
100
AcDbLine
 10
-1428.426991955186
 20
779.3334330514751
 30
0.0
 11
-1424.426756062555
 21
775.333073438933
 31
0.0
  0
LINE
  5
189
330
1F
100
AcDbEntity
  8
C-9
  6
Continuous
 62
     6
370
     5
100
AcDbLine
 10
-1428.426991955186
 20
782.161670224195
 30
0.0
 11
-1424.426756062555
 21
778.1618054912979
 31
0.0
  0
LINE
  5
18A
330
1F
100
AcDbEntity
  8
C-9
  6
Continuous
 62
     6
370
     5
100
AcDbLine
 10
-1428.426991955186
 20
784.9901548367371
 30
0.0
 11
-1424.426756062555
 21
780.99029010384
 31
0.0
  0
LINE
  5
18B
330
1F
100
AcDbEntity
  8
C-9
  6
Continuous
 62
     6
370
     5
100
AcDbLine
 10
-1428.426991955186
 20
787.8183920094567
 30
0.0
 11
-1424.426756062555
 21
783.8185272765598
 31
0.0
  0
LINE
  5
18C
330
1F
100
AcDbEntity
  8
C-9
  6
Continuous
 62
     6
370
     5
100
AcDbLine
 10
-1428.426991955186
 20
790.6471240618215
 30
0.0
 11
-1424.426756062555
 21
786.647011889102
 31
0.0
  0
LINE
  5
18D
330
1F
100
AcDbEntity
  8
C-9
  6
Continuous
 62
     6
370
     5
100
AcDbLine
 10
-1428.426991955186
 20
793.4756086743637
 30
0.0
 11
-1424.426756062555
 21
789.4752490618215
 31
0.0
  0
LINE
  5
18E
330
1F
100
AcDbEntity
  8
C-9
  6
Continuous
 62
     6
370
     5
100
AcDbLine
 10
-1428.426991955186
 20
796.3038458470835
 30
0.0
 11
-1424.426756062555
 21
792.3037336743637
 31
0.0
  0
LINE
  5
18F
330
1F
100
AcDbEntity
  8
C-9
  6
Continuous
 62
     6
370
     5
100
AcDbLine
 10
-1428.426991955186
 20
799.1318355799804
 30
0.0
 11
-1424.426756062555
 21
795.1319708470835
 31
0.0
  0
LINE
  5
190
330
1F
100
AcDbEntity
  8
C-9
  6
Continuous
 62
     6
370
     5
100
AcDbLine
 10
-1428.426991955186
 20
801.9605676323453
 30
0.0
 11
-1424.426756062555
 21
797.9607028994484
 31
0.0
  0
LINE
  5
191
330
1F
100
AcDbEntity
  8
C-9
  6
Continuous
 62
     6
370
     5
100
AcDbLine
 10
-1428.426991955186
 20
804.7890522448874
 30
0.0
 11
-1424.426756062555
 21
800.7891875119906
 31
0.0
  0
LINE
  5
192
330
1F
100
AcDbEntity
  8
C-9
  6
Continuous
 62
     6
370
     5
100
AcDbLine
 10
-1428.426991955186
 20
807.6172894176069
 30
0.0
 11
-1424.426756062555
 21
803.61742468471
 31
0.0
  0
LINE
  5
193
330
1F
100
AcDbEntity
  8
C-9
  6
Continuous
 62
     6
370
     5
100
AcDbLine
 10
-1428.426991955186
 20
810.4460214699718
 30
0.0
 11
-1424.426756062555
 21
806.4459092972522
 31
0.0
  0
LINE
  5
194
330
1F
100
AcDbEntity
  8
C-9
  6
Continuous
 62
     6
370
     5
100
AcDbLine
 10
-1428.426991955186
 20
813.2745060825142
 30
0.0
 11
-1424.426756062555
 21
809.2741464699718
 31
0.0
  0
LINE
  5
195
330
1F
100
AcDbEntity
  8
C-9
  6
Continuous
 62
     6
370
     5
100
AcDbLine
 10
-1428.426991955186
 20
816.1027432552338
 30
0.0
 11
-1424.426756062555
 21
812.1028785223366
 31
0.0
  0
LINE
  5
196
330
1F
100
AcDbEntity
  8
C-9
  6
Continuous
 62
     6
370
     5
100
AcDbLine
 10
-1428.426991955186
 20
818.9309804279533
 30
0.0
 11
-1424.426756062555
 21
814.9308682552338
 31
0.0
  0
LINE
  5
197
330
1F
100
AcDbEntity
  8
C-9
  6
Continuous
 62
     6
370
     5
100
AcDbLine
 10
-1428.426991955186
 20
821.7594650404955
 30
0.0
 11
-1424.426756062555
 21
817.7596003075986
 31
0.0
  0
LINE
  5
198
330
1F
100
AcDbEntity
  8
C-9
  6
Continuous
 62
     6
370
     5
100
AcDbLine
 10
-1426.837438534578
 20
822.9986436722522
 30
0.0
 11
-1424.426756062555
 21
820.5880849201408
 31
0.0
  0
LINE
  5
199
330
1F
100
AcDbEntity
  8
C-9
  6
Continuous
 62
     6
370
     5
100
AcDbLine
 10
-1428.426991955186
 20
751.3262144070496
 30
0.0
 11
-1424.426756062555
 21
755.3260791399465
 31
0.0
  0
LINE
  5
19A
330
1F
100
AcDbEntity
  8
C-9
  6
Continuous
 62
     6
370
     5
100
AcDbLine
 10
-1428.426991955186
 20
754.1542041399465
 30
0.0
 11
-1424.426756062555
 21
758.1545637524887
 31
0.0
  0
LINE
  5
19B
330
1F
100
AcDbEntity
  8
C-9
  6
Continuous
 62
     6
370
     5
100
AcDbLine
 10
-1428.426991955186
 20
756.9829361923114
 30
0.0
 11
-1424.426756062555
 21
760.9828009252083
 31
0.0
  0
LINE
  5
19C
330
1F
100
AcDbEntity
  8
C-9
  6
Continuous
 62
     6
370
     5
100
AcDbLine
 10
-1428.426991955186
 20
759.8114208048536
 30
0.0
 11
-1424.426756062555
 21
763.8112855377507
 31
0.0
  0
LINE
  5
19D
330
1F
100
AcDbEntity
  8
C-9
  6
Continuous
 62
     6
370
     5
100
AcDbLine
 10
-1428.426991955186
 20
762.6396579775734
 30
0.0
 11
-1424.426756062555
 21
766.6395227104703
 31
0.0
  0
LINE
  5
19E
330
1F
100
AcDbEntity
  8
C-9
  6
Continuous
 62
     6
370
     5
100
AcDbLine
 10
-1428.426991955186
 20
765.4681425901156
 30
0.0
 11
-1424.426756062555
 21
769.468254762835
 31
0.0
  0
LINE
  5
19F
330
1F
100
AcDbEntity
  8
C-9
  6
Continuous
 62
     6
370
     5
100
AcDbLine
 10
-1428.426991955186
 20
768.296379762835
 30
0.0
 11
-1424.426756062555
 21
772.2967393753772
 31
0.0
  0
LINE
  5
1A0
330
1F
100
AcDbEntity
  8
C-9
  6
Continuous
 62
     6
370
     5
100
AcDbLine
 10
-1428.426991955186
 20
771.1251118152
 30
0.0
 11
-1424.426756062555
 21
775.1249765480968
 31
0.0
  0
LINE
  5
1A1
330
1F
100
AcDbEntity
  8
C-9
  6
Continuous
 62
     6
370
     5
100
AcDbLine
 10
-1428.426991955186
 20
773.9531015480968
 30
0.0
 11
-1424.426756062555
 21
777.9534611606392
 31
0.0
  0
LINE
  5
1A2
330
1F
100
AcDbEntity
  8
C-9
  6
Continuous
 62
     6
370
     5
100
AcDbLine
 10
-1428.426991955186
 20
776.7818336004616
 30
0.0
 11
-1424.426756062555
 21
780.7816983333588
 31
0.0
  0
LINE
  5
1A3
330
1F
100
AcDbEntity
  8
C-9
  6
Continuous
 62
     6
370
     5
100
AcDbLine
 10
-1428.426991955186
 20
779.6103182130041
 30
0.0
 11
-1424.426756062555
 21
783.6104303857236
 31
0.0
  0
LINE
  5
1A4
330
1F
100
AcDbEntity
  8
C-9
  6
Continuous
 62
     6
370
     5
100
AcDbLine
 10
-1428.426991955186
 20
782.4385553857236
 30
0.0
 11
-1424.426756062555
 21
786.4384201186205
 31
0.0
  0
LINE
  5
1A5
330
1F
100
AcDbEntity
  8
C-9
  6
Continuous
 62
     6
370
     5
100
AcDbLine
 10
-1428.426991955186
 20
785.2672874380885
 30
0.0
 11
-1424.426756062555
 21
789.2671521709854
 31
0.0
  0
LINE
  5
1A6
330
1F
100
AcDbEntity
  8
C-9
  6
Continuous
 62
     6
370
     5
100
AcDbLine
 10
-1428.426991955186
 20
788.0952771709854
 30
0.0
 11
-1424.426756062555
 21
792.0951419038824
 31
0.0
  0
LINE
  5
1A7
330
1F
100
AcDbEntity
  8
C-9
  6
Continuous
 62
     6
370
     5
100
AcDbLine
 10
-1428.426991955186
 20
790.9240092233501
 30
0.0
 11
-1424.426756062555
 21
794.9238739562473
 31
0.0
  0
LINE
  5
1A8
330
1F
100
AcDbEntity
  8
C-9
  6
Continuous
 62
     6
370
     5
100
AcDbLine
 10
-1428.426991955186
 20
793.7524938358927
 30
0.0
 11
-1424.426756062555
 21
797.7526060086121
 31
0.0
  0
LINE
  5
1A9
330
1F
100
AcDbEntity
  8
C-9
  6
Continuous
 62
     6
370
     5
100
AcDbLine
 10
-1428.426991955186
 20
796.5807310086121
 30
0.0
 11
-1424.426756062555
 21
800.580595741509
 31
0.0
  0
LINE
  5
1AA
330
1F
100
AcDbEntity
  8
C-9
  6
Continuous
 62
     6
370
     5
100
AcDbLine
 10
-1428.426991955186
 20
799.409463060977
 30
0.0
 11
-1424.426756062555
 21
803.4093277938739
 31
0.0
  0
LINE
  5
1AB
330
1F
100
AcDbEntity
  8
C-9
  6
Continuous
 62
     6
370
     5
100
AcDbLine
 10
-1428.426991955186
 20
802.2374527938739
 30
0.0
 11
-1424.426756062555
 21
806.237317526771
 31
0.0
  0
LINE
  5
1AC
330
1F
100
AcDbEntity
  8
C-9
  6
Continuous
 62
     6
370
     5
100
AcDbLine
 10
-1428.426991955186
 20
805.0661848462387
 30
0.0
 11
-1424.426756062555
 21
809.0660495791359
 31
0.0
  0
LINE
  5
1AD
330
1F
100
AcDbEntity
  8
C-9
  6
Continuous
 62
     6
370
     5
100
AcDbLine
 10
-1428.426991955186
 20
807.8941745791359
 30
0.0
 11
-1424.426756062555
 21
811.8947816315007
 31
0.0
  0
LINE
  5
1AE
330
1F
100
AcDbEntity
  8
C-9
  6
Continuous
 62
     6
370
     5
100
AcDbLine
 10
-1428.426991955186
 20
810.7229066315007
 30
0.0
 11
-1424.426756062555
 21
814.7227713643975
 31
0.0
  0
LINE
  5
1AF
330
1F
100
AcDbEntity
  8
C-9
  6
Continuous
 62
     6
370
     5
100
AcDbLine
 10
-1428.426991955186
 20
813.5516386838656
 30
0.0
 11
-1424.426756062555
 21
817.5515034167624
 31
0.0
  0
LINE
  5
1B0
330
1F
100
AcDbEntity
  8
C-9
  6
Continuous
 62
     6
370
     5
100
AcDbLine
 10
-1428.426991955186
 20
816.3796284167624
 30
0.0
 11
-1424.426756062555
 21
820.3794931496593
 31
0.0
  0
LINE
  5
1B1
330
1F
100
AcDbEntity
  8
C-9
  6
Continuous
 62
     6
370
     5
100
AcDbLine
 10
-1428.426991955186
 20
819.2078655894819
 30
0.0
 11
-1424.636337592327
 21
822.9986436722522
 31
0.0
  0
LINE
  5
1B2
330
1F
100
AcDbEntity
  8
C-9
  6
Continuous
 62
     6
370
     5
100
AcDbLine
 10
-1428.426991955186
 20
822.0363502020241
 30
0.0
 11
-1427.465069644692
 21
822.9986436722522
 31
0.0
  0
LINE
  5
1B3
330
1F
100
AcDbEntity
  8
C-9
  6
Continuous
 62
     6
370
     5
100
AcDbLine
 10
-1415.427245993404
 20
757.84105749721
 30
0.0
 11
-1411.427257540595
 21
761.8409222301069
 31
0.0
  0
LINE
  5
1B4
330
1F
100
AcDbEntity
  8
C-9
  6
Continuous
 62
     6
370
     5
100
AcDbLine
 10
-1415.427245993404
 20
760.6692946699296
 30
0.0
 11
-1411.427257540595
 21
764.6691594028267
 31
0.0
  0
LINE
  5
1B5
330
1F
100
AcDbEntity
  8
C-9
  6
Continuous
 62
     6
370
     5
100
AcDbLine
 10
-1415.427245993404
 20
763.4977792824718
 30
0.0
 11
-1411.427257540595
 21
767.4976440153689
 31
0.0
  0
LINE
  5
1B6
330
1F
100
AcDbEntity
  8
C-9
  6
Continuous
 62
     6
370
     5
100
AcDbLine
 10
-1415.427245993404
 20
766.3260164551916
 30
0.0
 11
-1411.427257540595
 21
770.3263760677338
 31
0.0
  0
LINE
  5
1B7
330
1F
100
AcDbEntity
  8
C-9
  6
Continuous
 62
     6
370
     5
100
AcDbLine
 10
-1415.427245993404
 20
769.1545010677338
 30
0.0
 11
-1411.427257540595
 21
773.1546132404533
 31
0.0
  0
LINE
  5
1B8
330
1F
100
AcDbEntity
  8
C-9
  6
Continuous
 62
     6
370
     5
100
AcDbLine
 10
-1415.427245993404
 20
771.9827382404533
 30
0.0
 11
-1411.427257540595
 21
775.9830978529955
 31
0.0
  0
LINE
  5
1B9
330
1F
100
AcDbEntity
  8
C-9
  6
Continuous
 62
     6
370
     5
100
AcDbLine
 10
-1415.427245993404
 20
774.8112228529955
 30
0.0
 11
-1411.427257540595
 21
778.811335025715
 31
0.0
  0
LINE
  5
1BA
330
1F
100
AcDbEntity
  8
C-9
  6
Continuous
 62
     6
370
     5
100
AcDbLine
 10
-1415.427245993404
 20
777.6399549053604
 30
0.0
 11
-1411.427257540595
 21
781.6398196382574
 31
0.0
  0
LINE
  5
1BB
330
1F
100
AcDbEntity
  8
C-9
  6
Continuous
 62
     6
370
     5
100
AcDbLine
 10
-1415.427245993404
 20
780.4679446382574
 30
0.0
 11
-1411.427257540595
 21
784.468056810977
 31
0.0
  0
LINE
  5
1BC
330
1F
100
AcDbEntity
  8
C-9
  6
Continuous
 62
     6
370
     5
100
AcDbLine
 10
-1415.427245993404
 20
783.2966766906223
 30
0.0
 11
-1411.427257540595
 21
787.2965414235192
 31
0.0
  0
LINE
  5
1BD
330
1F
100
AcDbEntity
  8
C-9
  6
Continuous
 62
     6
370
     5
100
AcDbLine
 10
-1415.427245993404
 20
786.1249138633418
 30
0.0
 11
-1411.427257540595
 21
790.125273475884
 31
0.0
  0
LINE
  5
1BE
330
1F
100
AcDbEntity
  8
C-9
  6
Continuous
 62
     6
370
     5
100
AcDbLine
 10
-1415.427245993404
 20
788.953398475884
 30
0.0
 11
-1411.427257540595
 21
792.9532632087809
 31
0.0
  0
LINE
  5
1BF
330
1F
100
AcDbEntity
  8
C-9
  6
Continuous
 62
     6
370
     5
100
AcDbLine
 10
-1415.427245993404
 20
791.7816356486036
 30
0.0
 11
-1411.427257540595
 21
795.781995261146
 31
0.0
  0
LINE
  5
1C0
330
1F
100
AcDbEntity
  8
C-9
  6
Continuous
 62
     6
370
     5
100
AcDbLine
 10
-1415.427245993404
 20
794.610120261146
 30
0.0
 11
-1411.427257540595
 21
798.6102324338656
 31
0.0
  0
LINE
  5
1C1
330
1F
100
AcDbEntity
  8
C-9
  6
Continuous
 62
     6
370
     5
100
AcDbLine
 10
-1415.427245993404
 20
797.4388523135109
 30
0.0
 11
-1411.427257540595
 21
801.4387170464078
 31
0.0
  0
LINE
  5
1C2
330
1F
100
AcDbEntity
  8
C-9
  6
Continuous
 62
     6
370
     5
100
AcDbLine
 10
-1415.427245993404
 20
800.2670894862304
 30
0.0
 11
-1411.427257540595
 21
804.2669542191272
 31
0.0
  0
LINE
  5
1C3
330
1F
100
AcDbEntity
  8
C-9
  6
Continuous
 62
     6
370
     5
100
AcDbLine
 10
-1415.427245993404
 20
803.0955740987725
 30
0.0
 11
-1411.427257540595
 21
807.0956862714921
 31
0.0
  0
LINE
  5
1C4
330
1F
100
AcDbEntity
  8
C-9
  6
Continuous
 62
     6
370
     5
100
AcDbLine
 10
-1415.427245993404
 20
805.9238112714921
 30
0.0
 11
-1411.427257540595
 21
809.9241708840343
 31
0.0
  0
LINE
  5
1C5
330
1F
100
AcDbEntity
  8
C-9
  6
Continuous
 62
     6
370
     5
100
AcDbLine
 10
-1415.427245993404
 20
808.7522958840343
 30
0.0
 11
-1411.427257540595
 21
812.7524080567541
 31
0.0
  0
LINE
  5
1C6
330
1F
100
AcDbEntity
  8
C-9
  6
Continuous
 62
     6
370
     5
100
AcDbLine
 10
-1415.427245993404
 20
811.5805330567541
 30
0.0
 11
-1411.427257540595
 21
815.580397789651
 31
0.0
  0
LINE
  5
1C7
330
1F
100
AcDbEntity
  8
C-9
  6
Continuous
 62
     6
370
     5
100
AcDbLine
 10
-1415.427245993404
 20
814.4092651091189
 30
0.0
 11
-1411.427257540595
 21
818.4091298420158
 31
0.0
  0
LINE
  5
1C8
330
1F
100
AcDbEntity
  8
C-9
  6
Continuous
 62
     6
370
     5
100
AcDbLine
 10
-1415.427245993404
 20
817.2377497216611
 30
0.0
 11
-1411.427257540595
 21
821.237614454558
 31
0.0
  0
LINE
  5
1C9
330
1F
100
AcDbEntity
  8
C-9
  6
Continuous
 62
     6
370
     5
100
AcDbLine
 10
-1415.427245993404
 20
820.0659868943807
 30
0.0
 11
-1412.494836655354
 21
822.9986436722522
 31
0.0
  0
LINE
  5
1CA
330
1F
100
AcDbEntity
  8
C-9
  6
Continuous
 62
     6
370
     5
100
AcDbLine
 10
-1415.427245993404
 20
822.8944715069229
 30
0.0
 11
-1415.323197547986
 21
822.9986436722522
 31
0.0
  0
LINE
  5
1CB
330
1F
100
AcDbEntity
  8
C-9
  6
Continuous
 62
     6
370
     5
100
AcDbLine
 10
-1415.427245993404
 20
767.1618681760531
 30
0.0
 11
-1411.427257540595
 21
763.1620034431559
 31
0.0
  0
LINE
  5
1CC
330
1F
100
AcDbEntity
  8
C-9
  6
Continuous
 62
     6
370
     5
100
AcDbLine
 10
-1415.427245993404
 20
769.98985790895
 30
0.0
 11
-1411.427257540595
 21
765.9899931760531
 31
0.0
  0
LINE
  5
1CD
330
1F
100
AcDbEntity
  8
C-9
  6
Continuous
 62
     6
370
     5
100
AcDbLine
 10
-1415.427245993404
 20
772.8185899613147
 30
0.0
 11
-1411.427257540595
 21
768.8187252284179
 31
0.0
  0
LINE
  5
1CE
330
1F
100
AcDbEntity
  8
C-9
  6
Continuous
 62
     6
370
     5
100
AcDbLine
 10
-1415.427245993404
 20
775.6473220136796
 30
0.0
 11
-1411.427257540595
 21
771.64720984096
 31
0.0
  0
LINE
  5
1CF
330
1F
100
AcDbEntity
  8
C-9
  6
Continuous
 62
     6
370
     5
100
AcDbLine
 10
-1415.427245993404
 20
778.4753117465767
 30
0.0
 11
-1411.427257540595
 21
774.4754470136796
 31
0.0
  0
LINE
  5
1D0
330
1F
100
AcDbEntity
  8
C-9
  6
Continuous
 62
     6
370
     5
100
AcDbLine
 10
-1415.427245993404
 20
781.3040437989416
 30
0.0
 11
-1411.427257540595
 21
777.3039316262218
 31
0.0
  0
LINE
  5
1D1
330
1F
100
AcDbEntity
  8
C-9
  6
Continuous
 62
     6
370
     5
100
AcDbLine
 10
-1415.427245993404
 20
784.1325284114838
 30
0.0
 11
-1411.427257540595
 21
780.1321687989416
 31
0.0
  0
LINE
  5
1D2
330
1F
100
AcDbEntity
  8
C-9
  6
Continuous
 62
     6
370
     5
100
AcDbLine
 10
-1415.427245993404
 20
786.9607655842033
 30
0.0
 11
-1411.427257540595
 21
782.9606534114838
 31
0.0
  0
LINE
  5
1D3
330
1F
100
AcDbEntity
  8
C-9
  6
Continuous
 62
     6
370
     5
100
AcDbLine
 10
-1415.427245993404
 20
789.7887553171001
 30
0.0
 11
-1411.427257540595
 21
785.7888905842033
 31
0.0
  0
LINE
  5
1D4
330
1F
100
AcDbEntity
  8
C-9
  6
Continuous
 62
     6
370
     5
100
AcDbLine
 10
-1415.427245993404
 20
792.617487369465
 30
0.0
 11
-1411.427257540595
 21
788.6176226365682
 31
0.0
  0
LINE
  5
1D5
330
1F
100
AcDbEntity
  8
C-9
  6
Continuous
 62
     6
370
     5
100
AcDbLine
 10
-1415.427245993404
 20
795.4459719820074
 30
0.0
 11
-1411.427257540595
 21
791.445612369465
 31
0.0
  0
LINE
  5
1D6
330
1F
100
AcDbEntity
  8
C-9
  6
Continuous
 62
     6
370
     5
100
AcDbLine
 10
-1415.427245993404
 20
798.274209154727
 30
0.0
 11
-1411.427257540595
 21
794.2743444218302
 31
0.0
  0
LINE
  5
1D7
330
1F
100
AcDbEntity
  8
C-9
  6
Continuous
 62
     6
370
     5
100
AcDbLine
 10
-1415.427245993404
 20
801.1029412070918
 30
0.0
 11
-1411.427257540595
 21
797.1028290343723
 31
0.0
  0
LINE
  5
1D8
330
1F
100
AcDbEntity
  8
C-9
  6
Continuous
 62
     6
370
     5
100
AcDbLine
 10
-1415.427245993404
 20
803.9309309399887
 30
0.0
 11
-1411.427257540595
 21
799.9310662070918
 31
0.0
  0
LINE
  5
1D9
330
1F
100
AcDbEntity
  8
C-9
  6
Continuous
 62
     6
370
     5
100
AcDbLine
 10
-1415.427245993404
 20
806.7596629923536
 30
0.0
 11
-1411.427257540595
 21
802.7597982594567
 31
0.0
  0
LINE
  5
1DA
330
1F
100
AcDbEntity
  8
C-9
  6
Continuous
 62
     6
370
     5
100
AcDbLine
 10
-1415.427245993404
 20
809.588147604896
 30
0.0
 11
-1411.427257540595
 21
805.5877879923536
 31
0.0
  0
LINE
  5
1DB
330
1F
100
AcDbEntity
  8
C-9
  6
Continuous
 62
     6
370
     5
100
AcDbLine
 10
-1415.427245993404
 20
812.4163847776156
 30
0.0
 11
-1411.427257540595
 21
808.4165200447184
 31
0.0
  0
LINE
  5
1DC
330
1F
100
AcDbEntity
  8
C-9
  6
Continuous
 62
     6
370
     5
100
AcDbLine
 10
-1415.427245993404
 20
815.2451168299804
 30
0.0
 11
-1411.427257540595
 21
811.2450046572609
 31
0.0
  0
LINE
  5
1DD
330
1F
100
AcDbEntity
  8
C-9
  6
Continuous
 62
     6
370
     5
100
AcDbLine
 10
-1415.427245993404
 20
818.0731065628772
 30
0.0
 11
-1411.427257540595
 21
814.0732418299804
 31
0.0
  0
LINE
  5
1DE
330
1F
100
AcDbEntity
  8
C-9
  6
Continuous
 62
     6
370
     5
100
AcDbLine
 10
-1415.427245993404
 20
820.9018386152421
 30
0.0
 11
-1411.427257540595
 21
816.9019738823453
 31
0.0
  0
LINE
  5
1DF
330
1F
100
AcDbEntity
  8
C-9
  6
Continuous
 62
     6
370
     5
100
AcDbLine
 10
-1414.695566437872
 20
822.9986436722522
 30
0.0
 11
-1411.427257540595
 21
819.7299636152421
 31
0.0
  0
LINE
  5
1E0
330
1F
100
AcDbEntity
  8
C-9
  6
Continuous
 62
     6
370
     5
100
AcDbLine
 10
-1411.867329265152
 20
822.9986436722522
 30
0.0
 11
-1411.427257540595
 21
822.5586956676069
 31
0.0
  0
LINE
  5
1E1
330
1F
100
AcDbEntity
  8
C-9
  6
Continuous
 62
     6
370
     5
100
AcDbLine
 10
-1402.427005151976
 20
777.6176853213234
 30
0.0
 11
-1398.427016699168
 21
773.6178205884262
 31
0.0
  0
LINE
  5
1E2
330
1F
100
AcDbEntity
  8
C-9
  6
Continuous
 62
     6
370
     5
100
AcDbLine
 10
-1402.427005151976
 20
780.4461699338656
 30
0.0
 11
-1398.427016699168
 21
776.4458103213234
 31
0.0
  0
LINE
  5
1E3
330
1F
100
AcDbEntity
  8
C-9
  6
Continuous
 62
     6
370
     5
100
AcDbLine
 10
-1402.427005151976
 20
783.274407106585
 30
0.0
 11
-1398.427016699168
 21
779.2745423736882
 31
0.0
  0
LINE
  5
1E4
330
1F
100
AcDbEntity
  8
C-9
  6
Continuous
 62
     6
370
     5
100
AcDbLine
 10
-1402.427005151976
 20
786.10313915895
 30
0.0
 11
-1398.427016699168
 21
782.1030269862304
 31
0.0
  0
LINE
  5
1E5
330
1F
100
AcDbEntity
  8
C-9
  6
Continuous
 62
     6
370
     5
100
AcDbLine
 10
-1402.427005151976
 20
788.9311288918468
 30
0.0
 11
-1398.427016699168
 21
784.93126415895
 31
0.0
  0
LINE
  5
1E6
330
1F
100
AcDbEntity
  8
C-9
  6
Continuous
 62
     6
370
     5
100
AcDbLine
 10
-1402.427005151976
 20
791.7598609442116
 30
0.0
 11
-1398.427016699168
 21
787.7599962113147
 31
0.0
  0
LINE
  5
1E7
330
1F
100
AcDbEntity
  8
C-9
  6
Continuous
 62
     6
370
     5
100
AcDbLine
 10
-1402.427005151976
 20
794.5878506771088
 30
0.0
 11
-1398.427016699168
 21
790.5879859442116
 31
0.0
  0
LINE
  5
1E8
330
1F
100
AcDbEntity
  8
C-9
  6
Continuous
 62
     6
370
     5
100
AcDbLine
 10
-1402.427005151976
 20
797.4165827294736
 30
0.0
 11
-1398.427016699168
 21
793.4167179965767
 31
0.0
  0
LINE
  5
1E9
330
1F
100
AcDbEntity
  8
C-9
  6
Continuous
 62
     6
370
     5
100
AcDbLine
 10
-1402.427005151976
 20
800.2453147818385
 30
0.0
 11
-1398.427016699168
 21
796.2447077294736
 31
0.0
  0
LINE
  5
1EA
330
1F
100
AcDbEntity
  8
C-9
  6
Continuous
 62
     6
370
     5
100
AcDbLine
 10
-1402.427005151976
 20
803.0733045147354
 30
0.0
 11
-1398.427016699168
 21
799.0734397818385
 31
0.0
  0
LINE
  5
1EB
330
1F
100
AcDbEntity
  8
C-9
  6
Continuous
 62
     6
370
     5
100
AcDbLine
 10
-1402.427005151976
 20
805.9020365671001
 30
0.0
 11
-1398.427016699168
 21
801.9021718342033
 31
0.0
  0
LINE
  5
1EC
330
1F
100
AcDbEntity
  8
C-9
  6
Continuous
 62
     6
370
     5
100
AcDbLine
 10
-1402.427005151976
 20
808.7300262999973
 30
0.0
 11
-1398.427016699168
 21
804.7301615671001
 31
0.0
  0
LINE
  5
1ED
330
1F
100
AcDbEntity
  8
C-9
  6
Continuous
 62
     6
370
     5
100
AcDbLine
 10
-1402.427005151976
 20
811.5587583523621
 30
0.0
 11
-1398.427016699168
 21
807.55839873982
 31
0.0
  0
LINE
  5
1EE
330
1F
100
AcDbEntity
  8
C-9
  6
Continuous
 62
     6
370
     5
100
AcDbLine
 10
-1402.427005151976
 20
814.3869955250817
 30
0.0
 11
-1398.427016699168
 21
810.3868833523621
 31
0.0
  0
LINE
  5
1EF
330
1F
100
AcDbEntity
  8
C-9
  6
Continuous
 62
     6
370
     5
100
AcDbLine
 10
-1402.427005151976
 20
817.2154801376239
 30
0.0
 11
-1398.427016699168
 21
813.215615404727
 31
0.0
  0
LINE
  5
1F0
330
1F
100
AcDbEntity
  8
C-9
  6
Continuous
 62
     6
370
     5
100
AcDbLine
 10
-1402.427005151976
 20
820.0437173103434
 30
0.0
 11
-1398.427016699168
 21
816.0438525774465
 31
0.0
  0
LINE
  5
1F1
330
1F
100
AcDbEntity
  8
C-9
  6
Continuous
 62
     6
370
     5
100
AcDbLine
 10
-1402.427005151976
 20
822.8722019228859
 30
0.0
 11
-1398.427016699168
 21
818.8723371899887
 31
0.0
  0
LINE
  5
1F2
330
1F
100
AcDbEntity
  8
C-9
  6
Continuous
 62
     6
370
     5
100
AcDbLine
 10
-1399.724714848978
 20
822.9986436722522
 30
0.0
 11
-1398.427016699168
 21
821.7010692423536
 31
0.0
  0
LINE
  5
1F3
330
1F
100
AcDbEntity
  8
C-9
  6
Continuous
 62
     6
370
     5
100
AcDbLine
 10
-1402.427005151976
 20
770.0121274929871
 30
0.0
 11
-1398.427016699168
 21
774.0122396657067
 31
0.0
  0
LINE
  5
1F4
330
1F
100
AcDbEntity
  8
C-9
  6
Continuous
 62
     6
370
     5
100
AcDbLine
 10
-1402.427005151976
 20
772.840859545352
 30
0.0
 11
-1398.427016699168
 21
776.8407242782489
 31
0.0
  0
LINE
  5
1F5
330
1F
100
AcDbEntity
  8
C-9
  6
Continuous
 62
     6
370
     5
100
AcDbLine
 10
-1402.427005151976
 20
775.6695915977168
 30
0.0
 11
-1398.427016699168
 21
779.6694563306137
 31
0.0
  0
LINE
  5
1F6
330
1F
100
AcDbEntity
  8
C-9
  6
Continuous
 62
     6
370
     5
100
AcDbLine
 10
-1402.427005151976
 20
778.4975813306137
 30
0.0
 11
-1398.427016699168
 21
782.4974460635109
 31
0.0
  0
LINE
  5
1F7
330
1F
100
AcDbEntity
  8
C-9
  6
Continuous
 62
     6
370
     5
100
AcDbLine
 10
-1402.427005151976
 20
781.3263133829786
 30
0.0
 11
-1398.427016699168
 21
785.3261781158757
 31
0.0
  0
LINE
  5
1F8
330
1F
100
AcDbEntity
  8
C-9
  6
Continuous
 62
     6
370
     5
100
AcDbLine
 10
-1402.427005151976
 20
784.1543031158757
 30
0.0
 11
-1398.427016699168
 21
788.1544152885953
 31
0.0
  0
LINE
  5
1F9
330
1F
100
AcDbEntity
  8
C-9
  6
Continuous
 62
     6
370
     5
100
AcDbLine
 10
-1402.427005151976
 20
786.9830351682406
 30
0.0
 11
-1398.427016699168
 21
790.9828999011374
 31
0.0
  0
LINE
  5
1FA
330
1F
100
AcDbEntity
  8
C-9
  6
Continuous
 62
     6
370
     5
100
AcDbLine
 10
-1402.427005151976
 20
789.8110249011374
 30
0.0
 11
-1398.427016699168
 21
793.8116319535022
 31
0.0
  0
LINE
  5
1FB
330
1F
100
AcDbEntity
  8
C-9
  6
Continuous
 62
     6
370
     5
100
AcDbLine
 10
-1402.427005151976
 20
792.6397569535022
 30
0.0
 11
-1398.427016699168
 21
796.6396216863991
 31
0.0
  0
LINE
  5
1FC
330
1F
100
AcDbEntity
  8
C-9
  6
Continuous
 62
     6
370
     5
100
AcDbLine
 10
-1402.427005151976
 20
795.4684890058671
 30
0.0
 11
-1398.427016699168
 21
799.4683537387642
 31
0.0
  0
LINE
  5
1FD
330
1F
100
AcDbEntity
  8
C-9
  6
Continuous
 62
     6
370
     5
100
AcDbLine
 10
-1402.427005151976
 20
798.2964787387642
 30
0.0
 11
-1398.427016699168
 21
802.2963434716611
 31
0.0
  0
LINE
  5
1FE
330
1F
100
AcDbEntity
  8
C-9
  6
Continuous
 62
     6
370
     5
100
AcDbLine
 10
-1402.427005151976
 20
801.1252107911291
 30
0.0
 11
-1398.427016699168
 21
805.125075524026
 31
0.0
  0
LINE
  5
1FF
330
1F
100
AcDbEntity
  8
C-9
  6
Continuous
 62
     6
370
     5
100
AcDbLine
 10
-1402.427005151976
 20
803.953200524026
 30
0.0
 11
-1398.427016699168
 21
807.9533126967455
 31
0.0
  0
LINE
  5
200
330
1F
100
AcDbEntity
  8
C-9
  6
Continuous
 62
     6
370
     5
100
AcDbLine
 10
-1402.427005151976
 20
806.7819325763908
 30
0.0
 11
-1398.427016699168
 21
810.7817973092876
 31
0.0
  0
LINE
  5
201
330
1F
100
AcDbEntity
  8
C-9
  6
Continuous
 62
     6
370
     5
100
AcDbLine
 10
-1402.427005151976
 20
809.6106646287557
 30
0.0
 11
-1398.427016699168
 21
813.6105293616525
 31
0.0
  0
LINE
  5
202
330
1F
100
AcDbEntity
  8
C-9
  6
Continuous
 62
     6
370
     5
100
AcDbLine
 10
-1402.427005151976
 20
812.4386543616525
 30
0.0
 11
-1398.427016699168
 21
816.4385190945496
 31
0.0
  0
LINE
  5
203
330
1F
100
AcDbEntity
  8
C-9
  6
Continuous
 62
     6
370
     5
100
AcDbLine
 10
-1402.427005151976
 20
815.2668915343723
 30
0.0
 11
-1398.427016699168
 21
819.2672511469145
 31
0.0
  0
LINE
  5
204
330
1F
100
AcDbEntity
  8
C-9
  6
Continuous
 62
     6
370
     5
100
AcDbLine
 10
-1402.427005151976
 20
818.0953761469145
 30
0.0
 11
-1398.427016699168
 21
822.095488319634
 31
0.0
  0
LINE
  5
205
330
1F
100
AcDbEntity
  8
C-9
  6
Continuous
 62
     6
370
     5
100
AcDbLine
 10
-1402.427005151976
 20
820.9241081992793
 30
0.0
 11
-1400.352469679003
 21
822.9986436722522
 31
0.0
  0
LINE
  5
206
330
1F
100
AcDbEntity
  8
C-9
  6
Continuous
 62
     6
370
     5
100
AcDbLine
 10
-1389.427135470283
 20
779.3552077558671
 30
0.0
 11
-1385.427270737386
 21
783.3555673684093
 31
0.0
  0
LINE
  5
207
330
1F
100
AcDbEntity
  8
C-9
  6
Continuous
 62
     6
370
     5
100
AcDbLine
 10
-1389.427135470283
 20
782.1839398082319
 30
0.0
 11
-1385.427270737386
 21
786.1838045411291
 31
0.0
  0
LINE
  5
208
330
1F
100
AcDbEntity
  8
C-9
  6
Continuous
 62
     6
370
     5
100
AcDbLine
 10
-1389.427135470283
 20
785.0124244207741
 30
0.0
 11
-1385.427270737386
 21
789.0125365934939
 31
0.0
  0
LINE
  5
209
330
1F
100
AcDbEntity
  8
C-9
  6
Continuous
 62
     6
370
     5
100
AcDbLine
 10
-1389.427135470283
 20
787.8406615934939
 30
0.0
 11
-1385.427270737386
 21
791.8405263263908
 31
0.0
  0
LINE
  5
20A
330
1F
100
AcDbEntity
  8
C-9
  6
Continuous
 62
     6
370
     5
100
AcDbLine
 10
-1389.427135470283
 20
790.6693936458588
 30
0.0
 11
-1385.427270737386
 21
794.6692583787557
 31
0.0
  0
LINE
  5
20B
330
1F
100
AcDbEntity
  8
C-9
  6
Continuous
 62
     6
370
     5
100
AcDbLine
 10
-1389.427135470283
 20
793.497878258401
 30
0.0
 11
-1385.427270737386
 21
797.4977429912979
 31
0.0
  0
LINE
  5
20C
330
1F
100
AcDbEntity
  8
C-9
  6
Continuous
 62
     6
370
     5
100
AcDbLine
 10
-1389.427135470283
 20
796.3261154311205
 30
0.0
 11
-1385.427270737386
 21
800.3259801640177
 31
0.0
  0
LINE
  5
20D
330
1F
100
AcDbEntity
  8
C-9
  6
Continuous
 62
     6
370
     5
100
AcDbLine
 10
-1389.427135470283
 20
799.1546000436626
 30
0.0
 11
-1385.427270737386
 21
803.1547122163824
 31
0.0
  0
LINE
  5
20E
330
1F
100
AcDbEntity
  8
C-9
  6
Continuous
 62
     6
370
     5
100
AcDbLine
 10
-1389.427135470283
 20
801.9828372163824
 30
0.0
 11
-1385.427270737386
 21
805.9827019492793
 31
0.0
  0
LINE
  5
20F
330
1F
100
AcDbEntity
  8
C-9
  6
Continuous
 62
     6
370
     5
100
AcDbLine
 10
-1389.427135470283
 20
804.8115692687473
 30
0.0
 11
-1385.427270737386
 21
808.8114340016442
 31
0.0
  0
LINE
  5
210
330
1F
100
AcDbEntity
  8
C-9
  6
Continuous
 62
     6
370
     5
100
AcDbLine
 10
-1389.427135470283
 20
807.6395590016442
 30
0.0
 11
-1385.427270737386
 21
811.6394237345411
 31
0.0
  0
LINE
  5
211
330
1F
100
AcDbEntity
  8
C-9
  6
Continuous
 62
     6
370
     5
100
AcDbLine
 10
-1389.427135470283
 20
810.468291054009
 30
0.0
 11
-1385.427270737386
 21
814.4681557869059
 31
0.0
  0
LINE
  5
212
330
1F
100
AcDbEntity
  8
C-9
  6
Continuous
 62
     6
370
     5
100
AcDbLine
 10
-1389.427135470283
 20
813.2962807869059
 30
0.0
 11
-1385.427270737386
 21
817.296887839271
 31
0.0
  0
LINE
  5
213
330
1F
100
AcDbEntity
  8
C-9
  6
Continuous
 62
     6
370
     5
100
AcDbLine
 10
-1389.427135470283
 20
816.125012839271
 30
0.0
 11
-1385.427270737386
 21
820.1248775721679
 31
0.0
  0
LINE
  5
214
330
1F
100
AcDbEntity
  8
C-9
  6
Continuous
 62
     6
370
     5
100
AcDbLine
 10
-1389.427135470283
 20
818.9537448916359
 30
0.0
 11
-1385.427270737386
 21
822.9536096245328
 31
0.0
  0
LINE
  5
215
330
1F
100
AcDbEntity
  8
C-9
  6
Continuous
 62
     6
370
     5
100
AcDbLine
 10
-1389.427135470283
 20
821.7817346245328
 30
0.0
 11
-1388.210597582297
 21
822.9986436722522
 31
0.0
  0
LINE
  5
216
330
1F
100
AcDbEntity
  8
C-9
  6
Continuous
 62
     6
370
     5
100
AcDbLine
 10
-1389.427135470283
 20
788.0735024665934
 30
0.0
 11
-1385.427270737386
 21
784.0736377336965
 31
0.0
  0
LINE
  5
217
330
1F
100
AcDbEntity
  8
C-9
  6
Continuous
 62
     6
370
     5
100
AcDbLine
 10
-1389.427135470283
 20
790.9022345189585
 30
0.0
 11
-1385.427270737386
 21
786.9016274665934
 31
0.0
  0
LINE
  5
218
330
1F
100
AcDbEntity
  8
C-9
  6
Continuous
 62
     6
370
     5
100
AcDbLine
 10
-1389.427135470283
 20
793.7302242518554
 30
0.0
 11
-1385.427270737386
 21
789.7303595189585
 31
0.0
  0
LINE
  5
219
330
1F
100
AcDbEntity
  8
C-9
  6
Continuous
 62
     6
370
     5
100
AcDbLine
 10
-1389.427135470283
 20
796.5589563042203
 30
0.0
 11
-1385.427270737386
 21
792.5590915713234
 31
0.0
  0
LINE
  5
21A
330
1F
100
AcDbEntity
  8
C-9
  6
Continuous
 62
     6
370
     5
100
AcDbLine
 10
-1389.427135470283
 20
799.3869460371171
 30
0.0
 11
-1385.427270737386
 21
795.3870813042203
 31
0.0
  0
LINE
  5
21B
330
1F
100
AcDbEntity
  8
C-9
  6
Continuous
 62
     6
370
     5
100
AcDbLine
 10
-1389.427135470283
 20
802.2156780894819
 30
0.0
 11
-1385.427270737386
 21
798.215813356585
 31
0.0
  0
LINE
  5
21C
330
1F
100
AcDbEntity
  8
C-9
  6
Continuous
 62
     6
370
     5
100
AcDbLine
 10
-1389.427135470283
 20
805.0439152622017
 30
0.0
 11
-1385.427270737386
 21
801.0440505293046
 31
0.0
  0
LINE
  5
21D
330
1F
100
AcDbEntity
  8
C-9
  6
Continuous
 62
     6
370
     5
100
AcDbLine
 10
-1389.427135470283
 20
807.8723998747439
 30
0.0
 11
-1385.427270737386
 21
803.8725351418468
 31
0.0
  0
LINE
  5
21E
330
1F
100
AcDbEntity
  8
C-9
  6
Continuous
 62
     6
370
     5
100
AcDbLine
 10
-1389.427135470283
 20
810.7006370474635
 30
0.0
 11
-1385.427270737386
 21
806.7007723145666
 31
0.0
  0
LINE
  5
21F
330
1F
100
AcDbEntity
  8
C-9
  6
Continuous
 62
     6
370
     5
100
AcDbLine
 10
-1389.427135470283
 20
813.5293690998283
 30
0.0
 11
-1385.427270737386
 21
809.5292569271088
 31
0.0
  0
LINE
  5
220
330
1F
100
AcDbEntity
  8
C-9
  6
Continuous
 62
     6
370
     5
100
AcDbLine
 10
-1389.427135470283
 20
816.3578537123705
 30
0.0
 11
-1385.427270737386
 21
812.3574940998283
 31
0.0
  0
LINE
  5
221
330
1F
100
AcDbEntity
  8
C-9
  6
Continuous
 62
     6
370
     5
100
AcDbLine
 10
-1389.427135470283
 20
819.18609088509
 30
0.0
 11
-1385.427270737386
 21
815.1859787123705
 31
0.0
  0
LINE
  5
222
330
1F
100
AcDbEntity
  8
C-9
  6
Continuous
 62
     6
370
     5
100
AcDbLine
 10
-1389.427135470283
 20
822.0145754976324
 30
0.0
 11
-1385.427270737386
 21
818.0147107647354
 31
0.0
  0
LINE
  5
223
330
1F
100
AcDbEntity
  8
C-9
  6
Continuous
 62
     6
370
     5
100
AcDbLine
 10
-1387.583090192094
 20
822.9986436722522
 30
0.0
 11
-1385.427270737386
 21
820.8427004976324
 31
0.0
  0
LINE
  5
224
330
1F
100
AcDbEntity
  8
C-9
  6
Continuous
 62
     6
370
     5
100
AcDbLine
 10
-1376.427389508501
 20
798.5293196118637
 30
0.0
 11
-1372.427524775604
 21
794.5294548789668
 31
0.0
  0
LINE
  5
225
330
1F
100
AcDbEntity
  8
C-9
  6
Continuous
 62
     6
370
     5
100
AcDbLine
 10
-1376.427389508501
 20
801.3575567845835
 30
0.0
 11
-1372.427524775604
 21
797.3576920516864
 31
0.0
  0
LINE
  5
226
330
1F
100
AcDbEntity
  8
C-9
  6
Continuous
 62
     6
370
     5
100
AcDbLine
 10
-1376.427389508501
 20
804.1862888369484
 30
0.0
 11
-1372.427524775604
 21
800.1861766642286
 31
0.0
  0
LINE
  5
227
330
1F
100
AcDbEntity
  8
C-9
  6
Continuous
 62
     6
370
     5
100
AcDbLine
 10
-1376.427389508501
 20
807.0147734494906
 30
0.0
 11
-1372.427524775604
 21
803.0144138369484
 31
0.0
  0
LINE
  5
228
330
1F
100
AcDbEntity
  8
C-9
  6
Continuous
 62
     6
370
     5
100
AcDbLine
 10
-1376.427389508501
 20
809.84301062221
 30
0.0
 11
-1372.427524775604
 21
805.8428984494906
 31
0.0
  0
LINE
  5
229
330
1F
100
AcDbEntity
  8
C-9
  6
Continuous
 62
     6
370
     5
100
AcDbLine
 10
-1376.427389508501
 20
812.6714952347522
 30
0.0
 11
-1372.427524775604
 21
808.6716305018554
 31
0.0
  0
LINE
  5
22A
330
1F
100
AcDbEntity
  8
C-9
  6
Continuous
 62
     6
370
     5
100
AcDbLine
 10
-1376.427389508501
 20
815.4997324074718
 30
0.0
 11
-1372.427524775604
 21
811.499867674575
 31
0.0
  0
LINE
  5
22B
330
1F
100
AcDbEntity
  8
C-9
  6
Continuous
 62
     6
370
     5
100
AcDbLine
 10
-1376.427389508501
 20
818.3282170200142
 30
0.0
 11
-1372.427524775604
 21
814.3283522871171
 31
0.0
  0
LINE
  5
22C
330
1F
100
AcDbEntity
  8
C-9
  6
Continuous
 62
     6
370
     5
100
AcDbLine
 10
-1376.427389508501
 20
821.1569490723791
 30
0.0
 11
-1372.427524775604
 21
817.1565894598366
 31
0.0
  0
LINE
  5
22D
330
1F
100
AcDbEntity
  8
C-9
  6
Continuous
 62
     6
370
     5
100
AcDbLine
 10
-1375.440970655566
 20
822.9986436722522
 30
0.0
 11
-1372.427524775604
 21
819.9850740723791
 31
0.0
  0
LINE
  5
22E
330
1F
100
AcDbEntity
  8
C-9
  6
Continuous
 62
     6
370
     5
100
AcDbLine
 10
-1372.612486043024
 20
822.9986436722522
 30
0.0
 11
-1372.427524775604
 21
822.8133112450986
 31
0.0
  0
LINE
  5
22F
330
1F
100
AcDbEntity
  8
C-9
  6
Continuous
 62
     6
370
     5
100
AcDbLine
 10
-1376.427389508501
 20
791.5270200711121
 30
0.0
 11
-1372.427524775604
 21
795.526884804009
 31
0.0
  0
LINE
  5
230
330
1F
100
AcDbEntity
  8
C-9
  6
Continuous
 62
     6
370
     5
100
AcDbLine
 10
-1376.427389508501
 20
794.3555046836543
 30
0.0
 11
-1372.427524775604
 21
798.3553694165512
 31
0.0
  0
LINE
  5
231
330
1F
100
AcDbEntity
  8
C-9
  6
Continuous
 62
     6
370
     5
100
AcDbLine
 10
-1376.427389508501
 20
797.1837418563739
 30
0.0
 11
-1372.427524775604
 21
801.1841014689161
 31
0.0
  0
LINE
  5
232
330
1F
100
AcDbEntity
  8
C-9
  6
Continuous
 62
     6
370
     5
100
AcDbLine
 10
-1376.427389508501
 20
800.0122264689161
 30
0.0
 11
-1372.427524775604
 21
804.0123386416359
 31
0.0
  0
LINE
  5
233
330
1F
100
AcDbEntity
  8
C-9
  6
Continuous
 62
     6
370
     5
100
AcDbLine
 10
-1376.427389508501
 20
802.8409585212809
 30
0.0
 11
-1372.427524775604
 21
806.8408232541781
 31
0.0
  0
LINE
  5
234
330
1F
100
AcDbEntity
  8
C-9
  6
Continuous
 62
     6
370
     5
100
AcDbLine
 10
-1376.427389508501
 20
805.6691956940007
 30
0.0
 11
-1372.427524775604
 21
809.6690604268975
 31
0.0
  0
LINE
  5
235
330
1F
100
AcDbEntity
  8
C-9
  6
Continuous
 62
     6
370
     5
100
AcDbLine
 10
-1376.427389508501
 20
808.4976803065429
 30
0.0
 11
-1372.427524775604
 21
812.4975450394397
 31
0.0
  0
LINE
  5
236
330
1F
100
AcDbEntity
  8
C-9
  6
Continuous
 62
     6
370
     5
100
AcDbLine
 10
-1376.427389508501
 20
811.3259174792624
 30
0.0
 11
-1372.427524775604
 21
815.3262770918046
 31
0.0
  0
LINE
  5
237
330
1F
100
AcDbEntity
  8
C-9
  6
Continuous
 62
     6
370
     5
100
AcDbLine
 10
-1376.427389508501
 20
814.1544020918046
 30
0.0
 11
-1372.427524775604
 21
818.1545142645241
 31
0.0
  0
LINE
  5
238
330
1F
100
AcDbEntity
  8
C-9
  6
Continuous
 62
     6
370
     5
100
AcDbLine
 10
-1376.427389508501
 20
816.9831341441694
 30
0.0
 11
-1372.427524775604
 21
820.9829988770666
 31
0.0
  0
LINE
  5
239
330
1F
100
AcDbEntity
  8
C-9
  6
Continuous
 62
     6
370
     5
100
AcDbLine
 10
-1376.427389508501
 20
819.8113713168892
 30
0.0
 11
-1373.24036459296
 21
822.9986436722522
 31
0.0
  0
LINE
  5
23A
330
1F
100
AcDbEntity
  8
C-9
  6
Continuous
 62
     6
370
     5
100
AcDbLine
 10
-1376.427389508501
 20
822.6398559294314
 30
0.0
 11
-1376.068725485591
 21
822.9986436722522
 31
0.0
  0
LINE
  5
23B
330
1F
100
AcDbEntity
  8
C-9
  6
Continuous
 62
     6
370
     5
100
AcDbLine
 10
-1374.644709306326
 20
790.4813393806559
 30
0.0
 11
-1372.427524775604
 21
792.6986476312895
 31
0.0
  0
LINE
  5
23C
330
1F
100
AcDbEntity
  8
C-9
  6
Continuous
 62
     6
370
     5
100
AcDbLine
 10
-1376.427389508501
 20
795.7008349993215
 30
0.0
 11
-1372.623373395219
 21
791.8966951661291
 31
0.0
  0
LINE
  5
23D
330
1F
100
AcDbEntity
  8
C-9
  6
Continuous
 62
     6
370
     5
100
AcDbLine
 10
-1376.427389508501
 20
792.872597826602
 30
0.0
 11
-1374.286787602884
 21
790.7319959209854
 31
0.0
  0
LINE
  5
23E
330
1F
100
AcDbEntity
  8
C-9
  6
Continuous
 62
     6
370
     5
100
AcDbLine
 10
-1376.427389508501
 20
790.0438657742371
 30
0.0
 11
-1375.950572970283
 21
789.5670492360192
 31
0.0
  0
LINE
  5
23F
330
1F
100
AcDbEntity
  8
C-9
  6
Continuous
 62
     6
370
     5
100
AcDbLine
 10
-1389.427135470283
 20
785.2450178540512
 30
0.0
 11
-1385.595529816778
 21
781.4131647607236
 31
0.0
  0
LINE
  5
240
330
1F
100
AcDbEntity
  8
C-9
  6
Continuous
 62
     6
370
     5
100
AcDbLine
 10
-1389.427135470283
 20
782.4167806813317
 30
0.0
 11
-1387.258820304531
 21
780.2484655155802
 31
0.0
  0
LINE
  5
241
330
1F
100
AcDbEntity
  8
C-9
  6
Continuous
 62
     6
370
     5
100
AcDbLine
 10
-1389.427135470283
 20
779.5880486289668
 30
0.0
 11
-1388.92260567193
 21
779.0835188306137
 31
0.0
  0
LINE
  5
242
330
1F
100
AcDbEntity
  8
C-9
  6
Continuous
 62
     6
370
     5
100
AcDbLine
 10
-1398.94738264617
 20
770.6636365459854
 30
0.0
 11
-1398.427016699168
 21
771.1840024929871
 31
0.0
  0
LINE
  5
243
330
1F
100
AcDbEntity
  8
C-9
  6
Continuous
 62
     6
370
     5
100
AcDbLine
 10
-1402.427005151976
 20
774.7889532689583
 30
0.0
 11
-1398.567562518425
 21
770.9296343553182
 31
0.0
  0
LINE
  5
244
330
1F
100
AcDbEntity
  8
C-9
  6
Continuous
 62
     6
370
     5
100
AcDbLine
 10
-1402.427005151976
 20
771.9609635360614
 30
0.0
 11
-1400.230976726089
 21
769.7649351101746
 31
0.0
  0
LINE
  5
245
330
1F
100
AcDbEntity
  8
C-9
  6
Continuous
 62
     6
370
     5
100
AcDbLine
 10
-1402.427005151976
 20
769.1322314836965
 30
0.0
 11
-1401.894638373577
 21
768.5999884252083
 31
0.0
  0
LINE
  5
246
330
1F
100
AcDbEntity
  8
C-9
  6
Continuous
 62
     6
370
     5
100
AcDbLine
 10
-1415.427245993404
 20
764.3331361236882
 30
0.0
 11
-1411.539842659894
 21
760.44585651009
 31
0.0
  0
LINE
  5
247
330
1F
100
AcDbEntity
  8
C-9
  6
Continuous
 62
     6
370
     5
100
AcDbLine
 10
-1415.427245993404
 20
761.5048989509684
 30
0.0
 11
-1413.20338058747
 21
759.2811572649465
 31
0.0
  0
LINE
  5
248
330
1F
100
AcDbEntity
  8
C-9
  6
Continuous
 62
     6
370
     5
100
AcDbLine
 10
-1415.427245993404
 20
758.6764143384262
 30
0.0
 11
-1414.867042234958
 21
758.1162105799804
 31
0.0
  0
LINE
  5
249
330
1F
100
AcDbEntity
  8
C-9
  6
Continuous
 62
     6
370
     5
100
AcDbLine
 10
-1428.426991955186
 20
753.8773189784179
 30
0.0
 11
-1424.51175164163
 21
749.9623261046848
 31
0.0
  0
LINE
  5
24A
330
1F
100
AcDbEntity
  8
C-9
  6
Continuous
 62
     6
370
     5
100
AcDbLine
 10
-1427.925678874527
 20
748.9987954353434
 30
0.0
 11
-1424.426756062555
 21
752.497841967227
 31
0.0
  0
LINE
  5
24B
330
1F
100
AcDbEntity
  8
C-9
  6
Continuous
 62
     6
370
     5
100
AcDbLine
 10
-1428.426991955186
 20
751.0490818056984
 30
0.0
 11
-1426.376458145008
 21
748.9987954353434
 31
0.0
  0
LINE
  5
24C
330
1F
100
AcDbEntity
  8
C-2
  6
Continuous
 62
     3
370
     9
100
AcDbLine
 10
-1424.427127222289
 20
779.4982279733501
 30
0.0
 11
-1415.427245993404
 21
779.4982279733501
 31
0.0
  0
LINE
  5
24D
330
1F
100
AcDbEntity
  8
C-2
  6
Continuous
 62
     3
370
     9
100
AcDbLine
 10
-1424.427127222289
 20
782.4981883829786
 30
0.0
 11
-1415.427245993404
 21
782.4981883829786
 31
0.0
  0
LINE
  5
24E
330
1F
100
AcDbEntity
  8
C-2
  6
Continuous
 62
     3
370
     9
100
AcDbLine
 10
-1411.427257540595
 20
779.4982279733501
 30
0.0
 11
-1402.42737631171
 21
779.4982279733501
 31
0.0
  0
LINE
  5
24F
330
1F
100
AcDbEntity
  8
C-2
  6
Continuous
 62
     3
370
     9
100
AcDbLine
 10
-1411.427257540595
 20
782.4981883829786
 30
0.0
 11
-1402.42737631171
 21
782.4981883829786
 31
0.0
  0
LINE
  5
250
330
1F
100
AcDbEntity
  8
C-2
  6
Continuous
 62
     3
370
     9
100
AcDbLine
 10
-1398.427387858902
 20
779.4982279733501
 30
0.0
 11
-1389.427506630017
 21
779.4982279733501
 31
0.0
  0
LINE
  5
251
330
1F
100
AcDbEntity
  8
C-2
  6
Continuous
 62
     3
370
     9
100
AcDbLine
 10
-1398.427387858902
 20
782.4981883829786
 30
0.0
 11
-1389.427506630017
 21
782.4981883829786
 31
0.0
  0
LINE
  5
252
330
1F
100
AcDbEntity
  8
C-2
  6
Continuous
 62
     3
370
     9
100
AcDbLine
 10
-1385.427518177208
 20
779.4982279733501
 30
0.0
 11
-1376.427636948323
 21
779.4982279733501
 31
0.0
  0
LINE
  5
253
330
1F
100
AcDbEntity
  8
C-2
  6
Continuous
 62
     3
370
     9
100
AcDbLine
 10
-1385.427518177208
 20
782.4981883829786
 30
0.0
 11
-1376.427636948323
 21
782.4981883829786
 31
0.0
  0
LINE
  5
254
330
1F
100
AcDbEntity
  8
C-2
  6
Continuous
 62
     3
370
     9
100
AcDbLine
 10
-1372.427648495515
 20
779.4982279733501
 30
0.0
 11
-1363.42776726663
 21
779.4982279733501
 31
0.0
  0
LINE
  5
255
330
1F
100
AcDbEntity
  8
C-2
  6
Continuous
 62
     3
370
     9
100
AcDbLine
 10
-1372.427648495515
 20
782.4981883829786
 30
0.0
 11
-1363.42776726663
 21
782.4981883829786
 31
0.0
  0
LINE
  5
256
330
1F
100
AcDbEntity
  8
C-2
  6
Continuous
 62
     3
370
     9
100
AcDbLine
 10
-1359.427778813822
 20
779.4982279733501
 30
0.0
 11
-1350.427897584937
 21
779.4982279733501
 31
0.0
  0
LINE
  5
257
330
1F
100
AcDbEntity
  8
C-2
  6
Continuous
 62
     3
370
     9
100
AcDbLine
 10
-1359.427778813822
 20
782.4981883829786
 30
0.0
 11
-1350.427897584937
 21
782.4981883829786
 31
0.0
  0
LINE
  5
258
330
1F
100
AcDbEntity
  8
C-2
  6
Continuous
 62
     3
370
     9
100
AcDbLine
 10
-1346.427909132128
 20
779.4982279733501
 30
0.0
 11
-1337.428027903243
 21
779.4982279733501
 31
0.0
  0
LINE
  5
259
330
1F
100
AcDbEntity
  8
C-2
  6
Continuous
 62
     3
370
     9
100
AcDbLine
 10
-1346.427909132128
 20
782.4981883829786
 30
0.0
 11
-1337.428027903243
 21
782.4981883829786
 31
0.0
  0
LINE
  5
25A
330
1F
100
AcDbEntity
  8
C-2
  6
Continuous
 62
     3
370
     9
100
AcDbLine
 10
-1333.428039450435
 20
779.4982279733501
 30
0.0
 11
-1324.42815822155
 21
779.4982279733501
 31
0.0
  0
LINE
  5
25B
330
1F
100
AcDbEntity
  8
C-2
  6
Continuous
 62
     3
370
     9
100
AcDbLine
 10
-1333.428039450435
 20
782.4981883829786
 30
0.0
 11
-1324.42815822155
 21
782.4981883829786
 31
0.0
  0
LINE
  5
25C
330
1F
100
AcDbEntity
  8
C-2
  6
Continuous
 62
     3
370
     9
100
AcDbLine
 10
-1320.428169768742
 20
779.4982279733501
 30
0.0
 11
-1311.428288539856
 21
779.4982279733501
 31
0.0
  0
LINE
  5
25D
330
1F
100
AcDbEntity
  8
C-2
  6
Continuous
 62
     3
370
     9
100
AcDbLine
 10
-1320.428169768742
 20
782.4981883829786
 30
0.0
 11
-1311.428288539856
 21
782.4981883829786
 31
0.0
  0
LINE
  5
25E
330
1F
100
AcDbEntity
  8
C-2
  6
Continuous
 62
     3
370
     9
100
AcDbLine
 10
-1307.428300087048
 20
779.4982279733501
 30
0.0
 11
-1298.428418858163
 21
779.4982279733501
 31
0.0
  0
LINE
  5
25F
330
1F
100
AcDbEntity
  8
C-2
  6
Continuous
 62
     3
370
     9
100
AcDbLine
 10
-1307.428300087048
 20
782.4981883829786
 30
0.0
 11
-1298.428418858163
 21
782.4981883829786
 31
0.0
  0
LINE
  5
260
330
1F
100
AcDbEntity
  8
C-2
  6
Continuous
 62
     3
370
     9
100
AcDbLine
 10
-1294.428430405354
 20
779.4982279733501
 30
0.0
 11
-1285.428549176469
 21
779.4982279733501
 31
0.0
  0
LINE
  5
261
330
1F
100
AcDbEntity
  8
C-2
  6
Continuous
 62
     3
370
     9
100
AcDbLine
 10
-1294.428430405354
 20
782.4981883829786
 30
0.0
 11
-1285.428549176469
 21
782.4981883829786
 31
0.0
  0
LINE
  5
262
330
1F
100
AcDbEntity
  8
C-2
  6
Continuous
 62
     3
370
     9
100
AcDbLine
 10
-1281.428560723661
 20
779.4982279733501
 30
0.0
 11
-1272.428679494776
 21
779.4982279733501
 31
0.0
  0
LINE
  5
263
330
1F
100
AcDbEntity
  8
C-2
  6
Continuous
 62
     3
370
     9
100
AcDbLine
 10
-1281.428560723661
 20
782.4981883829786
 30
0.0
 11
-1272.428679494776
 21
782.4981883829786
 31
0.0
  0
LINE
  5
264
330
1F
100
AcDbEntity
  8
C-2
  6
Continuous
 62
     3
370
     9
100
AcDbLine
 10
-1268.428691041968
 20
779.4982279733501
 30
0.0
 11
-1259.428809813083
 21
779.4982279733501
 31
0.0
  0
LINE
  5
265
330
1F
100
AcDbEntity
  8
C-2
  6
Continuous
 62
     3
370
     9
100
AcDbLine
 10
-1268.428691041968
 20
782.4981883829786
 30
0.0
 11
-1259.428809813083
 21
782.4981883829786
 31
0.0
  0
LINE
  5
266
330
1F
100
AcDbEntity
  8
C-2
  6
Continuous
 62
     3
370
     9
100
AcDbLine
 10
-1255.428821360274
 20
779.4982279733501
 30
0.0
 11
-1246.428940131389
 21
779.4982279733501
 31
0.0
  0
LINE
  5
267
330
1F
100
AcDbEntity
  8
C-2
  6
Continuous
 62
     3
370
     9
100
AcDbLine
 10
-1255.428821360274
 20
782.4981883829786
 30
0.0
 11
-1246.428940131389
 21
782.4981883829786
 31
0.0
  0
LINE
  5
268
330
1F
100
AcDbEntity
  8
C-2
  6
Continuous
 62
     3
370
     9
100
AcDbLine
 10
-1242.428951678581
 20
779.4982279733501
 30
0.0
 11
-1233.429070449696
 21
779.4982279733501
 31
0.0
  0
LINE
  5
269
330
1F
100
AcDbEntity
  8
C-2
  6
Continuous
 62
     3
370
     9
100
AcDbLine
 10
-1242.428951678581
 20
782.4981883829786
 30
0.0
 11
-1233.429070449696
 21
782.4981883829786
 31
0.0
  0
LINE
  5
26A
330
1F
100
AcDbEntity
  8
C-2
  6
Continuous
 62
     3
370
     9
100
AcDbLine
 10
-1229.429081996888
 20
779.4982279733501
 30
0.0
 11
-1220.429200768002
 21
779.4982279733501
 31
0.0
  0
LINE
  5
26B
330
1F
100
AcDbEntity
  8
C-2
  6
Continuous
 62
     3
370
     9
100
AcDbLine
 10
-1229.429081996888
 20
782.4981883829786
 30
0.0
 11
-1220.429200768002
 21
782.4981883829786
 31
0.0
  0
LINE
  5
26C
330
1F
100
AcDbEntity
  8
C-2
  6
Continuous
 62
     3
370
     9
100
AcDbLine
 10
-1216.429212315194
 20
779.4982279733501
 30
0.0
 11
-1207.429331086309
 21
779.4982279733501
 31
0.0
  0
LINE
  5
26D
330
1F
100
AcDbEntity
  8
C-2
  6
Continuous
 62
     3
370
     9
100
AcDbLine
 10
-1216.429212315194
 20
782.4981883829786
 30
0.0
 11
-1207.429331086309
 21
782.4981883829786
 31
0.0
  0
LINE
  5
26E
330
1F
100
AcDbEntity
  8
C-2
  6
Continuous
 62
     3
370
     9
100
AcDbLine
 10
-1203.429342633501
 20
779.4982279733501
 30
0.0
 11
-1194.429461404616
 21
779.4982279733501
 31
0.0
  0
LINE
  5
26F
330
1F
100
AcDbEntity
  8
C-2
  6
Continuous
 62
     3
370
     9
100
AcDbLine
 10
-1203.429342633501
 20
782.4981883829786
 30
0.0
 11
-1194.429461404616
 21
782.4981883829786
 31
0.0
  0
LINE
  5
270
330
1F
100
AcDbEntity
  8
C-2
  6
Continuous
 62
     3
370
     9
100
AcDbLine
 10
-1190.429472951807
 20
779.4982279733501
 30
0.0
 11
-1181.429591722922
 21
779.4982279733501
 31
0.0
  0
LINE
  5
271
330
1F
100
AcDbEntity
  8
C-2
  6
Continuous
 62
     3
370
     9
100
AcDbLine
 10
-1190.429472951807
 20
782.4981883829786
 30
0.0
 11
-1181.429591722922
 21
782.4981883829786
 31
0.0
  0
LINE
  5
272
330
1F
100
AcDbEntity
  8
C-2
  6
Continuous
 62
     3
370
     9
100
AcDbLine
 10
-1177.429603270114
 20
779.4982279733501
 30
0.0
 11
-1168.429722041229
 21
779.4982279733501
 31
0.0
  0
LINE
  5
273
330
1F
100
AcDbEntity
  8
C-2
  6
Continuous
 62
     3
370
     9
100
AcDbLine
 10
-1177.429603270114
 20
782.4981883829786
 30
0.0
 11
-1168.429722041229
 21
782.4981883829786
 31
0.0
  0
LINE
  5
274
330
1F
100
AcDbEntity
  8
C-2
  6
Continuous
 62
     3
370
     9
100
AcDbLine
 10
-1164.42973358842
 20
779.4982279733501
 30
0.0
 11
-1155.429852359535
 21
779.4982279733501
 31
0.0
  0
LINE
  5
275
330
1F
100
AcDbEntity
  8
C-2
  6
Continuous
 62
     3
370
     9
100
AcDbLine
 10
-1164.42973358842
 20
782.4981883829786
 30
0.0
 11
-1155.429852359535
 21
782.4981883829786
 31
0.0
  0
LINE
  5
276
330
1F
100
AcDbEntity
  8
C-2
  6
Continuous
 62
     3
370
     9
100
AcDbLine
 10
-1151.429863906727
 20
779.4982279733501
 30
0.0
 11
-1142.429982677842
 21
779.4982279733501
 31
0.0
  0
LINE
  5
277
330
1F
100
AcDbEntity
  8
C-2
  6
Continuous
 62
     3
370
     9
100
AcDbLine
 10
-1151.429863906727
 20
782.4981883829786
 30
0.0
 11
-1142.429982677842
 21
782.4981883829786
 31
0.0
  0
LINE
  5
278
330
1F
100
AcDbEntity
  8
C-2
  6
Continuous
 62
     3
370
     9
100
AcDbLine
 10
-1138.429994225034
 20
779.4982279733501
 30
0.0
 11
-1129.430112996149
 21
779.4982279733501
 31
0.0
  0
LINE
  5
279
330
1F
100
AcDbEntity
  8
C-2
  6
Continuous
 62
     3
370
     9
100
AcDbLine
 10
-1138.429994225034
 20
782.4981883829786
 30
0.0
 11
-1129.430112996149
 21
782.4981883829786
 31
0.0
  0
LINE
  5
27A
330
1F
100
AcDbEntity
  8
C-2
  6
Continuous
 62
     3
370
     9
100
AcDbLine
 10
-1125.43012454334
 20
779.4982279733501
 30
0.0
 11
-1116.430243314455
 21
779.4982279733501
 31
0.0
  0
LINE
  5
27B
330
1F
100
AcDbEntity
  8
C-2
  6
Continuous
 62
     3
370
     9
100
AcDbLine
 10
-1125.43012454334
 20
782.4981883829786
 30
0.0
 11
-1116.430243314455
 21
782.4981883829786
 31
0.0
  0
LINE
  5
27C
330
1F
100
AcDbEntity
  8
C-2
  6
Continuous
 62
     3
370
     9
100
AcDbLine
 10
-1112.430254861647
 20
779.4982279733501
 30
0.0
 11
-1103.430373632762
 21
779.4982279733501
 31
0.0
  0
LINE
  5
27D
330
1F
100
AcDbEntity
  8
C-2
  6
Continuous
 62
     3
370
     9
100
AcDbLine
 10
-1112.430254861647
 20
782.4981883829786
 30
0.0
 11
-1103.430373632762
 21
782.4981883829786
 31
0.0
  0
LINE
  5
27E
330
1F
100
AcDbEntity
  8
C-2
  6
Continuous
 62
     3
370
     9
100
AcDbLine
 10
-1099.430385179953
 20
779.4982279733501
 30
0.0
 11
-1090.430503951068
 21
779.4982279733501
 31
0.0
  0
LINE
  5
27F
330
1F
100
AcDbEntity
  8
C-2
  6
Continuous
 62
     3
370
     9
100
AcDbLine
 10
-1099.430385179953
 20
782.4981883829786
 30
0.0
 11
-1090.430503951068
 21
782.4981883829786
 31
0.0
  0
LINE
  5
280
330
1F
100
AcDbEntity
  8
C-2
  6
Continuous
 62
     3
370
     9
100
AcDbLine
 10
-1086.43051549826
 20
779.4982279733501
 30
0.0
 11
-1077.430634269375
 21
779.4982279733501
 31
0.0
  0
LINE
  5
281
330
1F
100
AcDbEntity
  8
C-2
  6
Continuous
 62
     3
370
     9
100
AcDbLine
 10
-1086.43051549826
 20
782.4981883829786
 30
0.0
 11
-1077.430634269375
 21
782.4981883829786
 31
0.0
  0
LINE
  5
282
330
1F
100
AcDbEntity
  8
C-2
  6
Continuous
 62
     3
370
     9
100
AcDbLine
 10
-1073.430645816567
 20
779.4982279733501
 30
0.0
 11
-1064.430764587681
 21
779.4982279733501
 31
0.0
  0
LINE
  5
283
330
1F
100
AcDbEntity
  8
C-2
  6
Continuous
 62
     3
370
     9
100
AcDbLine
 10
-1073.430645816567
 20
782.4981883829786
 30
0.0
 11
-1064.430764587681
 21
782.4981883829786
 31
0.0
  0
LINE
  5
284
330
1F
100
AcDbEntity
  8
C-2
  6
Continuous
 62
     3
370
     9
100
AcDbLine
 10
-1060.430776134873
 20
779.4982279733501
 30
0.0
 11
-1051.430894905988
 21
779.4982279733501
 31
0.0
  0
LINE
  5
285
330
1F
100
AcDbEntity
  8
C-2
  6
Continuous
 62
     3
370
     9
100
AcDbLine
 10
-1060.430776134873
 20
782.4981883829786
 30
0.0
 11
-1051.430894905988
 21
782.4981883829786
 31
0.0
  0
LINE
  5
286
330
1F
100
AcDbEntity
  8
C-2
  6
Continuous
 62
     3
370
     9
100
AcDbLine
 10
-1047.43090645318
 20
779.4982279733501
 30
0.0
 11
-1038.431025224295
 21
779.4982279733501
 31
0.0
  0
LINE
  5
287
330
1F
100
AcDbEntity
  8
C-2
  6
Continuous
 62
     3
370
     9
100
AcDbLine
 10
-1047.43090645318
 20
782.4981883829786
 30
0.0
 11
-1038.431025224295
 21
782.4981883829786
 31
0.0
  0
LINE
  5
288
330
1F
100
AcDbEntity
  8
C-2
  6
Continuous
 62
     3
370
     9
100
AcDbLine
 10
-1034.431036771486
 20
779.4982279733501
 30
0.0
 11
-1025.431155542601
 21
779.4982279733501
 31
0.0
  0
LINE
  5
289
330
1F
100
AcDbEntity
  8
C-2
  6
Continuous
 62
     3
370
     9
100
AcDbLine
 10
-1034.431036771486
 20
782.4981883829786
 30
0.0
 11
-1025.431155542601
 21
782.4981883829786
 31
0.0
  0
LINE
  5
28A
330
1F
100
AcDbEntity
  8
C-2
  6
Continuous
 62
     3
370
     9
100
AcDbLine
 10
-1021.431167089793
 20
779.4982279733501
 30
0.0
 11
-1012.431285860908
 21
779.4982279733501
 31
0.0
  0
LINE
  5
28B
330
1F
100
AcDbEntity
  8
C-2
  6
Continuous
 62
     3
370
     9
100
AcDbLine
 10
-1021.431167089793
 20
782.4981883829786
 30
0.0
 11
-1012.431285860908
 21
782.4981883829786
 31
0.0
  0
LINE
  5
28C
330
1F
100
AcDbEntity
  8
C-2
  6
Continuous
 62
     3
370
     9
100
AcDbLine
 10
-1008.4312974081
 20
779.4982279733501
 30
0.0
 11
-999.4314161792145
 21
779.4982279733501
 31
0.0
  0
LINE
  5
28D
330
1F
100
AcDbEntity
  8
C-2
  6
Continuous
 62
     3
370
     9
100
AcDbLine
 10
-1008.4312974081
 20
782.4981883829786
 30
0.0
 11
-999.4314161792145
 21
782.4981883829786
 31
0.0
  0
LINE
  5
28E
330
1F
100
AcDbEntity
  8
C-2
  6
Continuous
 62
     3
370
     9
100
AcDbLine
 10
-995.4314277264061
 20
779.4982279733501
 30
0.0
 11
-986.4315464975209
 21
779.4982279733501
 31
0.0
  0
LINE
  5
28F
330
1F
100
AcDbEntity
  8
C-2
  6
Continuous
 62
     3
370
     9
100
AcDbLine
 10
-995.4314277264061
 20
782.4981883829786
 30
0.0
 11
-986.4315464975209
 21
782.4981883829786
 31
0.0
  0
LINE
  5
290
330
1F
100
AcDbEntity
  8
C-2
  6
Continuous
 62
     3
370
     9
100
AcDbLine
 10
-982.4315580447126
 20
779.4982279733501
 30
0.0
 11
-973.4316768158277
 21
779.4982279733501
 31
0.0
  0
LINE
  5
291
330
1F
100
AcDbEntity
  8
C-2
  6
Continuous
 62
     3
370
     9
100
AcDbLine
 10
-982.4315580447126
 20
782.4981883829786
 30
0.0
 11
-973.4316768158277
 21
782.4981883829786
 31
0.0
  0
LINE
  5
292
330
1F
100
AcDbEntity
  8
C-2
  6
Continuous
 62
     3
370
     9
100
AcDbLine
 10
-969.4316883630194
 20
779.4982279733501
 30
0.0
 11
-960.4318071341343
 21
779.4982279733501
 31
0.0
  0
LINE
  5
293
330
1F
100
AcDbEntity
  8
C-2
  6
Continuous
 62
     3
370
     9
100
AcDbLine
 10
-969.4316883630194
 20
782.4981883829786
 30
0.0
 11
-960.4318071341343
 21
782.4981883829786
 31
0.0
  0
LINE
  5
294
330
1F
100
AcDbEntity
  8
C-2
  6
Continuous
 62
     3
370
     9
100
AcDbLine
 10
-956.4318186813259
 20
779.4982279733501
 30
0.0
 11
-947.4319374524407
 21
779.4982279733501
 31
0.0
  0
LINE
  5
295
330
1F
100
AcDbEntity
  8
C-2
  6
Continuous
 62
     3
370
     9
100
AcDbLine
 10
-956.4318186813259
 20
782.4981883829786
 30
0.0
 11
-947.4319374524407
 21
782.4981883829786
 31
0.0
  0
LINE
  5
296
330
1F
100
AcDbEntity
  8
C-2
  6
Continuous
 62
     3
370
     9
100
AcDbLine
 10
-943.4319489996324
 20
779.4982279733501
 30
0.0
 11
-934.4320677707472
 21
779.4982279733501
 31
0.0
  0
LINE
  5
297
330
1F
100
AcDbEntity
  8
C-2
  6
Continuous
 62
     3
370
     9
100
AcDbLine
 10
-943.4319489996324
 20
782.4981883829786
 30
0.0
 11
-934.4320677707472
 21
782.4981883829786
 31
0.0
  0
LINE
  5
298
330
1F
100
AcDbEntity
  8
C-2
  6
Continuous
 62
     3
370
     9
100
AcDbLine
 10
-930.4320793179392
 20
779.4982279733501
 30
0.0
 11
-921.432198089054
 21
779.4982279733501
 31
0.0
  0
LINE
  5
299
330
1F
100
AcDbEntity
  8
C-2
  6
Continuous
 62
     3
370
     9
100
AcDbLine
 10
-930.4320793179392
 20
782.4981883829786
 30
0.0
 11
-921.432198089054
 21
782.4981883829786
 31
0.0
  0
LINE
  5
29A
330
1F
100
AcDbEntity
  8
C-2
  6
Continuous
 62
     3
370
     9
100
AcDbLine
 10
-917.4322096362457
 20
779.4982279733501
 30
0.0
 11
-908.4323284073605
 21
779.4982279733501
 31
0.0
  0
LINE
  5
29B
330
1F
100
AcDbEntity
  8
C-2
  6
Continuous
 62
     3
370
     9
100
AcDbLine
 10
-917.4322096362457
 20
782.4981883829786
 30
0.0
 11
-908.4323284073605
 21
782.4981883829786
 31
0.0
  0
LINE
  5
29C
330
1F
100
AcDbEntity
  8
C-2
  6
Continuous
 62
     3
370
     9
100
AcDbLine
 10
-904.4323399545522
 20
779.4982279733501
 30
0.0
 11
-895.432458725667
 21
779.4982279733501
 31
0.0
  0
LINE
  5
29D
330
1F
100
AcDbEntity
  8
C-2
  6
Continuous
 62
     3
370
     9
100
AcDbLine
 10
-904.4323399545522
 20
782.4981883829786
 30
0.0
 11
-895.432458725667
 21
782.4981883829786
 31
0.0
  0
LINE
  5
29E
330
1F
100
AcDbEntity
  8
C-2
  6
Continuous
 62
     3
370
     9
100
AcDbLine
 10
-891.432470272859
 20
779.4982279733501
 30
0.0
 11
-882.4325890439738
 21
779.4982279733501
 31
0.0
  0
LINE
  5
29F
330
1F
100
AcDbEntity
  8
C-2
  6
Continuous
 62
     3
370
     9
100
AcDbLine
 10
-891.432470272859
 20
782.4981883829786
 30
0.0
 11
-882.4325890439738
 21
782.4981883829786
 31
0.0
  0
LINE
  5
2A0
330
1F
100
AcDbEntity
  8
C-2
  6
Continuous
 62
     3
370
     9
100
AcDbLine
 10
-878.4326005911655
 20
779.4982279733501
 30
0.0
 11
-869.4327193622803
 21
779.4982279733501
 31
0.0
  0
LINE
  5
2A1
330
1F
100
AcDbEntity
  8
C-2
  6
Continuous
 62
     3
370
     9
100
AcDbLine
 10
-878.4326005911655
 20
782.4981883829786
 30
0.0
 11
-869.4327193622803
 21
782.4981883829786
 31
0.0
  0
LINE
  5
2A2
330
1F
100
AcDbEntity
  8
C-2
  6
Continuous
 62
     3
370
     9
100
AcDbLine
 10
-865.432730909472
 20
779.4982279733501
 30
0.0
 11
-856.4328496805867
 21
779.4982279733501
 31
0.0
  0
LINE
  5
2A3
330
1F
100
AcDbEntity
  8
C-2
  6
Continuous
 62
     3
370
     9
100
AcDbLine
 10
-865.432730909472
 20
782.4981883829786
 30
0.0
 11
-856.4328496805867
 21
782.4981883829786
 31
0.0
  0
LINE
  5
2A4
330
1F
100
AcDbEntity
  8
C-2
  6
Continuous
 62
     3
370
     9
100
AcDbLine
 10
-852.4328612277784
 20
779.4982279733501
 30
0.0
 11
-843.4329799988933
 21
779.4982279733501
 31
0.0
  0
LINE
  5
2A5
330
1F
100
AcDbEntity
  8
C-2
  6
Continuous
 62
     3
370
     9
100
AcDbLine
 10
-852.4328612277784
 20
782.4981883829786
 30
0.0
 11
-843.4329799988933
 21
782.4981883829786
 31
0.0
  0
LINE
  5
2A6
330
1F
100
AcDbEntity
  8
C-2
  6
Continuous
 62
     3
370
     9
100
AcDbLine
 10
-839.4329915460853
 20
779.4982279733501
 30
0.0
 11
-830.4331103172001
 21
779.4982279733501
 31
0.0
  0
LINE
  5
2A7
330
1F
100
AcDbEntity
  8
C-2
  6
Continuous
 62
     3
370
     9
100
AcDbLine
 10
-839.4329915460853
 20
782.4981883829786
 30
0.0
 11
-830.4331103172001
 21
782.4981883829786
 31
0.0
  0
LINE
  5
2A8
330
1F
100
AcDbEntity
  8
C-2
  6
Continuous
 62
     3
370
     9
100
AcDbLine
 10
-826.4331218643918
 20
779.4982279733501
 30
0.0
 11
-817.4332406355065
 21
779.4982279733501
 31
0.0
  0
LINE
  5
2A9
330
1F
100
AcDbEntity
  8
C-2
  6
Continuous
 62
     3
370
     9
100
AcDbLine
 10
-826.4331218643918
 20
782.4981883829786
 30
0.0
 11
-817.4332406355065
 21
782.4981883829786
 31
0.0
  0
LINE
  5
2AA
330
1F
100
AcDbEntity
  8
C-2
  6
Continuous
 62
     3
370
     9
100
AcDbLine
 10
-813.4332521826982
 20
779.4982279733501
 30
0.0
 11
-804.433247233902
 21
779.4982279733501
 31
0.0
  0
LINE
  5
2AB
330
1F
100
AcDbEntity
  8
C-2
  6
Continuous
 62
     3
370
     9
100
AcDbLine
 10
-813.4332521826982
 20
782.4981883829786
 30
0.0
 11
-804.433247233902
 21
782.4981883829786
 31
0.0
  0
LINE
  5
2AC
330
1F
100
AcDbEntity
  8
C-2
  6
Continuous
 62
     3
370
     9
100
AcDbLine
 10
-800.4333825010051
 20
779.4982279733501
 30
0.0
 11
-791.4335012721199
 21
779.4982279733501
 31
0.0
  0
LINE
  5
2AD
330
1F
100
AcDbEntity
  8
C-2
  6
Continuous
 62
     3
370
     9
100
AcDbLine
 10
-800.4333825010051
 20
782.4981883829786
 30
0.0
 11
-791.4335012721199
 21
782.4981883829786
 31
0.0
  0
LINE
  5
2AE
330
1F
100
AcDbEntity
  8
C-2
  6
Continuous
 62
     3
370
     9
100
AcDbLine
 10
-787.4336365392228
 20
779.4982279733501
 30
0.0
 11
-778.4337553103376
 21
779.4982279733501
 31
0.0
  0
LINE
  5
2AF
330
1F
100
AcDbEntity
  8
C-2
  6
Continuous
 62
     3
370
     9
100
AcDbLine
 10
-787.4336365392228
 20
782.4981883829786
 30
0.0
 11
-778.4337553103376
 21
782.4981883829786
 31
0.0
  0
LINE
  5
2B0
330
1F
100
AcDbEntity
  8
C-2
  6
Continuous
 62
     3
370
     9
100
AcDbLine
 10
-774.433643137618
 20
779.4982279733501
 30
0.0
 11
-765.4337619087329
 21
779.4982279733501
 31
0.0
  0
LINE
  5
2B1
330
1F
100
AcDbEntity
  8
C-2
  6
Continuous
 62
     3
370
     9
100
AcDbLine
 10
-774.433643137618
 20
782.4981883829786
 30
0.0
 11
-765.4337619087329
 21
782.4981883829786
 31
0.0
  0
LINE
  5
2B2
330
1F
100
AcDbEntity
  8
C-2
  6
Continuous
 62
     3
370
     9
100
AcDbLine
 10
-761.4336497360134
 20
779.4982279733501
 30
0.0
 11
-752.4337685071282
 21
779.4982279733501
 31
0.0
  0
LINE
  5
2B3
330
1F
100
AcDbEntity
  8
C-2
  6
Continuous
 62
     3
370
     9
100
AcDbLine
 10
-761.4336497360134
 20
782.4981883829786
 30
0.0
 11
-752.4337685071282
 21
782.4981883829786
 31
0.0
  0
LINE
  5
2B4
330
1F
100
AcDbEntity
  8
C-2
  6
Continuous
 62
     3
370
     9
100
AcDbLine
 10
-748.4339037742313
 20
779.4982279733501
 30
0.0
 11
-739.4340225453461
 21
779.4982279733501
 31
0.0
  0
LINE
  5
2B5
330
1F
100
AcDbEntity
  8
C-2
  6
Continuous
 62
     3
370
     9
100
AcDbLine
 10
-748.4339037742313
 20
782.4981883829786
 30
0.0
 11
-739.4340225453461
 21
782.4981883829786
 31
0.0
  0
LINE
  5
2B6
330
1F
100
AcDbEntity
  8
C-2
  6
Continuous
 62
     3
370
     9
100
AcDbLine
 10
-735.4341578124493
 20
779.4982279733501
 30
0.0
 11
-726.4342765835642
 21
779.4982279733501
 31
0.0
  0
LINE
  5
2B7
330
1F
100
AcDbEntity
  8
C-2
  6
Continuous
 62
     3
370
     9
100
AcDbLine
 10
-735.4341578124493
 20
782.4981883829786
 30
0.0
 11
-726.4342765835642
 21
782.4981883829786
 31
0.0
  0
LINE
  5
2B8
330
1F
100
AcDbEntity
  8
C-2
  6
Continuous
 62
     3
370
     9
100
AcDbLine
 10
-722.4341644108443
 20
779.4982279733501
 30
0.0
 11
-713.4342831819592
 21
779.4982279733501
 31
0.0
  0
LINE
  5
2B9
330
1F
100
AcDbEntity
  8
C-2
  6
Continuous
 62
     3
370
     9
100
AcDbLine
 10
-722.4341644108443
 20
782.4981883829786
 30
0.0
 11
-713.4342831819592
 21
782.4981883829786
 31
0.0
  0
LINE
  5
2BA
330
1F
100
AcDbEntity
  8
C-2
  6
Continuous
 62
     3
370
     9
100
AcDbLine
 10
-709.4341710092397
 20
779.4982279733501
 30
0.0
 11
-700.4342897803544
 21
779.4982279733501
 31
0.0
  0
LINE
  5
2BB
330
1F
100
AcDbEntity
  8
C-2
  6
Continuous
 62
     3
370
     9
100
AcDbLine
 10
-709.4341710092397
 20
782.4981883829786
 30
0.0
 11
-700.4342897803544
 21
782.4981883829786
 31
0.0
  0
LINE
  5
2BC
330
1F
100
AcDbEntity
  8
C-2
  6
Continuous
 62
     3
370
     9
100
AcDbLine
 10
-696.4344250474576
 20
779.4982279733501
 30
0.0
 11
-687.4345438185725
 21
779.4982279733501
 31
0.0
  0
LINE
  5
2BD
330
1F
100
AcDbEntity
  8
C-2
  6
Continuous
 62
     3
370
     9
100
AcDbLine
 10
-696.4344250474576
 20
782.4981883829786
 30
0.0
 11
-687.4345438185725
 21
782.4981883829786
 31
0.0
  0
LINE
  5
2BE
330
1F
100
AcDbEntity
  8
C-2
  6
Continuous
 62
     3
370
     9
100
AcDbLine
 10
-683.4346790856756
 20
779.4982279733501
 30
0.0
 11
-674.4347978567905
 21
779.4982279733501
 31
0.0
  0
LINE
  5
2BF
330
1F
100
AcDbEntity
  8
C-2
  6
Continuous
 62
     3
370
     9
100
AcDbLine
 10
-683.4346790856756
 20
782.4981883829786
 30
0.0
 11
-674.4347978567905
 21
782.4981883829786
 31
0.0
  0
LINE
  5
2C0
330
1F
100
AcDbEntity
  8
C-2
  6
Continuous
 62
     3
370
     9
100
AcDbLine
 10
-670.4346856840709
 20
779.4982279733501
 30
0.0
 11
-661.4348044551857
 21
779.4982279733501
 31
0.0
  0
LINE
  5
2C1
330
1F
100
AcDbEntity
  8
C-2
  6
Continuous
 62
     3
370
     9
100
AcDbLine
 10
-670.4346856840709
 20
782.4981883829786
 30
0.0
 11
-661.4348044551857
 21
782.4981883829786
 31
0.0
  0
LINE
  5
2C2
330
1F
100
AcDbEntity
  8
C-2
  6
Continuous
 62
     3
370
     9
100
AcDbLine
 10
-657.4346922824659
 20
779.4982279733501
 30
0.0
 11
-648.4348110535808
 21
779.4982279733501
 31
0.0
  0
LINE
  5
2C3
330
1F
100
AcDbEntity
  8
C-2
  6
Continuous
 62
     3
370
     9
100
AcDbLine
 10
-657.4346922824659
 20
782.4981883829786
 30
0.0
 11
-648.4348110535808
 21
782.4981883829786
 31
0.0
  0
LINE
  5
2C4
330
1F
100
AcDbEntity
  8
C-2
  6
Continuous
 62
     3
370
     9
100
AcDbLine
 10
-644.4349463206839
 20
779.4982279733501
 30
0.0
 11
-635.4350650917988
 21
779.4982279733501
 31
0.0
  0
LINE
  5
2C5
330
1F
100
AcDbEntity
  8
C-2
  6
Continuous
 62
     3
370
     9
100
AcDbLine
 10
-644.4349463206839
 20
782.4981883829786
 30
0.0
 11
-635.4350650917988
 21
782.4981883829786
 31
0.0
  0
LINE
  5
2C6
330
1F
100
AcDbEntity
  8
C-2
  6
Continuous
 62
     3
370
     9
100
AcDbLine
 10
-631.435200358902
 20
779.4982279733501
 30
0.0
 11
-622.4353191300168
 21
779.4982279733501
 31
0.0
  0
LINE
  5
2C7
330
1F
100
AcDbEntity
  8
C-2
  6
Continuous
 62
     3
370
     9
100
AcDbLine
 10
-631.435200358902
 20
782.4981883829786
 30
0.0
 11
-622.4353191300168
 21
782.4981883829786
 31
0.0
  0
LINE
  5
2C8
330
1F
100
AcDbEntity
  8
C-2
  6
Continuous
 62
     3
370
     9
100
AcDbLine
 10
-618.4352069572972
 20
779.4982279733501
 30
0.0
 11
-609.4353257284121
 21
779.4982279733501
 31
0.0
  0
LINE
  5
2C9
330
1F
100
AcDbEntity
  8
C-2
  6
Continuous
 62
     3
370
     9
100
AcDbLine
 10
-618.4352069572972
 20
782.4981883829786
 30
0.0
 11
-609.4353257284121
 21
782.4981883829786
 31
0.0
  0
LINE
  5
2CA
330
1F
100
AcDbEntity
  8
C-2
  6
Continuous
 62
     3
370
     9
100
AcDbLine
 10
-605.4352135556926
 20
779.4982279733501
 30
0.0
 11
-596.4353323268074
 21
779.4982279733501
 31
0.0
  0
LINE
  5
2CB
330
1F
100
AcDbEntity
  8
C-2
  6
Continuous
 62
     3
370
     9
100
AcDbLine
 10
-605.4352135556926
 20
782.4981883829786
 30
0.0
 11
-596.4353323268074
 21
782.4981883829786
 31
0.0
  0
LINE
  5
2CC
330
1F
100
AcDbEntity
  8
C-2
  6
Continuous
 62
     3
370
     9
100
AcDbLine
 10
-592.4354675939103
 20
779.4982279733501
 30
0.0
 11
-583.4355863650251
 21
779.4982279733501
 31
0.0
  0
LINE
  5
2CD
330
1F
100
AcDbEntity
  8
C-2
  6
Continuous
 62
     3
370
     9
100
AcDbLine
 10
-592.4354675939103
 20
782.4981883829786
 30
0.0
 11
-583.4355863650251
 21
782.4981883829786
 31
0.0
  0
LINE
  5
2CE
330
1F
100
AcDbEntity
  8
C-2
  6
Continuous
 62
     3
370
     9
100
AcDbLine
 10
-579.4357216321282
 20
779.4982279733501
 30
0.0
 11
-570.435840403243
 21
779.4982279733501
 31
0.0
  0
LINE
  5
2CF
330
1F
100
AcDbEntity
  8
C-2
  6
Continuous
 62
     3
370
     9
100
AcDbLine
 10
-579.4357216321282
 20
782.4981883829786
 30
0.0
 11
-570.435840403243
 21
782.4981883829786
 31
0.0
  0
LINE
  5
2D0
330
1F
100
AcDbEntity
  8
C-2
  6
Continuous
 62
     3
370
     9
100
AcDbLine
 10
-566.4357282305235
 20
779.4982279733501
 30
0.0
 11
-557.4358470016384
 21
779.4982279733501
 31
0.0
  0
LINE
  5
2D1
330
1F
100
AcDbEntity
  8
C-2
  6
Continuous
 62
     3
370
     9
100
AcDbLine
 10
-566.4357282305235
 20
782.4981883829786
 30
0.0
 11
-557.4358470016384
 21
782.4981883829786
 31
0.0
  0
LINE
  5
2D2
330
1F
100
AcDbEntity
  8
C-2
  6
Continuous
 62
     3
370
     9
100
AcDbLine
 10
-553.4357348289188
 20
779.4982279733501
 30
0.0
 11
-544.4358536000336
 21
779.4982279733501
 31
0.0
  0
LINE
  5
2D3
330
1F
100
AcDbEntity
  8
C-2
  6
Continuous
 62
     3
370
     9
100
AcDbLine
 10
-553.4357348289188
 20
782.4981883829786
 30
0.0
 11
-544.4358536000336
 21
782.4981883829786
 31
0.0
  0
LINE
  5
2D4
330
1F
100
AcDbEntity
  8
C-2
  6
Continuous
 62
     3
370
     9
100
AcDbLine
 10
-540.4359888671365
 20
779.4982279733501
 30
0.0
 11
-531.4361076382517
 21
779.4982279733501
 31
0.0
  0
LINE
  5
2D5
330
1F
100
AcDbEntity
  8
C-2
  6
Continuous
 62
     3
370
     9
100
AcDbLine
 10
-540.4359888671365
 20
782.4981883829786
 30
0.0
 11
-531.4361076382517
 21
782.4981883829786
 31
0.0
  0
LINE
  5
2D6
330
1F
100
AcDbEntity
  8
C-2
  6
Continuous
 62
     3
370
     9
100
AcDbLine
 10
-527.4362429053544
 20
779.4982279733501
 30
0.0
 11
-518.4363616764693
 21
779.4982279733501
 31
0.0
  0
LINE
  5
2D7
330
1F
100
AcDbEntity
  8
C-2
  6
Continuous
 62
     3
370
     9
100
AcDbLine
 10
-527.4362429053544
 20
782.4981883829786
 30
0.0
 11
-518.4363616764693
 21
782.4981883829786
 31
0.0
  0
LINE
  5
2D8
330
1F
100
AcDbEntity
  8
C-2
  6
Continuous
 62
     3
370
     9
100
AcDbLine
 10
-514.4362495037499
 20
779.4982279733501
 30
0.0
 11
-505.4363682748647
 21
779.4982279733501
 31
0.0
  0
LINE
  5
2D9
330
1F
100
AcDbEntity
  8
C-2
  6
Continuous
 62
     3
370
     9
100
AcDbLine
 10
-514.4362495037499
 20
782.4981883829786
 30
0.0
 11
-505.4363682748647
 21
782.4981883829786
 31
0.0
  0
LINE
  5
2DA
330
1F
100
AcDbEntity
  8
C-2
  6
Continuous
 62
     3
370
     9
100
AcDbLine
 10
-501.4362561021451
 20
779.4982279733501
 30
0.0
 11
-492.43637487326
 21
779.4982279733501
 31
0.0
  0
LINE
  5
2DB
330
1F
100
AcDbEntity
  8
C-2
  6
Continuous
 62
     3
370
     9
100
AcDbLine
 10
-501.4362561021451
 20
782.4981883829786
 30
0.0
 11
-492.43637487326
 21
782.4981883829786
 31
0.0
  0
LINE
  5
2DC
330
1F
100
AcDbEntity
  8
C-2
  6
Continuous
 62
     3
370
     9
100
AcDbLine
 10
-488.4365101403631
 20
779.4982279733501
 30
0.0
 11
-479.436628911478
 21
779.4982279733501
 31
0.0
  0
LINE
  5
2DD
330
1F
100
AcDbEntity
  8
C-2
  6
Continuous
 62
     3
370
     9
100
AcDbLine
 10
-488.4365101403631
 20
782.4981883829786
 30
0.0
 11
-479.436628911478
 21
782.4981883829786
 31
0.0
  0
LINE
  5
2DE
330
1F
100
AcDbEntity
  8
C-2
  6
Continuous
 62
     3
370
     9
100
AcDbLine
 10
-475.4367641785808
 20
779.4982279733501
 30
0.0
 11
-466.4368829496959
 21
779.4982279733501
 31
0.0
  0
LINE
  5
2DF
330
1F
100
AcDbEntity
  8
C-2
  6
Continuous
 62
     3
370
     9
100
AcDbLine
 10
-475.4367641785808
 20
782.4981883829786
 30
0.0
 11
-466.4368829496959
 21
782.4981883829786
 31
0.0
  0
LINE
  5
2E0
330
1F
100
AcDbEntity
  8
C-2
  6
Continuous
 62
     3
370
     9
100
AcDbLine
 10
-462.4367707769761
 20
779.4982279733501
 30
0.0
 11
-453.436889548091
 21
779.4982279733501
 31
0.0
  0
LINE
  5
2E1
330
1F
100
AcDbEntity
  8
C-2
  6
Continuous
 62
     3
370
     9
100
AcDbLine
 10
-462.4367707769761
 20
782.4981883829786
 30
0.0
 11
-453.436889548091
 21
782.4981883829786
 31
0.0
  0
LINE
  5
2E2
330
1F
100
AcDbEntity
  8
C-2
  6
Continuous
 62
     3
370
     9
100
AcDbLine
 10
-449.4367773753714
 20
779.4982279733501
 30
0.0
 11
-440.4368961464863
 21
779.4982279733501
 31
0.0
  0
LINE
  5
2E3
330
1F
100
AcDbEntity
  8
C-2
  6
Continuous
 62
     3
370
     9
100
AcDbLine
 10
-449.4367773753714
 20
782.4981883829786
 30
0.0
 11
-440.4368961464863
 21
782.4981883829786
 31
0.0
  0
TEXT
  5
2E4
330
1F
100
AcDbEntity
  8
C-4
  6
Continuous
 62
     2
370
     9
100
AcDbText
 10
-1456.388710540226
 20
955.6371326397353
 30
0.0
 40
30.48
  1
2
 41
0.9999999999999998
  7
ＭＳ ゴシック
100
AcDbText
  0
TEXT
  5
2E5
330
1F
100
AcDbEntity
  8
C-4
  6
Continuous
 62
     2
370
     9
100
AcDbText
 10
-460.3884309332261
 20
955.6371326397353
 30
0.0
 40
30.48
  1
2
 41
0.9999999999999998
  7
ＭＳ ゴシック
100
AcDbText
  0
TEXT
  5
2E6
330
1F
100
AcDbEntity
  8
C-5
  6
Continuous
 62
     2
370
     9
100
AcDbText
 10
-1199.926939168024
 20
562.13828405971
 30
0.0
 40
30.48
  1
平面詳細図　Ｓ＝１：１０
 41
1.114583333333333
  7
ＭＳ ゴシック
100
AcDbText
  0
TEXT
  5
2E7
330
1F
100
AcDbEntity
  8
C-4
  6
Continuous
 62
     2
370
     9
100
AcDbText
 10
-596.1856572977742
 20
884.6382345717454
 30
0.0
 40
30.48
  1
13
 41
1.0625
  7
ＭＳ ゴシック
100
AcDbText
  0
TEXT
  5
2E8
330
1F
100
AcDbEntity
  8
C-4
  6
Continuous
 62
     2
370
     9
100
AcDbText
 10
-964.927186607846
 20
956.6377792824718
 30
0.0
 40
30.48
  1
992
 41
1.083333333333333
  7
ＭＳ ゴシック
100
AcDbText
  0
TEXT
  5
2E9
330
1F
100
AcDbEntity
  8
C-4
  6
Continuous
 62
     2
370
     9
100
AcDbText
 10
-963.9274060044888
 20
1036.637053458992
 30
0.0
 40
30.48
  1
994
 41
1.083333333333333
  7
ＭＳ ゴシック
100
AcDbText
  0
LWPOLYLINE
  5
2EA
330
1F
100
AcDbEntity
  8
C-4
  6
Continuous
 62
     7
370
     9
100
AcDbPolyline
 90
        4
 70
     1
 43
2.0
 10
-1429.427666641102
 20
944.997858463215
 42
0.4142135623731
 10
-1430.427666641102
 20
945.9978584632149
 42
0.4142135623731
 10
-1431.427666641102
 20
944.997858463215
 42
0.4142135623731
 10
-1430.427666641102
 20
943.997858463215
 42
0.4142135623731
  0
LWPOLYLINE
  5
2EB
330
1F
100
AcDbEntity
  8
C-4
  6
Continuous
 62
     7
370
     9
100
AcDbPolyline
 90
        4
 70
     1
 43
2.0
 10
-1427.426991955186
 20
944.997858463215
 42
0.4142135623731
 10
-1428.426991955186
 20
945.9978584632149
 42
0.4142135623731
 10
-1429.426991955186
 20
944.997858463215
 42
0.4142135623731
 10
-1428.426991955186
 20
943.997858463215
 42
0.4142135623731
  0
LWPOLYLINE
  5
2EC
330
1F
100
AcDbEntity
  8
C-4
  6
Continuous
 62
     7
370
     9
100
AcDbPolyline
 90
        4
 70
     1
 43
2.0
 10
-435.4273812605066
 20
944.997858463215
 42
0.4142135623731
 10
-436.4273812605066
 20
945.9978584632149
 42
0.4142135623731
 10
-437.4273812605066
 20
944.997858463215
 42
0.4142135623731
 10
-436.4273812605066
 20
943.997858463215
 42
0.4142135623731
  0
LWPOLYLINE
  5
2ED
330
1F
100
AcDbEntity
  8
C-4
  6
Continuous
 62
     7
370
     9
100
AcDbPolyline
 90
        4
 70
     1
 43
2.0
 10
-433.427820053792
 20
944.997858463215
 42
0.4142135623731
 10
-434.427820053792
 20
945.9978584632149
 42
0.4142135623731
 10
-435.427820053792
 20
944.997858463215
 42
0.4142135623731
 10
-434.427820053792
 20
943.997858463215
 42
0.4142135623731
  0
LWPOLYLINE
  5
2EE
330
1F
100
AcDbEntity
  8
C-4
  6
Continuous
 62
     7
370
     9
100
AcDbPolyline
 90
        4
 70
     1
 43
2.0
 10
-1427.426991955186
 20
1024.997132639735
 42
0.4142135623731
 10
-1428.426991955186
 20
1025.997132639735
 42
0.4142135623731
 10
-1429.426991955186
 20
1024.997132639735
 42
0.4142135623731
 10
-1428.426991955186
 20
1023.997132639735
 42
0.4142135623731
  0
LWPOLYLINE
  5
2EF
330
1F
100
AcDbEntity
  8
C-4
  6
Continuous
 62
     7
370
     9
100
AcDbPolyline
 90
        4
 70
     1
 43
2.0
 10
-433.427820053792
 20
1024.997132639735
 42
0.4142135623731
 10
-434.427820053792
 20
1025.997132639735
 42
0.4142135623731
 10
-435.427820053792
 20
1024.997132639735
 42
0.4142135623731
 10
-434.427820053792
 20
1023.997132639735
 42
0.4142135623731
  0
LWPOLYLINE
  5
2F0
330
1F
100
AcDbEntity
  8
C-4
  6
Continuous
 62
     7
370
     9
100
AcDbPolyline
 90
        4
 70
     1
 43
2.0
 10
-580.4355302786654
 20
872.9983137524887
 42
0.4142135623731
 10
-581.4355302786655
 20
873.9983137524887
 42
0.4142135623731
 10
-582.4355302786655
 20
872.9983137524887
 42
0.4142135623731
 10
-581.4355302786655
 20
871.9983137524888
 42
0.4142135623731
  0
LWPOLYLINE
  5
2F1
330
1F
100
AcDbEntity
  8
C-4
  6
Continuous
 62
     7
370
     9
100
AcDbPolyline
 90
        4
 70
     1
 43
2.0
 10
-567.4357843168834
 20
872.9983137524887
 42
0.4142135623731
 10
-568.4357843168834
 20
873.9983137524887
 42
0.4142135623731
 10
-569.4357843168834
 20
872.9983137524887
 42
0.4142135623731
 10
-568.4357843168834
 20
871.9983137524888
 42
0.4142135623731
  0
LINE
  5
2F2
330
1F
100
AcDbEntity
  8
A-6
  6
Continuous
 62
     6
370
     5
100
AcDbLine
 10
-641.8356528438572
 20
-354.6622281461148
 30
0.0
 11
-741.8356734638427
 21
-254.6622693860852
 31
0.0
  0
LINE
  5
2F3
330
1F
100
AcDbEntity
  8
A-6
  6
Continuous
 62
     6
370
     5
100
AcDbLine
 10
-752.4270876319172
 20
-154.6623106260556
 30
0.0
 11
-807.4270835079197
 21
-154.6623106260556
 31
0.0
  0
LINE
  5
2F4
330
1F
100
AcDbEntity
  8
A-6
  6
Continuous
 62
     6
370
     5
100
AcDbLine
 10
-482.42712474789
 20
-154.6623106260556
 30
0.0
 11
-807.4270835079197
 21
-154.6623106260556
 31
0.0
  0
LINE
  5
2F5
330
1F
100
AcDbEntity
  8
A-6
  6
Continuous
 62
     6
370
     5
100
AcDbLine
 10
-716.9636410921156
 20
-354.6622281461148
 30
0.0
 11
-705.9293096415245
 21
-373.7742635366078
 31
0.0
  0
LINE
  5
2F6
330
1F
100
AcDbEntity
  8
A-6
  6
Continuous
 62
     6
370
     5
100
AcDbLine
 10
-596.7761188225312
 20
-354.6622281461148
 30
0.0
 11
-585.7417873719401
 21
-373.7742635366078
 31
0.0
  0
LINE
  5
2F7
330
1F
100
AcDbEntity
  8
A-6
  6
Continuous
 62
     6
370
     5
100
AcDbLine
 10
-488.8166395678859
 20
-354.6622281461148
 30
0.0
 11
-588.8165983279156
 21
-254.6622693860852
 31
0.0
  0
LINE
  5
2F8
330
1F
100
AcDbEntity
  8
A-6
  6
Continuous
 62
     6
370
     5
100
AcDbLine
 10
-502.9588151907744
 20
-354.6622281461148
 30
0.0
 11
-602.9584027910703
 21
-254.6622693860852
 31
0.0
  0
LINE
  5
2F9
330
1F
100
AcDbEntity
  8
A-6
  6
Continuous
 62
     6
370
     5
100
AcDbLine
 10
-495.8874799395078
 20
-354.6622281461148
 30
0.0
 11
-595.887314979626
 21
-254.6622693860852
 31
0.0
  0
LINE
  5
2FA
330
1F
100
AcDbEntity
  8
A-6
  6
Continuous
 62
     6
370
     5
100
AcDbLine
 10
-634.7644413125015
 20
-354.6622281461148
 30
0.0
 11
-734.7648949521765
 21
-254.6622693860852
 31
0.0
  0
LINE
  5
2FB
330
1F
100
AcDbEntity
  8
A-6
  6
Continuous
 62
     6
370
     5
100
AcDbLine
 10
-1382.427062887935
 20
-154.6623106260556
 30
0.0
 11
-1057.427042267949
 21
-154.6623106260556
 31
0.0
  0
LINE
  5
2FC
330
1F
100
AcDbEntity
  8
A-6
  6
Continuous
 62
     6
370
     5
100
AcDbLine
 10
-1339.543762106685
 20
-354.6622281461148
 30
0.0
 11
-1328.50949251605
 21
-373.7742635366078
 31
0.0
  0
LINE
  5
2FD
330
1F
100
AcDbEntity
  8
A-6
  6
Continuous
 62
     6
370
     5
100
AcDbLine
 10
-1219.356208907123
 20
-354.6622281461148
 30
0.0
 11
-1208.321939316487
 21
-373.7742635366078
 31
0.0
  0
LINE
  5
2FE
330
1F
100
AcDbEntity
  8
A-6
  6
Continuous
 62
     6
370
     5
100
AcDbLine
 10
-1125.538998065299
 20
-354.6622281461148
 30
0.0
 11
-1225.538616595573
 21
-254.6622693860852
 31
0.0
  0
LINE
  5
2FF
330
1F
100
AcDbEntity
  8
A-6
  6
Continuous
 62
     6
370
     5
100
AcDbLine
 10
-1264.415835718382
 20
-354.6622281461148
 30
0.0
 11
-1364.415794478412
 21
-254.6622693860852
 31
0.0
  0
LINE
  5
300
330
1F
100
AcDbEntity
  8
A-6
  6
Continuous
 62
     6
370
     5
100
AcDbLine
 10
-1271.486954459805
 20
-354.6622281461148
 30
0.0
 11
-1371.486944149812
 21
-254.6622693860852
 31
0.0
  0
LINE
  5
301
330
1F
100
AcDbEntity
  8
A-6
  6
Continuous
 62
     6
370
     5
100
AcDbLine
 10
-1257.344562327071
 20
-354.6622281461148
 30
0.0
 11
-1357.345077826702
 21
-254.6622693860852
 31
0.0
  0
LINE
  5
302
330
1F
100
AcDbEntity
  8
A-2
  6
Continuous
 62
     3
370
     9
100
AcDbLine
 10
-827.4269639120057
 20
-147.1621621621621
 30
0.0
 11
-827.4269639120057
 21
-222.1621621621621
 31
0.0
  0
LINE
  5
303
330
1F
100
AcDbEntity
  8
A-2
  6
Continuous
 62
     3
370
     9
100
AcDbLine
 10
-827.4269639120057
 20
-147.1621621621621
 30
0.0
 11
-752.4273350717395
 21
-147.1621621621621
 31
0.0
  0
LINE
  5
304
330
1F
100
AcDbEntity
  8
A-2
  6
Continuous
 62
     3
370
     9
100
AcDbLine
 10
-752.4273350717395
 20
-149.6622322701118
 30
0.0
 11
-752.4273350717395
 21
-147.1621621621621
 31
0.0
  0
LINE
  5
305
330
1F
100
AcDbEntity
  8
A-2
  6
Continuous
 62
     3
370
     9
100
AcDbLine
 10
-757.4273515677276
 20
-154.6623106260556
 30
0.0
 11
-809.9270298959583
 21
-154.6623106260556
 31
0.0
  0
LINE
  5
306
330
1F
100
AcDbEntity
  8
A-2
  6
Continuous
 62
     3
370
     9
100
AcDbLine
 10
-819.9270628879349
 20
-217.1620838062182
 30
0.0
 11
-819.9270628879349
 21
-164.662158038165
 31
0.0
  0
LINE
  5
307
330
1F
100
AcDbEntity
  8
A-2
  6
Continuous
 62
     3
370
     9
100
AcDbLine
 10
-824.9270793839229
 20
-222.1621621621621
 30
0.0
 11
-827.4269639120057
 21
-222.1621621621621
 31
0.0
  0
LINE
  5
308
330
1F
100
AcDbEntity
  8
A-6
  6
Continuous
 62
     6
370
     5
100
AcDbLine
 10
-1112.427038143953
 20
-154.6623106260556
 30
0.0
 11
-1057.427042267949
 21
-154.6623106260556
 31
0.0
  0
LINE
  5
309
330
1F
100
AcDbEntity
  8
A-2
  6
Continuous
 62
     3
370
     9
100
AcDbLine
 10
-1037.427161863864
 20
-147.1621621621621
 30
0.0
 11
-1037.427161863864
 21
-222.1621621621621
 31
0.0
  0
LINE
  5
30A
330
1F
100
AcDbEntity
  8
A-2
  6
Continuous
 62
     3
370
     9
100
AcDbLine
 10
-1037.427161863864
 20
-147.1621621621621
 30
0.0
 11
-1112.42679070413
 21
-147.1621621621621
 31
0.0
  0
LINE
  5
30B
330
1F
100
AcDbEntity
  8
A-2
  6
Continuous
 62
     3
370
     9
100
AcDbLine
 10
-1112.42679070413
 20
-149.6622322701118
 30
0.0
 11
-1112.42679070413
 21
-147.1621621621621
 31
0.0
  0
LINE
  5
30C
330
1F
100
AcDbEntity
  8
A-2
  6
Continuous
 62
     3
370
     9
100
AcDbLine
 10
-1107.426774208142
 20
-154.6623106260556
 30
0.0
 11
-1054.927095879911
 21
-154.6623106260556
 31
0.0
  0
LINE
  5
30D
330
1F
100
AcDbEntity
  8
A-2
  6
Continuous
 62
     3
370
     9
100
AcDbLine
 10
-1044.927062887935
 20
-217.1620838062182
 30
0.0
 11
-1044.927062887935
 21
-164.662158038165
 31
0.0
  0
LINE
  5
30E
330
1F
100
AcDbEntity
  8
A-2
  6
Continuous
 62
     3
370
     9
100
AcDbLine
 10
-1039.927046391946
 20
-222.1621621621621
 30
0.0
 11
-1037.427161863864
 21
-222.1621621621621
 31
0.0
  0
LINE
  5
30F
330
1F
100
AcDbEntity
  8
A-2
  6
Continuous
 62
     3
370
     9
100
AcDbLine
 10
-827.4269639120057
 20
-147.1621621621621
 30
0.0
 11
-1037.427161863864
 21
-147.1621621621621
 31
0.0
  0
ARC
  5
310
330
1F
100
AcDbEntity
  8
A-2
  6
Continuous
 62
     3
370
     9
100
AcDbCircle
 10
-809.9270298959583
 20
-164.662158038165
 30
0.0
 40
10.00000012887491
100
AcDbArc
 50
90.0
 51
180.0
  0
ARC
  5
311
330
1F
100
AcDbEntity
  8
A-2
  6
Continuous
 62
     3
370
     9
100
AcDbCircle
 10
-757.4273515677276
 20
-149.6622322701118
 30
0.0
 40
5.000000064437454
100
AcDbArc
 50
270.0
 51
0.0
  0
ARC
  5
312
330
1F
100
AcDbEntity
  8
A-2
  6
Continuous
 62
     3
370
     9
100
AcDbCircle
 10
-824.9270793839229
 20
-217.1620838062182
 30
0.0
 40
5.000000064437454
100
AcDbArc
 50
270.0
 51
0.0
  0
ARC
  5
313
330
1F
100
AcDbEntity
  8
A-2
  6
Continuous
 62
     3
370
     9
100
AcDbCircle
 10
-1054.927095879911
 20
-164.662158038165
 30
0.0
 40
10.00000012887491
100
AcDbArc
 50
0.0
 51
90.0
  0
ARC
  5
314
330
1F
100
AcDbEntity
  8
A-2
  6
Continuous
 62
     3
370
     9
100
AcDbCircle
 10
-1107.426774208142
 20
-149.6622322701118
 30
0.0
 40
5.000000064437454
100
AcDbArc
 50
180.0
 51
270.0
  0
ARC
  5
315
330
1F
100
AcDbEntity
  8
A-2
  6
Continuous
 62
     3
370
     9
100
AcDbCircle
 10
-1039.927046391946
 20
-217.1620838062182
 30
0.0
 40
5.000000064437454
100
AcDbArc
 50
180.0
 51
270.0
  0
LINE
  5
316
330
1F
100
AcDbEntity
  8
A-2
  6
Continuous
 62
     3
370
     9
100
AcDbLine
 10
-1037.427161863864
 20
-184.6620796822212
 30
0.0
 11
-827.4269639120057
 21
-184.6620796822212
 31
0.0
  0
LINE
  5
317
330
1F
100
AcDbEntity
  8
A-2
  6
Continuous
 62
     3
370
     9
100
AcDbLine
 10
-926.1770914981644
 20
-169.037078492142
 30
0.0
 11
-919.9270152042191
 21
-169.037078492142
 31
0.0
  0
LINE
  5
318
330
1F
100
AcDbEntity
  8
A-2
  6
Continuous
 62
     3
370
     9
100
AcDbLine
 10
-927.4272822330277
 20
-170.9126745385898
 30
0.0
 11
-927.4272822330277
 21
-170.2878867311252
 31
0.0
  0
LINE
  5
319
330
1F
100
AcDbEntity
  8
A-2
  6
Continuous
 62
     3
370
     9
100
AcDbLine
 10
-928.6771105716507
 20
-172.1622453851474
 30
0.0
 11
-937.4272059390823
 21
-172.1622453851474
 31
0.0
  0
LINE
  5
31A
330
1F
100
AcDbEntity
  8
A-2
  6
Continuous
 62
     3
370
     9
100
AcDbLine
 10
-937.4272059390823
 20
-156.5376566571963
 30
0.0
 11
-937.4272059390823
 21
-155.9128712339175
 31
0.0
  0
LINE
  5
31B
330
1F
100
AcDbEntity
  8
A-2
  6
Continuous
 62
     3
370
     9
100
AcDbLine
 10
-944.9270914981644
 20
-157.7872275037539
 30
0.0
 11
-938.6771487186234
 21
-157.7872275037539
 31
0.0
  0
LINE
  5
31C
330
1F
100
AcDbEntity
  8
A-2
  6
Continuous
 62
     3
370
     9
100
AcDbLine
 10
-946.1772822330277
 20
-168.1561933679355
 30
0.0
 11
-946.1772822330277
 21
-159.0372942609561
 31
0.0
  0
LINE
  5
31D
330
1F
100
AcDbEntity
  8
A-2
  6
Continuous
 62
     3
370
     9
100
AcDbLine
 10
-945.3474902103226
 20
-169.3340073747409
 30
0.0
 11
-937.4272059390823
 21
-172.1622453851474
 31
0.0
  0
LINE
  5
31E
330
1F
100
AcDbEntity
  8
A-2
  6
Continuous
 62
     3
370
     9
100
AcDbLine
 10
-919.5067309329788
 20
-157.4915372056735
 30
0.0
 11
-927.4272822330277
 21
-154.6625583095324
 31
0.0
  0
LINE
  5
31F
330
1F
100
AcDbEntity
  8
A-2
  6
Continuous
 62
     3
370
     9
100
AcDbLine
 10
-918.6772059390823
 20
-158.6681138200534
 30
0.0
 11
-918.6772059390823
 21
-167.7875076455844
 31
0.0
  0
LINE
  5
320
330
1F
100
AcDbEntity
  8
A-2
  6
Continuous
 62
     3
370
     9
100
AcDbLine
 10
-936.1770152042191
 20
-147.1621621621621
 30
0.0
 11
-936.1770152042191
 21
-172.1622453851474
 31
0.0
  0
LINE
  5
321
330
1F
100
AcDbEntity
  8
A-2
  6
Continuous
 62
     3
370
     9
100
AcDbLine
 10
-928.6771105716507
 20
-147.1621621621621
 30
0.0
 11
-936.1770152042191
 21
-147.1621621621621
 31
0.0
  0
LINE
  5
322
330
1F
100
AcDbEntity
  8
A-2
  6
Continuous
 62
     3
370
     9
100
AcDbLine
 10
-927.4272822330277
 20
-154.6625583095324
 30
0.0
 11
-928.6771105716507
 21
-154.6625583095324
 31
0.0
  0
LINE
  5
323
330
1F
100
AcDbEntity
  8
A-2
  6
Continuous
 62
     3
370
     9
100
AcDbLine
 10
-928.6771105716507
 20
-147.1621621621621
 30
0.0
 11
-928.6771105716507
 21
-172.1622453851474
 31
0.0
  0
ARC
  5
324
330
1F
100
AcDbEntity
  8
A-2
  6
Continuous
 62
     3
370
     9
100
AcDbCircle
 10
-936.1770152042191
 20
-155.9128712339175
 30
0.0
 40
1.25
100
AcDbArc
 50
90.0
 51
180.0
  0
ARC
  5
325
330
1F
100
AcDbEntity
  8
A-2
  6
Continuous
 62
     3
370
     9
100
AcDbCircle
 10
-919.9270152042191
 20
-167.7875076455844
 30
0.0
 40
1.25
100
AcDbArc
 50
270.0
 51
0.0
  0
ARC
  5
326
330
1F
100
AcDbEntity
  8
A-2
  6
Continuous
 62
     3
370
     9
100
AcDbCircle
 10
-926.1770914981644
 20
-170.2878867311252
 30
0.0
 40
1.25
100
AcDbArc
 50
90.0
 51
180.0
  0
ARC
  5
327
330
1F
100
AcDbEntity
  8
A-2
  6
Continuous
 62
     3
370
     9
100
AcDbCircle
 10
-928.6771105716507
 20
-170.9126745385898
 30
0.0
 40
1.25
100
AcDbArc
 50
270.0
 51
0.0
  0
ARC
  5
328
330
1F
100
AcDbEntity
  8
A-2
  6
Continuous
 62
     3
370
     9
100
AcDbCircle
 10
-938.6771487186234
 20
-156.5376566571963
 30
0.0
 40
1.25
100
AcDbArc
 50
270.0
 51
0.0
  0
ARC
  5
329
330
1F
100
AcDbEntity
  8
A-2
  6
Continuous
 62
     3
370
     9
100
AcDbCircle
 10
-944.9270914981644
 20
-159.0372942609561
 30
0.0
 40
1.25
100
AcDbArc
 50
90.0
 51
180.0
  0
ARC
  5
32A
330
1F
100
AcDbEntity
  8
A-2
  6
Continuous
 62
     3
370
     9
100
AcDbCircle
 10
-944.9270914981644
 20
-168.1561933679355
 30
0.0
 40
1.25
100
AcDbArc
 50
180.0
 51
250.3461608886719
  0
ARC
  5
32B
330
1F
100
AcDbEntity
  8
A-2
  6
Continuous
 62
     3
370
     9
100
AcDbCircle
 10
-919.9270152042191
 20
-158.6681138200534
 30
0.0
 40
1.25
100
AcDbArc
 50
0.0
 51
70.34616088867189
  0
ARC
  5
32C
330
1F
100
AcDbEntity
  8
A-6
  6
Continuous
 62
     6
370
     5
100
AcDbCircle
 10
-891.2707543673098
 20
-329.6623106260647
 30
0.0
 40
75.0
100
AcDbArc
 50
269.9999999999949
 51
357.1375947738899
  0
LINE
  5
32D
330
1F
100
AcDbEntity
  8
A-6
  6
Continuous
 62
     6
370
     5
100
AcDbLine
 10
-1119.927062887931
 20
-442.1621852916944
 30
0.0
 11
-1119.927062887934
 21
-154.6623106260556
 31
0.0
  0
LINE
  5
32E
330
1F
100
AcDbEntity
  8
A-6
  6
Continuous
 62
     6
370
     5
100
AcDbLine
 10
-1057.427062887934
 20
-154.662310626051
 30
0.0
 11
-1119.927062887934
 21
-154.6623106260556
 31
0.0
  0
LINE
  5
32F
330
1F
100
AcDbEntity
  8
A-6
  6
Continuous
 62
     6
370
     5
100
AcDbLine
 10
-1048.489796824392
 20
-333.4076318968521
 30
0.0
 11
-1057.427062887934
 21
-154.662310626051
 31
0.0
  0
ARC
  5
330
330
1F
100
AcDbEntity
  8
A-6
  6
Continuous
 62
     6
370
     5
100
AcDbCircle
 10
-973.5833714085531
 20
-329.6623106260579
 30
0.0
 40
75.0
100
AcDbArc
 50
182.8624052261125
 51
269.9999999999953
  0
LINE
  5
331
330
1F
100
AcDbEntity
  8
A-6
  6
Continuous
 62
     6
370
     5
100
AcDbLine
 10
-973.5833714085622
 20
-404.6623106260602
 30
0.0
 11
-891.2707543673166
 21
-404.662310626067
 31
0.0
  0
LINE
  5
332
330
1F
100
AcDbEntity
  8
A-6
  6
Continuous
 62
     6
370
     5
100
AcDbLine
 10
-816.3643289514714
 20
-333.4076318968589
 30
0.0
 11
-807.427062887936
 21
-154.6623106260556
 31
0.0
  0
LINE
  5
333
330
1F
100
AcDbEntity
  8
A-6
  6
Continuous
 62
     6
370
     5
100
AcDbLine
 10
-807.427062887936
 20
-154.6623106260556
 30
0.0
 11
-744.9270628879337
 21
-154.6623106260556
 31
0.0
  0
LINE
  5
334
330
1F
100
AcDbEntity
  8
A-6
  6
Continuous
 62
     6
370
     5
100
AcDbLine
 10
-744.9270628879292
 20
-442.1623109602813
 30
0.0
 11
-744.9270628879337
 21
-154.6623106260556
 31
0.0
  0
LINE
  5
335
330
1F
100
AcDbEntity
  8
A-6
  6
Continuous
 62
     6
370
     5
100
AcDbLine
 10
-794.9271253879322
 20
-492.1623106260624
 30
0.0
 11
-744.9270628879292
 21
-442.1623109602813
 31
0.0
  0
LINE
  5
336
330
1F
100
AcDbEntity
  8
A-6
  6
Continuous
 62
     6
370
     5
100
AcDbLine
 10
-1069.927000387929
 20
-492.1623106260624
 30
0.0
 11
-794.9271253879322
 21
-492.1623106260624
 31
0.0
  0
LINE
  5
337
330
1F
100
AcDbEntity
  8
A-6
  6
Continuous
 62
     6
370
     5
100
AcDbLine
 10
-1069.927000387929
 20
-492.1623106260624
 30
0.0
 11
-1119.927062887931
 21
-442.1621852916944
 31
0.0
  0
LINE
  5
338
330
1F
100
AcDbEntity
  8
A-6
  6
Continuous
 62
     6
370
     5
100
AcDbLine
 10
-482.42712474789
 20
-354.6622281461148
 30
0.0
 11
-744.9270628879303
 21
-354.6622281461148
 31
0.0
  0
LINE
  5
339
330
1F
100
AcDbEntity
  8
A-6
  6
Continuous
 62
     6
370
     5
100
AcDbLine
 10
-648.9067406553015
 20
-354.6622281461148
 30
0.0
 11
-744.927062887932
 21
-258.6419653116009
 31
0.0
  0
LINE
  5
33A
330
1F
100
AcDbEntity
  8
A-6
  6
Continuous
 62
     6
370
     5
100
AcDbLine
 10
-482.42712474789
 20
-254.6622693860852
 30
0.0
 11
-744.927062887932
 21
-254.6622693860852
 31
0.0
  0
LINE
  5
33B
330
1F
100
AcDbEntity
  8
A-6
  6
Continuous
 62
     6
370
     5
100
AcDbLine
 10
-815.0004234355741
 20
-306.1295215789044
 30
0.0
 11
-744.9270628879326
 21
-236.0560164481532
 31
0.0
  0
LINE
  5
33C
330
1F
100
AcDbEntity
  8
A-6
  6
Continuous
 62
     6
370
     5
100
AcDbLine
 10
-814.628257515174
 20
-298.6862031708973
 30
0.0
 11
-744.9270628879326
 21
-228.9849363425706
 31
0.0
  0
LINE
  5
33D
330
1F
100
AcDbEntity
  8
A-6
  6
Continuous
 62
     6
370
     5
100
AcDbLine
 10
-814.2561045018606
 20
-291.2431429046209
 30
0.0
 11
-744.9270628879326
 21
-221.9141734008053
 31
0.0
  0
LINE
  5
33E
330
1F
100
AcDbEntity
  8
A-6
  6
Continuous
 62
     6
370
     5
100
AcDbLine
 10
-1088.963714443924
 20
-473.1255726469
 30
0.0
 11
-1010.682449034881
 21
-394.844044564913
 31
0.0
  0
LINE
  5
33F
330
1F
100
AcDbEntity
  8
A-6
  6
Continuous
 62
     6
370
     5
100
AcDbLine
 10
-1092.499107241153
 20
-469.5901754067933
 30
0.0
 11
-1015.059365232445
 21
-392.1502449519777
 31
0.0
  0
LINE
  5
340
330
1F
100
AcDbEntity
  8
A-6
  6
Continuous
 62
     6
370
     5
100
AcDbLine
 10
-1096.034522038606
 20
-466.0547561664346
 30
0.0
 11
-1019.185862060004
 21
-389.2056800838266
 31
0.0
  0
LINE
  5
341
330
1F
100
AcDbEntity
  8
A-6
  6
Continuous
 62
     6
370
     5
100
AcDbLine
 10
-840.2996815559986
 20
-492.1623106260624
 30
0.0
 11
-744.9270628879298
 21
-396.7889881855166
 31
0.0
  0
LINE
  5
342
330
1F
100
AcDbEntity
  8
A-6
  6
Continuous
 62
     6
370
     5
100
AcDbLine
 10
-847.3707527391331
 20
-492.1623106260624
 30
0.0
 11
-744.9270628879298
 21
-389.7183036616632
 31
0.0
  0
LINE
  5
343
330
1F
100
AcDbEntity
  8
A-6
  6
Continuous
 62
     6
370
     5
100
AcDbLine
 10
-854.4417456349003
 20
-492.1623106260624
 30
0.0
 11
-744.9270628879303
 21
-382.64714407346
 31
0.0
  0
LINE
  5
344
330
1F
100
AcDbEntity
  8
A-6
  6
Continuous
 62
     6
370
     5
100
AcDbLine
 10
-746.0773200880753
 20
-443.3125667149192
 30
0.0
 11
-759.8469418733656
 21
-467.1622590760927
 31
0.0
  0
LINE
  5
345
330
1F
100
AcDbEntity
  8
A-6
  6
Continuous
 62
     6
370
     5
100
AcDbLine
 10
-1382.427062887935
 20
-354.6622281461148
 30
0.0
 11
-1119.927062887932
 21
-354.6622281461148
 31
0.0
  0
LINE
  5
346
330
1F
100
AcDbEntity
  8
A-6
  6
Continuous
 62
     6
370
     5
100
AcDbLine
 10
-1119.927062887932
 20
-353.2027653094362
 30
0.0
 11
-1218.467497854151
 21
-254.6622693860852
 31
0.0
  0
LINE
  5
347
330
1F
100
AcDbEntity
  8
A-6
  6
Continuous
 62
     6
370
     5
100
AcDbLine
 10
-1119.927062887932
 20
-346.1320162866852
 30
0.0
 11
-1211.39678120244
 21
-254.6622693860852
 31
0.0
  0
LINE
  5
348
330
1F
100
AcDbEntity
  8
A-6
  6
Continuous
 62
     6
370
     5
100
AcDbLine
 10
-1119.927062887933
 20
-310.6366752460942
 30
0.0
 11
-1054.704461899495
 21
-245.4141441551414
 31
0.0
  0
LINE
  5
349
330
1F
100
AcDbEntity
  8
A-6
  6
Continuous
 62
     6
370
     5
100
AcDbLine
 10
-1119.927062887933
 20
-303.5655954721789
 30
0.0
 11
-1054.910455551839
 21
-238.5489881360852
 31
0.0
  0
LINE
  5
34A
330
1F
100
AcDbEntity
  8
A-6
  6
Continuous
 62
     6
370
     5
100
AcDbLine
 10
-1119.927062887933
 20
-296.49461519003
 30
0.0
 11
-1055.116449204183
 21
-231.6841414168073
 31
0.0
  0
LINE
  5
34B
330
1F
100
AcDbEntity
  8
A-6
  6
Continuous
 62
     6
370
     5
100
AcDbLine
 10
-1382.427062887935
 20
-254.6622693860852
 30
0.0
 11
-1119.927062887933
 21
-254.6622693860852
 31
0.0
  0
LINE
  5
34C
330
1F
100
AcDbEntity
  8
A-6
  6
Continuous
 62
     6
370
     5
100
AcDbLine
 10
-482.42712474789
 20
-402.9989788983319
 30
0.0
 11
-533.905631178681
 21
-492.1623106260624
 31
0.0
  0
LINE
  5
34D
330
1F
100
AcDbEntity
  8
A-6
  6
Continuous
 62
     6
370
     5
100
AcDbLine
 10
-574.7073322014375
 20
-354.6622281461148
 30
0.0
 11
-654.0929401718903
 21
-492.1623106260624
 31
0.0
  0
LINE
  5
34E
330
1F
100
AcDbEntity
  8
A-6
  6
Continuous
 62
     6
370
     5
100
AcDbLine
 10
-694.8950400508885
 20
-354.6622281461148
 30
0.0
 11
-774.2807236279781
 21
-492.1623106260624
 31
0.0
  0
LINE
  5
34F
330
1F
100
AcDbEntity
  8
A-6
  6
Continuous
 62
     6
370
     5
100
AcDbLine
 10
-482.42712474789
 20
-492.1623106260624
 30
0.0
 11
-794.9271253879322
 21
-492.1623106260624
 31
0.0
  0
LINE
  5
350
330
1F
100
AcDbEntity
  8
A-6
  6
Continuous
 62
     6
370
     5
100
AcDbLine
 10
-522.8712853585931
 20
-473.0502752355693
 30
0.0
 11
-511.836953908002
 21
-492.1623106260624
 31
0.0
  0
LINE
  5
351
330
1F
100
AcDbEntity
  8
A-6
  6
Continuous
 62
     6
370
     5
100
AcDbLine
 10
-643.0586155252239
 20
-473.0502752355693
 30
0.0
 11
-632.0242840746328
 21
-492.1623106260624
 31
0.0
  0
LINE
  5
352
330
1F
100
AcDbEntity
  8
A-6
  6
Continuous
 62
     6
370
     5
100
AcDbLine
 10
-763.2463884722516
 20
-473.0502752355693
 30
0.0
 11
-752.2120570216605
 21
-492.1623106260624
 31
0.0
  0
LINE
  5
353
330
1F
100
AcDbEntity
  8
A-6
  6
Continuous
 62
     6
370
     5
100
AcDbLine
 10
-1069.927000387929
 20
-492.1623106260624
 30
0.0
 11
-1382.427062887935
 21
-492.1623106260624
 31
0.0
  0
LINE
  5
354
330
1F
100
AcDbEntity
  8
A-6
  6
Continuous
 62
     6
370
     5
100
AcDbLine
 10
-1119.927062887931
 20
-428.840754376526
 30
0.0
 11
-1156.485718547372
 21
-492.1623106260624
 31
0.0
  0
LINE
  5
355
330
1F
100
AcDbEntity
  8
A-6
  6
Continuous
 62
     6
370
     5
100
AcDbLine
 10
-1197.287484145985
 20
-354.6622281461148
 30
0.0
 11
-1276.673092116437
 21
-492.1623106260624
 31
0.0
  0
LINE
  5
356
330
1F
100
AcDbEntity
  8
A-6
  6
Continuous
 62
     6
370
     5
100
AcDbLine
 10
-1254.604466949158
 20
-492.1623106260624
 30
0.0
 11
-1265.638767469771
 21
-473.0502752355693
 31
0.0
  0
LINE
  5
357
330
1F
100
AcDbEntity
  8
A-6
  6
Continuous
 62
     6
370
     5
100
AcDbLine
 10
-1134.416944679573
 20
-492.1623106260624
 30
0.0
 11
-1145.451214270209
 21
-473.0502752355693
 31
0.0
  0
LINE
  5
358
330
1F
100
AcDbEntity
  8
A-6
  6
Continuous
 62
     6
370
     5
100
AcDbLine
 10
-1374.792422238431
 20
-492.1623106260624
 30
0.0
 11
-1382.427062887935
 21
-478.9386422093656
 31
0.0
  0
LINE
  5
359
330
1F
100
AcDbEntity
  8
A-6
  6
Continuous
 62
     6
370
     5
100
AcDbLine
 10
-1317.475191995436
 20
-354.6622281461148
 30
0.0
 11
-1382.427062887935
 21
-467.1622590760927
 31
0.0
  0
LINE
  5
35A
330
1F
100
AcDbEntity
  8
A-0
  6
Continuous
 62
     7
370
     9
100
AcDbLine
 10
-752.4273350717395
 20
201.5150657860012
 30
0.0
 11
-1112.42679070413
 21
201.5150657860012
 31
0.0
  0
LWPOLYLINE
  5
35B
330
1F
100
AcDbEntity
  8
A-0
  6
Continuous
 62
     7
370
     9
100
AcDbPolyline
 90
        4
 70
     1
 43
2.0
 10
-751.4273350717395
 20
201.5150657860012
 42
0.4142135623731
 10
-752.4273350717395
 20
202.5150657860012
 42
0.4142135623731
 10
-753.4273350717394
 20
201.5150657860012
 42
0.4142135623731
 10
-752.4273350717395
 20
200.5150657860012
 42
0.4142135623731
  0
LWPOLYLINE
  5
35C
330
1F
100
AcDbEntity
  8
A-0
  6
Continuous
 62
     7
370
     9
100
AcDbPolyline
 90
        4
 70
     1
 43
2.0
 10
-1111.42679070413
 20
201.5150657860012
 42
0.4142135623731
 10
-1112.42679070413
 20
202.5150657860012
 42
0.4142135623731
 10
-1113.42679070413
 20
201.5150657860012
 42
0.4142135623731
 10
-1112.42679070413
 20
200.5150657860012
 42
0.4142135623731
  0
LINE
  5
35D
330
1F
100
AcDbEntity
  8
A-0
  6
Continuous
 62
     7
370
     9
100
AcDbLine
 10
-752.4273350717395
 20
204.5150657860012
 30
0.0
 11
-752.4273350717395
 21
-127.1621621621621
 31
0.0
  0
LINE
  5
35E
330
1F
100
AcDbEntity
  8
A-0
  6
Continuous
 62
     7
370
     9
100
AcDbLine
 10
-1112.42679070413
 20
204.5150657860012
 30
0.0
 11
-1112.42679070413
 21
-127.1621621621621
 31
0.0
  0
TEXT
  5
35F
330
1F
100
AcDbEntity
  8
A-0
  6
Continuous
 62
     2
370
   211
100
AcDbText
 10
-964.9270628879349
 20
213.1550657860012
 30
0.0
 40
30.48
  1
144
 41
1.083333333333333
  7
ＭＳ ゴシック
100
AcDbText
  0
LINE
  5
360
330
1F
100
AcDbEntity
  8
A-0
  6
Continuous
 62
     7
370
     9
100
AcDbLine
 10
-752.4273350717395
 20
89.69206114073091
 30
0.0
 11
-807.427062887936
 21
89.69206114073091
 31
0.0
  0
LWPOLYLINE
  5
361
330
1F
100
AcDbEntity
  8
A-0
  6
Continuous
 62
     7
370
     9
100
AcDbPolyline
 90
        4
 70
     1
 43
2.0
 10
-751.4273350717395
 20
89.69206114073091
 42
0.4142135623731
 10
-752.4273350717395
 20
90.69206114073091
 42
0.4142135623731
 10
-753.4273350717394
 20
89.69206114073091
 42
0.4142135623731
 10
-752.4273350717395
 20
88.69206114073093
 42
0.4142135623731
  0
LWPOLYLINE
  5
362
330
1F
100
AcDbEntity
  8
A-0
  6
Continuous
 62
     7
370
     9
100
AcDbPolyline
 90
        4
 70
     1
 43
2.0
 10
-806.427062887936
 20
89.69206114073091
 42
0.4142135623731
 10
-807.427062887936
 20
90.69206114073091
 42
0.4142135623731
 10
-808.4270628879359
 20
89.69206114073091
 42
0.4142135623731
 10
-807.427062887936
 20
88.69206114073093
 42
0.4142135623731
  0
TEXT
  5
363
330
1F
100
AcDbEntity
  8
A-0
  6
Continuous
 62
     2
370
   211
100
AcDbText
 10
-801.1771989798381
 20
101.3320611407309
 30
0.0
 40
30.48
  1
22
 41
1.0625
  7
ＭＳ ゴシック
100
AcDbText
  0
LINE
  5
364
330
1F
100
AcDbEntity
  8
A-0
  6
Continuous
 62
     7
370
     9
100
AcDbLine
 10
-807.427062887936
 20
89.69206114073091
 30
0.0
 11
-1057.427062887934
 21
89.69206114073091
 31
0.0
  0
LWPOLYLINE
  5
365
330
1F
100
AcDbEntity
  8
A-0
  6
Continuous
 62
     7
370
     9
100
AcDbPolyline
 90
        4
 70
     1
 43
2.0
 10
-1056.427062887934
 20
89.69206114073091
 42
0.4142135623731
 10
-1057.427062887934
 20
90.69206114073091
 42
0.4142135623731
 10
-1058.427062887934
 20
89.69206114073091
 42
0.4142135623731
 10
-1057.427062887934
 20
88.69206114073093
 42
0.4142135623731
  0
TEXT
  5
366
330
1F
100
AcDbEntity
  8
A-0
  6
Continuous
 62
     2
370
   211
100
AcDbText
 10
-964.9270628879349
 20
101.3320611407309
 30
0.0
 40
30.48
  1
100
 41
1.083333333333333
  7
ＭＳ ゴシック
100
AcDbText
  0
LINE
  5
367
330
1F
100
AcDbEntity
  8
A-0
  6
Continuous
 62
     7
370
     9
100
AcDbLine
 10
-1057.427062887934
 20
89.69206114073091
 30
0.0
 11
-1112.42679070413
 21
89.69206114073091
 31
0.0
  0
LWPOLYLINE
  5
368
330
1F
100
AcDbEntity
  8
A-0
  6
Continuous
 62
     7
370
     9
100
AcDbPolyline
 90
        4
 70
     1
 43
2.0
 10
-1111.42679070413
 20
89.69206114073091
 42
0.4142135623731
 10
-1112.42679070413
 20
90.69206114073091
 42
0.4142135623731
 10
-1113.42679070413
 20
89.69206114073091
 42
0.4142135623731
 10
-1112.42679070413
 20
88.69206114073093
 42
0.4142135623731
  0
TEXT
  5
369
330
1F
100
AcDbEntity
  8
A-0
  6
Continuous
 62
     2
370
   211
100
AcDbText
 10
-1106.176926796032
 20
101.3320611407309
 30
0.0
 40
30.48
  1
22
 41
1.0625
  7
ＭＳ ゴシック
100
AcDbText
  0
LINE
  5
36A
330
1F
100
AcDbEntity
  8
A-0
  6
Continuous
 62
     7
370
     9
100
AcDbLine
 10
-807.427062887936
 20
-14.99329438080633
 30
0.0
 11
-819.9270300248331
 21
-14.99329438080633
 31
0.0
  0
LWPOLYLINE
  5
36B
330
1F
100
AcDbEntity
  8
A-0
  6
Continuous
 62
     7
370
     9
100
AcDbPolyline
 90
        4
 70
     1
 43
2.0
 10
-806.427062887936
 20
-14.99329438080633
 42
0.4142135623731
 10
-807.427062887936
 20
-13.99329438080633
 42
0.4142135623731
 10
-808.4270628879359
 20
-14.99329438080633
 42
0.4142135623731
 10
-807.427062887936
 20
-15.99329438080633
 42
0.4142135623731
  0
LWPOLYLINE
  5
36C
330
1F
100
AcDbEntity
  8
A-0
  6
Continuous
 62
     7
370
     9
100
AcDbPolyline
 90
        4
 70
     1
 43
2.0
 10
-818.9270300248331
 20
-14.99329438080633
 42
0.4142135623731
 10
-819.9270300248331
 20
-13.99329438080633
 42
0.4142135623731
 10
-820.927030024833
 20
-14.99329438080633
 42
0.4142135623731
 10
-819.9270300248331
 20
-15.99329438080633
 42
0.4142135623731
  0
LINE
  5
36D
330
1F
100
AcDbEntity
  8
A-0
  6
Continuous
 62
     7
370
     9
100
AcDbLine
 10
-819.9270300248331
 20
-14.99329438080633
 30
0.0
 11
-1044.927095751036
 21
-14.99329438080633
 31
0.0
  0
LWPOLYLINE
  5
36E
330
1F
100
AcDbEntity
  8
A-0
  6
Continuous
 62
     7
370
     9
100
AcDbPolyline
 90
        4
 70
     1
 43
2.0
 10
-1043.927095751036
 20
-14.99329438080633
 42
0.4142135623731
 10
-1044.927095751036
 20
-13.99329438080633
 42
0.4142135623731
 10
-1045.927095751036
 20
-14.99329438080633
 42
0.4142135623731
 10
-1044.927095751036
 20
-15.99329438080633
 42
0.4142135623731
  0
TEXT
  5
36F
330
1F
100
AcDbEntity
  8
A-0
  6
Continuous
 62
     2
370
   211
100
AcDbText
 10
-953.6770628879349
 20
-3.353294380806325
 30
0.0
 40
30.48
  1
90
 41
1.0625
  7
ＭＳ ゴシック
100
AcDbText
  0
LINE
  5
370
330
1F
100
AcDbEntity
  8
A-0
  6
Continuous
 62
     7
370
     9
100
AcDbLine
 10
-1044.927095751036
 20
-14.99329438080633
 30
0.0
 11
-1057.427062887934
 21
-14.99329438080633
 31
0.0
  0
LWPOLYLINE
  5
371
330
1F
100
AcDbEntity
  8
A-0
  6
Continuous
 62
     7
370
     9
100
AcDbPolyline
 90
        4
 70
     1
 43
2.0
 10
-1056.427062887934
 20
-14.99329438080633
 42
0.4142135623731
 10
-1057.427062887934
 20
-13.99329438080633
 42
0.4142135623731
 10
-1058.427062887934
 20
-14.99329438080633
 42
0.4142135623731
 10
-1057.427062887934
 20
-15.99329438080633
 42
0.4142135623731
  0
TEXT
  5
372
330
1F
100
AcDbEntity
  8
A-0
  6
Continuous
 62
     2
370
   211
100
AcDbText
 10
-1051.196080569249
 20
-3.353294380806325
 30
0.0
 40
30.48
  1
5
 41
0.9999999999999998
  7
ＭＳ ゴシック
100
AcDbText
  0
TEXT
  5
373
330
1F
100
AcDbEntity
  8
A-0
  6
Continuous
 62
     2
370
   211
100
AcDbText
 10
-834.0529164483165
 20
-3.353294380806325
 30
0.0
 40
30.48
  1
5
 41
0.9999999999999998
  7
ＭＳ ゴシック
100
AcDbText
  0
LINE
  5
374
330
1F
100
AcDbEntity
  8
A-0
  6
Continuous
 62
     7
370
     9
100
AcDbLine
 10
-807.427062887936
 20
92.69206114073093
 30
0.0
 11
-807.427062887936
 21
-127.1621621621621
 31
0.0
  0
LINE
  5
375
330
1F
100
AcDbEntity
  8
A-0
  6
Continuous
 62
     7
370
     9
100
AcDbLine
 10
-819.9270300248331
 20
-11.99329438080633
 30
0.0
 11
-819.9270300248331
 21
-127.1621621621621
 31
0.0
  0
LINE
  5
376
330
1F
100
AcDbEntity
  8
A-0
  6
Continuous
 62
     7
370
     9
100
AcDbLine
 10
-1044.927095751036
 20
-11.99329438080633
 30
0.0
 11
-1044.927095751036
 21
-127.1621621621621
 31
0.0
  0
LINE
  5
377
330
1F
100
AcDbEntity
  8
A-0
  6
Continuous
 62
     7
370
     9
100
AcDbLine
 10
-1057.427062887934
 20
92.69206114073093
 30
0.0
 11
-1057.427062887934
 21
-127.1621621621621
 31
0.0
  0
LINE
  5
378
330
1F
100
AcDbEntity
  8
A-0
  6
Continuous
 62
     7
370
     9
100
AcDbLine
 10
-807.4270216479646
 20
-147.162162162162
 30
0.0
 11
-792.2079879169665
 21
-127.32837573902
 31
0.0
  0
LINE
  5
379
330
1F
100
AcDbEntity
  8
A-0
  6
Continuous
 62
     7
370
     9
100
AcDbLine
 10
-807.4270216479646
 20
-147.162162162162
 30
0.0
 11
-787.592987785
 21
-131.9431284311653
 31
0.0
  0
LINE
  5
37A
330
1F
100
AcDbEntity
  8
A-0
  6
Continuous
 62
     7
370
     9
100
AcDbLine
 10
-807.4270216479646
 20
-147.162162162162
 30
0.0
 11
-632.9599245459791
 21
27.30493493982301
 31
0.0
  0
TEXT
  5
37B
330
1F
100
AcDbEntity
  8
A-0
  6
Continuous
 62
     7
370
     9
100
AcDbText
 10
-630.5536959907646
 20
109.1613849371836
 30
0.0
 40
22.86
  1
滑り止め模様付歩道Ｕ字溝用
 41
1.153846153846155
  7
ＭＳ ゴシック
100
AcDbText
  0
LINE
  5
37C
330
1F
100
AcDbEntity
  8
A-0
  6
Continuous
 62
     7
370
     9
100
AcDbLine
 10
-632.9599245459791
 20
27.30493493982301
 30
0.0
 11
-146.0758834910636
 21
27.30493493982301
 31
0.0
  0
TEXT
  5
37D
330
1F
100
AcDbEntity
  8
A-0
  6
Continuous
 62
     7
370
     9
100
AcDbText
 10
-630.5529608959893
 20
71.6935521141218
 30
0.0
 40
22.86
  1
ステンレス製グレーチング
 50
0.000153729295388
 41
1.152777777777775
  7
ＭＳ ゴシック
100
AcDbText
  0
TEXT
  5
37E
330
1F
100
AcDbEntity
  8
A-0
  6
Continuous
 62
     7
370
     9
100
AcDbText
 10
-630.5529629744897
 20
35.05587989599954
 30
0.0
 40
22.86
  1
ＳＭＱＨＵ(h=15)ピッチ＝１３
 50
0.0001260200668111
 41
1.154761904761909
  7
ＭＳ ゴシック
100
AcDbText
  0
LINE
  5
37F
330
1F
100
AcDbEntity
  8
A-0
  6
Continuous
 62
     7
370
     9
100
AcDbLine
 10
-1219.927021647964
 20
-696.2000536592687
 30
0.0
 11
-1219.927021647964
 21
-631.2004578109783
 31
0.0
  0
LINE
  5
380
330
1F
100
AcDbEntity
  8
A-0
  6
Continuous
 62
     7
370
     9
100
AcDbLine
 10
-1219.927021647964
 20
-631.2004578109783
 30
0.0
 11
-644.9271041279057
 21
-631.2004578109783
 31
0.0
  0
LINE
  5
381
330
1F
100
AcDbEntity
  8
A-0
  6
Continuous
 62
     7
370
     9
100
AcDbLine
 10
-644.9271041279057
 20
-631.2004578109783
 30
0.0
 11
-644.9271041279057
 21
-696.2000536592687
 31
0.0
  0
LINE
  5
382
330
1F
100
AcDbEntity
  8
A-0
  6
Continuous
 62
     7
370
     9
100
AcDbLine
 10
-644.9271041279057
 20
-696.2000536592687
 30
0.0
 11
-1219.927021647964
 21
-696.2000536592687
 31
0.0
  0
TEXT
  5
383
330
1F
100
AcDbEntity
  8
A-0
  6
Continuous
 62
     2
370
     9
100
AcDbText
 10
-1181.157836813716
 20
-678.060383579032
 30
0.0
 40
30.48
  1
断面詳細図　Ｓ＝１：４
 41
1.113636363636364
  7
ＭＳ ゴシック
100
AcDbText
  0
LINE
  5
384
330
1F
100
AcDbEntity
  8
A-5
  6
Continuous
 62
     7
370
     9
100
AcDbLine
 10
189.51323055721
 20
138.1458734465482
 30
0.0
 11
189.51323055721
 21
188.1461621263412
 31
0.0
  0
LINE
  5
385
330
1F
100
AcDbEntity
  8
A-5
  6
Continuous
 62
     7
370
     9
100
AcDbLine
 10
189.51323055721
 20
188.1461621263412
 30
0.0
 11
414.5132305572097
 21
188.1461621263412
 31
0.0
  0
LINE
  5
386
330
1F
100
AcDbEntity
  8
A-5
  6
Continuous
 62
     7
370
     9
100
AcDbLine
 10
414.5132305572097
 20
188.1461621263412
 30
0.0
 11
414.5132305572097
 21
138.1458734465482
 31
0.0
  0
LINE
  5
387
330
1F
100
AcDbEntity
  8
A-5
  6
Continuous
 62
     7
370
     9
100
AcDbLine
 10
414.5132305572097
 20
138.1458734465482
 30
0.0
 11
189.51323055721
 21
138.1458734465482
 31
0.0
  0
TEXT
  5
388
330
1F
100
AcDbEntity
  8
A-5
  6
Continuous
 62
     2
370
     9
100
AcDbText
 10
237.01323055721
 20
148.7860136624477
 30
0.0
 40
30.48
  1
仕　様
 41
1.083333333333333
  7
ＭＳ ゴシック
100
AcDbText
  0
TEXT
  5
389
330
1F
100
AcDbEntity
  8
A-5
  6
Continuous
 62
     2
370
     9
100
AcDbText
 10
351.3156069692668
 20
-134.1354423394528
 30
0.0
 40
30.48
  1
　　　受けつば　　Ｌ３０×３０×３（ＳＵＳ３０４）
 41
1.12
  7
ＭＳ ゴシック
100
AcDbText
  0
TEXT
  5
38A
330
1F
100
AcDbEntity
  8
A-5
  6
Continuous
 62
     2
370
     9
100
AcDbText
 10
351.3149388817454
 20
-189.1358093751896
 30
0.0
 40
30.48
  1
定尺：９９２
 41
1.104166666666667
  7
ＭＳ ゴシック
100
AcDbText
  0
TEXT
  5
38B
330
1F
100
AcDbEntity
  8
A-5
  6
Continuous
 62
     2
370
     9
100
AcDbText
 10
351.3155822252845
 20
-79.13587948313932
 30
0.0
 40
30.48
  1
　　　クロスバー　ＦＢ３×１０（ＳＵＳ３０４）
 41
1.119565217391304
  7
ＭＳ ゴシック
100
AcDbText
  0
TEXT
  5
38C
330
1F
100
AcDbEntity
  8
A-5
  6
Continuous
 62
     2
370
     9
100
AcDbText
 10
351.3155822252845
 20
-24.1350794277129
 30
0.0
 40
30.48
  1
材質：メインバー　ＦＢ４×１５（ＳＵＳ３０４）
 41
1.119565217391304
  7
ＭＳ ゴシック
100
AcDbText
  0
TEXT
  5
38D
330
1F
100
AcDbEntity
  8
A-5
  6
Continuous
 62
     2
370
     9
100
AcDbText
 10
291.6029093473282
 20
85.8655309238496
 30
0.0
 40
30.48
  1
滑り止め模様付　歩道Ｕ字溝用ステンレス製グレーチング
 41
1.120192307692307
  7
ＭＳ ゴシック
100
AcDbText
  0
TEXT
  5
38E
330
1F
100
AcDbEntity
  8
A-5
  6
Continuous
 62
     7
370
     9
100
AcDbText
 10
247.0132305572099
 20
-373.6617039926267
 30
0.0
 40
30.48
  1
強　度
 41
0.8749999999999999
  7
ＭＳ ゴシック
100
AcDbText
  0
TEXT
  5
38F
330
1F
100
AcDbEntity
  8
A-5
  6
Continuous
 62
     7
370
     9
100
AcDbText
 10
457.0132305572099
 20
-373.6617039926267
 30
0.0
 40
30.48
  1
歩行用
 41
0.8749999999999999
  7
ＭＳ ゴシック
100
AcDbText
  0
TEXT
  5
390
330
1F
100
AcDbEntity
  8
A-5
  6
Continuous
 62
     7
370
     9
100
AcDbText
 10
212.0132305572099
 20
-423.6617039926267
 30
0.0
 40
30.48
  1
等分布荷重
 41
0.8749999999999999
  7
ＭＳ ゴシック
100
AcDbText
  0
TEXT
  5
391
330
1F
100
AcDbEntity
  8
A-5
  6
Continuous
 62
     7
370
     9
100
AcDbText
 10
439.5132305572099
 20
-423.6617039926267
 30
0.0
 40
30.48
  1
5.0kN/㎡
 41
0.8749999999999999
  7
ＭＳ ゴシック
100
AcDbText
  0
TEXT
  5
392
330
1F
100
AcDbEntity
  8
A-5
  6
Continuous
 62
     7
370
     9
100
AcDbText
 10
229.5132305572099
 20
-473.6617039926267
 30
0.0
 40
30.48
  1
衝撃係数
 41
0.8749999999999999
  7
ＭＳ ゴシック
100
AcDbText
  0
TEXT
  5
393
330
1F
100
AcDbEntity
  8
A-5
  6
Continuous
 62
     7
370
     9
100
AcDbText
 10
500.7632305572099
 20
-473.6617039926267
 30
0.0
 40
30.48
  1
0
 41
0.8749999999999999
  7
ＭＳ ゴシック
100
AcDbText
  0
LINE
  5
394
330
1F
100
AcDbEntity
  8
A-4
  6
Continuous
 62
     2
370
     9
100
AcDbLine
 10
189.5132305572099
 20
-335.3017039926268
 30
0.0
 11
609.5132305572098
 21
-335.3017039926268
 31
0.0
  0
LINE
  5
395
330
1F
100
AcDbEntity
  8
A-4
  6
Continuous
 62
     2
370
     9
100
AcDbLine
 10
189.5132305572099
 20
-435.3017039926268
 30
0.0
 11
609.5132305572098
 21
-435.3017039926268
 31
0.0
  0
LINE
  5
396
330
1F
100
AcDbEntity
  8
A-4
  6
Continuous
 62
     2
370
     9
100
AcDbLine
 10
189.5132305572099
 20
-385.3017039926268
 30
0.0
 11
609.5132305572098
 21
-385.3017039926268
 31
0.0
  0
LINE
  5
397
330
1F
100
AcDbEntity
  8
A-4
  6
Continuous
 62
     2
370
     9
100
AcDbLine
 10
609.5132305572098
 20
-335.3017039926268
 30
0.0
 11
609.5132305572098
 21
-485.3017039926268
 31
0.0
  0
LINE
  5
398
330
1F
100
AcDbEntity
  8
A-4
  6
Continuous
 62
     2
370
     9
100
AcDbLine
 10
189.5132305572099
 20
-485.3017039926268
 30
0.0
 11
609.5132305572098
 21
-485.3017039926268
 31
0.0
  0
LINE
  5
399
330
1F
100
AcDbEntity
  8
A-4
  6
Continuous
 62
     2
370
     9
100
AcDbLine
 10
189.5132305572099
 20
-335.3017039926268
 30
0.0
 11
189.5132305572099
 21
-485.3017039926268
 31
0.0
  0
LINE
  5
39A
330
1F
100
AcDbEntity
  8
A-4
  6
Continuous
 62
     2
370
     9
100
AcDbLine
 10
409.5132305572099
 20
-335.3017039926268
 30
0.0
 11
409.5132305572099
 21
-485.3017039926268
 31
0.0
  0
LINE
  5
39B
330
1F
100
AcDbEntity
  8
A-4
  6
Continuous
 62
     2
370
     9
100
AcDbLine
 10
189.5132305572099
 20
-572.2383142616767
 30
0.0
 11
1652.950792176061
 21
-572.2383142616767
 31
0.0
  0
TEXT
  5
39C
330
1F
100
AcDbEntity
  8
A-5
  6
Continuous
 62
     2
370
     9
100
AcDbText
 10
351.3149388817454
 20
-244.1366094306161
 30
0.0
 40
30.48
  1
質量：５.９ｋｇ／枚
 41
1.111842105263158
  7
ＭＳ ゴシック
100
AcDbText
  0
LINE
  5
39D
330
1F
100
AcDbEntity
  8
A-4
  6
Continuous
 62
     2
370
     9
100
AcDbLine
 10
189.5132305572099
 20
-822.1621621621756
 30
0.0
 11
189.5132305572099
 21
-572.2383142616767
 31
0.0
  0
LINE
  5
39E
330
1F
100
AcDbEntity
  8
A-4
  6
Continuous
 62
     2
370
     9
100
AcDbLine
 10
1652.950792176061
 20
-572.2383142616767
 30
0.0
 11
1652.950792176061
 21
-822.1621621621756
 31
0.0
  0
LINE
  5
39F
330
1F
100
AcDbEntity
  8
A-4
  6
Continuous
 62
     2
370
     9
100
AcDbLine
 10
1652.950792176061
 20
-822.1621621621756
 30
0.0
 11
189.5132305572099
 21
-822.1621621621756
 31
0.0
  0
TEXT
  5
3A0
330
1F
100
AcDbEntity
  8
A-5
  6
Continuous
 62
     7
370
     9
100
AcDbText
 10
188.6305774959853
 20
-554.4665115405883
 30
0.0
 40
30.48
  1
設置場所について
 41
0.8749999999999999
  7
ＭＳ ゴシック
100
AcDbText
  0
TEXT
  5
3A1
330
1F
100
AcDbEntity
  8
A-5
  6
Continuous
 62
     7
370
     9
100
AcDbText
 10
222.4622101490473
 20
-712.0241735798121
 30
0.0
 40
30.48
  1
建物内、建物敷地内などで、車の乗り入れの無い場所でお使いいただけます。
 41
0.8749999999999999
  7
ＭＳ ゴシック
100
AcDbText
  0
LINE
  5
3A2
330
1F
100
AcDbEntity
  8
A-0
  6
Continuous
 62
     7
370
     9
100
AcDbLine
 10
-871.2875396023414
 20
-147.1621621621621
 30
0.0
 11
-871.2875396023414
 21
-184.6620796822212
 31
0.0
  0
LWPOLYLINE
  5
3A3
330
1F
100
AcDbEntity
  8
A-0
  6
Continuous
 62
     7
370
     9
100
AcDbPolyline
 90
        4
 70
     1
 43
2.0
 10
-870.2875396023416
 20
-147.1621621621621
 42
0.4142135623731
 10
-871.2875396023414
 20
-146.1621621621621
 42
0.4142135623731
 10
-872.2875396023414
 20
-147.1621621621621
 42
0.4142135623731
 10
-871.2875396023414
 20
-148.1621621621621
 42
0.4142135623731
  0
LWPOLYLINE
  5
3A4
330
1F
100
AcDbEntity
  8
A-0
  6
Continuous
 62
     7
370
     9
100
AcDbPolyline
 90
        4
 70
     1
 43
2.0
 10
-870.2875396023416
 20
-184.6620796822212
 42
0.4142135623731
 10
-871.2875396023414
 20
-183.6620796822212
 42
0.4142135623731
 10
-872.2875396023414
 20
-184.6620796822212
 42
0.4142135623731
 10
-871.2875396023414
 20
-185.6620796822212
 42
0.4142135623731
  0
TEXT
  5
3A5
330
1F
100
AcDbEntity
  8
A-0
  6
Continuous
 62
     2
370
   211
100
AcDbText
 10
-882.9275396023414
 20
-232.2625018916372
 30
0.0
 40
30.48
  1
15
 50
90.0
 41
1.0625
  7
ＭＳ ゴシック
100
AcDbText
  0
LINE
  5
3A6
330
1F
100
AcDbEntity
  8
A-0
  6
Continuous
 62
     7
370
     9
100
AcDbLine
 10
-871.2875396023414
 20
-184.6620796822212
 30
0.0
 11
-871.2875396023414
 21
-230.9139903050539
 31
0.0
  0
TEXT
  5
3A7
330
1F
100
AcDbEntity
  8
A-5
  6
Continuous
 62
     2
370
     9
100
AcDbText
 10
291.6029093473282
 20
30.86485458833451
 30
0.0
 40
30.48
  1
ＳＭＱＨＵ　１０１５　Ｐ＝１３（すきま９mm）
 41
1.119318181818182
  7
ＭＳ ゴシック
100
AcDbText
  0
TEXT
  5
3A8
330
1F
100
AcDbEntity
  8
F-5
  6
Continuous
 62
     2
370
     9
100
AcDbText
 10
-164.5140478668054
 20
-1370.86711064863
 30
0.0
 40
30.48
  1
ＳＭＱＨＵ　１０１５　Ｐ＝１３
 41
0.898333333333333
  7
ＭＳ ゴシック
100
AcDbText
  0
LINE
  5
3A9
330
1F
100
AcDbEntity
  8
C-5
  6
Continuous
 62
     7
370
     9
100
AcDbLine
 10
790.708642012735
 20
822.3391010071769
 30
0.0
 11
1037.782897053909
 21
822.3391010071769
 31
0.0
  0
ENDSEC
  0
SECTION
  2
OBJECTS
  0
DICTIONARY
  5
C
330
0
100
AcDbDictionary
281
     1
  3
ACAD_DETAILVIEWSTYLE
350
3EF
  3
ACAD_GROUP
350
D
  3
ACAD_LAYOUT
350
1A
  3
ACAD_MATERIAL
350
43
  3
ACAD_MLEADERSTYLE
350
6B
  3
ACAD_MLINESTYLE
350
17
  3
ACAD_PLOTSETTINGS
350
19
  3
ACAD_PLOTSTYLENAME
350
E
  3
ACAD_SCALELIST
350
47
  3
ACAD_SECTIONVIEWSTYLE
350
3F0
  3
ACAD_TABLESTYLE
350
69
  3
ACAD_VISUALSTYLE
350
2A
  3
ACDB_RECOMPOSE_DATA
350
3EC
  3
AcDbVariableDictionary
350
3AC
  0
DICTIONARY
  5
3AA
330
8
100
AcDbDictionary
280
     1
281
     1
  3
ACAD_XREC_ROUNDTRIP
360
3AB
  0
DICTIONARY
  5
3EF
102
{ACAD_REACTORS
330
C
102
}
330
C
100
AcDbDictionary
281
     1
  0
DICTIONARY
  5
D
102
{ACAD_REACTORS
330
C
102
}
330
C
100
AcDbDictionary
281
     1
  0
DICTIONARY
  5
1A
102
{ACAD_REACTORS
330
C
102
}
330
C
100
AcDbDictionary
281
     1
  3
Layout1
350
1E
  3
Layout2
350
26
  3
Model
350
22
  0
DICTIONARY
  5
43
102
{ACAD_REACTORS
330
C
102
}
330
C
100
AcDbDictionary
281
     1
  3
ByBlock
350
45
  3
ByLayer
350
44
  3
Global
350
46
  0
DICTIONARY
  5
6B
102
{ACAD_REACTORS
330
C
102
}
330
C
100
AcDbDictionary
281
     1
  3
Standard
350
6C
  0
DICTIONARY
  5
17
102
{ACAD_REACTORS
330
C
102
}
330
C
100
AcDbDictionary
281
     1
  3
Standard
350
18
  0
DICTIONARY
  5
19
102
{ACAD_REACTORS
330
C
102
}
330
C
100
AcDbDictionary
281
     1
  0
ACDBDICTIONARYWDFLT
  5
E
102
{ACAD_REACTORS
330
C
102
}
330
C
100
AcDbDictionary
281
     1
  3
Normal
350
F
100
AcDbDictionaryWithDefault
340
F
  0
DICTIONARY
  5
47
102
{ACAD_REACTORS
330
C
102
}
330
C
100
AcDbDictionary
281
     1
  3
A0
350
48
  3
A1
350
49
  3
A2
350
4A
  3
A3
350
4B
  3
A4
350
4C
  3
A5
350
4D
  3
A6
350
4E
  3
A7
350
4F
  3
A8
350
50
  3
A9
350
51
  3
B0
350
52
  3
B1
350
53
  3
B2
350
54
  3
B3
350
55
  3
B4
350
56
  3
B5
350
57
  3
B6
350
58
  3
B7
350
59
  3
B8
350
5A
  3
B9
350
5B
  3
C0
350
5C
  3
C1
350
5D
  3
C2
350
5E
  3
C3
350
5F
  3
C4
350
60
  3
C5
350
61
  3
C6
350
62
  3
C7
350
63
  3
C8
350
64
  3
C9
350
65
  3
D0
350
66
  3
D1
350
67
  3
D2
350
68
  0
DICTIONARY
  5
3F0
102
{ACAD_REACTORS
330
C
102
}
330
C
100
AcDbDictionary
281
     1
  0
DICTIONARY
  5
69
102
{ACAD_REACTORS
330
C
102
}
330
C
100
AcDbDictionary
281
     1
  3
Standard
350
6A
  0
DICTIONARY
  5
2A
102
{ACAD_REACTORS
330
C
102
}
330
C
100
AcDbDictionary
281
     1
  3
2dWireframe
350
2F
  3
Basic
350
32
  3
Brighten
350
36
  3
ColorChange
350
3A
  3
Conceptual
350
34
  3
Dim
350
35
  3
EdgeColorOff
350
3D
  3
Facepattern
350
39
  3
Flat
350
2B
  3
FlatWithEdges
350
2C
  3
Gouraud
350
2D
  3
GouraudWithEdges
350
2E
  3
Hidden
350
31
  3
JitterOff
350
3B
  3
Linepattern
350
38
  3
OverhangOff
350
3C
  3
Realistic
350
33
  3
Shaded
350
42
  3
Shaded with edges
350
41
  3
Shades of Gray
350
3E
  3
Sketchy
350
3F
  3
Thicken
350
37
  3
Wireframe
350
30
  3
X-Ray
350
40
  0
XRECORD
  5
3EC
102
{ACAD_REACTORS
330
C
102
}
330
C
100
AcDbXrecord
280
     1
 90
        1
330
6A
  0
DICTIONARY
  5
3AC
102
{ACAD_REACTORS
330
C
102
}
330
C
100
AcDbDictionary
281
     1
  3
CANNOSCALE
350
3AD
  3
CENTEREXE
350
3F1
  3
CENTERLTYPEFILE
350
3F2
  3
CMLEADERSTYLE
350
3EE
  3
CTABLESTYLE
350
3ED
  3
MSLTSCALE
350
3AE
  3
XCLIPFRAME
350
3AF
  0
XRECORD
  5
3AB
102
{ACAD_REACTORS
330
3AA
102
}
330
3AA
100
AcDbXrecord
280
     1
102
VTR_0.000_0.000_1.000_1.000_VISUALSTYLE
340
2F
102
VTR_0.000_0.000_1.000_1.000_GRIDDISPLAY
 70
     3
102
VTR_0.000_0.000_1.000_1.000_GRIDMAJOR
 70
     5
102
VTR_0.000_0.000_1.000_1.000_DEFAULTLIGHTING
280
     1
102
VTR_0.000_0.000_1.000_1.000_DEFAULTLIGHTINGTYPE
 70
     1
102
VTR_0.000_0.000_1.000_1.000_BRIGHTNESS
141
0.0
102
VTR_0.000_0.000_1.000_1.000_CONTRAST
142
0.0
  0
LAYOUT
  5
1E
102
{ACAD_REACTORS
330
1A
102
}
330
1A
100
AcDbPlotSettings
  1

  2
none_device
  4

  6

 40
0.0
 41
0.0
 42
0.0
 43
0.0
 44
0.0
 45
0.0
 46
0.0
 47
0.0
 48
0.0
 49
0.0
140
0.0
141
0.0
142
1.0
143
1.0
 70
   688
 72
     1
 73
     0
 74
     5
  7

 75
    16
 76
     0
 77
     5
 78
   300
147
1.0
148
0.0
149
0.0
100
AcDbLayout
  1
Layout1
 70
     1
 71
     1
 10
0.0
 20
0.0
 11
420.0
 21
297.0
 12
0.0
 22
0.0
 32
0.0
 14
1.000000000000000E+20
 24
1.000000000000000E+20
 34
1.000000000000000E+20
 15
-1.000000000000000E+20
 25
-1.000000000000000E+20
 35
-1.000000000000000E+20
146
0.0
 13
0.0
 23
0.0
 33
0.0
 16
1.0
 26
0.0
 36
0.0
 17
0.0
 27
1.0
 37
0.0
 76
     0
330
1B
  0
LAYOUT
  5
26
102
{ACAD_REACTORS
330
1A
102
}
330
1A
100
AcDbPlotSettings
  1

  2
none_device
  4

  6

 40
0.0
 41
0.0
 42
0.0
 43
0.0
 44
0.0
 45
0.0
 46
0.0
 47
0.0
 48
0.0
 49
0.0
140
0.0
141
0.0
142
1.0
143
1.0
 70
   688
 72
     1
 73
     0
 74
     5
  7

 75
    16
 76
     0
 77
     5
 78
   300
147
1.0
148
0.0
149
0.0
100
AcDbLayout
  1
Layout2
 70
     1
 71
     2
 10
0.0
 20
0.0
 11
0.0
 21
0.0
 12
0.0
 22
0.0
 32
0.0
 14
0.0
 24
0.0
 34
0.0
 15
0.0
 25
0.0
 35
0.0
146
0.0
 13
0.0
 23
0.0
 33
0.0
 16
1.0
 26
0.0
 36
0.0
 17
0.0
 27
1.0
 37
0.0
 76
     0
330
23
  0
LAYOUT
  5
22
102
{ACAD_REACTORS
330
1A
102
}
330
1A
100
AcDbPlotSettings
  1

  2
none_device
  4
Letter_(8.50_x_11.00_Inches)
  6

 40
6.35
 41
6.35
 42
6.35000508
 43
6.35000508
 44
215.9
 45
279.4
 46
0.0
 47
0.0
 48
0.0
 49
0.0
140
0.0
141
0.0
142
1.0
143
1.0
 70
  1712
 72
     1
 73
     0
 74
     0
  7

 75
     0
 76
     0
 77
     5
 78
   300
147
1.0
148
0.0
149
0.0
100
AcDbLayout
  1
Model
 70
     1
 71
     0
 10
-2100.0
 20
-1485.0
 11
2100.0
 21
1485.0
 12
0.0
 22
0.0
 32
0.0
 14
-2100.0
 24
-1485.0
 34
0.0
 15
2100.0
 25
1485.0
 35
0.0
146
0.0
 13
0.0
 23
0.0
 33
0.0
 16
1.0
 26
0.0
 36
0.0
 17
0.0
 27
1.0
 37
0.0
 76
     0
330
1F
331
29
  0
MATERIAL
  5
45
102
{ACAD_REACTORS
330
43
102
}
102
{ACAD_XDICTIONARY
360
3E2
102
}
330
43
100
AcDbMaterial
  1
ByBlock
  0
MATERIAL
  5
44
102
{ACAD_REACTORS
330
43
102
}
102
{ACAD_XDICTIONARY
360
3E0
102
}
330
43
100
AcDbMaterial
  1
ByLayer
  0
MATERIAL
  5
46
102
{ACAD_REACTORS
330
43
102
}
102
{ACAD_XDICTIONARY
360
3E4
102
}
330
43
100
AcDbMaterial
  1
Global
  0
MLEADERSTYLE
  5
6C
102
{ACAD_REACTORS
330
6B
102
}
102
{ACAD_XDICTIONARY
360
3EA
102
}
330
6B
100
AcDbMLeaderStyle
170
     2
171
     1
172
     0
 90
        2
 40
0.0
 41
0.0
173
     1
 91
-1056964608
340
14
 92
       -2
290
     1
 42
2.0
291
     1
 43
8.0
  3
Standard
341
0
 44
4.0
300

342
11
174
     1
178
     6
175
     1
176
     0
 93
-1056964608
 45
4.0
292
     0
297
     0
 46
4.0
343
0
 94
-1056964608
 47
1.0
 49
1.0
140
1.0
293
     1
141
0.0
294
     1
177
     0
142
1.0
295
     0
296
     0
143
3.75
1001
ACAD_MLEADERVER
1070
     2
  0
MLINESTYLE
  5
18
102
{ACAD_REACTORS
330
17
102
}
330
17
100
AcDbMlineStyle
  2
Standard
 70
     0
  3

 62
   256
 51
90.0
 52
90.0
 71
     2
 49
0.5
 62
   256
  6
BYLAYER
 49
-0.5
 62
   256
  6
BYLAYER
  0
ACDBPLACEHOLDER
  5
F
102
{ACAD_REACTORS
330
E
102
}
330
E
  0
SCALE
  5
48
102
{ACAD_REACTORS
330
47
102
}
330
47
100
AcDbScale
 70
     0
300
1:1
140
1.0
141
1.0
290
     1
  0
SCALE
  5
49
102
{ACAD_REACTORS
330
47
102
}
330
47
100
AcDbScale
 70
     0
300
1:2
140
1.0
141
2.0
290
     0
  0
SCALE
  5
4A
102
{ACAD_REACTORS
330
47
102
}
330
47
100
AcDbScale
 70
     0
300
1:4
140
1.0
141
4.0
290
     0
  0
SCALE
  5
4B
102
{ACAD_REACTORS
330
47
102
}
330
47
100
AcDbScale
 70
     0
300
1:5
140
1.0
141
5.0
290
     0
  0
SCALE
  5
4C
102
{ACAD_REACTORS
330
47
102
}
330
47
100
AcDbScale
 70
     0
300
1:8
140
1.0
141
8.0
290
     0
  0
SCALE
  5
4D
102
{ACAD_REACTORS
330
47
102
}
330
47
100
AcDbScale
 70
     0
300
1:10
140
1.0
141
10.0
290
     0
  0
SCALE
  5
4E
102
{ACAD_REACTORS
330
47
102
}
330
47
100
AcDbScale
 70
     0
300
1:16
140
1.0
141
16.0
290
     0
  0
SCALE
  5
4F
102
{ACAD_REACTORS
330
47
102
}
330
47
100
AcDbScale
 70
     0
300
1:20
140
1.0
141
20.0
290
     0
  0
SCALE
  5
50
102
{ACAD_REACTORS
330
47
102
}
330
47
100
AcDbScale
 70
     0
300
1:30
140
1.0
141
30.0
290
     0
  0
SCALE
  5
51
102
{ACAD_REACTORS
330
47
102
}
330
47
100
AcDbScale
 70
     0
300
1:40
140
1.0
141
40.0
290
     0
  0
SCALE
  5
52
102
{ACAD_REACTORS
330
47
102
}
330
47
100
AcDbScale
 70
     0
300
1:50
140
1.0
141
50.0
290
     0
  0
SCALE
  5
53
102
{ACAD_REACTORS
330
47
102
}
330
47
100
AcDbScale
 70
     0
300
1:100
140
1.0
141
100.0
290
     0
  0
SCALE
  5
54
102
{ACAD_REACTORS
330
47
102
}
330
47
100
AcDbScale
 70
     0
300
2:1
140
2.0
141
1.0
290
     0
  0
SCALE
  5
55
102
{ACAD_REACTORS
330
47
102
}
330
47
100
AcDbScale
 70
     0
300
4:1
140
4.0
141
1.0
290
     0
  0
SCALE
  5
56
102
{ACAD_REACTORS
330
47
102
}
330
47
100
AcDbScale
 70
     0
300
8:1
140
8.0
141
1.0
290
     0
  0
SCALE
  5
57
102
{ACAD_REACTORS
330
47
102
}
330
47
100
AcDbScale
 70
     0
300
10:1
140
10.0
141
1.0
290
     0
  0
SCALE
  5
58
102
{ACAD_REACTORS
330
47
102
}
330
47
100
AcDbScale
 70
     0
300
100:1
140
100.0
141
1.0
290
     0
  0
SCALE
  5
59
102
{ACAD_REACTORS
330
47
102
}
330
47
100
AcDbScale
 70
     0
300
1/128" = 1'-0"
140
0.0078125
141
12.0
290
     0
  0
SCALE
  5
5A
102
{ACAD_REACTORS
330
47
102
}
330
47
100
AcDbScale
 70
     0
300
1/64" = 1'-0"
140
0.015625
141
12.0
290
     0
  0
SCALE
  5
5B
102
{ACAD_REACTORS
330
47
102
}
330
47
100
AcDbScale
 70
     0
300
1/32" = 1'-0"
140
0.03125
141
12.0
290
     0
  0
SCALE
  5
5C
102
{ACAD_REACTORS
330
47
102
}
330
47
100
AcDbScale
 70
     0
300
1/16" = 1'-0"
140
0.0625
141
12.0
290
     0
  0
SCALE
  5
5D
102
{ACAD_REACTORS
330
47
102
}
330
47
100
AcDbScale
 70
     0
300
3/32" = 1'-0"
140
0.09375
141
12.0
290
     0
  0
SCALE
  5
5E
102
{ACAD_REACTORS
330
47
102
}
330
47
100
AcDbScale
 70
     0
300
1/8" = 1'-0"
140
0.125
141
12.0
290
     0
  0
SCALE
  5
5F
102
{ACAD_REACTORS
330
47
102
}
330
47
100
AcDbScale
 70
     0
300
3/16" = 1'-0"
140
0.1875
141
12.0
290
     0
  0
SCALE
  5
60
102
{ACAD_REACTORS
330
47
102
}
330
47
100
AcDbScale
 70
     0
300
1/4" = 1'-0"
140
0.25
141
12.0
290
     0
  0
SCALE
  5
61
102
{ACAD_REACTORS
330
47
102
}
330
47
100
AcDbScale
 70
     0
300
3/8" = 1'-0"
140
0.375
141
12.0
290
     0
  0
SCALE
  5
62
102
{ACAD_REACTORS
330
47
102
}
330
47
100
AcDbScale
 70
     0
300
1/2" = 1'-0"
140
0.5
141
12.0
290
     0
  0
SCALE
  5
63
102
{ACAD_REACTORS
330
47
102
}
330
47
100
AcDbScale
 70
     0
300
3/4" = 1'-0"
140
0.75
141
12.0
290
     0
  0
SCALE
  5
64
102
{ACAD_REACTORS
330
47
102
}
330
47
100
AcDbScale
 70
     0
300
1" = 1'-0"
140
1.0
141
12.0
290
     0
  0
SCALE
  5
65
102
{ACAD_REACTORS
330
47
102
}
330
47
100
AcDbScale
 70
     0
300
1-1/2" = 1'-0"
140
1.5
141
12.0
290
     0
  0
SCALE
  5
66
102
{ACAD_REACTORS
330
47
102
}
330
47
100
AcDbScale
 70
     0
300
3" = 1'-0"
140
3.0
141
12.0
290
     0
  0
SCALE
  5
67
102
{ACAD_REACTORS
330
47
102
}
330
47
100
AcDbScale
 70
     0
300
6" = 1'-0"
140
6.0
141
12.0
290
     0
  0
SCALE
  5
68
102
{ACAD_REACTORS
330
47
102
}
330
47
100
AcDbScale
 70
     0
300
1'-0" = 1'-0"
140
12.0
141
12.0
290
     0
  0
TABLESTYLE
  5
6A
102
{ACAD_REACTORS
330
69
102
}
102
{ACAD_XDICTIONARY
360
3E6
102
}
330
69
100
AcDbTableStyle
  3
Standard
 70
     0
 71
     0
 40
0.06
 41
0.06
280
     0
281
     0
  7
Standard
140
4.5
170
     2
 62
     0
 63
   257
283
     0
274
    -2
284
     1
 64
     0
275
    -2
285
     1
 65
     0
276
    -2
286
     1
 66
     0
277
    -2
287
     1
 67
     0
278
    -2
288
     1
 68
     0
279
    -2
289
     1
 69
     0
  7
Standard
140
6.0
170
     5
 62
     0
 63
   257
283
     0
274
    -2
284
     1
 64
     0
275
    -2
285
     1
 65
     0
276
    -2
286
     1
 66
     0
277
    -2
287
     1
 67
     0
278
    -2
288
     1
 68
     0
279
    -2
289
     1
 69
     0
  7
Standard
140
4.5
170
     5
 62
     0
 63
   257
283
     0
274
    -2
284
     1
 64
     0
275
    -2
285
     1
 65
     0
276
    -2
286
     1
 66
     0
277
    -2
287
     1
 67
     0
278
    -2
288
     1
 68
     0
279
    -2
289
     1
 69
     0
  0
VISUALSTYLE
  5
2F
102
{ACAD_REACTORS
330
2A
102
}
102
{ACAD_XDICTIONARY
360
3B8
102
}
330
2A
100
AcDbVisualStyle
  2
2dWireframe
 70
     4
 71
     0
 72
     2
 73
     0
 90
        0
 40
0.6
 41
30.0
 62
     5
 63
     7
421
 16777215
 74
     1
 91
        4
 64
     7
 65
   257
 75
     1
175
     1
 42
1.0
 92
        0
 66
   257
 43
1.0
 76
     1
 77
     6
 78
     2
 67
     7
 79
     5
170
     0
171
     0
290
     0
174
     0
 93
        1
 44
0.0
173
     0
291
     0
 45
0.0
1001
ACAD
1000
AcDbSavedByObjectVersion
1070
     0
  0
VISUALSTYLE
  5
32
102
{ACAD_REACTORS
330
2A
102
}
102
{ACAD_XDICTIONARY
360
3BE
102
}
330
2A
100
AcDbVisualStyle
  2
Basic
 70
     7
 71
     1
 72
     0
 73
     1
 90
        0
 40
0.6
 41
30.0
 62
     5
 63
     7
421
 16777215
 74
     0
 91
        4
 64
     7
 65
   257
 75
     1
175
     1
 42
1.0
 92
        8
 66
     7
 43
1.0
 76
     1
 77
     6
 78
     2
 67
     7
 79
     5
170
     0
171
     0
290
     0
174
     0
 93
        1
 44
0.0
173
     0
291
     1
 45
0.0
1001
ACAD
1000
AcDbSavedByObjectVersion
1070
     0
  0
VISUALSTYLE
  5
36
102
{ACAD_REACTORS
330
2A
102
}
102
{ACAD_XDICTIONARY
360
3C6
102
}
330
2A
100
AcDbVisualStyle
  2
Brighten
 70
    12
 71
     2
 72
     2
 73
     0
 90
        0
 40
0.6
 41
30.0
 62
     5
 63
     7
421
 16777215
 74
     1
 91
        4
 64
     7
 65
   257
 75
     1
175
     1
 42
1.0
 92
        8
 66
     7
 43
1.0
 76
     1
 77
     6
 78
     2
 67
     7
 79
     5
170
     0
171
     0
290
     0
174
     0
 93
        1
 44
50.0
173
     0
291
     1
 45
0.0
1001
ACAD
1000
AcDbSavedByObjectVersion
1070
     0
  0
VISUALSTYLE
  5
3A
102
{ACAD_REACTORS
330
2A
102
}
102
{ACAD_XDICTIONARY
360
3CE
102
}
330
2A
100
AcDbVisualStyle
  2
ColorChange
 70
    16
 71
     2
 72
     2
 73
     3
 90
        0
 40
0.6
 41
30.0
 62
     5
 63
     8
421
  8421504
 74
     1
 91
        4
 64
     7
 65
   257
 75
     1
175
     1
 42
1.0
 92
        8
 66
     8
424
  8421504
 43
1.0
 76
     1
 77
     6
 78
     2
 67
     7
 79
     5
170
     0
171
     0
290
     0
174
     0
 93
        1
 44
0.0
173
     0
291
     1
 45
0.0
1001
ACAD
1000
AcDbSavedByObjectVersion
1070
     0
  0
VISUALSTYLE
  5
34
102
{ACAD_REACTORS
330
2A
102
}
102
{ACAD_XDICTIONARY
360
3C2
102
}
330
2A
100
AcDbVisualStyle
  2
Conceptual
 70
     9
 71
     3
 72
     2
 73
     0
 90
        0
 40
0.6
 41
30.0
 62
     5
 63
     7
421
 16777215
 74
     2
 91
        2
 64
     7
 65
   257
 75
     1
175
     1
 42
179.0
 92
        8
 66
     7
 43
1.0
 76
     1
 77
     6
 78
     2
 67
     7
 79
     3
170
     0
171
     0
290
     0
174
     0
 93
        1
 44
0.0
173
     0
291
     0
 45
0.0
1001
ACAD
1000
AcDbSavedByObjectVersion
1070
     0
  0
VISUALSTYLE
  5
35
102
{ACAD_REACTORS
330
2A
102
}
102
{ACAD_XDICTIONARY
360
3C4
102
}
330
2A
100
AcDbVisualStyle
  2
Dim
 70
    11
 71
     2
 72
     2
 73
     0
 90
        0
 40
0.6
 41
30.0
 62
     5
 63
     7
421
 16777215
 74
     1
 91
        4
 64
     7
 65
   257
 75
     1
175
     1
 42
1.0
 92
        8
 66
     7
 43
1.0
 76
     1
 77
     6
 78
     2
 67
     7
 79
     5
170
     0
171
     0
290
     0
174
     0
 93
        1
 44
-50.0
173
     0
291
     1
 45
0.0
1001
ACAD
1000
AcDbSavedByObjectVersion
1070
     0
  0
VISUALSTYLE
  5
3D
102
{ACAD_REACTORS
330
2A
102
}
102
{ACAD_XDICTIONARY
360
3D4
102
}
330
2A
100
AcDbVisualStyle
  2
EdgeColorOff
 70
    22
 71
     2
 72
     2
 73
     0
 90
        0
 40
0.6
 41
30.0
 62
     5
 63
     7
421
 16777215
 74
     1
 91
        4
 64
     7
 65
   257
 75
     1
175
     1
 42
1.0
 92
        8
 66
     7
 43
1.0
 76
     1
 77
     6
 78
     2
 67
     7
 79
     5
170
     0
171
     0
290
     0
174
     0
 93
        1
 44
0.0
173
     0
291
     1
 45
0.0
1001
ACAD
1000
AcDbSavedByObjectVersion
1070
     0
  0
VISUALSTYLE
  5
39
102
{ACAD_REACTORS
330
2A
102
}
102
{ACAD_XDICTIONARY
360
3CC
102
}
330
2A
100
AcDbVisualStyle
  2
Facepattern
 70
    15
 71
     2
 72
     2
 73
     0
 90
        0
 40
0.6
 41
30.0
 62
     5
 63
     7
421
 16777215
 74
     1
 91
        4
 64
     7
 65
   257
 75
     1
175
     1
 42
1.0
 92
        8
 66
     7
 43
1.0
 76
     1
 77
     6
 78
     2
 67
     7
 79
     5
170
     0
171
     0
290
     0
174
     0
 93
        1
 44
0.0
173
     0
291
     1
 45
0.0
1001
ACAD
1000
AcDbSavedByObjectVersion
1070
     0
  0
VISUALSTYLE
  5
2B
102
{ACAD_REACTORS
330
2A
102
}
102
{ACAD_XDICTIONARY
360
3B0
102
}
330
2A
100
AcDbVisualStyle
  2
Flat
 70
     0
 71
     2
 72
     1
 73
     1
 90
        2
 40
0.6
 41
30.0
 62
     5
 63
     7
421
 16777215
 74
     0
 91
        0
 64
     7
 65
   257
 75
     1
175
     1
 42
1.0
 92
        8
 66
     7
 43
1.0
 76
     1
 77
     6
 78
     2
 67
     7
 79
     5
170
     0
171
     0
290
     0
174
     0
 93
       13
 44
0.0
173
     0
291
     1
 45
0.0
1001
ACAD
1000
AcDbSavedByObjectVersion
1070
     0
  0
VISUALSTYLE
  5
2C
102
{ACAD_REACTORS
330
2A
102
}
102
{ACAD_XDICTIONARY
360
3B2
102
}
330
2A
100
AcDbVisualStyle
  2
FlatWithEdges
 70
     1
 71
     2
 72
     1
 73
     1
 90
        2
 40
0.6
 41
30.0
 62
     5
 63
     7
421
 16777215
 74
     1
 91
        0
 64
     7
 65
   257
 75
     1
175
     1
 42
1.0
 92
        0
 66
   257
 43
1.0
 76
     1
 77
     6
 78
     2
 67
     7
 79
     5
170
     0
171
     0
290
     0
174
     0
 93
       13
 44
0.0
173
     0
291
     1
 45
0.0
1001
ACAD
1000
AcDbSavedByObjectVersion
1070
     0
  0
VISUALSTYLE
  5
2D
102
{ACAD_REACTORS
330
2A
102
}
102
{ACAD_XDICTIONARY
360
3B4
102
}
330
2A
100
AcDbVisualStyle
  2
Gouraud
 70
     2
 71
     2
 72
     2
 73
     1
 90
        2
 40
0.6
 41
30.0
 62
     5
 63
     7
421
 16777215
 74
     0
 91
        0
 64
     7
 65
   257
 75
     1
175
     1
 42
1.0
 92
        0
 66
     7
 43
1.0
 76
     1
 77
     6
 78
     2
 67
     7
 79
     5
170
     0
171
     0
290
     0
174
     0
 93
       13
 44
0.0
173
     0
291
     1
 45
0.0
1001
ACAD
1000
AcDbSavedByObjectVersion
1070
     0
  0
VISUALSTYLE
  5
2E
102
{ACAD_REACTORS
330
2A
102
}
102
{ACAD_XDICTIONARY
360
3B6
102
}
330
2A
100
AcDbVisualStyle
  2
GouraudWithEdges
 70
     3
 71
     2
 72
     2
 73
     1
 90
        2
 40
0.6
 41
30.0
 62
     5
 63
     7
421
 16777215
 74
     1
 91
        0
 64
     7
 65
   257
 75
     1
175
     1
 42
1.0
 92
        0
 66
   257
 43
1.0
 76
     1
 77
     6
 78
     2
 67
     7
 79
     5
170
     0
171
     0
290
     0
174
     0
 93
       13
 44
0.0
173
     0
291
     1
 45
0.0
1001
ACAD
1000
AcDbSavedByObjectVersion
1070
     0
  0
VISUALSTYLE
  5
31
102
{ACAD_REACTORS
330
2A
102
}
102
{ACAD_XDICTIONARY
360
3BC
102
}
330
2A
100
AcDbVisualStyle
  2
Hidden
 70
     6
 71
     1
 72
     2
 73
     2
 90
        0
 40
0.6
 41
30.0
 62
     5
 63
     7
421
 16777215
 74
     2
 91
        2
 64
     7
 65
   257
 75
     2
175
     1
 42
40.0
 92
        0
 66
   257
 43
1.0
 76
     1
 77
     6
 78
     2
 67
     7
 79
     3
170
     0
171
     0
290
     0
174
     0
 93
        1
 44
0.0
173
     0
291
     0
 45
0.0
1001
ACAD
1000
AcDbSavedByObjectVersion
1070
     0
  0
VISUALSTYLE
  5
3B
102
{ACAD_REACTORS
330
2A
102
}
102
{ACAD_XDICTIONARY
360
3D0
102
}
330
2A
100
AcDbVisualStyle
  2
JitterOff
 70
    20
 71
     2
 72
     2
 73
     0
 90
        0
 40
0.6
 41
30.0
 62
     5
 63
     7
421
 16777215
 74
     1
 91
        4
 64
     7
 65
   257
 75
     1
175
     1
 42
1.0
 92
       10
 66
     7
 43
1.0
 76
     1
 77
     6
 78
     2
 67
     7
 79
     5
170
     0
171
     0
290
     0
174
     0
 93
        1
 44
0.0
173
     0
291
     1
 45
0.0
1001
ACAD
1000
AcDbSavedByObjectVersion
1070
     0
  0
VISUALSTYLE
  5
38
102
{ACAD_REACTORS
330
2A
102
}
102
{ACAD_XDICTIONARY
360
3CA
102
}
330
2A
100
AcDbVisualStyle
  2
Linepattern
 70
    14
 71
     2
 72
     2
 73
     0
 90
        0
 40
0.6
 41
30.0
 62
     5
 63
     7
421
 16777215
 74
     1
 91
        4
 64
     7
 65
   257
 75
     7
175
     7
 42
1.0
 92
        8
 66
     7
 43
1.0
 76
     1
 77
     6
 78
     2
 67
     7
 79
     5
170
     0
171
     0
290
     0
174
     0
 93
        1
 44
0.0
173
     0
291
     1
 45
0.0
1001
ACAD
1000
AcDbSavedByObjectVersion
1070
     0
  0
VISUALSTYLE
  5
3C
102
{ACAD_REACTORS
330
2A
102
}
102
{ACAD_XDICTIONARY
360
3D2
102
}
330
2A
100
AcDbVisualStyle
  2
OverhangOff
 70
    21
 71
     2
 72
     2
 73
     0
 90
        0
 40
0.6
 41
30.0
 62
     5
 63
     7
421
 16777215
 74
     1
 91
        4
 64
     7
 65
   257
 75
     1
175
     1
 42
1.0
 92
        9
 66
     7
 43
1.0
 76
     1
 77
     6
 78
     2
 67
     7
 79
     5
170
     0
171
     0
290
     0
174
     0
 93
        1
 44
0.0
173
     0
291
     1
 45
0.0
1001
ACAD
1000
AcDbSavedByObjectVersion
1070
     0
  0
VISUALSTYLE
  5
33
102
{ACAD_REACTORS
330
2A
102
}
102
{ACAD_XDICTIONARY
360
3C0
102
}
330
2A
100
AcDbVisualStyle
  2
Realistic
 70
     8
 71
     2
 72
     3
 73
     0
 90
        2
 40
0.6
 41
30.0
 62
     5
 63
     7
421
 16777215
 74
     0
 91
        0
 64
     7
 65
   257
 75
     1
175
     1
 42
1.0
 92
        8
 66
   257
 43
1.0
 76
     1
 77
     6
 78
     2
 67
     7
 79
     3
170
     0
171
     0
290
     0
174
     0
 93
       13
 44
0.0
173
     0
291
     0
 45
0.0
1001
ACAD
1000
AcDbSavedByObjectVersion
1070
     0
  0
VISUALSTYLE
  5
42
102
{ACAD_REACTORS
330
2A
102
}
102
{ACAD_XDICTIONARY
360
3DE
102
}
330
2A
100
AcDbVisualStyle
  2
Shaded
 70
    27
 71
     2
 72
     2
 73
     1
 90
        2
 40
0.6
 41
30.0
 62
     5
 63
     7
421
 16777215
 74
     0
 91
        4
 64
     7
 65
   257
 75
     1
175
     1
 42
1.0
 92
        8
 66
   257
 43
1.0
 76
     1
 77
     6
 78
     2
 67
     8
425
  7895160
 79
     3
170
     0
171
     0
290
     0
174
     0
 93
        5
 44
0.0
173
     0
291
     0
 45
0.0
1001
ACAD
1000
AcDbSavedByObjectVersion
1070
     0
  0
VISUALSTYLE
  5
41
102
{ACAD_REACTORS
330
2A
102
}
102
{ACAD_XDICTIONARY
360
3DC
102
}
330
2A
100
AcDbVisualStyle
  2
Shaded with edges
 70
    26
 71
     2
 72
     2
 73
     1
 90
        2
 40
0.6
 41
30.0
 62
     5
 63
     7
421
 16777215
 74
     1
 91
       10
 64
     7
 65
   257
 75
     2
175
     1
 42
1.0
 92
        8
 66
   257
 43
1.0
 76
     1
 77
     6
 78
     2
 67
     7
 79
     3
170
     0
171
     0
290
     0
174
     0
 93
        5
 44
0.0
173
     0
291
     0
 45
0.0
1001
ACAD
1000
AcDbSavedByObjectVersion
1070
     0
  0
VISUALSTYLE
  5
3E
102
{ACAD_REACTORS
330
2A
102
}
102
{ACAD_XDICTIONARY
360
3D6
102
}
330
2A
100
AcDbVisualStyle
  2
Shades of Gray
 70
    23
 71
     2
 72
     2
 73
     3
 90
        0
 40
0.6
 41
30.0
 62
     5
 63
     7
421
 16777215
 74
     2
 91
        2
 64
     7
 65
     7
 75
     1
175
     1
 42
40.0
 92
        8
 66
     7
 43
1.0
 76
     1
 77
     6
 78
     2
 67
     7
 79
     3
170
     0
171
     0
290
     0
174
     0
 93
        1
 44
0.0
173
     0
291
     0
 45
0.0
1001
ACAD
1000
AcDbSavedByObjectVersion
1070
     0
  0
VISUALSTYLE
  5
3F
102
{ACAD_REACTORS
330
2A
102
}
102
{ACAD_XDICTIONARY
360
3D8
102
}
330
2A
100
AcDbVisualStyle
  2
Sketchy
 70
    24
 71
     1
 72
     2
 73
     2
 90
        0
 40
0.6
 41
30.0
 62
     5
 63
     7
421
 16777215
 74
     2
 91
        2
 64
     7
 65
     7
 75
     1
175
     1
 42
40.0
 92
       11
 66
     7
 43
1.0
 76
     1
 77
     6
 78
     2
 67
     7
 79
     6
170
     0
171
     0
290
     0
174
     0
 93
        1
 44
0.0
173
     0
291
     0
 45
0.0
1001
ACAD
1000
AcDbSavedByObjectVersion
1070
     0
  0
VISUALSTYLE
  5
37
102
{ACAD_REACTORS
330
2A
102
}
102
{ACAD_XDICTIONARY
360
3C8
102
}
330
2A
100
AcDbVisualStyle
  2
Thicken
 70
    13
 71
     2
 72
     2
 73
     0
 90
        0
 40
0.6
 41
30.0
 62
     5
 63
     7
421
 16777215
 74
     1
 91
        4
 64
     7
 65
   257
 75
     1
175
     1
 42
1.0
 92
       12
 66
     7
 43
1.0
 76
     1
 77
     6
 78
     2
 67
     7
 79
     5
170
     0
171
     0
290
     0
174
     0
 93
        1
 44
0.0
173
     0
291
     1
 45
0.0
1001
ACAD
1000
AcDbSavedByObjectVersion
1070
     0
  0
VISUALSTYLE
  5
30
102
{ACAD_REACTORS
330
2A
102
}
102
{ACAD_XDICTIONARY
360
3BA
102
}
330
2A
100
AcDbVisualStyle
  2
Wireframe
 70
     5
 71
     0
 72
     2
 73
     0
 90
        0
 40
0.6
 41
30.0
 62
     5
 63
     7
421
 16777215
 74
     1
 91
        4
 64
     7
 65
   257
 75
     1
175
     1
 42
1.0
 92
        0
 66
   257
 43
1.0
 76
     1
 77
     6
 78
     2
 67
     7
 79
     3
170
     0
171
     0
290
     0
174
     0
 93
        1
 44
0.0
173
     0
291
     0
 45
0.0
1001
ACAD
1000
AcDbSavedByObjectVersion
1070
     0
  0
VISUALSTYLE
  5
40
102
{ACAD_REACTORS
330
2A
102
}
102
{ACAD_XDICTIONARY
360
3DA
102
}
330
2A
100
AcDbVisualStyle
  2
X-Ray
 70
    25
 71
     2
 72
     2
 73
     1
 90
        1
 40
0.5
 41
30.0
 62
     5
 63
     7
421
 16777215
 74
     1
 91
        0
 64
     7
 65
   257
 75
     1
175
     1
 42
1.0
 92
        8
 66
     7
 43
1.0
 76
     1
 77
     6
 78
     2
 67
     7
 79
     3
170
     0
171
     0
290
     0
174
     0
 93
       13
 44
0.0
173
     0
291
     0
 45
0.0
1001
ACAD
1000
AcDbSavedByObjectVersion
1070
     0
  0
DICTIONARYVAR
  5
3AD
102
{ACAD_REACTORS
330
3AC
102
}
330
3AC
100
DictionaryVariables
280
     0
  1
1:1
  0
DICTIONARYVAR
  5
3F1
102
{ACAD_REACTORS
330
3AC
102
}
330
3AC
100
DictionaryVariables
280
     0
  1
3.500000
  0
DICTIONARYVAR
  5
3F2
102
{ACAD_REACTORS
330
3AC
102
}
330
3AC
100
DictionaryVariables
280
     0
  1
acadiso.lin
  0
DICTIONARYVAR
  5
3EE
102
{ACAD_REACTORS
330
3AC
102
}
330
3AC
100
DictionaryVariables
280
     0
  1
Standard
  0
DICTIONARYVAR
  5
3ED
102
{ACAD_REACTORS
330
3AC
102
}
330
3AC
100
DictionaryVariables
280
     0
  1
Standard
  0
DICTIONARYVAR
  5
3AE
102
{ACAD_REACTORS
330
3AC
102
}
330
3AC
100
DictionaryVariables
280
     0
  1
1
  0
DICTIONARYVAR
  5
3AF
102
{ACAD_REACTORS
330
3AC
102
}
330
3AC
100
DictionaryVariables
280
     0
  1
2
  0
DICTIONARY
  5
3E2
330
45
100
AcDbDictionary
280
     1
281
     1
  3
ACAD_XREC_ROUNDTRIP
360
3E3
  0
DICTIONARY
  5
3E0
330
44
100
AcDbDictionary
280
     1
281
     1
  3
ACAD_XREC_ROUNDTRIP
360
3E1
  0
DICTIONARY
  5
3E4
330
46
100
AcDbDictionary
280
     1
281
     1
  3
ACAD_XREC_ROUNDTRIP
360
3E5
  0
DICTIONARY
  5
3EA
330
6C
100
AcDbDictionary
280
     1
281
     1
  3
ACAD_XREC_ROUNDTRIP
360
3EB
  0
DICTIONARY
  5
3E6
330
6A
100
AcDbDictionary
280
     1
281
     1
  3
ACAD_ROUNDTRIP_2008_TABLESTYLE_CELLSTYLEMAP
360
3E8
  3
ACAD_XREC_ROUNDTRIP
360
3E7
  0
DICTIONARY
  5
3B8
330
2F
100
AcDbDictionary
280
     1
281
     1
  3
ACAD_XREC_ROUNDTRIP
360
3B9
  0
DICTIONARY
  5
3BE
330
32
100
AcDbDictionary
280
     1
281
     1
  3
ACAD_XREC_ROUNDTRIP
360
3BF
  0
DICTIONARY
  5
3C6
330
36
100
AcDbDictionary
280
     1
281
     1
  3
ACAD_XREC_ROUNDTRIP
360
3C7
  0
DICTIONARY
  5
3CE
330
3A
100
AcDbDictionary
280
     1
281
     1
  3
ACAD_XREC_ROUNDTRIP
360
3CF
  0
DICTIONARY
  5
3C2
330
34
100
AcDbDictionary
280
     1
281
     1
  3
ACAD_XREC_ROUNDTRIP
360
3C3
  0
DICTIONARY
  5
3C4
330
35
100
AcDbDictionary
280
     1
281
     1
  3
ACAD_XREC_ROUNDTRIP
360
3C5
  0
DICTIONARY
  5
3D4
330
3D
100
AcDbDictionary
280
     1
281
     1
  3
ACAD_XREC_ROUNDTRIP
360
3D5
  0
DICTIONARY
  5
3CC
330
39
100
AcDbDictionary
280
     1
281
     1
  3
ACAD_XREC_ROUNDTRIP
360
3CD
  0
DICTIONARY
  5
3B0
330
2B
100
AcDbDictionary
280
     1
281
     1
  3
ACAD_XREC_ROUNDTRIP
360
3B1
  0
DICTIONARY
  5
3B2
330
2C
100
AcDbDictionary
280
     1
281
     1
  3
ACAD_XREC_ROUNDTRIP
360
3B3
  0
DICTIONARY
  5
3B4
330
2D
100
AcDbDictionary
280
     1
281
     1
  3
ACAD_XREC_ROUNDTRIP
360
3B5
  0
DICTIONARY
  5
3B6
330
2E
100
AcDbDictionary
280
     1
281
     1
  3
ACAD_XREC_ROUNDTRIP
360
3B7
  0
DICTIONARY
  5
3BC
330
31
100
AcDbDictionary
280
     1
281
     1
  3
ACAD_XREC_ROUNDTRIP
360
3BD
  0
DICTIONARY
  5
3D0
330
3B
100
AcDbDictionary
280
     1
281
     1
  3
ACAD_XREC_ROUNDTRIP
360
3D1
  0
DICTIONARY
  5
3CA
330
38
100
AcDbDictionary
280
     1
281
     1
  3
ACAD_XREC_ROUNDTRIP
360
3CB
  0
DICTIONARY
  5
3D2
330
3C
100
AcDbDictionary
280
     1
281
     1
  3
ACAD_XREC_ROUNDTRIP
360
3D3
  0
DICTIONARY
  5
3C0
330
33
100
AcDbDictionary
280
     1
281
     1
  3
ACAD_XREC_ROUNDTRIP
360
3C1
  0
DICTIONARY
  5
3DE
330
42
100
AcDbDictionary
280
     1
281
     1
  3
ACAD_XREC_ROUNDTRIP
360
3DF
  0
DICTIONARY
  5
3DC
330
41
100
AcDbDictionary
280
     1
281
     1
  3
ACAD_XREC_ROUNDTRIP
360
3DD
  0
DICTIONARY
  5
3D6
330
3E
100
AcDbDictionary
280
     1
281
     1
  3
ACAD_XREC_ROUNDTRIP
360
3D7
  0
DICTIONARY
  5
3D8
330
3F
100
AcDbDictionary
280
     1
281
     1
  3
ACAD_XREC_ROUNDTRIP
360
3D9
  0
DICTIONARY
  5
3C8
330
37
100
AcDbDictionary
280
     1
281
     1
  3
ACAD_XREC_ROUNDTRIP
360
3C9
  0
DICTIONARY
  5
3BA
330
30
100
AcDbDictionary
280
     1
281
     1
  3
ACAD_XREC_ROUNDTRIP
360
3BB
  0
DICTIONARY
  5
3DA
330
40
100
AcDbDictionary
280
     1
281
     1
  3
ACAD_XREC_ROUNDTRIP
360
3DB
  0
XRECORD
  5
3E3
102
{ACAD_REACTORS
330
3E2
102
}
330
3E2
100
AcDbXrecord
280
     1
102
MATERIAL
148
0.0
149
0.0
149
0.0
 93
        0
 94
      127
282
     0
 72
     1
 77
     1
171
     1
175
     1
179
     1
273
     0
  0
XRECORD
  5
3E1
102
{ACAD_REACTORS
330
3E0
102
}
330
3E0
100
AcDbXrecord
280
     1
102
MATERIAL
148
0.0
149
0.0
149
0.0
 93
        0
 94
      127
282
     0
 72
     1
 77
     1
171
     1
175
     1
179
     1
273
     0
  0
XRECORD
  5
3E5
102
{ACAD_REACTORS
330
3E4
102
}
330
3E4
100
AcDbXrecord
280
     1
102
MATERIAL
148
0.0
149
0.0
149
0.0
 93
        0
 94
      127
282
     0
 72
     1
 77
     1
171
     1
175
     1
179
     1
273
     0
  0
XRECORD
  5
3EB
102
{ACAD_REACTORS
330
3EA
102
}
330
3EA
100
AcDbXrecord
280
     1
102
ACAD_ROUNDTRIP_2010_MLEADER_STYLE
  0
CELLSTYLEMAP
  5
3E8
102
{ACAD_REACTORS
330
3E6
102
}
330
3E6
100
AcDbCellStyleMap
 90
        3
300
CELLSTYLE
  1
TABLEFORMAT_BEGIN
 90
        5
170
     1
 91
        0
 92
    32768
 62
   257
 93
        1
300
CONTENTFORMAT
  1
CONTENTFORMAT_BEGIN
 90
        0
 91
        0
 92
        4
 93
        0
300

 40
0.0
140
1.0
 94
        5
 62
     0
340
11
144
6.0
309
CONTENTFORMAT_END
171
     1
301
MARGIN
  1
CELLMARGIN_BEGIN
 40
1.5
 40
1.5
 40
1.5
 40
1.5
 40
1.5
 40
1.5
309
CELLMARGIN_END
 94
        6
 95
        1
302
GRIDFORMAT
  1
GRIDFORMAT_BEGIN
 90
        0
 91
        1
 62
     0
 92
       -2
340
14
 93
        0
 40
0.045
309
GRIDFORMAT_END
 95
        2
302
GRIDFORMAT
  1
GRIDFORMAT_BEGIN
 90
        0
 91
        1
 62
     0
 92
       -2
340
14
 93
        0
 40
0.045
309
GRIDFORMAT_END
 95
        4
302
GRIDFORMAT
  1
GRIDFORMAT_BEGIN
 90
        0
 91
        1
 62
     0
 92
       -2
340
14
 93
        0
 40
0.045
309
GRIDFORMAT_END
 95
        8
302
GRIDFORMAT
  1
GRIDFORMAT_BEGIN
 90
        0
 91
        1
 62
     0
 92
       -2
340
14
 93
        0
 40
0.045
309
GRIDFORMAT_END
 95
       16
302
GRIDFORMAT
  1
GRIDFORMAT_BEGIN
 90
        0
 91
        1
 62
     0
 92
       -2
340
14
 93
        0
 40
0.045
309
GRIDFORMAT_END
 95
       32
302
GRIDFORMAT
  1
GRIDFORMAT_BEGIN
 90
        0
 91
        1
 62
     0
 92
       -2
340
14
 93
        0
 40
0.045
309
GRIDFORMAT_END
309
TABLEFORMAT_END
  1
CELLSTYLE_BEGIN
 90
        1
 91
        1
300
_TITLE
309
CELLSTYLE_END
300
CELLSTYLE
  1
TABLEFORMAT_BEGIN
 90
        5
170
     1
 91
        0
 92
        0
 62
   257
 93
        1
300
CONTENTFORMAT
  1
CONTENTFORMAT_BEGIN
 90
        0
 91
        0
 92
        4
 93
        0
300

 40
0.0
140
1.0
 94
        5
 62
     0
340
11
144
4.5
309
CONTENTFORMAT_END
171
     1
301
MARGIN
  1
CELLMARGIN_BEGIN
 40
1.5
 40
1.5
 40
1.5
 40
1.5
 40
1.5
 40
1.5
309
CELLMARGIN_END
 94
        6
 95
        1
302
GRIDFORMAT
  1
GRIDFORMAT_BEGIN
 90
        0
 91
        1
 62
     0
 92
       -2
340
14
 93
        0
 40
0.045
309
GRIDFORMAT_END
 95
        2
302
GRIDFORMAT
  1
GRIDFORMAT_BEGIN
 90
        0
 91
        1
 62
     0
 92
       -2
340
14
 93
        0
 40
0.045
309
GRIDFORMAT_END
 95
        4
302
GRIDFORMAT
  1
GRIDFORMAT_BEGIN
 90
        0
 91
        1
 62
     0
 92
       -2
340
14
 93
        0
 40
0.045
309
GRIDFORMAT_END
 95
        8
302
GRIDFORMAT
  1
GRIDFORMAT_BEGIN
 90
        0
 91
        1
 62
     0
 92
       -2
340
14
 93
        0
 40
0.045
309
GRIDFORMAT_END
 95
       16
302
GRIDFORMAT
  1
GRIDFORMAT_BEGIN
 90
        0
 91
        1
 62
     0
 92
       -2
340
14
 93
        0
 40
0.045
309
GRIDFORMAT_END
 95
       32
302
GRIDFORMAT
  1
GRIDFORMAT_BEGIN
 90
        0
 91
        1
 62
     0
 92
       -2
340
14
 93
        0
 40
0.045
309
GRIDFORMAT_END
309
TABLEFORMAT_END
  1
CELLSTYLE_BEGIN
 90
        2
 91
        1
300
_HEADER
309
CELLSTYLE_END
300
CELLSTYLE
  1
TABLEFORMAT_BEGIN
 90
        5
170
     1
 91
        0
 92
        0
 62
   257
 93
        1
300
CONTENTFORMAT
  1
CONTENTFORMAT_BEGIN
 90
        0
 91
        0
 92
        4
 93
        0
300

 40
0.0
140
1.0
 94
        2
 62
     0
340
11
144
4.5
309
CONTENTFORMAT_END
171
     1
301
MARGIN
  1
CELLMARGIN_BEGIN
 40
1.5
 40
1.5
 40
1.5
 40
1.5
 40
1.5
 40
1.5
309
CELLMARGIN_END
 94
        6
 95
        1
302
GRIDFORMAT
  1
GRIDFORMAT_BEGIN
 90
        0
 91
        1
 62
     0
 92
       -2
340
14
 93
        0
 40
0.045
309
GRIDFORMAT_END
 95
        2
302
GRIDFORMAT
  1
GRIDFORMAT_BEGIN
 90
        0
 91
        1
 62
     0
 92
       -2
340
14
 93
        0
 40
0.045
309
GRIDFORMAT_END
 95
        4
302
GRIDFORMAT
  1
GRIDFORMAT_BEGIN
 90
        0
 91
        1
 62
     0
 92
       -2
340
14
 93
        0
 40
0.045
309
GRIDFORMAT_END
 95
        8
302
GRIDFORMAT
  1
GRIDFORMAT_BEGIN
 90
        0
 91
        1
 62
     0
 92
       -2
340
14
 93
        0
 40
0.045
309
GRIDFORMAT_END
 95
       16
302
GRIDFORMAT
  1
GRIDFORMAT_BEGIN
 90
        0
 91
        1
 62
     0
 92
       -2
340
14
 93
        0
 40
0.045
309
GRIDFORMAT_END
 95
       32
302
GRIDFORMAT
  1
GRIDFORMAT_BEGIN
 90
        0
 91
        1
 62
     0
 92
       -2
340
14
 93
        0
 40
0.045
309
GRIDFORMAT_END
309
TABLEFORMAT_END
  1
CELLSTYLE_BEGIN
 90
        3
 91
        2
300
_DATA
309
CELLSTYLE_END
  0
XRECORD
  5
3E7
102
{ACAD_REACTORS
330
3E6
102
}
330
3E6
100
AcDbXrecord
280
     1
102
ACAD_ROUNDTRIP_PRE2007_TABLESTYLE
 90
        4
 91
        0
  1

 92
        4
 93
        0
  2

 94
        4
 95
        0
  3

  0
XRECORD
  5
3B9
102
{ACAD_REACTORS
330
3B8
102
}
330
3B8
100
AcDbXrecord
280
     1
102
RTVSPropertyOp0
 70
     1
102
RTVSPropertyOp1
 70
     1
102
RTVSPropertyOp2
 70
     1
102
RTVSPropertyOp3
 70
     1
102
RTVSPropertyOp4
 70
     1
102
RTVSPropertyOp5
 70
     1
102
RTVSPropertyOp6
 70
     1
102
RTVSPropertyOp7
 70
     1
102
RTVSPropertyOp8
 70
     1
102
RTVSPropertyOp9
 70
     1
102
RTVSPropertyOp10
 70
     1
102
RTVSPropertyOp11
 70
     1
102
RTVSPropertyOp12
 70
     1
102
RTVSPropertyOp13
 70
     1
102
RTVSPropertyOp14
 70
     1
102
RTVSPropertyOp15
 70
     1
102
RTVSPropertyOp16
 70
     1
102
RTVSPropertyOp17
 70
     1
102
RTVSPropertyOp18
 70
     1
102
RTVSPropertyOp19
 70
     1
102
RTVSPropertyOp20
 70
     1
102
RTVSPropertyOp21
 70
     1
102
RTVSPropertyOp22
 70
     1
102
RTVSPropertyOp23
 70
     1
102
RTVSPropertyOp24
 70
     1
102
RTVSPropertyOp25
 70
     1
102
RTVSPropertyOp26
 70
     1
102
RTVSPropertyOp27
 70
     1
102
RTVSPropertyOp28
 70
     1
102
RTVSPropertyOp29
 70
     1
102
RTVSPropertyOp30
 70
     1
102
RTVSPropertyOp31
 70
     1
102
RTVSPropertyOp32
 70
     1
102
RTVSPropertyOp33
 70
     1
102
RTVSPropertyOp34
 70
     1
102
RTVSPropertyOp35
 70
     1
102
RTVSPropertyOp36
 70
     1
102
RTVSPropertyOp37
 70
     1
102
RTVSPropertyOp38
 70
     1
102
RTVSPropertyOp39
 70
     1
102
RTVSPropertyOp40
 70
     1
102
RTVSPropertyOp41
 70
     1
102
RTVSPropertyOp42
 70
     1
102
RTVSPropertyOp43
 70
     1
102
RTVSPropertyOp44
 70
     1
102
RTVSPropertyOp45
 70
     1
102
RTVSPropertyOp46
 70
     1
102
RTVSPropertyOp47
 70
     1
102
RTVSPropertyOp48
 70
     1
102
RTVSPropertyOp49
 70
     1
102
RTVSPropertyOp50
 70
     1
102
RTVSPropertyOp51
 70
     0
102
RTVSPropertyOp52
 70
     0
102
RTVSPropertyOp53
 70
     1
102
RTVSPropertyOp54
 70
     1
102
RTVSPropertyOp55
 70
     1
102
RTVSPropertyOp56
 70
     1
102
RTVSPropertyOp57
 70
     1
102
RTVSPost2010Prop28
280
     1
102
RTVSPost2010PropOp28
 70
     1
102
RTVSPost2010Prop29
280
     1
102
RTVSPost2010PropOp29
 70
     1
102
RTVSPost2010Prop30
280
     0
102
RTVSPost2010PropOp30
 70
     1
102
RTVSPost2010Prop31
280
     0
102
RTVSPost2010PropOp31
 70
     1
102
RTVSPost2010Prop32
280
     0
102
RTVSPost2010PropOp32
 70
     1
102
RTVSPost2010Prop33
280
     0
102
RTVSPost2010PropOp33
 70
     1
102
RTVSPost2010Prop34
280
     0
102
RTVSPost2010PropOp34
 70
     1
102
RTVSPost2010Prop35
280
     0
102
RTVSPost2010PropOp35
 70
     1
102
RTVSPost2010Prop36
280
     0
102
RTVSPost2010PropOp36
 70
     1
102
RTVSPost2010Prop37
 90
       50
102
RTVSPost2010PropOp37
 70
     1
102
RTVSPost2010Prop38
140
0.0
102
RTVSPost2010PropOp38
 70
     1
102
RTVSPost2010Prop39
140
1.0
102
RTVSPost2010PropOp39
 70
     1
102
RTVSPost2010Prop40
 90
        0
102
RTVSPost2010PropOp40
 70
     1
102
RTVSPost2010Prop41ColorIndex
 90
       18
102
RTVSPost2010Prop41ColorRGB
 90
        0
102
RTVSPost2010PropOp41
 70
     1
102
RTVSPost2010Prop42
 90
       50
102
RTVSPost2010PropOp42
 70
     1
102
RTVSPost2010Prop43
 90
        3
102
RTVSPost2010PropOp43
 70
     1
102
RTVSPost2010Prop44ColorIndex
 90
        5
102
RTVSPost2010Prop44ColorRGB
 90
      255
102
RTVSPost2010PropOp44
 70
     1
102
RTVSPost2010Prop45
280
     0
102
RTVSPost2010PropOp45
 70
     1
102
RTVSPost2010Prop46
 90
       50
102
RTVSPost2010PropOp46
 70
     1
102
RTVSPost2010Prop47
 90
       50
102
RTVSPost2010PropOp47
 70
     1
102
RTVSPost2010Prop48
 90
       50
102
RTVSPost2010PropOp48
 70
     1
102
RTVSPost2010Prop49
280
     0
102
RTVSPost2010PropOp49
 70
     1
102
RTVSPost2010Prop50
 90
       50
102
RTVSPost2010PropOp50
 70
     1
102
RTVSPost2010Prop51ColorIndex
 90
      256
102
RTVSPost2010Prop51ColorRGB
 90
-16777216
102
RTVSPost2010PropOp51
 70
     0
102
RTVSPost2010Prop52
140
1.0
102
RTVSPost2010PropOp52
 70
     0
102
RTVSPost2010Prop53
 90
        2
102
RTVSPost2010PropOp53
 70
     1
102
RTVSPost2010Prop54
  1
strokes_ogs.tif
102
RTVSPost2010PropOp54
 70
     1
102
RTVSPost2010Prop55
280
     0
102
RTVSPost2010PropOp55
 70
     1
102
RTVSPost2010Prop56
140
1.0
102
RTVSPost2010PropOp56
 70
     1
102
RTVSPost2010Prop57
140
1.0
102
RTVSPost2010PropOp57
 70
     1
  0
XRECORD
  5
3BF
102
{ACAD_REACTORS
330
3BE
102
}
330
3BE
100
AcDbXrecord
280
     1
102
RTVSPropertyOp0
 70
     1
102
RTVSPropertyOp1
 70
     1
102
RTVSPropertyOp2
 70
     1
102
RTVSPropertyOp3
 70
     1
102
RTVSPropertyOp4
 70
     1
102
RTVSPropertyOp5
 70
     1
102
RTVSPropertyOp6
 70
     1
102
RTVSPropertyOp7
 70
     1
102
RTVSPropertyOp8
 70
     1
102
RTVSPropertyOp9
 70
     1
102
RTVSPropertyOp10
 70
     1
102
RTVSPropertyOp11
 70
     1
102
RTVSPropertyOp12
 70
     1
102
RTVSPropertyOp13
 70
     1
102
RTVSPropertyOp14
 70
     1
102
RTVSPropertyOp15
 70
     1
102
RTVSPropertyOp16
 70
     1
102
RTVSPropertyOp17
 70
     1
102
RTVSPropertyOp18
 70
     1
102
RTVSPropertyOp19
 70
     1
102
RTVSPropertyOp20
 70
     1
102
RTVSPropertyOp21
 70
     1
102
RTVSPropertyOp22
 70
     1
102
RTVSPropertyOp23
 70
     1
102
RTVSPropertyOp24
 70
     1
102
RTVSPropertyOp25
 70
     1
102
RTVSPropertyOp26
 70
     1
102
RTVSPropertyOp27
 70
     1
102
RTVSPropertyOp28
 70
     1
102
RTVSPropertyOp29
 70
     1
102
RTVSPropertyOp30
 70
     1
102
RTVSPropertyOp31
 70
     1
102
RTVSPropertyOp32
 70
     1
102
RTVSPropertyOp33
 70
     1
102
RTVSPropertyOp34
 70
     1
102
RTVSPropertyOp35
 70
     1
102
RTVSPropertyOp36
 70
     1
102
RTVSPropertyOp37
 70
     1
102
RTVSPropertyOp38
 70
     1
102
RTVSPropertyOp39
 70
     1
102
RTVSPropertyOp40
 70
     1
102
RTVSPropertyOp41
 70
     1
102
RTVSPropertyOp42
 70
     1
102
RTVSPropertyOp43
 70
     1
102
RTVSPropertyOp44
 70
     1
102
RTVSPropertyOp45
 70
     1
102
RTVSPropertyOp46
 70
     1
102
RTVSPropertyOp47
 70
     1
102
RTVSPropertyOp48
 70
     1
102
RTVSPropertyOp49
 70
     1
102
RTVSPropertyOp50
 70
     1
102
RTVSPropertyOp51
 70
     0
102
RTVSPropertyOp52
 70
     0
102
RTVSPropertyOp53
 70
     1
102
RTVSPropertyOp54
 70
     1
102
RTVSPropertyOp55
 70
     1
102
RTVSPropertyOp56
 70
     1
102
RTVSPropertyOp57
 70
     1
102
RTVSPost2010Prop28
280
     0
102
RTVSPost2010PropOp28
 70
     1
102
RTVSPost2010Prop29
280
     1
102
RTVSPost2010PropOp29
 70
     1
102
RTVSPost2010Prop30
280
     1
102
RTVSPost2010PropOp30
 70
     1
102
RTVSPost2010Prop31
280
     0
102
RTVSPost2010PropOp31
 70
     1
102
RTVSPost2010Prop32
280
     0
102
RTVSPost2010PropOp32
 70
     1
102
RTVSPost2010Prop33
280
     0
102
RTVSPost2010PropOp33
 70
     1
102
RTVSPost2010Prop34
280
     0
102
RTVSPost2010PropOp34
 70
     1
102
RTVSPost2010Prop35
280
     0
102
RTVSPost2010PropOp35
 70
     1
102
RTVSPost2010Prop36
280
     0
102
RTVSPost2010PropOp36
 70
     1
102
RTVSPost2010Prop37
 90
       50
102
RTVSPost2010PropOp37
 70
     1
102
RTVSPost2010Prop38
140
0.0
102
RTVSPost2010PropOp38
 70
     1
102
RTVSPost2010Prop39
140
1.0
102
RTVSPost2010PropOp39
 70
     1
102
RTVSPost2010Prop40
 90
        0
102
RTVSPost2010PropOp40
 70
     1
102
RTVSPost2010Prop41ColorIndex
 90
       18
102
RTVSPost2010Prop41ColorRGB
 90
        0
102
RTVSPost2010PropOp41
 70
     1
102
RTVSPost2010Prop42
 90
       50
102
RTVSPost2010PropOp42
 70
     1
102
RTVSPost2010Prop43
 90
        3
102
RTVSPost2010PropOp43
 70
     1
102
RTVSPost2010Prop44ColorIndex
 90
        5
102
RTVSPost2010Prop44ColorRGB
 90
      255
102
RTVSPost2010PropOp44
 70
     1
102
RTVSPost2010Prop45
280
     0
102
RTVSPost2010PropOp45
 70
     1
102
RTVSPost2010Prop46
 90
       50
102
RTVSPost2010PropOp46
 70
     1
102
RTVSPost2010Prop47
 90
       50
102
RTVSPost2010PropOp47
 70
     1
102
RTVSPost2010Prop48
 90
       50
102
RTVSPost2010PropOp48
 70
     1
102
RTVSPost2010Prop49
280
     0
102
RTVSPost2010PropOp49
 70
     1
102
RTVSPost2010Prop50
 90
       50
102
RTVSPost2010PropOp50
 70
     1
102
RTVSPost2010Prop51ColorIndex
 90
      256
102
RTVSPost2010Prop51ColorRGB
 90
-16777216
102
RTVSPost2010PropOp51
 70
     0
102
RTVSPost2010Prop52
140
1.0
102
RTVSPost2010PropOp52
 70
     0
102
RTVSPost2010Prop53
 90
        2
102
RTVSPost2010PropOp53
 70
     1
102
RTVSPost2010Prop54
  1
strokes_ogs.tif
102
RTVSPost2010PropOp54
 70
     1
102
RTVSPost2010Prop55
280
     0
102
RTVSPost2010PropOp55
 70
     1
102
RTVSPost2010Prop56
140
1.0
102
RTVSPost2010PropOp56
 70
     1
102
RTVSPost2010Prop57
140
1.0
102
RTVSPost2010PropOp57
 70
     1
  0
XRECORD
  5
3C7
102
{ACAD_REACTORS
330
3C6
102
}
330
3C6
100
AcDbXrecord
280
     1
102
RTVSPropertyOp0
 70
     1
102
RTVSPropertyOp1
 70
     1
102
RTVSPropertyOp2
 70
     1
102
RTVSPropertyOp3
 70
     1
102
RTVSPropertyOp4
 70
     1
102
RTVSPropertyOp5
 70
     1
102
RTVSPropertyOp6
 70
     1
102
RTVSPropertyOp7
 70
     1
102
RTVSPropertyOp8
 70
     1
102
RTVSPropertyOp9
 70
     1
102
RTVSPropertyOp10
 70
     1
102
RTVSPropertyOp11
 70
     1
102
RTVSPropertyOp12
 70
     1
102
RTVSPropertyOp13
 70
     1
102
RTVSPropertyOp14
 70
     1
102
RTVSPropertyOp15
 70
     1
102
RTVSPropertyOp16
 70
     1
102
RTVSPropertyOp17
 70
     1
102
RTVSPropertyOp18
 70
     1
102
RTVSPropertyOp19
 70
     1
102
RTVSPropertyOp20
 70
     1
102
RTVSPropertyOp21
 70
     1
102
RTVSPropertyOp22
 70
     1
102
RTVSPropertyOp23
 70
     1
102
RTVSPropertyOp24
 70
     1
102
RTVSPropertyOp25
 70
     1
102
RTVSPropertyOp26
 70
     1
102
RTVSPropertyOp27
 70
     1
102
RTVSPropertyOp28
 70
     1
102
RTVSPropertyOp29
 70
     1
102
RTVSPropertyOp30
 70
     1
102
RTVSPropertyOp31
 70
     1
102
RTVSPropertyOp32
 70
     1
102
RTVSPropertyOp33
 70
     1
102
RTVSPropertyOp34
 70
     1
102
RTVSPropertyOp35
 70
     1
102
RTVSPropertyOp36
 70
     1
102
RTVSPropertyOp37
 70
     1
102
RTVSPropertyOp38
 70
     1
102
RTVSPropertyOp39
 70
     1
102
RTVSPropertyOp40
 70
     1
102
RTVSPropertyOp41
 70
     1
102
RTVSPropertyOp42
 70
     1
102
RTVSPropertyOp43
 70
     1
102
RTVSPropertyOp44
 70
     1
102
RTVSPropertyOp45
 70
     1
102
RTVSPropertyOp46
 70
     1
102
RTVSPropertyOp47
 70
     1
102
RTVSPropertyOp48
 70
     1
102
RTVSPropertyOp49
 70
     1
102
RTVSPropertyOp50
 70
     1
102
RTVSPropertyOp51
 70
     0
102
RTVSPropertyOp52
 70
     0
102
RTVSPropertyOp53
 70
     1
102
RTVSPropertyOp54
 70
     1
102
RTVSPropertyOp55
 70
     1
102
RTVSPropertyOp56
 70
     1
102
RTVSPropertyOp57
 70
     1
102
RTVSPost2010Prop28
280
     0
102
RTVSPost2010PropOp28
 70
     1
102
RTVSPost2010Prop29
280
     1
102
RTVSPost2010PropOp29
 70
     1
102
RTVSPost2010Prop30
280
     1
102
RTVSPost2010PropOp30
 70
     1
102
RTVSPost2010Prop31
280
     0
102
RTVSPost2010PropOp31
 70
     1
102
RTVSPost2010Prop32
280
     0
102
RTVSPost2010PropOp32
 70
     1
102
RTVSPost2010Prop33
280
     0
102
RTVSPost2010PropOp33
 70
     1
102
RTVSPost2010Prop34
280
     0
102
RTVSPost2010PropOp34
 70
     1
102
RTVSPost2010Prop35
280
     0
102
RTVSPost2010PropOp35
 70
     1
102
RTVSPost2010Prop36
280
     0
102
RTVSPost2010PropOp36
 70
     1
102
RTVSPost2010Prop37
 90
       50
102
RTVSPost2010PropOp37
 70
     1
102
RTVSPost2010Prop38
140
0.0
102
RTVSPost2010PropOp38
 70
     1
102
RTVSPost2010Prop39
140
1.0
102
RTVSPost2010PropOp39
 70
     1
102
RTVSPost2010Prop40
 90
        0
102
RTVSPost2010PropOp40
 70
     1
102
RTVSPost2010Prop41ColorIndex
 90
       18
102
RTVSPost2010Prop41ColorRGB
 90
        0
102
RTVSPost2010PropOp41
 70
     1
102
RTVSPost2010Prop42
 90
       50
102
RTVSPost2010PropOp42
 70
     1
102
RTVSPost2010Prop43
 90
        3
102
RTVSPost2010PropOp43
 70
     1
102
RTVSPost2010Prop44ColorIndex
 90
        5
102
RTVSPost2010Prop44ColorRGB
 90
      255
102
RTVSPost2010PropOp44
 70
     1
102
RTVSPost2010Prop45
280
     0
102
RTVSPost2010PropOp45
 70
     1
102
RTVSPost2010Prop46
 90
       50
102
RTVSPost2010PropOp46
 70
     1
102
RTVSPost2010Prop47
 90
       50
102
RTVSPost2010PropOp47
 70
     1
102
RTVSPost2010Prop48
 90
       50
102
RTVSPost2010PropOp48
 70
     1
102
RTVSPost2010Prop49
280
     0
102
RTVSPost2010PropOp49
 70
     1
102
RTVSPost2010Prop50
 90
       50
102
RTVSPost2010PropOp50
 70
     1
102
RTVSPost2010Prop51ColorIndex
 90
      256
102
RTVSPost2010Prop51ColorRGB
 90
-16777216
102
RTVSPost2010PropOp51
 70
     0
102
RTVSPost2010Prop52
140
1.0
102
RTVSPost2010PropOp52
 70
     0
102
RTVSPost2010Prop53
 90
        2
102
RTVSPost2010PropOp53
 70
     1
102
RTVSPost2010Prop54
  1
strokes_ogs.tif
102
RTVSPost2010PropOp54
 70
     1
102
RTVSPost2010Prop55
280
     0
102
RTVSPost2010PropOp55
 70
     1
102
RTVSPost2010Prop56
140
1.0
102
RTVSPost2010PropOp56
 70
     1
102
RTVSPost2010Prop57
140
1.0
102
RTVSPost2010PropOp57
 70
     1
  0
XRECORD
  5
3CF
102
{ACAD_REACTORS
330
3CE
102
}
330
3CE
100
AcDbXrecord
280
     1
102
RTVSPropertyOp0
 70
     1
102
RTVSPropertyOp1
 70
     1
102
RTVSPropertyOp2
 70
     1
102
RTVSPropertyOp3
 70
     1
102
RTVSPropertyOp4
 70
     1
102
RTVSPropertyOp5
 70
     1
102
RTVSPropertyOp6
 70
     1
102
RTVSPropertyOp7
 70
     1
102
RTVSPropertyOp8
 70
     1
102
RTVSPropertyOp9
 70
     1
102
RTVSPropertyOp10
 70
     1
102
RTVSPropertyOp11
 70
     1
102
RTVSPropertyOp12
 70
     1
102
RTVSPropertyOp13
 70
     1
102
RTVSPropertyOp14
 70
     1
102
RTVSPropertyOp15
 70
     1
102
RTVSPropertyOp16
 70
     1
102
RTVSPropertyOp17
 70
     1
102
RTVSPropertyOp18
 70
     1
102
RTVSPropertyOp19
 70
     1
102
RTVSPropertyOp20
 70
     1
102
RTVSPropertyOp21
 70
     1
102
RTVSPropertyOp22
 70
     1
102
RTVSPropertyOp23
 70
     1
102
RTVSPropertyOp24
 70
     1
102
RTVSPropertyOp25
 70
     1
102
RTVSPropertyOp26
 70
     1
102
RTVSPropertyOp27
 70
     1
102
RTVSPropertyOp28
 70
     1
102
RTVSPropertyOp29
 70
     1
102
RTVSPropertyOp30
 70
     1
102
RTVSPropertyOp31
 70
     1
102
RTVSPropertyOp32
 70
     1
102
RTVSPropertyOp33
 70
     1
102
RTVSPropertyOp34
 70
     1
102
RTVSPropertyOp35
 70
     1
102
RTVSPropertyOp36
 70
     1
102
RTVSPropertyOp37
 70
     1
102
RTVSPropertyOp38
 70
     1
102
RTVSPropertyOp39
 70
     1
102
RTVSPropertyOp40
 70
     1
102
RTVSPropertyOp41
 70
     1
102
RTVSPropertyOp42
 70
     1
102
RTVSPropertyOp43
 70
     1
102
RTVSPropertyOp44
 70
     1
102
RTVSPropertyOp45
 70
     1
102
RTVSPropertyOp46
 70
     1
102
RTVSPropertyOp47
 70
     1
102
RTVSPropertyOp48
 70
     1
102
RTVSPropertyOp49
 70
     1
102
RTVSPropertyOp50
 70
     1
102
RTVSPropertyOp51
 70
     0
102
RTVSPropertyOp52
 70
     0
102
RTVSPropertyOp53
 70
     1
102
RTVSPropertyOp54
 70
     1
102
RTVSPropertyOp55
 70
     1
102
RTVSPropertyOp56
 70
     1
102
RTVSPropertyOp57
 70
     1
102
RTVSPost2010Prop28
280
     0
102
RTVSPost2010PropOp28
 70
     1
102
RTVSPost2010Prop29
280
     1
102
RTVSPost2010PropOp29
 70
     1
102
RTVSPost2010Prop30
280
     1
102
RTVSPost2010PropOp30
 70
     1
102
RTVSPost2010Prop31
280
     0
102
RTVSPost2010PropOp31
 70
     1
102
RTVSPost2010Prop32
280
     0
102
RTVSPost2010PropOp32
 70
     1
102
RTVSPost2010Prop33
280
     0
102
RTVSPost2010PropOp33
 70
     1
102
RTVSPost2010Prop34
280
     0
102
RTVSPost2010PropOp34
 70
     1
102
RTVSPost2010Prop35
280
     0
102
RTVSPost2010PropOp35
 70
     1
102
RTVSPost2010Prop36
280
     0
102
RTVSPost2010PropOp36
 70
     1
102
RTVSPost2010Prop37
 90
       50
102
RTVSPost2010PropOp37
 70
     1
102
RTVSPost2010Prop38
140
0.0
102
RTVSPost2010PropOp38
 70
     1
102
RTVSPost2010Prop39
140
1.0
102
RTVSPost2010PropOp39
 70
     1
102
RTVSPost2010Prop40
 90
        0
102
RTVSPost2010PropOp40
 70
     1
102
RTVSPost2010Prop41ColorIndex
 90
       18
102
RTVSPost2010Prop41ColorRGB
 90
        0
102
RTVSPost2010PropOp41
 70
     1
102
RTVSPost2010Prop42
 90
       50
102
RTVSPost2010PropOp42
 70
     1
102
RTVSPost2010Prop43
 90
        3
102
RTVSPost2010PropOp43
 70
     1
102
RTVSPost2010Prop44ColorIndex
 90
        5
102
RTVSPost2010Prop44ColorRGB
 90
      255
102
RTVSPost2010PropOp44
 70
     1
102
RTVSPost2010Prop45
280
     0
102
RTVSPost2010PropOp45
 70
     1
102
RTVSPost2010Prop46
 90
       50
102
RTVSPost2010PropOp46
 70
     1
102
RTVSPost2010Prop47
 90
       50
102
RTVSPost2010PropOp47
 70
     1
102
RTVSPost2010Prop48
 90
       50
102
RTVSPost2010PropOp48
 70
     1
102
RTVSPost2010Prop49
280
     0
102
RTVSPost2010PropOp49
 70
     1
102
RTVSPost2010Prop50
 90
       50
102
RTVSPost2010PropOp50
 70
     1
102
RTVSPost2010Prop51ColorIndex
 90
      256
102
RTVSPost2010Prop51ColorRGB
 90
-16777216
102
RTVSPost2010PropOp51
 70
     0
102
RTVSPost2010Prop52
140
1.0
102
RTVSPost2010PropOp52
 70
     0
102
RTVSPost2010Prop53
 90
        2
102
RTVSPost2010PropOp53
 70
     1
102
RTVSPost2010Prop54
  1
strokes_ogs.tif
102
RTVSPost2010PropOp54
 70
     1
102
RTVSPost2010Prop55
280
     0
102
RTVSPost2010PropOp55
 70
     1
102
RTVSPost2010Prop56
140
1.0
102
RTVSPost2010PropOp56
 70
     1
102
RTVSPost2010Prop57
140
1.0
102
RTVSPost2010PropOp57
 70
     1
  0
XRECORD
  5
3C3
102
{ACAD_REACTORS
330
3C2
102
}
330
3C2
100
AcDbXrecord
280
     1
102
RTVSPropertyOp0
 70
     1
102
RTVSPropertyOp1
 70
     1
102
RTVSPropertyOp2
 70
     1
102
RTVSPropertyOp3
 70
     1
102
RTVSPropertyOp4
 70
     1
102
RTVSPropertyOp5
 70
     1
102
RTVSPropertyOp6
 70
     1
102
RTVSPropertyOp7
 70
     1
102
RTVSPropertyOp8
 70
     1
102
RTVSPropertyOp9
 70
     1
102
RTVSPropertyOp10
 70
     1
102
RTVSPropertyOp11
 70
     1
102
RTVSPropertyOp12
 70
     1
102
RTVSPropertyOp13
 70
     1
102
RTVSPropertyOp14
 70
     1
102
RTVSPropertyOp15
 70
     1
102
RTVSPropertyOp16
 70
     1
102
RTVSPropertyOp17
 70
     1
102
RTVSPropertyOp18
 70
     1
102
RTVSPropertyOp19
 70
     1
102
RTVSPropertyOp20
 70
     1
102
RTVSPropertyOp21
 70
     1
102
RTVSPropertyOp22
 70
     1
102
RTVSPropertyOp23
 70
     1
102
RTVSPropertyOp24
 70
     1
102
RTVSPropertyOp25
 70
     1
102
RTVSPropertyOp26
 70
     1
102
RTVSPropertyOp27
 70
     1
102
RTVSPropertyOp28
 70
     1
102
RTVSPropertyOp29
 70
     1
102
RTVSPropertyOp30
 70
     1
102
RTVSPropertyOp31
 70
     1
102
RTVSPropertyOp32
 70
     1
102
RTVSPropertyOp33
 70
     1
102
RTVSPropertyOp34
 70
     1
102
RTVSPropertyOp35
 70
     1
102
RTVSPropertyOp36
 70
     1
102
RTVSPropertyOp37
 70
     1
102
RTVSPropertyOp38
 70
     1
102
RTVSPropertyOp39
 70
     1
102
RTVSPropertyOp40
 70
     1
102
RTVSPropertyOp41
 70
     1
102
RTVSPropertyOp42
 70
     1
102
RTVSPropertyOp43
 70
     1
102
RTVSPropertyOp44
 70
     1
102
RTVSPropertyOp45
 70
     1
102
RTVSPropertyOp46
 70
     1
102
RTVSPropertyOp47
 70
     1
102
RTVSPropertyOp48
 70
     1
102
RTVSPropertyOp49
 70
     1
102
RTVSPropertyOp50
 70
     1
102
RTVSPropertyOp51
 70
     0
102
RTVSPropertyOp52
 70
     0
102
RTVSPropertyOp53
 70
     1
102
RTVSPropertyOp54
 70
     1
102
RTVSPropertyOp55
 70
     1
102
RTVSPropertyOp56
 70
     1
102
RTVSPropertyOp57
 70
     1
102
RTVSPost2010Prop28
280
     0
102
RTVSPost2010PropOp28
 70
     1
102
RTVSPost2010Prop29
280
     1
102
RTVSPost2010PropOp29
 70
     1
102
RTVSPost2010Prop30
280
     1
102
RTVSPost2010PropOp30
 70
     1
102
RTVSPost2010Prop31
280
     0
102
RTVSPost2010PropOp31
 70
     1
102
RTVSPost2010Prop32
280
     0
102
RTVSPost2010PropOp32
 70
     1
102
RTVSPost2010Prop33
280
     0
102
RTVSPost2010PropOp33
 70
     1
102
RTVSPost2010Prop34
280
     0
102
RTVSPost2010PropOp34
 70
     1
102
RTVSPost2010Prop35
280
     0
102
RTVSPost2010PropOp35
 70
     1
102
RTVSPost2010Prop36
280
     0
102
RTVSPost2010PropOp36
 70
     1
102
RTVSPost2010Prop37
 90
       50
102
RTVSPost2010PropOp37
 70
     1
102
RTVSPost2010Prop38
140
0.0
102
RTVSPost2010PropOp38
 70
     1
102
RTVSPost2010Prop39
140
1.0
102
RTVSPost2010PropOp39
 70
     1
102
RTVSPost2010Prop40
 90
        0
102
RTVSPost2010PropOp40
 70
     1
102
RTVSPost2010Prop41ColorIndex
 90
       18
102
RTVSPost2010Prop41ColorRGB
 90
        0
102
RTVSPost2010PropOp41
 70
     1
102
RTVSPost2010Prop42
 90
       50
102
RTVSPost2010PropOp42
 70
     1
102
RTVSPost2010Prop43
 90
        3
102
RTVSPost2010PropOp43
 70
     1
102
RTVSPost2010Prop44ColorIndex
 90
        5
102
RTVSPost2010Prop44ColorRGB
 90
      255
102
RTVSPost2010PropOp44
 70
     1
102
RTVSPost2010Prop45
280
     0
102
RTVSPost2010PropOp45
 70
     1
102
RTVSPost2010Prop46
 90
       50
102
RTVSPost2010PropOp46
 70
     1
102
RTVSPost2010Prop47
 90
       50
102
RTVSPost2010PropOp47
 70
     1
102
RTVSPost2010Prop48
 90
       50
102
RTVSPost2010PropOp48
 70
     1
102
RTVSPost2010Prop49
280
     0
102
RTVSPost2010PropOp49
 70
     1
102
RTVSPost2010Prop50
 90
       50
102
RTVSPost2010PropOp50
 70
     1
102
RTVSPost2010Prop51ColorIndex
 90
      256
102
RTVSPost2010Prop51ColorRGB
 90
-16777216
102
RTVSPost2010PropOp51
 70
     0
102
RTVSPost2010Prop52
140
1.0
102
RTVSPost2010PropOp52
 70
     0
102
RTVSPost2010Prop53
 90
        2
102
RTVSPost2010PropOp53
 70
     1
102
RTVSPost2010Prop54
  1
strokes_ogs.tif
102
RTVSPost2010PropOp54
 70
     1
102
RTVSPost2010Prop55
280
     0
102
RTVSPost2010PropOp55
 70
     1
102
RTVSPost2010Prop56
140
1.0
102
RTVSPost2010PropOp56
 70
     1
102
RTVSPost2010Prop57
140
1.0
102
RTVSPost2010PropOp57
 70
     1
  0
XRECORD
  5
3C5
102
{ACAD_REACTORS
330
3C4
102
}
330
3C4
100
AcDbXrecord
280
     1
102
RTVSPropertyOp0
 70
     1
102
RTVSPropertyOp1
 70
     1
102
RTVSPropertyOp2
 70
     1
102
RTVSPropertyOp3
 70
     1
102
RTVSPropertyOp4
 70
     1
102
RTVSPropertyOp5
 70
     1
102
RTVSPropertyOp6
 70
     1
102
RTVSPropertyOp7
 70
     1
102
RTVSPropertyOp8
 70
     1
102
RTVSPropertyOp9
 70
     1
102
RTVSPropertyOp10
 70
     1
102
RTVSPropertyOp11
 70
     1
102
RTVSPropertyOp12
 70
     1
102
RTVSPropertyOp13
 70
     1
102
RTVSPropertyOp14
 70
     1
102
RTVSPropertyOp15
 70
     1
102
RTVSPropertyOp16
 70
     1
102
RTVSPropertyOp17
 70
     1
102
RTVSPropertyOp18
 70
     1
102
RTVSPropertyOp19
 70
     1
102
RTVSPropertyOp20
 70
     1
102
RTVSPropertyOp21
 70
     1
102
RTVSPropertyOp22
 70
     1
102
RTVSPropertyOp23
 70
     1
102
RTVSPropertyOp24
 70
     1
102
RTVSPropertyOp25
 70
     1
102
RTVSPropertyOp26
 70
     1
102
RTVSPropertyOp27
 70
     1
102
RTVSPropertyOp28
 70
     1
102
RTVSPropertyOp29
 70
     1
102
RTVSPropertyOp30
 70
     1
102
RTVSPropertyOp31
 70
     1
102
RTVSPropertyOp32
 70
     1
102
RTVSPropertyOp33
 70
     1
102
RTVSPropertyOp34
 70
     1
102
RTVSPropertyOp35
 70
     1
102
RTVSPropertyOp36
 70
     1
102
RTVSPropertyOp37
 70
     1
102
RTVSPropertyOp38
 70
     1
102
RTVSPropertyOp39
 70
     1
102
RTVSPropertyOp40
 70
     1
102
RTVSPropertyOp41
 70
     1
102
RTVSPropertyOp42
 70
     1
102
RTVSPropertyOp43
 70
     1
102
RTVSPropertyOp44
 70
     1
102
RTVSPropertyOp45
 70
     1
102
RTVSPropertyOp46
 70
     1
102
RTVSPropertyOp47
 70
     1
102
RTVSPropertyOp48
 70
     1
102
RTVSPropertyOp49
 70
     1
102
RTVSPropertyOp50
 70
     1
102
RTVSPropertyOp51
 70
     0
102
RTVSPropertyOp52
 70
     0
102
RTVSPropertyOp53
 70
     1
102
RTVSPropertyOp54
 70
     1
102
RTVSPropertyOp55
 70
     1
102
RTVSPropertyOp56
 70
     1
102
RTVSPropertyOp57
 70
     1
102
RTVSPost2010Prop28
280
     0
102
RTVSPost2010PropOp28
 70
     1
102
RTVSPost2010Prop29
280
     1
102
RTVSPost2010PropOp29
 70
     1
102
RTVSPost2010Prop30
280
     1
102
RTVSPost2010PropOp30
 70
     1
102
RTVSPost2010Prop31
280
     0
102
RTVSPost2010PropOp31
 70
     1
102
RTVSPost2010Prop32
280
     0
102
RTVSPost2010PropOp32
 70
     1
102
RTVSPost2010Prop33
280
     0
102
RTVSPost2010PropOp33
 70
     1
102
RTVSPost2010Prop34
280
     0
102
RTVSPost2010PropOp34
 70
     1
102
RTVSPost2010Prop35
280
     0
102
RTVSPost2010PropOp35
 70
     1
102
RTVSPost2010Prop36
280
     0
102
RTVSPost2010PropOp36
 70
     1
102
RTVSPost2010Prop37
 90
       50
102
RTVSPost2010PropOp37
 70
     1
102
RTVSPost2010Prop38
140
0.0
102
RTVSPost2010PropOp38
 70
     1
102
RTVSPost2010Prop39
140
1.0
102
RTVSPost2010PropOp39
 70
     1
102
RTVSPost2010Prop40
 90
        0
102
RTVSPost2010PropOp40
 70
     1
102
RTVSPost2010Prop41ColorIndex
 90
       18
102
RTVSPost2010Prop41ColorRGB
 90
        0
102
RTVSPost2010PropOp41
 70
     1
102
RTVSPost2010Prop42
 90
       50
102
RTVSPost2010PropOp42
 70
     1
102
RTVSPost2010Prop43
 90
        3
102
RTVSPost2010PropOp43
 70
     1
102
RTVSPost2010Prop44ColorIndex
 90
        5
102
RTVSPost2010Prop44ColorRGB
 90
      255
102
RTVSPost2010PropOp44
 70
     1
102
RTVSPost2010Prop45
280
     0
102
RTVSPost2010PropOp45
 70
     1
102
RTVSPost2010Prop46
 90
       50
102
RTVSPost2010PropOp46
 70
     1
102
RTVSPost2010Prop47
 90
       50
102
RTVSPost2010PropOp47
 70
     1
102
RTVSPost2010Prop48
 90
       50
102
RTVSPost2010PropOp48
 70
     1
102
RTVSPost2010Prop49
280
     0
102
RTVSPost2010PropOp49
 70
     1
102
RTVSPost2010Prop50
 90
       50
102
RTVSPost2010PropOp50
 70
     1
102
RTVSPost2010Prop51ColorIndex
 90
      256
102
RTVSPost2010Prop51ColorRGB
 90
-16777216
102
RTVSPost2010PropOp51
 70
     0
102
RTVSPost2010Prop52
140
1.0
102
RTVSPost2010PropOp52
 70
     0
102
RTVSPost2010Prop53
 90
        2
102
RTVSPost2010PropOp53
 70
     1
102
RTVSPost2010Prop54
  1
strokes_ogs.tif
102
RTVSPost2010PropOp54
 70
     1
102
RTVSPost2010Prop55
280
     0
102
RTVSPost2010PropOp55
 70
     1
102
RTVSPost2010Prop56
140
1.0
102
RTVSPost2010PropOp56
 70
     1
102
RTVSPost2010Prop57
140
1.0
102
RTVSPost2010PropOp57
 70
     1
  0
XRECORD
  5
3D5
102
{ACAD_REACTORS
330
3D4
102
}
330
3D4
100
AcDbXrecord
280
     1
102
RTVSPropertyOp0
 70
     0
102
RTVSPropertyOp1
 70
     0
102
RTVSPropertyOp2
 70
     0
102
RTVSPropertyOp3
 70
     0
102
RTVSPropertyOp4
 70
     0
102
RTVSPropertyOp5
 70
     0
102
RTVSPropertyOp6
 70
     0
102
RTVSPropertyOp7
 70
     0
102
RTVSPropertyOp8
 70
     0
102
RTVSPropertyOp9
 70
     0
102
RTVSPropertyOp10
 70
     0
102
RTVSPropertyOp11
 70
     0
102
RTVSPropertyOp12
 70
     0
102
RTVSPropertyOp13
 70
     0
102
RTVSPropertyOp14
 70
     2
102
RTVSPropertyOp15
 70
     0
102
RTVSPropertyOp16
 70
     0
102
RTVSPropertyOp17
 70
     0
102
RTVSPropertyOp18
 70
     0
102
RTVSPropertyOp19
 70
     0
102
RTVSPropertyOp20
 70
     0
102
RTVSPropertyOp21
 70
     0
102
RTVSPropertyOp22
 70
     0
102
RTVSPropertyOp23
 70
     0
102
RTVSPropertyOp24
 70
     0
102
RTVSPropertyOp25
 70
     0
102
RTVSPropertyOp26
 70
     0
102
RTVSPropertyOp27
 70
     0
102
RTVSPropertyOp28
 70
     0
102
RTVSPropertyOp29
 70
     0
102
RTVSPropertyOp30
 70
     0
102
RTVSPropertyOp31
 70
     0
102
RTVSPropertyOp32
 70
     0
102
RTVSPropertyOp33
 70
     0
102
RTVSPropertyOp34
 70
     0
102
RTVSPropertyOp35
 70
     0
102
RTVSPropertyOp36
 70
     0
102
RTVSPropertyOp37
 70
     0
102
RTVSPropertyOp38
 70
     0
102
RTVSPropertyOp39
 70
     0
102
RTVSPropertyOp40
 70
     0
102
RTVSPropertyOp41
 70
     0
102
RTVSPropertyOp42
 70
     0
102
RTVSPropertyOp43
 70
     0
102
RTVSPropertyOp44
 70
     0
102
RTVSPropertyOp45
 70
     0
102
RTVSPropertyOp46
 70
     0
102
RTVSPropertyOp47
 70
     0
102
RTVSPropertyOp48
 70
     0
102
RTVSPropertyOp49
 70
     0
102
RTVSPropertyOp50
 70
     0
102
RTVSPropertyOp51
 70
     0
102
RTVSPropertyOp52
 70
     0
102
RTVSPropertyOp53
 70
     0
102
RTVSPropertyOp54
 70
     0
102
RTVSPropertyOp55
 70
     0
102
RTVSPropertyOp56
 70
     0
102
RTVSPropertyOp57
 70
     0
102
RTVSPost2010Prop28
280
     0
102
RTVSPost2010PropOp28
 70
     0
102
RTVSPost2010Prop29
280
     1
102
RTVSPost2010PropOp29
 70
     0
102
RTVSPost2010Prop30
280
     1
102
RTVSPost2010PropOp30
 70
     0
102
RTVSPost2010Prop31
280
     0
102
RTVSPost2010PropOp31
 70
     0
102
RTVSPost2010Prop32
280
     0
102
RTVSPost2010PropOp32
 70
     0
102
RTVSPost2010Prop33
280
     0
102
RTVSPost2010PropOp33
 70
     0
102
RTVSPost2010Prop34
280
     0
102
RTVSPost2010PropOp34
 70
     0
102
RTVSPost2010Prop35
280
     0
102
RTVSPost2010PropOp35
 70
     0
102
RTVSPost2010Prop36
280
     0
102
RTVSPost2010PropOp36
 70
     0
102
RTVSPost2010Prop37
 90
       50
102
RTVSPost2010PropOp37
 70
     0
102
RTVSPost2010Prop38
140
0.0
102
RTVSPost2010PropOp38
 70
     0
102
RTVSPost2010Prop39
140
1.0
102
RTVSPost2010PropOp39
 70
     0
102
RTVSPost2010Prop40
 90
        0
102
RTVSPost2010PropOp40
 70
     0
102
RTVSPost2010Prop41ColorIndex
 90
       18
102
RTVSPost2010Prop41ColorRGB
 90
        0
102
RTVSPost2010PropOp41
 70
     0
102
RTVSPost2010Prop42
 90
       50
102
RTVSPost2010PropOp42
 70
     0
102
RTVSPost2010Prop43
 90
        3
102
RTVSPost2010PropOp43
 70
     0
102
RTVSPost2010Prop44ColorIndex
 90
        5
102
RTVSPost2010Prop44ColorRGB
 90
      255
102
RTVSPost2010PropOp44
 70
     0
102
RTVSPost2010Prop45
280
     0
102
RTVSPost2010PropOp45
 70
     0
102
RTVSPost2010Prop46
 90
       50
102
RTVSPost2010PropOp46
 70
     0
102
RTVSPost2010Prop47
 90
       50
102
RTVSPost2010PropOp47
 70
     0
102
RTVSPost2010Prop48
 90
       50
102
RTVSPost2010PropOp48
 70
     0
102
RTVSPost2010Prop49
280
     0
102
RTVSPost2010PropOp49
 70
     0
102
RTVSPost2010Prop50
 90
       50
102
RTVSPost2010PropOp50
 70
     0
102
RTVSPost2010Prop51ColorIndex
 90
      256
102
RTVSPost2010Prop51ColorRGB
 90
-16777216
102
RTVSPost2010PropOp51
 70
     0
102
RTVSPost2010Prop52
140
1.0
102
RTVSPost2010PropOp52
 70
     0
102
RTVSPost2010Prop53
 90
        2
102
RTVSPost2010PropOp53
 70
     0
102
RTVSPost2010Prop54
  1
strokes_ogs.tif
102
RTVSPost2010PropOp54
 70
     0
102
RTVSPost2010Prop55
280
     0
102
RTVSPost2010PropOp55
 70
     0
102
RTVSPost2010Prop56
140
1.0
102
RTVSPost2010PropOp56
 70
     0
102
RTVSPost2010Prop57
140
1.0
102
RTVSPost2010PropOp57
 70
     0
  0
XRECORD
  5
3CD
102
{ACAD_REACTORS
330
3CC
102
}
330
3CC
100
AcDbXrecord
280
     1
102
RTVSPropertyOp0
 70
     1
102
RTVSPropertyOp1
 70
     1
102
RTVSPropertyOp2
 70
     1
102
RTVSPropertyOp3
 70
     1
102
RTVSPropertyOp4
 70
     1
102
RTVSPropertyOp5
 70
     1
102
RTVSPropertyOp6
 70
     1
102
RTVSPropertyOp7
 70
     1
102
RTVSPropertyOp8
 70
     1
102
RTVSPropertyOp9
 70
     1
102
RTVSPropertyOp10
 70
     1
102
RTVSPropertyOp11
 70
     1
102
RTVSPropertyOp12
 70
     1
102
RTVSPropertyOp13
 70
     1
102
RTVSPropertyOp14
 70
     1
102
RTVSPropertyOp15
 70
     1
102
RTVSPropertyOp16
 70
     1
102
RTVSPropertyOp17
 70
     1
102
RTVSPropertyOp18
 70
     1
102
RTVSPropertyOp19
 70
     1
102
RTVSPropertyOp20
 70
     1
102
RTVSPropertyOp21
 70
     1
102
RTVSPropertyOp22
 70
     1
102
RTVSPropertyOp23
 70
     1
102
RTVSPropertyOp24
 70
     1
102
RTVSPropertyOp25
 70
     1
102
RTVSPropertyOp26
 70
     1
102
RTVSPropertyOp27
 70
     1
102
RTVSPropertyOp28
 70
     1
102
RTVSPropertyOp29
 70
     1
102
RTVSPropertyOp30
 70
     1
102
RTVSPropertyOp31
 70
     1
102
RTVSPropertyOp32
 70
     1
102
RTVSPropertyOp33
 70
     1
102
RTVSPropertyOp34
 70
     1
102
RTVSPropertyOp35
 70
     1
102
RTVSPropertyOp36
 70
     1
102
RTVSPropertyOp37
 70
     1
102
RTVSPropertyOp38
 70
     1
102
RTVSPropertyOp39
 70
     1
102
RTVSPropertyOp40
 70
     1
102
RTVSPropertyOp41
 70
     1
102
RTVSPropertyOp42
 70
     1
102
RTVSPropertyOp43
 70
     1
102
RTVSPropertyOp44
 70
     1
102
RTVSPropertyOp45
 70
     1
102
RTVSPropertyOp46
 70
     1
102
RTVSPropertyOp47
 70
     1
102
RTVSPropertyOp48
 70
     1
102
RTVSPropertyOp49
 70
     1
102
RTVSPropertyOp50
 70
     1
102
RTVSPropertyOp51
 70
     0
102
RTVSPropertyOp52
 70
     0
102
RTVSPropertyOp53
 70
     1
102
RTVSPropertyOp54
 70
     1
102
RTVSPropertyOp55
 70
     1
102
RTVSPropertyOp56
 70
     1
102
RTVSPropertyOp57
 70
     1
102
RTVSPost2010Prop28
280
     0
102
RTVSPost2010PropOp28
 70
     1
102
RTVSPost2010Prop29
280
     1
102
RTVSPost2010PropOp29
 70
     1
102
RTVSPost2010Prop30
280
     1
102
RTVSPost2010PropOp30
 70
     1
102
RTVSPost2010Prop31
280
     0
102
RTVSPost2010PropOp31
 70
     1
102
RTVSPost2010Prop32
280
     0
102
RTVSPost2010PropOp32
 70
     1
102
RTVSPost2010Prop33
280
     0
102
RTVSPost2010PropOp33
 70
     1
102
RTVSPost2010Prop34
280
     0
102
RTVSPost2010PropOp34
 70
     1
102
RTVSPost2010Prop35
280
     0
102
RTVSPost2010PropOp35
 70
     1
102
RTVSPost2010Prop36
280
     0
102
RTVSPost2010PropOp36
 70
     1
102
RTVSPost2010Prop37
 90
       50
102
RTVSPost2010PropOp37
 70
     1
102
RTVSPost2010Prop38
140
0.0
102
RTVSPost2010PropOp38
 70
     1
102
RTVSPost2010Prop39
140
1.0
102
RTVSPost2010PropOp39
 70
     1
102
RTVSPost2010Prop40
 90
        0
102
RTVSPost2010PropOp40
 70
     1
102
RTVSPost2010Prop41ColorIndex
 90
       18
102
RTVSPost2010Prop41ColorRGB
 90
        0
102
RTVSPost2010PropOp41
 70
     1
102
RTVSPost2010Prop42
 90
       50
102
RTVSPost2010PropOp42
 70
     1
102
RTVSPost2010Prop43
 90
        3
102
RTVSPost2010PropOp43
 70
     1
102
RTVSPost2010Prop44ColorIndex
 90
        5
102
RTVSPost2010Prop44ColorRGB
 90
      255
102
RTVSPost2010PropOp44
 70
     1
102
RTVSPost2010Prop45
280
     0
102
RTVSPost2010PropOp45
 70
     1
102
RTVSPost2010Prop46
 90
       50
102
RTVSPost2010PropOp46
 70
     1
102
RTVSPost2010Prop47
 90
       50
102
RTVSPost2010PropOp47
 70
     1
102
RTVSPost2010Prop48
 90
       50
102
RTVSPost2010PropOp48
 70
     1
102
RTVSPost2010Prop49
280
     0
102
RTVSPost2010PropOp49
 70
     1
102
RTVSPost2010Prop50
 90
       50
102
RTVSPost2010PropOp50
 70
     1
102
RTVSPost2010Prop51ColorIndex
 90
      256
102
RTVSPost2010Prop51ColorRGB
 90
-16777216
102
RTVSPost2010PropOp51
 70
     0
102
RTVSPost2010Prop52
140
1.0
102
RTVSPost2010PropOp52
 70
     0
102
RTVSPost2010Prop53
 90
        2
102
RTVSPost2010PropOp53
 70
     1
102
RTVSPost2010Prop54
  1
strokes_ogs.tif
102
RTVSPost2010PropOp54
 70
     1
102
RTVSPost2010Prop55
280
     0
102
RTVSPost2010PropOp55
 70
     1
102
RTVSPost2010Prop56
140
1.0
102
RTVSPost2010PropOp56
 70
     1
102
RTVSPost2010Prop57
140
1.0
102
RTVSPost2010PropOp57
 70
     1
  0
XRECORD
  5
3B1
102
{ACAD_REACTORS
330
3B0
102
}
330
3B0
100
AcDbXrecord
280
     1
102
RTVSPropertyOp0
 70
     1
102
RTVSPropertyOp1
 70
     1
102
RTVSPropertyOp2
 70
     1
102
RTVSPropertyOp3
 70
     1
102
RTVSPropertyOp4
 70
     1
102
RTVSPropertyOp5
 70
     1
102
RTVSPropertyOp6
 70
     1
102
RTVSPropertyOp7
 70
     1
102
RTVSPropertyOp8
 70
     1
102
RTVSPropertyOp9
 70
     1
102
RTVSPropertyOp10
 70
     1
102
RTVSPropertyOp11
 70
     1
102
RTVSPropertyOp12
 70
     1
102
RTVSPropertyOp13
 70
     1
102
RTVSPropertyOp14
 70
     1
102
RTVSPropertyOp15
 70
     1
102
RTVSPropertyOp16
 70
     1
102
RTVSPropertyOp17
 70
     1
102
RTVSPropertyOp18
 70
     1
102
RTVSPropertyOp19
 70
     1
102
RTVSPropertyOp20
 70
     1
102
RTVSPropertyOp21
 70
     1
102
RTVSPropertyOp22
 70
     1
102
RTVSPropertyOp23
 70
     1
102
RTVSPropertyOp24
 70
     1
102
RTVSPropertyOp25
 70
     1
102
RTVSPropertyOp26
 70
     1
102
RTVSPropertyOp27
 70
     1
102
RTVSPropertyOp28
 70
     1
102
RTVSPropertyOp29
 70
     1
102
RTVSPropertyOp30
 70
     1
102
RTVSPropertyOp31
 70
     1
102
RTVSPropertyOp32
 70
     1
102
RTVSPropertyOp33
 70
     1
102
RTVSPropertyOp34
 70
     1
102
RTVSPropertyOp35
 70
     1
102
RTVSPropertyOp36
 70
     1
102
RTVSPropertyOp37
 70
     1
102
RTVSPropertyOp38
 70
     1
102
RTVSPropertyOp39
 70
     1
102
RTVSPropertyOp40
 70
     1
102
RTVSPropertyOp41
 70
     1
102
RTVSPropertyOp42
 70
     1
102
RTVSPropertyOp43
 70
     1
102
RTVSPropertyOp44
 70
     1
102
RTVSPropertyOp45
 70
     1
102
RTVSPropertyOp46
 70
     1
102
RTVSPropertyOp47
 70
     1
102
RTVSPropertyOp48
 70
     1
102
RTVSPropertyOp49
 70
     1
102
RTVSPropertyOp50
 70
     1
102
RTVSPropertyOp51
 70
     0
102
RTVSPropertyOp52
 70
     0
102
RTVSPropertyOp53
 70
     1
102
RTVSPropertyOp54
 70
     1
102
RTVSPropertyOp55
 70
     1
102
RTVSPropertyOp56
 70
     1
102
RTVSPropertyOp57
 70
     1
102
RTVSPost2010Prop28
280
     0
102
RTVSPost2010PropOp28
 70
     1
102
RTVSPost2010Prop29
280
     1
102
RTVSPost2010PropOp29
 70
     1
102
RTVSPost2010Prop30
280
     1
102
RTVSPost2010PropOp30
 70
     1
102
RTVSPost2010Prop31
280
     0
102
RTVSPost2010PropOp31
 70
     1
102
RTVSPost2010Prop32
280
     0
102
RTVSPost2010PropOp32
 70
     1
102
RTVSPost2010Prop33
280
     0
102
RTVSPost2010PropOp33
 70
     1
102
RTVSPost2010Prop34
280
     0
102
RTVSPost2010PropOp34
 70
     1
102
RTVSPost2010Prop35
280
     0
102
RTVSPost2010PropOp35
 70
     1
102
RTVSPost2010Prop36
280
     0
102
RTVSPost2010PropOp36
 70
     1
102
RTVSPost2010Prop37
 90
       50
102
RTVSPost2010PropOp37
 70
     1
102
RTVSPost2010Prop38
140
0.0
102
RTVSPost2010PropOp38
 70
     1
102
RTVSPost2010Prop39
140
1.0
102
RTVSPost2010PropOp39
 70
     1
102
RTVSPost2010Prop40
 90
        0
102
RTVSPost2010PropOp40
 70
     1
102
RTVSPost2010Prop41ColorIndex
 90
       18
102
RTVSPost2010Prop41ColorRGB
 90
        0
102
RTVSPost2010PropOp41
 70
     1
102
RTVSPost2010Prop42
 90
       50
102
RTVSPost2010PropOp42
 70
     1
102
RTVSPost2010Prop43
 90
        3
102
RTVSPost2010PropOp43
 70
     1
102
RTVSPost2010Prop44ColorIndex
 90
        5
102
RTVSPost2010Prop44ColorRGB
 90
      255
102
RTVSPost2010PropOp44
 70
     1
102
RTVSPost2010Prop45
280
     0
102
RTVSPost2010PropOp45
 70
     1
102
RTVSPost2010Prop46
 90
       50
102
RTVSPost2010PropOp46
 70
     1
102
RTVSPost2010Prop47
 90
       50
102
RTVSPost2010PropOp47
 70
     1
102
RTVSPost2010Prop48
 90
       50
102
RTVSPost2010PropOp48
 70
     1
102
RTVSPost2010Prop49
280
     0
102
RTVSPost2010PropOp49
 70
     1
102
RTVSPost2010Prop50
 90
       50
102
RTVSPost2010PropOp50
 70
     1
102
RTVSPost2010Prop51ColorIndex
 90
      256
102
RTVSPost2010Prop51ColorRGB
 90
-16777216
102
RTVSPost2010PropOp51
 70
     0
102
RTVSPost2010Prop52
140
1.0
102
RTVSPost2010PropOp52
 70
     0
102
RTVSPost2010Prop53
 90
        2
102
RTVSPost2010PropOp53
 70
     1
102
RTVSPost2010Prop54
  1
strokes_ogs.tif
102
RTVSPost2010PropOp54
 70
     1
102
RTVSPost2010Prop55
280
     0
102
RTVSPost2010PropOp55
 70
     1
102
RTVSPost2010Prop56
140
1.0
102
RTVSPost2010PropOp56
 70
     1
102
RTVSPost2010Prop57
140
1.0
102
RTVSPost2010PropOp57
 70
     1
  0
XRECORD
  5
3B3
102
{ACAD_REACTORS
330
3B2
102
}
330
3B2
100
AcDbXrecord
280
     1
102
RTVSPropertyOp0
 70
     1
102
RTVSPropertyOp1
 70
     1
102
RTVSPropertyOp2
 70
     1
102
RTVSPropertyOp3
 70
     1
102
RTVSPropertyOp4
 70
     1
102
RTVSPropertyOp5
 70
     1
102
RTVSPropertyOp6
 70
     1
102
RTVSPropertyOp7
 70
     1
102
RTVSPropertyOp8
 70
     1
102
RTVSPropertyOp9
 70
     1
102
RTVSPropertyOp10
 70
     1
102
RTVSPropertyOp11
 70
     1
102
RTVSPropertyOp12
 70
     1
102
RTVSPropertyOp13
 70
     1
102
RTVSPropertyOp14
 70
     1
102
RTVSPropertyOp15
 70
     1
102
RTVSPropertyOp16
 70
     1
102
RTVSPropertyOp17
 70
     1
102
RTVSPropertyOp18
 70
     1
102
RTVSPropertyOp19
 70
     1
102
RTVSPropertyOp20
 70
     1
102
RTVSPropertyOp21
 70
     1
102
RTVSPropertyOp22
 70
     1
102
RTVSPropertyOp23
 70
     1
102
RTVSPropertyOp24
 70
     1
102
RTVSPropertyOp25
 70
     1
102
RTVSPropertyOp26
 70
     1
102
RTVSPropertyOp27
 70
     1
102
RTVSPropertyOp28
 70
     1
102
RTVSPropertyOp29
 70
     1
102
RTVSPropertyOp30
 70
     1
102
RTVSPropertyOp31
 70
     1
102
RTVSPropertyOp32
 70
     1
102
RTVSPropertyOp33
 70
     1
102
RTVSPropertyOp34
 70
     1
102
RTVSPropertyOp35
 70
     1
102
RTVSPropertyOp36
 70
     1
102
RTVSPropertyOp37
 70
     1
102
RTVSPropertyOp38
 70
     1
102
RTVSPropertyOp39
 70
     1
102
RTVSPropertyOp40
 70
     1
102
RTVSPropertyOp41
 70
     1
102
RTVSPropertyOp42
 70
     1
102
RTVSPropertyOp43
 70
     1
102
RTVSPropertyOp44
 70
     1
102
RTVSPropertyOp45
 70
     1
102
RTVSPropertyOp46
 70
     1
102
RTVSPropertyOp47
 70
     1
102
RTVSPropertyOp48
 70
     1
102
RTVSPropertyOp49
 70
     1
102
RTVSPropertyOp50
 70
     1
102
RTVSPropertyOp51
 70
     0
102
RTVSPropertyOp52
 70
     0
102
RTVSPropertyOp53
 70
     1
102
RTVSPropertyOp54
 70
     1
102
RTVSPropertyOp55
 70
     1
102
RTVSPropertyOp56
 70
     1
102
RTVSPropertyOp57
 70
     1
102
RTVSPost2010Prop28
280
     0
102
RTVSPost2010PropOp28
 70
     1
102
RTVSPost2010Prop29
280
     1
102
RTVSPost2010PropOp29
 70
     1
102
RTVSPost2010Prop30
280
     1
102
RTVSPost2010PropOp30
 70
     1
102
RTVSPost2010Prop31
280
     0
102
RTVSPost2010PropOp31
 70
     1
102
RTVSPost2010Prop32
280
     0
102
RTVSPost2010PropOp32
 70
     1
102
RTVSPost2010Prop33
280
     0
102
RTVSPost2010PropOp33
 70
     1
102
RTVSPost2010Prop34
280
     0
102
RTVSPost2010PropOp34
 70
     1
102
RTVSPost2010Prop35
280
     0
102
RTVSPost2010PropOp35
 70
     1
102
RTVSPost2010Prop36
280
     0
102
RTVSPost2010PropOp36
 70
     1
102
RTVSPost2010Prop37
 90
       50
102
RTVSPost2010PropOp37
 70
     1
102
RTVSPost2010Prop38
140
0.0
102
RTVSPost2010PropOp38
 70
     1
102
RTVSPost2010Prop39
140
1.0
102
RTVSPost2010PropOp39
 70
     1
102
RTVSPost2010Prop40
 90
        0
102
RTVSPost2010PropOp40
 70
     1
102
RTVSPost2010Prop41ColorIndex
 90
       18
102
RTVSPost2010Prop41ColorRGB
 90
        0
102
RTVSPost2010PropOp41
 70
     1
102
RTVSPost2010Prop42
 90
       50
102
RTVSPost2010PropOp42
 70
     1
102
RTVSPost2010Prop43
 90
        3
102
RTVSPost2010PropOp43
 70
     1
102
RTVSPost2010Prop44ColorIndex
 90
        5
102
RTVSPost2010Prop44ColorRGB
 90
      255
102
RTVSPost2010PropOp44
 70
     1
102
RTVSPost2010Prop45
280
     0
102
RTVSPost2010PropOp45
 70
     1
102
RTVSPost2010Prop46
 90
       50
102
RTVSPost2010PropOp46
 70
     1
102
RTVSPost2010Prop47
 90
       50
102
RTVSPost2010PropOp47
 70
     1
102
RTVSPost2010Prop48
 90
       50
102
RTVSPost2010PropOp48
 70
     1
102
RTVSPost2010Prop49
280
     0
102
RTVSPost2010PropOp49
 70
     1
102
RTVSPost2010Prop50
 90
       50
102
RTVSPost2010PropOp50
 70
     1
102
RTVSPost2010Prop51ColorIndex
 90
      256
102
RTVSPost2010Prop51ColorRGB
 90
-16777216
102
RTVSPost2010PropOp51
 70
     0
102
RTVSPost2010Prop52
140
1.0
102
RTVSPost2010PropOp52
 70
     0
102
RTVSPost2010Prop53
 90
        2
102
RTVSPost2010PropOp53
 70
     1
102
RTVSPost2010Prop54
  1
strokes_ogs.tif
102
RTVSPost2010PropOp54
 70
     1
102
RTVSPost2010Prop55
280
     0
102
RTVSPost2010PropOp55
 70
     1
102
RTVSPost2010Prop56
140
1.0
102
RTVSPost2010PropOp56
 70
     1
102
RTVSPost2010Prop57
140
1.0
102
RTVSPost2010PropOp57
 70
     1
  0
XRECORD
  5
3B5
102
{ACAD_REACTORS
330
3B4
102
}
330
3B4
100
AcDbXrecord
280
     1
102
RTVSPropertyOp0
 70
     1
102
RTVSPropertyOp1
 70
     1
102
RTVSPropertyOp2
 70
     1
102
RTVSPropertyOp3
 70
     1
102
RTVSPropertyOp4
 70
     1
102
RTVSPropertyOp5
 70
     1
102
RTVSPropertyOp6
 70
     1
102
RTVSPropertyOp7
 70
     1
102
RTVSPropertyOp8
 70
     1
102
RTVSPropertyOp9
 70
     1
102
RTVSPropertyOp10
 70
     1
102
RTVSPropertyOp11
 70
     1
102
RTVSPropertyOp12
 70
     1
102
RTVSPropertyOp13
 70
     1
102
RTVSPropertyOp14
 70
     1
102
RTVSPropertyOp15
 70
     1
102
RTVSPropertyOp16
 70
     1
102
RTVSPropertyOp17
 70
     1
102
RTVSPropertyOp18
 70
     1
102
RTVSPropertyOp19
 70
     1
102
RTVSPropertyOp20
 70
     1
102
RTVSPropertyOp21
 70
     1
102
RTVSPropertyOp22
 70
     1
102
RTVSPropertyOp23
 70
     1
102
RTVSPropertyOp24
 70
     1
102
RTVSPropertyOp25
 70
     1
102
RTVSPropertyOp26
 70
     1
102
RTVSPropertyOp27
 70
     1
102
RTVSPropertyOp28
 70
     1
102
RTVSPropertyOp29
 70
     1
102
RTVSPropertyOp30
 70
     1
102
RTVSPropertyOp31
 70
     1
102
RTVSPropertyOp32
 70
     1
102
RTVSPropertyOp33
 70
     1
102
RTVSPropertyOp34
 70
     1
102
RTVSPropertyOp35
 70
     1
102
RTVSPropertyOp36
 70
     1
102
RTVSPropertyOp37
 70
     1
102
RTVSPropertyOp38
 70
     1
102
RTVSPropertyOp39
 70
     1
102
RTVSPropertyOp40
 70
     1
102
RTVSPropertyOp41
 70
     1
102
RTVSPropertyOp42
 70
     1
102
RTVSPropertyOp43
 70
     1
102
RTVSPropertyOp44
 70
     1
102
RTVSPropertyOp45
 70
     1
102
RTVSPropertyOp46
 70
     1
102
RTVSPropertyOp47
 70
     1
102
RTVSPropertyOp48
 70
     1
102
RTVSPropertyOp49
 70
     1
102
RTVSPropertyOp50
 70
     1
102
RTVSPropertyOp51
 70
     0
102
RTVSPropertyOp52
 70
     0
102
RTVSPropertyOp53
 70
     1
102
RTVSPropertyOp54
 70
     1
102
RTVSPropertyOp55
 70
     1
102
RTVSPropertyOp56
 70
     1
102
RTVSPropertyOp57
 70
     1
102
RTVSPost2010Prop28
280
     0
102
RTVSPost2010PropOp28
 70
     1
102
RTVSPost2010Prop29
280
     1
102
RTVSPost2010PropOp29
 70
     1
102
RTVSPost2010Prop30
280
     1
102
RTVSPost2010PropOp30
 70
     1
102
RTVSPost2010Prop31
280
     0
102
RTVSPost2010PropOp31
 70
     1
102
RTVSPost2010Prop32
280
     0
102
RTVSPost2010PropOp32
 70
     1
102
RTVSPost2010Prop33
280
     0
102
RTVSPost2010PropOp33
 70
     1
102
RTVSPost2010Prop34
280
     0
102
RTVSPost2010PropOp34
 70
     1
102
RTVSPost2010Prop35
280
     0
102
RTVSPost2010PropOp35
 70
     1
102
RTVSPost2010Prop36
280
     0
102
RTVSPost2010PropOp36
 70
     1
102
RTVSPost2010Prop37
 90
       50
102
RTVSPost2010PropOp37
 70
     1
102
RTVSPost2010Prop38
140
0.0
102
RTVSPost2010PropOp38
 70
     1
102
RTVSPost2010Prop39
140
1.0
102
RTVSPost2010PropOp39
 70
     1
102
RTVSPost2010Prop40
 90
        0
102
RTVSPost2010PropOp40
 70
     1
102
RTVSPost2010Prop41ColorIndex
 90
       18
102
RTVSPost2010Prop41ColorRGB
 90
        0
102
RTVSPost2010PropOp41
 70
     1
102
RTVSPost2010Prop42
 90
       50
102
RTVSPost2010PropOp42
 70
     1
102
RTVSPost2010Prop43
 90
        3
102
RTVSPost2010PropOp43
 70
     1
102
RTVSPost2010Prop44ColorIndex
 90
        5
102
RTVSPost2010Prop44ColorRGB
 90
      255
102
RTVSPost2010PropOp44
 70
     1
102
RTVSPost2010Prop45
280
     0
102
RTVSPost2010PropOp45
 70
     1
102
RTVSPost2010Prop46
 90
       50
102
RTVSPost2010PropOp46
 70
     1
102
RTVSPost2010Prop47
 90
       50
102
RTVSPost2010PropOp47
 70
     1
102
RTVSPost2010Prop48
 90
       50
102
RTVSPost2010PropOp48
 70
     1
102
RTVSPost2010Prop49
280
     0
102
RTVSPost2010PropOp49
 70
     1
102
RTVSPost2010Prop50
 90
       50
102
RTVSPost2010PropOp50
 70
     1
102
RTVSPost2010Prop51ColorIndex
 90
      256
102
RTVSPost2010Prop51ColorRGB
 90
-16777216
102
RTVSPost2010PropOp51
 70
     0
102
RTVSPost2010Prop52
140
1.0
102
RTVSPost2010PropOp52
 70
     0
102
RTVSPost2010Prop53
 90
        2
102
RTVSPost2010PropOp53
 70
     1
102
RTVSPost2010Prop54
  1
strokes_ogs.tif
102
RTVSPost2010PropOp54
 70
     1
102
RTVSPost2010Prop55
280
     0
102
RTVSPost2010PropOp55
 70
     1
102
RTVSPost2010Prop56
140
1.0
102
RTVSPost2010PropOp56
 70
     1
102
RTVSPost2010Prop57
140
1.0
102
RTVSPost2010PropOp57
 70
     1
  0
XRECORD
  5
3B7
102
{ACAD_REACTORS
330
3B6
102
}
330
3B6
100
AcDbXrecord
280
     1
102
RTVSPropertyOp0
 70
     1
102
RTVSPropertyOp1
 70
     1
102
RTVSPropertyOp2
 70
     1
102
RTVSPropertyOp3
 70
     1
102
RTVSPropertyOp4
 70
     1
102
RTVSPropertyOp5
 70
     1
102
RTVSPropertyOp6
 70
     1
102
RTVSPropertyOp7
 70
     1
102
RTVSPropertyOp8
 70
     1
102
RTVSPropertyOp9
 70
     1
102
RTVSPropertyOp10
 70
     1
102
RTVSPropertyOp11
 70
     1
102
RTVSPropertyOp12
 70
     1
102
RTVSPropertyOp13
 70
     1
102
RTVSPropertyOp14
 70
     1
102
RTVSPropertyOp15
 70
     1
102
RTVSPropertyOp16
 70
     1
102
RTVSPropertyOp17
 70
     1
102
RTVSPropertyOp18
 70
     1
102
RTVSPropertyOp19
 70
     1
102
RTVSPropertyOp20
 70
     1
102
RTVSPropertyOp21
 70
     1
102
RTVSPropertyOp22
 70
     1
102
RTVSPropertyOp23
 70
     1
102
RTVSPropertyOp24
 70
     1
102
RTVSPropertyOp25
 70
     1
102
RTVSPropertyOp26
 70
     1
102
RTVSPropertyOp27
 70
     1
102
RTVSPropertyOp28
 70
     1
102
RTVSPropertyOp29
 70
     1
102
RTVSPropertyOp30
 70
     1
102
RTVSPropertyOp31
 70
     1
102
RTVSPropertyOp32
 70
     1
102
RTVSPropertyOp33
 70
     1
102
RTVSPropertyOp34
 70
     1
102
RTVSPropertyOp35
 70
     1
102
RTVSPropertyOp36
 70
     1
102
RTVSPropertyOp37
 70
     1
102
RTVSPropertyOp38
 70
     1
102
RTVSPropertyOp39
 70
     1
102
RTVSPropertyOp40
 70
     1
102
RTVSPropertyOp41
 70
     1
102
RTVSPropertyOp42
 70
     1
102
RTVSPropertyOp43
 70
     1
102
RTVSPropertyOp44
 70
     1
102
RTVSPropertyOp45
 70
     1
102
RTVSPropertyOp46
 70
     1
102
RTVSPropertyOp47
 70
     1
102
RTVSPropertyOp48
 70
     1
102
RTVSPropertyOp49
 70
     1
102
RTVSPropertyOp50
 70
     1
102
RTVSPropertyOp51
 70
     0
102
RTVSPropertyOp52
 70
     0
102
RTVSPropertyOp53
 70
     1
102
RTVSPropertyOp54
 70
     1
102
RTVSPropertyOp55
 70
     1
102
RTVSPropertyOp56
 70
     1
102
RTVSPropertyOp57
 70
     1
102
RTVSPost2010Prop28
280
     0
102
RTVSPost2010PropOp28
 70
     1
102
RTVSPost2010Prop29
280
     1
102
RTVSPost2010PropOp29
 70
     1
102
RTVSPost2010Prop30
280
     1
102
RTVSPost2010PropOp30
 70
     1
102
RTVSPost2010Prop31
280
     0
102
RTVSPost2010PropOp31
 70
     1
102
RTVSPost2010Prop32
280
     0
102
RTVSPost2010PropOp32
 70
     1
102
RTVSPost2010Prop33
280
     0
102
RTVSPost2010PropOp33
 70
     1
102
RTVSPost2010Prop34
280
     0
102
RTVSPost2010PropOp34
 70
     1
102
RTVSPost2010Prop35
280
     0
102
RTVSPost2010PropOp35
 70
     1
102
RTVSPost2010Prop36
280
     0
102
RTVSPost2010PropOp36
 70
     1
102
RTVSPost2010Prop37
 90
       50
102
RTVSPost2010PropOp37
 70
     1
102
RTVSPost2010Prop38
140
0.0
102
RTVSPost2010PropOp38
 70
     1
102
RTVSPost2010Prop39
140
1.0
102
RTVSPost2010PropOp39
 70
     1
102
RTVSPost2010Prop40
 90
        0
102
RTVSPost2010PropOp40
 70
     1
102
RTVSPost2010Prop41ColorIndex
 90
       18
102
RTVSPost2010Prop41ColorRGB
 90
        0
102
RTVSPost2010PropOp41
 70
     1
102
RTVSPost2010Prop42
 90
       50
102
RTVSPost2010PropOp42
 70
     1
102
RTVSPost2010Prop43
 90
        3
102
RTVSPost2010PropOp43
 70
     1
102
RTVSPost2010Prop44ColorIndex
 90
        5
102
RTVSPost2010Prop44ColorRGB
 90
      255
102
RTVSPost2010PropOp44
 70
     1
102
RTVSPost2010Prop45
280
     0
102
RTVSPost2010PropOp45
 70
     1
102
RTVSPost2010Prop46
 90
       50
102
RTVSPost2010PropOp46
 70
     1
102
RTVSPost2010Prop47
 90
       50
102
RTVSPost2010PropOp47
 70
     1
102
RTVSPost2010Prop48
 90
       50
102
RTVSPost2010PropOp48
 70
     1
102
RTVSPost2010Prop49
280
     0
102
RTVSPost2010PropOp49
 70
     1
102
RTVSPost2010Prop50
 90
       50
102
RTVSPost2010PropOp50
 70
     1
102
RTVSPost2010Prop51ColorIndex
 90
      256
102
RTVSPost2010Prop51ColorRGB
 90
-16777216
102
RTVSPost2010PropOp51
 70
     0
102
RTVSPost2010Prop52
140
1.0
102
RTVSPost2010PropOp52
 70
     0
102
RTVSPost2010Prop53
 90
        2
102
RTVSPost2010PropOp53
 70
     1
102
RTVSPost2010Prop54
  1
strokes_ogs.tif
102
RTVSPost2010PropOp54
 70
     1
102
RTVSPost2010Prop55
280
     0
102
RTVSPost2010PropOp55
 70
     1
102
RTVSPost2010Prop56
140
1.0
102
RTVSPost2010PropOp56
 70
     1
102
RTVSPost2010Prop57
140
1.0
102
RTVSPost2010PropOp57
 70
     1
  0
XRECORD
  5
3BD
102
{ACAD_REACTORS
330
3BC
102
}
330
3BC
100
AcDbXrecord
280
     1
102
RTVSPropertyOp0
 70
     1
102
RTVSPropertyOp1
 70
     1
102
RTVSPropertyOp2
 70
     1
102
RTVSPropertyOp3
 70
     1
102
RTVSPropertyOp4
 70
     1
102
RTVSPropertyOp5
 70
     1
102
RTVSPropertyOp6
 70
     1
102
RTVSPropertyOp7
 70
     1
102
RTVSPropertyOp8
 70
     1
102
RTVSPropertyOp9
 70
     1
102
RTVSPropertyOp10
 70
     1
102
RTVSPropertyOp11
 70
     1
102
RTVSPropertyOp12
 70
     1
102
RTVSPropertyOp13
 70
     1
102
RTVSPropertyOp14
 70
     1
102
RTVSPropertyOp15
 70
     1
102
RTVSPropertyOp16
 70
     1
102
RTVSPropertyOp17
 70
     1
102
RTVSPropertyOp18
 70
     1
102
RTVSPropertyOp19
 70
     1
102
RTVSPropertyOp20
 70
     1
102
RTVSPropertyOp21
 70
     1
102
RTVSPropertyOp22
 70
     1
102
RTVSPropertyOp23
 70
     1
102
RTVSPropertyOp24
 70
     1
102
RTVSPropertyOp25
 70
     1
102
RTVSPropertyOp26
 70
     1
102
RTVSPropertyOp27
 70
     1
102
RTVSPropertyOp28
 70
     1
102
RTVSPropertyOp29
 70
     1
102
RTVSPropertyOp30
 70
     1
102
RTVSPropertyOp31
 70
     1
102
RTVSPropertyOp32
 70
     1
102
RTVSPropertyOp33
 70
     1
102
RTVSPropertyOp34
 70
     1
102
RTVSPropertyOp35
 70
     1
102
RTVSPropertyOp36
 70
     1
102
RTVSPropertyOp37
 70
     1
102
RTVSPropertyOp38
 70
     1
102
RTVSPropertyOp39
 70
     1
102
RTVSPropertyOp40
 70
     1
102
RTVSPropertyOp41
 70
     1
102
RTVSPropertyOp42
 70
     1
102
RTVSPropertyOp43
 70
     1
102
RTVSPropertyOp44
 70
     1
102
RTVSPropertyOp45
 70
     1
102
RTVSPropertyOp46
 70
     1
102
RTVSPropertyOp47
 70
     1
102
RTVSPropertyOp48
 70
     1
102
RTVSPropertyOp49
 70
     1
102
RTVSPropertyOp50
 70
     1
102
RTVSPropertyOp51
 70
     0
102
RTVSPropertyOp52
 70
     0
102
RTVSPropertyOp53
 70
     1
102
RTVSPropertyOp54
 70
     1
102
RTVSPropertyOp55
 70
     1
102
RTVSPropertyOp56
 70
     1
102
RTVSPropertyOp57
 70
     1
102
RTVSPost2010Prop28
280
     0
102
RTVSPost2010PropOp28
 70
     1
102
RTVSPost2010Prop29
280
     1
102
RTVSPost2010PropOp29
 70
     1
102
RTVSPost2010Prop30
280
     1
102
RTVSPost2010PropOp30
 70
     1
102
RTVSPost2010Prop31
280
     0
102
RTVSPost2010PropOp31
 70
     1
102
RTVSPost2010Prop32
280
     0
102
RTVSPost2010PropOp32
 70
     1
102
RTVSPost2010Prop33
280
     0
102
RTVSPost2010PropOp33
 70
     1
102
RTVSPost2010Prop34
280
     0
102
RTVSPost2010PropOp34
 70
     1
102
RTVSPost2010Prop35
280
     0
102
RTVSPost2010PropOp35
 70
     1
102
RTVSPost2010Prop36
280
     0
102
RTVSPost2010PropOp36
 70
     1
102
RTVSPost2010Prop37
 90
       50
102
RTVSPost2010PropOp37
 70
     1
102
RTVSPost2010Prop38
140
0.0
102
RTVSPost2010PropOp38
 70
     1
102
RTVSPost2010Prop39
140
1.0
102
RTVSPost2010PropOp39
 70
     1
102
RTVSPost2010Prop40
 90
        0
102
RTVSPost2010PropOp40
 70
     1
102
RTVSPost2010Prop41ColorIndex
 90
       18
102
RTVSPost2010Prop41ColorRGB
 90
        0
102
RTVSPost2010PropOp41
 70
     1
102
RTVSPost2010Prop42
 90
       50
102
RTVSPost2010PropOp42
 70
     1
102
RTVSPost2010Prop43
 90
        3
102
RTVSPost2010PropOp43
 70
     1
102
RTVSPost2010Prop44ColorIndex
 90
        5
102
RTVSPost2010Prop44ColorRGB
 90
      255
102
RTVSPost2010PropOp44
 70
     1
102
RTVSPost2010Prop45
280
     0
102
RTVSPost2010PropOp45
 70
     1
102
RTVSPost2010Prop46
 90
       50
102
RTVSPost2010PropOp46
 70
     1
102
RTVSPost2010Prop47
 90
       50
102
RTVSPost2010PropOp47
 70
     1
102
RTVSPost2010Prop48
 90
       50
102
RTVSPost2010PropOp48
 70
     1
102
RTVSPost2010Prop49
280
     0
102
RTVSPost2010PropOp49
 70
     1
102
RTVSPost2010Prop50
 90
       50
102
RTVSPost2010PropOp50
 70
     1
102
RTVSPost2010Prop51ColorIndex
 90
      256
102
RTVSPost2010Prop51ColorRGB
 90
-16777216
102
RTVSPost2010PropOp51
 70
     0
102
RTVSPost2010Prop52
140
1.0
102
RTVSPost2010PropOp52
 70
     0
102
RTVSPost2010Prop53
 90
        2
102
RTVSPost2010PropOp53
 70
     1
102
RTVSPost2010Prop54
  1
strokes_ogs.tif
102
RTVSPost2010PropOp54
 70
     1
102
RTVSPost2010Prop55
280
     0
102
RTVSPost2010PropOp55
 70
     1
102
RTVSPost2010Prop56
140
1.0
102
RTVSPost2010PropOp56
 70
     1
102
RTVSPost2010Prop57
140
1.0
102
RTVSPost2010PropOp57
 70
     1
  0
XRECORD
  5
3D1
102
{ACAD_REACTORS
330
3D0
102
}
330
3D0
100
AcDbXrecord
280
     1
102
RTVSPropertyOp0
 70
     0
102
RTVSPropertyOp1
 70
     0
102
RTVSPropertyOp2
 70
     0
102
RTVSPropertyOp3
 70
     0
102
RTVSPropertyOp4
 70
     0
102
RTVSPropertyOp5
 70
     0
102
RTVSPropertyOp6
 70
     0
102
RTVSPropertyOp7
 70
     0
102
RTVSPropertyOp8
 70
     0
102
RTVSPropertyOp9
 70
     0
102
RTVSPropertyOp10
 70
     0
102
RTVSPropertyOp11
 70
     0
102
RTVSPropertyOp12
 70
     0
102
RTVSPropertyOp13
 70
     0
102
RTVSPropertyOp14
 70
     2
102
RTVSPropertyOp15
 70
     0
102
RTVSPropertyOp16
 70
     0
102
RTVSPropertyOp17
 70
     0
102
RTVSPropertyOp18
 70
     0
102
RTVSPropertyOp19
 70
     0
102
RTVSPropertyOp20
 70
     0
102
RTVSPropertyOp21
 70
     0
102
RTVSPropertyOp22
 70
     0
102
RTVSPropertyOp23
 70
     0
102
RTVSPropertyOp24
 70
     0
102
RTVSPropertyOp25
 70
     0
102
RTVSPropertyOp26
 70
     0
102
RTVSPropertyOp27
 70
     0
102
RTVSPropertyOp28
 70
     0
102
RTVSPropertyOp29
 70
     0
102
RTVSPropertyOp30
 70
     0
102
RTVSPropertyOp31
 70
     0
102
RTVSPropertyOp32
 70
     0
102
RTVSPropertyOp33
 70
     0
102
RTVSPropertyOp34
 70
     0
102
RTVSPropertyOp35
 70
     0
102
RTVSPropertyOp36
 70
     0
102
RTVSPropertyOp37
 70
     0
102
RTVSPropertyOp38
 70
     0
102
RTVSPropertyOp39
 70
     0
102
RTVSPropertyOp40
 70
     0
102
RTVSPropertyOp41
 70
     0
102
RTVSPropertyOp42
 70
     0
102
RTVSPropertyOp43
 70
     0
102
RTVSPropertyOp44
 70
     0
102
RTVSPropertyOp45
 70
     0
102
RTVSPropertyOp46
 70
     0
102
RTVSPropertyOp47
 70
     0
102
RTVSPropertyOp48
 70
     0
102
RTVSPropertyOp49
 70
     0
102
RTVSPropertyOp50
 70
     0
102
RTVSPropertyOp51
 70
     0
102
RTVSPropertyOp52
 70
     0
102
RTVSPropertyOp53
 70
     0
102
RTVSPropertyOp54
 70
     0
102
RTVSPropertyOp55
 70
     0
102
RTVSPropertyOp56
 70
     0
102
RTVSPropertyOp57
 70
     0
102
RTVSPost2010Prop28
280
     0
102
RTVSPost2010PropOp28
 70
     0
102
RTVSPost2010Prop29
280
     1
102
RTVSPost2010PropOp29
 70
     0
102
RTVSPost2010Prop30
280
     1
102
RTVSPost2010PropOp30
 70
     0
102
RTVSPost2010Prop31
280
     0
102
RTVSPost2010PropOp31
 70
     0
102
RTVSPost2010Prop32
280
     0
102
RTVSPost2010PropOp32
 70
     0
102
RTVSPost2010Prop33
280
     0
102
RTVSPost2010PropOp33
 70
     0
102
RTVSPost2010Prop34
280
     0
102
RTVSPost2010PropOp34
 70
     0
102
RTVSPost2010Prop35
280
     0
102
RTVSPost2010PropOp35
 70
     0
102
RTVSPost2010Prop36
280
     0
102
RTVSPost2010PropOp36
 70
     0
102
RTVSPost2010Prop37
 90
       50
102
RTVSPost2010PropOp37
 70
     0
102
RTVSPost2010Prop38
140
0.0
102
RTVSPost2010PropOp38
 70
     0
102
RTVSPost2010Prop39
140
1.0
102
RTVSPost2010PropOp39
 70
     0
102
RTVSPost2010Prop40
 90
        0
102
RTVSPost2010PropOp40
 70
     0
102
RTVSPost2010Prop41ColorIndex
 90
       18
102
RTVSPost2010Prop41ColorRGB
 90
        0
102
RTVSPost2010PropOp41
 70
     0
102
RTVSPost2010Prop42
 90
       50
102
RTVSPost2010PropOp42
 70
     0
102
RTVSPost2010Prop43
 90
        3
102
RTVSPost2010PropOp43
 70
     0
102
RTVSPost2010Prop44ColorIndex
 90
        5
102
RTVSPost2010Prop44ColorRGB
 90
      255
102
RTVSPost2010PropOp44
 70
     0
102
RTVSPost2010Prop45
280
     0
102
RTVSPost2010PropOp45
 70
     0
102
RTVSPost2010Prop46
 90
       50
102
RTVSPost2010PropOp46
 70
     0
102
RTVSPost2010Prop47
 90
       50
102
RTVSPost2010PropOp47
 70
     0
102
RTVSPost2010Prop48
 90
       50
102
RTVSPost2010PropOp48
 70
     0
102
RTVSPost2010Prop49
280
     0
102
RTVSPost2010PropOp49
 70
     0
102
RTVSPost2010Prop50
 90
       50
102
RTVSPost2010PropOp50
 70
     0
102
RTVSPost2010Prop51ColorIndex
 90
      256
102
RTVSPost2010Prop51ColorRGB
 90
-16777216
102
RTVSPost2010PropOp51
 70
     0
102
RTVSPost2010Prop52
140
1.0
102
RTVSPost2010PropOp52
 70
     0
102
RTVSPost2010Prop53
 90
        2
102
RTVSPost2010PropOp53
 70
     0
102
RTVSPost2010Prop54
  1
strokes_ogs.tif
102
RTVSPost2010PropOp54
 70
     0
102
RTVSPost2010Prop55
280
     0
102
RTVSPost2010PropOp55
 70
     0
102
RTVSPost2010Prop56
140
1.0
102
RTVSPost2010PropOp56
 70
     0
102
RTVSPost2010Prop57
140
1.0
102
RTVSPost2010PropOp57
 70
     0
  0
XRECORD
  5
3CB
102
{ACAD_REACTORS
330
3CA
102
}
330
3CA
100
AcDbXrecord
280
     1
102
RTVSPropertyOp0
 70
     1
102
RTVSPropertyOp1
 70
     1
102
RTVSPropertyOp2
 70
     1
102
RTVSPropertyOp3
 70
     1
102
RTVSPropertyOp4
 70
     1
102
RTVSPropertyOp5
 70
     1
102
RTVSPropertyOp6
 70
     1
102
RTVSPropertyOp7
 70
     1
102
RTVSPropertyOp8
 70
     1
102
RTVSPropertyOp9
 70
     1
102
RTVSPropertyOp10
 70
     1
102
RTVSPropertyOp11
 70
     1
102
RTVSPropertyOp12
 70
     1
102
RTVSPropertyOp13
 70
     1
102
RTVSPropertyOp14
 70
     1
102
RTVSPropertyOp15
 70
     1
102
RTVSPropertyOp16
 70
     1
102
RTVSPropertyOp17
 70
     1
102
RTVSPropertyOp18
 70
     1
102
RTVSPropertyOp19
 70
     1
102
RTVSPropertyOp20
 70
     1
102
RTVSPropertyOp21
 70
     1
102
RTVSPropertyOp22
 70
     1
102
RTVSPropertyOp23
 70
     1
102
RTVSPropertyOp24
 70
     1
102
RTVSPropertyOp25
 70
     1
102
RTVSPropertyOp26
 70
     1
102
RTVSPropertyOp27
 70
     1
102
RTVSPropertyOp28
 70
     1
102
RTVSPropertyOp29
 70
     1
102
RTVSPropertyOp30
 70
     1
102
RTVSPropertyOp31
 70
     1
102
RTVSPropertyOp32
 70
     1
102
RTVSPropertyOp33
 70
     1
102
RTVSPropertyOp34
 70
     1
102
RTVSPropertyOp35
 70
     1
102
RTVSPropertyOp36
 70
     1
102
RTVSPropertyOp37
 70
     1
102
RTVSPropertyOp38
 70
     1
102
RTVSPropertyOp39
 70
     1
102
RTVSPropertyOp40
 70
     1
102
RTVSPropertyOp41
 70
     1
102
RTVSPropertyOp42
 70
     1
102
RTVSPropertyOp43
 70
     1
102
RTVSPropertyOp44
 70
     1
102
RTVSPropertyOp45
 70
     1
102
RTVSPropertyOp46
 70
     1
102
RTVSPropertyOp47
 70
     1
102
RTVSPropertyOp48
 70
     1
102
RTVSPropertyOp49
 70
     1
102
RTVSPropertyOp50
 70
     1
102
RTVSPropertyOp51
 70
     0
102
RTVSPropertyOp52
 70
     0
102
RTVSPropertyOp53
 70
     1
102
RTVSPropertyOp54
 70
     1
102
RTVSPropertyOp55
 70
     1
102
RTVSPropertyOp56
 70
     1
102
RTVSPropertyOp57
 70
     1
102
RTVSPost2010Prop28
280
     0
102
RTVSPost2010PropOp28
 70
     1
102
RTVSPost2010Prop29
280
     1
102
RTVSPost2010PropOp29
 70
     1
102
RTVSPost2010Prop30
280
     1
102
RTVSPost2010PropOp30
 70
     1
102
RTVSPost2010Prop31
280
     0
102
RTVSPost2010PropOp31
 70
     1
102
RTVSPost2010Prop32
280
     0
102
RTVSPost2010PropOp32
 70
     1
102
RTVSPost2010Prop33
280
     0
102
RTVSPost2010PropOp33
 70
     1
102
RTVSPost2010Prop34
280
     0
102
RTVSPost2010PropOp34
 70
     1
102
RTVSPost2010Prop35
280
     0
102
RTVSPost2010PropOp35
 70
     1
102
RTVSPost2010Prop36
280
     0
102
RTVSPost2010PropOp36
 70
     1
102
RTVSPost2010Prop37
 90
       50
102
RTVSPost2010PropOp37
 70
     1
102
RTVSPost2010Prop38
140
0.0
102
RTVSPost2010PropOp38
 70
     1
102
RTVSPost2010Prop39
140
1.0
102
RTVSPost2010PropOp39
 70
     1
102
RTVSPost2010Prop40
 90
        0
102
RTVSPost2010PropOp40
 70
     1
102
RTVSPost2010Prop41ColorIndex
 90
       18
102
RTVSPost2010Prop41ColorRGB
 90
        0
102
RTVSPost2010PropOp41
 70
     1
102
RTVSPost2010Prop42
 90
       50
102
RTVSPost2010PropOp42
 70
     1
102
RTVSPost2010Prop43
 90
        3
102
RTVSPost2010PropOp43
 70
     1
102
RTVSPost2010Prop44ColorIndex
 90
        5
102
RTVSPost2010Prop44ColorRGB
 90
      255
102
RTVSPost2010PropOp44
 70
     1
102
RTVSPost2010Prop45
280
     0
102
RTVSPost2010PropOp45
 70
     1
102
RTVSPost2010Prop46
 90
       50
102
RTVSPost2010PropOp46
 70
     1
102
RTVSPost2010Prop47
 90
       50
102
RTVSPost2010PropOp47
 70
     1
102
RTVSPost2010Prop48
 90
       50
102
RTVSPost2010PropOp48
 70
     1
102
RTVSPost2010Prop49
280
     0
102
RTVSPost2010PropOp49
 70
     1
102
RTVSPost2010Prop50
 90
       50
102
RTVSPost2010PropOp50
 70
     1
102
RTVSPost2010Prop51ColorIndex
 90
      256
102
RTVSPost2010Prop51ColorRGB
 90
-16777216
102
RTVSPost2010PropOp51
 70
     0
102
RTVSPost2010Prop52
140
1.0
102
RTVSPost2010PropOp52
 70
     0
102
RTVSPost2010Prop53
 90
        2
102
RTVSPost2010PropOp53
 70
     1
102
RTVSPost2010Prop54
  1
strokes_ogs.tif
102
RTVSPost2010PropOp54
 70
     1
102
RTVSPost2010Prop55
280
     0
102
RTVSPost2010PropOp55
 70
     1
102
RTVSPost2010Prop56
140
1.0
102
RTVSPost2010PropOp56
 70
     1
102
RTVSPost2010Prop57
140
1.0
102
RTVSPost2010PropOp57
 70
     1
  0
XRECORD
  5
3D3
102
{ACAD_REACTORS
330
3D2
102
}
330
3D2
100
AcDbXrecord
280
     1
102
RTVSPropertyOp0
 70
     0
102
RTVSPropertyOp1
 70
     0
102
RTVSPropertyOp2
 70
     0
102
RTVSPropertyOp3
 70
     0
102
RTVSPropertyOp4
 70
     0
102
RTVSPropertyOp5
 70
     0
102
RTVSPropertyOp6
 70
     0
102
RTVSPropertyOp7
 70
     0
102
RTVSPropertyOp8
 70
     0
102
RTVSPropertyOp9
 70
     0
102
RTVSPropertyOp10
 70
     0
102
RTVSPropertyOp11
 70
     0
102
RTVSPropertyOp12
 70
     0
102
RTVSPropertyOp13
 70
     0
102
RTVSPropertyOp14
 70
     2
102
RTVSPropertyOp15
 70
     0
102
RTVSPropertyOp16
 70
     0
102
RTVSPropertyOp17
 70
     0
102
RTVSPropertyOp18
 70
     0
102
RTVSPropertyOp19
 70
     0
102
RTVSPropertyOp20
 70
     0
102
RTVSPropertyOp21
 70
     0
102
RTVSPropertyOp22
 70
     0
102
RTVSPropertyOp23
 70
     0
102
RTVSPropertyOp24
 70
     0
102
RTVSPropertyOp25
 70
     0
102
RTVSPropertyOp26
 70
     0
102
RTVSPropertyOp27
 70
     0
102
RTVSPropertyOp28
 70
     0
102
RTVSPropertyOp29
 70
     0
102
RTVSPropertyOp30
 70
     0
102
RTVSPropertyOp31
 70
     0
102
RTVSPropertyOp32
 70
     0
102
RTVSPropertyOp33
 70
     0
102
RTVSPropertyOp34
 70
     0
102
RTVSPropertyOp35
 70
     0
102
RTVSPropertyOp36
 70
     0
102
RTVSPropertyOp37
 70
     0
102
RTVSPropertyOp38
 70
     0
102
RTVSPropertyOp39
 70
     0
102
RTVSPropertyOp40
 70
     0
102
RTVSPropertyOp41
 70
     0
102
RTVSPropertyOp42
 70
     0
102
RTVSPropertyOp43
 70
     0
102
RTVSPropertyOp44
 70
     0
102
RTVSPropertyOp45
 70
     0
102
RTVSPropertyOp46
 70
     0
102
RTVSPropertyOp47
 70
     0
102
RTVSPropertyOp48
 70
     0
102
RTVSPropertyOp49
 70
     0
102
RTVSPropertyOp50
 70
     0
102
RTVSPropertyOp51
 70
     0
102
RTVSPropertyOp52
 70
     0
102
RTVSPropertyOp53
 70
     0
102
RTVSPropertyOp54
 70
     0
102
RTVSPropertyOp55
 70
     0
102
RTVSPropertyOp56
 70
     0
102
RTVSPropertyOp57
 70
     0
102
RTVSPost2010Prop28
280
     0
102
RTVSPost2010PropOp28
 70
     0
102
RTVSPost2010Prop29
280
     1
102
RTVSPost2010PropOp29
 70
     0
102
RTVSPost2010Prop30
280
     1
102
RTVSPost2010PropOp30
 70
     0
102
RTVSPost2010Prop31
280
     0
102
RTVSPost2010PropOp31
 70
     0
102
RTVSPost2010Prop32
280
     0
102
RTVSPost2010PropOp32
 70
     0
102
RTVSPost2010Prop33
280
     0
102
RTVSPost2010PropOp33
 70
     0
102
RTVSPost2010Prop34
280
     0
102
RTVSPost2010PropOp34
 70
     0
102
RTVSPost2010Prop35
280
     0
102
RTVSPost2010PropOp35
 70
     0
102
RTVSPost2010Prop36
280
     0
102
RTVSPost2010PropOp36
 70
     0
102
RTVSPost2010Prop37
 90
       50
102
RTVSPost2010PropOp37
 70
     0
102
RTVSPost2010Prop38
140
0.0
102
RTVSPost2010PropOp38
 70
     0
102
RTVSPost2010Prop39
140
1.0
102
RTVSPost2010PropOp39
 70
     0
102
RTVSPost2010Prop40
 90
        0
102
RTVSPost2010PropOp40
 70
     0
102
RTVSPost2010Prop41ColorIndex
 90
       18
102
RTVSPost2010Prop41ColorRGB
 90
        0
102
RTVSPost2010PropOp41
 70
     0
102
RTVSPost2010Prop42
 90
       50
102
RTVSPost2010PropOp42
 70
     0
102
RTVSPost2010Prop43
 90
        3
102
RTVSPost2010PropOp43
 70
     0
102
RTVSPost2010Prop44ColorIndex
 90
        5
102
RTVSPost2010Prop44ColorRGB
 90
      255
102
RTVSPost2010PropOp44
 70
     0
102
RTVSPost2010Prop45
280
     0
102
RTVSPost2010PropOp45
 70
     0
102
RTVSPost2010Prop46
 90
       50
102
RTVSPost2010PropOp46
 70
     0
102
RTVSPost2010Prop47
 90
       50
102
RTVSPost2010PropOp47
 70
     0
102
RTVSPost2010Prop48
 90
       50
102
RTVSPost2010PropOp48
 70
     0
102
RTVSPost2010Prop49
280
     0
102
RTVSPost2010PropOp49
 70
     0
102
RTVSPost2010Prop50
 90
       50
102
RTVSPost2010PropOp50
 70
     0
102
RTVSPost2010Prop51ColorIndex
 90
      256
102
RTVSPost2010Prop51ColorRGB
 90
-16777216
102
RTVSPost2010PropOp51
 70
     0
102
RTVSPost2010Prop52
140
1.0
102
RTVSPost2010PropOp52
 70
     0
102
RTVSPost2010Prop53
 90
        2
102
RTVSPost2010PropOp53
 70
     0
102
RTVSPost2010Prop54
  1
strokes_ogs.tif
102
RTVSPost2010PropOp54
 70
     0
102
RTVSPost2010Prop55
280
     0
102
RTVSPost2010PropOp55
 70
     0
102
RTVSPost2010Prop56
140
1.0
102
RTVSPost2010PropOp56
 70
     0
102
RTVSPost2010Prop57
140
1.0
102
RTVSPost2010PropOp57
 70
     0
  0
XRECORD
  5
3C1
102
{ACAD_REACTORS
330
3C0
102
}
330
3C0
100
AcDbXrecord
280
     1
102
RTVSPropertyOp0
 70
     1
102
RTVSPropertyOp1
 70
     1
102
RTVSPropertyOp2
 70
     1
102
RTVSPropertyOp3
 70
     1
102
RTVSPropertyOp4
 70
     1
102
RTVSPropertyOp5
 70
     1
102
RTVSPropertyOp6
 70
     1
102
RTVSPropertyOp7
 70
     1
102
RTVSPropertyOp8
 70
     1
102
RTVSPropertyOp9
 70
     1
102
RTVSPropertyOp10
 70
     1
102
RTVSPropertyOp11
 70
     1
102
RTVSPropertyOp12
 70
     1
102
RTVSPropertyOp13
 70
     1
102
RTVSPropertyOp14
 70
     1
102
RTVSPropertyOp15
 70
     1
102
RTVSPropertyOp16
 70
     1
102
RTVSPropertyOp17
 70
     1
102
RTVSPropertyOp18
 70
     1
102
RTVSPropertyOp19
 70
     1
102
RTVSPropertyOp20
 70
     1
102
RTVSPropertyOp21
 70
     1
102
RTVSPropertyOp22
 70
     1
102
RTVSPropertyOp23
 70
     1
102
RTVSPropertyOp24
 70
     1
102
RTVSPropertyOp25
 70
     1
102
RTVSPropertyOp26
 70
     1
102
RTVSPropertyOp27
 70
     1
102
RTVSPropertyOp28
 70
     1
102
RTVSPropertyOp29
 70
     1
102
RTVSPropertyOp30
 70
     1
102
RTVSPropertyOp31
 70
     1
102
RTVSPropertyOp32
 70
     1
102
RTVSPropertyOp33
 70
     1
102
RTVSPropertyOp34
 70
     1
102
RTVSPropertyOp35
 70
     1
102
RTVSPropertyOp36
 70
     1
102
RTVSPropertyOp37
 70
     1
102
RTVSPropertyOp38
 70
     1
102
RTVSPropertyOp39
 70
     1
102
RTVSPropertyOp40
 70
     1
102
RTVSPropertyOp41
 70
     1
102
RTVSPropertyOp42
 70
     1
102
RTVSPropertyOp43
 70
     1
102
RTVSPropertyOp44
 70
     1
102
RTVSPropertyOp45
 70
     1
102
RTVSPropertyOp46
 70
     1
102
RTVSPropertyOp47
 70
     1
102
RTVSPropertyOp48
 70
     1
102
RTVSPropertyOp49
 70
     1
102
RTVSPropertyOp50
 70
     1
102
RTVSPropertyOp51
 70
     0
102
RTVSPropertyOp52
 70
     0
102
RTVSPropertyOp53
 70
     1
102
RTVSPropertyOp54
 70
     1
102
RTVSPropertyOp55
 70
     1
102
RTVSPropertyOp56
 70
     1
102
RTVSPropertyOp57
 70
     1
102
RTVSPost2010Prop28
280
     0
102
RTVSPost2010PropOp28
 70
     1
102
RTVSPost2010Prop29
280
     1
102
RTVSPost2010PropOp29
 70
     1
102
RTVSPost2010Prop30
280
     1
102
RTVSPost2010PropOp30
 70
     1
102
RTVSPost2010Prop31
280
     0
102
RTVSPost2010PropOp31
 70
     1
102
RTVSPost2010Prop32
280
     0
102
RTVSPost2010PropOp32
 70
     1
102
RTVSPost2010Prop33
280
     0
102
RTVSPost2010PropOp33
 70
     1
102
RTVSPost2010Prop34
280
     0
102
RTVSPost2010PropOp34
 70
     1
102
RTVSPost2010Prop35
280
     0
102
RTVSPost2010PropOp35
 70
     1
102
RTVSPost2010Prop36
280
     0
102
RTVSPost2010PropOp36
 70
     1
102
RTVSPost2010Prop37
 90
       50
102
RTVSPost2010PropOp37
 70
     1
102
RTVSPost2010Prop38
140
0.0
102
RTVSPost2010PropOp38
 70
     1
102
RTVSPost2010Prop39
140
1.0
102
RTVSPost2010PropOp39
 70
     1
102
RTVSPost2010Prop40
 90
        0
102
RTVSPost2010PropOp40
 70
     1
102
RTVSPost2010Prop41ColorIndex
 90
       18
102
RTVSPost2010Prop41ColorRGB
 90
        0
102
RTVSPost2010PropOp41
 70
     1
102
RTVSPost2010Prop42
 90
       50
102
RTVSPost2010PropOp42
 70
     1
102
RTVSPost2010Prop43
 90
        3
102
RTVSPost2010PropOp43
 70
     1
102
RTVSPost2010Prop44ColorIndex
 90
        5
102
RTVSPost2010Prop44ColorRGB
 90
      255
102
RTVSPost2010PropOp44
 70
     1
102
RTVSPost2010Prop45
280
     0
102
RTVSPost2010PropOp45
 70
     1
102
RTVSPost2010Prop46
 90
       50
102
RTVSPost2010PropOp46
 70
     1
102
RTVSPost2010Prop47
 90
       50
102
RTVSPost2010PropOp47
 70
     1
102
RTVSPost2010Prop48
 90
       50
102
RTVSPost2010PropOp48
 70
     1
102
RTVSPost2010Prop49
280
     0
102
RTVSPost2010PropOp49
 70
     1
102
RTVSPost2010Prop50
 90
       50
102
RTVSPost2010PropOp50
 70
     1
102
RTVSPost2010Prop51ColorIndex
 90
      256
102
RTVSPost2010Prop51ColorRGB
 90
-16777216
102
RTVSPost2010PropOp51
 70
     0
102
RTVSPost2010Prop52
140
1.0
102
RTVSPost2010PropOp52
 70
     0
102
RTVSPost2010Prop53
 90
        2
102
RTVSPost2010PropOp53
 70
     1
102
RTVSPost2010Prop54
  1
strokes_ogs.tif
102
RTVSPost2010PropOp54
 70
     1
102
RTVSPost2010Prop55
280
     0
102
RTVSPost2010PropOp55
 70
     1
102
RTVSPost2010Prop56
140
1.0
102
RTVSPost2010PropOp56
 70
     1
102
RTVSPost2010Prop57
140
1.0
102
RTVSPost2010PropOp57
 70
     1
  0
XRECORD
  5
3DF
102
{ACAD_REACTORS
330
3DE
102
}
330
3DE
100
AcDbXrecord
280
     1
102
RTVSPropertyOp0
 70
     1
102
RTVSPropertyOp1
 70
     1
102
RTVSPropertyOp2
 70
     1
102
RTVSPropertyOp3
 70
     1
102
RTVSPropertyOp4
 70
     1
102
RTVSPropertyOp5
 70
     1
102
RTVSPropertyOp6
 70
     1
102
RTVSPropertyOp7
 70
     1
102
RTVSPropertyOp8
 70
     1
102
RTVSPropertyOp9
 70
     1
102
RTVSPropertyOp10
 70
     1
102
RTVSPropertyOp11
 70
     1
102
RTVSPropertyOp12
 70
     1
102
RTVSPropertyOp13
 70
     1
102
RTVSPropertyOp14
 70
     1
102
RTVSPropertyOp15
 70
     1
102
RTVSPropertyOp16
 70
     1
102
RTVSPropertyOp17
 70
     1
102
RTVSPropertyOp18
 70
     1
102
RTVSPropertyOp19
 70
     1
102
RTVSPropertyOp20
 70
     1
102
RTVSPropertyOp21
 70
     1
102
RTVSPropertyOp22
 70
     1
102
RTVSPropertyOp23
 70
     1
102
RTVSPropertyOp24
 70
     1
102
RTVSPropertyOp25
 70
     1
102
RTVSPropertyOp26
 70
     1
102
RTVSPropertyOp27
 70
     1
102
RTVSPropertyOp28
 70
     1
102
RTVSPropertyOp29
 70
     1
102
RTVSPropertyOp30
 70
     1
102
RTVSPropertyOp31
 70
     1
102
RTVSPropertyOp32
 70
     1
102
RTVSPropertyOp33
 70
     1
102
RTVSPropertyOp34
 70
     1
102
RTVSPropertyOp35
 70
     1
102
RTVSPropertyOp36
 70
     1
102
RTVSPropertyOp37
 70
     1
102
RTVSPropertyOp38
 70
     1
102
RTVSPropertyOp39
 70
     1
102
RTVSPropertyOp40
 70
     1
102
RTVSPropertyOp41
 70
     1
102
RTVSPropertyOp42
 70
     1
102
RTVSPropertyOp43
 70
     1
102
RTVSPropertyOp44
 70
     1
102
RTVSPropertyOp45
 70
     1
102
RTVSPropertyOp46
 70
     1
102
RTVSPropertyOp47
 70
     1
102
RTVSPropertyOp48
 70
     1
102
RTVSPropertyOp49
 70
     1
102
RTVSPropertyOp50
 70
     1
102
RTVSPropertyOp51
 70
     0
102
RTVSPropertyOp52
 70
     0
102
RTVSPropertyOp53
 70
     1
102
RTVSPropertyOp54
 70
     1
102
RTVSPropertyOp55
 70
     1
102
RTVSPropertyOp56
 70
     1
102
RTVSPropertyOp57
 70
     1
102
RTVSPost2010Prop28
280
     0
102
RTVSPost2010PropOp28
 70
     1
102
RTVSPost2010Prop29
280
     1
102
RTVSPost2010PropOp29
 70
     1
102
RTVSPost2010Prop30
280
     1
102
RTVSPost2010PropOp30
 70
     1
102
RTVSPost2010Prop31
280
     0
102
RTVSPost2010PropOp31
 70
     1
102
RTVSPost2010Prop32
280
     0
102
RTVSPost2010PropOp32
 70
     1
102
RTVSPost2010Prop33
280
     0
102
RTVSPost2010PropOp33
 70
     1
102
RTVSPost2010Prop34
280
     0
102
RTVSPost2010PropOp34
 70
     1
102
RTVSPost2010Prop35
280
     0
102
RTVSPost2010PropOp35
 70
     1
102
RTVSPost2010Prop36
280
     0
102
RTVSPost2010PropOp36
 70
     1
102
RTVSPost2010Prop37
 90
       50
102
RTVSPost2010PropOp37
 70
     1
102
RTVSPost2010Prop38
140
0.0
102
RTVSPost2010PropOp38
 70
     1
102
RTVSPost2010Prop39
140
1.0
102
RTVSPost2010PropOp39
 70
     1
102
RTVSPost2010Prop40
 90
        0
102
RTVSPost2010PropOp40
 70
     1
102
RTVSPost2010Prop41ColorIndex
 90
       18
102
RTVSPost2010Prop41ColorRGB
 90
        0
102
RTVSPost2010PropOp41
 70
     1
102
RTVSPost2010Prop42
 90
       50
102
RTVSPost2010PropOp42
 70
     1
102
RTVSPost2010Prop43
 90
        3
102
RTVSPost2010PropOp43
 70
     1
102
RTVSPost2010Prop44ColorIndex
 90
        5
102
RTVSPost2010Prop44ColorRGB
 90
      255
102
RTVSPost2010PropOp44
 70
     1
102
RTVSPost2010Prop45
280
     0
102
RTVSPost2010PropOp45
 70
     1
102
RTVSPost2010Prop46
 90
       50
102
RTVSPost2010PropOp46
 70
     1
102
RTVSPost2010Prop47
 90
       50
102
RTVSPost2010PropOp47
 70
     1
102
RTVSPost2010Prop48
 90
       50
102
RTVSPost2010PropOp48
 70
     1
102
RTVSPost2010Prop49
280
     0
102
RTVSPost2010PropOp49
 70
     1
102
RTVSPost2010Prop50
 90
       50
102
RTVSPost2010PropOp50
 70
     1
102
RTVSPost2010Prop51ColorIndex
 90
      256
102
RTVSPost2010Prop51ColorRGB
 90
-16777216
102
RTVSPost2010PropOp51
 70
     0
102
RTVSPost2010Prop52
140
1.0
102
RTVSPost2010PropOp52
 70
     0
102
RTVSPost2010Prop53
 90
        2
102
RTVSPost2010PropOp53
 70
     1
102
RTVSPost2010Prop54
  1
strokes_ogs.tif
102
RTVSPost2010PropOp54
 70
     1
102
RTVSPost2010Prop55
280
     0
102
RTVSPost2010PropOp55
 70
     1
102
RTVSPost2010Prop56
140
1.0
102
RTVSPost2010PropOp56
 70
     1
102
RTVSPost2010Prop57
140
1.0
102
RTVSPost2010PropOp57
 70
     1
  0
XRECORD
  5
3DD
102
{ACAD_REACTORS
330
3DC
102
}
330
3DC
100
AcDbXrecord
280
     1
102
RTVSPropertyOp0
 70
     1
102
RTVSPropertyOp1
 70
     1
102
RTVSPropertyOp2
 70
     1
102
RTVSPropertyOp3
 70
     1
102
RTVSPropertyOp4
 70
     1
102
RTVSPropertyOp5
 70
     1
102
RTVSPropertyOp6
 70
     1
102
RTVSPropertyOp7
 70
     1
102
RTVSPropertyOp8
 70
     1
102
RTVSPropertyOp9
 70
     1
102
RTVSPropertyOp10
 70
     1
102
RTVSPropertyOp11
 70
     1
102
RTVSPropertyOp12
 70
     1
102
RTVSPropertyOp13
 70
     1
102
RTVSPropertyOp14
 70
     1
102
RTVSPropertyOp15
 70
     1
102
RTVSPropertyOp16
 70
     1
102
RTVSPropertyOp17
 70
     1
102
RTVSPropertyOp18
 70
     1
102
RTVSPropertyOp19
 70
     1
102
RTVSPropertyOp20
 70
     1
102
RTVSPropertyOp21
 70
     1
102
RTVSPropertyOp22
 70
     1
102
RTVSPropertyOp23
 70
     1
102
RTVSPropertyOp24
 70
     1
102
RTVSPropertyOp25
 70
     1
102
RTVSPropertyOp26
 70
     1
102
RTVSPropertyOp27
 70
     1
102
RTVSPropertyOp28
 70
     1
102
RTVSPropertyOp29
 70
     1
102
RTVSPropertyOp30
 70
     1
102
RTVSPropertyOp31
 70
     1
102
RTVSPropertyOp32
 70
     1
102
RTVSPropertyOp33
 70
     1
102
RTVSPropertyOp34
 70
     1
102
RTVSPropertyOp35
 70
     1
102
RTVSPropertyOp36
 70
     1
102
RTVSPropertyOp37
 70
     1
102
RTVSPropertyOp38
 70
     1
102
RTVSPropertyOp39
 70
     1
102
RTVSPropertyOp40
 70
     1
102
RTVSPropertyOp41
 70
     1
102
RTVSPropertyOp42
 70
     1
102
RTVSPropertyOp43
 70
     1
102
RTVSPropertyOp44
 70
     1
102
RTVSPropertyOp45
 70
     1
102
RTVSPropertyOp46
 70
     1
102
RTVSPropertyOp47
 70
     1
102
RTVSPropertyOp48
 70
     1
102
RTVSPropertyOp49
 70
     1
102
RTVSPropertyOp50
 70
     1
102
RTVSPropertyOp51
 70
     0
102
RTVSPropertyOp52
 70
     0
102
RTVSPropertyOp53
 70
     1
102
RTVSPropertyOp54
 70
     1
102
RTVSPropertyOp55
 70
     1
102
RTVSPropertyOp56
 70
     1
102
RTVSPropertyOp57
 70
     1
102
RTVSPost2010Prop28
280
     0
102
RTVSPost2010PropOp28
 70
     1
102
RTVSPost2010Prop29
280
     1
102
RTVSPost2010PropOp29
 70
     1
102
RTVSPost2010Prop30
280
     1
102
RTVSPost2010PropOp30
 70
     1
102
RTVSPost2010Prop31
280
     0
102
RTVSPost2010PropOp31
 70
     1
102
RTVSPost2010Prop32
280
     0
102
RTVSPost2010PropOp32
 70
     1
102
RTVSPost2010Prop33
280
     0
102
RTVSPost2010PropOp33
 70
     1
102
RTVSPost2010Prop34
280
     0
102
RTVSPost2010PropOp34
 70
     1
102
RTVSPost2010Prop35
280
     0
102
RTVSPost2010PropOp35
 70
     1
102
RTVSPost2010Prop36
280
     0
102
RTVSPost2010PropOp36
 70
     1
102
RTVSPost2010Prop37
 90
       50
102
RTVSPost2010PropOp37
 70
     1
102
RTVSPost2010Prop38
140
0.0
102
RTVSPost2010PropOp38
 70
     1
102
RTVSPost2010Prop39
140
1.0
102
RTVSPost2010PropOp39
 70
     1
102
RTVSPost2010Prop40
 90
        0
102
RTVSPost2010PropOp40
 70
     1
102
RTVSPost2010Prop41ColorIndex
 90
       18
102
RTVSPost2010Prop41ColorRGB
 90
        0
102
RTVSPost2010PropOp41
 70
     1
102
RTVSPost2010Prop42
 90
       50
102
RTVSPost2010PropOp42
 70
     1
102
RTVSPost2010Prop43
 90
        3
102
RTVSPost2010PropOp43
 70
     1
102
RTVSPost2010Prop44ColorIndex
 90
        5
102
RTVSPost2010Prop44ColorRGB
 90
      255
102
RTVSPost2010PropOp44
 70
     1
102
RTVSPost2010Prop45
280
     0
102
RTVSPost2010PropOp45
 70
     1
102
RTVSPost2010Prop46
 90
       50
102
RTVSPost2010PropOp46
 70
     1
102
RTVSPost2010Prop47
 90
       50
102
RTVSPost2010PropOp47
 70
     1
102
RTVSPost2010Prop48
 90
       50
102
RTVSPost2010PropOp48
 70
     1
102
RTVSPost2010Prop49
280
     0
102
RTVSPost2010PropOp49
 70
     1
102
RTVSPost2010Prop50
 90
       50
102
RTVSPost2010PropOp50
 70
     1
102
RTVSPost2010Prop51ColorIndex
 90
      256
102
RTVSPost2010Prop51ColorRGB
 90
-16777216
102
RTVSPost2010PropOp51
 70
     0
102
RTVSPost2010Prop52
140
1.0
102
RTVSPost2010PropOp52
 70
     0
102
RTVSPost2010Prop53
 90
        2
102
RTVSPost2010PropOp53
 70
     1
102
RTVSPost2010Prop54
  1
strokes_ogs.tif
102
RTVSPost2010PropOp54
 70
     1
102
RTVSPost2010Prop55
280
     0
102
RTVSPost2010PropOp55
 70
     1
102
RTVSPost2010Prop56
140
1.0
102
RTVSPost2010PropOp56
 70
     1
102
RTVSPost2010Prop57
140
1.0
102
RTVSPost2010PropOp57
 70
     1
  0
XRECORD
  5
3D7
102
{ACAD_REACTORS
330
3D6
102
}
330
3D6
100
AcDbXrecord
280
     1
102
RTVSPropertyOp0
 70
     1
102
RTVSPropertyOp1
 70
     1
102
RTVSPropertyOp2
 70
     1
102
RTVSPropertyOp3
 70
     1
102
RTVSPropertyOp4
 70
     1
102
RTVSPropertyOp5
 70
     1
102
RTVSPropertyOp6
 70
     1
102
RTVSPropertyOp7
 70
     1
102
RTVSPropertyOp8
 70
     1
102
RTVSPropertyOp9
 70
     1
102
RTVSPropertyOp10
 70
     1
102
RTVSPropertyOp11
 70
     1
102
RTVSPropertyOp12
 70
     1
102
RTVSPropertyOp13
 70
     1
102
RTVSPropertyOp14
 70
     1
102
RTVSPropertyOp15
 70
     1
102
RTVSPropertyOp16
 70
     1
102
RTVSPropertyOp17
 70
     1
102
RTVSPropertyOp18
 70
     1
102
RTVSPropertyOp19
 70
     1
102
RTVSPropertyOp20
 70
     1
102
RTVSPropertyOp21
 70
     1
102
RTVSPropertyOp22
 70
     1
102
RTVSPropertyOp23
 70
     1
102
RTVSPropertyOp24
 70
     1
102
RTVSPropertyOp25
 70
     1
102
RTVSPropertyOp26
 70
     1
102
RTVSPropertyOp27
 70
     1
102
RTVSPropertyOp28
 70
     1
102
RTVSPropertyOp29
 70
     1
102
RTVSPropertyOp30
 70
     1
102
RTVSPropertyOp31
 70
     1
102
RTVSPropertyOp32
 70
     1
102
RTVSPropertyOp33
 70
     1
102
RTVSPropertyOp34
 70
     1
102
RTVSPropertyOp35
 70
     1
102
RTVSPropertyOp36
 70
     1
102
RTVSPropertyOp37
 70
     1
102
RTVSPropertyOp38
 70
     1
102
RTVSPropertyOp39
 70
     1
102
RTVSPropertyOp40
 70
     1
102
RTVSPropertyOp41
 70
     1
102
RTVSPropertyOp42
 70
     1
102
RTVSPropertyOp43
 70
     1
102
RTVSPropertyOp44
 70
     1
102
RTVSPropertyOp45
 70
     1
102
RTVSPropertyOp46
 70
     1
102
RTVSPropertyOp47
 70
     1
102
RTVSPropertyOp48
 70
     1
102
RTVSPropertyOp49
 70
     1
102
RTVSPropertyOp50
 70
     1
102
RTVSPropertyOp51
 70
     0
102
RTVSPropertyOp52
 70
     0
102
RTVSPropertyOp53
 70
     1
102
RTVSPropertyOp54
 70
     1
102
RTVSPropertyOp55
 70
     1
102
RTVSPropertyOp56
 70
     1
102
RTVSPropertyOp57
 70
     1
102
RTVSPost2010Prop28
280
     0
102
RTVSPost2010PropOp28
 70
     1
102
RTVSPost2010Prop29
280
     1
102
RTVSPost2010PropOp29
 70
     1
102
RTVSPost2010Prop30
280
     1
102
RTVSPost2010PropOp30
 70
     1
102
RTVSPost2010Prop31
280
     0
102
RTVSPost2010PropOp31
 70
     1
102
RTVSPost2010Prop32
280
     0
102
RTVSPost2010PropOp32
 70
     1
102
RTVSPost2010Prop33
280
     0
102
RTVSPost2010PropOp33
 70
     1
102
RTVSPost2010Prop34
280
     0
102
RTVSPost2010PropOp34
 70
     1
102
RTVSPost2010Prop35
280
     0
102
RTVSPost2010PropOp35
 70
     1
102
RTVSPost2010Prop36
280
     0
102
RTVSPost2010PropOp36
 70
     1
102
RTVSPost2010Prop37
 90
       50
102
RTVSPost2010PropOp37
 70
     1
102
RTVSPost2010Prop38
140
0.0
102
RTVSPost2010PropOp38
 70
     1
102
RTVSPost2010Prop39
140
1.0
102
RTVSPost2010PropOp39
 70
     1
102
RTVSPost2010Prop40
 90
        0
102
RTVSPost2010PropOp40
 70
     1
102
RTVSPost2010Prop41ColorIndex
 90
       18
102
RTVSPost2010Prop41ColorRGB
 90
        0
102
RTVSPost2010PropOp41
 70
     1
102
RTVSPost2010Prop42
 90
       50
102
RTVSPost2010PropOp42
 70
     1
102
RTVSPost2010Prop43
 90
        3
102
RTVSPost2010PropOp43
 70
     1
102
RTVSPost2010Prop44ColorIndex
 90
        5
102
RTVSPost2010Prop44ColorRGB
 90
      255
102
RTVSPost2010PropOp44
 70
     1
102
RTVSPost2010Prop45
280
     0
102
RTVSPost2010PropOp45
 70
     1
102
RTVSPost2010Prop46
 90
       50
102
RTVSPost2010PropOp46
 70
     1
102
RTVSPost2010Prop47
 90
       50
102
RTVSPost2010PropOp47
 70
     1
102
RTVSPost2010Prop48
 90
       50
102
RTVSPost2010PropOp48
 70
     1
102
RTVSPost2010Prop49
280
     0
102
RTVSPost2010PropOp49
 70
     1
102
RTVSPost2010Prop50
 90
       50
102
RTVSPost2010PropOp50
 70
     1
102
RTVSPost2010Prop51ColorIndex
 90
      256
102
RTVSPost2010Prop51ColorRGB
 90
-16777216
102
RTVSPost2010PropOp51
 70
     0
102
RTVSPost2010Prop52
140
1.0
102
RTVSPost2010PropOp52
 70
     0
102
RTVSPost2010Prop53
 90
        2
102
RTVSPost2010PropOp53
 70
     1
102
RTVSPost2010Prop54
  1
strokes_ogs.tif
102
RTVSPost2010PropOp54
 70
     1
102
RTVSPost2010Prop55
280
     0
102
RTVSPost2010PropOp55
 70
     1
102
RTVSPost2010Prop56
140
1.0
102
RTVSPost2010PropOp56
 70
     1
102
RTVSPost2010Prop57
140
1.0
102
RTVSPost2010PropOp57
 70
     1
  0
XRECORD
  5
3D9
102
{ACAD_REACTORS
330
3D8
102
}
330
3D8
100
AcDbXrecord
280
     1
102
RTVSPropertyOp0
 70
     1
102
RTVSPropertyOp1
 70
     1
102
RTVSPropertyOp2
 70
     1
102
RTVSPropertyOp3
 70
     1
102
RTVSPropertyOp4
 70
     1
102
RTVSPropertyOp5
 70
     1
102
RTVSPropertyOp6
 70
     1
102
RTVSPropertyOp7
 70
     1
102
RTVSPropertyOp8
 70
     1
102
RTVSPropertyOp9
 70
     1
102
RTVSPropertyOp10
 70
     1
102
RTVSPropertyOp11
 70
     1
102
RTVSPropertyOp12
 70
     1
102
RTVSPropertyOp13
 70
     1
102
RTVSPropertyOp14
 70
     1
102
RTVSPropertyOp15
 70
     1
102
RTVSPropertyOp16
 70
     1
102
RTVSPropertyOp17
 70
     1
102
RTVSPropertyOp18
 70
     1
102
RTVSPropertyOp19
 70
     1
102
RTVSPropertyOp20
 70
     1
102
RTVSPropertyOp21
 70
     1
102
RTVSPropertyOp22
 70
     1
102
RTVSPropertyOp23
 70
     1
102
RTVSPropertyOp24
 70
     1
102
RTVSPropertyOp25
 70
     1
102
RTVSPropertyOp26
 70
     1
102
RTVSPropertyOp27
 70
     1
102
RTVSPropertyOp28
 70
     1
102
RTVSPropertyOp29
 70
     1
102
RTVSPropertyOp30
 70
     1
102
RTVSPropertyOp31
 70
     1
102
RTVSPropertyOp32
 70
     1
102
RTVSPropertyOp33
 70
     1
102
RTVSPropertyOp34
 70
     1
102
RTVSPropertyOp35
 70
     1
102
RTVSPropertyOp36
 70
     1
102
RTVSPropertyOp37
 70
     1
102
RTVSPropertyOp38
 70
     1
102
RTVSPropertyOp39
 70
     1
102
RTVSPropertyOp40
 70
     1
102
RTVSPropertyOp41
 70
     1
102
RTVSPropertyOp42
 70
     1
102
RTVSPropertyOp43
 70
     1
102
RTVSPropertyOp44
 70
     1
102
RTVSPropertyOp45
 70
     1
102
RTVSPropertyOp46
 70
     1
102
RTVSPropertyOp47
 70
     1
102
RTVSPropertyOp48
 70
     1
102
RTVSPropertyOp49
 70
     1
102
RTVSPropertyOp50
 70
     1
102
RTVSPropertyOp51
 70
     0
102
RTVSPropertyOp52
 70
     0
102
RTVSPropertyOp53
 70
     1
102
RTVSPropertyOp54
 70
     1
102
RTVSPropertyOp55
 70
     1
102
RTVSPropertyOp56
 70
     1
102
RTVSPropertyOp57
 70
     1
102
RTVSPost2010Prop28
280
     0
102
RTVSPost2010PropOp28
 70
     1
102
RTVSPost2010Prop29
280
     1
102
RTVSPost2010PropOp29
 70
     1
102
RTVSPost2010Prop30
280
     1
102
RTVSPost2010PropOp30
 70
     1
102
RTVSPost2010Prop31
280
     0
102
RTVSPost2010PropOp31
 70
     1
102
RTVSPost2010Prop32
280
     0
102
RTVSPost2010PropOp32
 70
     1
102
RTVSPost2010Prop33
280
     0
102
RTVSPost2010PropOp33
 70
     1
102
RTVSPost2010Prop34
280
     0
102
RTVSPost2010PropOp34
 70
     1
102
RTVSPost2010Prop35
280
     0
102
RTVSPost2010PropOp35
 70
     1
102
RTVSPost2010Prop36
280
     0
102
RTVSPost2010PropOp36
 70
     1
102
RTVSPost2010Prop37
 90
       50
102
RTVSPost2010PropOp37
 70
     1
102
RTVSPost2010Prop38
140
0.0
102
RTVSPost2010PropOp38
 70
     1
102
RTVSPost2010Prop39
140
1.0
102
RTVSPost2010PropOp39
 70
     1
102
RTVSPost2010Prop40
 90
        0
102
RTVSPost2010PropOp40
 70
     1
102
RTVSPost2010Prop41ColorIndex
 90
       18
102
RTVSPost2010Prop41ColorRGB
 90
        0
102
RTVSPost2010PropOp41
 70
     1
102
RTVSPost2010Prop42
 90
       50
102
RTVSPost2010PropOp42
 70
     1
102
RTVSPost2010Prop43
 90
        3
102
RTVSPost2010PropOp43
 70
     1
102
RTVSPost2010Prop44ColorIndex
 90
        5
102
RTVSPost2010Prop44ColorRGB
 90
      255
102
RTVSPost2010PropOp44
 70
     1
102
RTVSPost2010Prop45
280
     0
102
RTVSPost2010PropOp45
 70
     1
102
RTVSPost2010Prop46
 90
       50
102
RTVSPost2010PropOp46
 70
     1
102
RTVSPost2010Prop47
 90
       50
102
RTVSPost2010PropOp47
 70
     1
102
RTVSPost2010Prop48
 90
       50
102
RTVSPost2010PropOp48
 70
     1
102
RTVSPost2010Prop49
280
     0
102
RTVSPost2010PropOp49
 70
     1
102
RTVSPost2010Prop50
 90
       50
102
RTVSPost2010PropOp50
 70
     1
102
RTVSPost2010Prop51ColorIndex
 90
      256
102
RTVSPost2010Prop51ColorRGB
 90
-16777216
102
RTVSPost2010PropOp51
 70
     0
102
RTVSPost2010Prop52
140
1.0
102
RTVSPost2010PropOp52
 70
     0
102
RTVSPost2010Prop53
 90
        2
102
RTVSPost2010PropOp53
 70
     1
102
RTVSPost2010Prop54
  1
strokes_ogs.tif
102
RTVSPost2010PropOp54
 70
     1
102
RTVSPost2010Prop55
280
     0
102
RTVSPost2010PropOp55
 70
     1
102
RTVSPost2010Prop56
140
1.0
102
RTVSPost2010PropOp56
 70
     1
102
RTVSPost2010Prop57
140
1.0
102
RTVSPost2010PropOp57
 70
     1
  0
XRECORD
  5
3C9
102
{ACAD_REACTORS
330
3C8
102
}
330
3C8
100
AcDbXrecord
280
     1
102
RTVSPropertyOp0
 70
     1
102
RTVSPropertyOp1
 70
     1
102
RTVSPropertyOp2
 70
     1
102
RTVSPropertyOp3
 70
     1
102
RTVSPropertyOp4
 70
     1
102
RTVSPropertyOp5
 70
     1
102
RTVSPropertyOp6
 70
     1
102
RTVSPropertyOp7
 70
     1
102
RTVSPropertyOp8
 70
     1
102
RTVSPropertyOp9
 70
     1
102
RTVSPropertyOp10
 70
     1
102
RTVSPropertyOp11
 70
     1
102
RTVSPropertyOp12
 70
     1
102
RTVSPropertyOp13
 70
     1
102
RTVSPropertyOp14
 70
     1
102
RTVSPropertyOp15
 70
     1
102
RTVSPropertyOp16
 70
     1
102
RTVSPropertyOp17
 70
     1
102
RTVSPropertyOp18
 70
     1
102
RTVSPropertyOp19
 70
     1
102
RTVSPropertyOp20
 70
     1
102
RTVSPropertyOp21
 70
     1
102
RTVSPropertyOp22
 70
     1
102
RTVSPropertyOp23
 70
     1
102
RTVSPropertyOp24
 70
     1
102
RTVSPropertyOp25
 70
     1
102
RTVSPropertyOp26
 70
     1
102
RTVSPropertyOp27
 70
     1
102
RTVSPropertyOp28
 70
     1
102
RTVSPropertyOp29
 70
     1
102
RTVSPropertyOp30
 70
     1
102
RTVSPropertyOp31
 70
     1
102
RTVSPropertyOp32
 70
     1
102
RTVSPropertyOp33
 70
     1
102
RTVSPropertyOp34
 70
     1
102
RTVSPropertyOp35
 70
     1
102
RTVSPropertyOp36
 70
     1
102
RTVSPropertyOp37
 70
     1
102
RTVSPropertyOp38
 70
     1
102
RTVSPropertyOp39
 70
     1
102
RTVSPropertyOp40
 70
     1
102
RTVSPropertyOp41
 70
     1
102
RTVSPropertyOp42
 70
     1
102
RTVSPropertyOp43
 70
     1
102
RTVSPropertyOp44
 70
     1
102
RTVSPropertyOp45
 70
     1
102
RTVSPropertyOp46
 70
     1
102
RTVSPropertyOp47
 70
     1
102
RTVSPropertyOp48
 70
     1
102
RTVSPropertyOp49
 70
     1
102
RTVSPropertyOp50
 70
     1
102
RTVSPropertyOp51
 70
     0
102
RTVSPropertyOp52
 70
     0
102
RTVSPropertyOp53
 70
     1
102
RTVSPropertyOp54
 70
     1
102
RTVSPropertyOp55
 70
     1
102
RTVSPropertyOp56
 70
     1
102
RTVSPropertyOp57
 70
     1
102
RTVSPost2010Prop28
280
     0
102
RTVSPost2010PropOp28
 70
     1
102
RTVSPost2010Prop29
280
     1
102
RTVSPost2010PropOp29
 70
     1
102
RTVSPost2010Prop30
280
     1
102
RTVSPost2010PropOp30
 70
     1
102
RTVSPost2010Prop31
280
     0
102
RTVSPost2010PropOp31
 70
     1
102
RTVSPost2010Prop32
280
     0
102
RTVSPost2010PropOp32
 70
     1
102
RTVSPost2010Prop33
280
     0
102
RTVSPost2010PropOp33
 70
     1
102
RTVSPost2010Prop34
280
     0
102
RTVSPost2010PropOp34
 70
     1
102
RTVSPost2010Prop35
280
     0
102
RTVSPost2010PropOp35
 70
     1
102
RTVSPost2010Prop36
280
     0
102
RTVSPost2010PropOp36
 70
     1
102
RTVSPost2010Prop37
 90
       50
102
RTVSPost2010PropOp37
 70
     1
102
RTVSPost2010Prop38
140
0.0
102
RTVSPost2010PropOp38
 70
     1
102
RTVSPost2010Prop39
140
1.0
102
RTVSPost2010PropOp39
 70
     1
102
RTVSPost2010Prop40
 90
        0
102
RTVSPost2010PropOp40
 70
     1
102
RTVSPost2010Prop41ColorIndex
 90
       18
102
RTVSPost2010Prop41ColorRGB
 90
        0
102
RTVSPost2010PropOp41
 70
     1
102
RTVSPost2010Prop42
 90
       50
102
RTVSPost2010PropOp42
 70
     1
102
RTVSPost2010Prop43
 90
        3
102
RTVSPost2010PropOp43
 70
     1
102
RTVSPost2010Prop44ColorIndex
 90
        5
102
RTVSPost2010Prop44ColorRGB
 90
      255
102
RTVSPost2010PropOp44
 70
     1
102
RTVSPost2010Prop45
280
     0
102
RTVSPost2010PropOp45
 70
     1
102
RTVSPost2010Prop46
 90
       50
102
RTVSPost2010PropOp46
 70
     1
102
RTVSPost2010Prop47
 90
       50
102
RTVSPost2010PropOp47
 70
     1
102
RTVSPost2010Prop48
 90
       50
102
RTVSPost2010PropOp48
 70
     1
102
RTVSPost2010Prop49
280
     0
102
RTVSPost2010PropOp49
 70
     1
102
RTVSPost2010Prop50
 90
       50
102
RTVSPost2010PropOp50
 70
     1
102
RTVSPost2010Prop51ColorIndex
 90
      256
102
RTVSPost2010Prop51ColorRGB
 90
-16777216
102
RTVSPost2010PropOp51
 70
     0
102
RTVSPost2010Prop52
140
1.0
102
RTVSPost2010PropOp52
 70
     0
102
RTVSPost2010Prop53
 90
        2
102
RTVSPost2010PropOp53
 70
     1
102
RTVSPost2010Prop54
  1
strokes_ogs.tif
102
RTVSPost2010PropOp54
 70
     1
102
RTVSPost2010Prop55
280
     0
102
RTVSPost2010PropOp55
 70
     1
102
RTVSPost2010Prop56
140
1.0
102
RTVSPost2010PropOp56
 70
     1
102
RTVSPost2010Prop57
140
1.0
102
RTVSPost2010PropOp57
 70
     1
  0
XRECORD
  5
3BB
102
{ACAD_REACTORS
330
3BA
102
}
330
3BA
100
AcDbXrecord
280
     1
102
RTVSPropertyOp0
 70
     1
102
RTVSPropertyOp1
 70
     1
102
RTVSPropertyOp2
 70
     1
102
RTVSPropertyOp3
 70
     1
102
RTVSPropertyOp4
 70
     1
102
RTVSPropertyOp5
 70
     1
102
RTVSPropertyOp6
 70
     1
102
RTVSPropertyOp7
 70
     1
102
RTVSPropertyOp8
 70
     1
102
RTVSPropertyOp9
 70
     1
102
RTVSPropertyOp10
 70
     1
102
RTVSPropertyOp11
 70
     1
102
RTVSPropertyOp12
 70
     1
102
RTVSPropertyOp13
 70
     1
102
RTVSPropertyOp14
 70
     1
102
RTVSPropertyOp15
 70
     1
102
RTVSPropertyOp16
 70
     1
102
RTVSPropertyOp17
 70
     1
102
RTVSPropertyOp18
 70
     1
102
RTVSPropertyOp19
 70
     1
102
RTVSPropertyOp20
 70
     1
102
RTVSPropertyOp21
 70
     1
102
RTVSPropertyOp22
 70
     1
102
RTVSPropertyOp23
 70
     1
102
RTVSPropertyOp24
 70
     1
102
RTVSPropertyOp25
 70
     1
102
RTVSPropertyOp26
 70
     1
102
RTVSPropertyOp27
 70
     1
102
RTVSPropertyOp28
 70
     1
102
RTVSPropertyOp29
 70
     1
102
RTVSPropertyOp30
 70
     1
102
RTVSPropertyOp31
 70
     1
102
RTVSPropertyOp32
 70
     1
102
RTVSPropertyOp33
 70
     1
102
RTVSPropertyOp34
 70
     1
102
RTVSPropertyOp35
 70
     1
102
RTVSPropertyOp36
 70
     1
102
RTVSPropertyOp37
 70
     1
102
RTVSPropertyOp38
 70
     1
102
RTVSPropertyOp39
 70
     1
102
RTVSPropertyOp40
 70
     1
102
RTVSPropertyOp41
 70
     1
102
RTVSPropertyOp42
 70
     1
102
RTVSPropertyOp43
 70
     1
102
RTVSPropertyOp44
 70
     1
102
RTVSPropertyOp45
 70
     1
102
RTVSPropertyOp46
 70
     1
102
RTVSPropertyOp47
 70
     1
102
RTVSPropertyOp48
 70
     1
102
RTVSPropertyOp49
 70
     1
102
RTVSPropertyOp50
 70
     1
102
RTVSPropertyOp51
 70
     0
102
RTVSPropertyOp52
 70
     0
102
RTVSPropertyOp53
 70
     1
102
RTVSPropertyOp54
 70
     1
102
RTVSPropertyOp55
 70
     1
102
RTVSPropertyOp56
 70
     1
102
RTVSPropertyOp57
 70
     1
102
RTVSPost2010Prop28
280
     0
102
RTVSPost2010PropOp28
 70
     1
102
RTVSPost2010Prop29
280
     1
102
RTVSPost2010PropOp29
 70
     1
102
RTVSPost2010Prop30
280
     1
102
RTVSPost2010PropOp30
 70
     1
102
RTVSPost2010Prop31
280
     0
102
RTVSPost2010PropOp31
 70
     1
102
RTVSPost2010Prop32
280
     0
102
RTVSPost2010PropOp32
 70
     1
102
RTVSPost2010Prop33
280
     0
102
RTVSPost2010PropOp33
 70
     1
102
RTVSPost2010Prop34
280
     0
102
RTVSPost2010PropOp34
 70
     1
102
RTVSPost2010Prop35
280
     0
102
RTVSPost2010PropOp35
 70
     1
102
RTVSPost2010Prop36
280
     0
102
RTVSPost2010PropOp36
 70
     1
102
RTVSPost2010Prop37
 90
       50
102
RTVSPost2010PropOp37
 70
     1
102
RTVSPost2010Prop38
140
0.0
102
RTVSPost2010PropOp38
 70
     1
102
RTVSPost2010Prop39
140
1.0
102
RTVSPost2010PropOp39
 70
     1
102
RTVSPost2010Prop40
 90
        0
102
RTVSPost2010PropOp40
 70
     1
102
RTVSPost2010Prop41ColorIndex
 90
       18
102
RTVSPost2010Prop41ColorRGB
 90
        0
102
RTVSPost2010PropOp41
 70
     1
102
RTVSPost2010Prop42
 90
       50
102
RTVSPost2010PropOp42
 70
     1
102
RTVSPost2010Prop43
 90
        3
102
RTVSPost2010PropOp43
 70
     1
102
RTVSPost2010Prop44ColorIndex
 90
        5
102
RTVSPost2010Prop44ColorRGB
 90
      255
102
RTVSPost2010PropOp44
 70
     1
102
RTVSPost2010Prop45
280
     0
102
RTVSPost2010PropOp45
 70
     1
102
RTVSPost2010Prop46
 90
       50
102
RTVSPost2010PropOp46
 70
     1
102
RTVSPost2010Prop47
 90
       50
102
RTVSPost2010PropOp47
 70
     1
102
RTVSPost2010Prop48
 90
       50
102
RTVSPost2010PropOp48
 70
     1
102
RTVSPost2010Prop49
280
     0
102
RTVSPost2010PropOp49
 70
     1
102
RTVSPost2010Prop50
 90
       50
102
RTVSPost2010PropOp50
 70
     1
102
RTVSPost2010Prop51ColorIndex
 90
      256
102
RTVSPost2010Prop51ColorRGB
 90
-16777216
102
RTVSPost2010PropOp51
 70
     0
102
RTVSPost2010Prop52
140
1.0
102
RTVSPost2010PropOp52
 70
     0
102
RTVSPost2010Prop53
 90
        2
102
RTVSPost2010PropOp53
 70
     1
102
RTVSPost2010Prop54
  1
strokes_ogs.tif
102
RTVSPost2010PropOp54
 70
     1
102
RTVSPost2010Prop55
280
     0
102
RTVSPost2010PropOp55
 70
     1
102
RTVSPost2010Prop56
140
1.0
102
RTVSPost2010PropOp56
 70
     1
102
RTVSPost2010Prop57
140
1.0
102
RTVSPost2010PropOp57
 70
     1
  0
XRECORD
  5
3DB
102
{ACAD_REACTORS
330
3DA
102
}
330
3DA
100
AcDbXrecord
280
     1
102
RTVSPropertyOp0
 70
     1
102
RTVSPropertyOp1
 70
     1
102
RTVSPropertyOp2
 70
     1
102
RTVSPropertyOp3
 70
     1
102
RTVSPropertyOp4
 70
     1
102
RTVSPropertyOp5
 70
     1
102
RTVSPropertyOp6
 70
     1
102
RTVSPropertyOp7
 70
     1
102
RTVSPropertyOp8
 70
     1
102
RTVSPropertyOp9
 70
     1
102
RTVSPropertyOp10
 70
     1
102
RTVSPropertyOp11
 70
     1
102
RTVSPropertyOp12
 70
     1
102
RTVSPropertyOp13
 70
     1
102
RTVSPropertyOp14
 70
     1
102
RTVSPropertyOp15
 70
     1
102
RTVSPropertyOp16
 70
     1
102
RTVSPropertyOp17
 70
     1
102
RTVSPropertyOp18
 70
     1
102
RTVSPropertyOp19
 70
     1
102
RTVSPropertyOp20
 70
     1
102
RTVSPropertyOp21
 70
     1
102
RTVSPropertyOp22
 70
     1
102
RTVSPropertyOp23
 70
     1
102
RTVSPropertyOp24
 70
     1
102
RTVSPropertyOp25
 70
     1
102
RTVSPropertyOp26
 70
     1
102
RTVSPropertyOp27
 70
     1
102
RTVSPropertyOp28
 70
     1
102
RTVSPropertyOp29
 70
     1
102
RTVSPropertyOp30
 70
     1
102
RTVSPropertyOp31
 70
     1
102
RTVSPropertyOp32
 70
     1
102
RTVSPropertyOp33
 70
     1
102
RTVSPropertyOp34
 70
     1
102
RTVSPropertyOp35
 70
     1
102
RTVSPropertyOp36
 70
     1
102
RTVSPropertyOp37
 70
     1
102
RTVSPropertyOp38
 70
     1
102
RTVSPropertyOp39
 70
     1
102
RTVSPropertyOp40
 70
     1
102
RTVSPropertyOp41
 70
     1
102
RTVSPropertyOp42
 70
     1
102
RTVSPropertyOp43
 70
     1
102
RTVSPropertyOp44
 70
     1
102
RTVSPropertyOp45
 70
     1
102
RTVSPropertyOp46
 70
     1
102
RTVSPropertyOp47
 70
     1
102
RTVSPropertyOp48
 70
     1
102
RTVSPropertyOp49
 70
     1
102
RTVSPropertyOp50
 70
     1
102
RTVSPropertyOp51
 70
     0
102
RTVSPropertyOp52
 70
     0
102
RTVSPropertyOp53
 70
     1
102
RTVSPropertyOp54
 70
     1
102
RTVSPropertyOp55
 70
     1
102
RTVSPropertyOp56
 70
     1
102
RTVSPropertyOp57
 70
     1
102
RTVSPost2010Prop28
280
     0
102
RTVSPost2010PropOp28
 70
     1
102
RTVSPost2010Prop29
280
     1
102
RTVSPost2010PropOp29
 70
     1
102
RTVSPost2010Prop30
280
     1
102
RTVSPost2010PropOp30
 70
     1
102
RTVSPost2010Prop31
280
     0
102
RTVSPost2010PropOp31
 70
     1
102
RTVSPost2010Prop32
280
     0
102
RTVSPost2010PropOp32
 70
     1
102
RTVSPost2010Prop33
280
     0
102
RTVSPost2010PropOp33
 70
     1
102
RTVSPost2010Prop34
280
     0
102
RTVSPost2010PropOp34
 70
     1
102
RTVSPost2010Prop35
280
     0
102
RTVSPost2010PropOp35
 70
     1
102
RTVSPost2010Prop36
280
     0
102
RTVSPost2010PropOp36
 70
     1
102
RTVSPost2010Prop37
 90
       50
102
RTVSPost2010PropOp37
 70
     1
102
RTVSPost2010Prop38
140
0.0
102
RTVSPost2010PropOp38
 70
     1
102
RTVSPost2010Prop39
140
1.0
102
RTVSPost2010PropOp39
 70
     1
102
RTVSPost2010Prop40
 90
        0
102
RTVSPost2010PropOp40
 70
     1
102
RTVSPost2010Prop41ColorIndex
 90
       18
102
RTVSPost2010Prop41ColorRGB
 90
        0
102
RTVSPost2010PropOp41
 70
     1
102
RTVSPost2010Prop42
 90
       50
102
RTVSPost2010PropOp42
 70
     1
102
RTVSPost2010Prop43
 90
        3
102
RTVSPost2010PropOp43
 70
     1
102
RTVSPost2010Prop44ColorIndex
 90
        5
102
RTVSPost2010Prop44ColorRGB
 90
      255
102
RTVSPost2010PropOp44
 70
     1
102
RTVSPost2010Prop45
280
     0
102
RTVSPost2010PropOp45
 70
     1
102
RTVSPost2010Prop46
 90
       50
102
RTVSPost2010PropOp46
 70
     1
102
RTVSPost2010Prop47
 90
       50
102
RTVSPost2010PropOp47
 70
     1
102
RTVSPost2010Prop48
 90
       50
102
RTVSPost2010PropOp48
 70
     1
102
RTVSPost2010Prop49
280
     0
102
RTVSPost2010PropOp49
 70
     1
102
RTVSPost2010Prop50
 90
       50
102
RTVSPost2010PropOp50
 70
     1
102
RTVSPost2010Prop51ColorIndex
 90
      256
102
RTVSPost2010Prop51ColorRGB
 90
-16777216
102
RTVSPost2010PropOp51
 70
     0
102
RTVSPost2010Prop52
140
1.0
102
RTVSPost2010PropOp52
 70
     0
102
RTVSPost2010Prop53
 90
        2
102
RTVSPost2010PropOp53
 70
     1
102
RTVSPost2010Prop54
  1
strokes_ogs.tif
102
RTVSPost2010PropOp54
 70
     1
102
RTVSPost2010Prop55
280
     0
102
RTVSPost2010PropOp55
 70
     1
102
RTVSPost2010Prop56
140
1.0
102
RTVSPost2010PropOp56
 70
     1
102
RTVSPost2010Prop57
140
1.0
102
RTVSPost2010PropOp57
 70
     1
  0
ENDSEC
  0
EOF
