  0
SECTION
  2
HEADER
  9
$ACADVER
  1
AC1018
  9
$ACADMAINTVER
 70
     0
  9
$DWGCODEPAGE
  3
ANSI_932
  9
$INSBASE
 10
0.0
 20
0.0
 30
0.0
  9
$EXTMIN
 10
-2100.0
 20
-1485.0
 30
0.0
  9
$EXTMAX
 10
2100.0
 20
1485.0
 30
0.0
  9
$LIMMIN
 10
-2100.0
 20
-1485.0
  9
$LIMMAX
 10
2100.0
 20
1485.0
  9
$ORTHOMODE
 70
     0
  9
$REGENMODE
 70
     1
  9
$FILLMODE
 70
     1
  9
$QTEXTMODE
 70
     0
  9
$MIRRTEXT
 70
     1
  9
$LTSCALE
 40
10.0
  9
$ATTMODE
 70
     1
  9
$TEXTSIZE
 40
2.5
  9
$TRACEWID
 40
1.0
  9
$TEXTSTYLE
  7
Standard
  9
$CLAYER
  8
0
  9
$CELTYPE
  6
ByLayer
  9
$CECOLOR
 62
   256
  9
$CELTSCALE
 40
1.0
  9
$DISPSILH
 70
     0
  9
$DIMSCALE
 40
1.0
  9
$DIMASZ
 40
2.5
  9
$DIMEXO
 40
0.625
  9
$DIMDLI
 40
3.75
  9
$DIMRND
 40
0.0
  9
$DIMDLE
 40
0.0
  9
$DIMEXE
 40
1.25
  9
$DIMTP
 40
0.0
  9
$DIMTM
 40
0.0
  9
$DIMTXT
 40
2.5
  9
$DIMCEN
 40
2.5
  9
$DIMTSZ
 40
0.0
  9
$DIMTOL
 70
     0
  9
$DIMLIM
 70
     0
  9
$DIMTIH
 70
     0
  9
$DIMTOH
 70
     0
  9
$DIMSE1
 70
     0
  9
$DIMSE2
 70
     0
  9
$DIMTAD
 70
     1
  9
$DIMZIN
 70
     8
  9
$DIMBLK
  1

  9
$DIMASO
 70
     1
  9
$DIMSHO
 70
     1
  9
$DIMPOST
  1

  9
$DIMAPOST
  1

  9
$DIMALT
 70
     0
  9
$DIMALTD
 70
     3
  9
$DIMALTF
 40
0.03937007874016
  9
$DIMLFAC
 40
1.0
  9
$DIMTOFL
 70
     1
  9
$DIMTVP
 40
0.0
  9
$DIMTIX
 70
     0
  9
$DIMSOXD
 70
     0
  9
$DIMSAH
 70
     0
  9
$DIMBLK1
  1

  9
$DIMBLK2
  1

  9
$DIMSTYLE
  2
ISO-25
  9
$DIMCLRD
 70
     0
  9
$DIMCLRE
 70
     0
  9
$DIMCLRT
 70
     0
  9
$DIMTFAC
 40
1.0
  9
$DIMGAP
 40
0.625
  9
$DIMJUST
 70
     0
  9
$DIMSD1
 70
     0
  9
$DIMSD2
 70
     0
  9
$DIMTOLJ
 70
     0
  9
$DIMTZIN
 70
     8
  9
$DIMALTZ
 70
     0
  9
$DIMALTTZ
 70
     0
  9
$DIMUPT
 70
     0
  9
$DIMDEC
 70
     2
  9
$DIMTDEC
 70
     2
  9
$DIMALTU
 70
     2
  9
$DIMALTTD
 70
     3
  9
$DIMTXSTY
  7
Standard
  9
$DIMAUNIT
 70
     0
  9
$DIMADEC
 70
     0
  9
$DIMALTRND
 40
0.0
  9
$DIMAZIN
 70
     0
  9
$DIMDSEP
 70
    44
  9
$DIMATFIT
 70
     3
  9
$DIMFRAC
 70
     0
  9
$DIMLDRBLK
  1

  9
$DIMLUNIT
 70
     2
  9
$DIMLWD
 70
    -2
  9
$DIMLWE
 70
    -2
  9
$DIMTMOVE
 70
     0
  9
$LUNITS
 70
     2
  9
$LUPREC
 70
     4
  9
$SKETCHINC
 40
1.0
  9
$FILLETRAD
 40
10.0
  9
$AUNITS
 70
     0
  9
$AUPREC
 70
     0
  9
$MENU
  1
.
  9
$ELEVATION
 40
0.0
  9
$PELEVATION
 40
0.0
  9
$THICKNESS
 40
0.0
  9
$LIMCHECK
 70
     0
  9
$CHAMFERA
 40
0.0
  9
$CHAMFERB
 40
0.0
  9
$CHAMFERC
 40
0.0
  9
$CHAMFERD
 40
0.0
  9
$SKPOLY
 70
     0
  9
$TDCREATE
 40
2460418.432006401
  9
$TDUCREATE
 40
2460418.057006401
  9
$TDUPDATE
 40
2460418.432006528
  9
$TDUUPDATE
 40
2460418.057006528
  9
$TDINDWG
 40
0.0000000116
  9
$TDUSRTIMER
 40
0.0000000116
  9
$USRTIMER
 70
     1
  9
$ANGBASE
 50
0.0
  9
$ANGDIR
 70
     0
  9
$PDMODE
 70
     0
  9
$PDSIZE
 40
0.0
  9
$PLINEWID
 40
0.0
  9
$SPLFRAME
 70
     0
  9
$SPLINETYPE
 70
     6
  9
$SPLINESEGS
 70
     8
  9
$HANDSEED
  5
3EA
  9
$SURFTAB1
 70
     6
  9
$SURFTAB2
 70
     6
  9
$SURFTYPE
 70
     6
  9
$SURFU
 70
     6
  9
$SURFV
 70
     6
  9
$UCSBASE
  2

  9
$UCSNAME
  2

  9
$UCSORG
 10
0.0
 20
0.0
 30
0.0
  9
$UCSXDIR
 10
1.0
 20
0.0
 30
0.0
  9
$UCSYDIR
 10
0.0
 20
1.0
 30
0.0
  9
$UCSORTHOREF
  2

  9
$UCSORTHOVIEW
 70
     0
  9
$UCSORGTOP
 10
0.0
 20
0.0
 30
0.0
  9
$UCSORGBOTTOM
 10
0.0
 20
0.0
 30
0.0
  9
$UCSORGLEFT
 10
0.0
 20
0.0
 30
0.0
  9
$UCSORGRIGHT
 10
0.0
 20
0.0
 30
0.0
  9
$UCSORGFRONT
 10
0.0
 20
0.0
 30
0.0
  9
$UCSORGBACK
 10
0.0
 20
0.0
 30
0.0
  9
$PUCSBASE
  2

  9
$PUCSNAME
  2

  9
$PUCSORG
 10
0.0
 20
0.0
 30
0.0
  9
$PUCSXDIR
 10
1.0
 20
0.0
 30
0.0
  9
$PUCSYDIR
 10
0.0
 20
1.0
 30
0.0
  9
$PUCSORTHOREF
  2

  9
$PUCSORTHOVIEW
 70
     0
  9
$PUCSORGTOP
 10
0.0
 20
0.0
 30
0.0
  9
$PUCSORGBOTTOM
 10
0.0
 20
0.0
 30
0.0
  9
$PUCSORGLEFT
 10
0.0
 20
0.0
 30
0.0
  9
$PUCSORGRIGHT
 10
0.0
 20
0.0
 30
0.0
  9
$PUCSORGFRONT
 10
0.0
 20
0.0
 30
0.0
  9
$PUCSORGBACK
 10
0.0
 20
0.0
 30
0.0
  9
$USERI1
 70
     0
  9
$USERI2
 70
     0
  9
$USERI3
 70
     0
  9
$USERI4
 70
     0
  9
$USERI5
 70
     0
  9
$USERR1
 40
0.0
  9
$USERR2
 40
0.0
  9
$USERR3
 40
0.0
  9
$USERR4
 40
0.0
  9
$USERR5
 40
0.0
  9
$WORLDVIEW
 70
     1
  9
$SHADEDGE
 70
     3
  9
$SHADEDIF
 70
    70
  9
$TILEMODE
 70
     1
  9
$MAXACTVP
 70
    64
  9
$PINSBASE
 10
0.0
 20
0.0
 30
0.0
  9
$PLIMCHECK
 70
     0
  9
$PEXTMIN
 10
1.000000000000000E+20
 20
1.000000000000000E+20
 30
1.000000000000000E+20
  9
$PEXTMAX
 10
-1.000000000000000E+20
 20
-1.000000000000000E+20
 30
-1.000000000000000E+20
  9
$PLIMMIN
 10
0.0
 20
0.0
  9
$PLIMMAX
 10
420.0
 20
297.0
  9
$UNITMODE
 70
     0
  9
$VISRETAIN
 70
     1
  9
$PLINEGEN
 70
     0
  9
$PSLTSCALE
 70
     1
  9
$TREEDEPTH
 70
  3020
  9
$CMLSTYLE
  2
Standard
  9
$CMLJUST
 70
     0
  9
$CMLSCALE
 40
20.0
  9
$PROXYGRAPHICS
 70
     1
  9
$MEASUREMENT
 70
     1
  9
$CELWEIGHT
370
    -1
  9
$ENDCAPS
280
     0
  9
$JOINSTYLE
280
     0
  9
$LWDISPLAY
290
     0
  9
$INSUNITS
 70
     4
  9
$HYPERLINKBASE
  1

  9
$STYLESHEET
  1

  9
$XEDIT
290
     1
  9
$CEPSNTYPE
380
     0
  9
$PSTYLEMODE
290
     1
  9
$FINGERPRINTGUID
  2
{68DA4E37-14BE-4F97-9851-12C3D265C7AE}
  9
$VERSIONGUID
  2
{FAEB1C32-E019-11D5-929B-00C0DF256EC4}
  9
$EXTNAMES
290
     1
  9
$PSVPSCALE
 40
0.0
  9
$OLESTARTUP
290
     0
  9
$SORTENTS
280
   127
  9
$INDEXCTL
280
     0
  9
$HIDETEXT
280
     1
  9
$XCLIPFRAME
290
     0
  9
$HALOGAP
280
     0
  9
$OBSCOLOR
 70
   257
  9
$OBSLTYPE
280
     0
  9
$INTERSECTIONDISPLAY
280
     0
  9
$INTERSECTIONCOLOR
 70
   257
  9
$DIMASSOC
280
     2
  9
$PROJECTNAME
  1

  0
ENDSEC
  0
SECTION
  2
CLASSES
  0
CLASS
  1
ACDBDICTIONARYWDFLT
  2
AcDbDictionaryWithDefault
  3
ObjectDBX Classes
 90
        0
 91
        4
280
     0
281
     0
  0
CLASS
  1
VISUALSTYLE
  2
AcDbVisualStyle
  3
ObjectDBX Classes
 90
     4095
 91
        4
280
     0
281
     0
  0
CLASS
  1
MATERIAL
  2
AcDbMaterial
  3
ObjectDBX Classes
 90
     1153
 91
        4
280
     0
281
     0
  0
CLASS
  1
SCALE
  2
AcDbScale
  3
ObjectDBX Classes
 90
     1153
 91
        4
280
     0
281
     0
  0
CLASS
  1
TABLESTYLE
  2
AcDbTableStyle
  3
ObjectDBX Classes
 90
     4095
 91
        4
280
     0
281
     0
  0
CLASS
  1
MLEADERSTYLE
  2
AcDbMLeaderStyle
  3
ACDB_MLEADERSTYLE_CLASS
 90
     4095
 91
        4
280
     0
281
     0
  0
CLASS
  1
SUN
  2
AcDbSun
  3
SCENEOE
 90
     1153
 91
        4
280
     0
281
     0
  0
CLASS
  1
DICTIONARYVAR
  2
AcDbDictionaryVar
  3
ObjectDBX Classes
 90
        0
 91
        4
280
     0
281
     0
  0
CLASS
  1
CELLSTYLEMAP
  2
AcDbCellStyleMap
  3
ObjectDBX Classes
 90
     1152
 91
        4
280
     0
281
     0
  0
ENDSEC
  0
SECTION
  2
TABLES
  0
TABLE
  2
VPORT
  5
8
102
{ACAD_XDICTIONARY
360
3A1
102
}
330
0
100
AcDbSymbolTable
 70
     1
  0
VPORT
  5
29
330
8
100
AcDbSymbolTableRecord
100
AcDbViewportTableRecord
  2
*Active
 70
     0
 10
0.0
 20
0.0
 11
1.0
 21
1.0
 12
0.0
 22
0.0
 13
0.0
 23
0.0
 14
10.0
 24
10.0
 15
10.0
 25
10.0
 16
0.0
 26
0.0
 36
1.0
 17
0.0
 27
0.0
 37
0.0
 40
3267.0
 41
1.414141414141414
 42
50.0
 43
0.0
 44
0.0
 50
0.0
 51
0.0
 71
     0
 72
 10000
 73
     1
 74
     3
 75
     0
 76
     0
 77
     0
 78
     0
281
     0
 65
     1
110
0.0
120
0.0
130
0.0
111
1.0
121
0.0
131
0.0
112
0.0
122
1.0
132
0.0
 79
     0
146
0.0
  0
ENDTAB
  0
TABLE
  2
LTYPE
  5
5
330
0
100
AcDbSymbolTable
 70
     3
  0
LTYPE
  5
14
330
5
100
AcDbSymbolTableRecord
100
AcDbLinetypeTableRecord
  2
ByBlock
 70
     0
  3

 72
    65
 73
     0
 40
0.0
  0
LTYPE
  5
15
330
5
100
AcDbSymbolTableRecord
100
AcDbLinetypeTableRecord
  2
ByLayer
 70
     0
  3

 72
    65
 73
     0
 40
0.0
  0
LTYPE
  5
16
330
5
100
AcDbSymbolTableRecord
100
AcDbLinetypeTableRecord
  2
Continuous
 70
     0
  3
Solid line
 72
    65
 73
     0
 40
0.0
  0
LTYPE
  5
6F
330
5
100
AcDbSymbolTableRecord
100
AcDbLinetypeTableRecord
  2
JWW_DASHED3
 70
     0
  3
---  ------  ------  ------  ---
 72
    65
 73
     2
 40
3.386666666666667
 49
2.54
 74
     0
 49
-0.8466666666666667
 74
     0
  0
LTYPE
  5
70
330
5
100
AcDbSymbolTableRecord
100
AcDbLinetypeTableRecord
  2
JWW_PHANTOM1
 70
     0
  3
----  -  -  --------  -  -  ----
 72
    65
 73
     6
 40
6.773333333333333
 49
3.386666666666667
 74
     0
 49
-0.8466666666666667
 74
     0
 49
0.4233333333333333
 74
     0
 49
-0.8466666666666667
 74
     0
 49
0.4233333333333333
 74
     0
 49
-0.8466666666666667
 74
     0
  0
ENDTAB
  0
TABLE
  2
LAYER
  5
2
330
0
100
AcDbSymbolTable
 70
    10
  0
LAYER
  5
10
330
2
100
AcDbSymbolTableRecord
100
AcDbLayerTableRecord
  2
0
 70
     0
 62
     7
  6
Continuous
370
    -3
390
F
  0
LAYER
  5
71
330
2
100
AcDbSymbolTableRecord
100
AcDbLayerTableRecord
  2
C-2
 70
     0
 62
     7
  6
Continuous
370
    -3
390
F
  0
LAYER
  5
72
330
2
100
AcDbSymbolTableRecord
100
AcDbLayerTableRecord
  2
C-5
 70
     0
 62
     7
  6
Continuous
370
    -3
390
F
  0
LAYER
  5
73
330
2
100
AcDbSymbolTableRecord
100
AcDbLayerTableRecord
  2
C-9
 70
     0
 62
     7
  6
Continuous
370
    -3
390
F
  0
LAYER
  5
74
330
2
100
AcDbSymbolTableRecord
100
AcDbLayerTableRecord
  2
C-4
 70
     0
 62
     7
  6
Continuous
370
    -3
390
F
  0
LAYER
  5
75
330
2
100
AcDbSymbolTableRecord
100
AcDbLayerTableRecord
  2
F-5
 70
     0
 62
     7
  6
Continuous
370
    -3
390
F
  0
LAYER
  5
76
330
2
100
AcDbSymbolTableRecord
100
AcDbLayerTableRecord
  2
C-1
 70
     0
 62
     7
  6
Continuous
370
    -3
390
F
  0
LAYER
  5
77
330
2
100
AcDbSymbolTableRecord
100
AcDbLayerTableRecord
  2
A-0
 70
     0
 62
     7
  6
Continuous
370
    -3
390
F
  0
LAYER
  5
78
330
2
100
AcDbSymbolTableRecord
100
AcDbLayerTableRecord
  2
A-5
 70
     0
 62
     7
  6
Continuous
370
    -3
390
F
  0
LAYER
  5
79
330
2
100
AcDbSymbolTableRecord
100
AcDbLayerTableRecord
  2
A-4
 70
     0
 62
     7
  6
Continuous
370
    -3
390
F
  0
ENDTAB
  0
TABLE
  2
STYLE
  5
3
330
0
100
AcDbSymbolTable
 70
     2
  0
STYLE
  5
11
330
3
100
AcDbSymbolTableRecord
100
AcDbTextStyleTableRecord
  2
Standard
 70
     0
 40
0.0
 41
1.0
 50
0.0
 71
     0
 42
2.5
  3
txt
  4

  0
STYLE
  5
6E
330
3
100
AcDbSymbolTableRecord
100
AcDbTextStyleTableRecord
  2
ＭＳ ゴシック
 70
     0
 40
1.0
 41
1.0
 50
0.0
 71
     0
 42
2.5
  3

  4

1001
ACAD
1000
MS Gothic
1071
    32817
  0
ENDTAB
  0
TABLE
  2
VIEW
  5
6
330
0
100
AcDbSymbolTable
 70
     0
  0
ENDTAB
  0
TABLE
  2
UCS
  5
7
330
0
100
AcDbSymbolTable
 70
     0
  0
ENDTAB
  0
TABLE
  2
APPID
  5
9
330
0
100
AcDbSymbolTable
 70
     2
  0
APPID
  5
12
330
9
100
AcDbSymbolTableRecord
100
AcDbRegAppTableRecord
  2
ACAD
 70
     0
  0
APPID
  5
3E0
330
9
100
AcDbSymbolTableRecord
100
AcDbRegAppTableRecord
  2
ACAD_MLEADERVER
 70
     0
  0
ENDTAB
  0
TABLE
  2
DIMSTYLE
  5
A
330
0
100
AcDbSymbolTable
 70
     1
100
AcDbDimStyleTable
  0
DIMSTYLE
105
27
330
A
100
AcDbSymbolTableRecord
100
AcDbDimStyleTableRecord
  2
ISO-25
 70
     0
 41
2.5
 42
0.625
 43
3.75
 44
1.25
 73
     0
 74
     0
 77
     1
 78
     8
140
2.5
141
2.5
143
0.03937007874016
147
0.625
171
     3
172
     1
178
     0
271
     2
272
     2
274
     3
278
    44
283
     0
284
     8
340
11
  0
ENDTAB
  0
TABLE
  2
BLOCK_RECORD
  5
1
330
0
100
AcDbSymbolTable
 70
     1
  0
BLOCK_RECORD
  5
1F
330
1
100
AcDbSymbolTableRecord
100
AcDbBlockTableRecord
  2
*Model_Space
340
22
  0
BLOCK_RECORD
  5
1B
330
1
100
AcDbSymbolTableRecord
100
AcDbBlockTableRecord
  2
*Paper_Space
340
1E
  0
BLOCK_RECORD
  5
23
330
1
100
AcDbSymbolTableRecord
100
AcDbBlockTableRecord
  2
*Paper_Space0
340
26
  0
ENDTAB
  0
ENDSEC
  0
SECTION
  2
BLOCKS
  0
BLOCK
  5
20
330
1F
100
AcDbEntity
  8
0
100
AcDbBlockBegin
  2
*Model_Space
 70
     0
 10
0.0
 20
0.0
 30
0.0
  3
*Model_Space
  1

  0
ENDBLK
  5
21
330
1F
100
AcDbEntity
  8
0
100
AcDbBlockEnd
  0
BLOCK
  5
1C
330
1B
100
AcDbEntity
 67
     1
  8
0
100
AcDbBlockBegin
  2
*Paper_Space
 70
     0
 10
0.0
 20
0.0
 30
0.0
  3
*Paper_Space
  1

  0
ENDBLK
  5
1D
330
1B
100
AcDbEntity
 67
     1
  8
0
100
AcDbBlockEnd
  0
BLOCK
  5
24
330
23
100
AcDbEntity
  8
0
100
AcDbBlockBegin
  2
*Paper_Space0
 70
     0
 10
0.0
 20
0.0
 30
0.0
  3
*Paper_Space0
  1

  0
ENDBLK
  5
25
330
23
100
AcDbEntity
  8
0
100
AcDbBlockEnd
  0
ENDSEC
  0
SECTION
  2
ENTITIES
  0
LINE
  5
7A
330
1F
100
AcDbEntity
  8
C-2
  6
Continuous
 62
     3
370
     9
100
AcDbLine
 10
719.3553202861068
 20
607.7990062816724
 30
0.0
 11
719.3553202861068
 21
837.79803301837
 31
0.0
  0
LINE
  5
7B
330
1F
100
AcDbEntity
  8
C-2
  6
Continuous
 62
     3
370
     9
100
AcDbLine
 10
679.3561780774917
 20
625.0072087468328
 30
0.0
 11
679.3561780774917
 21
855.007225242821
 31
0.0
  0
LINE
  5
7C
330
1F
100
AcDbEntity
  8
C-5
  6
Continuous
 62
     7
370
     9
100
AcDbLine
 10
807.6725315403297
 20
826.9057320259714
 30
0.0
 11
715.6986545872047
 21
743.7748594541807
 31
0.0
  0
LINE
  5
7D
330
1F
100
AcDbEntity
  8
C-5
  6
Continuous
 62
     7
370
     9
100
AcDbLine
 10
715.6986545872047
 20
743.7748594541807
 30
0.0
 11
731.8975500158365
 21
762.8158486855998
 31
0.0
  0
LINE
  5
7E
330
1F
100
AcDbEntity
  8
C-5
  6
Continuous
 62
     7
370
     9
100
AcDbLine
 10
715.6986545872047
 20
743.7748594541807
 30
0.0
 11
736.2747604782521
 21
757.9741936760981
 31
0.0
  0
LINE
  5
7F
330
1F
100
AcDbEntity
  8
C-5
  6
Continuous
 62
     7
370
     9
100
AcDbLine
 10
481.729455896326
 20
546.8389892578125
 30
0.0
 11
919.7635135135135
 21
546.8389892578125
 31
0.0
  0
LINE
  5
80
330
1F
100
AcDbEntity
  8
C-9
  6
Continuous
 62
     6
370
     5
100
AcDbLine
 10
684.5454860377959
 20
624.3980119035052
 30
0.0
 11
679.3561780774917
 21
628.7529527818836
 31
0.0
  0
LINE
  5
81
330
1F
100
AcDbEntity
  8
C-9
  6
Continuous
 62
     6
370
     5
100
AcDbLine
 10
717.9760907147386
 20
608.3470854888092
 30
0.0
 11
679.3561780774917
 21
640.7532893000425
 31
0.0
  0
LINE
  5
82
330
1F
100
AcDbEntity
  8
C-9
  6
Continuous
 62
     6
370
     5
100
AcDbLine
 10
683.8887807485219
 20
854.5479769320102
 30
0.0
 11
679.3561780774917
 21
851.9308059279984
 31
0.0
  0
LINE
  5
83
330
1F
100
AcDbEntity
  8
C-9
  6
Continuous
 62
     6
370
     5
100
AcDbLine
 10
696.1345775707349
 20
849.6179859058279
 30
0.0
 11
679.3561780774917
 21
839.9304694098396
 31
0.0
  0
LINE
  5
84
330
1F
100
AcDbEntity
  8
C-9
  6
Continuous
 62
     6
370
     5
100
AcDbLine
 10
705.5259085990286
 20
843.03955078125
 30
0.0
 11
679.3561780774917
 21
827.9308752111488
 31
0.0
  0
LINE
  5
85
330
1F
100
AcDbEntity
  8
C-9
  6
Continuous
 62
     6
370
     5
100
AcDbLine
 10
718.1304931640625
 20
838.3174092060813
 30
0.0
 11
679.3561780774917
 21
815.9305386929901
 31
0.0
  0
LINE
  5
86
330
1F
100
AcDbEntity
  8
C-9
  6
Continuous
 62
     6
370
     5
100
AcDbLine
 10
719.3553202861068
 20
835.1895224081505
 30
0.0
 11
714.638374947213
 21
839.1478172508448
 31
0.0
  0
LINE
  5
87
330
1F
100
AcDbEntity
  8
C-9
  6
Continuous
 62
     6
370
     5
100
AcDbLine
 10
719.3553202861068
 20
823.1891858899917
 30
0.0
 11
681.440116263725
 21
855.0047508445948
 31
0.0
  0
LINE
  5
88
330
1F
100
AcDbEntity
  8
C-9
  6
Continuous
 62
     6
370
     5
100
AcDbLine
 10
719.3553202861068
 20
611.0251266891894
 30
0.0
 11
715.6343202333193
 21
608.8766067092484
 31
0.0
  0
LINE
  5
89
330
1F
100
AcDbEntity
  8
C-9
  6
Continuous
 62
     6
370
     5
100
AcDbLine
 10
719.3553202861068
 20
623.0247208878802
 30
0.0
 11
703.852225638725
 21
614.0740801836995
 31
0.0
  0
LINE
  5
8A
330
1F
100
AcDbEntity
  8
C-9
  6
Continuous
 62
     6
370
     5
100
AcDbLine
 10
719.3553202861068
 20
635.0245625263938
 30
0.0
 11
694.4044783308703
 21
620.6191109322214
 31
0.0
  0
LINE
  5
8B
330
1F
100
AcDbEntity
  8
C-9
  6
Continuous
 62
     6
370
     5
100
AcDbLine
 10
719.3553202861068
 20
647.0248990445523
 30
0.0
 11
681.2617121516047
 21
625.031457849451
 31
0.0
  0
LINE
  5
8C
330
1F
100
AcDbEntity
  8
C-9
  6
Continuous
 62
     6
370
     5
100
AcDbLine
 10
719.3553202861068
 20
619.1894036370356
 30
0.0
 11
679.3561780774917
 21
652.7528834987334
 31
0.0
  0
LINE
  5
8D
330
1F
100
AcDbEntity
  8
C-9
  6
Continuous
 62
     6
370
     5
100
AcDbLine
 10
719.3553202861068
 20
631.1897401551943
 30
0.0
 11
679.3561780774917
 21
664.7529725770693
 31
0.0
  0
LINE
  5
8E
330
1F
100
AcDbEntity
  8
C-9
  6
Continuous
 62
     6
370
     5
100
AcDbLine
 10
719.3553202861068
 20
643.1893343538852
 30
0.0
 11
679.3561780774917
 21
676.7528142155828
 31
0.0
  0
LINE
  5
8F
330
1F
100
AcDbEntity
  8
C-9
  6
Continuous
 62
     6
370
     5
100
AcDbLine
 10
719.3553202861068
 20
655.1894234322214
 30
0.0
 11
679.3561780774917
 21
688.7531507337417
 31
0.0
  0
LINE
  5
90
330
1F
100
AcDbEntity
  8
C-9
  6
Continuous
 62
     6
370
     5
100
AcDbLine
 10
719.3553202861068
 20
811.1893442514781
 30
0.0
 11
679.3561780774917
 21
844.7530715529984
 31
0.0
  0
LINE
  5
91
330
1F
100
AcDbEntity
  8
C-9
  6
Continuous
 62
     6
370
     5
100
AcDbLine
 10
719.3553202861068
 20
799.1892551731419
 30
0.0
 11
679.3561780774917
 21
832.7532299144849
 31
0.0
  0
LINE
  5
92
330
1F
100
AcDbEntity
  8
C-9
  6
Continuous
 62
     6
370
     5
100
AcDbLine
 10
719.3553202861068
 20
787.1894135346283
 30
0.0
 11
679.3561780774917
 21
820.752893396326
 31
0.0
  0
LINE
  5
93
330
1F
100
AcDbEntity
  8
C-9
  6
Continuous
 62
     6
370
     5
100
AcDbLine
 10
719.3553202861068
 20
775.1895718961151
 30
0.0
 11
679.3561780774917
 21
808.7532991976352
 31
0.0
  0
LINE
  5
94
330
1F
100
AcDbEntity
  8
C-9
  6
Continuous
 62
     6
370
     5
100
AcDbLine
 10
719.3553202861068
 20
763.189482817779
 30
0.0
 11
679.3561780774917
 21
796.7529626794766
 31
0.0
  0
LINE
  5
95
330
1F
100
AcDbEntity
  8
C-9
  6
Continuous
 62
     6
370
     5
100
AcDbLine
 10
719.3553202861068
 20
751.1896411792654
 30
0.0
 11
679.3561780774917
 21
784.753121040963
 31
0.0
  0
LINE
  5
96
330
1F
100
AcDbEntity
  8
C-9
  6
Continuous
 62
     6
370
     5
100
AcDbLine
 10
719.3553202861068
 20
739.1893046611065
 30
0.0
 11
679.3561780774917
 21
772.7530319626269
 31
0.0
  0
LINE
  5
97
330
1F
100
AcDbEntity
  8
C-9
  6
Continuous
 62
     6
370
     5
100
AcDbLine
 10
719.3553202861068
 20
727.1897104624156
 30
0.0
 11
679.3561780774917
 21
760.7531903241133
 31
0.0
  0
LINE
  5
98
330
1F
100
AcDbEntity
  8
C-9
  6
Continuous
 62
     6
370
     5
100
AcDbLine
 10
719.3553202861068
 20
715.1893739442568
 30
0.0
 11
679.3561780774917
 21
748.7528538059544
 31
0.0
  0
LINE
  5
99
330
1F
100
AcDbEntity
  8
C-9
  6
Continuous
 62
     6
370
     5
100
AcDbLine
 10
719.3553202861068
 20
703.1892848659209
 30
0.0
 11
679.3561780774917
 21
736.7527647276182
 31
0.0
  0
LINE
  5
9A
330
1F
100
AcDbEntity
  8
C-9
  6
Continuous
 62
     6
370
     5
100
AcDbLine
 10
719.3553202861068
 20
691.1894432274073
 30
0.0
 11
679.3561780774917
 21
724.752923089105
 31
0.0
  0
LINE
  5
9B
330
1F
100
AcDbEntity
  8
C-9
  6
Continuous
 62
     6
370
     5
100
AcDbLine
 10
719.3553202861068
 20
679.1896015888938
 30
0.0
 11
679.3561780774917
 21
712.7530814505915
 31
0.0
  0
LINE
  5
9C
330
1F
100
AcDbEntity
  8
C-9
  6
Continuous
 62
     6
370
     5
100
AcDbLine
 10
719.3553202861068
 20
667.1892650707349
 30
0.0
 11
679.3561780774917
 21
700.7529923722552
 31
0.0
  0
LINE
  5
9D
330
1F
100
AcDbEntity
  8
C-9
  6
Continuous
 62
     6
370
     5
100
AcDbLine
 10
719.3553202861068
 20
659.0244932432432
 30
0.0
 11
679.3561780774917
 21
635.9306871568836
 31
0.0
  0
LINE
  5
9E
330
1F
100
AcDbEntity
  8
C-9
  6
Continuous
 62
     6
370
     5
100
AcDbLine
 10
719.3553202861068
 20
671.0248297614021
 30
0.0
 11
679.3561780774917
 21
647.9310236750425
 31
0.0
  0
LINE
  5
9F
330
1F
100
AcDbEntity
  8
C-9
  6
Continuous
 62
     6
370
     5
100
AcDbLine
 10
719.3553202861068
 20
683.0244239600929
 30
0.0
 11
679.3561780774917
 21
659.931360193201
 31
0.0
  0
LINE
  5
A0
330
1F
100
AcDbEntity
  8
C-9
  6
Continuous
 62
     6
370
     5
100
AcDbLine
 10
719.3553202861068
 20
695.0242655986065
 30
0.0
 11
679.3561780774917
 21
671.9304595122467
 31
0.0
  0
LINE
  5
A1
330
1F
100
AcDbEntity
  8
C-9
  6
Continuous
 62
     6
370
     5
100
AcDbLine
 10
719.3553202861068
 20
827.0245031408363
 30
0.0
 11
679.3561780774917
 21
803.9306970544766
 31
0.0
  0
LINE
  5
A2
330
1F
100
AcDbEntity
  8
C-9
  6
Continuous
 62
     6
370
     5
100
AcDbLine
 10
719.3553202861068
 20
707.0246021167654
 30
0.0
 11
679.3561780774917
 21
683.9307960304054
 31
0.0
  0
LINE
  5
A3
330
1F
100
AcDbEntity
  8
C-9
  6
Continuous
 62
     6
370
     5
100
AcDbLine
 10
719.3553202861068
 20
719.0246911951016
 30
0.0
 11
679.3561780774917
 21
695.9308851087417
 31
0.0
  0
LINE
  5
A4
330
1F
100
AcDbEntity
  8
C-9
  6
Continuous
 62
     6
370
     5
100
AcDbLine
 10
719.3553202861068
 20
731.0245328336151
 30
0.0
 11
679.3561780774917
 21
707.9307267472552
 31
0.0
  0
LINE
  5
A5
330
1F
100
AcDbEntity
  8
C-9
  6
Continuous
 62
     6
370
     5
100
AcDbLine
 10
719.3553202861068
 20
743.0243744721283
 30
0.0
 11
679.3561780774917
 21
719.9305683857688
 31
0.0
  0
LINE
  5
A6
330
1F
100
AcDbEntity
  8
C-9
  6
Continuous
 62
     6
370
     5
100
AcDbLine
 10
719.3553202861068
 20
755.0244635504646
 30
0.0
 11
679.3561780774917
 21
731.930657464105
 31
0.0
  0
LINE
  5
A7
330
1F
100
AcDbEntity
  8
C-9
  6
Continuous
 62
     6
370
     5
100
AcDbLine
 10
719.3553202861068
 20
767.0243051889781
 30
0.0
 11
679.3561780774917
 21
743.9309939822635
 31
0.0
  0
LINE
  5
A8
330
1F
100
AcDbEntity
  8
C-9
  6
Continuous
 62
     6
370
     5
100
AcDbLine
 10
719.3553202861068
 20
779.0241468274917
 30
0.0
 11
679.3561780774917
 21
755.9308356207771
 31
0.0
  0
LINE
  5
A9
330
1F
100
AcDbEntity
  8
C-9
  6
Continuous
 62
     6
370
     5
100
AcDbLine
 10
719.3553202861068
 20
791.0242359058279
 30
0.0
 11
679.3561780774917
 21
767.9304298194679
 31
0.0
  0
LINE
  5
AA
330
1F
100
AcDbEntity
  8
C-9
  6
Continuous
 62
     6
370
     5
100
AcDbLine
 10
719.3553202861068
 20
803.0245724239867
 30
0.0
 11
679.3561780774917
 21
779.9307663376269
 31
0.0
  0
LINE
  5
AB
330
1F
100
AcDbEntity
  8
C-9
  6
Continuous
 62
     6
370
     5
100
AcDbLine
 10
719.3553202861068
 20
815.0244140625
 30
0.0
 11
679.3561780774917
 21
791.9311028557856
 31
0.0
  0
LINE
  5
AC
330
1F
100
AcDbEntity
  8
C-4
  6
Continuous
 62
     7
370
     9
100
AcDbLine
 10
679.3561780774917
 20
895.2362390466641
 30
0.0
 11
719.3553202861068
 21
895.2362390466641
 31
0.0
  0
LINE
  5
AD
330
1F
100
AcDbEntity
  8
C-4
  6
Continuous
 62
     7
370
     9
100
AcDbLine
 10
679.3561780774917
 20
870.0075221706084
 30
0.0
 11
679.3561780774917
 21
898.2364468961151
 31
0.0
  0
LINE
  5
AE
330
1F
100
AcDbEntity
  8
C-4
  6
Continuous
 62
     7
370
     9
100
AcDbLine
 10
719.3553202861068
 20
852.797835066512
 30
0.0
 11
719.3553202861068
 21
898.2364468961151
 31
0.0
  0
ARC
  5
AF
330
1F
100
AcDbEntity
  8
C-2
  6
Continuous
 62
     3
370
     9
100
AcDbCircle
 10
675.3884805215375
 20
585.756077122044
 30
0.0
 40
39.7122589317528
100
AcDbArc
 50
50.82627868652344
 51
129.1737060546875
  0
ARC
  5
B0
330
1F
100
AcDbEntity
  8
C-2
  6
Continuous
 62
     3
370
     9
100
AcDbCircle
 10
725.5596263988599
 20
647.3285077069258
 30
0.0
 40
39.7122589317528
100
AcDbArc
 50
230.8262786865234
 51
309.1737060546875
  0
ARC
  5
B1
330
1F
100
AcDbEntity
  8
C-2
  6
Continuous
 62
     3
370
     9
100
AcDbCircle
 10
725.5596263988599
 20
877.3285242029141
 30
0.0
 40
39.7122589317528
100
AcDbArc
 50
230.8262786865234
 51
309.1737060546875
  0
ARC
  5
B2
330
1F
100
AcDbEntity
  8
C-2
  6
Continuous
 62
     3
370
     9
100
AcDbCircle
 10
675.3884805215375
 20
815.755598738387
 30
0.0
 40
39.7122589317528
100
AcDbArc
 50
50.82627868652344
 51
129.1737060546875
  0
TEXT
  5
B3
330
1F
100
AcDbEntity
  8
C-5
  6
Continuous
 62
     7
370
     0
100
AcDbText
 10
814.7467865815037
 20
838.2110263144006
 30
0.0
 40
22.86
  1
ローレット模様
 41
1.142857142857143
  7
ＭＳ ゴシック
100
AcDbText
  0
TEXT
  5
B4
330
1F
100
AcDbEntity
  8
C-5
  6
Continuous
 62
     7
370
     0
100
AcDbText
 10
478.1680545291385
 20
557.7696596547721
 30
0.0
 40
22.86
  1
メインバー表面　Ｓ＝１：１
 41
1.153846153846154
  7
ＭＳ ゴシック
100
AcDbText
  0
TEXT
  5
B5
330
1F
100
AcDbEntity
  8
C-4
  6
Continuous
 62
     2
370
     0
100
AcDbText
 10
689.3557491817992
 20
905.8760081028294
 30
0.0
 40
30.48
  1
4
 41
0.9999999999999998
  7
ＭＳ ゴシック
100
AcDbText
  0
LWPOLYLINE
  5
B6
330
1F
100
AcDbEntity
  8
C-4
  6
Continuous
 62
     7
370
     9
100
AcDbPolyline
 90
        4
 70
     1
 43
2.0
 10
680.3561780774917
 20
895.2362390466641
 42
0.4142135623731
 10
679.3561780774917
 20
896.236239046664
 42
0.4142135623731
 10
678.3561780774917
 20
895.2362390466641
 42
0.4142135623731
 10
679.3561780774917
 20
894.2362390466642
 42
0.4142135623731
  0
LWPOLYLINE
  5
B7
330
1F
100
AcDbEntity
  8
C-4
  6
Continuous
 62
     7
370
     9
100
AcDbPolyline
 90
        4
 70
     1
 43
2.0
 10
720.3553202861067
 20
895.2362390466641
 42
0.4142135623731
 10
719.3553202861068
 20
896.236239046664
 42
0.4142135623731
 10
718.3553202861069
 20
895.2362390466641
 42
0.4142135623731
 10
719.3553202861068
 20
894.2362390466642
 42
0.4142135623731
  0
TEXT
  5
B8
330
1F
100
AcDbEntity
  8
F-5
  6
Continuous
 62
     2
370
     9
100
AcDbText
 10
-849.5525494276795
 20
-1322.868498092265
 30
0.0
 40
30.48
  1
滑り止め模様付　歩道Ｕ字溝用　ステンレス製グレーチング
 41
0.899074074074074
  7
ＭＳ ゴシック
100
AcDbText
  0
LINE
  5
B9
330
1F
100
AcDbEntity
  8
C-2
  6
Continuous
 62
     3
370
     9
100
AcDbLine
 10
-1504.445141734533
 20
842.7314882020693
 30
0.0
 11
-1504.445141734533
 21
738.7315409892315
 31
0.0
  0
LINE
  5
BA
330
1F
100
AcDbEntity
  8
C-2
  6
Continuous
 62
     3
370
     9
100
AcDbLine
 10
-1491.445395772751
 20
842.7314882020693
 30
0.0
 11
-1491.445395772751
 21
738.7315409892315
 31
0.0
  0
LINE
  5
BB
330
1F
100
AcDbEntity
  8
C-2
  6
Continuous
 62
     3
370
     9
100
AcDbLine
 10
-1495.445384225559
 20
842.7314882020693
 30
0.0
 11
-1495.445384225559
 21
738.7315409892315
 31
0.0
  0
LINE
  5
BC
330
1F
100
AcDbEntity
  8
C-2
  6
Continuous
 62
     3
370
     9
100
AcDbLine
 10
-516.4450246130167
 20
842.7314882020693
 30
0.0
 11
-516.4450246130167
 21
738.7315409892315
 31
0.0
  0
LINE
  5
BD
330
1F
100
AcDbEntity
  8
C-1
  6
Continuous
 62
     2
370
     9
100
AcDbLine
 10
-1508.445130187341
 20
738.7315409892315
 30
0.0
 11
-516.4450246130167
 21
738.7315409892315
 31
0.0
  0
LINE
  5
BE
330
1F
100
AcDbEntity
  8
C-2
  6
Continuous
 62
     3
370
     9
100
AcDbLine
 10
-1508.445130187341
 20
842.7314882020693
 30
0.0
 11
-1508.445130187341
 21
738.7315409892315
 31
0.0
  0
LINE
  5
BF
330
1F
100
AcDbEntity
  8
C-1
  6
Continuous
 62
     2
370
     9
100
AcDbLine
 10
-516.4450246130167
 20
872.7305974187078
 30
0.0
 11
-1508.445130187341
 21
872.7305974187078
 31
0.0
  0
LINE
  5
C0
330
1F
100
AcDbEntity
  8
C-1
  6
Continuous
 62
     2
370
     9
100
AcDbLine
 10
-1508.445130187341
 20
708.7309471336573
 30
0.0
 11
-516.4450246130167
 21
708.7309471336573
 31
0.0
  0
LINE
  5
C1
330
1F
100
AcDbEntity
  8
C-1
  6
Continuous
 62
     2
370
     9
100
AcDbLine
 10
-1508.445130187341
 20
842.7314882020693
 30
0.0
 11
-1508.445130187341
 21
872.7305974187078
 31
0.0
  0
LINE
  5
C2
330
1F
100
AcDbEntity
  8
C-1
  6
Continuous
 62
     2
370
     9
100
AcDbLine
 10
-1508.445130187341
 20
708.7309471336573
 30
0.0
 11
-1508.445130187341
 21
738.7315409892315
 31
0.0
  0
LINE
  5
C3
330
1F
100
AcDbEntity
  8
C-1
  6
Continuous
 62
     2
370
     9
100
AcDbLine
 10
-516.4450246130167
 20
872.7305974187078
 30
0.0
 11
-516.4450246130167
 21
842.7314882020693
 31
0.0
  0
LINE
  5
C4
330
1F
100
AcDbEntity
  8
C-1
  6
Continuous
 62
     2
370
     9
100
AcDbLine
 10
-516.4450246130167
 20
738.7315409892315
 30
0.0
 11
-516.4450246130167
 21
708.7309471336573
 31
0.0
  0
LINE
  5
C5
330
1F
100
AcDbEntity
  8
C-1
  6
JWW_DASHED3
 62
     2
370
     9
100
AcDbLine
 10
-1508.445130187341
 20
735.7310856999578
 30
0.0
 11
-516.4450246130167
 21
735.7310856999578
 31
0.0
  0
LINE
  5
C6
330
1F
100
AcDbEntity
  8
C-2
  6
Continuous
 62
     3
370
     9
100
AcDbLine
 10
-529.4447705747987
 20
792.2307524809967
 30
0.0
 11
-520.4443944662682
 21
792.2307524809967
 31
0.0
  0
LINE
  5
C7
330
1F
100
AcDbEntity
  8
C-2
  6
Continuous
 62
     3
370
     9
100
AcDbLine
 10
-529.4447705747987
 20
789.2312869510135
 30
0.0
 11
-520.4443944662682
 21
789.2312869510135
 31
0.0
  0
LINE
  5
C8
330
1F
100
AcDbEntity
  8
C-2
  6
Continuous
 62
     3
370
     9
100
AcDbLine
 10
-520.4453842255589
 20
842.7314882020693
 30
0.0
 11
-520.4453842255589
 21
738.7315409892315
 31
0.0
  0
LINE
  5
C9
330
1F
100
AcDbEntity
  8
C-1
  6
Continuous
 62
     2
370
     9
100
AcDbLine
 10
-516.4450246130167
 20
842.7314882020693
 30
0.0
 11
-1508.445130187341
 21
842.7314882020693
 31
0.0
  0
LINE
  5
CA
330
1F
100
AcDbEntity
  8
C-1
  6
JWW_DASHED3
 62
     2
370
     9
100
AcDbLine
 10
-516.4450246130167
 20
845.7314486116977
 30
0.0
 11
-1508.445130187341
 21
845.7314486116977
 31
0.0
  0
LINE
  5
CB
330
1F
100
AcDbEntity
  8
C-1
  6
JWW_PHANTOM1
 62
     2
370
     9
100
AcDbLine
 10
-1510.445804873258
 20
872.7305974187078
 30
0.0
 11
-1660.445433713523
 21
872.7305974187078
 31
0.0
  0
LINE
  5
CC
330
1F
100
AcDbEntity
  8
C-1
  6
JWW_PHANTOM1
 62
     2
370
     9
100
AcDbLine
 10
-1510.445804873258
 20
708.7309471336573
 30
0.0
 11
-1510.445804873258
 21
872.7305974187078
 31
0.0
  0
LINE
  5
CD
330
1F
100
AcDbEntity
  8
C-1
  6
JWW_PHANTOM1
 62
     2
370
     9
100
AcDbLine
 10
-1510.445804873258
 20
708.7309471336573
 30
0.0
 11
-1660.445433713523
 21
708.7309471336573
 31
0.0
  0
LINE
  5
CE
330
1F
100
AcDbEntity
  8
C-1
  6
JWW_PHANTOM1
 62
     2
370
     9
100
AcDbLine
 10
-1510.445804873258
 20
842.7314882020693
 30
0.0
 11
-1660.445433713523
 21
842.7314882020693
 31
0.0
  0
LINE
  5
CF
330
1F
100
AcDbEntity
  8
C-1
  6
JWW_PHANTOM1
 62
     2
370
     9
100
AcDbLine
 10
-1510.445804873258
 20
738.7315409892315
 30
0.0
 11
-1660.445433713523
 21
738.7315409892315
 31
0.0
  0
LINE
  5
D0
330
1F
100
AcDbEntity
  8
C-1
  6
JWW_PHANTOM1
 62
     2
370
     9
100
AcDbLine
 10
-514.4462057257701
 20
872.7305974187078
 30
0.0
 11
-364.4459582859474
 21
872.7305974187078
 31
0.0
  0
LINE
  5
D1
330
1F
100
AcDbEntity
  8
C-1
  6
JWW_PHANTOM1
 62
     2
370
     9
100
AcDbLine
 10
-514.4462057257701
 20
708.7309471336573
 30
0.0
 11
-514.4462057257701
 21
872.7305974187078
 31
0.0
  0
LINE
  5
D2
330
1F
100
AcDbEntity
  8
C-1
  6
JWW_PHANTOM1
 62
     2
370
     9
100
AcDbLine
 10
-514.4462057257701
 20
708.7309471336573
 30
0.0
 11
-364.4459582859474
 21
708.7309471336573
 31
0.0
  0
LINE
  5
D3
330
1F
100
AcDbEntity
  8
C-1
  6
JWW_PHANTOM1
 62
     2
370
     9
100
AcDbLine
 10
-514.4462057257701
 20
842.7314882020693
 30
0.0
 11
-364.4459582859474
 21
842.7314882020693
 31
0.0
  0
LINE
  5
D4
330
1F
100
AcDbEntity
  8
C-1
  6
JWW_PHANTOM1
 62
     2
370
     9
100
AcDbLine
 10
-514.4462057257701
 20
738.7315409892315
 30
0.0
 11
-364.4459582859474
 21
738.7315409892315
 31
0.0
  0
LINE
  5
D5
330
1F
100
AcDbEntity
  8
C-1
  6
Continuous
 62
     2
370
     9
100
AcDbLine
 10
-1677.766097578072
 20
780.7314816036742
 30
0.0
 11
-1643.125388448532
 21
800.7315475876269
 31
0.0
  0
LINE
  5
D6
330
1F
100
AcDbEntity
  8
C-1
  6
Continuous
 62
     2
370
     9
100
AcDbLine
 10
-1660.445433713523
 20
892.7311582823061
 30
0.0
 11
-1660.445433713523
 21
800.7315475876269
 31
0.0
  0
LINE
  5
D7
330
1F
100
AcDbEntity
  8
C-1
  6
Continuous
 62
     2
370
     9
100
AcDbLine
 10
-1660.445433713523
 20
800.7315475876269
 30
0.0
 11
-1643.125388448532
 21
800.7315475876269
 31
0.0
  0
LINE
  5
D8
330
1F
100
AcDbEntity
  8
C-1
  6
Continuous
 62
     2
370
     9
100
AcDbLine
 10
-1677.766097578072
 20
780.7314816036742
 30
0.0
 11
-1660.445433713523
 21
780.7314816036742
 31
0.0
  0
LINE
  5
D9
330
1F
100
AcDbEntity
  8
C-1
  6
Continuous
 62
     2
370
     9
100
AcDbLine
 10
-1660.445433713523
 20
780.7314816036742
 30
0.0
 11
-1660.445433713523
 21
688.7308811497044
 31
0.0
  0
LINE
  5
DA
330
1F
100
AcDbEntity
  8
C-1
  6
Continuous
 62
     2
370
     9
100
AcDbLine
 10
-381.7664984305841
 20
780.7314816036742
 30
0.0
 11
-347.1259130209557
 21
800.7315475876269
 31
0.0
  0
LINE
  5
DB
330
1F
100
AcDbEntity
  8
C-1
  6
Continuous
 62
     2
370
     9
100
AcDbLine
 10
-364.4459582859474
 20
892.7311582823061
 30
0.0
 11
-364.4459582859474
 21
800.7315475876269
 31
0.0
  0
LINE
  5
DC
330
1F
100
AcDbEntity
  8
C-1
  6
Continuous
 62
     2
370
     9
100
AcDbLine
 10
-364.4459582859474
 20
800.7315475876269
 30
0.0
 11
-347.1259130209557
 21
800.7315475876269
 31
0.0
  0
LINE
  5
DD
330
1F
100
AcDbEntity
  8
C-1
  6
Continuous
 62
     2
370
     9
100
AcDbLine
 10
-381.7664984305841
 20
780.7314816036742
 30
0.0
 11
-364.4459582859474
 21
780.7314816036742
 31
0.0
  0
LINE
  5
DE
330
1F
100
AcDbEntity
  8
C-1
  6
Continuous
 62
     2
370
     9
100
AcDbLine
 10
-364.4459582859474
 20
780.7314816036742
 30
0.0
 11
-364.4459582859474
 21
688.7308811497044
 31
0.0
  0
LINE
  5
DF
330
1F
100
AcDbEntity
  8
C-4
  6
Continuous
 62
     7
370
     9
100
AcDbLine
 10
-1510.445804873258
 20
884.729944177576
 30
0.0
 11
-1510.445804873258
 21
967.7299210831927
 31
0.0
  0
LINE
  5
E0
330
1F
100
AcDbEntity
  8
C-4
  6
Continuous
 62
     7
370
     9
100
AcDbLine
 10
-1508.445130187341
 20
884.729944177576
 30
0.0
 11
-1508.445130187341
 21
1047.730185019003
 31
0.0
  0
LINE
  5
E1
330
1F
100
AcDbEntity
  8
C-4
  6
Continuous
 62
     7
370
     9
100
AcDbLine
 10
-516.445519492662
 20
884.729944177576
 30
0.0
 11
-516.445519492662
 21
967.7299210831927
 31
0.0
  0
LINE
  5
E2
330
1F
100
AcDbEntity
  8
C-4
  6
Continuous
 62
     7
370
     9
100
AcDbLine
 10
-514.4462057257701
 20
884.729944177576
 30
0.0
 11
-514.4462057257701
 21
1047.730185019003
 31
0.0
  0
LINE
  5
E3
330
1F
100
AcDbEntity
  8
C-4
  6
Continuous
 62
     7
370
     9
100
AcDbLine
 10
-1660.445433713523
 20
1044.72972972973
 30
0.0
 11
-364.4459582859474
 21
1044.72972972973
 31
0.0
  0
LINE
  5
E4
330
1F
100
AcDbEntity
  8
C-4
  6
Continuous
 62
     7
370
     9
100
AcDbLine
 10
-1660.445433713523
 20
964.730208113387
 30
0.0
 11
-364.4459582859474
 21
964.730208113387
 31
0.0
  0
LINE
  5
E5
330
1F
100
AcDbEntity
  8
C-5
  6
Continuous
 62
     7
370
     9
100
AcDbLine
 10
-1299.94515988012
 20
543.731392525338
 30
0.0
 11
-1299.94515988012
 21
608.7308646537165
 31
0.0
  0
LINE
  5
E6
330
1F
100
AcDbEntity
  8
C-5
  6
Continuous
 62
     7
370
     9
100
AcDbLine
 10
-1299.94515988012
 20
608.7308646537165
 30
0.0
 11
-724.9452423600608
 21
608.7308646537165
 31
0.0
  0
LINE
  5
E7
330
1F
100
AcDbEntity
  8
C-5
  6
Continuous
 62
     7
370
     9
100
AcDbLine
 10
-724.9452423600608
 20
608.7308646537165
 30
0.0
 11
-724.9452423600608
 21
543.731392525338
 31
0.0
  0
LINE
  5
E8
330
1F
100
AcDbEntity
  8
C-5
  6
Continuous
 62
     7
370
     9
100
AcDbLine
 10
-724.9452423600608
 20
543.731392525338
 30
0.0
 11
-1299.94515988012
 21
543.731392525338
 31
0.0
  0
LINE
  5
E9
330
1F
100
AcDbEntity
  8
C-2
  6
Continuous
 62
     3
370
     9
100
AcDbLine
 10
-1504.445141734533
 20
792.2307524809967
 30
0.0
 11
-1495.445384225559
 21
792.2307524809967
 31
0.0
  0
LINE
  5
EA
330
1F
100
AcDbEntity
  8
C-2
  6
Continuous
 62
     3
370
     9
100
AcDbLine
 10
-1504.445141734533
 20
789.2312869510135
 30
0.0
 11
-1495.445384225559
 21
789.2312869510135
 31
0.0
  0
LINE
  5
EB
330
1F
100
AcDbEntity
  8
C-2
  6
Continuous
 62
     3
370
     9
100
AcDbLine
 10
-1478.445649810968
 20
842.7314882020693
 30
0.0
 11
-1478.445649810968
 21
738.7315409892315
 31
0.0
  0
LINE
  5
EC
330
1F
100
AcDbEntity
  8
C-2
  6
Continuous
 62
     3
370
     9
100
AcDbLine
 10
-1482.445638263777
 20
842.7314882020693
 30
0.0
 11
-1482.445638263777
 21
738.7315409892315
 31
0.0
  0
LINE
  5
ED
330
1F
100
AcDbEntity
  8
C-2
  6
Continuous
 62
     3
370
     9
100
AcDbLine
 10
-1491.445395772751
 20
792.2307524809967
 30
0.0
 11
-1482.445638263777
 21
792.2307524809967
 31
0.0
  0
LINE
  5
EE
330
1F
100
AcDbEntity
  8
C-2
  6
Continuous
 62
     3
370
     9
100
AcDbLine
 10
-1491.445395772751
 20
789.2312869510135
 30
0.0
 11
-1482.445638263777
 21
789.2312869510135
 31
0.0
  0
LINE
  5
EF
330
1F
100
AcDbEntity
  8
C-2
  6
Continuous
 62
     3
370
     9
100
AcDbLine
 10
-1465.445903849186
 20
842.7314882020693
 30
0.0
 11
-1465.445903849186
 21
738.7315409892315
 31
0.0
  0
LINE
  5
F0
330
1F
100
AcDbEntity
  8
C-2
  6
Continuous
 62
     3
370
     9
100
AcDbLine
 10
-1469.445892301995
 20
842.7314882020693
 30
0.0
 11
-1469.445892301995
 21
738.7315409892315
 31
0.0
  0
LINE
  5
F1
330
1F
100
AcDbEntity
  8
C-2
  6
Continuous
 62
     3
370
     9
100
AcDbLine
 10
-1478.445649810968
 20
792.2307524809967
 30
0.0
 11
-1469.445892301995
 21
792.2307524809967
 31
0.0
  0
LINE
  5
F2
330
1F
100
AcDbEntity
  8
C-2
  6
Continuous
 62
     3
370
     9
100
AcDbLine
 10
-1478.445649810968
 20
789.2312869510135
 30
0.0
 11
-1469.445892301995
 21
789.2312869510135
 31
0.0
  0
LINE
  5
F3
330
1F
100
AcDbEntity
  8
C-2
  6
Continuous
 62
     3
370
     9
100
AcDbLine
 10
-1452.446157887405
 20
842.7314882020693
 30
0.0
 11
-1452.446157887405
 21
738.7315409892315
 31
0.0
  0
LINE
  5
F4
330
1F
100
AcDbEntity
  8
C-2
  6
Continuous
 62
     3
370
     9
100
AcDbLine
 10
-1456.446146340213
 20
842.7314882020693
 30
0.0
 11
-1456.446146340213
 21
738.7315409892315
 31
0.0
  0
LINE
  5
F5
330
1F
100
AcDbEntity
  8
C-2
  6
Continuous
 62
     3
370
     9
100
AcDbLine
 10
-1465.445903849186
 20
792.2307524809967
 30
0.0
 11
-1456.446146340213
 21
792.2307524809967
 31
0.0
  0
LINE
  5
F6
330
1F
100
AcDbEntity
  8
C-2
  6
Continuous
 62
     3
370
     9
100
AcDbLine
 10
-1465.445903849186
 20
789.2312869510135
 30
0.0
 11
-1456.446146340213
 21
789.2312869510135
 31
0.0
  0
LINE
  5
F7
330
1F
100
AcDbEntity
  8
C-2
  6
Continuous
 62
     3
370
     9
100
AcDbLine
 10
-1439.446411925622
 20
842.7314882020693
 30
0.0
 11
-1439.446411925622
 21
738.7315409892315
 31
0.0
  0
LINE
  5
F8
330
1F
100
AcDbEntity
  8
C-2
  6
Continuous
 62
     3
370
     9
100
AcDbLine
 10
-1443.446400378431
 20
842.7314882020693
 30
0.0
 11
-1443.446400378431
 21
738.7315409892315
 31
0.0
  0
LINE
  5
F9
330
1F
100
AcDbEntity
  8
C-2
  6
Continuous
 62
     3
370
     9
100
AcDbLine
 10
-1452.446157887405
 20
792.2307524809967
 30
0.0
 11
-1443.446400378431
 21
792.2307524809967
 31
0.0
  0
LINE
  5
FA
330
1F
100
AcDbEntity
  8
C-2
  6
Continuous
 62
     3
370
     9
100
AcDbLine
 10
-1452.446157887405
 20
789.2312869510135
 30
0.0
 11
-1443.446400378431
 21
789.2312869510135
 31
0.0
  0
LINE
  5
FB
330
1F
100
AcDbEntity
  8
C-2
  6
Continuous
 62
     3
370
     9
100
AcDbLine
 10
-1426.44666596384
 20
842.7314882020693
 30
0.0
 11
-1426.44666596384
 21
738.7315409892315
 31
0.0
  0
LINE
  5
FC
330
1F
100
AcDbEntity
  8
C-2
  6
Continuous
 62
     3
370
     9
100
AcDbLine
 10
-1430.446654416648
 20
842.7314882020693
 30
0.0
 11
-1430.446654416648
 21
738.7315409892315
 31
0.0
  0
LINE
  5
FD
330
1F
100
AcDbEntity
  8
C-2
  6
Continuous
 62
     3
370
     9
100
AcDbLine
 10
-1439.446411925622
 20
792.2307524809967
 30
0.0
 11
-1430.446654416648
 21
792.2307524809967
 31
0.0
  0
LINE
  5
FE
330
1F
100
AcDbEntity
  8
C-2
  6
Continuous
 62
     3
370
     9
100
AcDbLine
 10
-1439.446411925622
 20
789.2312869510135
 30
0.0
 11
-1430.446654416648
 21
789.2312869510135
 31
0.0
  0
LINE
  5
FF
330
1F
100
AcDbEntity
  8
C-2
  6
Continuous
 62
     3
370
     9
100
AcDbLine
 10
-1413.446920002058
 20
842.7314882020693
 30
0.0
 11
-1413.446920002058
 21
738.7315409892315
 31
0.0
  0
LINE
  5
100
330
1F
100
AcDbEntity
  8
C-2
  6
Continuous
 62
     3
370
     9
100
AcDbLine
 10
-1417.446908454866
 20
842.7314882020693
 30
0.0
 11
-1417.446908454866
 21
738.7315409892315
 31
0.0
  0
LINE
  5
101
330
1F
100
AcDbEntity
  8
C-2
  6
Continuous
 62
     3
370
     9
100
AcDbLine
 10
-1426.44666596384
 20
792.2307524809967
 30
0.0
 11
-1417.446908454866
 21
792.2307524809967
 31
0.0
  0
LINE
  5
102
330
1F
100
AcDbEntity
  8
C-2
  6
Continuous
 62
     3
370
     9
100
AcDbLine
 10
-1426.44666596384
 20
789.2312869510135
 30
0.0
 11
-1417.446908454866
 21
789.2312869510135
 31
0.0
  0
LINE
  5
103
330
1F
100
AcDbEntity
  8
C-2
  6
Continuous
 62
     3
370
     9
100
AcDbLine
 10
-1400.447174040276
 20
842.7314882020693
 30
0.0
 11
-1400.447174040276
 21
738.7315409892315
 31
0.0
  0
LINE
  5
104
330
1F
100
AcDbEntity
  8
C-2
  6
Continuous
 62
     3
370
     9
100
AcDbLine
 10
-1404.447162493084
 20
842.7314882020693
 30
0.0
 11
-1404.447162493084
 21
738.7315409892315
 31
0.0
  0
LINE
  5
105
330
1F
100
AcDbEntity
  8
C-2
  6
Continuous
 62
     3
370
     9
100
AcDbLine
 10
-1413.446920002058
 20
792.2307524809967
 30
0.0
 11
-1404.447162493084
 21
792.2307524809967
 31
0.0
  0
LINE
  5
106
330
1F
100
AcDbEntity
  8
C-2
  6
Continuous
 62
     3
370
     9
100
AcDbLine
 10
-1413.446920002058
 20
789.2312869510135
 30
0.0
 11
-1404.447162493084
 21
789.2312869510135
 31
0.0
  0
LINE
  5
107
330
1F
100
AcDbEntity
  8
C-2
  6
Continuous
 62
     3
370
     9
100
AcDbLine
 10
-1387.447428078494
 20
842.7314882020693
 30
0.0
 11
-1387.447428078494
 21
738.7315409892315
 31
0.0
  0
LINE
  5
108
330
1F
100
AcDbEntity
  8
C-2
  6
Continuous
 62
     3
370
     9
100
AcDbLine
 10
-1391.447416531302
 20
842.7314882020693
 30
0.0
 11
-1391.447416531302
 21
738.7315409892315
 31
0.0
  0
LINE
  5
109
330
1F
100
AcDbEntity
  8
C-2
  6
Continuous
 62
     3
370
     9
100
AcDbLine
 10
-1400.447174040276
 20
792.2307524809967
 30
0.0
 11
-1391.447416531302
 21
792.2307524809967
 31
0.0
  0
LINE
  5
10A
330
1F
100
AcDbEntity
  8
C-2
  6
Continuous
 62
     3
370
     9
100
AcDbLine
 10
-1400.447174040276
 20
789.2312869510135
 30
0.0
 11
-1391.447416531302
 21
789.2312869510135
 31
0.0
  0
LINE
  5
10B
330
1F
100
AcDbEntity
  8
C-2
  6
Continuous
 62
     3
370
     9
100
AcDbLine
 10
-1374.447682116712
 20
842.7314882020693
 30
0.0
 11
-1374.447682116712
 21
738.7315409892315
 31
0.0
  0
LINE
  5
10C
330
1F
100
AcDbEntity
  8
C-2
  6
Continuous
 62
     3
370
     9
100
AcDbLine
 10
-1378.44767056952
 20
842.7314882020693
 30
0.0
 11
-1378.44767056952
 21
738.7315409892315
 31
0.0
  0
LINE
  5
10D
330
1F
100
AcDbEntity
  8
C-2
  6
Continuous
 62
     3
370
     9
100
AcDbLine
 10
-1387.447428078494
 20
792.2307524809967
 30
0.0
 11
-1378.44767056952
 21
792.2307524809967
 31
0.0
  0
LINE
  5
10E
330
1F
100
AcDbEntity
  8
C-2
  6
Continuous
 62
     3
370
     9
100
AcDbLine
 10
-1387.447428078494
 20
789.2312869510135
 30
0.0
 11
-1378.44767056952
 21
789.2312869510135
 31
0.0
  0
LINE
  5
10F
330
1F
100
AcDbEntity
  8
C-2
  6
Continuous
 62
     3
370
     9
100
AcDbLine
 10
-1361.44793615493
 20
842.7314882020693
 30
0.0
 11
-1361.44793615493
 21
738.7315409892315
 31
0.0
  0
LINE
  5
110
330
1F
100
AcDbEntity
  8
C-2
  6
Continuous
 62
     3
370
     9
100
AcDbLine
 10
-1365.447924607738
 20
842.7314882020693
 30
0.0
 11
-1365.447924607738
 21
738.7315409892315
 31
0.0
  0
LINE
  5
111
330
1F
100
AcDbEntity
  8
C-2
  6
Continuous
 62
     3
370
     9
100
AcDbLine
 10
-1374.447682116712
 20
792.2307524809967
 30
0.0
 11
-1365.447924607738
 21
792.2307524809967
 31
0.0
  0
LINE
  5
112
330
1F
100
AcDbEntity
  8
C-2
  6
Continuous
 62
     3
370
     9
100
AcDbLine
 10
-1374.447682116712
 20
789.2312869510135
 30
0.0
 11
-1365.447924607738
 21
789.2312869510135
 31
0.0
  0
LINE
  5
113
330
1F
100
AcDbEntity
  8
C-2
  6
Continuous
 62
     3
370
     9
100
AcDbLine
 10
-1348.448190193148
 20
842.7314882020693
 30
0.0
 11
-1348.448190193148
 21
738.7315409892315
 31
0.0
  0
LINE
  5
114
330
1F
100
AcDbEntity
  8
C-2
  6
Continuous
 62
     3
370
     9
100
AcDbLine
 10
-1352.448178645956
 20
842.7314882020693
 30
0.0
 11
-1352.448178645956
 21
738.7315409892315
 31
0.0
  0
LINE
  5
115
330
1F
100
AcDbEntity
  8
C-2
  6
Continuous
 62
     3
370
     9
100
AcDbLine
 10
-1361.44793615493
 20
792.2307524809967
 30
0.0
 11
-1352.448178645956
 21
792.2307524809967
 31
0.0
  0
LINE
  5
116
330
1F
100
AcDbEntity
  8
C-2
  6
Continuous
 62
     3
370
     9
100
AcDbLine
 10
-1361.44793615493
 20
789.2312869510135
 30
0.0
 11
-1352.448178645956
 21
789.2312869510135
 31
0.0
  0
LINE
  5
117
330
1F
100
AcDbEntity
  8
C-2
  6
Continuous
 62
     3
370
     9
100
AcDbLine
 10
-1335.448444231366
 20
842.7314882020693
 30
0.0
 11
-1335.448444231366
 21
738.7315409892315
 31
0.0
  0
LINE
  5
118
330
1F
100
AcDbEntity
  8
C-2
  6
Continuous
 62
     3
370
     9
100
AcDbLine
 10
-1339.448432684174
 20
842.7314882020693
 30
0.0
 11
-1339.448432684174
 21
738.7315409892315
 31
0.0
  0
LINE
  5
119
330
1F
100
AcDbEntity
  8
C-2
  6
Continuous
 62
     3
370
     9
100
AcDbLine
 10
-1348.448190193148
 20
792.2307524809967
 30
0.0
 11
-1339.448432684174
 21
792.2307524809967
 31
0.0
  0
LINE
  5
11A
330
1F
100
AcDbEntity
  8
C-2
  6
Continuous
 62
     3
370
     9
100
AcDbLine
 10
-1348.448190193148
 20
789.2312869510135
 30
0.0
 11
-1339.448432684174
 21
789.2312869510135
 31
0.0
  0
LINE
  5
11B
330
1F
100
AcDbEntity
  8
C-2
  6
Continuous
 62
     3
370
     9
100
AcDbLine
 10
-1322.448698269583
 20
842.7314882020693
 30
0.0
 11
-1322.448698269583
 21
738.7315409892315
 31
0.0
  0
LINE
  5
11C
330
1F
100
AcDbEntity
  8
C-2
  6
Continuous
 62
     3
370
     9
100
AcDbLine
 10
-1326.448686722392
 20
842.7314882020693
 30
0.0
 11
-1326.448686722392
 21
738.7315409892315
 31
0.0
  0
LINE
  5
11D
330
1F
100
AcDbEntity
  8
C-2
  6
Continuous
 62
     3
370
     9
100
AcDbLine
 10
-1335.448444231366
 20
792.2307524809967
 30
0.0
 11
-1326.448686722392
 21
792.2307524809967
 31
0.0
  0
LINE
  5
11E
330
1F
100
AcDbEntity
  8
C-2
  6
Continuous
 62
     3
370
     9
100
AcDbLine
 10
-1335.448444231366
 20
789.2312869510135
 30
0.0
 11
-1326.448686722392
 21
789.2312869510135
 31
0.0
  0
LINE
  5
11F
330
1F
100
AcDbEntity
  8
C-2
  6
Continuous
 62
     3
370
     9
100
AcDbLine
 10
-1309.448952307801
 20
842.7314882020693
 30
0.0
 11
-1309.448952307801
 21
738.7315409892315
 31
0.0
  0
LINE
  5
120
330
1F
100
AcDbEntity
  8
C-2
  6
Continuous
 62
     3
370
     9
100
AcDbLine
 10
-1313.44894076061
 20
842.7314882020693
 30
0.0
 11
-1313.44894076061
 21
738.7315409892315
 31
0.0
  0
LINE
  5
121
330
1F
100
AcDbEntity
  8
C-2
  6
Continuous
 62
     3
370
     9
100
AcDbLine
 10
-1322.448698269583
 20
792.2307524809967
 30
0.0
 11
-1313.44894076061
 21
792.2307524809967
 31
0.0
  0
LINE
  5
122
330
1F
100
AcDbEntity
  8
C-2
  6
Continuous
 62
     3
370
     9
100
AcDbLine
 10
-1322.448698269583
 20
789.2312869510135
 30
0.0
 11
-1313.44894076061
 21
789.2312869510135
 31
0.0
  0
LINE
  5
123
330
1F
100
AcDbEntity
  8
C-2
  6
Continuous
 62
     3
370
     9
100
AcDbLine
 10
-1296.449206346019
 20
842.7314882020693
 30
0.0
 11
-1296.449206346019
 21
738.7315409892315
 31
0.0
  0
LINE
  5
124
330
1F
100
AcDbEntity
  8
C-2
  6
Continuous
 62
     3
370
     9
100
AcDbLine
 10
-1300.449194798828
 20
842.7314882020693
 30
0.0
 11
-1300.449194798828
 21
738.7315409892315
 31
0.0
  0
LINE
  5
125
330
1F
100
AcDbEntity
  8
C-2
  6
Continuous
 62
     3
370
     9
100
AcDbLine
 10
-1309.448952307801
 20
792.2307524809967
 30
0.0
 11
-1300.449194798828
 21
792.2307524809967
 31
0.0
  0
LINE
  5
126
330
1F
100
AcDbEntity
  8
C-2
  6
Continuous
 62
     3
370
     9
100
AcDbLine
 10
-1309.448952307801
 20
789.2312869510135
 30
0.0
 11
-1300.449194798828
 21
789.2312869510135
 31
0.0
  0
LINE
  5
127
330
1F
100
AcDbEntity
  8
C-2
  6
Continuous
 62
     3
370
     9
100
AcDbLine
 10
-1283.449460384237
 20
842.7314882020693
 30
0.0
 11
-1283.449460384237
 21
738.7315409892315
 31
0.0
  0
LINE
  5
128
330
1F
100
AcDbEntity
  8
C-2
  6
Continuous
 62
     3
370
     9
100
AcDbLine
 10
-1287.449448837045
 20
842.7314882020693
 30
0.0
 11
-1287.449448837045
 21
738.7315409892315
 31
0.0
  0
LINE
  5
129
330
1F
100
AcDbEntity
  8
C-2
  6
Continuous
 62
     3
370
     9
100
AcDbLine
 10
-1296.449206346019
 20
792.2307524809967
 30
0.0
 11
-1287.449448837045
 21
792.2307524809967
 31
0.0
  0
LINE
  5
12A
330
1F
100
AcDbEntity
  8
C-2
  6
Continuous
 62
     3
370
     9
100
AcDbLine
 10
-1296.449206346019
 20
789.2312869510135
 30
0.0
 11
-1287.449448837045
 21
789.2312869510135
 31
0.0
  0
LINE
  5
12B
330
1F
100
AcDbEntity
  8
C-2
  6
Continuous
 62
     3
370
     9
100
AcDbLine
 10
-1270.449714422455
 20
842.7314882020693
 30
0.0
 11
-1270.449714422455
 21
738.7315409892315
 31
0.0
  0
LINE
  5
12C
330
1F
100
AcDbEntity
  8
C-2
  6
Continuous
 62
     3
370
     9
100
AcDbLine
 10
-1274.449702875263
 20
842.7314882020693
 30
0.0
 11
-1274.449702875263
 21
738.7315409892315
 31
0.0
  0
LINE
  5
12D
330
1F
100
AcDbEntity
  8
C-2
  6
Continuous
 62
     3
370
     9
100
AcDbLine
 10
-1283.449460384237
 20
792.2307524809967
 30
0.0
 11
-1274.449702875263
 21
792.2307524809967
 31
0.0
  0
LINE
  5
12E
330
1F
100
AcDbEntity
  8
C-2
  6
Continuous
 62
     3
370
     9
100
AcDbLine
 10
-1283.449460384237
 20
789.2312869510135
 30
0.0
 11
-1274.449702875263
 21
789.2312869510135
 31
0.0
  0
LINE
  5
12F
330
1F
100
AcDbEntity
  8
C-2
  6
Continuous
 62
     3
370
     9
100
AcDbLine
 10
-1257.449968460673
 20
842.7314882020693
 30
0.0
 11
-1257.449968460673
 21
738.7315409892315
 31
0.0
  0
LINE
  5
130
330
1F
100
AcDbEntity
  8
C-2
  6
Continuous
 62
     3
370
     9
100
AcDbLine
 10
-1261.449956913481
 20
842.7314882020693
 30
0.0
 11
-1261.449956913481
 21
738.7315409892315
 31
0.0
  0
LINE
  5
131
330
1F
100
AcDbEntity
  8
C-2
  6
Continuous
 62
     3
370
     9
100
AcDbLine
 10
-1270.449714422455
 20
792.2307524809967
 30
0.0
 11
-1261.449956913481
 21
792.2307524809967
 31
0.0
  0
LINE
  5
132
330
1F
100
AcDbEntity
  8
C-2
  6
Continuous
 62
     3
370
     9
100
AcDbLine
 10
-1270.449714422455
 20
789.2312869510135
 30
0.0
 11
-1261.449956913481
 21
789.2312869510135
 31
0.0
  0
LINE
  5
133
330
1F
100
AcDbEntity
  8
C-2
  6
Continuous
 62
     3
370
     9
100
AcDbLine
 10
-1244.450222498891
 20
842.7314882020693
 30
0.0
 11
-1244.450222498891
 21
738.7315409892315
 31
0.0
  0
LINE
  5
134
330
1F
100
AcDbEntity
  8
C-2
  6
Continuous
 62
     3
370
     9
100
AcDbLine
 10
-1248.450210951699
 20
842.7314882020693
 30
0.0
 11
-1248.450210951699
 21
738.7315409892315
 31
0.0
  0
LINE
  5
135
330
1F
100
AcDbEntity
  8
C-2
  6
Continuous
 62
     3
370
     9
100
AcDbLine
 10
-1257.449968460673
 20
792.2307524809967
 30
0.0
 11
-1248.450210951699
 21
792.2307524809967
 31
0.0
  0
LINE
  5
136
330
1F
100
AcDbEntity
  8
C-2
  6
Continuous
 62
     3
370
     9
100
AcDbLine
 10
-1257.449968460673
 20
789.2312869510135
 30
0.0
 11
-1248.450210951699
 21
789.2312869510135
 31
0.0
  0
LINE
  5
137
330
1F
100
AcDbEntity
  8
C-2
  6
Continuous
 62
     3
370
     9
100
AcDbLine
 10
-1231.450476537109
 20
842.7314882020693
 30
0.0
 11
-1231.450476537109
 21
738.7315409892315
 31
0.0
  0
LINE
  5
138
330
1F
100
AcDbEntity
  8
C-2
  6
Continuous
 62
     3
370
     9
100
AcDbLine
 10
-1235.450464989917
 20
842.7314882020693
 30
0.0
 11
-1235.450464989917
 21
738.7315409892315
 31
0.0
  0
LINE
  5
139
330
1F
100
AcDbEntity
  8
C-2
  6
Continuous
 62
     3
370
     9
100
AcDbLine
 10
-1244.450222498891
 20
792.2307524809967
 30
0.0
 11
-1235.450464989917
 21
792.2307524809967
 31
0.0
  0
LINE
  5
13A
330
1F
100
AcDbEntity
  8
C-2
  6
Continuous
 62
     3
370
     9
100
AcDbLine
 10
-1244.450222498891
 20
789.2312869510135
 30
0.0
 11
-1235.450464989917
 21
789.2312869510135
 31
0.0
  0
LINE
  5
13B
330
1F
100
AcDbEntity
  8
C-2
  6
Continuous
 62
     3
370
     9
100
AcDbLine
 10
-1218.450730575327
 20
842.7314882020693
 30
0.0
 11
-1218.450730575327
 21
738.7315409892315
 31
0.0
  0
LINE
  5
13C
330
1F
100
AcDbEntity
  8
C-2
  6
Continuous
 62
     3
370
     9
100
AcDbLine
 10
-1222.450719028135
 20
842.7314882020693
 30
0.0
 11
-1222.450719028135
 21
738.7315409892315
 31
0.0
  0
LINE
  5
13D
330
1F
100
AcDbEntity
  8
C-2
  6
Continuous
 62
     3
370
     9
100
AcDbLine
 10
-1231.450476537109
 20
792.2307524809967
 30
0.0
 11
-1222.450719028135
 21
792.2307524809967
 31
0.0
  0
LINE
  5
13E
330
1F
100
AcDbEntity
  8
C-2
  6
Continuous
 62
     3
370
     9
100
AcDbLine
 10
-1231.450476537109
 20
789.2312869510135
 30
0.0
 11
-1222.450719028135
 21
789.2312869510135
 31
0.0
  0
LINE
  5
13F
330
1F
100
AcDbEntity
  8
C-2
  6
Continuous
 62
     3
370
     9
100
AcDbLine
 10
-1205.450984613545
 20
842.7314882020693
 30
0.0
 11
-1205.450984613545
 21
738.7315409892315
 31
0.0
  0
LINE
  5
140
330
1F
100
AcDbEntity
  8
C-2
  6
Continuous
 62
     3
370
     9
100
AcDbLine
 10
-1209.450973066353
 20
842.7314882020693
 30
0.0
 11
-1209.450973066353
 21
738.7315409892315
 31
0.0
  0
LINE
  5
141
330
1F
100
AcDbEntity
  8
C-2
  6
Continuous
 62
     3
370
     9
100
AcDbLine
 10
-1218.450730575327
 20
792.2307524809967
 30
0.0
 11
-1209.450973066353
 21
792.2307524809967
 31
0.0
  0
LINE
  5
142
330
1F
100
AcDbEntity
  8
C-2
  6
Continuous
 62
     3
370
     9
100
AcDbLine
 10
-1218.450730575327
 20
789.2312869510135
 30
0.0
 11
-1209.450973066353
 21
789.2312869510135
 31
0.0
  0
LINE
  5
143
330
1F
100
AcDbEntity
  8
C-2
  6
Continuous
 62
     3
370
     9
100
AcDbLine
 10
-1192.451238651763
 20
842.7314882020693
 30
0.0
 11
-1192.451238651763
 21
738.7315409892315
 31
0.0
  0
LINE
  5
144
330
1F
100
AcDbEntity
  8
C-2
  6
Continuous
 62
     3
370
     9
100
AcDbLine
 10
-1196.451227104571
 20
842.7314882020693
 30
0.0
 11
-1196.451227104571
 21
738.7315409892315
 31
0.0
  0
LINE
  5
145
330
1F
100
AcDbEntity
  8
C-2
  6
Continuous
 62
     3
370
     9
100
AcDbLine
 10
-1205.450984613545
 20
792.2307524809967
 30
0.0
 11
-1196.451227104571
 21
792.2307524809967
 31
0.0
  0
LINE
  5
146
330
1F
100
AcDbEntity
  8
C-2
  6
Continuous
 62
     3
370
     9
100
AcDbLine
 10
-1205.450984613545
 20
789.2312869510135
 30
0.0
 11
-1196.451227104571
 21
789.2312869510135
 31
0.0
  0
LINE
  5
147
330
1F
100
AcDbEntity
  8
C-2
  6
Continuous
 62
     3
370
     9
100
AcDbLine
 10
-1179.451492689981
 20
842.7314882020693
 30
0.0
 11
-1179.451492689981
 21
738.7315409892315
 31
0.0
  0
LINE
  5
148
330
1F
100
AcDbEntity
  8
C-2
  6
Continuous
 62
     3
370
     9
100
AcDbLine
 10
-1183.451481142788
 20
842.7314882020693
 30
0.0
 11
-1183.451481142788
 21
738.7315409892315
 31
0.0
  0
LINE
  5
149
330
1F
100
AcDbEntity
  8
C-2
  6
Continuous
 62
     3
370
     9
100
AcDbLine
 10
-1192.451238651763
 20
792.2307524809967
 30
0.0
 11
-1183.451481142788
 21
792.2307524809967
 31
0.0
  0
LINE
  5
14A
330
1F
100
AcDbEntity
  8
C-2
  6
Continuous
 62
     3
370
     9
100
AcDbLine
 10
-1192.451238651763
 20
789.2312869510135
 30
0.0
 11
-1183.451481142788
 21
789.2312869510135
 31
0.0
  0
LINE
  5
14B
330
1F
100
AcDbEntity
  8
C-2
  6
Continuous
 62
     3
370
     9
100
AcDbLine
 10
-1166.451746728198
 20
842.7314882020693
 30
0.0
 11
-1166.451746728198
 21
738.7315409892315
 31
0.0
  0
LINE
  5
14C
330
1F
100
AcDbEntity
  8
C-2
  6
Continuous
 62
     3
370
     9
100
AcDbLine
 10
-1170.451735181007
 20
842.7314882020693
 30
0.0
 11
-1170.451735181007
 21
738.7315409892315
 31
0.0
  0
LINE
  5
14D
330
1F
100
AcDbEntity
  8
C-2
  6
Continuous
 62
     3
370
     9
100
AcDbLine
 10
-1179.451492689981
 20
792.2307524809967
 30
0.0
 11
-1170.451735181007
 21
792.2307524809967
 31
0.0
  0
LINE
  5
14E
330
1F
100
AcDbEntity
  8
C-2
  6
Continuous
 62
     3
370
     9
100
AcDbLine
 10
-1179.451492689981
 20
789.2312869510135
 30
0.0
 11
-1170.451735181007
 21
789.2312869510135
 31
0.0
  0
LINE
  5
14F
330
1F
100
AcDbEntity
  8
C-2
  6
Continuous
 62
     3
370
     9
100
AcDbLine
 10
-1153.452000766416
 20
842.7314882020693
 30
0.0
 11
-1153.452000766416
 21
738.7315409892315
 31
0.0
  0
LINE
  5
150
330
1F
100
AcDbEntity
  8
C-2
  6
Continuous
 62
     3
370
     9
100
AcDbLine
 10
-1157.451989219225
 20
842.7314882020693
 30
0.0
 11
-1157.451989219225
 21
738.7315409892315
 31
0.0
  0
LINE
  5
151
330
1F
100
AcDbEntity
  8
C-2
  6
Continuous
 62
     3
370
     9
100
AcDbLine
 10
-1166.451746728198
 20
792.2307524809967
 30
0.0
 11
-1157.451989219225
 21
792.2307524809967
 31
0.0
  0
LINE
  5
152
330
1F
100
AcDbEntity
  8
C-2
  6
Continuous
 62
     3
370
     9
100
AcDbLine
 10
-1166.451746728198
 20
789.2312869510135
 30
0.0
 11
-1157.451989219225
 21
789.2312869510135
 31
0.0
  0
LINE
  5
153
330
1F
100
AcDbEntity
  8
C-2
  6
Continuous
 62
     3
370
     9
100
AcDbLine
 10
-1140.452254804634
 20
842.7314882020693
 30
0.0
 11
-1140.452254804634
 21
738.7315409892315
 31
0.0
  0
LINE
  5
154
330
1F
100
AcDbEntity
  8
C-2
  6
Continuous
 62
     3
370
     9
100
AcDbLine
 10
-1144.452243257442
 20
842.7314882020693
 30
0.0
 11
-1144.452243257442
 21
738.7315409892315
 31
0.0
  0
LINE
  5
155
330
1F
100
AcDbEntity
  8
C-2
  6
Continuous
 62
     3
370
     9
100
AcDbLine
 10
-1153.452000766416
 20
792.2307524809967
 30
0.0
 11
-1144.452243257442
 21
792.2307524809967
 31
0.0
  0
LINE
  5
156
330
1F
100
AcDbEntity
  8
C-2
  6
Continuous
 62
     3
370
     9
100
AcDbLine
 10
-1153.452000766416
 20
789.2312869510135
 30
0.0
 11
-1144.452243257442
 21
789.2312869510135
 31
0.0
  0
LINE
  5
157
330
1F
100
AcDbEntity
  8
C-2
  6
Continuous
 62
     3
370
     9
100
AcDbLine
 10
-1127.452508842852
 20
842.7314882020693
 30
0.0
 11
-1127.452508842852
 21
738.7315409892315
 31
0.0
  0
LINE
  5
158
330
1F
100
AcDbEntity
  8
C-2
  6
Continuous
 62
     3
370
     9
100
AcDbLine
 10
-1131.45249729566
 20
842.7314882020693
 30
0.0
 11
-1131.45249729566
 21
738.7315409892315
 31
0.0
  0
LINE
  5
159
330
1F
100
AcDbEntity
  8
C-2
  6
Continuous
 62
     3
370
     9
100
AcDbLine
 10
-1140.452254804634
 20
792.2307524809967
 30
0.0
 11
-1131.45249729566
 21
792.2307524809967
 31
0.0
  0
LINE
  5
15A
330
1F
100
AcDbEntity
  8
C-2
  6
Continuous
 62
     3
370
     9
100
AcDbLine
 10
-1140.452254804634
 20
789.2312869510135
 30
0.0
 11
-1131.45249729566
 21
789.2312869510135
 31
0.0
  0
LINE
  5
15B
330
1F
100
AcDbEntity
  8
C-2
  6
Continuous
 62
     3
370
     9
100
AcDbLine
 10
-1114.45276288107
 20
842.7314882020693
 30
0.0
 11
-1114.45276288107
 21
738.7315409892315
 31
0.0
  0
LINE
  5
15C
330
1F
100
AcDbEntity
  8
C-2
  6
Continuous
 62
     3
370
     9
100
AcDbLine
 10
-1118.452751333878
 20
842.7314882020693
 30
0.0
 11
-1118.452751333878
 21
738.7315409892315
 31
0.0
  0
LINE
  5
15D
330
1F
100
AcDbEntity
  8
C-2
  6
Continuous
 62
     3
370
     9
100
AcDbLine
 10
-1127.452508842852
 20
792.2307524809967
 30
0.0
 11
-1118.452751333878
 21
792.2307524809967
 31
0.0
  0
LINE
  5
15E
330
1F
100
AcDbEntity
  8
C-2
  6
Continuous
 62
     3
370
     9
100
AcDbLine
 10
-1127.452508842852
 20
789.2312869510135
 30
0.0
 11
-1118.452751333878
 21
789.2312869510135
 31
0.0
  0
LINE
  5
15F
330
1F
100
AcDbEntity
  8
C-2
  6
Continuous
 62
     3
370
     9
100
AcDbLine
 10
-1101.453016919288
 20
842.7314882020693
 30
0.0
 11
-1101.453016919288
 21
738.7315409892315
 31
0.0
  0
LINE
  5
160
330
1F
100
AcDbEntity
  8
C-2
  6
Continuous
 62
     3
370
     9
100
AcDbLine
 10
-1105.453005372096
 20
842.7314882020693
 30
0.0
 11
-1105.453005372096
 21
738.7315409892315
 31
0.0
  0
LINE
  5
161
330
1F
100
AcDbEntity
  8
C-2
  6
Continuous
 62
     3
370
     9
100
AcDbLine
 10
-1114.45276288107
 20
792.2307524809967
 30
0.0
 11
-1105.453005372096
 21
792.2307524809967
 31
0.0
  0
LINE
  5
162
330
1F
100
AcDbEntity
  8
C-2
  6
Continuous
 62
     3
370
     9
100
AcDbLine
 10
-1114.45276288107
 20
789.2312869510135
 30
0.0
 11
-1105.453005372096
 21
789.2312869510135
 31
0.0
  0
LINE
  5
163
330
1F
100
AcDbEntity
  8
C-2
  6
Continuous
 62
     3
370
     9
100
AcDbLine
 10
-1088.453270957506
 20
842.7314882020693
 30
0.0
 11
-1088.453270957506
 21
738.7315409892315
 31
0.0
  0
LINE
  5
164
330
1F
100
AcDbEntity
  8
C-2
  6
Continuous
 62
     3
370
     9
100
AcDbLine
 10
-1092.453259410314
 20
842.7314882020693
 30
0.0
 11
-1092.453259410314
 21
738.7315409892315
 31
0.0
  0
LINE
  5
165
330
1F
100
AcDbEntity
  8
C-2
  6
Continuous
 62
     3
370
     9
100
AcDbLine
 10
-1101.453016919288
 20
792.2307524809967
 30
0.0
 11
-1092.453259410314
 21
792.2307524809967
 31
0.0
  0
LINE
  5
166
330
1F
100
AcDbEntity
  8
C-2
  6
Continuous
 62
     3
370
     9
100
AcDbLine
 10
-1101.453016919288
 20
789.2312869510135
 30
0.0
 11
-1092.453259410314
 21
789.2312869510135
 31
0.0
  0
LINE
  5
167
330
1F
100
AcDbEntity
  8
C-2
  6
Continuous
 62
     3
370
     9
100
AcDbLine
 10
-1075.453524995724
 20
842.7314882020693
 30
0.0
 11
-1075.453524995724
 21
738.7315409892315
 31
0.0
  0
LINE
  5
168
330
1F
100
AcDbEntity
  8
C-2
  6
Continuous
 62
     3
370
     9
100
AcDbLine
 10
-1079.453513448532
 20
842.7314882020693
 30
0.0
 11
-1079.453513448532
 21
738.7315409892315
 31
0.0
  0
LINE
  5
169
330
1F
100
AcDbEntity
  8
C-2
  6
Continuous
 62
     3
370
     9
100
AcDbLine
 10
-1088.453270957506
 20
792.2307524809967
 30
0.0
 11
-1079.453513448532
 21
792.2307524809967
 31
0.0
  0
LINE
  5
16A
330
1F
100
AcDbEntity
  8
C-2
  6
Continuous
 62
     3
370
     9
100
AcDbLine
 10
-1088.453270957506
 20
789.2312869510135
 30
0.0
 11
-1079.453513448532
 21
789.2312869510135
 31
0.0
  0
LINE
  5
16B
330
1F
100
AcDbEntity
  8
C-2
  6
Continuous
 62
     3
370
     9
100
AcDbLine
 10
-1062.453779033941
 20
842.7314882020693
 30
0.0
 11
-1062.453779033941
 21
738.7315409892315
 31
0.0
  0
LINE
  5
16C
330
1F
100
AcDbEntity
  8
C-2
  6
Continuous
 62
     3
370
     9
100
AcDbLine
 10
-1066.45376748675
 20
842.7314882020693
 30
0.0
 11
-1066.45376748675
 21
738.7315409892315
 31
0.0
  0
LINE
  5
16D
330
1F
100
AcDbEntity
  8
C-2
  6
Continuous
 62
     3
370
     9
100
AcDbLine
 10
-1075.453524995724
 20
792.2307524809967
 30
0.0
 11
-1066.45376748675
 21
792.2307524809967
 31
0.0
  0
LINE
  5
16E
330
1F
100
AcDbEntity
  8
C-2
  6
Continuous
 62
     3
370
     9
100
AcDbLine
 10
-1075.453524995724
 20
789.2312869510135
 30
0.0
 11
-1066.45376748675
 21
789.2312869510135
 31
0.0
  0
LINE
  5
16F
330
1F
100
AcDbEntity
  8
C-2
  6
Continuous
 62
     3
370
     9
100
AcDbLine
 10
-1049.454033072159
 20
842.7314882020693
 30
0.0
 11
-1049.454033072159
 21
738.7315409892315
 31
0.0
  0
LINE
  5
170
330
1F
100
AcDbEntity
  8
C-2
  6
Continuous
 62
     3
370
     9
100
AcDbLine
 10
-1053.454021524968
 20
842.7314882020693
 30
0.0
 11
-1053.454021524968
 21
738.7315409892315
 31
0.0
  0
LINE
  5
171
330
1F
100
AcDbEntity
  8
C-2
  6
Continuous
 62
     3
370
     9
100
AcDbLine
 10
-1062.453779033941
 20
792.2307524809967
 30
0.0
 11
-1053.454021524968
 21
792.2307524809967
 31
0.0
  0
LINE
  5
172
330
1F
100
AcDbEntity
  8
C-2
  6
Continuous
 62
     3
370
     9
100
AcDbLine
 10
-1062.453779033941
 20
789.2312869510135
 30
0.0
 11
-1053.454021524968
 21
789.2312869510135
 31
0.0
  0
LINE
  5
173
330
1F
100
AcDbEntity
  8
C-2
  6
Continuous
 62
     3
370
     9
100
AcDbLine
 10
-1036.454410830288
 20
842.7314882020693
 30
0.0
 11
-1036.454410830288
 21
738.7315409892315
 31
0.0
  0
LINE
  5
174
330
1F
100
AcDbEntity
  8
C-2
  6
Continuous
 62
     3
370
     9
100
AcDbLine
 10
-1040.454275563186
 20
842.7314882020693
 30
0.0
 11
-1040.454275563186
 21
738.7315409892315
 31
0.0
  0
LINE
  5
175
330
1F
100
AcDbEntity
  8
C-2
  6
Continuous
 62
     3
370
     9
100
AcDbLine
 10
-1049.454033072159
 20
792.2307524809967
 30
0.0
 11
-1040.454275563186
 21
792.2307524809967
 31
0.0
  0
LINE
  5
176
330
1F
100
AcDbEntity
  8
C-2
  6
Continuous
 62
     3
370
     9
100
AcDbLine
 10
-1049.454033072159
 20
789.2312869510135
 30
0.0
 11
-1040.454275563186
 21
789.2312869510135
 31
0.0
  0
LINE
  5
177
330
1F
100
AcDbEntity
  8
C-2
  6
Continuous
 62
     3
370
     9
100
AcDbLine
 10
-1023.454417428684
 20
842.7314882020693
 30
0.0
 11
-1023.454417428684
 21
738.7315409892315
 31
0.0
  0
LINE
  5
178
330
1F
100
AcDbEntity
  8
C-2
  6
Continuous
 62
     3
370
     9
100
AcDbLine
 10
-1027.454529601404
 20
842.7314882020693
 30
0.0
 11
-1027.454529601404
 21
738.7315409892315
 31
0.0
  0
LINE
  5
179
330
1F
100
AcDbEntity
  8
C-2
  6
Continuous
 62
     3
370
     9
100
AcDbLine
 10
-1036.454410830288
 20
792.2307524809967
 30
0.0
 11
-1027.454529601404
 21
792.2307524809967
 31
0.0
  0
LINE
  5
17A
330
1F
100
AcDbEntity
  8
C-2
  6
Continuous
 62
     3
370
     9
100
AcDbLine
 10
-1036.454410830288
 20
789.2312869510135
 30
0.0
 11
-1027.454529601404
 21
789.2312869510135
 31
0.0
  0
LINE
  5
17B
330
1F
100
AcDbEntity
  8
C-2
  6
Continuous
 62
     3
370
     9
100
AcDbLine
 10
-1010.454918906725
 20
842.7314882020693
 30
0.0
 11
-1010.454918906725
 21
738.7315409892315
 31
0.0
  0
LINE
  5
17C
330
1F
100
AcDbEntity
  8
C-2
  6
Continuous
 62
     3
370
     9
100
AcDbLine
 10
-1014.454783639621
 20
842.7314882020693
 30
0.0
 11
-1014.454783639621
 21
738.7315409892315
 31
0.0
  0
LINE
  5
17D
330
1F
100
AcDbEntity
  8
C-2
  6
Continuous
 62
     3
370
     9
100
AcDbLine
 10
-1023.454417428684
 20
792.2307524809967
 30
0.0
 11
-1014.454783639621
 21
792.2307524809967
 31
0.0
  0
LINE
  5
17E
330
1F
100
AcDbEntity
  8
C-2
  6
Continuous
 62
     3
370
     9
100
AcDbLine
 10
-1023.454417428684
 20
789.2312869510135
 30
0.0
 11
-1014.454783639621
 21
789.2312869510135
 31
0.0
  0
LINE
  5
17F
330
1F
100
AcDbEntity
  8
C-2
  6
Continuous
 62
     3
370
     9
100
AcDbLine
 10
-997.4549255051198
 20
842.7314882020693
 30
0.0
 11
-997.4549255051198
 21
738.7315409892315
 31
0.0
  0
LINE
  5
180
330
1F
100
AcDbEntity
  8
C-2
  6
Continuous
 62
     3
370
     9
100
AcDbLine
 10
-1001.455037677839
 20
842.7314882020693
 30
0.0
 11
-1001.455037677839
 21
738.7315409892315
 31
0.0
  0
LINE
  5
181
330
1F
100
AcDbEntity
  8
C-2
  6
Continuous
 62
     3
370
     9
100
AcDbLine
 10
-1010.454918906725
 20
792.2307524809967
 30
0.0
 11
-1001.455037677839
 21
792.2307524809967
 31
0.0
  0
LINE
  5
182
330
1F
100
AcDbEntity
  8
C-2
  6
Continuous
 62
     3
370
     9
100
AcDbLine
 10
-1010.454918906725
 20
789.2312869510135
 30
0.0
 11
-1001.455037677839
 21
789.2312869510135
 31
0.0
  0
LINE
  5
183
330
1F
100
AcDbEntity
  8
C-2
  6
Continuous
 62
     3
370
     9
100
AcDbLine
 10
-984.4554269831601
 20
842.7314882020693
 30
0.0
 11
-984.4554269831601
 21
738.7315409892315
 31
0.0
  0
LINE
  5
184
330
1F
100
AcDbEntity
  8
C-2
  6
Continuous
 62
     3
370
     9
100
AcDbLine
 10
-988.4552917160573
 20
842.7314882020693
 30
0.0
 11
-988.4552917160573
 21
738.7315409892315
 31
0.0
  0
LINE
  5
185
330
1F
100
AcDbEntity
  8
C-2
  6
Continuous
 62
     3
370
     9
100
AcDbLine
 10
-997.4549255051198
 20
792.2307524809967
 30
0.0
 11
-988.4552917160573
 21
792.2307524809967
 31
0.0
  0
LINE
  5
186
330
1F
100
AcDbEntity
  8
C-2
  6
Continuous
 62
     3
370
     9
100
AcDbLine
 10
-997.4549255051198
 20
789.2312869510135
 30
0.0
 11
-988.4552917160573
 21
789.2312869510135
 31
0.0
  0
LINE
  5
187
330
1F
100
AcDbEntity
  8
C-2
  6
Continuous
 62
     3
370
     9
100
AcDbLine
 10
-971.4554335815556
 20
842.7314882020693
 30
0.0
 11
-971.4554335815556
 21
738.7315409892315
 31
0.0
  0
LINE
  5
188
330
1F
100
AcDbEntity
  8
C-2
  6
Continuous
 62
     3
370
     9
100
AcDbLine
 10
-975.4555457542754
 20
842.7314882020693
 30
0.0
 11
-975.4555457542754
 21
738.7315409892315
 31
0.0
  0
LINE
  5
189
330
1F
100
AcDbEntity
  8
C-2
  6
Continuous
 62
     3
370
     9
100
AcDbLine
 10
-984.4554269831601
 20
792.2307524809967
 30
0.0
 11
-975.4555457542754
 21
792.2307524809967
 31
0.0
  0
LINE
  5
18A
330
1F
100
AcDbEntity
  8
C-2
  6
Continuous
 62
     3
370
     9
100
AcDbLine
 10
-984.4554269831601
 20
789.2312869510135
 30
0.0
 11
-975.4555457542754
 21
789.2312869510135
 31
0.0
  0
LINE
  5
18B
330
1F
100
AcDbEntity
  8
C-2
  6
Continuous
 62
     3
370
     9
100
AcDbLine
 10
-958.4559350595962
 20
842.7314882020693
 30
0.0
 11
-958.4559350595962
 21
738.7315409892315
 31
0.0
  0
LINE
  5
18C
330
1F
100
AcDbEntity
  8
C-2
  6
Continuous
 62
     3
370
     9
100
AcDbLine
 10
-962.455799792493
 20
842.7314882020693
 30
0.0
 11
-962.455799792493
 21
738.7315409892315
 31
0.0
  0
LINE
  5
18D
330
1F
100
AcDbEntity
  8
C-2
  6
Continuous
 62
     3
370
     9
100
AcDbLine
 10
-971.4554335815556
 20
792.2307524809967
 30
0.0
 11
-962.455799792493
 21
792.2307524809967
 31
0.0
  0
LINE
  5
18E
330
1F
100
AcDbEntity
  8
C-2
  6
Continuous
 62
     3
370
     9
100
AcDbLine
 10
-971.4554335815556
 20
789.2312869510135
 30
0.0
 11
-962.455799792493
 21
789.2312869510135
 31
0.0
  0
LINE
  5
18F
330
1F
100
AcDbEntity
  8
C-2
  6
Continuous
 62
     3
370
     9
100
AcDbLine
 10
-945.4559416579914
 20
842.7314882020693
 30
0.0
 11
-945.4559416579914
 21
738.7315409892315
 31
0.0
  0
LINE
  5
190
330
1F
100
AcDbEntity
  8
C-2
  6
Continuous
 62
     3
370
     9
100
AcDbLine
 10
-949.456053830711
 20
842.7314882020693
 30
0.0
 11
-949.456053830711
 21
738.7315409892315
 31
0.0
  0
LINE
  5
191
330
1F
100
AcDbEntity
  8
C-2
  6
Continuous
 62
     3
370
     9
100
AcDbLine
 10
-958.4559350595962
 20
792.2307524809967
 30
0.0
 11
-949.456053830711
 21
792.2307524809967
 31
0.0
  0
LINE
  5
192
330
1F
100
AcDbEntity
  8
C-2
  6
Continuous
 62
     3
370
     9
100
AcDbLine
 10
-958.4559350595962
 20
789.2312869510135
 30
0.0
 11
-949.456053830711
 21
789.2312869510135
 31
0.0
  0
LINE
  5
193
330
1F
100
AcDbEntity
  8
C-2
  6
Continuous
 62
     3
370
     9
100
AcDbLine
 10
-932.4564431360318
 20
842.7314882020693
 30
0.0
 11
-932.4564431360318
 21
738.7315409892315
 31
0.0
  0
LINE
  5
194
330
1F
100
AcDbEntity
  8
C-2
  6
Continuous
 62
     3
370
     9
100
AcDbLine
 10
-936.4563078689289
 20
842.7314882020693
 30
0.0
 11
-936.4563078689289
 21
738.7315409892315
 31
0.0
  0
LINE
  5
195
330
1F
100
AcDbEntity
  8
C-2
  6
Continuous
 62
     3
370
     9
100
AcDbLine
 10
-945.4559416579914
 20
792.2307524809967
 30
0.0
 11
-936.4563078689289
 21
792.2307524809967
 31
0.0
  0
LINE
  5
196
330
1F
100
AcDbEntity
  8
C-2
  6
Continuous
 62
     3
370
     9
100
AcDbLine
 10
-945.4559416579914
 20
789.2312869510135
 30
0.0
 11
-936.4563078689289
 21
789.2312869510135
 31
0.0
  0
LINE
  5
197
330
1F
100
AcDbEntity
  8
C-2
  6
Continuous
 62
     3
370
     9
100
AcDbLine
 10
-919.4564497344271
 20
842.7314882020693
 30
0.0
 11
-919.4564497344271
 21
738.7315409892315
 31
0.0
  0
LINE
  5
198
330
1F
100
AcDbEntity
  8
C-2
  6
Continuous
 62
     3
370
     9
100
AcDbLine
 10
-923.4565619071469
 20
842.7314882020693
 30
0.0
 11
-923.4565619071469
 21
738.7315409892315
 31
0.0
  0
LINE
  5
199
330
1F
100
AcDbEntity
  8
C-2
  6
Continuous
 62
     3
370
     9
100
AcDbLine
 10
-932.4564431360318
 20
792.2307524809967
 30
0.0
 11
-923.4565619071469
 21
792.2307524809967
 31
0.0
  0
LINE
  5
19A
330
1F
100
AcDbEntity
  8
C-2
  6
Continuous
 62
     3
370
     9
100
AcDbLine
 10
-932.4564431360318
 20
789.2312869510135
 30
0.0
 11
-923.4565619071469
 21
789.2312869510135
 31
0.0
  0
LINE
  5
19B
330
1F
100
AcDbEntity
  8
C-2
  6
Continuous
 62
     3
370
     9
100
AcDbLine
 10
-906.4569512124677
 20
842.7314882020693
 30
0.0
 11
-906.4569512124677
 21
738.7315409892315
 31
0.0
  0
LINE
  5
19C
330
1F
100
AcDbEntity
  8
C-2
  6
Continuous
 62
     3
370
     9
100
AcDbLine
 10
-910.4568159453646
 20
842.7314882020693
 30
0.0
 11
-910.4568159453646
 21
738.7315409892315
 31
0.0
  0
LINE
  5
19D
330
1F
100
AcDbEntity
  8
C-2
  6
Continuous
 62
     3
370
     9
100
AcDbLine
 10
-919.4564497344271
 20
792.2307524809967
 30
0.0
 11
-910.4568159453646
 21
792.2307524809967
 31
0.0
  0
LINE
  5
19E
330
1F
100
AcDbEntity
  8
C-2
  6
Continuous
 62
     3
370
     9
100
AcDbLine
 10
-919.4564497344271
 20
789.2312869510135
 30
0.0
 11
-910.4568159453646
 21
789.2312869510135
 31
0.0
  0
LINE
  5
19F
330
1F
100
AcDbEntity
  8
C-2
  6
Continuous
 62
     3
370
     9
100
AcDbLine
 10
-893.4569578108631
 20
842.7314882020693
 30
0.0
 11
-893.4569578108631
 21
738.7315409892315
 31
0.0
  0
LINE
  5
1A0
330
1F
100
AcDbEntity
  8
C-2
  6
Continuous
 62
     3
370
     9
100
AcDbLine
 10
-897.4570699835826
 20
842.7314882020693
 30
0.0
 11
-897.4570699835826
 21
738.7315409892315
 31
0.0
  0
LINE
  5
1A1
330
1F
100
AcDbEntity
  8
C-2
  6
Continuous
 62
     3
370
     9
100
AcDbLine
 10
-906.4569512124677
 20
792.2307524809967
 30
0.0
 11
-897.4570699835826
 21
792.2307524809967
 31
0.0
  0
LINE
  5
1A2
330
1F
100
AcDbEntity
  8
C-2
  6
Continuous
 62
     3
370
     9
100
AcDbLine
 10
-906.4569512124677
 20
789.2312869510135
 30
0.0
 11
-897.4570699835826
 21
789.2312869510135
 31
0.0
  0
LINE
  5
1A3
330
1F
100
AcDbEntity
  8
C-2
  6
Continuous
 62
     3
370
     9
100
AcDbLine
 10
-880.4574592889035
 20
842.7314882020693
 30
0.0
 11
-880.4574592889035
 21
738.7315409892315
 31
0.0
  0
LINE
  5
1A4
330
1F
100
AcDbEntity
  8
C-2
  6
Continuous
 62
     3
370
     9
100
AcDbLine
 10
-884.4573240218006
 20
842.7314882020693
 30
0.0
 11
-884.4573240218006
 21
738.7315409892315
 31
0.0
  0
LINE
  5
1A5
330
1F
100
AcDbEntity
  8
C-2
  6
Continuous
 62
     3
370
     9
100
AcDbLine
 10
-893.4569578108631
 20
792.2307524809967
 30
0.0
 11
-884.4573240218006
 21
792.2307524809967
 31
0.0
  0
LINE
  5
1A6
330
1F
100
AcDbEntity
  8
C-2
  6
Continuous
 62
     3
370
     9
100
AcDbLine
 10
-893.4569578108631
 20
789.2312869510135
 30
0.0
 11
-884.4573240218006
 21
789.2312869510135
 31
0.0
  0
LINE
  5
1A7
330
1F
100
AcDbEntity
  8
C-2
  6
Continuous
 62
     3
370
     9
100
AcDbLine
 10
-867.4574658872987
 20
842.7314882020693
 30
0.0
 11
-867.4574658872987
 21
738.7315409892315
 31
0.0
  0
LINE
  5
1A8
330
1F
100
AcDbEntity
  8
C-2
  6
Continuous
 62
     3
370
     9
100
AcDbLine
 10
-871.4575780600185
 20
842.7314882020693
 30
0.0
 11
-871.4575780600185
 21
738.7315409892315
 31
0.0
  0
LINE
  5
1A9
330
1F
100
AcDbEntity
  8
C-2
  6
Continuous
 62
     3
370
     9
100
AcDbLine
 10
-880.4574592889035
 20
792.2307524809967
 30
0.0
 11
-871.4575780600185
 21
792.2307524809967
 31
0.0
  0
LINE
  5
1AA
330
1F
100
AcDbEntity
  8
C-2
  6
Continuous
 62
     3
370
     9
100
AcDbLine
 10
-880.4574592889035
 20
789.2312869510135
 30
0.0
 11
-871.4575780600185
 21
789.2312869510135
 31
0.0
  0
LINE
  5
1AB
330
1F
100
AcDbEntity
  8
C-2
  6
Continuous
 62
     3
370
     9
100
AcDbLine
 10
-854.4579673653393
 20
842.7314882020693
 30
0.0
 11
-854.4579673653393
 21
738.7315409892315
 31
0.0
  0
LINE
  5
1AC
330
1F
100
AcDbEntity
  8
C-2
  6
Continuous
 62
     3
370
     9
100
AcDbLine
 10
-858.4578320982362
 20
842.7314882020693
 30
0.0
 11
-858.4578320982362
 21
738.7315409892315
 31
0.0
  0
LINE
  5
1AD
330
1F
100
AcDbEntity
  8
C-2
  6
Continuous
 62
     3
370
     9
100
AcDbLine
 10
-867.4574658872987
 20
792.2307524809967
 30
0.0
 11
-858.4578320982362
 21
792.2307524809967
 31
0.0
  0
LINE
  5
1AE
330
1F
100
AcDbEntity
  8
C-2
  6
Continuous
 62
     3
370
     9
100
AcDbLine
 10
-867.4574658872987
 20
789.2312869510135
 30
0.0
 11
-858.4578320982362
 21
789.2312869510135
 31
0.0
  0
LINE
  5
1AF
330
1F
100
AcDbEntity
  8
C-2
  6
Continuous
 62
     3
370
     9
100
AcDbLine
 10
-841.4579739637347
 20
842.7314882020693
 30
0.0
 11
-841.4579739637347
 21
738.7315409892315
 31
0.0
  0
LINE
  5
1B0
330
1F
100
AcDbEntity
  8
C-2
  6
Continuous
 62
     3
370
     9
100
AcDbLine
 10
-845.4580861364542
 20
842.7314882020693
 30
0.0
 11
-845.4580861364542
 21
738.7315409892315
 31
0.0
  0
LINE
  5
1B1
330
1F
100
AcDbEntity
  8
C-2
  6
Continuous
 62
     3
370
     9
100
AcDbLine
 10
-854.4579673653393
 20
792.2307524809967
 30
0.0
 11
-845.4580861364542
 21
792.2307524809967
 31
0.0
  0
LINE
  5
1B2
330
1F
100
AcDbEntity
  8
C-2
  6
Continuous
 62
     3
370
     9
100
AcDbLine
 10
-854.4579673653393
 20
789.2312869510135
 30
0.0
 11
-845.4580861364542
 21
789.2312869510135
 31
0.0
  0
LINE
  5
1B3
330
1F
100
AcDbEntity
  8
C-2
  6
Continuous
 62
     3
370
     9
100
AcDbLine
 10
-828.458475441775
 20
842.7314882020693
 30
0.0
 11
-828.458475441775
 21
738.7315409892315
 31
0.0
  0
LINE
  5
1B4
330
1F
100
AcDbEntity
  8
C-2
  6
Continuous
 62
     3
370
     9
100
AcDbLine
 10
-832.4583401746722
 20
842.7314882020693
 30
0.0
 11
-832.4583401746722
 21
738.7315409892315
 31
0.0
  0
LINE
  5
1B5
330
1F
100
AcDbEntity
  8
C-2
  6
Continuous
 62
     3
370
     9
100
AcDbLine
 10
-841.4579739637347
 20
792.2307524809967
 30
0.0
 11
-832.4583401746722
 21
792.2307524809967
 31
0.0
  0
LINE
  5
1B6
330
1F
100
AcDbEntity
  8
C-2
  6
Continuous
 62
     3
370
     9
100
AcDbLine
 10
-841.4579739637347
 20
789.2312869510135
 30
0.0
 11
-832.4583401746722
 21
789.2312869510135
 31
0.0
  0
LINE
  5
1B7
330
1F
100
AcDbEntity
  8
C-2
  6
Continuous
 62
     3
370
     9
100
AcDbLine
 10
-815.4584820401703
 20
842.7314882020693
 30
0.0
 11
-815.4584820401703
 21
738.7315409892315
 31
0.0
  0
LINE
  5
1B8
330
1F
100
AcDbEntity
  8
C-2
  6
Continuous
 62
     3
370
     9
100
AcDbLine
 10
-819.4585942128901
 20
842.7314882020693
 30
0.0
 11
-819.4585942128901
 21
738.7315409892315
 31
0.0
  0
LINE
  5
1B9
330
1F
100
AcDbEntity
  8
C-2
  6
Continuous
 62
     3
370
     9
100
AcDbLine
 10
-828.458475441775
 20
792.2307524809967
 30
0.0
 11
-819.4585942128901
 21
792.2307524809967
 31
0.0
  0
LINE
  5
1BA
330
1F
100
AcDbEntity
  8
C-2
  6
Continuous
 62
     3
370
     9
100
AcDbLine
 10
-828.458475441775
 20
789.2312869510135
 30
0.0
 11
-819.4585942128901
 21
789.2312869510135
 31
0.0
  0
LINE
  5
1BB
330
1F
100
AcDbEntity
  8
C-2
  6
Continuous
 62
     3
370
     9
100
AcDbLine
 10
-802.458983518211
 20
842.7314882020693
 30
0.0
 11
-802.458983518211
 21
738.7315409892315
 31
0.0
  0
LINE
  5
1BC
330
1F
100
AcDbEntity
  8
C-2
  6
Continuous
 62
     3
370
     9
100
AcDbLine
 10
-806.4588482511078
 20
842.7314882020693
 30
0.0
 11
-806.4588482511078
 21
738.7315409892315
 31
0.0
  0
LINE
  5
1BD
330
1F
100
AcDbEntity
  8
C-2
  6
Continuous
 62
     3
370
     9
100
AcDbLine
 10
-815.4584820401703
 20
792.2307524809967
 30
0.0
 11
-806.4588482511078
 21
792.2307524809967
 31
0.0
  0
LINE
  5
1BE
330
1F
100
AcDbEntity
  8
C-2
  6
Continuous
 62
     3
370
     9
100
AcDbLine
 10
-815.4584820401703
 20
789.2312869510135
 30
0.0
 11
-806.4588482511078
 21
789.2312869510135
 31
0.0
  0
LINE
  5
1BF
330
1F
100
AcDbEntity
  8
C-2
  6
Continuous
 62
     3
370
     9
100
AcDbLine
 10
-789.4589901166063
 20
842.7314882020693
 30
0.0
 11
-789.4589901166063
 21
738.7315409892315
 31
0.0
  0
LINE
  5
1C0
330
1F
100
AcDbEntity
  8
C-2
  6
Continuous
 62
     3
370
     9
100
AcDbLine
 10
-793.4591022893258
 20
842.7314882020693
 30
0.0
 11
-793.4591022893258
 21
738.7315409892315
 31
0.0
  0
LINE
  5
1C1
330
1F
100
AcDbEntity
  8
C-2
  6
Continuous
 62
     3
370
     9
100
AcDbLine
 10
-802.458983518211
 20
792.2307524809967
 30
0.0
 11
-793.4591022893258
 21
792.2307524809967
 31
0.0
  0
LINE
  5
1C2
330
1F
100
AcDbEntity
  8
C-2
  6
Continuous
 62
     3
370
     9
100
AcDbLine
 10
-802.458983518211
 20
789.2312869510135
 30
0.0
 11
-793.4591022893258
 21
789.2312869510135
 31
0.0
  0
LINE
  5
1C3
330
1F
100
AcDbEntity
  8
C-2
  6
Continuous
 62
     3
370
     9
100
AcDbLine
 10
-776.4594915946469
 20
842.7314882020693
 30
0.0
 11
-776.4594915946469
 21
738.7315409892315
 31
0.0
  0
LINE
  5
1C4
330
1F
100
AcDbEntity
  8
C-2
  6
Continuous
 62
     3
370
     9
100
AcDbLine
 10
-780.4593563275438
 20
842.7314882020693
 30
0.0
 11
-780.4593563275438
 21
738.7315409892315
 31
0.0
  0
LINE
  5
1C5
330
1F
100
AcDbEntity
  8
C-2
  6
Continuous
 62
     3
370
     9
100
AcDbLine
 10
-789.4589901166063
 20
792.2307524809967
 30
0.0
 11
-780.4593563275438
 21
792.2307524809967
 31
0.0
  0
LINE
  5
1C6
330
1F
100
AcDbEntity
  8
C-2
  6
Continuous
 62
     3
370
     9
100
AcDbLine
 10
-789.4589901166063
 20
789.2312869510135
 30
0.0
 11
-780.4593563275438
 21
789.2312869510135
 31
0.0
  0
LINE
  5
1C7
330
1F
100
AcDbEntity
  8
C-2
  6
Continuous
 62
     3
370
     9
100
AcDbLine
 10
-763.459498193042
 20
842.7314882020693
 30
0.0
 11
-763.459498193042
 21
738.7315409892315
 31
0.0
  0
LINE
  5
1C8
330
1F
100
AcDbEntity
  8
C-2
  6
Continuous
 62
     3
370
     9
100
AcDbLine
 10
-767.4596103657618
 20
842.7314882020693
 30
0.0
 11
-767.4596103657618
 21
738.7315409892315
 31
0.0
  0
LINE
  5
1C9
330
1F
100
AcDbEntity
  8
C-2
  6
Continuous
 62
     3
370
     9
100
AcDbLine
 10
-776.4594915946469
 20
792.2307524809967
 30
0.0
 11
-767.4596103657618
 21
792.2307524809967
 31
0.0
  0
LINE
  5
1CA
330
1F
100
AcDbEntity
  8
C-2
  6
Continuous
 62
     3
370
     9
100
AcDbLine
 10
-776.4594915946469
 20
789.2312869510135
 30
0.0
 11
-767.4596103657618
 21
789.2312869510135
 31
0.0
  0
LINE
  5
1CB
330
1F
100
AcDbEntity
  8
C-2
  6
Continuous
 62
     3
370
     9
100
AcDbLine
 10
-750.4599996710826
 20
842.7314882020693
 30
0.0
 11
-750.4599996710826
 21
738.7315409892315
 31
0.0
  0
LINE
  5
1CC
330
1F
100
AcDbEntity
  8
C-2
  6
Continuous
 62
     3
370
     9
100
AcDbLine
 10
-754.4598644039795
 20
842.7314882020693
 30
0.0
 11
-754.4598644039795
 21
738.7315409892315
 31
0.0
  0
LINE
  5
1CD
330
1F
100
AcDbEntity
  8
C-2
  6
Continuous
 62
     3
370
     9
100
AcDbLine
 10
-763.459498193042
 20
792.2307524809967
 30
0.0
 11
-754.4598644039795
 21
792.2307524809967
 31
0.0
  0
LINE
  5
1CE
330
1F
100
AcDbEntity
  8
C-2
  6
Continuous
 62
     3
370
     9
100
AcDbLine
 10
-763.459498193042
 20
789.2312869510135
 30
0.0
 11
-754.4598644039795
 21
789.2312869510135
 31
0.0
  0
LINE
  5
1CF
330
1F
100
AcDbEntity
  8
C-2
  6
Continuous
 62
     3
370
     9
100
AcDbLine
 10
-737.4600062694778
 20
842.7314882020693
 30
0.0
 11
-737.4600062694778
 21
738.7315409892315
 31
0.0
  0
LINE
  5
1D0
330
1F
100
AcDbEntity
  8
C-2
  6
Continuous
 62
     3
370
     9
100
AcDbLine
 10
-741.4601184421974
 20
842.7314882020693
 30
0.0
 11
-741.4601184421974
 21
738.7315409892315
 31
0.0
  0
LINE
  5
1D1
330
1F
100
AcDbEntity
  8
C-2
  6
Continuous
 62
     3
370
     9
100
AcDbLine
 10
-750.4599996710826
 20
792.2307524809967
 30
0.0
 11
-741.4601184421974
 21
792.2307524809967
 31
0.0
  0
LINE
  5
1D2
330
1F
100
AcDbEntity
  8
C-2
  6
Continuous
 62
     3
370
     9
100
AcDbLine
 10
-750.4599996710826
 20
789.2312869510135
 30
0.0
 11
-741.4601184421974
 21
789.2312869510135
 31
0.0
  0
LINE
  5
1D3
330
1F
100
AcDbEntity
  8
C-2
  6
Continuous
 62
     3
370
     9
100
AcDbLine
 10
-724.4605077475185
 20
842.7314882020693
 30
0.0
 11
-724.4605077475185
 21
738.7315409892315
 31
0.0
  0
LINE
  5
1D4
330
1F
100
AcDbEntity
  8
C-2
  6
Continuous
 62
     3
370
     9
100
AcDbLine
 10
-728.4603724804153
 20
842.7314882020693
 30
0.0
 11
-728.4603724804153
 21
738.7315409892315
 31
0.0
  0
LINE
  5
1D5
330
1F
100
AcDbEntity
  8
C-2
  6
Continuous
 62
     3
370
     9
100
AcDbLine
 10
-737.4600062694778
 20
792.2307524809967
 30
0.0
 11
-728.4603724804153
 21
792.2307524809967
 31
0.0
  0
LINE
  5
1D6
330
1F
100
AcDbEntity
  8
C-2
  6
Continuous
 62
     3
370
     9
100
AcDbLine
 10
-737.4600062694778
 20
789.2312869510135
 30
0.0
 11
-728.4603724804153
 21
789.2312869510135
 31
0.0
  0
LINE
  5
1D7
330
1F
100
AcDbEntity
  8
C-2
  6
Continuous
 62
     3
370
     9
100
AcDbLine
 10
-711.4605143459136
 20
842.7314882020693
 30
0.0
 11
-711.4605143459136
 21
738.7315409892315
 31
0.0
  0
LINE
  5
1D8
330
1F
100
AcDbEntity
  8
C-2
  6
Continuous
 62
     3
370
     9
100
AcDbLine
 10
-715.4606265186334
 20
842.7314882020693
 30
0.0
 11
-715.4606265186334
 21
738.7315409892315
 31
0.0
  0
LINE
  5
1D9
330
1F
100
AcDbEntity
  8
C-2
  6
Continuous
 62
     3
370
     9
100
AcDbLine
 10
-724.4605077475185
 20
792.2307524809967
 30
0.0
 11
-715.4606265186334
 21
792.2307524809967
 31
0.0
  0
LINE
  5
1DA
330
1F
100
AcDbEntity
  8
C-2
  6
Continuous
 62
     3
370
     9
100
AcDbLine
 10
-724.4605077475185
 20
789.2312869510135
 30
0.0
 11
-715.4606265186334
 21
789.2312869510135
 31
0.0
  0
LINE
  5
1DB
330
1F
100
AcDbEntity
  8
C-2
  6
Continuous
 62
     3
370
     9
100
AcDbLine
 10
-698.4610158239542
 20
842.7314882020693
 30
0.0
 11
-698.4610158239542
 21
738.7315409892315
 31
0.0
  0
LINE
  5
1DC
330
1F
100
AcDbEntity
  8
C-2
  6
Continuous
 62
     3
370
     9
100
AcDbLine
 10
-702.4608805568511
 20
842.7314882020693
 30
0.0
 11
-702.4608805568511
 21
738.7315409892315
 31
0.0
  0
LINE
  5
1DD
330
1F
100
AcDbEntity
  8
C-2
  6
Continuous
 62
     3
370
     9
100
AcDbLine
 10
-711.4605143459136
 20
792.2307524809967
 30
0.0
 11
-702.4608805568511
 21
792.2307524809967
 31
0.0
  0
LINE
  5
1DE
330
1F
100
AcDbEntity
  8
C-2
  6
Continuous
 62
     3
370
     9
100
AcDbLine
 10
-711.4605143459136
 20
789.2312869510135
 30
0.0
 11
-702.4608805568511
 21
789.2312869510135
 31
0.0
  0
LINE
  5
1DF
330
1F
100
AcDbEntity
  8
C-2
  6
Continuous
 62
     3
370
     9
100
AcDbLine
 10
-685.4610224223495
 20
842.7314882020693
 30
0.0
 11
-685.4610224223495
 21
738.7315409892315
 31
0.0
  0
LINE
  5
1E0
330
1F
100
AcDbEntity
  8
C-2
  6
Continuous
 62
     3
370
     9
100
AcDbLine
 10
-689.4611345950691
 20
842.7314882020693
 30
0.0
 11
-689.4611345950691
 21
738.7315409892315
 31
0.0
  0
LINE
  5
1E1
330
1F
100
AcDbEntity
  8
C-2
  6
Continuous
 62
     3
370
     9
100
AcDbLine
 10
-698.4610158239542
 20
792.2307524809967
 30
0.0
 11
-689.4611345950691
 21
792.2307524809967
 31
0.0
  0
LINE
  5
1E2
330
1F
100
AcDbEntity
  8
C-2
  6
Continuous
 62
     3
370
     9
100
AcDbLine
 10
-698.4610158239542
 20
789.2312869510135
 30
0.0
 11
-689.4611345950691
 21
789.2312869510135
 31
0.0
  0
LINE
  5
1E3
330
1F
100
AcDbEntity
  8
C-2
  6
Continuous
 62
     3
370
     9
100
AcDbLine
 10
-672.4615239003901
 20
842.7314882020693
 30
0.0
 11
-672.4615239003901
 21
738.7315409892315
 31
0.0
  0
LINE
  5
1E4
330
1F
100
AcDbEntity
  8
C-2
  6
Continuous
 62
     3
370
     9
100
AcDbLine
 10
-676.461388633287
 20
842.7314882020693
 30
0.0
 11
-676.461388633287
 21
738.7315409892315
 31
0.0
  0
LINE
  5
1E5
330
1F
100
AcDbEntity
  8
C-2
  6
Continuous
 62
     3
370
     9
100
AcDbLine
 10
-685.4610224223495
 20
792.2307524809967
 30
0.0
 11
-676.461388633287
 21
792.2307524809967
 31
0.0
  0
LINE
  5
1E6
330
1F
100
AcDbEntity
  8
C-2
  6
Continuous
 62
     3
370
     9
100
AcDbLine
 10
-685.4610224223495
 20
789.2312869510135
 30
0.0
 11
-676.461388633287
 21
789.2312869510135
 31
0.0
  0
LINE
  5
1E7
330
1F
100
AcDbEntity
  8
C-2
  6
Continuous
 62
     3
370
     9
100
AcDbLine
 10
-659.4615304987851
 20
842.7314882020693
 30
0.0
 11
-659.4615304987851
 21
738.7315409892315
 31
0.0
  0
LINE
  5
1E8
330
1F
100
AcDbEntity
  8
C-2
  6
Continuous
 62
     3
370
     9
100
AcDbLine
 10
-663.4616426715049
 20
842.7314882020693
 30
0.0
 11
-663.4616426715049
 21
738.7315409892315
 31
0.0
  0
LINE
  5
1E9
330
1F
100
AcDbEntity
  8
C-2
  6
Continuous
 62
     3
370
     9
100
AcDbLine
 10
-672.4615239003901
 20
792.2307524809967
 30
0.0
 11
-663.4616426715049
 21
792.2307524809967
 31
0.0
  0
LINE
  5
1EA
330
1F
100
AcDbEntity
  8
C-2
  6
Continuous
 62
     3
370
     9
100
AcDbLine
 10
-672.4615239003901
 20
789.2312869510135
 30
0.0
 11
-663.4616426715049
 21
789.2312869510135
 31
0.0
  0
LINE
  5
1EB
330
1F
100
AcDbEntity
  8
C-2
  6
Continuous
 62
     3
370
     9
100
AcDbLine
 10
-646.4620319768258
 20
842.7314882020693
 30
0.0
 11
-646.4620319768258
 21
738.7315409892315
 31
0.0
  0
LINE
  5
1EC
330
1F
100
AcDbEntity
  8
C-2
  6
Continuous
 62
     3
370
     9
100
AcDbLine
 10
-650.4618967097226
 20
842.7314882020693
 30
0.0
 11
-650.4618967097226
 21
738.7315409892315
 31
0.0
  0
LINE
  5
1ED
330
1F
100
AcDbEntity
  8
C-2
  6
Continuous
 62
     3
370
     9
100
AcDbLine
 10
-659.4615304987851
 20
792.2307524809967
 30
0.0
 11
-650.4618967097226
 21
792.2307524809967
 31
0.0
  0
LINE
  5
1EE
330
1F
100
AcDbEntity
  8
C-2
  6
Continuous
 62
     3
370
     9
100
AcDbLine
 10
-659.4615304987851
 20
789.2312869510135
 30
0.0
 11
-650.4618967097226
 21
789.2312869510135
 31
0.0
  0
LINE
  5
1EF
330
1F
100
AcDbEntity
  8
C-2
  6
Continuous
 62
     3
370
     9
100
AcDbLine
 10
-633.4620385752212
 20
842.7314882020693
 30
0.0
 11
-633.4620385752212
 21
738.7315409892315
 31
0.0
  0
LINE
  5
1F0
330
1F
100
AcDbEntity
  8
C-2
  6
Continuous
 62
     3
370
     9
100
AcDbLine
 10
-637.4621507479407
 20
842.7314882020693
 30
0.0
 11
-637.4621507479407
 21
738.7315409892315
 31
0.0
  0
LINE
  5
1F1
330
1F
100
AcDbEntity
  8
C-2
  6
Continuous
 62
     3
370
     9
100
AcDbLine
 10
-646.4620319768258
 20
792.2307524809967
 30
0.0
 11
-637.4621507479407
 21
792.2307524809967
 31
0.0
  0
LINE
  5
1F2
330
1F
100
AcDbEntity
  8
C-2
  6
Continuous
 62
     3
370
     9
100
AcDbLine
 10
-646.4620319768258
 20
789.2312869510135
 30
0.0
 11
-637.4621507479407
 21
789.2312869510135
 31
0.0
  0
LINE
  5
1F3
330
1F
100
AcDbEntity
  8
C-2
  6
Continuous
 62
     3
370
     9
100
AcDbLine
 10
-620.4625400532618
 20
842.7314882020693
 30
0.0
 11
-620.4625400532618
 21
738.7315409892315
 31
0.0
  0
LINE
  5
1F4
330
1F
100
AcDbEntity
  8
C-2
  6
Continuous
 62
     3
370
     9
100
AcDbLine
 10
-624.4624047861587
 20
842.7314882020693
 30
0.0
 11
-624.4624047861587
 21
738.7315409892315
 31
0.0
  0
LINE
  5
1F5
330
1F
100
AcDbEntity
  8
C-2
  6
Continuous
 62
     3
370
     9
100
AcDbLine
 10
-633.4620385752212
 20
792.2307524809967
 30
0.0
 11
-624.4624047861587
 21
792.2307524809967
 31
0.0
  0
LINE
  5
1F6
330
1F
100
AcDbEntity
  8
C-2
  6
Continuous
 62
     3
370
     9
100
AcDbLine
 10
-633.4620385752212
 20
789.2312869510135
 30
0.0
 11
-624.4624047861587
 21
789.2312869510135
 31
0.0
  0
LINE
  5
1F7
330
1F
100
AcDbEntity
  8
C-2
  6
Continuous
 62
     3
370
     9
100
AcDbLine
 10
-607.4625466516568
 20
842.7314882020693
 30
0.0
 11
-607.4625466516568
 21
738.7315409892315
 31
0.0
  0
LINE
  5
1F8
330
1F
100
AcDbEntity
  8
C-2
  6
Continuous
 62
     3
370
     9
100
AcDbLine
 10
-611.4626588243766
 20
842.7314882020693
 30
0.0
 11
-611.4626588243766
 21
738.7315409892315
 31
0.0
  0
LINE
  5
1F9
330
1F
100
AcDbEntity
  8
C-2
  6
Continuous
 62
     3
370
     9
100
AcDbLine
 10
-620.4625400532618
 20
792.2307524809967
 30
0.0
 11
-611.4626588243766
 21
792.2307524809967
 31
0.0
  0
LINE
  5
1FA
330
1F
100
AcDbEntity
  8
C-2
  6
Continuous
 62
     3
370
     9
100
AcDbLine
 10
-620.4625400532618
 20
789.2312869510135
 30
0.0
 11
-611.4626588243766
 21
789.2312869510135
 31
0.0
  0
LINE
  5
1FB
330
1F
100
AcDbEntity
  8
C-2
  6
Continuous
 62
     3
370
     9
100
AcDbLine
 10
-594.4630481296974
 20
842.7314882020693
 30
0.0
 11
-594.4630481296974
 21
738.7315409892315
 31
0.0
  0
LINE
  5
1FC
330
1F
100
AcDbEntity
  8
C-2
  6
Continuous
 62
     3
370
     9
100
AcDbLine
 10
-598.4629128625943
 20
842.7314882020693
 30
0.0
 11
-598.4629128625943
 21
738.7315409892315
 31
0.0
  0
LINE
  5
1FD
330
1F
100
AcDbEntity
  8
C-2
  6
Continuous
 62
     3
370
     9
100
AcDbLine
 10
-607.4625466516568
 20
792.2307524809967
 30
0.0
 11
-598.4629128625943
 21
792.2307524809967
 31
0.0
  0
LINE
  5
1FE
330
1F
100
AcDbEntity
  8
C-2
  6
Continuous
 62
     3
370
     9
100
AcDbLine
 10
-607.4625466516568
 20
789.2312869510135
 30
0.0
 11
-598.4629128625943
 21
789.2312869510135
 31
0.0
  0
LINE
  5
1FF
330
1F
100
AcDbEntity
  8
C-2
  6
Continuous
 62
     3
370
     9
100
AcDbLine
 10
-581.4630547280927
 20
842.7314882020693
 30
0.0
 11
-581.4630547280927
 21
738.7315409892315
 31
0.0
  0
LINE
  5
200
330
1F
100
AcDbEntity
  8
C-2
  6
Continuous
 62
     3
370
     9
100
AcDbLine
 10
-585.4631669008122
 20
842.7314882020693
 30
0.0
 11
-585.4631669008122
 21
738.7315409892315
 31
0.0
  0
LINE
  5
201
330
1F
100
AcDbEntity
  8
C-2
  6
Continuous
 62
     3
370
     9
100
AcDbLine
 10
-594.4630481296974
 20
792.2307524809967
 30
0.0
 11
-585.4631669008122
 21
792.2307524809967
 31
0.0
  0
LINE
  5
202
330
1F
100
AcDbEntity
  8
C-2
  6
Continuous
 62
     3
370
     9
100
AcDbLine
 10
-594.4630481296974
 20
789.2312869510135
 30
0.0
 11
-585.4631669008122
 21
789.2312869510135
 31
0.0
  0
LINE
  5
203
330
1F
100
AcDbEntity
  8
C-2
  6
Continuous
 62
     3
370
     9
100
AcDbLine
 10
-568.4635562061334
 20
842.7314882020693
 30
0.0
 11
-568.4635562061334
 21
738.7315409892315
 31
0.0
  0
LINE
  5
204
330
1F
100
AcDbEntity
  8
C-2
  6
Continuous
 62
     3
370
     9
100
AcDbLine
 10
-572.4634209390302
 20
842.7314882020693
 30
0.0
 11
-572.4634209390302
 21
738.7315409892315
 31
0.0
  0
LINE
  5
205
330
1F
100
AcDbEntity
  8
C-2
  6
Continuous
 62
     3
370
     9
100
AcDbLine
 10
-581.4630547280927
 20
792.2307524809967
 30
0.0
 11
-572.4634209390302
 21
792.2307524809967
 31
0.0
  0
LINE
  5
206
330
1F
100
AcDbEntity
  8
C-2
  6
Continuous
 62
     3
370
     9
100
AcDbLine
 10
-581.4630547280927
 20
789.2312869510135
 30
0.0
 11
-572.4634209390302
 21
789.2312869510135
 31
0.0
  0
LINE
  5
207
330
1F
100
AcDbEntity
  8
C-2
  6
Continuous
 62
     3
370
     9
100
AcDbLine
 10
-555.4635628045285
 20
842.7314882020693
 30
0.0
 11
-555.4635628045285
 21
738.7315409892315
 31
0.0
  0
LINE
  5
208
330
1F
100
AcDbEntity
  8
C-2
  6
Continuous
 62
     3
370
     9
100
AcDbLine
 10
-559.4636749772483
 20
842.7314882020693
 30
0.0
 11
-559.4636749772483
 21
738.7315409892315
 31
0.0
  0
LINE
  5
209
330
1F
100
AcDbEntity
  8
C-2
  6
Continuous
 62
     3
370
     9
100
AcDbLine
 10
-568.4635562061334
 20
792.2307524809967
 30
0.0
 11
-559.4636749772483
 21
792.2307524809967
 31
0.0
  0
LINE
  5
20A
330
1F
100
AcDbEntity
  8
C-2
  6
Continuous
 62
     3
370
     9
100
AcDbLine
 10
-568.4635562061334
 20
789.2312869510135
 30
0.0
 11
-559.4636749772483
 21
789.2312869510135
 31
0.0
  0
LINE
  5
20B
330
1F
100
AcDbEntity
  8
C-2
  6
Continuous
 62
     3
370
     9
100
AcDbLine
 10
-542.4640642825691
 20
842.7314882020693
 30
0.0
 11
-542.4640642825691
 21
738.7315409892315
 31
0.0
  0
LINE
  5
20C
330
1F
100
AcDbEntity
  8
C-2
  6
Continuous
 62
     3
370
     9
100
AcDbLine
 10
-546.463929015466
 20
842.7314882020693
 30
0.0
 11
-546.463929015466
 21
738.7315409892315
 31
0.0
  0
LINE
  5
20D
330
1F
100
AcDbEntity
  8
C-2
  6
Continuous
 62
     3
370
     9
100
AcDbLine
 10
-555.4635628045285
 20
792.2307524809967
 30
0.0
 11
-546.463929015466
 21
792.2307524809967
 31
0.0
  0
LINE
  5
20E
330
1F
100
AcDbEntity
  8
C-2
  6
Continuous
 62
     3
370
     9
100
AcDbLine
 10
-555.4635628045285
 20
789.2312869510135
 30
0.0
 11
-546.463929015466
 21
789.2312869510135
 31
0.0
  0
LINE
  5
20F
330
1F
100
AcDbEntity
  8
C-2
  6
Continuous
 62
     3
370
     9
100
AcDbLine
 10
-529.4640708809643
 20
842.7314882020693
 30
0.0
 11
-529.4640708809643
 21
738.7315409892315
 31
0.0
  0
LINE
  5
210
330
1F
100
AcDbEntity
  8
C-2
  6
Continuous
 62
     3
370
     9
100
AcDbLine
 10
-533.4641830536839
 20
842.7314882020693
 30
0.0
 11
-533.4641830536839
 21
738.7315409892315
 31
0.0
  0
LINE
  5
211
330
1F
100
AcDbEntity
  8
C-2
  6
Continuous
 62
     3
370
     9
100
AcDbLine
 10
-542.4640642825691
 20
792.2307524809967
 30
0.0
 11
-533.4641830536839
 21
792.2307524809967
 31
0.0
  0
LINE
  5
212
330
1F
100
AcDbEntity
  8
C-2
  6
Continuous
 62
     3
370
     9
100
AcDbLine
 10
-542.4640642825691
 20
789.2312869510135
 30
0.0
 11
-533.4641830536839
 21
789.2312869510135
 31
0.0
  0
LINE
  5
213
330
1F
100
AcDbEntity
  8
C-4
  6
Continuous
 62
     7
370
     9
100
AcDbLine
 10
-622.4623486997987
 20
914.5365452122044
 30
0.0
 11
-609.4626027380167
 21
914.5365452122044
 31
0.0
  0
LINE
  5
214
330
1F
100
AcDbEntity
  8
C-4
  6
Continuous
 62
     7
370
     9
100
AcDbLine
 10
-622.4623486997987
 20
857.7315376900339
 30
0.0
 11
-622.4623486997987
 21
917.5365056218328
 31
0.0
  0
LINE
  5
215
330
1F
100
AcDbEntity
  8
C-4
  6
Continuous
 62
     7
370
     9
100
AcDbLine
 10
-609.4626027380167
 20
857.7315376900339
 30
0.0
 11
-609.4626027380167
 21
917.5365056218328
 31
0.0
  0
LINE
  5
216
330
1F
100
AcDbEntity
  8
C-9
  6
Continuous
 62
     6
370
     5
100
AcDbLine
 10
-1508.445130187341
 20
776.4386481207771
 30
0.0
 11
-1504.44489429471
 21
772.4387833878802
 31
0.0
  0
LINE
  5
217
330
1F
100
AcDbEntity
  8
C-9
  6
Continuous
 62
     6
370
     5
100
AcDbLine
 10
-1508.445130187341
 20
779.2673801731419
 30
0.0
 11
-1504.44489429471
 21
775.2670205605998
 31
0.0
  0
LINE
  5
218
330
1F
100
AcDbEntity
  8
C-9
  6
Continuous
 62
     6
370
     5
100
AcDbLine
 10
-1508.445130187341
 20
782.0956173458617
 30
0.0
 11
-1504.44489429471
 21
778.0955051731419
 31
0.0
  0
LINE
  5
219
330
1F
100
AcDbEntity
  8
C-9
  6
Continuous
 62
     6
370
     5
100
AcDbLine
 10
-1508.445130187341
 20
784.924101958404
 30
0.0
 11
-1504.44489429471
 21
780.9242372255068
 31
0.0
  0
LINE
  5
21A
330
1F
100
AcDbEntity
  8
C-9
  6
Continuous
 62
     6
370
     5
100
AcDbLine
 10
-1508.445130187341
 20
787.7523391311234
 30
0.0
 11
-1504.44489429471
 21
783.7524743982266
 31
0.0
  0
LINE
  5
21B
330
1F
100
AcDbEntity
  8
C-9
  6
Continuous
 62
     6
370
     5
100
AcDbLine
 10
-1508.445130187341
 20
790.5808237436656
 30
0.0
 11
-1504.44489429471
 21
786.5809590107688
 31
0.0
  0
LINE
  5
21C
330
1F
100
AcDbEntity
  8
C-9
  6
Continuous
 62
     6
370
     5
100
AcDbLine
 10
-1508.445130187341
 20
793.4095557960304
 30
0.0
 11
-1504.44489429471
 21
789.4091961834883
 31
0.0
  0
LINE
  5
21D
330
1F
100
AcDbEntity
  8
C-9
  6
Continuous
 62
     6
370
     5
100
AcDbLine
 10
-1508.445130187341
 20
796.23779296875
 30
0.0
 11
-1504.44489429471
 21
792.2376807960304
 31
0.0
  0
LINE
  5
21E
330
1F
100
AcDbEntity
  8
C-9
  6
Continuous
 62
     6
370
     5
100
AcDbLine
 10
-1508.445130187341
 20
799.0662775812925
 30
0.0
 11
-1504.44489429471
 21
795.06591796875
 31
0.0
  0
LINE
  5
21F
330
1F
100
AcDbEntity
  8
C-9
  6
Continuous
 62
     6
370
     5
100
AcDbLine
 10
-1508.445130187341
 20
801.894514754012
 30
0.0
 11
-1504.44489429471
 21
797.8946500211151
 31
0.0
  0
LINE
  5
220
330
1F
100
AcDbEntity
  8
C-9
  6
Continuous
 62
     6
370
     5
100
AcDbLine
 10
-1508.445130187341
 20
804.7229993665542
 30
0.0
 11
-1504.44489429471
 21
800.7231346336573
 31
0.0
  0
LINE
  5
221
330
1F
100
AcDbEntity
  8
C-9
  6
Continuous
 62
     6
370
     5
100
AcDbLine
 10
-1508.445130187341
 20
807.5512365392738
 30
0.0
 11
-1504.44489429471
 21
803.5513718063769
 31
0.0
  0
LINE
  5
222
330
1F
100
AcDbEntity
  8
C-9
  6
Continuous
 62
     6
370
     5
100
AcDbLine
 10
-1508.445130187341
 20
810.3799685916385
 30
0.0
 11
-1504.44489429471
 21
806.379856418919
 31
0.0
  0
LINE
  5
223
330
1F
100
AcDbEntity
  8
C-9
  6
Continuous
 62
     6
370
     5
100
AcDbLine
 10
-1508.445130187341
 20
813.2084532041811
 30
0.0
 11
-1504.44489429471
 21
809.2080935916385
 31
0.0
  0
LINE
  5
224
330
1F
100
AcDbEntity
  8
C-9
  6
Continuous
 62
     6
370
     5
100
AcDbLine
 10
-1508.445130187341
 20
816.0366903769005
 30
0.0
 11
-1504.44489429471
 21
812.0365782041811
 31
0.0
  0
LINE
  5
225
330
1F
100
AcDbEntity
  8
C-9
  6
Continuous
 62
     6
370
     5
100
AcDbLine
 10
-1508.445130187341
 20
818.8646801097974
 30
0.0
 11
-1504.44489429471
 21
814.8648153769005
 31
0.0
  0
LINE
  5
226
330
1F
100
AcDbEntity
  8
C-9
  6
Continuous
 62
     6
370
     5
100
AcDbLine
 10
-1508.445130187341
 20
821.6934121621623
 30
0.0
 11
-1504.44489429471
 21
817.6935474292654
 31
0.0
  0
LINE
  5
227
330
1F
100
AcDbEntity
  8
C-9
  6
Continuous
 62
     6
370
     5
100
AcDbLine
 10
-1508.445130187341
 20
824.5218967747044
 30
0.0
 11
-1504.44489429471
 21
820.5220320418075
 31
0.0
  0
LINE
  5
228
330
1F
100
AcDbEntity
  8
C-9
  6
Continuous
 62
     6
370
     5
100
AcDbLine
 10
-1508.445130187341
 20
827.3501339474242
 30
0.0
 11
-1504.44489429471
 21
823.3502692145271
 31
0.0
  0
LINE
  5
229
330
1F
100
AcDbEntity
  8
C-9
  6
Continuous
 62
     6
370
     5
100
AcDbLine
 10
-1508.445130187341
 20
830.1788659997891
 30
0.0
 11
-1504.44489429471
 21
826.1787538270693
 31
0.0
  0
LINE
  5
22A
330
1F
100
AcDbEntity
  8
C-9
  6
Continuous
 62
     6
370
     5
100
AcDbLine
 10
-1508.445130187341
 20
833.0073506123313
 30
0.0
 11
-1504.44489429471
 21
829.0069909997891
 31
0.0
  0
LINE
  5
22B
330
1F
100
AcDbEntity
  8
C-9
  6
Continuous
 62
     6
370
     5
100
AcDbLine
 10
-1508.445130187341
 20
835.8355877850508
 30
0.0
 11
-1504.44489429471
 21
831.835723052154
 31
0.0
  0
LINE
  5
22C
330
1F
100
AcDbEntity
  8
C-9
  6
Continuous
 62
     6
370
     5
100
AcDbLine
 10
-1508.445130187341
 20
838.6638249577703
 30
0.0
 11
-1504.44489429471
 21
834.6637127850508
 31
0.0
  0
LINE
  5
22D
330
1F
100
AcDbEntity
  8
C-9
  6
Continuous
 62
     6
370
     5
100
AcDbLine
 10
-1508.445130187341
 20
841.4923095703125
 30
0.0
 11
-1504.44489429471
 21
837.4924448374156
 31
0.0
  0
LINE
  5
22E
330
1F
100
AcDbEntity
  8
C-9
  6
Continuous
 62
     6
370
     5
100
AcDbLine
 10
-1506.855576766733
 20
842.7314882020693
 30
0.0
 11
-1504.44489429471
 21
840.3209294499578
 31
0.0
  0
LINE
  5
22F
330
1F
100
AcDbEntity
  8
C-9
  6
Continuous
 62
     6
370
     5
100
AcDbLine
 10
-1508.445130187341
 20
771.0590589368667
 30
0.0
 11
-1504.44489429471
 21
775.0589236697635
 31
0.0
  0
LINE
  5
230
330
1F
100
AcDbEntity
  8
C-9
  6
Continuous
 62
     6
370
     5
100
AcDbLine
 10
-1508.445130187341
 20
773.8870486697635
 30
0.0
 11
-1504.44489429471
 21
777.8874082823057
 31
0.0
  0
LINE
  5
231
330
1F
100
AcDbEntity
  8
C-9
  6
Continuous
 62
     6
370
     5
100
AcDbLine
 10
-1508.445130187341
 20
776.7157807221283
 30
0.0
 11
-1504.44489429471
 21
780.7156454550255
 31
0.0
  0
LINE
  5
232
330
1F
100
AcDbEntity
  8
C-9
  6
Continuous
 62
     6
370
     5
100
AcDbLine
 10
-1508.445130187341
 20
779.5442653346709
 30
0.0
 11
-1504.44489429471
 21
783.5441300675677
 31
0.0
  0
LINE
  5
233
330
1F
100
AcDbEntity
  8
C-9
  6
Continuous
 62
     6
370
     5
100
AcDbLine
 10
-1508.445130187341
 20
782.3725025073904
 30
0.0
 11
-1504.44489429471
 21
786.3723672402873
 31
0.0
  0
LINE
  5
234
330
1F
100
AcDbEntity
  8
C-9
  6
Continuous
 62
     6
370
     5
100
AcDbLine
 10
-1508.445130187341
 20
785.2009871199325
 30
0.0
 11
-1504.44489429471
 21
789.2010992926521
 31
0.0
  0
LINE
  5
235
330
1F
100
AcDbEntity
  8
C-9
  6
Continuous
 62
     6
370
     5
100
AcDbLine
 10
-1508.445130187341
 20
788.0292242926521
 30
0.0
 11
-1504.44489429471
 21
792.0295839051943
 31
0.0
  0
LINE
  5
236
330
1F
100
AcDbEntity
  8
C-9
  6
Continuous
 62
     6
370
     5
100
AcDbLine
 10
-1508.445130187341
 20
790.8579563450169
 30
0.0
 11
-1504.44489429471
 21
794.8578210779141
 31
0.0
  0
LINE
  5
237
330
1F
100
AcDbEntity
  8
C-9
  6
Continuous
 62
     6
370
     5
100
AcDbLine
 10
-1508.445130187341
 20
793.6859460779141
 30
0.0
 11
-1504.44489429471
 21
797.6863056904563
 31
0.0
  0
LINE
  5
238
330
1F
100
AcDbEntity
  8
C-9
  6
Continuous
 62
     6
370
     5
100
AcDbLine
 10
-1508.445130187341
 20
796.514678130279
 30
0.0
 11
-1504.44489429471
 21
800.5145428631758
 31
0.0
  0
LINE
  5
239
330
1F
100
AcDbEntity
  8
C-9
  6
Continuous
 62
     6
370
     5
100
AcDbLine
 10
-1508.445130187341
 20
799.343162742821
 30
0.0
 11
-1504.44489429471
 21
803.3432749155406
 31
0.0
  0
LINE
  5
23A
330
1F
100
AcDbEntity
  8
C-9
  6
Continuous
 62
     6
370
     5
100
AcDbLine
 10
-1508.445130187341
 20
802.1713999155406
 30
0.0
 11
-1504.44489429471
 21
806.1712646484375
 31
0.0
  0
LINE
  5
23B
330
1F
100
AcDbEntity
  8
C-9
  6
Continuous
 62
     6
370
     5
100
AcDbLine
 10
-1508.445130187341
 20
805.0001319679054
 30
0.0
 11
-1504.44489429471
 21
808.9999967008026
 31
0.0
  0
LINE
  5
23C
330
1F
100
AcDbEntity
  8
C-9
  6
Continuous
 62
     6
370
     5
100
AcDbLine
 10
-1508.445130187341
 20
807.8281217008026
 30
0.0
 11
-1504.44489429471
 21
811.8279864336995
 31
0.0
  0
LINE
  5
23D
330
1F
100
AcDbEntity
  8
C-9
  6
Continuous
 62
     6
370
     5
100
AcDbLine
 10
-1508.445130187341
 20
810.6568537531675
 30
0.0
 11
-1504.44489429471
 21
814.6567184860644
 31
0.0
  0
LINE
  5
23E
330
1F
100
AcDbEntity
  8
C-9
  6
Continuous
 62
     6
370
     5
100
AcDbLine
 10
-1508.445130187341
 20
813.4853383657096
 30
0.0
 11
-1504.44489429471
 21
817.4854505384292
 31
0.0
  0
LINE
  5
23F
330
1F
100
AcDbEntity
  8
C-9
  6
Continuous
 62
     6
370
     5
100
AcDbLine
 10
-1508.445130187341
 20
816.3135755384292
 30
0.0
 11
-1504.44489429471
 21
820.313440271326
 31
0.0
  0
LINE
  5
240
330
1F
100
AcDbEntity
  8
C-9
  6
Continuous
 62
     6
370
     5
100
AcDbLine
 10
-1508.445130187341
 20
819.142307590794
 30
0.0
 11
-1504.44489429471
 21
823.1421723236908
 31
0.0
  0
LINE
  5
241
330
1F
100
AcDbEntity
  8
C-9
  6
Continuous
 62
     6
370
     5
100
AcDbLine
 10
-1508.445130187341
 20
821.9702973236908
 30
0.0
 11
-1504.44489429471
 21
825.970162056588
 31
0.0
  0
LINE
  5
242
330
1F
100
AcDbEntity
  8
C-9
  6
Continuous
 62
     6
370
     5
100
AcDbLine
 10
-1508.445130187341
 20
824.7990293760561
 30
0.0
 11
-1504.44489429471
 21
828.7988941089529
 31
0.0
  0
LINE
  5
243
330
1F
100
AcDbEntity
  8
C-9
  6
Continuous
 62
     6
370
     5
100
AcDbLine
 10
-1508.445130187341
 20
827.6270191089529
 30
0.0
 11
-1504.44489429471
 21
831.6276261613177
 31
0.0
  0
LINE
  5
244
330
1F
100
AcDbEntity
  8
C-9
  6
Continuous
 62
     6
370
     5
100
AcDbLine
 10
-1508.445130187341
 20
830.4557511613177
 30
0.0
 11
-1504.44489429471
 21
834.4556158942146
 31
0.0
  0
LINE
  5
245
330
1F
100
AcDbEntity
  8
C-9
  6
Continuous
 62
     6
370
     5
100
AcDbLine
 10
-1508.445130187341
 20
833.2844832136825
 30
0.0
 11
-1504.44489429471
 21
837.2843479465794
 31
0.0
  0
LINE
  5
246
330
1F
100
AcDbEntity
  8
C-9
  6
Continuous
 62
     6
370
     5
100
AcDbLine
 10
-1508.445130187341
 20
836.1124729465794
 30
0.0
 11
-1504.44489429471
 21
840.1123376794766
 31
0.0
  0
LINE
  5
247
330
1F
100
AcDbEntity
  8
C-9
  6
Continuous
 62
     6
370
     5
100
AcDbLine
 10
-1508.445130187341
 20
838.9407101192992
 30
0.0
 11
-1504.654475824482
 21
842.7314882020693
 31
0.0
  0
LINE
  5
248
330
1F
100
AcDbEntity
  8
C-9
  6
Continuous
 62
     6
370
     5
100
AcDbLine
 10
-1508.445130187341
 20
841.7691947318415
 30
0.0
 11
-1507.483207876847
 21
842.7314882020693
 31
0.0
  0
LINE
  5
249
330
1F
100
AcDbEntity
  8
C-9
  6
Continuous
 62
     6
370
     5
100
AcDbLine
 10
-1495.445384225559
 20
777.5739020270271
 30
0.0
 11
-1491.445395772751
 21
781.5737667599242
 31
0.0
  0
LINE
  5
24A
330
1F
100
AcDbEntity
  8
C-9
  6
Continuous
 62
     6
370
     5
100
AcDbLine
 10
-1495.445384225559
 20
780.4021391997467
 30
0.0
 11
-1491.445395772751
 21
784.4020039326438
 31
0.0
  0
LINE
  5
24B
330
1F
100
AcDbEntity
  8
C-9
  6
Continuous
 62
     6
370
     5
100
AcDbLine
 10
-1495.445384225559
 20
783.2306238122891
 30
0.0
 11
-1491.445395772751
 21
787.230488545186
 31
0.0
  0
LINE
  5
24C
330
1F
100
AcDbEntity
  8
C-9
  6
Continuous
 62
     6
370
     5
100
AcDbLine
 10
-1495.445384225559
 20
786.0588609850086
 30
0.0
 11
-1491.445395772751
 21
790.0592205975508
 31
0.0
  0
LINE
  5
24D
330
1F
100
AcDbEntity
  8
C-9
  6
Continuous
 62
     6
370
     5
100
AcDbLine
 10
-1495.445384225559
 20
788.8873455975508
 30
0.0
 11
-1491.445395772751
 21
792.8874577702703
 31
0.0
  0
LINE
  5
24E
330
1F
100
AcDbEntity
  8
C-9
  6
Continuous
 62
     6
370
     5
100
AcDbLine
 10
-1495.445384225559
 20
791.7155827702703
 30
0.0
 11
-1491.445395772751
 21
795.7159423828125
 31
0.0
  0
LINE
  5
24F
330
1F
100
AcDbEntity
  8
C-9
  6
Continuous
 62
     6
370
     5
100
AcDbLine
 10
-1495.445384225559
 20
794.5440673828125
 30
0.0
 11
-1491.445395772751
 21
798.5441795555323
 31
0.0
  0
LINE
  5
250
330
1F
100
AcDbEntity
  8
C-9
  6
Continuous
 62
     6
370
     5
100
AcDbLine
 10
-1495.445384225559
 20
797.3727994351776
 30
0.0
 11
-1491.445395772751
 21
801.3726641680745
 31
0.0
  0
LINE
  5
251
330
1F
100
AcDbEntity
  8
C-9
  6
Continuous
 62
     6
370
     5
100
AcDbLine
 10
-1495.445384225559
 20
800.2007891680745
 30
0.0
 11
-1491.445395772751
 21
804.200901340794
 31
0.0
  0
LINE
  5
252
330
1F
100
AcDbEntity
  8
C-9
  6
Continuous
 62
     6
370
     5
100
AcDbLine
 10
-1495.445384225559
 20
803.0295212204394
 30
0.0
 11
-1491.445395772751
 21
807.0293859533363
 31
0.0
  0
LINE
  5
253
330
1F
100
AcDbEntity
  8
C-9
  6
Continuous
 62
     6
370
     5
100
AcDbLine
 10
-1495.445384225559
 20
805.8577583931589
 30
0.0
 11
-1491.445395772751
 21
809.858118005701
 31
0.0
  0
LINE
  5
254
330
1F
100
AcDbEntity
  8
C-9
  6
Continuous
 62
     6
370
     5
100
AcDbLine
 10
-1495.445384225559
 20
808.686243005701
 30
0.0
 11
-1491.445395772751
 21
812.6861077385981
 31
0.0
  0
LINE
  5
255
330
1F
100
AcDbEntity
  8
C-9
  6
Continuous
 62
     6
370
     5
100
AcDbLine
 10
-1495.445384225559
 20
811.5144801784209
 30
0.0
 11
-1491.445395772751
 21
815.514839790963
 31
0.0
  0
LINE
  5
256
330
1F
100
AcDbEntity
  8
C-9
  6
Continuous
 62
     6
370
     5
100
AcDbLine
 10
-1495.445384225559
 20
814.342964790963
 30
0.0
 11
-1491.445395772751
 21
818.3430769636825
 31
0.0
  0
LINE
  5
257
330
1F
100
AcDbEntity
  8
C-9
  6
Continuous
 62
     6
370
     5
100
AcDbLine
 10
-1495.445384225559
 20
817.1716968433279
 30
0.0
 11
-1491.445395772751
 21
821.1715615762248
 31
0.0
  0
LINE
  5
258
330
1F
100
AcDbEntity
  8
C-9
  6
Continuous
 62
     6
370
     5
100
AcDbLine
 10
-1495.445384225559
 20
819.9999340160474
 30
0.0
 11
-1491.445395772751
 21
823.9997987489443
 31
0.0
  0
LINE
  5
259
330
1F
100
AcDbEntity
  8
C-9
  6
Continuous
 62
     6
370
     5
100
AcDbLine
 10
-1495.445384225559
 20
822.8284186285896
 30
0.0
 11
-1491.445395772751
 21
826.8285308013092
 31
0.0
  0
LINE
  5
25A
330
1F
100
AcDbEntity
  8
C-9
  6
Continuous
 62
     6
370
     5
100
AcDbLine
 10
-1495.445384225559
 20
825.6566558013092
 30
0.0
 11
-1491.445395772751
 21
829.6570154138516
 31
0.0
  0
LINE
  5
25B
330
1F
100
AcDbEntity
  8
C-9
  6
Continuous
 62
     6
370
     5
100
AcDbLine
 10
-1495.445384225559
 20
828.4851404138516
 30
0.0
 11
-1491.445395772751
 21
832.485252586571
 31
0.0
  0
LINE
  5
25C
330
1F
100
AcDbEntity
  8
C-9
  6
Continuous
 62
     6
370
     5
100
AcDbLine
 10
-1495.445384225559
 20
831.313377586571
 30
0.0
 11
-1491.445395772751
 21
835.3132423194679
 31
0.0
  0
LINE
  5
25D
330
1F
100
AcDbEntity
  8
C-9
  6
Continuous
 62
     6
370
     5
100
AcDbLine
 10
-1495.445384225559
 20
834.142109638936
 30
0.0
 11
-1491.445395772751
 21
838.1419743718328
 31
0.0
  0
LINE
  5
25E
330
1F
100
AcDbEntity
  8
C-9
  6
Continuous
 62
     6
370
     5
100
AcDbLine
 10
-1495.445384225559
 20
836.9705942514781
 30
0.0
 11
-1491.445395772751
 21
840.970458984375
 31
0.0
  0
LINE
  5
25F
330
1F
100
AcDbEntity
  8
C-9
  6
Continuous
 62
     6
370
     5
100
AcDbLine
 10
-1495.445384225559
 20
839.7988314241977
 30
0.0
 11
-1492.51297488751
 21
842.7314882020693
 31
0.0
  0
LINE
  5
260
330
1F
100
AcDbEntity
  8
C-9
  6
Continuous
 62
     6
370
     5
100
AcDbLine
 10
-1495.445384225559
 20
842.6273160367401
 30
0.0
 11
-1495.341335780141
 21
842.7314882020693
 31
0.0
  0
LINE
  5
261
330
1F
100
AcDbEntity
  8
C-9
  6
Continuous
 62
     6
370
     5
100
AcDbLine
 10
-1495.445384225559
 20
786.89471270587
 30
0.0
 11
-1491.445395772751
 21
782.8948479729731
 31
0.0
  0
LINE
  5
262
330
1F
100
AcDbEntity
  8
C-9
  6
Continuous
 62
     6
370
     5
100
AcDbLine
 10
-1495.445384225559
 20
789.7227024387669
 30
0.0
 11
-1491.445395772751
 21
785.72283770587
 31
0.0
  0
LINE
  5
263
330
1F
100
AcDbEntity
  8
C-9
  6
Continuous
 62
     6
370
     5
100
AcDbLine
 10
-1495.445384225559
 20
792.5514344911318
 30
0.0
 11
-1491.445395772751
 21
788.5515697582349
 31
0.0
  0
LINE
  5
264
330
1F
100
AcDbEntity
  8
C-9
  6
Continuous
 62
     6
370
     5
100
AcDbLine
 10
-1495.445384225559
 20
795.3801665434967
 30
0.0
 11
-1491.445395772751
 21
791.3800543707771
 31
0.0
  0
LINE
  5
265
330
1F
100
AcDbEntity
  8
C-9
  6
Continuous
 62
     6
370
     5
100
AcDbLine
 10
-1495.445384225559
 20
798.2081562763938
 30
0.0
 11
-1491.445395772751
 21
794.2082915434967
 31
0.0
  0
LINE
  5
266
330
1F
100
AcDbEntity
  8
C-9
  6
Continuous
 62
     6
370
     5
100
AcDbLine
 10
-1495.445384225559
 20
801.0368883287586
 30
0.0
 11
-1491.445395772751
 21
797.0367761560391
 31
0.0
  0
LINE
  5
267
330
1F
100
AcDbEntity
  8
C-9
  6
Continuous
 62
     6
370
     5
100
AcDbLine
 10
-1495.445384225559
 20
803.8653729413008
 30
0.0
 11
-1491.445395772751
 21
799.8650133287586
 31
0.0
  0
LINE
  5
268
330
1F
100
AcDbEntity
  8
C-9
  6
Continuous
 62
     6
370
     5
100
AcDbLine
 10
-1495.445384225559
 20
806.6936101140203
 30
0.0
 11
-1491.445395772751
 21
802.6934979413008
 31
0.0
  0
LINE
  5
269
330
1F
100
AcDbEntity
  8
C-9
  6
Continuous
 62
     6
370
     5
100
AcDbLine
 10
-1495.445384225559
 20
809.5215998469175
 30
0.0
 11
-1491.445395772751
 21
805.5217351140203
 31
0.0
  0
LINE
  5
26A
330
1F
100
AcDbEntity
  8
C-9
  6
Continuous
 62
     6
370
     5
100
AcDbLine
 10
-1495.445384225559
 20
812.3503318992823
 30
0.0
 11
-1491.445395772751
 21
808.3504671663852
 31
0.0
  0
LINE
  5
26B
330
1F
100
AcDbEntity
  8
C-9
  6
Continuous
 62
     6
370
     5
100
AcDbLine
 10
-1495.445384225559
 20
815.1788165118245
 30
0.0
 11
-1491.445395772751
 21
811.1784568992823
 31
0.0
  0
LINE
  5
26C
330
1F
100
AcDbEntity
  8
C-9
  6
Continuous
 62
     6
370
     5
100
AcDbLine
 10
-1495.445384225559
 20
818.007053684544
 30
0.0
 11
-1491.445395772751
 21
814.0071889516471
 31
0.0
  0
LINE
  5
26D
330
1F
100
AcDbEntity
  8
C-9
  6
Continuous
 62
     6
370
     5
100
AcDbLine
 10
-1495.445384225559
 20
820.8357857369089
 30
0.0
 11
-1491.445395772751
 21
816.8356735641894
 31
0.0
  0
LINE
  5
26E
330
1F
100
AcDbEntity
  8
C-9
  6
Continuous
 62
     6
370
     5
100
AcDbLine
 10
-1495.445384225559
 20
823.6637754698061
 30
0.0
 11
-1491.445395772751
 21
819.6639107369089
 31
0.0
  0
LINE
  5
26F
330
1F
100
AcDbEntity
  8
C-9
  6
Continuous
 62
     6
370
     5
100
AcDbLine
 10
-1495.445384225559
 20
826.4925075221709
 30
0.0
 11
-1491.445395772751
 21
822.4926427892738
 31
0.0
  0
LINE
  5
270
330
1F
100
AcDbEntity
  8
C-9
  6
Continuous
 62
     6
370
     5
100
AcDbLine
 10
-1495.445384225559
 20
829.320992134713
 30
0.0
 11
-1491.445395772751
 21
825.3206325221709
 31
0.0
  0
LINE
  5
271
330
1F
100
AcDbEntity
  8
C-9
  6
Continuous
 62
     6
370
     5
100
AcDbLine
 10
-1495.445384225559
 20
832.1492293074325
 30
0.0
 11
-1491.445395772751
 21
828.1493645745356
 31
0.0
  0
LINE
  5
272
330
1F
100
AcDbEntity
  8
C-9
  6
Continuous
 62
     6
370
     5
100
AcDbLine
 10
-1495.445384225559
 20
834.9779613597974
 30
0.0
 11
-1491.445395772751
 21
830.9778491870779
 31
0.0
  0
LINE
  5
273
330
1F
100
AcDbEntity
  8
C-9
  6
Continuous
 62
     6
370
     5
100
AcDbLine
 10
-1495.445384225559
 20
837.8059510926943
 30
0.0
 11
-1491.445395772751
 21
833.8060863597974
 31
0.0
  0
LINE
  5
274
330
1F
100
AcDbEntity
  8
C-9
  6
Continuous
 62
     6
370
     5
100
AcDbLine
 10
-1495.445384225559
 20
840.6346831450592
 30
0.0
 11
-1491.445395772751
 21
836.6348184121623
 31
0.0
  0
LINE
  5
275
330
1F
100
AcDbEntity
  8
C-9
  6
Continuous
 62
     6
370
     5
100
AcDbLine
 10
-1494.713704670027
 20
842.7314882020693
 30
0.0
 11
-1491.445395772751
 21
839.4628081450592
 31
0.0
  0
LINE
  5
276
330
1F
100
AcDbEntity
  8
C-9
  6
Continuous
 62
     6
370
     5
100
AcDbLine
 10
-1491.885467497307
 20
842.7314882020693
 30
0.0
 11
-1491.445395772751
 21
842.2915401974242
 31
0.0
  0
LINE
  5
277
330
1F
100
AcDbEntity
  8
C-9
  6
Continuous
 62
     6
370
     5
100
AcDbLine
 10
-1482.445143384132
 20
797.3505298511404
 30
0.0
 11
-1478.445154931323
 21
793.3506651182432
 31
0.0
  0
LINE
  5
278
330
1F
100
AcDbEntity
  8
C-9
  6
Continuous
 62
     6
370
     5
100
AcDbLine
 10
-1482.445143384132
 20
800.1790144636825
 30
0.0
 11
-1478.445154931323
 21
796.1786548511404
 31
0.0
  0
LINE
  5
279
330
1F
100
AcDbEntity
  8
C-9
  6
Continuous
 62
     6
370
     5
100
AcDbLine
 10
-1482.445143384132
 20
803.0072516364021
 30
0.0
 11
-1478.445154931323
 21
799.0073869035052
 31
0.0
  0
LINE
  5
27A
330
1F
100
AcDbEntity
  8
C-9
  6
Continuous
 62
     6
370
     5
100
AcDbLine
 10
-1482.445143384132
 20
805.8359836887669
 30
0.0
 11
-1478.445154931323
 21
801.8358715160474
 31
0.0
  0
LINE
  5
27B
330
1F
100
AcDbEntity
  8
C-9
  6
Continuous
 62
     6
370
     5
100
AcDbLine
 10
-1482.445143384132
 20
808.6639734216641
 30
0.0
 11
-1478.445154931323
 21
804.6641086887669
 31
0.0
  0
LINE
  5
27C
330
1F
100
AcDbEntity
  8
C-9
  6
Continuous
 62
     6
370
     5
100
AcDbLine
 10
-1482.445143384132
 20
811.492705474029
 30
0.0
 11
-1478.445154931323
 21
807.4928407411318
 31
0.0
  0
LINE
  5
27D
330
1F
100
AcDbEntity
  8
C-9
  6
Continuous
 62
     6
370
     5
100
AcDbLine
 10
-1482.445143384132
 20
814.3206952069258
 30
0.0
 11
-1478.445154931323
 21
810.320830474029
 31
0.0
  0
LINE
  5
27E
330
1F
100
AcDbEntity
  8
C-9
  6
Continuous
 62
     6
370
     5
100
AcDbLine
 10
-1482.445143384132
 20
817.1494272592906
 30
0.0
 11
-1478.445154931323
 21
813.1495625263938
 31
0.0
  0
LINE
  5
27F
330
1F
100
AcDbEntity
  8
C-9
  6
Continuous
 62
     6
370
     5
100
AcDbLine
 10
-1482.445143384132
 20
819.9781593116554
 30
0.0
 11
-1478.445154931323
 21
815.9775522592906
 31
0.0
  0
LINE
  5
280
330
1F
100
AcDbEntity
  8
C-9
  6
Continuous
 62
     6
370
     5
100
AcDbLine
 10
-1482.445143384132
 20
822.8061490445526
 30
0.0
 11
-1478.445154931323
 21
818.8062843116554
 31
0.0
  0
LINE
  5
281
330
1F
100
AcDbEntity
  8
C-9
  6
Continuous
 62
     6
370
     5
100
AcDbLine
 10
-1482.445143384132
 20
825.6348810969175
 30
0.0
 11
-1478.445154931323
 21
821.6350163640203
 31
0.0
  0
LINE
  5
282
330
1F
100
AcDbEntity
  8
C-9
  6
Continuous
 62
     6
370
     5
100
AcDbLine
 10
-1482.445143384132
 20
828.4628708298144
 30
0.0
 11
-1478.445154931323
 21
824.4630060969175
 31
0.0
  0
LINE
  5
283
330
1F
100
AcDbEntity
  8
C-9
  6
Continuous
 62
     6
370
     5
100
AcDbLine
 10
-1482.445143384132
 20
831.2916028821792
 30
0.0
 11
-1478.445154931323
 21
827.291243269637
 31
0.0
  0
LINE
  5
284
330
1F
100
AcDbEntity
  8
C-9
  6
Continuous
 62
     6
370
     5
100
AcDbLine
 10
-1482.445143384132
 20
834.1198400548988
 30
0.0
 11
-1478.445154931323
 21
830.1197278821792
 31
0.0
  0
LINE
  5
285
330
1F
100
AcDbEntity
  8
C-9
  6
Continuous
 62
     6
370
     5
100
AcDbLine
 10
-1482.445143384132
 20
836.9483246674408
 30
0.0
 11
-1478.445154931323
 21
832.948459934544
 31
0.0
  0
LINE
  5
286
330
1F
100
AcDbEntity
  8
C-9
  6
Continuous
 62
     6
370
     5
100
AcDbLine
 10
-1482.445143384132
 20
839.7765618401606
 30
0.0
 11
-1478.445154931323
 21
835.7766971072635
 31
0.0
  0
LINE
  5
287
330
1F
100
AcDbEntity
  8
C-9
  6
Continuous
 62
     6
370
     5
100
AcDbLine
 10
-1482.445143384132
 20
842.6050464527029
 30
0.0
 11
-1478.445154931323
 21
838.6051817198061
 31
0.0
  0
LINE
  5
288
330
1F
100
AcDbEntity
  8
C-9
  6
Continuous
 62
     6
370
     5
100
AcDbLine
 10
-1479.742853081133
 20
842.7314882020693
 30
0.0
 11
-1478.445154931323
 21
841.4339137721709
 31
0.0
  0
LINE
  5
289
330
1F
100
AcDbEntity
  8
C-9
  6
Continuous
 62
     6
370
     5
100
AcDbLine
 10
-1482.445143384132
 20
789.7449720228042
 30
0.0
 11
-1478.445154931323
 21
793.7450841955238
 31
0.0
  0
LINE
  5
28A
330
1F
100
AcDbEntity
  8
C-9
  6
Continuous
 62
     6
370
     5
100
AcDbLine
 10
-1482.445143384132
 20
792.573704075169
 30
0.0
 11
-1478.445154931323
 21
796.5735688080658
 31
0.0
  0
LINE
  5
28B
330
1F
100
AcDbEntity
  8
C-9
  6
Continuous
 62
     6
370
     5
100
AcDbLine
 10
-1482.445143384132
 20
795.4024361275339
 30
0.0
 11
-1478.445154931323
 21
799.4023008604311
 31
0.0
  0
LINE
  5
28C
330
1F
100
AcDbEntity
  8
C-9
  6
Continuous
 62
     6
370
     5
100
AcDbLine
 10
-1482.445143384132
 20
798.2304258604307
 30
0.0
 11
-1478.445154931323
 21
802.2302905933279
 31
0.0
  0
LINE
  5
28D
330
1F
100
AcDbEntity
  8
C-9
  6
Continuous
 62
     6
370
     5
100
AcDbLine
 10
-1482.445143384132
 20
801.0591579127959
 30
0.0
 11
-1478.445154931323
 21
805.0590226456927
 31
0.0
  0
LINE
  5
28E
330
1F
100
AcDbEntity
  8
C-9
  6
Continuous
 62
     6
370
     5
100
AcDbLine
 10
-1482.445143384132
 20
803.8871476456927
 30
0.0
 11
-1478.445154931323
 21
807.8872598184123
 31
0.0
  0
LINE
  5
28F
330
1F
100
AcDbEntity
  8
C-9
  6
Continuous
 62
     6
370
     5
100
AcDbLine
 10
-1482.445143384132
 20
806.7158796980575
 30
0.0
 11
-1478.445154931323
 21
810.7157444309544
 31
0.0
  0
LINE
  5
290
330
1F
100
AcDbEntity
  8
C-9
  6
Continuous
 62
     6
370
     5
100
AcDbLine
 10
-1482.445143384132
 20
809.5438694309544
 30
0.0
 11
-1478.445154931323
 21
813.5444764833193
 31
0.0
  0
LINE
  5
291
330
1F
100
AcDbEntity
  8
C-9
  6
Continuous
 62
     6
370
     5
100
AcDbLine
 10
-1482.445143384132
 20
812.3726014833193
 30
0.0
 11
-1478.445154931323
 21
816.3724662162165
 31
0.0
  0
LINE
  5
292
330
1F
100
AcDbEntity
  8
C-9
  6
Continuous
 62
     6
370
     5
100
AcDbLine
 10
-1482.445143384132
 20
815.2013335356842
 30
0.0
 11
-1478.445154931323
 21
819.2011982685813
 31
0.0
  0
LINE
  5
293
330
1F
100
AcDbEntity
  8
C-9
  6
Continuous
 62
     6
370
     5
100
AcDbLine
 10
-1482.445143384132
 20
818.0293232685813
 30
0.0
 11
-1478.445154931323
 21
822.0291880014781
 31
0.0
  0
LINE
  5
294
330
1F
100
AcDbEntity
  8
C-9
  6
Continuous
 62
     6
370
     5
100
AcDbLine
 10
-1482.445143384132
 20
820.858055320946
 30
0.0
 11
-1478.445154931323
 21
824.8579200538429
 31
0.0
  0
LINE
  5
295
330
1F
100
AcDbEntity
  8
C-9
  6
Continuous
 62
     6
370
     5
100
AcDbLine
 10
-1482.445143384132
 20
823.6860450538429
 30
0.0
 11
-1478.445154931323
 21
827.6861572265625
 31
0.0
  0
LINE
  5
296
330
1F
100
AcDbEntity
  8
C-9
  6
Continuous
 62
     6
370
     5
100
AcDbLine
 10
-1482.445143384132
 20
826.5147771062078
 30
0.0
 11
-1478.445154931323
 21
830.514641839105
 31
0.0
  0
LINE
  5
297
330
1F
100
AcDbEntity
  8
C-9
  6
Continuous
 62
     6
370
     5
100
AcDbLine
 10
-1482.445143384132
 20
829.3435091585727
 30
0.0
 11
-1478.445154931323
 21
833.3433738914698
 31
0.0
  0
LINE
  5
298
330
1F
100
AcDbEntity
  8
C-9
  6
Continuous
 62
     6
370
     5
100
AcDbLine
 10
-1482.445143384132
 20
832.1714988914698
 30
0.0
 11
-1478.445154931323
 21
836.1713636243667
 31
0.0
  0
LINE
  5
299
330
1F
100
AcDbEntity
  8
C-9
  6
Continuous
 62
     6
370
     5
100
AcDbLine
 10
-1482.445143384132
 20
834.9997360641894
 30
0.0
 11
-1478.445154931323
 21
839.0000956767315
 31
0.0
  0
LINE
  5
29A
330
1F
100
AcDbEntity
  8
C-9
  6
Continuous
 62
     6
370
     5
100
AcDbLine
 10
-1482.445143384132
 20
837.8282206767315
 30
0.0
 11
-1478.445154931323
 21
841.828332849451
 31
0.0
  0
LINE
  5
29B
330
1F
100
AcDbEntity
  8
C-9
  6
Continuous
 62
     6
370
     5
100
AcDbLine
 10
-1482.445143384132
 20
840.6569527290964
 30
0.0
 11
-1480.370607911159
 21
842.7314882020693
 31
0.0
  0
LINE
  5
29C
330
1F
100
AcDbEntity
  8
C-9
  6
Continuous
 62
     6
370
     5
100
AcDbLine
 10
-1469.445273702438
 20
799.0880522856842
 30
0.0
 11
-1465.445408969541
 21
803.0884118982266
 31
0.0
  0
LINE
  5
29D
330
1F
100
AcDbEntity
  8
C-9
  6
Continuous
 62
     6
370
     5
100
AcDbLine
 10
-1469.445273702438
 20
801.9167843380492
 30
0.0
 11
-1465.445408969541
 21
805.916649070946
 31
0.0
  0
LINE
  5
29E
330
1F
100
AcDbEntity
  8
C-9
  6
Continuous
 62
     6
370
     5
100
AcDbLine
 10
-1469.445273702438
 20
804.7452689505915
 30
0.0
 11
-1465.445408969541
 21
808.745381123311
 31
0.0
  0
LINE
  5
29F
330
1F
100
AcDbEntity
  8
C-9
  6
Continuous
 62
     6
370
     5
100
AcDbLine
 10
-1469.445273702438
 20
807.573506123311
 30
0.0
 11
-1465.445408969541
 21
811.5733708562078
 31
0.0
  0
LINE
  5
2A0
330
1F
100
AcDbEntity
  8
C-9
  6
Continuous
 62
     6
370
     5
100
AcDbLine
 10
-1469.445273702438
 20
810.4022381756758
 30
0.0
 11
-1465.445408969541
 21
814.4021029085727
 31
0.0
  0
LINE
  5
2A1
330
1F
100
AcDbEntity
  8
C-9
  6
Continuous
 62
     6
370
     5
100
AcDbLine
 10
-1469.445273702438
 20
813.2307227882179
 30
0.0
 11
-1465.445408969541
 21
817.2305875211151
 31
0.0
  0
LINE
  5
2A2
330
1F
100
AcDbEntity
  8
C-9
  6
Continuous
 62
     6
370
     5
100
AcDbLine
 10
-1469.445273702438
 20
816.0589599609375
 30
0.0
 11
-1465.445408969541
 21
820.0588246938346
 31
0.0
  0
LINE
  5
2A3
330
1F
100
AcDbEntity
  8
C-9
  6
Continuous
 62
     6
370
     5
100
AcDbLine
 10
-1469.445273702438
 20
818.88744457348
 30
0.0
 11
-1465.445408969541
 21
822.8875567461995
 31
0.0
  0
LINE
  5
2A4
330
1F
100
AcDbEntity
  8
C-9
  6
Continuous
 62
     6
370
     5
100
AcDbLine
 10
-1469.445273702438
 20
821.7156817461995
 30
0.0
 11
-1465.445408969541
 21
825.7155464790964
 31
0.0
  0
LINE
  5
2A5
330
1F
100
AcDbEntity
  8
C-9
  6
Continuous
 62
     6
370
     5
100
AcDbLine
 10
-1469.445273702438
 20
824.5444137985644
 30
0.0
 11
-1465.445408969541
 21
828.5442785314613
 31
0.0
  0
LINE
  5
2A6
330
1F
100
AcDbEntity
  8
C-9
  6
Continuous
 62
     6
370
     5
100
AcDbLine
 10
-1469.445273702438
 20
827.3724035314613
 30
0.0
 11
-1465.445408969541
 21
831.3722682643584
 31
0.0
  0
LINE
  5
2A7
330
1F
100
AcDbEntity
  8
C-9
  6
Continuous
 62
     6
370
     5
100
AcDbLine
 10
-1469.445273702438
 20
830.201135583826
 30
0.0
 11
-1465.445408969541
 21
834.2010003167231
 31
0.0
  0
LINE
  5
2A8
330
1F
100
AcDbEntity
  8
C-9
  6
Continuous
 62
     6
370
     5
100
AcDbLine
 10
-1469.445273702438
 20
833.0291253167231
 30
0.0
 11
-1465.445408969541
 21
837.029732369088
 31
0.0
  0
LINE
  5
2A9
330
1F
100
AcDbEntity
  8
C-9
  6
Continuous
 62
     6
370
     5
100
AcDbLine
 10
-1469.445273702438
 20
835.857857369088
 30
0.0
 11
-1465.445408969541
 21
839.8577221019849
 31
0.0
  0
LINE
  5
2AA
330
1F
100
AcDbEntity
  8
C-9
  6
Continuous
 62
     6
370
     5
100
AcDbLine
 10
-1469.445273702438
 20
838.6865894214529
 30
0.0
 11
-1465.445408969541
 21
842.6864541543498
 31
0.0
  0
LINE
  5
2AB
330
1F
100
AcDbEntity
  8
C-9
  6
Continuous
 62
     6
370
     5
100
AcDbLine
 10
-1469.445273702438
 20
841.5145791543498
 30
0.0
 11
-1468.228735814453
 21
842.7314882020693
 31
0.0
  0
LINE
  5
2AC
330
1F
100
AcDbEntity
  8
C-9
  6
Continuous
 62
     6
370
     5
100
AcDbLine
 10
-1469.445273702438
 20
807.8063469964106
 30
0.0
 11
-1465.445408969541
 21
803.8064822635135
 31
0.0
  0
LINE
  5
2AD
330
1F
100
AcDbEntity
  8
C-9
  6
Continuous
 62
     6
370
     5
100
AcDbLine
 10
-1469.445273702438
 20
810.6350790487755
 30
0.0
 11
-1465.445408969541
 21
806.6344719964106
 31
0.0
  0
LINE
  5
2AE
330
1F
100
AcDbEntity
  8
C-9
  6
Continuous
 62
     6
370
     5
100
AcDbLine
 10
-1469.445273702438
 20
813.4630687816724
 30
0.0
 11
-1465.445408969541
 21
809.4632040487755
 31
0.0
  0
LINE
  5
2AF
330
1F
100
AcDbEntity
  8
C-9
  6
Continuous
 62
     6
370
     5
100
AcDbLine
 10
-1469.445273702438
 20
816.2918008340373
 30
0.0
 11
-1465.445408969541
 21
812.2919361011404
 31
0.0
  0
LINE
  5
2B0
330
1F
100
AcDbEntity
  8
C-9
  6
Continuous
 62
     6
370
     5
100
AcDbLine
 10
-1469.445273702438
 20
819.1197905669342
 30
0.0
 11
-1465.445408969541
 21
815.1199258340373
 31
0.0
  0
LINE
  5
2B1
330
1F
100
AcDbEntity
  8
C-9
  6
Continuous
 62
     6
370
     5
100
AcDbLine
 10
-1469.445273702438
 20
821.9485226192992
 30
0.0
 11
-1465.445408969541
 21
817.9486578864021
 31
0.0
  0
LINE
  5
2B2
330
1F
100
AcDbEntity
  8
C-9
  6
Continuous
 62
     6
370
     5
100
AcDbLine
 10
-1469.445273702438
 20
824.7767597920188
 30
0.0
 11
-1465.445408969541
 21
820.7768950591217
 31
0.0
  0
LINE
  5
2B3
330
1F
100
AcDbEntity
  8
C-9
  6
Continuous
 62
     6
370
     5
100
AcDbLine
 10
-1469.445273702438
 20
827.605244404561
 30
0.0
 11
-1465.445408969541
 21
823.6053796716641
 31
0.0
  0
LINE
  5
2B4
330
1F
100
AcDbEntity
  8
C-9
  6
Continuous
 62
     6
370
     5
100
AcDbLine
 10
-1469.445273702438
 20
830.4334815772804
 30
0.0
 11
-1465.445408969541
 21
826.4336168443836
 31
0.0
  0
LINE
  5
2B5
330
1F
100
AcDbEntity
  8
C-9
  6
Continuous
 62
     6
370
     5
100
AcDbLine
 10
-1469.445273702438
 20
833.2622136296453
 30
0.0
 11
-1465.445408969541
 21
829.2621014569258
 31
0.0
  0
LINE
  5
2B6
330
1F
100
AcDbEntity
  8
C-9
  6
Continuous
 62
     6
370
     5
100
AcDbLine
 10
-1469.445273702438
 20
836.0906982421875
 30
0.0
 11
-1465.445408969541
 21
832.0903386296453
 31
0.0
  0
LINE
  5
2B7
330
1F
100
AcDbEntity
  8
C-9
  6
Continuous
 62
     6
370
     5
100
AcDbLine
 10
-1469.445273702438
 20
838.9189354149073
 30
0.0
 11
-1465.445408969541
 21
834.9188232421875
 31
0.0
  0
LINE
  5
2B8
330
1F
100
AcDbEntity
  8
C-9
  6
Continuous
 62
     6
370
     5
100
AcDbLine
 10
-1469.445273702438
 20
841.7474200274495
 30
0.0
 11
-1465.445408969541
 21
837.7475552945526
 31
0.0
  0
LINE
  5
2B9
330
1F
100
AcDbEntity
  8
C-9
  6
Continuous
 62
     6
370
     5
100
AcDbLine
 10
-1467.60122842425
 20
842.7314882020693
 30
0.0
 11
-1465.445408969541
 21
840.5755450274495
 31
0.0
  0
LINE
  5
2BA
330
1F
100
AcDbEntity
  8
C-9
  6
Continuous
 62
     6
370
     5
100
AcDbLine
 10
-1456.445527740656
 20
818.2621641416811
 30
0.0
 11
-1452.445663007759
 21
814.2622994087839
 31
0.0
  0
LINE
  5
2BB
330
1F
100
AcDbEntity
  8
C-9
  6
Continuous
 62
     6
370
     5
100
AcDbLine
 10
-1456.445527740656
 20
821.0904013144005
 30
0.0
 11
-1452.445663007759
 21
817.0905365815033
 31
0.0
  0
LINE
  5
2BC
330
1F
100
AcDbEntity
  8
C-9
  6
Continuous
 62
     6
370
     5
100
AcDbLine
 10
-1456.445527740656
 20
823.9191333667654
 30
0.0
 11
-1452.445663007759
 21
819.9190211940459
 31
0.0
  0
LINE
  5
2BD
330
1F
100
AcDbEntity
  8
C-9
  6
Continuous
 62
     6
370
     5
100
AcDbLine
 10
-1456.445527740656
 20
826.7476179793075
 30
0.0
 11
-1452.445663007759
 21
822.7472583667654
 31
0.0
  0
LINE
  5
2BE
330
1F
100
AcDbEntity
  8
C-9
  6
Continuous
 62
     6
370
     5
100
AcDbLine
 10
-1456.445527740656
 20
829.5758551520271
 30
0.0
 11
-1452.445663007759
 21
825.5757429793075
 31
0.0
  0
LINE
  5
2BF
330
1F
100
AcDbEntity
  8
C-9
  6
Continuous
 62
     6
370
     5
100
AcDbLine
 10
-1456.445527740656
 20
832.4043397645693
 30
0.0
 11
-1452.445663007759
 21
828.4044750316724
 31
0.0
  0
LINE
  5
2C0
330
1F
100
AcDbEntity
  8
C-9
  6
Continuous
 62
     6
370
     5
100
AcDbLine
 10
-1456.445527740656
 20
835.2325769372891
 30
0.0
 11
-1452.445663007759
 21
831.2327122043919
 31
0.0
  0
LINE
  5
2C1
330
1F
100
AcDbEntity
  8
C-9
  6
Continuous
 62
     6
370
     5
100
AcDbLine
 10
-1456.445527740656
 20
838.0610615498313
 30
0.0
 11
-1452.445663007759
 21
834.0611968169342
 31
0.0
  0
LINE
  5
2C2
330
1F
100
AcDbEntity
  8
C-9
  6
Continuous
 62
     6
370
     5
100
AcDbLine
 10
-1456.445527740656
 20
840.889793602196
 30
0.0
 11
-1452.445663007759
 21
836.889433989654
 31
0.0
  0
LINE
  5
2C3
330
1F
100
AcDbEntity
  8
C-9
  6
Continuous
 62
     6
370
     5
100
AcDbLine
 10
-1455.459108887721
 20
842.7314882020693
 30
0.0
 11
-1452.445663007759
 21
839.717918602196
 31
0.0
  0
LINE
  5
2C4
330
1F
100
AcDbEntity
  8
C-9
  6
Continuous
 62
     6
370
     5
100
AcDbLine
 10
-1452.630624275179
 20
842.7314882020693
 30
0.0
 11
-1452.445663007759
 21
842.5461557749156
 31
0.0
  0
LINE
  5
2C5
330
1F
100
AcDbEntity
  8
C-9
  6
Continuous
 62
     6
370
     5
100
AcDbLine
 10
-1456.445527740656
 20
811.2598646009292
 30
0.0
 11
-1452.445663007759
 21
815.259729333826
 31
0.0
  0
LINE
  5
2C6
330
1F
100
AcDbEntity
  8
C-9
  6
Continuous
 62
     6
370
     5
100
AcDbLine
 10
-1456.445527740656
 20
814.0883492134714
 30
0.0
 11
-1452.445663007759
 21
818.0882139463686
 31
0.0
  0
LINE
  5
2C7
330
1F
100
AcDbEntity
  8
C-9
  6
Continuous
 62
     6
370
     5
100
AcDbLine
 10
-1456.445527740656
 20
816.9165863861908
 30
0.0
 11
-1452.445663007759
 21
820.9169459987334
 31
0.0
  0
LINE
  5
2C8
330
1F
100
AcDbEntity
  8
C-9
  6
Continuous
 62
     6
370
     5
100
AcDbLine
 10
-1456.445527740656
 20
819.7450709987334
 30
0.0
 11
-1452.445663007759
 21
823.7451831714529
 31
0.0
  0
LINE
  5
2C9
330
1F
100
AcDbEntity
  8
C-9
  6
Continuous
 62
     6
370
     5
100
AcDbLine
 10
-1456.445527740656
 20
822.5738030510981
 30
0.0
 11
-1452.445663007759
 21
826.573667783995
 31
0.0
  0
LINE
  5
2CA
330
1F
100
AcDbEntity
  8
C-9
  6
Continuous
 62
     6
370
     5
100
AcDbLine
 10
-1456.445527740656
 20
825.4020402238177
 30
0.0
 11
-1452.445663007759
 21
829.4019049567146
 31
0.0
  0
LINE
  5
2CB
330
1F
100
AcDbEntity
  8
C-9
  6
Continuous
 62
     6
370
     5
100
AcDbLine
 10
-1456.445527740656
 20
828.2305248363599
 30
0.0
 11
-1452.445663007759
 21
832.2303895692568
 31
0.0
  0
LINE
  5
2CC
330
1F
100
AcDbEntity
  8
C-9
  6
Continuous
 62
     6
370
     5
100
AcDbLine
 10
-1456.445527740656
 20
831.0587620090794
 30
0.0
 11
-1452.445663007759
 21
835.0591216216217
 31
0.0
  0
LINE
  5
2CD
330
1F
100
AcDbEntity
  8
C-9
  6
Continuous
 62
     6
370
     5
100
AcDbLine
 10
-1456.445527740656
 20
833.8872466216217
 30
0.0
 11
-1452.445663007759
 21
837.8873587943415
 31
0.0
  0
LINE
  5
2CE
330
1F
100
AcDbEntity
  8
C-9
  6
Continuous
 62
     6
370
     5
100
AcDbLine
 10
-1456.445527740656
 20
836.7159786739867
 30
0.0
 11
-1452.445663007759
 21
840.7158434068836
 31
0.0
  0
LINE
  5
2CF
330
1F
100
AcDbEntity
  8
C-9
  6
Continuous
 62
     6
370
     5
100
AcDbLine
 10
-1456.445527740656
 20
839.5442158467063
 30
0.0
 11
-1453.258502825116
 21
842.7314882020693
 31
0.0
  0
LINE
  5
2D0
330
1F
100
AcDbEntity
  8
C-9
  6
Continuous
 62
     6
370
     5
100
AcDbLine
 10
-1456.445527740656
 20
842.3727004592484
 30
0.0
 11
-1456.086863717746
 21
842.7314882020693
 31
0.0
  0
LINE
  5
2D1
330
1F
100
AcDbEntity
  8
C-9
  6
Continuous
 62
     6
370
     5
100
AcDbLine
 10
-1454.662847538481
 20
810.2141839104731
 30
0.0
 11
-1452.445663007759
 21
812.4314921611065
 31
0.0
  0
LINE
  5
2D2
330
1F
100
AcDbEntity
  8
C-9
  6
Continuous
 62
     6
370
     5
100
AcDbLine
 10
-1456.445527740656
 20
815.4336795291385
 30
0.0
 11
-1452.641511627375
 21
811.629539695946
 31
0.0
  0
LINE
  5
2D3
330
1F
100
AcDbEntity
  8
C-9
  6
Continuous
 62
     6
370
     5
100
AcDbLine
 10
-1456.445527740656
 20
812.605442356419
 30
0.0
 11
-1454.30492583504
 21
810.4648404508026
 31
0.0
  0
LINE
  5
2D4
330
1F
100
AcDbEntity
  8
C-9
  6
Continuous
 62
     6
370
     5
100
AcDbLine
 10
-1456.445527740656
 20
809.7767103040542
 30
0.0
 11
-1455.968711202438
 21
809.2998937658363
 31
0.0
  0
LINE
  5
2D5
330
1F
100
AcDbEntity
  8
C-9
  6
Continuous
 62
     6
370
     5
100
AcDbLine
 10
-1469.445273702438
 20
804.9778623838686
 30
0.0
 11
-1465.613668048933
 21
801.1460092905406
 31
0.0
  0
LINE
  5
2D6
330
1F
100
AcDbEntity
  8
C-9
  6
Continuous
 62
     6
370
     5
100
AcDbLine
 10
-1469.445273702438
 20
802.1496252111488
 30
0.0
 11
-1467.276958536686
 21
799.9813100453971
 31
0.0
  0
LINE
  5
2D7
330
1F
100
AcDbEntity
  8
C-9
  6
Continuous
 62
     6
370
     5
100
AcDbLine
 10
-1469.445273702438
 20
799.3208931587839
 30
0.0
 11
-1468.940743904085
 21
798.8163633604311
 31
0.0
  0
LINE
  5
2D8
330
1F
100
AcDbEntity
  8
C-9
  6
Continuous
 62
     6
370
     5
100
AcDbLine
 10
-1478.965520878325
 20
790.3964810758026
 30
0.0
 11
-1478.445154931323
 21
790.9168470228042
 31
0.0
  0
LINE
  5
2D9
330
1F
100
AcDbEntity
  8
C-9
  6
Continuous
 62
     6
370
     5
100
AcDbLine
 10
-1482.445143384132
 20
794.5217977987755
 30
0.0
 11
-1478.58570075058
 21
790.6624788851352
 31
0.0
  0
LINE
  5
2DA
330
1F
100
AcDbEntity
  8
C-9
  6
Continuous
 62
     6
370
     5
100
AcDbLine
 10
-1482.445143384132
 20
791.6938080658783
 30
0.0
 11
-1480.249114958245
 21
789.4977796399917
 31
0.0
  0
LINE
  5
2DB
330
1F
100
AcDbEntity
  8
C-9
  6
Continuous
 62
     6
370
     5
100
AcDbLine
 10
-1482.445143384132
 20
788.8650760135135
 30
0.0
 11
-1481.912776605732
 21
788.3328329550255
 31
0.0
  0
LINE
  5
2DC
330
1F
100
AcDbEntity
  8
C-9
  6
Continuous
 62
     6
370
     5
100
AcDbLine
 10
-1495.445384225559
 20
784.0659806535052
 30
0.0
 11
-1491.55798089205
 21
780.1787010399073
 31
0.0
  0
LINE
  5
2DD
330
1F
100
AcDbEntity
  8
C-9
  6
Continuous
 62
     6
370
     5
100
AcDbLine
 10
-1495.445384225559
 20
781.2377434807856
 30
0.0
 11
-1493.221518819626
 21
779.0140017947635
 31
0.0
  0
LINE
  5
2DE
330
1F
100
AcDbEntity
  8
C-9
  6
Continuous
 62
     6
370
     5
100
AcDbLine
 10
-1495.445384225559
 20
778.4092588682432
 30
0.0
 11
-1494.885180467113
 21
777.8490551097974
 31
0.0
  0
LINE
  5
2DF
330
1F
100
AcDbEntity
  8
C-9
  6
Continuous
 62
     6
370
     5
100
AcDbLine
 10
-1508.445130187341
 20
773.6101635082349
 30
0.0
 11
-1504.529889873786
 21
769.6951706345019
 31
0.0
  0
LINE
  5
2E0
330
1F
100
AcDbEntity
  8
C-9
  6
Continuous
 62
     6
370
     5
100
AcDbLine
 10
-1507.943817106682
 20
768.7316399651606
 30
0.0
 11
-1504.44489429471
 21
772.230686497044
 31
0.0
  0
LINE
  5
2E1
330
1F
100
AcDbEntity
  8
C-9
  6
Continuous
 62
     6
370
     5
100
AcDbLine
 10
-1508.445130187341
 20
770.7819263355154
 30
0.0
 11
-1506.394596377164
 21
768.7316399651606
 31
0.0
  0
TEXT
  5
2E2
330
1F
100
AcDbEntity
  8
C-4
  6
Continuous
 62
     2
370
     0
100
AcDbText
 10
-1536.406848772381
 20
975.3694822899073
 30
0.0
 40
30.48
  1
2
 41
0.9999999999999998
  7
ＭＳ ゴシック
100
AcDbText
  0
TEXT
  5
2E3
330
1F
100
AcDbEntity
  8
C-4
  6
Continuous
 62
     2
370
     0
100
AcDbText
 10
-540.4063217255589
 20
975.3694822899073
 30
0.0
 40
30.48
  1
2
 41
0.9999999999999998
  7
ＭＳ ゴシック
100
AcDbText
  0
TEXT
  5
2E4
330
1F
100
AcDbEntity
  8
C-5
  6
Continuous
 62
     2
370
     0
100
AcDbText
 10
-1279.945077400179
 20
561.8710626055745
 30
0.0
 40
30.48
  1
平面詳細図　Ｓ＝１：１０
 41
1.114583333333333
  7
ＭＳ ゴシック
100
AcDbText
  0
TEXT
  5
2E5
330
1F
100
AcDbEntity
  8
C-4
  6
Continuous
 62
     2
370
     0
100
AcDbText
 10
-637.2124757189077
 20
926.1764660314612
 30
0.0
 40
30.48
  1
13
 41
1.0625
  7
ＭＳ ゴシック
100
AcDbText
  0
TEXT
  5
2E6
330
1F
100
AcDbEntity
  8
C-4
  6
Continuous
 62
     2
370
     0
100
AcDbText
 10
-1043.945667956556
 20
1056.369650548987
 30
0.0
 40
30.48
  1
994
 41
1.083333333333333
  7
ＭＳ ゴシック
100
AcDbText
  0
TEXT
  5
2E7
330
1F
100
AcDbEntity
  8
C-4
  6
Continuous
 62
     2
370
     0
100
AcDbText
 10
-1044.945324840001
 20
976.3701289326438
 30
0.0
 40
30.48
  1
992
 41
1.083333333333333
  7
ＭＳ ゴシック
100
AcDbText
  0
LWPOLYLINE
  5
2E8
330
1F
100
AcDbEntity
  8
C-4
  6
Continuous
 62
     7
370
     9
100
AcDbPolyline
 90
        4
 70
     1
 43
2.0
 10
-1509.445804873258
 20
964.730208113387
 42
0.4142135623731
 10
-1510.445804873258
 20
965.7302081133869
 42
0.4142135623731
 10
-1511.445804873258
 20
964.730208113387
 42
0.4142135623731
 10
-1510.445804873258
 20
963.7302081133871
 42
0.4142135623731
  0
LWPOLYLINE
  5
2E9
330
1F
100
AcDbEntity
  8
C-4
  6
Continuous
 62
     7
370
     9
100
AcDbPolyline
 90
        4
 70
     1
 43
2.0
 10
-1507.445130187341
 20
964.730208113387
 42
0.4142135623731
 10
-1508.445130187341
 20
965.7302081133869
 42
0.4142135623731
 10
-1509.445130187341
 20
964.730208113387
 42
0.4142135623731
 10
-1508.445130187341
 20
963.7302081133871
 42
0.4142135623731
  0
LWPOLYLINE
  5
2EA
330
1F
100
AcDbEntity
  8
C-4
  6
Continuous
 62
     7
370
     9
100
AcDbPolyline
 90
        4
 70
     1
 43
2.0
 10
-515.445519492662
 20
964.730208113387
 42
0.4142135623731
 10
-516.445519492662
 20
965.7302081133869
 42
0.4142135623731
 10
-517.445519492662
 20
964.730208113387
 42
0.4142135623731
 10
-516.445519492662
 20
963.7302081133871
 42
0.4142135623731
  0
LWPOLYLINE
  5
2EB
330
1F
100
AcDbEntity
  8
C-4
  6
Continuous
 62
     7
370
     9
100
AcDbPolyline
 90
        4
 70
     1
 43
2.0
 10
-513.44620572577
 20
964.730208113387
 42
0.4142135623731
 10
-514.4462057257701
 20
965.7302081133869
 42
0.4142135623731
 10
-515.4462057257701
 20
964.730208113387
 42
0.4142135623731
 10
-514.4462057257701
 20
963.7302081133871
 42
0.4142135623731
  0
LWPOLYLINE
  5
2EC
330
1F
100
AcDbEntity
  8
C-4
  6
Continuous
 62
     7
370
     9
100
AcDbPolyline
 90
        4
 70
     1
 43
2.0
 10
-1507.445130187341
 20
1044.72972972973
 42
0.4142135623731
 10
-1508.445130187341
 20
1045.72972972973
 42
0.4142135623731
 10
-1509.445130187341
 20
1044.72972972973
 42
0.4142135623731
 10
-1508.445130187341
 20
1043.72972972973
 42
0.4142135623731
  0
LWPOLYLINE
  5
2ED
330
1F
100
AcDbEntity
  8
C-4
  6
Continuous
 62
     7
370
     9
100
AcDbPolyline
 90
        4
 70
     1
 43
2.0
 10
-513.44620572577
 20
1044.72972972973
 42
0.4142135623731
 10
-514.4462057257701
 20
1045.72972972973
 42
0.4142135623731
 10
-515.4462057257701
 20
1044.72972972973
 42
0.4142135623731
 10
-514.4462057257701
 20
1043.72972972973
 42
0.4142135623731
  0
LWPOLYLINE
  5
2EE
330
1F
100
AcDbEntity
  8
C-4
  6
Continuous
 62
     7
370
     9
100
AcDbPolyline
 90
        4
 70
     1
 43
2.0
 10
-621.4623486997987
 20
914.5365452122044
 42
0.4142135623731
 10
-622.4623486997987
 20
915.5365452122044
 42
0.4142135623731
 10
-623.4623486997988
 20
914.5365452122044
 42
0.4142135623731
 10
-622.4623486997987
 20
913.5365452122045
 42
0.4142135623731
  0
LWPOLYLINE
  5
2EF
330
1F
100
AcDbEntity
  8
C-4
  6
Continuous
 62
     7
370
     9
100
AcDbPolyline
 90
        4
 70
     1
 43
2.0
 10
-608.4626027380167
 20
914.5365452122044
 42
0.4142135623731
 10
-609.4626027380167
 20
915.5365452122044
 42
0.4142135623731
 10
-610.4626027380167
 20
914.5365452122044
 42
0.4142135623731
 10
-609.4626027380167
 20
913.5365452122045
 42
0.4142135623731
  0
LINE
  5
2F0
330
1F
100
AcDbEntity
  8
A-0
  6
Continuous
 62
     3
370
     9
100
AcDbLine
 10
-883.1913909592208
 20
-130.9745252454603
 30
0.0
 11
-883.1913909592208
 21
-205.974587105416
 31
0.0
  0
LINE
  5
2F1
330
1F
100
AcDbEntity
  8
A-0
  6
Continuous
 62
     3
370
     9
100
AcDbLine
 10
-883.1913909592208
 20
-130.9745252454603
 30
0.0
 11
-808.1917621189547
 21
-130.9745252454603
 31
0.0
  0
LINE
  5
2F2
330
1F
100
AcDbEntity
  8
A-0
  6
Continuous
 62
     3
370
     9
100
AcDbLine
 10
-808.1917621189547
 20
-133.4745953534101
 30
0.0
 11
-808.1917621189547
 21
-130.9745252454603
 31
0.0
  0
LINE
  5
2F3
330
1F
100
AcDbEntity
  8
A-0
  6
Continuous
 62
     3
370
     9
100
AcDbLine
 10
-813.1917786149432
 20
-138.4746737093539
 30
0.0
 11
-865.6914569431734
 21
-138.4746737093539
 31
0.0
  0
LINE
  5
2F4
330
1F
100
AcDbEntity
  8
A-0
  6
Continuous
 62
     3
370
     9
100
AcDbLine
 10
-875.69148993515
 20
-200.9744468895165
 30
0.0
 11
-875.69148993515
 21
-148.4745211214633
 31
0.0
  0
LINE
  5
2F5
330
1F
100
AcDbEntity
  8
A-0
  6
Continuous
 62
     3
370
     9
100
AcDbLine
 10
-880.691506431138
 20
-205.974587105416
 30
0.0
 11
-883.1913909592208
 21
-205.974587105416
 31
0.0
  0
LINE
  5
2F6
330
1F
100
AcDbEntity
  8
A-0
  6
Continuous
 62
     3
370
     9
100
AcDbLine
 10
-883.1913909592208
 20
-130.9745252454603
 30
0.0
 11
-1158.191370339236
 21
-130.9745252454603
 31
0.0
  0
LINE
  5
2F7
330
1F
100
AcDbEntity
  8
A-0
  6
Continuous
 62
     7
370
     9
100
AcDbLine
 10
-1160.866411331766
 20
-130.9745252454603
 30
0.0
 11
-1189.891875776314
 21
-130.9745252454603
 31
0.0
  0
LINE
  5
2F8
330
1F
100
AcDbEntity
  8
A-0
  6
Continuous
 62
     6
370
     5
100
AcDbLine
 10
-800.6913662152385
 20
-138.4746737093539
 30
0.0
 11
-863.1915105551349
 21
-138.4746737093539
 31
0.0
  0
LINE
  5
2F9
330
1F
100
AcDbEntity
  8
A-0
  6
Continuous
 62
     6
370
     5
100
AcDbLine
 10
-800.6913662152385
 20
-138.4746737093539
 30
0.0
 11
-800.6913662152385
 21
-463.4746633993614
 31
0.0
  0
LINE
  5
2FA
330
1F
100
AcDbEntity
  8
A-0
  6
Continuous
 62
     6
370
     5
100
AcDbLine
 10
-872.6965401819297
 20
-366.5969931112754
 30
0.0
 11
-863.1915105551349
 21
-138.4746737093539
 31
0.0
  0
LINE
  5
2FB
330
1F
100
AcDbEntity
  8
A-0
  6
Continuous
 62
     6
370
     5
100
AcDbLine
 10
-772.7280681393307
 20
-338.474591229413
 30
0.0
 11
-761.6937366887396
 21
-357.5866266199062
 31
0.0
  0
LINE
  5
2FC
330
1F
100
AcDbEntity
  8
A-0
  6
Continuous
 62
     6
370
     5
100
AcDbLine
 10
-652.5404840097912
 20
-338.474591229413
 30
0.0
 11
-641.5062144191552
 21
-357.5866266199062
 31
0.0
  0
LINE
  5
2FD
330
1F
100
AcDbEntity
  8
A-0
  6
Continuous
 62
     6
370
     5
100
AcDbLine
 10
-709.4391475048292
 20
-513.474673709354
 30
0.0
 11
-720.4736026753318
 21
-494.3626073888831
 31
0.0
  0
LINE
  5
2FE
330
1F
100
AcDbEntity
  8
A-0
  6
Continuous
 62
     6
370
     5
100
AcDbLine
 10
-750.6594670981036
 20
-338.474591229413
 30
0.0
 11
-800.6913662152385
 21
-425.1323473131334
 31
0.0
  0
LINE
  5
2FF
330
1F
100
AcDbEntity
  8
A-0
  6
Continuous
 62
     6
370
     5
100
AcDbLine
 10
-704.6712295624724
 20
-338.474591229413
 30
0.0
 11
-800.6913662152385
 21
-242.454454576647
 31
0.0
  0
LINE
  5
300
330
1F
100
AcDbEntity
  8
A-0
  6
Continuous
 62
     6
370
     5
100
AcDbLine
 10
-697.6001417510281
 20
-338.474591229413
 30
0.0
 11
-797.6001005110578
 21
-238.4746324693835
 31
0.0
  0
LINE
  5
301
330
1F
100
AcDbEntity
  8
A-0
  6
Continuous
 62
     6
370
     5
100
AcDbLine
 10
-690.5288683597172
 20
-338.474591229413
 30
0.0
 11
-790.5293219993916
 21
-238.4746324693835
 31
0.0
  0
LINE
  5
302
330
1F
100
AcDbEntity
  8
A-0
  6
Continuous
 62
     6
370
     5
100
AcDbLine
 10
-850.6916548950318
 20
-513.474673709354
 30
0.0
 11
-800.6913662152385
 21
-463.4746633993614
 31
0.0
  0
LINE
  5
303
330
1F
100
AcDbEntity
  8
A-0
  6
Continuous
 62
     6
370
     5
100
AcDbLine
 10
-947.7061284750567
 20
-513.474673709354
 30
0.0
 11
-800.6913662152385
 21
-366.4594474998681
 31
0.0
  0
LINE
  5
304
330
1F
100
AcDbEntity
  8
A-0
  6
Continuous
 62
     6
370
     5
100
AcDbLine
 10
-940.635040663613
 20
-513.474673709354
 30
0.0
 11
-800.6913662152385
 21
-373.5305353113124
 31
0.0
  0
LINE
  5
305
330
1F
100
AcDbEntity
  8
A-0
  6
Continuous
 62
     6
370
     5
100
AcDbLine
 10
-933.5641384320354
 20
-513.474673709354
 30
0.0
 11
-800.6913662152385
 21
-380.6012828930004
 31
0.0
  0
LINE
  5
306
330
1F
100
AcDbEntity
  8
A-0
  6
Continuous
 62
     6
370
     5
100
AcDbLine
 10
-1225.691500245143
 20
-138.4746737093539
 30
0.0
 11
-1225.691500245143
 21
-463.4746633993614
 31
0.0
  0
LINE
  5
307
330
1F
100
AcDbEntity
  8
A-0
  6
Continuous
 62
     6
370
     5
100
AcDbLine
 10
-1153.686388138407
 20
-366.5969931112754
 30
0.0
 11
-1163.191386835224
 21
-138.4746737093539
 31
0.0
  0
LINE
  5
308
330
1F
100
AcDbEntity
  8
A-0
  6
Continuous
 62
     6
370
     5
100
AcDbLine
 10
-947.6314635085771
 20
-438.4745499894426
 30
0.0
 11
-1078.751433881782
 21
-438.4745499894426
 31
0.0
  0
LINE
  5
309
330
1F
100
AcDbEntity
  8
A-0
  6
Continuous
 62
     6
370
     5
100
AcDbLine
 10
-1175.691459005172
 20
-513.474673709354
 30
0.0
 11
-1225.691500245143
 21
-463.4746633993614
 31
0.0
  0
LINE
  5
30A
330
1F
100
AcDbEntity
  8
A-0
  6
Continuous
 62
     6
370
     5
100
AcDbLine
 10
-630.4716973886974
 20
-338.474591229413
 30
0.0
 11
-731.5078722659672
 21
-513.474673709354
 31
0.0
  0
LINE
  5
30B
330
1F
100
AcDbEntity
  8
A-0
  6
Continuous
 62
     6
370
     5
100
AcDbLine
 10
-612.9059443798292
 20
-138.4746737093539
 30
0.0
 11
-863.1915105551349
 21
-138.4746737093539
 31
0.0
  0
LINE
  5
30C
330
1F
100
AcDbEntity
  8
A-0
  6
Continuous
 62
     6
370
     5
100
AcDbLine
 10
-612.9059443798292
 20
-238.4746324693835
 30
0.0
 11
-800.6913662152385
 21
-238.4746324693835
 31
0.0
  0
LINE
  5
30D
330
1F
100
AcDbEntity
  8
A-0
  6
Continuous
 62
     6
370
     5
100
AcDbLine
 10
-612.9059443798292
 20
-284.2917653676626
 30
0.0
 11
-658.7228916982411
 21
-238.4746324693835
 31
0.0
  0
LINE
  5
30E
330
1F
100
AcDbEntity
  8
A-0
  6
Continuous
 62
     6
370
     5
100
AcDbLine
 10
-612.9059443798292
 20
-270.1497134646854
 30
0.0
 11
-644.5810253751307
 21
-238.4746324693835
 31
0.0
  0
LINE
  5
30F
330
1F
100
AcDbEntity
  8
A-0
  6
Continuous
 62
     6
370
     5
100
AcDbLine
 10
-612.9059443798292
 20
-277.2204919763515
 30
0.0
 11
-651.6518038867969
 21
-238.4746324693835
 31
0.0
  0
LINE
  5
310
330
1F
100
AcDbEntity
  8
A-0
  6
Continuous
 62
     6
370
     5
100
AcDbLine
 10
-612.9059443798292
 20
-338.474591229413
 30
0.0
 11
-800.6913662152385
 21
-338.474591229413
 31
0.0
  0
LINE
  5
311
330
1F
100
AcDbEntity
  8
A-0
  6
Continuous
 62
     6
370
     5
100
AcDbLine
 10
-838.1919229548396
 20
-513.474673709354
 30
0.0
 11
-612.9059443798292
 21
-513.474673709354
 31
0.0
  0
LINE
  5
312
330
1F
100
AcDbEntity
  8
A-0
  6
Continuous
 62
     6
370
     5
100
AcDbLine
 10
-1413.476767430663
 20
-238.4746324693835
 30
0.0
 11
-1225.691376525231
 21
-238.4746324693835
 31
0.0
  0
LINE
  5
313
330
1F
100
AcDbEntity
  8
A-0
  6
Continuous
 62
     6
370
     5
100
AcDbLine
 10
-1413.476767430663
 20
-338.474591229413
 30
0.0
 11
-1225.691376525231
 21
-338.474591229413
 31
0.0
  0
LINE
  5
314
330
1F
100
AcDbEntity
  8
A-0
  6
Continuous
 62
     6
370
     5
100
AcDbLine
 10
-1413.476767430663
 20
-138.4746737093539
 30
0.0
 11
-1163.191386835224
 21
-138.4746737093539
 31
0.0
  0
LINE
  5
315
330
1F
100
AcDbEntity
  8
A-0
  6
Continuous
 62
     6
370
     5
100
AcDbLine
 10
-1376.636936877454
 20
-338.474591229413
 30
0.0
 11
-1365.602667286818
 21
-357.5866266199062
 31
0.0
  0
LINE
  5
316
330
1F
100
AcDbEntity
  8
A-0
  6
Continuous
 62
     6
370
     5
100
AcDbLine
 10
-1256.449414607869
 20
-338.474591229413
 30
0.0
 11
-1245.415114087256
 21
-357.5866266199062
 31
0.0
  0
LINE
  5
317
330
1F
100
AcDbEntity
  8
A-0
  6
Continuous
 62
     6
370
     5
100
AcDbLine
 10
-1313.34804717293
 20
-513.474673709354
 30
0.0
 11
-1324.382502343432
 21
-494.3626073888831
 31
0.0
  0
LINE
  5
318
330
1F
100
AcDbEntity
  8
A-0
  6
Continuous
 62
     6
370
     5
100
AcDbLine
 10
-1301.509041419129
 20
-338.474591229413
 30
0.0
 11
-1401.508969249181
 21
-238.4746324693835
 31
0.0
  0
LINE
  5
319
330
1F
100
AcDbEntity
  8
A-0
  6
Continuous
 62
     6
370
     5
100
AcDbLine
 10
-1234.380627986776
 20
-338.474591229413
 30
0.0
 11
-1335.41674100409
 21
-513.474673709354
 31
0.0
  0
LINE
  5
31A
330
1F
100
AcDbEntity
  8
A-0
  6
Continuous
 62
     6
370
     5
100
AcDbLine
 10
-1354.568335836227
 20
-338.474591229413
 30
0.0
 11
-1413.476767430663
 21
-440.5069279026341
 31
0.0
  0
LINE
  5
31B
330
1F
100
AcDbEntity
  8
A-0
  6
Continuous
 62
     6
370
     5
100
AcDbLine
 10
-1308.580129230573
 20
-338.474591229413
 30
0.0
 11
-1408.580057060625
 21
-238.4746324693835
 31
0.0
  0
LINE
  5
31C
330
1F
100
AcDbEntity
  8
A-0
  6
Continuous
 62
     6
370
     5
100
AcDbLine
 10
-1294.43773709784
 20
-338.474591229413
 30
0.0
 11
-1394.43825259747
 21
-238.4746324693835
 31
0.0
  0
LINE
  5
31D
330
1F
100
AcDbEntity
  8
A-0
  6
Continuous
 62
     6
370
     5
100
AcDbLine
 10
-1225.691500245143
 20
-275.4150473104942
 30
0.0
 11
-1262.63182229632
 21
-238.4746324693835
 31
0.0
  0
LINE
  5
31E
330
1F
100
AcDbEntity
  8
A-0
  6
Continuous
 62
     6
370
     5
100
AcDbLine
 10
-1225.691500245143
 20
-268.3437739191828
 30
0.0
 11
-1255.560641694942
 21
-238.4746324693835
 31
0.0
  0
LINE
  5
31F
330
1F
100
AcDbEntity
  8
A-0
  6
Continuous
 62
     6
370
     5
100
AcDbLine
 10
-1225.691500245143
 20
-261.2730572674725
 30
0.0
 11
-1248.489925043232
 21
-238.4746324693835
 31
0.0
  0
LINE
  5
320
330
1F
100
AcDbEntity
  8
A-0
  6
Continuous
 62
     6
370
     5
100
AcDbLine
 10
-612.9059443798292
 20
-513.474673709354
 30
0.0
 11
-1413.476767430663
 21
-513.474673709354
 31
0.0
  0
LINE
  5
321
330
1F
100
AcDbEntity
  8
A-0
  6
Continuous
 62
     3
370
     9
100
AcDbLine
 10
-1143.191382711227
 20
-130.9745252454603
 30
0.0
 11
-1143.191382711227
 21
-205.974587105416
 31
0.0
  0
LINE
  5
322
330
1F
100
AcDbEntity
  8
A-0
  6
Continuous
 62
     3
370
     9
100
AcDbLine
 10
-1143.191382711227
 20
-130.9745252454603
 30
0.0
 11
-1218.191011551493
 21
-130.9745252454603
 31
0.0
  0
LINE
  5
323
330
1F
100
AcDbEntity
  8
A-0
  6
Continuous
 62
     3
370
     9
100
AcDbLine
 10
-1218.191011551493
 20
-133.4745953534101
 30
0.0
 11
-1218.191011551493
 21
-130.9745252454603
 31
0.0
  0
LINE
  5
324
330
1F
100
AcDbEntity
  8
A-0
  6
Continuous
 62
     3
370
     9
100
AcDbLine
 10
-1213.190995055505
 20
-138.4746737093539
 30
0.0
 11
-1160.691316727274
 21
-138.4746737093539
 31
0.0
  0
LINE
  5
325
330
1F
100
AcDbEntity
  8
A-0
  6
Continuous
 62
     3
370
     9
100
AcDbLine
 10
-1150.691283735298
 20
-200.9744468895165
 30
0.0
 11
-1150.691283735298
 21
-148.4745211214633
 31
0.0
  0
LINE
  5
326
330
1F
100
AcDbEntity
  8
A-0
  6
Continuous
 62
     3
370
     9
100
AcDbLine
 10
-1145.691267239309
 20
-205.974587105416
 30
0.0
 11
-1143.191382711227
 21
-205.974587105416
 31
0.0
  0
ARC
  5
327
330
1F
100
AcDbEntity
  8
A-0
  6
Continuous
 62
     3
370
     9
100
AcDbCircle
 10
-865.6914569431734
 20
-148.4745211214633
 30
0.0
 40
10.00000012887491
100
AcDbArc
 50
90.0
 51
180.0
  0
ARC
  5
328
330
1F
100
AcDbEntity
  8
A-0
  6
Continuous
 62
     3
370
     9
100
AcDbCircle
 10
-813.1917786149432
 20
-133.4745953534101
 30
0.0
 40
5.000000064437454
100
AcDbArc
 50
270.0
 51
0.0
  0
ARC
  5
329
330
1F
100
AcDbEntity
  8
A-0
  6
Continuous
 62
     3
370
     9
100
AcDbCircle
 10
-880.691506431138
 20
-200.9744468895165
 30
0.0
 40
5.000000064437454
100
AcDbArc
 50
270.0
 51
0.0
  0
ARC
  5
32A
330
1F
100
AcDbEntity
  8
A-0
  6
Continuous
 62
     6
370
     5
100
AcDbCircle
 10
-947.6314635085771
 20
-363.4745499894426
 30
0.0
 40
75.0
100
AcDbArc
 50
270.0
 51
357.6139373779297
  0
ARC
  5
32B
330
1F
100
AcDbEntity
  8
A-0
  6
Continuous
 62
     6
370
     5
100
AcDbCircle
 10
-1078.751433881782
 20
-363.4743644095756
 30
0.0
 40
75.0
100
AcDbArc
 50
182.3860626220703
 51
270.0
  0
ARC
  5
32C
330
1F
100
AcDbEntity
  8
A-0
  6
Continuous
 62
     3
370
     9
100
AcDbCircle
 10
-1160.691316727274
 20
-148.4745211214633
 30
0.0
 40
10.00000012887491
100
AcDbArc
 50
0.0
 51
90.0
  0
ARC
  5
32D
330
1F
100
AcDbEntity
  8
A-0
  6
Continuous
 62
     3
370
     9
100
AcDbCircle
 10
-1213.190995055505
 20
-133.4745953534101
 30
0.0
 40
5.000000064437454
100
AcDbArc
 50
180.0
 51
270.0
  0
ARC
  5
32E
330
1F
100
AcDbEntity
  8
A-0
  6
Continuous
 62
     3
370
     9
100
AcDbCircle
 10
-1145.691267239309
 20
-200.9744468895165
 30
0.0
 40
5.000000064437454
100
AcDbArc
 50
180.0
 51
270.0
  0
LINE
  5
32F
330
1F
100
AcDbEntity
  8
A-0
  6
Continuous
 62
     3
370
     9
100
AcDbLine
 10
-1006.941415445453
 20
-152.8494415754402
 30
0.0
 11
-1000.691339151508
 21
-152.8494415754402
 31
0.0
  0
LINE
  5
330
330
1F
100
AcDbEntity
  8
A-0
  6
Continuous
 62
     3
370
     9
100
AcDbLine
 10
-1008.191606180317
 20
-154.7250376218879
 30
0.0
 11
-1008.191606180317
 21
-154.1002498144233
 31
0.0
  0
LINE
  5
331
330
1F
100
AcDbEntity
  8
A-0
  6
Continuous
 62
     3
370
     9
100
AcDbLine
 10
-1009.44143451894
 20
-155.9746084684456
 30
0.0
 11
-1018.191529886371
 21
-155.9746084684456
 31
0.0
  0
LINE
  5
332
330
1F
100
AcDbEntity
  8
A-0
  6
Continuous
 62
     3
370
     9
100
AcDbLine
 10
-1018.191529886371
 20
-140.3500197404945
 30
0.0
 11
-1018.191529886371
 21
-139.7252343172157
 31
0.0
  0
LINE
  5
333
330
1F
100
AcDbEntity
  8
A-0
  6
Continuous
 62
     3
370
     9
100
AcDbLine
 10
-1025.691415445453
 20
-141.5995905870521
 30
0.0
 11
-1019.441472665912
 21
-141.5995905870521
 31
0.0
  0
LINE
  5
334
330
1F
100
AcDbEntity
  8
A-0
  6
Continuous
 62
     3
370
     9
100
AcDbLine
 10
-1026.941606180317
 20
-151.9685564512336
 30
0.0
 11
-1026.941606180317
 21
-142.8496573442543
 31
0.0
  0
LINE
  5
335
330
1F
100
AcDbEntity
  8
A-0
  6
Continuous
 62
     3
370
     9
100
AcDbLine
 10
-1026.111814157612
 20
-153.1463704580391
 30
0.0
 11
-1018.191529886371
 21
-155.9746084684456
 31
0.0
  0
LINE
  5
336
330
1F
100
AcDbEntity
  8
A-0
  6
Continuous
 62
     3
370
     9
100
AcDbLine
 10
-1000.271054880268
 20
-141.3039002889717
 30
0.0
 11
-1008.191606180317
 21
-138.4749213928306
 31
0.0
  0
LINE
  5
337
330
1F
100
AcDbEntity
  8
A-0
  6
Continuous
 62
     3
370
     9
100
AcDbLine
 10
-999.4415298863714
 20
-142.4804769033516
 30
0.0
 11
-999.4415298863714
 21
-151.5998707288826
 31
0.0
  0
LINE
  5
338
330
1F
100
AcDbEntity
  8
A-0
  6
Continuous
 62
     3
370
     9
100
AcDbLine
 10
-1016.941339151508
 20
-130.9745252454603
 30
0.0
 11
-1016.941339151508
 21
-155.9746084684456
 31
0.0
  0
LINE
  5
339
330
1F
100
AcDbEntity
  8
A-0
  6
Continuous
 62
     3
370
     9
100
AcDbLine
 10
-1009.44143451894
 20
-130.9745252454603
 30
0.0
 11
-1016.941339151508
 21
-130.9745252454603
 31
0.0
  0
LINE
  5
33A
330
1F
100
AcDbEntity
  8
A-0
  6
Continuous
 62
     3
370
     9
100
AcDbLine
 10
-1008.191606180317
 20
-138.4749213928306
 30
0.0
 11
-1009.44143451894
 21
-138.4749213928306
 31
0.0
  0
LINE
  5
33B
330
1F
100
AcDbEntity
  8
A-0
  6
Continuous
 62
     3
370
     9
100
AcDbLine
 10
-1009.44143451894
 20
-130.9745252454603
 30
0.0
 11
-1009.44143451894
 21
-155.9746084684456
 31
0.0
  0
ARC
  5
33C
330
1F
100
AcDbEntity
  8
A-0
  6
Continuous
 62
     3
370
     9
100
AcDbCircle
 10
-1016.941339151508
 20
-139.7252343172157
 30
0.0
 40
1.25
100
AcDbArc
 50
90.0
 51
180.0
  0
ARC
  5
33D
330
1F
100
AcDbEntity
  8
A-0
  6
Continuous
 62
     3
370
     9
100
AcDbCircle
 10
-1000.691339151508
 20
-151.5998707288826
 30
0.0
 40
1.25
100
AcDbArc
 50
270.0
 51
0.0
  0
ARC
  5
33E
330
1F
100
AcDbEntity
  8
A-0
  6
Continuous
 62
     3
370
     9
100
AcDbCircle
 10
-1006.941415445453
 20
-154.1002498144233
 30
0.0
 40
1.25
100
AcDbArc
 50
90.0
 51
180.0
  0
ARC
  5
33F
330
1F
100
AcDbEntity
  8
A-0
  6
Continuous
 62
     3
370
     9
100
AcDbCircle
 10
-1009.44143451894
 20
-154.7250376218879
 30
0.0
 40
1.25
100
AcDbArc
 50
270.0
 51
0.0
  0
ARC
  5
340
330
1F
100
AcDbEntity
  8
A-0
  6
Continuous
 62
     3
370
     9
100
AcDbCircle
 10
-1019.441472665912
 20
-140.3500197404945
 30
0.0
 40
1.25
100
AcDbArc
 50
270.0
 51
0.0
  0
ARC
  5
341
330
1F
100
AcDbEntity
  8
A-0
  6
Continuous
 62
     3
370
     9
100
AcDbCircle
 10
-1025.691415445453
 20
-142.8496573442543
 30
0.0
 40
1.25
100
AcDbArc
 50
90.0
 51
180.0
  0
ARC
  5
342
330
1F
100
AcDbEntity
  8
A-0
  6
Continuous
 62
     3
370
     9
100
AcDbCircle
 10
-1025.691415445453
 20
-151.9685564512336
 30
0.0
 40
1.25
100
AcDbArc
 50
180.0
 51
250.3461608886719
  0
ARC
  5
343
330
1F
100
AcDbEntity
  8
A-0
  6
Continuous
 62
     3
370
     9
100
AcDbCircle
 10
-1000.691339151508
 20
-142.4804769033516
 30
0.0
 40
1.25
100
AcDbArc
 50
0.0
 51
70.34616088867189
  0
LINE
  5
344
330
1F
100
AcDbEntity
  8
A-0
  6
Continuous
 62
     3
370
     9
100
AcDbLine
 10
-1143.191382711227
 20
-168.4744427655194
 30
0.0
 11
-883.1913909592208
 21
-168.4744427655194
 31
0.0
  0
LINE
  5
345
330
1F
100
AcDbEntity
  8
A-0
  6
Continuous
 62
     7
370
     9
100
AcDbLine
 10
-1218.191011551493
 20
217.7027027027029
 30
0.0
 11
-808.1917621189547
 21
217.7027027027029
 31
0.0
  0
LWPOLYLINE
  5
346
330
1F
100
AcDbEntity
  8
A-0
  6
Continuous
 62
     7
370
     9
100
AcDbPolyline
 90
        4
 70
     1
 43
2.0
 10
-1217.191011551493
 20
217.7027027027029
 42
0.4142135623731
 10
-1218.191011551493
 20
218.7027027027029
 42
0.4142135623731
 10
-1219.191011551493
 20
217.7027027027029
 42
0.4142135623731
 10
-1218.191011551493
 20
216.7027027027029
 42
0.4142135623731
  0
LWPOLYLINE
  5
347
330
1F
100
AcDbEntity
  8
A-0
  6
Continuous
 62
     7
370
     9
100
AcDbPolyline
 90
        4
 70
     1
 43
2.0
 10
-807.1917621189548
 20
217.7027027027029
 42
0.4142135623731
 10
-808.1917621189547
 20
218.7027027027029
 42
0.4142135623731
 10
-809.1917621189546
 20
217.7027027027029
 42
0.4142135623731
 10
-808.1917621189547
 20
216.7027027027029
 42
0.4142135623731
  0
LINE
  5
348
330
1F
100
AcDbEntity
  8
A-0
  6
Continuous
 62
     7
370
     9
100
AcDbLine
 10
-1218.191011551493
 20
220.7027027027029
 30
0.0
 11
-1218.191011551493
 21
-110.9745252454603
 31
0.0
  0
LINE
  5
349
330
1F
100
AcDbEntity
  8
A-0
  6
Continuous
 62
     7
370
     9
100
AcDbLine
 10
-808.1917621189547
 20
220.7027027027029
 30
0.0
 11
-808.1917621189547
 21
-110.9745252454603
 31
0.0
  0
TEXT
  5
34A
330
1F
100
AcDbEntity
  8
A-0
  6
Continuous
 62
     2
370
   211
100
AcDbText
 10
-1045.691386835224
 20
229.3427027027029
 30
0.0
 40
30.48
  1
164
 41
1.083333333333333
  7
ＭＳ ゴシック
100
AcDbText
  0
LINE
  5
34B
330
1F
100
AcDbEntity
  8
A-0
  6
Continuous
 62
     7
370
     9
100
AcDbLine
 10
-808.1917621189547
 20
105.8796980574326
 30
0.0
 11
-863.1915105551349
 21
105.8796980574326
 31
0.0
  0
LWPOLYLINE
  5
34C
330
1F
100
AcDbEntity
  8
A-0
  6
Continuous
 62
     7
370
     9
100
AcDbPolyline
 90
        4
 70
     1
 43
2.0
 10
-807.1917621189548
 20
105.8796980574326
 42
0.4142135623731
 10
-808.1917621189547
 20
106.8796980574326
 42
0.4142135623731
 10
-809.1917621189546
 20
105.8796980574326
 42
0.4142135623731
 10
-808.1917621189547
 20
104.8796980574326
 42
0.4142135623731
  0
LWPOLYLINE
  5
34D
330
1F
100
AcDbEntity
  8
A-0
  6
Continuous
 62
     7
370
     9
100
AcDbPolyline
 90
        4
 70
     1
 43
2.0
 10
-862.191510555135
 20
105.8796980574326
 42
0.4142135623731
 10
-863.1915105551349
 20
106.8796980574326
 42
0.4142135623731
 10
-864.1915105551348
 20
105.8796980574326
 42
0.4142135623731
 10
-863.1915105551349
 20
104.8796980574326
 42
0.4142135623731
  0
TEXT
  5
34E
330
1F
100
AcDbEntity
  8
A-0
  6
Continuous
 62
     2
370
   211
100
AcDbText
 10
-856.9416363370448
 20
117.5196980574326
 30
0.0
 40
30.48
  1
22
 41
1.0625
  7
ＭＳ ゴシック
100
AcDbText
  0
LINE
  5
34F
330
1F
100
AcDbEntity
  8
A-0
  6
Continuous
 62
     7
370
     9
100
AcDbLine
 10
-863.1915105551349
 20
105.8796980574326
 30
0.0
 11
-1163.191386835224
 21
105.8796980574326
 31
0.0
  0
LWPOLYLINE
  5
350
330
1F
100
AcDbEntity
  8
A-0
  6
Continuous
 62
     7
370
     9
100
AcDbPolyline
 90
        4
 70
     1
 43
2.0
 10
-1162.191386835224
 20
105.8796980574326
 42
0.4142135623731
 10
-1163.191386835224
 20
106.8796980574326
 42
0.4142135623731
 10
-1164.191386835224
 20
105.8796980574326
 42
0.4142135623731
 10
-1163.191386835224
 20
104.8796980574326
 42
0.4142135623731
  0
TEXT
  5
351
330
1F
100
AcDbEntity
  8
A-0
  6
Continuous
 62
     2
370
   211
100
AcDbText
 10
-1045.691448695179
 20
117.5196980574326
 30
0.0
 40
30.48
  1
120
 41
1.083333333333333
  7
ＭＳ ゴシック
100
AcDbText
  0
LINE
  5
352
330
1F
100
AcDbEntity
  8
A-0
  6
Continuous
 62
     7
370
     9
100
AcDbLine
 10
-1163.191386835224
 20
105.8796980574326
 30
0.0
 11
-1218.191011551493
 21
105.8796980574326
 31
0.0
  0
LWPOLYLINE
  5
353
330
1F
100
AcDbEntity
  8
A-0
  6
Continuous
 62
     7
370
     9
100
AcDbPolyline
 90
        4
 70
     1
 43
2.0
 10
-1217.191011551493
 20
105.8796980574326
 42
0.4142135623731
 10
-1218.191011551493
 20
106.8796980574326
 42
0.4142135623731
 10
-1219.191011551493
 20
105.8796980574326
 42
0.4142135623731
 10
-1218.191011551493
 20
104.8796980574326
 42
0.4142135623731
  0
TEXT
  5
354
330
1F
100
AcDbEntity
  8
A-0
  6
Continuous
 62
     2
370
   211
100
AcDbText
 10
-1211.941199193358
 20
117.5196980574326
 30
0.0
 40
30.48
  1
22
 41
1.0625
  7
ＭＳ ゴシック
100
AcDbText
  0
LINE
  5
355
330
1F
100
AcDbEntity
  8
A-0
  6
Continuous
 62
     7
370
     9
100
AcDbLine
 10
-863.1915105551349
 20
1.194342535895316
 30
0.0
 11
-875.69148993515
 21
1.194342535895316
 31
0.0
  0
LWPOLYLINE
  5
356
330
1F
100
AcDbEntity
  8
A-0
  6
Continuous
 62
     7
370
     9
100
AcDbPolyline
 90
        4
 70
     1
 43
2.0
 10
-862.191510555135
 20
1.194342535895316
 42
0.4142135623731
 10
-863.1915105551349
 20
2.194342535895316
 42
0.4142135623731
 10
-864.1915105551348
 20
1.194342535895316
 42
0.4142135623731
 10
-863.1915105551349
 20
0.1943425358953163
 42
0.4142135623731
  0
LWPOLYLINE
  5
357
330
1F
100
AcDbEntity
  8
A-0
  6
Continuous
 62
     7
370
     9
100
AcDbPolyline
 90
        4
 70
     1
 43
2.0
 10
-874.69148993515
 20
1.194342535895316
 42
0.4142135623731
 10
-875.69148993515
 20
2.194342535895316
 42
0.4142135623731
 10
-876.69148993515
 20
1.194342535895316
 42
0.4142135623731
 10
-875.69148993515
 20
0.1943425358953163
 42
0.4142135623731
  0
LINE
  5
358
330
1F
100
AcDbEntity
  8
A-0
  6
Continuous
 62
     7
370
     9
100
AcDbLine
 10
-875.69148993515
 20
1.194342535895316
 30
0.0
 11
-1150.691283735298
 21
1.194342535895316
 31
0.0
  0
LWPOLYLINE
  5
359
330
1F
100
AcDbEntity
  8
A-0
  6
Continuous
 62
     7
370
     9
100
AcDbPolyline
 90
        4
 70
     1
 43
2.0
 10
-1149.691283735298
 20
1.194342535895316
 42
0.4142135623731
 10
-1150.691283735298
 20
2.194342535895316
 42
0.4142135623731
 10
-1151.691283735298
 20
1.194342535895316
 42
0.4142135623731
 10
-1150.691283735298
 20
0.1943425358953163
 42
0.4142135623731
  0
TEXT
  5
35A
330
1F
100
AcDbEntity
  8
A-0
  6
Continuous
 62
     2
370
   211
100
AcDbText
 10
-1045.691386835224
 20
12.83434253589532
 30
0.0
 40
30.48
  1
110
 41
1.083333333333333
  7
ＭＳ ゴシック
100
AcDbText
  0
LINE
  5
35B
330
1F
100
AcDbEntity
  8
A-0
  6
Continuous
 62
     7
370
     9
100
AcDbLine
 10
-1150.691283735298
 20
1.194342535895316
 30
0.0
 11
-1163.191386835224
 21
1.194342535895316
 31
0.0
  0
LWPOLYLINE
  5
35C
330
1F
100
AcDbEntity
  8
A-0
  6
Continuous
 62
     7
370
     9
100
AcDbPolyline
 90
        4
 70
     1
 43
2.0
 10
-1162.191386835224
 20
1.194342535895316
 42
0.4142135623731
 10
-1163.191386835224
 20
2.194342535895316
 42
0.4142135623731
 10
-1164.191386835224
 20
1.194342535895316
 42
0.4142135623731
 10
-1163.191386835224
 20
0.1943425358953163
 42
0.4142135623731
  0
TEXT
  5
35D
330
1F
100
AcDbEntity
  8
A-0
  6
Continuous
 62
     2
370
   211
100
AcDbText
 10
-1155.535207449756
 20
12.83434253589532
 30
0.0
 40
30.48
  1
5
 41
0.9999999999999998
  7
ＭＳ ゴシック
100
AcDbText
  0
TEXT
  5
35E
330
1F
100
AcDbEntity
  8
A-0
  6
Continuous
 62
     2
370
   211
100
AcDbText
 10
-890.3201236586341
 20
12.83434253589532
 30
0.0
 40
30.48
  1
5
 41
0.9999999999999998
  7
ＭＳ ゴシック
100
AcDbText
  0
LINE
  5
35F
330
1F
100
AcDbEntity
  8
A-0
  6
Continuous
 62
     7
370
     9
100
AcDbLine
 10
-863.1915105551349
 20
108.8796980574326
 30
0.0
 11
-863.1915105551349
 21
-110.9745252454603
 31
0.0
  0
LINE
  5
360
330
1F
100
AcDbEntity
  8
A-0
  6
Continuous
 62
     7
370
     9
100
AcDbLine
 10
-875.69148993515
 20
4.194342535895316
 30
0.0
 11
-875.69148993515
 21
-110.9745252454603
 31
0.0
  0
LINE
  5
361
330
1F
100
AcDbEntity
  8
A-0
  6
Continuous
 62
     7
370
     9
100
AcDbLine
 10
-1163.191386835224
 20
108.8796980574326
 30
0.0
 11
-1163.191386835224
 21
-110.9745252454603
 31
0.0
  0
LINE
  5
362
330
1F
100
AcDbEntity
  8
A-0
  6
Continuous
 62
     7
370
     9
100
AcDbLine
 10
-1150.691283735298
 20
4.194342535895316
 30
0.0
 11
-1150.691283735298
 21
-110.9745252454603
 31
0.0
  0
LINE
  5
363
330
1F
100
AcDbEntity
  8
A-0
  6
Continuous
 62
     7
370
     9
100
AcDbLine
 10
-863.1913249752694
 20
-130.9745252454603
 30
0.0
 11
-847.9722912442713
 21
-111.1407388223183
 31
0.0
  0
LINE
  5
364
330
1F
100
AcDbEntity
  8
A-0
  6
Continuous
 62
     7
370
     9
100
AcDbLine
 10
-863.1913249752694
 20
-130.9745252454603
 30
0.0
 11
-843.3572911123048
 21
-115.7554915144636
 31
0.0
  0
LINE
  5
365
330
1F
100
AcDbEntity
  8
A-0
  6
Continuous
 62
     7
370
     9
100
AcDbLine
 10
-863.1913249752694
 20
-130.9745252454603
 30
0.0
 11
-688.7242278732839
 21
43.49257185652466
 31
0.0
  0
TEXT
  5
366
330
1F
100
AcDbEntity
  8
A-0
  6
Continuous
 62
     7
370
     9
100
AcDbText
 10
-686.3179993180694
 20
125.3490218538852
 30
0.0
 40
22.86
  1
滑り止め模様付歩道Ｕ字溝用
 41
1.153846153846155
  7
ＭＳ ゴシック
100
AcDbText
  0
LINE
  5
367
330
1F
100
AcDbEntity
  8
A-0
  6
Continuous
 62
     7
370
     9
100
AcDbLine
 10
-688.7242278732839
 20
43.49257185652466
 30
0.0
 11
-201.8401868183685
 21
43.49257185652466
 31
0.0
  0
TEXT
  5
368
330
1F
100
AcDbEntity
  8
A-0
  6
Continuous
 62
     7
370
     9
100
AcDbText
 10
-686.317264223294
 20
87.88118903082345
 30
0.0
 40
22.86
  1
ステンレス製グレーチング
 50
0.000153729295388
 41
1.152777777777775
  7
ＭＳ ゴシック
100
AcDbText
  0
TEXT
  5
369
330
1F
100
AcDbEntity
  8
A-0
  6
Continuous
 62
     7
370
     9
100
AcDbText
 10
-686.3172663017945
 20
51.24351681270119
 30
0.0
 40
22.86
  1
ＳＭＱＨＵ(h=15)ピッチ＝１３
 50
0.0001260200668111
 41
1.154761904761909
  7
ＭＳ ゴシック
100
AcDbText
  0
LINE
  5
36A
330
1F
100
AcDbEntity
  8
A-0
  6
Continuous
 62
     7
370
     9
100
AcDbLine
 10
-1299.945159880119
 20
-680.012416742567
 30
0.0
 11
-1299.945159880119
 21
-615.0128208942766
 31
0.0
  0
LINE
  5
36B
330
1F
100
AcDbEntity
  8
A-0
  6
Continuous
 62
     7
370
     9
100
AcDbLine
 10
-1299.945159880119
 20
-615.0128208942766
 30
0.0
 11
-724.945242360061
 21
-615.0128208942766
 31
0.0
  0
LINE
  5
36C
330
1F
100
AcDbEntity
  8
A-0
  6
Continuous
 62
     7
370
     9
100
AcDbLine
 10
-724.945242360061
 20
-615.0128208942766
 30
0.0
 11
-724.945242360061
 21
-680.012416742567
 31
0.0
  0
LINE
  5
36D
330
1F
100
AcDbEntity
  8
A-0
  6
Continuous
 62
     7
370
     9
100
AcDbLine
 10
-724.945242360061
 20
-680.012416742567
 30
0.0
 11
-1299.945159880119
 21
-680.012416742567
 31
0.0
  0
TEXT
  5
36E
330
1F
100
AcDbEntity
  8
A-0
  6
Continuous
 62
     2
370
     9
100
AcDbText
 10
-1261.175975045871
 20
-661.8727466623303
 30
0.0
 40
30.48
  1
断面詳細図　Ｓ＝１：４
 41
1.113636363636364
  7
ＭＳ ゴシック
100
AcDbText
  0
LINE
  5
36F
330
1F
100
AcDbEntity
  8
A-0
  6
Continuous
 62
     6
370
     5
100
AcDbLine
 10
-1225.691500245143
 20
-295.1162062673587
 30
0.0
 11
-1159.425764889776
 21
-228.8505316749154
 31
0.0
  0
LINE
  5
370
330
1F
100
AcDbEntity
  8
A-0
  6
Continuous
 62
     6
370
     5
100
AcDbLine
 10
-1225.691500245143
 20
-288.0453259545386
 30
0.0
 11
-1159.708604592695
 21
-222.0623088558519
 31
0.0
  0
LINE
  5
371
330
1F
100
AcDbEntity
  8
A-0
  6
Continuous
 62
     6
370
     5
100
AcDbLine
 10
-1225.691500245143
 20
-280.9742699400606
 30
0.0
 11
-1159.99143432293
 21
-215.2743253836937
 31
0.0
  0
LINE
  5
372
330
1F
100
AcDbEntity
  8
A-0
  6
Continuous
 62
     6
370
     5
100
AcDbLine
 10
-1222.432773973783
 20
-466.7333876548756
 30
0.0
 11
-1147.993267479184
 21
-392.2939494182078
 31
0.0
  0
LINE
  5
373
330
1F
100
AcDbEntity
  8
A-0
  6
Continuous
 62
     6
370
     5
100
AcDbLine
 10
-1225.691500245143
 20
-462.9217128512843
 30
0.0
 11
-1149.917343006446
 21
-387.1474161448313
 31
0.0
  0
LINE
  5
374
330
1F
100
AcDbEntity
  8
A-0
  6
Continuous
 62
     6
370
     5
100
AcDbLine
 10
-1225.691500245143
 20
-455.8500119213637
 30
0.0
 11
-1151.510874484748
 21
-381.6695231927102
 31
0.0
  0
LINE
  5
375
330
1F
100
AcDbEntity
  8
A-0
  6
Continuous
 62
     6
370
     5
100
AcDbLine
 10
-1094.298037863277
 20
-513.474673709354
 30
0.0
 11
-1019.297845371308
 21
-438.4745499894426
 31
0.0
  0
LINE
  5
376
330
1F
100
AcDbEntity
  8
A-0
  6
Continuous
 62
     6
370
     5
100
AcDbLine
 10
-1101.368303032204
 20
-513.474673709354
 30
0.0
 11
-1026.368317355131
 21
-438.4745499894426
 31
0.0
  0
LINE
  5
377
330
1F
100
AcDbEntity
  8
A-0
  6
Continuous
 62
     6
370
     5
100
AcDbLine
 10
-1108.440203456875
 20
-513.474673709354
 30
0.0
 11
-1033.439941191131
 21
-438.4745499894426
 31
0.0
  0
LINE
  5
378
330
1F
100
AcDbEntity
  8
A-0
  6
Continuous
 62
     6
370
     5
100
AcDbLine
 10
-869.4477114355738
 20
-288.6245534600491
 30
0.0
 11
-800.6913662152385
 21
-219.8682712864232
 31
0.0
  0
LINE
  5
379
330
1F
100
AcDbEntity
  8
A-0
  6
Continuous
 62
     6
370
     5
100
AcDbLine
 10
-869.1402833156047
 20
-281.2462265604733
 30
0.0
 11
-800.6913662152385
 21
-212.7971834749789
 31
0.0
  0
LINE
  5
37A
330
1F
100
AcDbEntity
  8
A-0
  6
Continuous
 62
     6
370
     5
100
AcDbLine
 10
-868.8328494742439
 20
-273.8677623465115
 30
0.0
 11
-800.6913662152385
 21
-205.7264049633129
 31
0.0
  0
LINE
  5
37B
330
1F
100
AcDbEntity
  8
A-5
  6
Continuous
 62
     7
370
     9
100
AcDbLine
 10
225.0534470016893
 20
183.5501693728008
 30
0.0
 11
225.0534470016893
 21
233.5504580525938
 31
0.0
  0
LINE
  5
37C
330
1F
100
AcDbEntity
  8
A-5
  6
Continuous
 62
     7
370
     9
100
AcDbLine
 10
225.0534470016893
 20
233.5504580525938
 30
0.0
 11
450.0534470016893
 21
233.5504580525938
 31
0.0
  0
LINE
  5
37D
330
1F
100
AcDbEntity
  8
A-5
  6
Continuous
 62
     7
370
     9
100
AcDbLine
 10
450.0534470016893
 20
233.5504580525938
 30
0.0
 11
450.0534470016893
 21
183.5501693728008
 31
0.0
  0
LINE
  5
37E
330
1F
100
AcDbEntity
  8
A-5
  6
Continuous
 62
     7
370
     9
100
AcDbLine
 10
450.0534470016893
 20
183.5501693728008
 30
0.0
 11
225.0534470016893
 21
183.5501693728008
 31
0.0
  0
TEXT
  5
37F
330
1F
100
AcDbEntity
  8
A-5
  6
Continuous
 62
     2
370
     0
100
AcDbText
 10
267.5972273543076
 20
191.6244823478852
 30
0.0
 40
30.48
  1
仕　様
 41
1.083333333333333
  7
ＭＳ ゴシック
100
AcDbText
  0
TEXT
  5
380
330
1F
100
AcDbEntity
  8
A-5
  6
Continuous
 62
     2
370
     0
100
AcDbText
 10
386.8558234137461
 20
-88.73114641320008
 30
0.0
 40
30.48
  1
　　　受けつば　　Ｌ３０×３０×３（ＳＵＳ３０４）
 41
1.12
  7
ＭＳ ゴシック
100
AcDbText
  0
TEXT
  5
381
330
1F
100
AcDbEntity
  8
A-5
  6
Continuous
 62
     2
370
     0
100
AcDbText
 10
386.8551553262249
 20
-143.7315134489371
 30
0.0
 40
30.48
  1
定尺：９９２
 41
1.104166666666667
  7
ＭＳ ゴシック
100
AcDbText
  0
TEXT
  5
382
330
1F
100
AcDbEntity
  8
A-5
  6
Continuous
 62
     2
370
     0
100
AcDbText
 10
386.8557986697638
 20
21.26921649853976
 30
0.0
 40
30.48
  1
材質：メインバー　ＦＢ４×１５（ＳＵＳ３０４）
 41
1.119565217391304
  7
ＭＳ ゴシック
100
AcDbText
  0
TEXT
  5
383
330
1F
100
AcDbEntity
  8
A-5
  6
Continuous
 62
     2
370
     0
100
AcDbText
 10
386.8557986697638
 20
-33.7315835568868
 30
0.0
 40
30.48
  1
　　　クロスバー　ＦＢ３×１０（ＳＵＳ３０４）
 41
1.119565217391304
  7
ＭＳ ゴシック
100
AcDbText
  0
TEXT
  5
384
330
1F
100
AcDbEntity
  8
A-5
  6
Continuous
 62
     2
370
     0
100
AcDbText
 10
327.1431257918076
 20
131.2698268501023
 30
0.0
 40
30.48
  1
滑り止め模様付　歩道Ｕ字溝用ステンレス製グレーチング
 41
1.120192307692307
  7
ＭＳ ゴシック
100
AcDbText
  0
TEXT
  5
385
330
1F
100
AcDbEntity
  8
A-5
  6
Continuous
 62
     7
370
     9
100
AcDbText
 10
282.5534470016893
 20
-328.2574080663742
 30
0.0
 40
30.48
  1
強　度
 41
0.8749999999999999
  7
ＭＳ ゴシック
100
AcDbText
  0
TEXT
  5
386
330
1F
100
AcDbEntity
  8
A-5
  6
Continuous
 62
     7
370
     9
100
AcDbText
 10
492.5534470016893
 20
-328.2574080663742
 30
0.0
 40
30.48
  1
歩行用
 41
0.8749999999999999
  7
ＭＳ ゴシック
100
AcDbText
  0
TEXT
  5
387
330
1F
100
AcDbEntity
  8
A-5
  6
Continuous
 62
     7
370
     9
100
AcDbText
 10
247.5534470016893
 20
-378.2574080663742
 30
0.0
 40
30.48
  1
等分布荷重
 41
0.8749999999999999
  7
ＭＳ ゴシック
100
AcDbText
  0
TEXT
  5
388
330
1F
100
AcDbEntity
  8
A-5
  6
Continuous
 62
     7
370
     9
100
AcDbText
 10
475.0534470016893
 20
-378.2574080663742
 30
0.0
 40
30.48
  1
5.0kN/㎡
 41
0.8749999999999999
  7
ＭＳ ゴシック
100
AcDbText
  0
TEXT
  5
389
330
1F
100
AcDbEntity
  8
A-5
  6
Continuous
 62
     7
370
     9
100
AcDbText
 10
265.0534470016893
 20
-428.2574080663742
 30
0.0
 40
30.48
  1
衝撃係数
 41
0.8749999999999999
  7
ＭＳ ゴシック
100
AcDbText
  0
TEXT
  5
38A
330
1F
100
AcDbEntity
  8
A-5
  6
Continuous
 62
     7
370
     9
100
AcDbText
 10
536.3034470016894
 20
-428.2574080663742
 30
0.0
 40
30.48
  1
0
 41
0.8749999999999999
  7
ＭＳ ゴシック
100
AcDbText
  0
LINE
  5
38B
330
1F
100
AcDbEntity
  8
A-4
  6
Continuous
 62
     2
370
     9
100
AcDbLine
 10
225.0534470016893
 20
-826.4999721689383
 30
0.0
 11
225.0534470016893
 21
-526.8340183354242
 31
0.0
  0
LINE
  5
38C
330
1F
100
AcDbEntity
  8
A-4
  6
Continuous
 62
     2
370
     9
100
AcDbLine
 10
225.0534470016893
 20
-289.8974080663743
 30
0.0
 11
645.0534470016894
 21
-289.8974080663743
 31
0.0
  0
LINE
  5
38D
330
1F
100
AcDbEntity
  8
A-4
  6
Continuous
 62
     2
370
     9
100
AcDbLine
 10
225.0534470016893
 20
-389.8974080663743
 30
0.0
 11
645.0534470016894
 21
-389.8974080663743
 31
0.0
  0
LINE
  5
38E
330
1F
100
AcDbEntity
  8
A-4
  6
Continuous
 62
     2
370
     9
100
AcDbLine
 10
225.0534470016893
 20
-339.8974080663743
 30
0.0
 11
645.0534470016894
 21
-339.8974080663743
 31
0.0
  0
LINE
  5
38F
330
1F
100
AcDbEntity
  8
A-4
  6
Continuous
 62
     2
370
     9
100
AcDbLine
 10
645.0534470016894
 20
-289.8974080663743
 30
0.0
 11
645.0534470016894
 21
-439.8974080663743
 31
0.0
  0
LINE
  5
390
330
1F
100
AcDbEntity
  8
A-4
  6
Continuous
 62
     2
370
     9
100
AcDbLine
 10
225.0534470016893
 20
-439.8974080663743
 30
0.0
 11
645.0534470016894
 21
-439.8974080663743
 31
0.0
  0
LINE
  5
391
330
1F
100
AcDbEntity
  8
A-4
  6
Continuous
 62
     2
370
     9
100
AcDbLine
 10
225.0534470016893
 20
-289.8974080663743
 30
0.0
 11
225.0534470016893
 21
-439.8974080663743
 31
0.0
  0
LINE
  5
392
330
1F
100
AcDbEntity
  8
A-4
  6
Continuous
 62
     2
370
     9
100
AcDbLine
 10
445.0534470016893
 20
-289.8974080663743
 30
0.0
 11
445.0534470016893
 21
-439.8974080663743
 31
0.0
  0
LINE
  5
393
330
1F
100
AcDbEntity
  8
A-4
  6
Continuous
 62
     2
370
     9
100
AcDbLine
 10
225.0534470016893
 20
-526.8340183354242
 30
0.0
 11
1688.491008620541
 21
-526.8340183354242
 31
0.0
  0
LINE
  5
394
330
1F
100
AcDbEntity
  8
A-4
  6
Continuous
 62
     2
370
     9
100
AcDbLine
 10
1688.491008620541
 20
-526.8340183354242
 30
0.0
 11
1688.491008620541
 21
-826.4999721689383
 31
0.0
  0
LINE
  5
395
330
1F
100
AcDbEntity
  8
A-4
  6
Continuous
 62
     2
370
     9
100
AcDbLine
 10
1688.491008620541
 20
-826.4999721689383
 30
0.0
 11
225.0534470016893
 21
-826.4999721689383
 31
0.0
  0
TEXT
  5
396
330
1F
100
AcDbEntity
  8
A-5
  6
Continuous
 62
     2
370
     9
100
AcDbText
 10
386.8551553262249
 20
-198.7323135043636
 30
0.0
 40
30.48
  1
質量：６．６ｋｇ／枚
 41
1.1125
  7
ＭＳ ゴシック
100
AcDbText
  0
TEXT
  5
397
330
1F
100
AcDbEntity
  8
A-5
  6
Continuous
 62
     7
370
     9
100
AcDbText
 10
224.1707939404648
 20
-509.0622156143357
 30
0.0
 40
30.48
  1
設置場所について
 41
0.8749999999999999
  7
ＭＳ ゴシック
100
AcDbText
  0
TEXT
  5
398
330
1F
100
AcDbEntity
  8
A-5
  6
Continuous
 62
     7
370
     9
100
AcDbText
 10
258.0024265935268
 20
-681.9631052886949
 30
0.0
 40
30.48
  1
建物内、建物敷地内などで、車の乗り入れの無い場所でお使いいただけます。
 41
0.8749999999999999
  7
ＭＳ ゴシック
100
AcDbText
  0
LINE
  5
399
330
1F
100
AcDbEntity
  8
A-0
  6
Continuous
 62
     7
370
     9
100
AcDbLine
 10
-1043.461625028134
 20
-130.9745252454603
 30
0.0
 11
-1043.461625028134
 21
-168.4744427655194
 31
0.0
  0
LWPOLYLINE
  5
39A
330
1F
100
AcDbEntity
  8
A-0
  6
Continuous
 62
     7
370
     9
100
AcDbPolyline
 90
        4
 70
     1
 43
2.0
 10
-1042.461625028134
 20
-130.9745252454603
 42
0.4142135623731
 10
-1043.461625028134
 20
-129.9745252454603
 42
0.4142135623731
 10
-1044.461625028134
 20
-130.9745252454603
 42
0.4142135623731
 10
-1043.461625028134
 20
-131.9745252454603
 42
0.4142135623731
  0
LWPOLYLINE
  5
39B
330
1F
100
AcDbEntity
  8
A-0
  6
Continuous
 62
     7
370
     9
100
AcDbPolyline
 90
        4
 70
     1
 43
2.0
 10
-1042.461625028134
 20
-168.4744427655194
 42
0.4142135623731
 10
-1043.461625028134
 20
-167.4744427655194
 42
0.4142135623731
 10
-1044.461625028134
 20
-168.4744427655194
 42
0.4142135623731
 10
-1043.461625028134
 20
-169.4744427655194
 42
0.4142135623731
  0
TEXT
  5
39C
330
1F
100
AcDbEntity
  8
A-0
  6
Continuous
 62
     2
370
   211
100
AcDbText
 10
-1055.101625028135
 20
-219.0837404100777
 30
0.0
 40
30.48
  1
15
 50
90.0
 41
1.0625
  7
ＭＳ ゴシック
100
AcDbText
  0
LINE
  5
39D
330
1F
100
AcDbEntity
  8
A-0
  6
Continuous
 62
     7
370
     9
100
AcDbLine
 10
-1043.461625028134
 20
-168.4744427655194
 30
0.0
 11
-1043.461625028134
 21
-222.9796906216743
 31
0.0
  0
TEXT
  5
39E
330
1F
100
AcDbEntity
  8
A-5
  6
Continuous
 62
     2
370
     0
100
AcDbText
 10
327.1431257918076
 20
76.26915051458705
 30
0.0
 40
30.48
  1
ＳＭＱＨＵ　１２１５　Ｐ＝１３（すきま９mm）
 41
1.119318181818182
  7
ＭＳ ゴシック
100
AcDbText
  0
TEXT
  5
39F
330
1F
100
AcDbEntity
  8
F-5
  6
Continuous
 62
     2
370
     9
100
AcDbText
 10
-164.5140478668054
 20
-1370.86711064863
 30
0.0
 40
30.48
  1
ＳＭＱＨＵ　１２１５　Ｐ＝１３
 41
0.8983333333333332
  7
ＭＳ ゴシック
100
AcDbText
  0
LINE
  5
3A0
330
1F
100
AcDbEntity
  8
C-5
  6
Continuous
 62
     7
370
     9
100
AcDbLine
 10
807.6725315403297
 20
826.9057320259714
 30
0.0
 11
1054.746786581504
 21
826.9057320259714
 31
0.0
  0
ENDSEC
  0
SECTION
  2
OBJECTS
  0
DICTIONARY
  5
C
330
0
100
AcDbDictionary
281
     1
  3
ACAD_DETAILVIEWSTYLE
350
3E6
  3
ACAD_GROUP
350
D
  3
ACAD_LAYOUT
350
1A
  3
ACAD_MATERIAL
350
43
  3
ACAD_MLEADERSTYLE
350
6B
  3
ACAD_MLINESTYLE
350
17
  3
ACAD_PLOTSETTINGS
350
19
  3
ACAD_PLOTSTYLENAME
350
E
  3
ACAD_SCALELIST
350
47
  3
ACAD_SECTIONVIEWSTYLE
350
3E7
  3
ACAD_TABLESTYLE
350
69
  3
ACAD_VISUALSTYLE
350
2A
  3
ACDB_RECOMPOSE_DATA
350
3E3
  3
AcDbVariableDictionary
350
3A3
  0
DICTIONARY
  5
3A1
330
8
100
AcDbDictionary
280
     1
281
     1
  3
ACAD_XREC_ROUNDTRIP
360
3A2
  0
DICTIONARY
  5
3E6
102
{ACAD_REACTORS
330
C
102
}
330
C
100
AcDbDictionary
281
     1
  0
DICTIONARY
  5
D
102
{ACAD_REACTORS
330
C
102
}
330
C
100
AcDbDictionary
281
     1
  0
DICTIONARY
  5
1A
102
{ACAD_REACTORS
330
C
102
}
330
C
100
AcDbDictionary
281
     1
  3
Layout1
350
1E
  3
Layout2
350
26
  3
Model
350
22
  0
DICTIONARY
  5
43
102
{ACAD_REACTORS
330
C
102
}
330
C
100
AcDbDictionary
281
     1
  3
ByBlock
350
45
  3
ByLayer
350
44
  3
Global
350
46
  0
DICTIONARY
  5
6B
102
{ACAD_REACTORS
330
C
102
}
330
C
100
AcDbDictionary
281
     1
  3
Standard
350
6C
  0
DICTIONARY
  5
17
102
{ACAD_REACTORS
330
C
102
}
330
C
100
AcDbDictionary
281
     1
  3
Standard
350
18
  0
DICTIONARY
  5
19
102
{ACAD_REACTORS
330
C
102
}
330
C
100
AcDbDictionary
281
     1
  0
ACDBDICTIONARYWDFLT
  5
E
102
{ACAD_REACTORS
330
C
102
}
330
C
100
AcDbDictionary
281
     1
  3
Normal
350
F
100
AcDbDictionaryWithDefault
340
F
  0
DICTIONARY
  5
47
102
{ACAD_REACTORS
330
C
102
}
330
C
100
AcDbDictionary
281
     1
  3
A0
350
48
  3
A1
350
49
  3
A2
350
4A
  3
A3
350
4B
  3
A4
350
4C
  3
A5
350
4D
  3
A6
350
4E
  3
A7
350
4F
  3
A8
350
50
  3
A9
350
51
  3
B0
350
52
  3
B1
350
53
  3
B2
350
54
  3
B3
350
55
  3
B4
350
56
  3
B5
350
57
  3
B6
350
58
  3
B7
350
59
  3
B8
350
5A
  3
B9
350
5B
  3
C0
350
5C
  3
C1
350
5D
  3
C2
350
5E
  3
C3
350
5F
  3
C4
350
60
  3
C5
350
61
  3
C6
350
62
  3
C7
350
63
  3
C8
350
64
  3
C9
350
65
  3
D0
350
66
  3
D1
350
67
  3
D2
350
68
  0
DICTIONARY
  5
3E7
102
{ACAD_REACTORS
330
C
102
}
330
C
100
AcDbDictionary
281
     1
  0
DICTIONARY
  5
69
102
{ACAD_REACTORS
330
C
102
}
330
C
100
AcDbDictionary
281
     1
  3
Standard
350
6A
  0
DICTIONARY
  5
2A
102
{ACAD_REACTORS
330
C
102
}
330
C
100
AcDbDictionary
281
     1
  3
2dWireframe
350
2F
  3
Basic
350
32
  3
Brighten
350
36
  3
ColorChange
350
3A
  3
Conceptual
350
34
  3
Dim
350
35
  3
EdgeColorOff
350
3D
  3
Facepattern
350
39
  3
Flat
350
2B
  3
FlatWithEdges
350
2C
  3
Gouraud
350
2D
  3
GouraudWithEdges
350
2E
  3
Hidden
350
31
  3
JitterOff
350
3B
  3
Linepattern
350
38
  3
OverhangOff
350
3C
  3
Realistic
350
33
  3
Shaded
350
42
  3
Shaded with edges
350
41
  3
Shades of Gray
350
3E
  3
Sketchy
350
3F
  3
Thicken
350
37
  3
Wireframe
350
30
  3
X-Ray
350
40
  0
XRECORD
  5
3E3
102
{ACAD_REACTORS
330
C
102
}
330
C
100
AcDbXrecord
280
     1
 90
        1
330
6A
  0
DICTIONARY
  5
3A3
102
{ACAD_REACTORS
330
C
102
}
330
C
100
AcDbDictionary
281
     1
  3
CANNOSCALE
350
3A4
  3
CENTEREXE
350
3E8
  3
CENTERLTYPEFILE
350
3E9
  3
CMLEADERSTYLE
350
3E5
  3
CTABLESTYLE
350
3E4
  3
MSLTSCALE
350
3A5
  3
XCLIPFRAME
350
3A6
  0
XRECORD
  5
3A2
102
{ACAD_REACTORS
330
3A1
102
}
330
3A1
100
AcDbXrecord
280
     1
102
VTR_0.000_0.000_1.000_1.000_VISUALSTYLE
340
2F
102
VTR_0.000_0.000_1.000_1.000_GRIDDISPLAY
 70
     3
102
VTR_0.000_0.000_1.000_1.000_GRIDMAJOR
 70
     5
102
VTR_0.000_0.000_1.000_1.000_DEFAULTLIGHTING
280
     1
102
VTR_0.000_0.000_1.000_1.000_DEFAULTLIGHTINGTYPE
 70
     1
102
VTR_0.000_0.000_1.000_1.000_BRIGHTNESS
141
0.0
102
VTR_0.000_0.000_1.000_1.000_CONTRAST
142
0.0
  0
LAYOUT
  5
1E
102
{ACAD_REACTORS
330
1A
102
}
330
1A
100
AcDbPlotSettings
  1

  2
none_device
  4

  6

 40
0.0
 41
0.0
 42
0.0
 43
0.0
 44
0.0
 45
0.0
 46
0.0
 47
0.0
 48
0.0
 49
0.0
140
0.0
141
0.0
142
1.0
143
1.0
 70
   688
 72
     1
 73
     0
 74
     5
  7

 75
    16
 76
     0
 77
     5
 78
   300
147
1.0
148
0.0
149
0.0
100
AcDbLayout
  1
Layout1
 70
     1
 71
     1
 10
0.0
 20
0.0
 11
420.0
 21
297.0
 12
0.0
 22
0.0
 32
0.0
 14
1.000000000000000E+20
 24
1.000000000000000E+20
 34
1.000000000000000E+20
 15
-1.000000000000000E+20
 25
-1.000000000000000E+20
 35
-1.000000000000000E+20
146
0.0
 13
0.0
 23
0.0
 33
0.0
 16
1.0
 26
0.0
 36
0.0
 17
0.0
 27
1.0
 37
0.0
 76
     0
330
1B
  0
LAYOUT
  5
26
102
{ACAD_REACTORS
330
1A
102
}
330
1A
100
AcDbPlotSettings
  1

  2
none_device
  4

  6

 40
0.0
 41
0.0
 42
0.0
 43
0.0
 44
0.0
 45
0.0
 46
0.0
 47
0.0
 48
0.0
 49
0.0
140
0.0
141
0.0
142
1.0
143
1.0
 70
   688
 72
     1
 73
     0
 74
     5
  7

 75
    16
 76
     0
 77
     5
 78
   300
147
1.0
148
0.0
149
0.0
100
AcDbLayout
  1
Layout2
 70
     1
 71
     2
 10
0.0
 20
0.0
 11
0.0
 21
0.0
 12
0.0
 22
0.0
 32
0.0
 14
0.0
 24
0.0
 34
0.0
 15
0.0
 25
0.0
 35
0.0
146
0.0
 13
0.0
 23
0.0
 33
0.0
 16
1.0
 26
0.0
 36
0.0
 17
0.0
 27
1.0
 37
0.0
 76
     0
330
23
  0
LAYOUT
  5
22
102
{ACAD_REACTORS
330
1A
102
}
330
1A
100
AcDbPlotSettings
  1

  2
none_device
  4
Letter_(8.50_x_11.00_Inches)
  6

 40
6.35
 41
6.35
 42
6.35000508
 43
6.35000508
 44
215.9
 45
279.4
 46
0.0
 47
0.0
 48
0.0
 49
0.0
140
0.0
141
0.0
142
1.0
143
1.0
 70
  1712
 72
     1
 73
     0
 74
     0
  7

 75
     0
 76
     0
 77
     5
 78
   300
147
1.0
148
0.0
149
0.0
100
AcDbLayout
  1
Model
 70
     1
 71
     0
 10
-2100.0
 20
-1485.0
 11
2100.0
 21
1485.0
 12
0.0
 22
0.0
 32
0.0
 14
-2100.0
 24
-1485.0
 34
0.0
 15
2100.0
 25
1485.0
 35
0.0
146
0.0
 13
0.0
 23
0.0
 33
0.0
 16
1.0
 26
0.0
 36
0.0
 17
0.0
 27
1.0
 37
0.0
 76
     0
330
1F
331
29
  0
MATERIAL
  5
45
102
{ACAD_REACTORS
330
43
102
}
102
{ACAD_XDICTIONARY
360
3D9
102
}
330
43
100
AcDbMaterial
  1
ByBlock
  0
MATERIAL
  5
44
102
{ACAD_REACTORS
330
43
102
}
102
{ACAD_XDICTIONARY
360
3D7
102
}
330
43
100
AcDbMaterial
  1
ByLayer
  0
MATERIAL
  5
46
102
{ACAD_REACTORS
330
43
102
}
102
{ACAD_XDICTIONARY
360
3DB
102
}
330
43
100
AcDbMaterial
  1
Global
  0
MLEADERSTYLE
  5
6C
102
{ACAD_REACTORS
330
6B
102
}
102
{ACAD_XDICTIONARY
360
3E1
102
}
330
6B
100
AcDbMLeaderStyle
170
     2
171
     1
172
     0
 90
        2
 40
0.0
 41
0.0
173
     1
 91
-1056964608
340
14
 92
       -2
290
     1
 42
2.0
291
     1
 43
8.0
  3
Standard
341
0
 44
4.0
300

342
11
174
     1
178
     6
175
     1
176
     0
 93
-1056964608
 45
4.0
292
     0
297
     0
 46
4.0
343
0
 94
-1056964608
 47
1.0
 49
1.0
140
1.0
293
     1
141
0.0
294
     1
177
     0
142
1.0
295
     0
296
     0
143
3.75
1001
ACAD_MLEADERVER
1070
     2
  0
MLINESTYLE
  5
18
102
{ACAD_REACTORS
330
17
102
}
330
17
100
AcDbMlineStyle
  2
Standard
 70
     0
  3

 62
   256
 51
90.0
 52
90.0
 71
     2
 49
0.5
 62
   256
  6
BYLAYER
 49
-0.5
 62
   256
  6
BYLAYER
  0
ACDBPLACEHOLDER
  5
F
102
{ACAD_REACTORS
330
E
102
}
330
E
  0
SCALE
  5
48
102
{ACAD_REACTORS
330
47
102
}
330
47
100
AcDbScale
 70
     0
300
1:1
140
1.0
141
1.0
290
     1
  0
SCALE
  5
49
102
{ACAD_REACTORS
330
47
102
}
330
47
100
AcDbScale
 70
     0
300
1:2
140
1.0
141
2.0
290
     0
  0
SCALE
  5
4A
102
{ACAD_REACTORS
330
47
102
}
330
47
100
AcDbScale
 70
     0
300
1:4
140
1.0
141
4.0
290
     0
  0
SCALE
  5
4B
102
{ACAD_REACTORS
330
47
102
}
330
47
100
AcDbScale
 70
     0
300
1:5
140
1.0
141
5.0
290
     0
  0
SCALE
  5
4C
102
{ACAD_REACTORS
330
47
102
}
330
47
100
AcDbScale
 70
     0
300
1:8
140
1.0
141
8.0
290
     0
  0
SCALE
  5
4D
102
{ACAD_REACTORS
330
47
102
}
330
47
100
AcDbScale
 70
     0
300
1:10
140
1.0
141
10.0
290
     0
  0
SCALE
  5
4E
102
{ACAD_REACTORS
330
47
102
}
330
47
100
AcDbScale
 70
     0
300
1:16
140
1.0
141
16.0
290
     0
  0
SCALE
  5
4F
102
{ACAD_REACTORS
330
47
102
}
330
47
100
AcDbScale
 70
     0
300
1:20
140
1.0
141
20.0
290
     0
  0
SCALE
  5
50
102
{ACAD_REACTORS
330
47
102
}
330
47
100
AcDbScale
 70
     0
300
1:30
140
1.0
141
30.0
290
     0
  0
SCALE
  5
51
102
{ACAD_REACTORS
330
47
102
}
330
47
100
AcDbScale
 70
     0
300
1:40
140
1.0
141
40.0
290
     0
  0
SCALE
  5
52
102
{ACAD_REACTORS
330
47
102
}
330
47
100
AcDbScale
 70
     0
300
1:50
140
1.0
141
50.0
290
     0
  0
SCALE
  5
53
102
{ACAD_REACTORS
330
47
102
}
330
47
100
AcDbScale
 70
     0
300
1:100
140
1.0
141
100.0
290
     0
  0
SCALE
  5
54
102
{ACAD_REACTORS
330
47
102
}
330
47
100
AcDbScale
 70
     0
300
2:1
140
2.0
141
1.0
290
     0
  0
SCALE
  5
55
102
{ACAD_REACTORS
330
47
102
}
330
47
100
AcDbScale
 70
     0
300
4:1
140
4.0
141
1.0
290
     0
  0
SCALE
  5
56
102
{ACAD_REACTORS
330
47
102
}
330
47
100
AcDbScale
 70
     0
300
8:1
140
8.0
141
1.0
290
     0
  0
SCALE
  5
57
102
{ACAD_REACTORS
330
47
102
}
330
47
100
AcDbScale
 70
     0
300
10:1
140
10.0
141
1.0
290
     0
  0
SCALE
  5
58
102
{ACAD_REACTORS
330
47
102
}
330
47
100
AcDbScale
 70
     0
300
100:1
140
100.0
141
1.0
290
     0
  0
SCALE
  5
59
102
{ACAD_REACTORS
330
47
102
}
330
47
100
AcDbScale
 70
     0
300
1/128" = 1'-0"
140
0.0078125
141
12.0
290
     0
  0
SCALE
  5
5A
102
{ACAD_REACTORS
330
47
102
}
330
47
100
AcDbScale
 70
     0
300
1/64" = 1'-0"
140
0.015625
141
12.0
290
     0
  0
SCALE
  5
5B
102
{ACAD_REACTORS
330
47
102
}
330
47
100
AcDbScale
 70
     0
300
1/32" = 1'-0"
140
0.03125
141
12.0
290
     0
  0
SCALE
  5
5C
102
{ACAD_REACTORS
330
47
102
}
330
47
100
AcDbScale
 70
     0
300
1/16" = 1'-0"
140
0.0625
141
12.0
290
     0
  0
SCALE
  5
5D
102
{ACAD_REACTORS
330
47
102
}
330
47
100
AcDbScale
 70
     0
300
3/32" = 1'-0"
140
0.09375
141
12.0
290
     0
  0
SCALE
  5
5E
102
{ACAD_REACTORS
330
47
102
}
330
47
100
AcDbScale
 70
     0
300
1/8" = 1'-0"
140
0.125
141
12.0
290
     0
  0
SCALE
  5
5F
102
{ACAD_REACTORS
330
47
102
}
330
47
100
AcDbScale
 70
     0
300
3/16" = 1'-0"
140
0.1875
141
12.0
290
     0
  0
SCALE
  5
60
102
{ACAD_REACTORS
330
47
102
}
330
47
100
AcDbScale
 70
     0
300
1/4" = 1'-0"
140
0.25
141
12.0
290
     0
  0
SCALE
  5
61
102
{ACAD_REACTORS
330
47
102
}
330
47
100
AcDbScale
 70
     0
300
3/8" = 1'-0"
140
0.375
141
12.0
290
     0
  0
SCALE
  5
62
102
{ACAD_REACTORS
330
47
102
}
330
47
100
AcDbScale
 70
     0
300
1/2" = 1'-0"
140
0.5
141
12.0
290
     0
  0
SCALE
  5
63
102
{ACAD_REACTORS
330
47
102
}
330
47
100
AcDbScale
 70
     0
300
3/4" = 1'-0"
140
0.75
141
12.0
290
     0
  0
SCALE
  5
64
102
{ACAD_REACTORS
330
47
102
}
330
47
100
AcDbScale
 70
     0
300
1" = 1'-0"
140
1.0
141
12.0
290
     0
  0
SCALE
  5
65
102
{ACAD_REACTORS
330
47
102
}
330
47
100
AcDbScale
 70
     0
300
1-1/2" = 1'-0"
140
1.5
141
12.0
290
     0
  0
SCALE
  5
66
102
{ACAD_REACTORS
330
47
102
}
330
47
100
AcDbScale
 70
     0
300
3" = 1'-0"
140
3.0
141
12.0
290
     0
  0
SCALE
  5
67
102
{ACAD_REACTORS
330
47
102
}
330
47
100
AcDbScale
 70
     0
300
6" = 1'-0"
140
6.0
141
12.0
290
     0
  0
SCALE
  5
68
102
{ACAD_REACTORS
330
47
102
}
330
47
100
AcDbScale
 70
     0
300
1'-0" = 1'-0"
140
12.0
141
12.0
290
     0
  0
TABLESTYLE
  5
6A
102
{ACAD_REACTORS
330
69
102
}
102
{ACAD_XDICTIONARY
360
3DD
102
}
330
69
100
AcDbTableStyle
  3
Standard
 70
     0
 71
     0
 40
0.06
 41
0.06
280
     0
281
     0
  7
Standard
140
4.5
170
     2
 62
     0
 63
   257
283
     0
274
    -2
284
     1
 64
     0
275
    -2
285
     1
 65
     0
276
    -2
286
     1
 66
     0
277
    -2
287
     1
 67
     0
278
    -2
288
     1
 68
     0
279
    -2
289
     1
 69
     0
  7
Standard
140
6.0
170
     5
 62
     0
 63
   257
283
     0
274
    -2
284
     1
 64
     0
275
    -2
285
     1
 65
     0
276
    -2
286
     1
 66
     0
277
    -2
287
     1
 67
     0
278
    -2
288
     1
 68
     0
279
    -2
289
     1
 69
     0
  7
Standard
140
4.5
170
     5
 62
     0
 63
   257
283
     0
274
    -2
284
     1
 64
     0
275
    -2
285
     1
 65
     0
276
    -2
286
     1
 66
     0
277
    -2
287
     1
 67
     0
278
    -2
288
     1
 68
     0
279
    -2
289
     1
 69
     0
  0
VISUALSTYLE
  5
2F
102
{ACAD_REACTORS
330
2A
102
}
102
{ACAD_XDICTIONARY
360
3AF
102
}
330
2A
100
AcDbVisualStyle
  2
2dWireframe
 70
     4
 71
     0
 72
     2
 73
     0
 90
        0
 40
0.6
 41
30.0
 62
     5
 63
     7
421
 16777215
 74
     1
 91
        4
 64
     7
 65
   257
 75
     1
175
     1
 42
1.0
 92
        0
 66
   257
 43
1.0
 76
     1
 77
     6
 78
     2
 67
     7
 79
     5
170
     0
171
     0
290
     0
174
     0
 93
        1
 44
0.0
173
     0
291
     0
 45
0.0
1001
ACAD
1000
AcDbSavedByObjectVersion
1070
     0
  0
VISUALSTYLE
  5
32
102
{ACAD_REACTORS
330
2A
102
}
102
{ACAD_XDICTIONARY
360
3B5
102
}
330
2A
100
AcDbVisualStyle
  2
Basic
 70
     7
 71
     1
 72
     0
 73
     1
 90
        0
 40
0.6
 41
30.0
 62
     5
 63
     7
421
 16777215
 74
     0
 91
        4
 64
     7
 65
   257
 75
     1
175
     1
 42
1.0
 92
        8
 66
     7
 43
1.0
 76
     1
 77
     6
 78
     2
 67
     7
 79
     5
170
     0
171
     0
290
     0
174
     0
 93
        1
 44
0.0
173
     0
291
     1
 45
0.0
1001
ACAD
1000
AcDbSavedByObjectVersion
1070
     0
  0
VISUALSTYLE
  5
36
102
{ACAD_REACTORS
330
2A
102
}
102
{ACAD_XDICTIONARY
360
3BD
102
}
330
2A
100
AcDbVisualStyle
  2
Brighten
 70
    12
 71
     2
 72
     2
 73
     0
 90
        0
 40
0.6
 41
30.0
 62
     5
 63
     7
421
 16777215
 74
     1
 91
        4
 64
     7
 65
   257
 75
     1
175
     1
 42
1.0
 92
        8
 66
     7
 43
1.0
 76
     1
 77
     6
 78
     2
 67
     7
 79
     5
170
     0
171
     0
290
     0
174
     0
 93
        1
 44
50.0
173
     0
291
     1
 45
0.0
1001
ACAD
1000
AcDbSavedByObjectVersion
1070
     0
  0
VISUALSTYLE
  5
3A
102
{ACAD_REACTORS
330
2A
102
}
102
{ACAD_XDICTIONARY
360
3C5
102
}
330
2A
100
AcDbVisualStyle
  2
ColorChange
 70
    16
 71
     2
 72
     2
 73
     3
 90
        0
 40
0.6
 41
30.0
 62
     5
 63
     8
421
  8421504
 74
     1
 91
        4
 64
     7
 65
   257
 75
     1
175
     1
 42
1.0
 92
        8
 66
     8
424
  8421504
 43
1.0
 76
     1
 77
     6
 78
     2
 67
     7
 79
     5
170
     0
171
     0
290
     0
174
     0
 93
        1
 44
0.0
173
     0
291
     1
 45
0.0
1001
ACAD
1000
AcDbSavedByObjectVersion
1070
     0
  0
VISUALSTYLE
  5
34
102
{ACAD_REACTORS
330
2A
102
}
102
{ACAD_XDICTIONARY
360
3B9
102
}
330
2A
100
AcDbVisualStyle
  2
Conceptual
 70
     9
 71
     3
 72
     2
 73
     0
 90
        0
 40
0.6
 41
30.0
 62
     5
 63
     7
421
 16777215
 74
     2
 91
        2
 64
     7
 65
   257
 75
     1
175
     1
 42
179.0
 92
        8
 66
     7
 43
1.0
 76
     1
 77
     6
 78
     2
 67
     7
 79
     3
170
     0
171
     0
290
     0
174
     0
 93
        1
 44
0.0
173
     0
291
     0
 45
0.0
1001
ACAD
1000
AcDbSavedByObjectVersion
1070
     0
  0
VISUALSTYLE
  5
35
102
{ACAD_REACTORS
330
2A
102
}
102
{ACAD_XDICTIONARY
360
3BB
102
}
330
2A
100
AcDbVisualStyle
  2
Dim
 70
    11
 71
     2
 72
     2
 73
     0
 90
        0
 40
0.6
 41
30.0
 62
     5
 63
     7
421
 16777215
 74
     1
 91
        4
 64
     7
 65
   257
 75
     1
175
     1
 42
1.0
 92
        8
 66
     7
 43
1.0
 76
     1
 77
     6
 78
     2
 67
     7
 79
     5
170
     0
171
     0
290
     0
174
     0
 93
        1
 44
-50.0
173
     0
291
     1
 45
0.0
1001
ACAD
1000
AcDbSavedByObjectVersion
1070
     0
  0
VISUALSTYLE
  5
3D
102
{ACAD_REACTORS
330
2A
102
}
102
{ACAD_XDICTIONARY
360
3CB
102
}
330
2A
100
AcDbVisualStyle
  2
EdgeColorOff
 70
    22
 71
     2
 72
     2
 73
     0
 90
        0
 40
0.6
 41
30.0
 62
     5
 63
     7
421
 16777215
 74
     1
 91
        4
 64
     7
 65
   257
 75
     1
175
     1
 42
1.0
 92
        8
 66
     7
 43
1.0
 76
     1
 77
     6
 78
     2
 67
     7
 79
     5
170
     0
171
     0
290
     0
174
     0
 93
        1
 44
0.0
173
     0
291
     1
 45
0.0
1001
ACAD
1000
AcDbSavedByObjectVersion
1070
     0
  0
VISUALSTYLE
  5
39
102
{ACAD_REACTORS
330
2A
102
}
102
{ACAD_XDICTIONARY
360
3C3
102
}
330
2A
100
AcDbVisualStyle
  2
Facepattern
 70
    15
 71
     2
 72
     2
 73
     0
 90
        0
 40
0.6
 41
30.0
 62
     5
 63
     7
421
 16777215
 74
     1
 91
        4
 64
     7
 65
   257
 75
     1
175
     1
 42
1.0
 92
        8
 66
     7
 43
1.0
 76
     1
 77
     6
 78
     2
 67
     7
 79
     5
170
     0
171
     0
290
     0
174
     0
 93
        1
 44
0.0
173
     0
291
     1
 45
0.0
1001
ACAD
1000
AcDbSavedByObjectVersion
1070
     0
  0
VISUALSTYLE
  5
2B
102
{ACAD_REACTORS
330
2A
102
}
102
{ACAD_XDICTIONARY
360
3A7
102
}
330
2A
100
AcDbVisualStyle
  2
Flat
 70
     0
 71
     2
 72
     1
 73
     1
 90
        2
 40
0.6
 41
30.0
 62
     5
 63
     7
421
 16777215
 74
     0
 91
        0
 64
     7
 65
   257
 75
     1
175
     1
 42
1.0
 92
        8
 66
     7
 43
1.0
 76
     1
 77
     6
 78
     2
 67
     7
 79
     5
170
     0
171
     0
290
     0
174
     0
 93
       13
 44
0.0
173
     0
291
     1
 45
0.0
1001
ACAD
1000
AcDbSavedByObjectVersion
1070
     0
  0
VISUALSTYLE
  5
2C
102
{ACAD_REACTORS
330
2A
102
}
102
{ACAD_XDICTIONARY
360
3A9
102
}
330
2A
100
AcDbVisualStyle
  2
FlatWithEdges
 70
     1
 71
     2
 72
     1
 73
     1
 90
        2
 40
0.6
 41
30.0
 62
     5
 63
     7
421
 16777215
 74
     1
 91
        0
 64
     7
 65
   257
 75
     1
175
     1
 42
1.0
 92
        0
 66
   257
 43
1.0
 76
     1
 77
     6
 78
     2
 67
     7
 79
     5
170
     0
171
     0
290
     0
174
     0
 93
       13
 44
0.0
173
     0
291
     1
 45
0.0
1001
ACAD
1000
AcDbSavedByObjectVersion
1070
     0
  0
VISUALSTYLE
  5
2D
102
{ACAD_REACTORS
330
2A
102
}
102
{ACAD_XDICTIONARY
360
3AB
102
}
330
2A
100
AcDbVisualStyle
  2
Gouraud
 70
     2
 71
     2
 72
     2
 73
     1
 90
        2
 40
0.6
 41
30.0
 62
     5
 63
     7
421
 16777215
 74
     0
 91
        0
 64
     7
 65
   257
 75
     1
175
     1
 42
1.0
 92
        0
 66
     7
 43
1.0
 76
     1
 77
     6
 78
     2
 67
     7
 79
     5
170
     0
171
     0
290
     0
174
     0
 93
       13
 44
0.0
173
     0
291
     1
 45
0.0
1001
ACAD
1000
AcDbSavedByObjectVersion
1070
     0
  0
VISUALSTYLE
  5
2E
102
{ACAD_REACTORS
330
2A
102
}
102
{ACAD_XDICTIONARY
360
3AD
102
}
330
2A
100
AcDbVisualStyle
  2
GouraudWithEdges
 70
     3
 71
     2
 72
     2
 73
     1
 90
        2
 40
0.6
 41
30.0
 62
     5
 63
     7
421
 16777215
 74
     1
 91
        0
 64
     7
 65
   257
 75
     1
175
     1
 42
1.0
 92
        0
 66
   257
 43
1.0
 76
     1
 77
     6
 78
     2
 67
     7
 79
     5
170
     0
171
     0
290
     0
174
     0
 93
       13
 44
0.0
173
     0
291
     1
 45
0.0
1001
ACAD
1000
AcDbSavedByObjectVersion
1070
     0
  0
VISUALSTYLE
  5
31
102
{ACAD_REACTORS
330
2A
102
}
102
{ACAD_XDICTIONARY
360
3B3
102
}
330
2A
100
AcDbVisualStyle
  2
Hidden
 70
     6
 71
     1
 72
     2
 73
     2
 90
        0
 40
0.6
 41
30.0
 62
     5
 63
     7
421
 16777215
 74
     2
 91
        2
 64
     7
 65
   257
 75
     2
175
     1
 42
40.0
 92
        0
 66
   257
 43
1.0
 76
     1
 77
     6
 78
     2
 67
     7
 79
     3
170
     0
171
     0
290
     0
174
     0
 93
        1
 44
0.0
173
     0
291
     0
 45
0.0
1001
ACAD
1000
AcDbSavedByObjectVersion
1070
     0
  0
VISUALSTYLE
  5
3B
102
{ACAD_REACTORS
330
2A
102
}
102
{ACAD_XDICTIONARY
360
3C7
102
}
330
2A
100
AcDbVisualStyle
  2
JitterOff
 70
    20
 71
     2
 72
     2
 73
     0
 90
        0
 40
0.6
 41
30.0
 62
     5
 63
     7
421
 16777215
 74
     1
 91
        4
 64
     7
 65
   257
 75
     1
175
     1
 42
1.0
 92
       10
 66
     7
 43
1.0
 76
     1
 77
     6
 78
     2
 67
     7
 79
     5
170
     0
171
     0
290
     0
174
     0
 93
        1
 44
0.0
173
     0
291
     1
 45
0.0
1001
ACAD
1000
AcDbSavedByObjectVersion
1070
     0
  0
VISUALSTYLE
  5
38
102
{ACAD_REACTORS
330
2A
102
}
102
{ACAD_XDICTIONARY
360
3C1
102
}
330
2A
100
AcDbVisualStyle
  2
Linepattern
 70
    14
 71
     2
 72
     2
 73
     0
 90
        0
 40
0.6
 41
30.0
 62
     5
 63
     7
421
 16777215
 74
     1
 91
        4
 64
     7
 65
   257
 75
     7
175
     7
 42
1.0
 92
        8
 66
     7
 43
1.0
 76
     1
 77
     6
 78
     2
 67
     7
 79
     5
170
     0
171
     0
290
     0
174
     0
 93
        1
 44
0.0
173
     0
291
     1
 45
0.0
1001
ACAD
1000
AcDbSavedByObjectVersion
1070
     0
  0
VISUALSTYLE
  5
3C
102
{ACAD_REACTORS
330
2A
102
}
102
{ACAD_XDICTIONARY
360
3C9
102
}
330
2A
100
AcDbVisualStyle
  2
OverhangOff
 70
    21
 71
     2
 72
     2
 73
     0
 90
        0
 40
0.6
 41
30.0
 62
     5
 63
     7
421
 16777215
 74
     1
 91
        4
 64
     7
 65
   257
 75
     1
175
     1
 42
1.0
 92
        9
 66
     7
 43
1.0
 76
     1
 77
     6
 78
     2
 67
     7
 79
     5
170
     0
171
     0
290
     0
174
     0
 93
        1
 44
0.0
173
     0
291
     1
 45
0.0
1001
ACAD
1000
AcDbSavedByObjectVersion
1070
     0
  0
VISUALSTYLE
  5
33
102
{ACAD_REACTORS
330
2A
102
}
102
{ACAD_XDICTIONARY
360
3B7
102
}
330
2A
100
AcDbVisualStyle
  2
Realistic
 70
     8
 71
     2
 72
     3
 73
     0
 90
        2
 40
0.6
 41
30.0
 62
     5
 63
     7
421
 16777215
 74
     0
 91
        0
 64
     7
 65
   257
 75
     1
175
     1
 42
1.0
 92
        8
 66
   257
 43
1.0
 76
     1
 77
     6
 78
     2
 67
     7
 79
     3
170
     0
171
     0
290
     0
174
     0
 93
       13
 44
0.0
173
     0
291
     0
 45
0.0
1001
ACAD
1000
AcDbSavedByObjectVersion
1070
     0
  0
VISUALSTYLE
  5
42
102
{ACAD_REACTORS
330
2A
102
}
102
{ACAD_XDICTIONARY
360
3D5
102
}
330
2A
100
AcDbVisualStyle
  2
Shaded
 70
    27
 71
     2
 72
     2
 73
     1
 90
        2
 40
0.6
 41
30.0
 62
     5
 63
     7
421
 16777215
 74
     0
 91
        4
 64
     7
 65
   257
 75
     1
175
     1
 42
1.0
 92
        8
 66
   257
 43
1.0
 76
     1
 77
     6
 78
     2
 67
     8
425
  7895160
 79
     3
170
     0
171
     0
290
     0
174
     0
 93
        5
 44
0.0
173
     0
291
     0
 45
0.0
1001
ACAD
1000
AcDbSavedByObjectVersion
1070
     0
  0
VISUALSTYLE
  5
41
102
{ACAD_REACTORS
330
2A
102
}
102
{ACAD_XDICTIONARY
360
3D3
102
}
330
2A
100
AcDbVisualStyle
  2
Shaded with edges
 70
    26
 71
     2
 72
     2
 73
     1
 90
        2
 40
0.6
 41
30.0
 62
     5
 63
     7
421
 16777215
 74
     1
 91
       10
 64
     7
 65
   257
 75
     2
175
     1
 42
1.0
 92
        8
 66
   257
 43
1.0
 76
     1
 77
     6
 78
     2
 67
     7
 79
     3
170
     0
171
     0
290
     0
174
     0
 93
        5
 44
0.0
173
     0
291
     0
 45
0.0
1001
ACAD
1000
AcDbSavedByObjectVersion
1070
     0
  0
VISUALSTYLE
  5
3E
102
{ACAD_REACTORS
330
2A
102
}
102
{ACAD_XDICTIONARY
360
3CD
102
}
330
2A
100
AcDbVisualStyle
  2
Shades of Gray
 70
    23
 71
     2
 72
     2
 73
     3
 90
        0
 40
0.6
 41
30.0
 62
     5
 63
     7
421
 16777215
 74
     2
 91
        2
 64
     7
 65
     7
 75
     1
175
     1
 42
40.0
 92
        8
 66
     7
 43
1.0
 76
     1
 77
     6
 78
     2
 67
     7
 79
     3
170
     0
171
     0
290
     0
174
     0
 93
        1
 44
0.0
173
     0
291
     0
 45
0.0
1001
ACAD
1000
AcDbSavedByObjectVersion
1070
     0
  0
VISUALSTYLE
  5
3F
102
{ACAD_REACTORS
330
2A
102
}
102
{ACAD_XDICTIONARY
360
3CF
102
}
330
2A
100
AcDbVisualStyle
  2
Sketchy
 70
    24
 71
     1
 72
     2
 73
     2
 90
        0
 40
0.6
 41
30.0
 62
     5
 63
     7
421
 16777215
 74
     2
 91
        2
 64
     7
 65
     7
 75
     1
175
     1
 42
40.0
 92
       11
 66
     7
 43
1.0
 76
     1
 77
     6
 78
     2
 67
     7
 79
     6
170
     0
171
     0
290
     0
174
     0
 93
        1
 44
0.0
173
     0
291
     0
 45
0.0
1001
ACAD
1000
AcDbSavedByObjectVersion
1070
     0
  0
VISUALSTYLE
  5
37
102
{ACAD_REACTORS
330
2A
102
}
102
{ACAD_XDICTIONARY
360
3BF
102
}
330
2A
100
AcDbVisualStyle
  2
Thicken
 70
    13
 71
     2
 72
     2
 73
     0
 90
        0
 40
0.6
 41
30.0
 62
     5
 63
     7
421
 16777215
 74
     1
 91
        4
 64
     7
 65
   257
 75
     1
175
     1
 42
1.0
 92
       12
 66
     7
 43
1.0
 76
     1
 77
     6
 78
     2
 67
     7
 79
     5
170
     0
171
     0
290
     0
174
     0
 93
        1
 44
0.0
173
     0
291
     1
 45
0.0
1001
ACAD
1000
AcDbSavedByObjectVersion
1070
     0
  0
VISUALSTYLE
  5
30
102
{ACAD_REACTORS
330
2A
102
}
102
{ACAD_XDICTIONARY
360
3B1
102
}
330
2A
100
AcDbVisualStyle
  2
Wireframe
 70
     5
 71
     0
 72
     2
 73
     0
 90
        0
 40
0.6
 41
30.0
 62
     5
 63
     7
421
 16777215
 74
     1
 91
        4
 64
     7
 65
   257
 75
     1
175
     1
 42
1.0
 92
        0
 66
   257
 43
1.0
 76
     1
 77
     6
 78
     2
 67
     7
 79
     3
170
     0
171
     0
290
     0
174
     0
 93
        1
 44
0.0
173
     0
291
     0
 45
0.0
1001
ACAD
1000
AcDbSavedByObjectVersion
1070
     0
  0
VISUALSTYLE
  5
40
102
{ACAD_REACTORS
330
2A
102
}
102
{ACAD_XDICTIONARY
360
3D1
102
}
330
2A
100
AcDbVisualStyle
  2
X-Ray
 70
    25
 71
     2
 72
     2
 73
     1
 90
        1
 40
0.5
 41
30.0
 62
     5
 63
     7
421
 16777215
 74
     1
 91
        0
 64
     7
 65
   257
 75
     1
175
     1
 42
1.0
 92
        8
 66
     7
 43
1.0
 76
     1
 77
     6
 78
     2
 67
     7
 79
     3
170
     0
171
     0
290
     0
174
     0
 93
       13
 44
0.0
173
     0
291
     0
 45
0.0
1001
ACAD
1000
AcDbSavedByObjectVersion
1070
     0
  0
DICTIONARYVAR
  5
3A4
102
{ACAD_REACTORS
330
3A3
102
}
330
3A3
100
DictionaryVariables
280
     0
  1
1:1
  0
DICTIONARYVAR
  5
3E8
102
{ACAD_REACTORS
330
3A3
102
}
330
3A3
100
DictionaryVariables
280
     0
  1
3.500000
  0
DICTIONARYVAR
  5
3E9
102
{ACAD_REACTORS
330
3A3
102
}
330
3A3
100
DictionaryVariables
280
     0
  1
acadiso.lin
  0
DICTIONARYVAR
  5
3E5
102
{ACAD_REACTORS
330
3A3
102
}
330
3A3
100
DictionaryVariables
280
     0
  1
Standard
  0
DICTIONARYVAR
  5
3E4
102
{ACAD_REACTORS
330
3A3
102
}
330
3A3
100
DictionaryVariables
280
     0
  1
Standard
  0
DICTIONARYVAR
  5
3A5
102
{ACAD_REACTORS
330
3A3
102
}
330
3A3
100
DictionaryVariables
280
     0
  1
1
  0
DICTIONARYVAR
  5
3A6
102
{ACAD_REACTORS
330
3A3
102
}
330
3A3
100
DictionaryVariables
280
     0
  1
2
  0
DICTIONARY
  5
3D9
330
45
100
AcDbDictionary
280
     1
281
     1
  3
ACAD_XREC_ROUNDTRIP
360
3DA
  0
DICTIONARY
  5
3D7
330
44
100
AcDbDictionary
280
     1
281
     1
  3
ACAD_XREC_ROUNDTRIP
360
3D8
  0
DICTIONARY
  5
3DB
330
46
100
AcDbDictionary
280
     1
281
     1
  3
ACAD_XREC_ROUNDTRIP
360
3DC
  0
DICTIONARY
  5
3E1
330
6C
100
AcDbDictionary
280
     1
281
     1
  3
ACAD_XREC_ROUNDTRIP
360
3E2
  0
DICTIONARY
  5
3DD
330
6A
100
AcDbDictionary
280
     1
281
     1
  3
ACAD_ROUNDTRIP_2008_TABLESTYLE_CELLSTYLEMAP
360
3DF
  3
ACAD_XREC_ROUNDTRIP
360
3DE
  0
DICTIONARY
  5
3AF
330
2F
100
AcDbDictionary
280
     1
281
     1
  3
ACAD_XREC_ROUNDTRIP
360
3B0
  0
DICTIONARY
  5
3B5
330
32
100
AcDbDictionary
280
     1
281
     1
  3
ACAD_XREC_ROUNDTRIP
360
3B6
  0
DICTIONARY
  5
3BD
330
36
100
AcDbDictionary
280
     1
281
     1
  3
ACAD_XREC_ROUNDTRIP
360
3BE
  0
DICTIONARY
  5
3C5
330
3A
100
AcDbDictionary
280
     1
281
     1
  3
ACAD_XREC_ROUNDTRIP
360
3C6
  0
DICTIONARY
  5
3B9
330
34
100
AcDbDictionary
280
     1
281
     1
  3
ACAD_XREC_ROUNDTRIP
360
3BA
  0
DICTIONARY
  5
3BB
330
35
100
AcDbDictionary
280
     1
281
     1
  3
ACAD_XREC_ROUNDTRIP
360
3BC
  0
DICTIONARY
  5
3CB
330
3D
100
AcDbDictionary
280
     1
281
     1
  3
ACAD_XREC_ROUNDTRIP
360
3CC
  0
DICTIONARY
  5
3C3
330
39
100
AcDbDictionary
280
     1
281
     1
  3
ACAD_XREC_ROUNDTRIP
360
3C4
  0
DICTIONARY
  5
3A7
330
2B
100
AcDbDictionary
280
     1
281
     1
  3
ACAD_XREC_ROUNDTRIP
360
3A8
  0
DICTIONARY
  5
3A9
330
2C
100
AcDbDictionary
280
     1
281
     1
  3
ACAD_XREC_ROUNDTRIP
360
3AA
  0
DICTIONARY
  5
3AB
330
2D
100
AcDbDictionary
280
     1
281
     1
  3
ACAD_XREC_ROUNDTRIP
360
3AC
  0
DICTIONARY
  5
3AD
330
2E
100
AcDbDictionary
280
     1
281
     1
  3
ACAD_XREC_ROUNDTRIP
360
3AE
  0
DICTIONARY
  5
3B3
330
31
100
AcDbDictionary
280
     1
281
     1
  3
ACAD_XREC_ROUNDTRIP
360
3B4
  0
DICTIONARY
  5
3C7
330
3B
100
AcDbDictionary
280
     1
281
     1
  3
ACAD_XREC_ROUNDTRIP
360
3C8
  0
DICTIONARY
  5
3C1
330
38
100
AcDbDictionary
280
     1
281
     1
  3
ACAD_XREC_ROUNDTRIP
360
3C2
  0
DICTIONARY
  5
3C9
330
3C
100
AcDbDictionary
280
     1
281
     1
  3
ACAD_XREC_ROUNDTRIP
360
3CA
  0
DICTIONARY
  5
3B7
330
33
100
AcDbDictionary
280
     1
281
     1
  3
ACAD_XREC_ROUNDTRIP
360
3B8
  0
DICTIONARY
  5
3D5
330
42
100
AcDbDictionary
280
     1
281
     1
  3
ACAD_XREC_ROUNDTRIP
360
3D6
  0
DICTIONARY
  5
3D3
330
41
100
AcDbDictionary
280
     1
281
     1
  3
ACAD_XREC_ROUNDTRIP
360
3D4
  0
DICTIONARY
  5
3CD
330
3E
100
AcDbDictionary
280
     1
281
     1
  3
ACAD_XREC_ROUNDTRIP
360
3CE
  0
DICTIONARY
  5
3CF
330
3F
100
AcDbDictionary
280
     1
281
     1
  3
ACAD_XREC_ROUNDTRIP
360
3D0
  0
DICTIONARY
  5
3BF
330
37
100
AcDbDictionary
280
     1
281
     1
  3
ACAD_XREC_ROUNDTRIP
360
3C0
  0
DICTIONARY
  5
3B1
330
30
100
AcDbDictionary
280
     1
281
     1
  3
ACAD_XREC_ROUNDTRIP
360
3B2
  0
DICTIONARY
  5
3D1
330
40
100
AcDbDictionary
280
     1
281
     1
  3
ACAD_XREC_ROUNDTRIP
360
3D2
  0
XRECORD
  5
3DA
102
{ACAD_REACTORS
330
3D9
102
}
330
3D9
100
AcDbXrecord
280
     1
102
MATERIAL
148
0.0
149
0.0
149
0.0
 93
        0
 94
      127
282
     0
 72
     1
 77
     1
171
     1
175
     1
179
     1
273
     0
  0
XRECORD
  5
3D8
102
{ACAD_REACTORS
330
3D7
102
}
330
3D7
100
AcDbXrecord
280
     1
102
MATERIAL
148
0.0
149
0.0
149
0.0
 93
        0
 94
      127
282
     0
 72
     1
 77
     1
171
     1
175
     1
179
     1
273
     0
  0
XRECORD
  5
3DC
102
{ACAD_REACTORS
330
3DB
102
}
330
3DB
100
AcDbXrecord
280
     1
102
MATERIAL
148
0.0
149
0.0
149
0.0
 93
        0
 94
      127
282
     0
 72
     1
 77
     1
171
     1
175
     1
179
     1
273
     0
  0
XRECORD
  5
3E2
102
{ACAD_REACTORS
330
3E1
102
}
330
3E1
100
AcDbXrecord
280
     1
102
ACAD_ROUNDTRIP_2010_MLEADER_STYLE
  0
CELLSTYLEMAP
  5
3DF
102
{ACAD_REACTORS
330
3DD
102
}
330
3DD
100
AcDbCellStyleMap
 90
        3
300
CELLSTYLE
  1
TABLEFORMAT_BEGIN
 90
        5
170
     1
 91
        0
 92
    32768
 62
   257
 93
        1
300
CONTENTFORMAT
  1
CONTENTFORMAT_BEGIN
 90
        0
 91
        0
 92
        4
 93
        0
300

 40
0.0
140
1.0
 94
        5
 62
     0
340
11
144
6.0
309
CONTENTFORMAT_END
171
     1
301
MARGIN
  1
CELLMARGIN_BEGIN
 40
1.5
 40
1.5
 40
1.5
 40
1.5
 40
1.5
 40
1.5
309
CELLMARGIN_END
 94
        6
 95
        1
302
GRIDFORMAT
  1
GRIDFORMAT_BEGIN
 90
        0
 91
        1
 62
     0
 92
       -2
340
14
 93
        0
 40
0.045
309
GRIDFORMAT_END
 95
        2
302
GRIDFORMAT
  1
GRIDFORMAT_BEGIN
 90
        0
 91
        1
 62
     0
 92
       -2
340
14
 93
        0
 40
0.045
309
GRIDFORMAT_END
 95
        4
302
GRIDFORMAT
  1
GRIDFORMAT_BEGIN
 90
        0
 91
        1
 62
     0
 92
       -2
340
14
 93
        0
 40
0.045
309
GRIDFORMAT_END
 95
        8
302
GRIDFORMAT
  1
GRIDFORMAT_BEGIN
 90
        0
 91
        1
 62
     0
 92
       -2
340
14
 93
        0
 40
0.045
309
GRIDFORMAT_END
 95
       16
302
GRIDFORMAT
  1
GRIDFORMAT_BEGIN
 90
        0
 91
        1
 62
     0
 92
       -2
340
14
 93
        0
 40
0.045
309
GRIDFORMAT_END
 95
       32
302
GRIDFORMAT
  1
GRIDFORMAT_BEGIN
 90
        0
 91
        1
 62
     0
 92
       -2
340
14
 93
        0
 40
0.045
309
GRIDFORMAT_END
309
TABLEFORMAT_END
  1
CELLSTYLE_BEGIN
 90
        1
 91
        1
300
_TITLE
309
CELLSTYLE_END
300
CELLSTYLE
  1
TABLEFORMAT_BEGIN
 90
        5
170
     1
 91
        0
 92
        0
 62
   257
 93
        1
300
CONTENTFORMAT
  1
CONTENTFORMAT_BEGIN
 90
        0
 91
        0
 92
        4
 93
        0
300

 40
0.0
140
1.0
 94
        5
 62
     0
340
11
144
4.5
309
CONTENTFORMAT_END
171
     1
301
MARGIN
  1
CELLMARGIN_BEGIN
 40
1.5
 40
1.5
 40
1.5
 40
1.5
 40
1.5
 40
1.5
309
CELLMARGIN_END
 94
        6
 95
        1
302
GRIDFORMAT
  1
GRIDFORMAT_BEGIN
 90
        0
 91
        1
 62
     0
 92
       -2
340
14
 93
        0
 40
0.045
309
GRIDFORMAT_END
 95
        2
302
GRIDFORMAT
  1
GRIDFORMAT_BEGIN
 90
        0
 91
        1
 62
     0
 92
       -2
340
14
 93
        0
 40
0.045
309
GRIDFORMAT_END
 95
        4
302
GRIDFORMAT
  1
GRIDFORMAT_BEGIN
 90
        0
 91
        1
 62
     0
 92
       -2
340
14
 93
        0
 40
0.045
309
GRIDFORMAT_END
 95
        8
302
GRIDFORMAT
  1
GRIDFORMAT_BEGIN
 90
        0
 91
        1
 62
     0
 92
       -2
340
14
 93
        0
 40
0.045
309
GRIDFORMAT_END
 95
       16
302
GRIDFORMAT
  1
GRIDFORMAT_BEGIN
 90
        0
 91
        1
 62
     0
 92
       -2
340
14
 93
        0
 40
0.045
309
GRIDFORMAT_END
 95
       32
302
GRIDFORMAT
  1
GRIDFORMAT_BEGIN
 90
        0
 91
        1
 62
     0
 92
       -2
340
14
 93
        0
 40
0.045
309
GRIDFORMAT_END
309
TABLEFORMAT_END
  1
CELLSTYLE_BEGIN
 90
        2
 91
        1
300
_HEADER
309
CELLSTYLE_END
300
CELLSTYLE
  1
TABLEFORMAT_BEGIN
 90
        5
170
     1
 91
        0
 92
        0
 62
   257
 93
        1
300
CONTENTFORMAT
  1
CONTENTFORMAT_BEGIN
 90
        0
 91
        0
 92
        4
 93
        0
300

 40
0.0
140
1.0
 94
        2
 62
     0
340
11
144
4.5
309
CONTENTFORMAT_END
171
     1
301
MARGIN
  1
CELLMARGIN_BEGIN
 40
1.5
 40
1.5
 40
1.5
 40
1.5
 40
1.5
 40
1.5
309
CELLMARGIN_END
 94
        6
 95
        1
302
GRIDFORMAT
  1
GRIDFORMAT_BEGIN
 90
        0
 91
        1
 62
     0
 92
       -2
340
14
 93
        0
 40
0.045
309
GRIDFORMAT_END
 95
        2
302
GRIDFORMAT
  1
GRIDFORMAT_BEGIN
 90
        0
 91
        1
 62
     0
 92
       -2
340
14
 93
        0
 40
0.045
309
GRIDFORMAT_END
 95
        4
302
GRIDFORMAT
  1
GRIDFORMAT_BEGIN
 90
        0
 91
        1
 62
     0
 92
       -2
340
14
 93
        0
 40
0.045
309
GRIDFORMAT_END
 95
        8
302
GRIDFORMAT
  1
GRIDFORMAT_BEGIN
 90
        0
 91
        1
 62
     0
 92
       -2
340
14
 93
        0
 40
0.045
309
GRIDFORMAT_END
 95
       16
302
GRIDFORMAT
  1
GRIDFORMAT_BEGIN
 90
        0
 91
        1
 62
     0
 92
       -2
340
14
 93
        0
 40
0.045
309
GRIDFORMAT_END
 95
       32
302
GRIDFORMAT
  1
GRIDFORMAT_BEGIN
 90
        0
 91
        1
 62
     0
 92
       -2
340
14
 93
        0
 40
0.045
309
GRIDFORMAT_END
309
TABLEFORMAT_END
  1
CELLSTYLE_BEGIN
 90
        3
 91
        2
300
_DATA
309
CELLSTYLE_END
  0
XRECORD
  5
3DE
102
{ACAD_REACTORS
330
3DD
102
}
330
3DD
100
AcDbXrecord
280
     1
102
ACAD_ROUNDTRIP_PRE2007_TABLESTYLE
 90
        4
 91
        0
  1

 92
        4
 93
        0
  2

 94
        4
 95
        0
  3

  0
XRECORD
  5
3B0
102
{ACAD_REACTORS
330
3AF
102
}
330
3AF
100
AcDbXrecord
280
     1
102
RTVSPropertyOp0
 70
     1
102
RTVSPropertyOp1
 70
     1
102
RTVSPropertyOp2
 70
     1
102
RTVSPropertyOp3
 70
     1
102
RTVSPropertyOp4
 70
     1
102
RTVSPropertyOp5
 70
     1
102
RTVSPropertyOp6
 70
     1
102
RTVSPropertyOp7
 70
     1
102
RTVSPropertyOp8
 70
     1
102
RTVSPropertyOp9
 70
     1
102
RTVSPropertyOp10
 70
     1
102
RTVSPropertyOp11
 70
     1
102
RTVSPropertyOp12
 70
     1
102
RTVSPropertyOp13
 70
     1
102
RTVSPropertyOp14
 70
     1
102
RTVSPropertyOp15
 70
     1
102
RTVSPropertyOp16
 70
     1
102
RTVSPropertyOp17
 70
     1
102
RTVSPropertyOp18
 70
     1
102
RTVSPropertyOp19
 70
     1
102
RTVSPropertyOp20
 70
     1
102
RTVSPropertyOp21
 70
     1
102
RTVSPropertyOp22
 70
     1
102
RTVSPropertyOp23
 70
     1
102
RTVSPropertyOp24
 70
     1
102
RTVSPropertyOp25
 70
     1
102
RTVSPropertyOp26
 70
     1
102
RTVSPropertyOp27
 70
     1
102
RTVSPropertyOp28
 70
     1
102
RTVSPropertyOp29
 70
     1
102
RTVSPropertyOp30
 70
     1
102
RTVSPropertyOp31
 70
     1
102
RTVSPropertyOp32
 70
     1
102
RTVSPropertyOp33
 70
     1
102
RTVSPropertyOp34
 70
     1
102
RTVSPropertyOp35
 70
     1
102
RTVSPropertyOp36
 70
     1
102
RTVSPropertyOp37
 70
     1
102
RTVSPropertyOp38
 70
     1
102
RTVSPropertyOp39
 70
     1
102
RTVSPropertyOp40
 70
     1
102
RTVSPropertyOp41
 70
     1
102
RTVSPropertyOp42
 70
     1
102
RTVSPropertyOp43
 70
     1
102
RTVSPropertyOp44
 70
     1
102
RTVSPropertyOp45
 70
     1
102
RTVSPropertyOp46
 70
     1
102
RTVSPropertyOp47
 70
     1
102
RTVSPropertyOp48
 70
     1
102
RTVSPropertyOp49
 70
     1
102
RTVSPropertyOp50
 70
     1
102
RTVSPropertyOp51
 70
     0
102
RTVSPropertyOp52
 70
     0
102
RTVSPropertyOp53
 70
     1
102
RTVSPropertyOp54
 70
     1
102
RTVSPropertyOp55
 70
     1
102
RTVSPropertyOp56
 70
     1
102
RTVSPropertyOp57
 70
     1
102
RTVSPost2010Prop28
280
     1
102
RTVSPost2010PropOp28
 70
     1
102
RTVSPost2010Prop29
280
     1
102
RTVSPost2010PropOp29
 70
     1
102
RTVSPost2010Prop30
280
     0
102
RTVSPost2010PropOp30
 70
     1
102
RTVSPost2010Prop31
280
     0
102
RTVSPost2010PropOp31
 70
     1
102
RTVSPost2010Prop32
280
     0
102
RTVSPost2010PropOp32
 70
     1
102
RTVSPost2010Prop33
280
     0
102
RTVSPost2010PropOp33
 70
     1
102
RTVSPost2010Prop34
280
     0
102
RTVSPost2010PropOp34
 70
     1
102
RTVSPost2010Prop35
280
     0
102
RTVSPost2010PropOp35
 70
     1
102
RTVSPost2010Prop36
280
     0
102
RTVSPost2010PropOp36
 70
     1
102
RTVSPost2010Prop37
 90
       50
102
RTVSPost2010PropOp37
 70
     1
102
RTVSPost2010Prop38
140
0.0
102
RTVSPost2010PropOp38
 70
     1
102
RTVSPost2010Prop39
140
1.0
102
RTVSPost2010PropOp39
 70
     1
102
RTVSPost2010Prop40
 90
        0
102
RTVSPost2010PropOp40
 70
     1
102
RTVSPost2010Prop41ColorIndex
 90
       18
102
RTVSPost2010Prop41ColorRGB
 90
        0
102
RTVSPost2010PropOp41
 70
     1
102
RTVSPost2010Prop42
 90
       50
102
RTVSPost2010PropOp42
 70
     1
102
RTVSPost2010Prop43
 90
        3
102
RTVSPost2010PropOp43
 70
     1
102
RTVSPost2010Prop44ColorIndex
 90
        5
102
RTVSPost2010Prop44ColorRGB
 90
      255
102
RTVSPost2010PropOp44
 70
     1
102
RTVSPost2010Prop45
280
     0
102
RTVSPost2010PropOp45
 70
     1
102
RTVSPost2010Prop46
 90
       50
102
RTVSPost2010PropOp46
 70
     1
102
RTVSPost2010Prop47
 90
       50
102
RTVSPost2010PropOp47
 70
     1
102
RTVSPost2010Prop48
 90
       50
102
RTVSPost2010PropOp48
 70
     1
102
RTVSPost2010Prop49
280
     0
102
RTVSPost2010PropOp49
 70
     1
102
RTVSPost2010Prop50
 90
       50
102
RTVSPost2010PropOp50
 70
     1
102
RTVSPost2010Prop51ColorIndex
 90
      256
102
RTVSPost2010Prop51ColorRGB
 90
-16777216
102
RTVSPost2010PropOp51
 70
     0
102
RTVSPost2010Prop52
140
1.0
102
RTVSPost2010PropOp52
 70
     0
102
RTVSPost2010Prop53
 90
        2
102
RTVSPost2010PropOp53
 70
     1
102
RTVSPost2010Prop54
  1
strokes_ogs.tif
102
RTVSPost2010PropOp54
 70
     1
102
RTVSPost2010Prop55
280
     0
102
RTVSPost2010PropOp55
 70
     1
102
RTVSPost2010Prop56
140
1.0
102
RTVSPost2010PropOp56
 70
     1
102
RTVSPost2010Prop57
140
1.0
102
RTVSPost2010PropOp57
 70
     1
  0
XRECORD
  5
3B6
102
{ACAD_REACTORS
330
3B5
102
}
330
3B5
100
AcDbXrecord
280
     1
102
RTVSPropertyOp0
 70
     1
102
RTVSPropertyOp1
 70
     1
102
RTVSPropertyOp2
 70
     1
102
RTVSPropertyOp3
 70
     1
102
RTVSPropertyOp4
 70
     1
102
RTVSPropertyOp5
 70
     1
102
RTVSPropertyOp6
 70
     1
102
RTVSPropertyOp7
 70
     1
102
RTVSPropertyOp8
 70
     1
102
RTVSPropertyOp9
 70
     1
102
RTVSPropertyOp10
 70
     1
102
RTVSPropertyOp11
 70
     1
102
RTVSPropertyOp12
 70
     1
102
RTVSPropertyOp13
 70
     1
102
RTVSPropertyOp14
 70
     1
102
RTVSPropertyOp15
 70
     1
102
RTVSPropertyOp16
 70
     1
102
RTVSPropertyOp17
 70
     1
102
RTVSPropertyOp18
 70
     1
102
RTVSPropertyOp19
 70
     1
102
RTVSPropertyOp20
 70
     1
102
RTVSPropertyOp21
 70
     1
102
RTVSPropertyOp22
 70
     1
102
RTVSPropertyOp23
 70
     1
102
RTVSPropertyOp24
 70
     1
102
RTVSPropertyOp25
 70
     1
102
RTVSPropertyOp26
 70
     1
102
RTVSPropertyOp27
 70
     1
102
RTVSPropertyOp28
 70
     1
102
RTVSPropertyOp29
 70
     1
102
RTVSPropertyOp30
 70
     1
102
RTVSPropertyOp31
 70
     1
102
RTVSPropertyOp32
 70
     1
102
RTVSPropertyOp33
 70
     1
102
RTVSPropertyOp34
 70
     1
102
RTVSPropertyOp35
 70
     1
102
RTVSPropertyOp36
 70
     1
102
RTVSPropertyOp37
 70
     1
102
RTVSPropertyOp38
 70
     1
102
RTVSPropertyOp39
 70
     1
102
RTVSPropertyOp40
 70
     1
102
RTVSPropertyOp41
 70
     1
102
RTVSPropertyOp42
 70
     1
102
RTVSPropertyOp43
 70
     1
102
RTVSPropertyOp44
 70
     1
102
RTVSPropertyOp45
 70
     1
102
RTVSPropertyOp46
 70
     1
102
RTVSPropertyOp47
 70
     1
102
RTVSPropertyOp48
 70
     1
102
RTVSPropertyOp49
 70
     1
102
RTVSPropertyOp50
 70
     1
102
RTVSPropertyOp51
 70
     0
102
RTVSPropertyOp52
 70
     0
102
RTVSPropertyOp53
 70
     1
102
RTVSPropertyOp54
 70
     1
102
RTVSPropertyOp55
 70
     1
102
RTVSPropertyOp56
 70
     1
102
RTVSPropertyOp57
 70
     1
102
RTVSPost2010Prop28
280
     0
102
RTVSPost2010PropOp28
 70
     1
102
RTVSPost2010Prop29
280
     1
102
RTVSPost2010PropOp29
 70
     1
102
RTVSPost2010Prop30
280
     1
102
RTVSPost2010PropOp30
 70
     1
102
RTVSPost2010Prop31
280
     0
102
RTVSPost2010PropOp31
 70
     1
102
RTVSPost2010Prop32
280
     0
102
RTVSPost2010PropOp32
 70
     1
102
RTVSPost2010Prop33
280
     0
102
RTVSPost2010PropOp33
 70
     1
102
RTVSPost2010Prop34
280
     0
102
RTVSPost2010PropOp34
 70
     1
102
RTVSPost2010Prop35
280
     0
102
RTVSPost2010PropOp35
 70
     1
102
RTVSPost2010Prop36
280
     0
102
RTVSPost2010PropOp36
 70
     1
102
RTVSPost2010Prop37
 90
       50
102
RTVSPost2010PropOp37
 70
     1
102
RTVSPost2010Prop38
140
0.0
102
RTVSPost2010PropOp38
 70
     1
102
RTVSPost2010Prop39
140
1.0
102
RTVSPost2010PropOp39
 70
     1
102
RTVSPost2010Prop40
 90
        0
102
RTVSPost2010PropOp40
 70
     1
102
RTVSPost2010Prop41ColorIndex
 90
       18
102
RTVSPost2010Prop41ColorRGB
 90
        0
102
RTVSPost2010PropOp41
 70
     1
102
RTVSPost2010Prop42
 90
       50
102
RTVSPost2010PropOp42
 70
     1
102
RTVSPost2010Prop43
 90
        3
102
RTVSPost2010PropOp43
 70
     1
102
RTVSPost2010Prop44ColorIndex
 90
        5
102
RTVSPost2010Prop44ColorRGB
 90
      255
102
RTVSPost2010PropOp44
 70
     1
102
RTVSPost2010Prop45
280
     0
102
RTVSPost2010PropOp45
 70
     1
102
RTVSPost2010Prop46
 90
       50
102
RTVSPost2010PropOp46
 70
     1
102
RTVSPost2010Prop47
 90
       50
102
RTVSPost2010PropOp47
 70
     1
102
RTVSPost2010Prop48
 90
       50
102
RTVSPost2010PropOp48
 70
     1
102
RTVSPost2010Prop49
280
     0
102
RTVSPost2010PropOp49
 70
     1
102
RTVSPost2010Prop50
 90
       50
102
RTVSPost2010PropOp50
 70
     1
102
RTVSPost2010Prop51ColorIndex
 90
      256
102
RTVSPost2010Prop51ColorRGB
 90
-16777216
102
RTVSPost2010PropOp51
 70
     0
102
RTVSPost2010Prop52
140
1.0
102
RTVSPost2010PropOp52
 70
     0
102
RTVSPost2010Prop53
 90
        2
102
RTVSPost2010PropOp53
 70
     1
102
RTVSPost2010Prop54
  1
strokes_ogs.tif
102
RTVSPost2010PropOp54
 70
     1
102
RTVSPost2010Prop55
280
     0
102
RTVSPost2010PropOp55
 70
     1
102
RTVSPost2010Prop56
140
1.0
102
RTVSPost2010PropOp56
 70
     1
102
RTVSPost2010Prop57
140
1.0
102
RTVSPost2010PropOp57
 70
     1
  0
XRECORD
  5
3BE
102
{ACAD_REACTORS
330
3BD
102
}
330
3BD
100
AcDbXrecord
280
     1
102
RTVSPropertyOp0
 70
     1
102
RTVSPropertyOp1
 70
     1
102
RTVSPropertyOp2
 70
     1
102
RTVSPropertyOp3
 70
     1
102
RTVSPropertyOp4
 70
     1
102
RTVSPropertyOp5
 70
     1
102
RTVSPropertyOp6
 70
     1
102
RTVSPropertyOp7
 70
     1
102
RTVSPropertyOp8
 70
     1
102
RTVSPropertyOp9
 70
     1
102
RTVSPropertyOp10
 70
     1
102
RTVSPropertyOp11
 70
     1
102
RTVSPropertyOp12
 70
     1
102
RTVSPropertyOp13
 70
     1
102
RTVSPropertyOp14
 70
     1
102
RTVSPropertyOp15
 70
     1
102
RTVSPropertyOp16
 70
     1
102
RTVSPropertyOp17
 70
     1
102
RTVSPropertyOp18
 70
     1
102
RTVSPropertyOp19
 70
     1
102
RTVSPropertyOp20
 70
     1
102
RTVSPropertyOp21
 70
     1
102
RTVSPropertyOp22
 70
     1
102
RTVSPropertyOp23
 70
     1
102
RTVSPropertyOp24
 70
     1
102
RTVSPropertyOp25
 70
     1
102
RTVSPropertyOp26
 70
     1
102
RTVSPropertyOp27
 70
     1
102
RTVSPropertyOp28
 70
     1
102
RTVSPropertyOp29
 70
     1
102
RTVSPropertyOp30
 70
     1
102
RTVSPropertyOp31
 70
     1
102
RTVSPropertyOp32
 70
     1
102
RTVSPropertyOp33
 70
     1
102
RTVSPropertyOp34
 70
     1
102
RTVSPropertyOp35
 70
     1
102
RTVSPropertyOp36
 70
     1
102
RTVSPropertyOp37
 70
     1
102
RTVSPropertyOp38
 70
     1
102
RTVSPropertyOp39
 70
     1
102
RTVSPropertyOp40
 70
     1
102
RTVSPropertyOp41
 70
     1
102
RTVSPropertyOp42
 70
     1
102
RTVSPropertyOp43
 70
     1
102
RTVSPropertyOp44
 70
     1
102
RTVSPropertyOp45
 70
     1
102
RTVSPropertyOp46
 70
     1
102
RTVSPropertyOp47
 70
     1
102
RTVSPropertyOp48
 70
     1
102
RTVSPropertyOp49
 70
     1
102
RTVSPropertyOp50
 70
     1
102
RTVSPropertyOp51
 70
     0
102
RTVSPropertyOp52
 70
     0
102
RTVSPropertyOp53
 70
     1
102
RTVSPropertyOp54
 70
     1
102
RTVSPropertyOp55
 70
     1
102
RTVSPropertyOp56
 70
     1
102
RTVSPropertyOp57
 70
     1
102
RTVSPost2010Prop28
280
     0
102
RTVSPost2010PropOp28
 70
     1
102
RTVSPost2010Prop29
280
     1
102
RTVSPost2010PropOp29
 70
     1
102
RTVSPost2010Prop30
280
     1
102
RTVSPost2010PropOp30
 70
     1
102
RTVSPost2010Prop31
280
     0
102
RTVSPost2010PropOp31
 70
     1
102
RTVSPost2010Prop32
280
     0
102
RTVSPost2010PropOp32
 70
     1
102
RTVSPost2010Prop33
280
     0
102
RTVSPost2010PropOp33
 70
     1
102
RTVSPost2010Prop34
280
     0
102
RTVSPost2010PropOp34
 70
     1
102
RTVSPost2010Prop35
280
     0
102
RTVSPost2010PropOp35
 70
     1
102
RTVSPost2010Prop36
280
     0
102
RTVSPost2010PropOp36
 70
     1
102
RTVSPost2010Prop37
 90
       50
102
RTVSPost2010PropOp37
 70
     1
102
RTVSPost2010Prop38
140
0.0
102
RTVSPost2010PropOp38
 70
     1
102
RTVSPost2010Prop39
140
1.0
102
RTVSPost2010PropOp39
 70
     1
102
RTVSPost2010Prop40
 90
        0
102
RTVSPost2010PropOp40
 70
     1
102
RTVSPost2010Prop41ColorIndex
 90
       18
102
RTVSPost2010Prop41ColorRGB
 90
        0
102
RTVSPost2010PropOp41
 70
     1
102
RTVSPost2010Prop42
 90
       50
102
RTVSPost2010PropOp42
 70
     1
102
RTVSPost2010Prop43
 90
        3
102
RTVSPost2010PropOp43
 70
     1
102
RTVSPost2010Prop44ColorIndex
 90
        5
102
RTVSPost2010Prop44ColorRGB
 90
      255
102
RTVSPost2010PropOp44
 70
     1
102
RTVSPost2010Prop45
280
     0
102
RTVSPost2010PropOp45
 70
     1
102
RTVSPost2010Prop46
 90
       50
102
RTVSPost2010PropOp46
 70
     1
102
RTVSPost2010Prop47
 90
       50
102
RTVSPost2010PropOp47
 70
     1
102
RTVSPost2010Prop48
 90
       50
102
RTVSPost2010PropOp48
 70
     1
102
RTVSPost2010Prop49
280
     0
102
RTVSPost2010PropOp49
 70
     1
102
RTVSPost2010Prop50
 90
       50
102
RTVSPost2010PropOp50
 70
     1
102
RTVSPost2010Prop51ColorIndex
 90
      256
102
RTVSPost2010Prop51ColorRGB
 90
-16777216
102
RTVSPost2010PropOp51
 70
     0
102
RTVSPost2010Prop52
140
1.0
102
RTVSPost2010PropOp52
 70
     0
102
RTVSPost2010Prop53
 90
        2
102
RTVSPost2010PropOp53
 70
     1
102
RTVSPost2010Prop54
  1
strokes_ogs.tif
102
RTVSPost2010PropOp54
 70
     1
102
RTVSPost2010Prop55
280
     0
102
RTVSPost2010PropOp55
 70
     1
102
RTVSPost2010Prop56
140
1.0
102
RTVSPost2010PropOp56
 70
     1
102
RTVSPost2010Prop57
140
1.0
102
RTVSPost2010PropOp57
 70
     1
  0
XRECORD
  5
3C6
102
{ACAD_REACTORS
330
3C5
102
}
330
3C5
100
AcDbXrecord
280
     1
102
RTVSPropertyOp0
 70
     1
102
RTVSPropertyOp1
 70
     1
102
RTVSPropertyOp2
 70
     1
102
RTVSPropertyOp3
 70
     1
102
RTVSPropertyOp4
 70
     1
102
RTVSPropertyOp5
 70
     1
102
RTVSPropertyOp6
 70
     1
102
RTVSPropertyOp7
 70
     1
102
RTVSPropertyOp8
 70
     1
102
RTVSPropertyOp9
 70
     1
102
RTVSPropertyOp10
 70
     1
102
RTVSPropertyOp11
 70
     1
102
RTVSPropertyOp12
 70
     1
102
RTVSPropertyOp13
 70
     1
102
RTVSPropertyOp14
 70
     1
102
RTVSPropertyOp15
 70
     1
102
RTVSPropertyOp16
 70
     1
102
RTVSPropertyOp17
 70
     1
102
RTVSPropertyOp18
 70
     1
102
RTVSPropertyOp19
 70
     1
102
RTVSPropertyOp20
 70
     1
102
RTVSPropertyOp21
 70
     1
102
RTVSPropertyOp22
 70
     1
102
RTVSPropertyOp23
 70
     1
102
RTVSPropertyOp24
 70
     1
102
RTVSPropertyOp25
 70
     1
102
RTVSPropertyOp26
 70
     1
102
RTVSPropertyOp27
 70
     1
102
RTVSPropertyOp28
 70
     1
102
RTVSPropertyOp29
 70
     1
102
RTVSPropertyOp30
 70
     1
102
RTVSPropertyOp31
 70
     1
102
RTVSPropertyOp32
 70
     1
102
RTVSPropertyOp33
 70
     1
102
RTVSPropertyOp34
 70
     1
102
RTVSPropertyOp35
 70
     1
102
RTVSPropertyOp36
 70
     1
102
RTVSPropertyOp37
 70
     1
102
RTVSPropertyOp38
 70
     1
102
RTVSPropertyOp39
 70
     1
102
RTVSPropertyOp40
 70
     1
102
RTVSPropertyOp41
 70
     1
102
RTVSPropertyOp42
 70
     1
102
RTVSPropertyOp43
 70
     1
102
RTVSPropertyOp44
 70
     1
102
RTVSPropertyOp45
 70
     1
102
RTVSPropertyOp46
 70
     1
102
RTVSPropertyOp47
 70
     1
102
RTVSPropertyOp48
 70
     1
102
RTVSPropertyOp49
 70
     1
102
RTVSPropertyOp50
 70
     1
102
RTVSPropertyOp51
 70
     0
102
RTVSPropertyOp52
 70
     0
102
RTVSPropertyOp53
 70
     1
102
RTVSPropertyOp54
 70
     1
102
RTVSPropertyOp55
 70
     1
102
RTVSPropertyOp56
 70
     1
102
RTVSPropertyOp57
 70
     1
102
RTVSPost2010Prop28
280
     0
102
RTVSPost2010PropOp28
 70
     1
102
RTVSPost2010Prop29
280
     1
102
RTVSPost2010PropOp29
 70
     1
102
RTVSPost2010Prop30
280
     1
102
RTVSPost2010PropOp30
 70
     1
102
RTVSPost2010Prop31
280
     0
102
RTVSPost2010PropOp31
 70
     1
102
RTVSPost2010Prop32
280
     0
102
RTVSPost2010PropOp32
 70
     1
102
RTVSPost2010Prop33
280
     0
102
RTVSPost2010PropOp33
 70
     1
102
RTVSPost2010Prop34
280
     0
102
RTVSPost2010PropOp34
 70
     1
102
RTVSPost2010Prop35
280
     0
102
RTVSPost2010PropOp35
 70
     1
102
RTVSPost2010Prop36
280
     0
102
RTVSPost2010PropOp36
 70
     1
102
RTVSPost2010Prop37
 90
       50
102
RTVSPost2010PropOp37
 70
     1
102
RTVSPost2010Prop38
140
0.0
102
RTVSPost2010PropOp38
 70
     1
102
RTVSPost2010Prop39
140
1.0
102
RTVSPost2010PropOp39
 70
     1
102
RTVSPost2010Prop40
 90
        0
102
RTVSPost2010PropOp40
 70
     1
102
RTVSPost2010Prop41ColorIndex
 90
       18
102
RTVSPost2010Prop41ColorRGB
 90
        0
102
RTVSPost2010PropOp41
 70
     1
102
RTVSPost2010Prop42
 90
       50
102
RTVSPost2010PropOp42
 70
     1
102
RTVSPost2010Prop43
 90
        3
102
RTVSPost2010PropOp43
 70
     1
102
RTVSPost2010Prop44ColorIndex
 90
        5
102
RTVSPost2010Prop44ColorRGB
 90
      255
102
RTVSPost2010PropOp44
 70
     1
102
RTVSPost2010Prop45
280
     0
102
RTVSPost2010PropOp45
 70
     1
102
RTVSPost2010Prop46
 90
       50
102
RTVSPost2010PropOp46
 70
     1
102
RTVSPost2010Prop47
 90
       50
102
RTVSPost2010PropOp47
 70
     1
102
RTVSPost2010Prop48
 90
       50
102
RTVSPost2010PropOp48
 70
     1
102
RTVSPost2010Prop49
280
     0
102
RTVSPost2010PropOp49
 70
     1
102
RTVSPost2010Prop50
 90
       50
102
RTVSPost2010PropOp50
 70
     1
102
RTVSPost2010Prop51ColorIndex
 90
      256
102
RTVSPost2010Prop51ColorRGB
 90
-16777216
102
RTVSPost2010PropOp51
 70
     0
102
RTVSPost2010Prop52
140
1.0
102
RTVSPost2010PropOp52
 70
     0
102
RTVSPost2010Prop53
 90
        2
102
RTVSPost2010PropOp53
 70
     1
102
RTVSPost2010Prop54
  1
strokes_ogs.tif
102
RTVSPost2010PropOp54
 70
     1
102
RTVSPost2010Prop55
280
     0
102
RTVSPost2010PropOp55
 70
     1
102
RTVSPost2010Prop56
140
1.0
102
RTVSPost2010PropOp56
 70
     1
102
RTVSPost2010Prop57
140
1.0
102
RTVSPost2010PropOp57
 70
     1
  0
XRECORD
  5
3BA
102
{ACAD_REACTORS
330
3B9
102
}
330
3B9
100
AcDbXrecord
280
     1
102
RTVSPropertyOp0
 70
     1
102
RTVSPropertyOp1
 70
     1
102
RTVSPropertyOp2
 70
     1
102
RTVSPropertyOp3
 70
     1
102
RTVSPropertyOp4
 70
     1
102
RTVSPropertyOp5
 70
     1
102
RTVSPropertyOp6
 70
     1
102
RTVSPropertyOp7
 70
     1
102
RTVSPropertyOp8
 70
     1
102
RTVSPropertyOp9
 70
     1
102
RTVSPropertyOp10
 70
     1
102
RTVSPropertyOp11
 70
     1
102
RTVSPropertyOp12
 70
     1
102
RTVSPropertyOp13
 70
     1
102
RTVSPropertyOp14
 70
     1
102
RTVSPropertyOp15
 70
     1
102
RTVSPropertyOp16
 70
     1
102
RTVSPropertyOp17
 70
     1
102
RTVSPropertyOp18
 70
     1
102
RTVSPropertyOp19
 70
     1
102
RTVSPropertyOp20
 70
     1
102
RTVSPropertyOp21
 70
     1
102
RTVSPropertyOp22
 70
     1
102
RTVSPropertyOp23
 70
     1
102
RTVSPropertyOp24
 70
     1
102
RTVSPropertyOp25
 70
     1
102
RTVSPropertyOp26
 70
     1
102
RTVSPropertyOp27
 70
     1
102
RTVSPropertyOp28
 70
     1
102
RTVSPropertyOp29
 70
     1
102
RTVSPropertyOp30
 70
     1
102
RTVSPropertyOp31
 70
     1
102
RTVSPropertyOp32
 70
     1
102
RTVSPropertyOp33
 70
     1
102
RTVSPropertyOp34
 70
     1
102
RTVSPropertyOp35
 70
     1
102
RTVSPropertyOp36
 70
     1
102
RTVSPropertyOp37
 70
     1
102
RTVSPropertyOp38
 70
     1
102
RTVSPropertyOp39
 70
     1
102
RTVSPropertyOp40
 70
     1
102
RTVSPropertyOp41
 70
     1
102
RTVSPropertyOp42
 70
     1
102
RTVSPropertyOp43
 70
     1
102
RTVSPropertyOp44
 70
     1
102
RTVSPropertyOp45
 70
     1
102
RTVSPropertyOp46
 70
     1
102
RTVSPropertyOp47
 70
     1
102
RTVSPropertyOp48
 70
     1
102
RTVSPropertyOp49
 70
     1
102
RTVSPropertyOp50
 70
     1
102
RTVSPropertyOp51
 70
     0
102
RTVSPropertyOp52
 70
     0
102
RTVSPropertyOp53
 70
     1
102
RTVSPropertyOp54
 70
     1
102
RTVSPropertyOp55
 70
     1
102
RTVSPropertyOp56
 70
     1
102
RTVSPropertyOp57
 70
     1
102
RTVSPost2010Prop28
280
     0
102
RTVSPost2010PropOp28
 70
     1
102
RTVSPost2010Prop29
280
     1
102
RTVSPost2010PropOp29
 70
     1
102
RTVSPost2010Prop30
280
     1
102
RTVSPost2010PropOp30
 70
     1
102
RTVSPost2010Prop31
280
     0
102
RTVSPost2010PropOp31
 70
     1
102
RTVSPost2010Prop32
280
     0
102
RTVSPost2010PropOp32
 70
     1
102
RTVSPost2010Prop33
280
     0
102
RTVSPost2010PropOp33
 70
     1
102
RTVSPost2010Prop34
280
     0
102
RTVSPost2010PropOp34
 70
     1
102
RTVSPost2010Prop35
280
     0
102
RTVSPost2010PropOp35
 70
     1
102
RTVSPost2010Prop36
280
     0
102
RTVSPost2010PropOp36
 70
     1
102
RTVSPost2010Prop37
 90
       50
102
RTVSPost2010PropOp37
 70
     1
102
RTVSPost2010Prop38
140
0.0
102
RTVSPost2010PropOp38
 70
     1
102
RTVSPost2010Prop39
140
1.0
102
RTVSPost2010PropOp39
 70
     1
102
RTVSPost2010Prop40
 90
        0
102
RTVSPost2010PropOp40
 70
     1
102
RTVSPost2010Prop41ColorIndex
 90
       18
102
RTVSPost2010Prop41ColorRGB
 90
        0
102
RTVSPost2010PropOp41
 70
     1
102
RTVSPost2010Prop42
 90
       50
102
RTVSPost2010PropOp42
 70
     1
102
RTVSPost2010Prop43
 90
        3
102
RTVSPost2010PropOp43
 70
     1
102
RTVSPost2010Prop44ColorIndex
 90
        5
102
RTVSPost2010Prop44ColorRGB
 90
      255
102
RTVSPost2010PropOp44
 70
     1
102
RTVSPost2010Prop45
280
     0
102
RTVSPost2010PropOp45
 70
     1
102
RTVSPost2010Prop46
 90
       50
102
RTVSPost2010PropOp46
 70
     1
102
RTVSPost2010Prop47
 90
       50
102
RTVSPost2010PropOp47
 70
     1
102
RTVSPost2010Prop48
 90
       50
102
RTVSPost2010PropOp48
 70
     1
102
RTVSPost2010Prop49
280
     0
102
RTVSPost2010PropOp49
 70
     1
102
RTVSPost2010Prop50
 90
       50
102
RTVSPost2010PropOp50
 70
     1
102
RTVSPost2010Prop51ColorIndex
 90
      256
102
RTVSPost2010Prop51ColorRGB
 90
-16777216
102
RTVSPost2010PropOp51
 70
     0
102
RTVSPost2010Prop52
140
1.0
102
RTVSPost2010PropOp52
 70
     0
102
RTVSPost2010Prop53
 90
        2
102
RTVSPost2010PropOp53
 70
     1
102
RTVSPost2010Prop54
  1
strokes_ogs.tif
102
RTVSPost2010PropOp54
 70
     1
102
RTVSPost2010Prop55
280
     0
102
RTVSPost2010PropOp55
 70
     1
102
RTVSPost2010Prop56
140
1.0
102
RTVSPost2010PropOp56
 70
     1
102
RTVSPost2010Prop57
140
1.0
102
RTVSPost2010PropOp57
 70
     1
  0
XRECORD
  5
3BC
102
{ACAD_REACTORS
330
3BB
102
}
330
3BB
100
AcDbXrecord
280
     1
102
RTVSPropertyOp0
 70
     1
102
RTVSPropertyOp1
 70
     1
102
RTVSPropertyOp2
 70
     1
102
RTVSPropertyOp3
 70
     1
102
RTVSPropertyOp4
 70
     1
102
RTVSPropertyOp5
 70
     1
102
RTVSPropertyOp6
 70
     1
102
RTVSPropertyOp7
 70
     1
102
RTVSPropertyOp8
 70
     1
102
RTVSPropertyOp9
 70
     1
102
RTVSPropertyOp10
 70
     1
102
RTVSPropertyOp11
 70
     1
102
RTVSPropertyOp12
 70
     1
102
RTVSPropertyOp13
 70
     1
102
RTVSPropertyOp14
 70
     1
102
RTVSPropertyOp15
 70
     1
102
RTVSPropertyOp16
 70
     1
102
RTVSPropertyOp17
 70
     1
102
RTVSPropertyOp18
 70
     1
102
RTVSPropertyOp19
 70
     1
102
RTVSPropertyOp20
 70
     1
102
RTVSPropertyOp21
 70
     1
102
RTVSPropertyOp22
 70
     1
102
RTVSPropertyOp23
 70
     1
102
RTVSPropertyOp24
 70
     1
102
RTVSPropertyOp25
 70
     1
102
RTVSPropertyOp26
 70
     1
102
RTVSPropertyOp27
 70
     1
102
RTVSPropertyOp28
 70
     1
102
RTVSPropertyOp29
 70
     1
102
RTVSPropertyOp30
 70
     1
102
RTVSPropertyOp31
 70
     1
102
RTVSPropertyOp32
 70
     1
102
RTVSPropertyOp33
 70
     1
102
RTVSPropertyOp34
 70
     1
102
RTVSPropertyOp35
 70
     1
102
RTVSPropertyOp36
 70
     1
102
RTVSPropertyOp37
 70
     1
102
RTVSPropertyOp38
 70
     1
102
RTVSPropertyOp39
 70
     1
102
RTVSPropertyOp40
 70
     1
102
RTVSPropertyOp41
 70
     1
102
RTVSPropertyOp42
 70
     1
102
RTVSPropertyOp43
 70
     1
102
RTVSPropertyOp44
 70
     1
102
RTVSPropertyOp45
 70
     1
102
RTVSPropertyOp46
 70
     1
102
RTVSPropertyOp47
 70
     1
102
RTVSPropertyOp48
 70
     1
102
RTVSPropertyOp49
 70
     1
102
RTVSPropertyOp50
 70
     1
102
RTVSPropertyOp51
 70
     0
102
RTVSPropertyOp52
 70
     0
102
RTVSPropertyOp53
 70
     1
102
RTVSPropertyOp54
 70
     1
102
RTVSPropertyOp55
 70
     1
102
RTVSPropertyOp56
 70
     1
102
RTVSPropertyOp57
 70
     1
102
RTVSPost2010Prop28
280
     0
102
RTVSPost2010PropOp28
 70
     1
102
RTVSPost2010Prop29
280
     1
102
RTVSPost2010PropOp29
 70
     1
102
RTVSPost2010Prop30
280
     1
102
RTVSPost2010PropOp30
 70
     1
102
RTVSPost2010Prop31
280
     0
102
RTVSPost2010PropOp31
 70
     1
102
RTVSPost2010Prop32
280
     0
102
RTVSPost2010PropOp32
 70
     1
102
RTVSPost2010Prop33
280
     0
102
RTVSPost2010PropOp33
 70
     1
102
RTVSPost2010Prop34
280
     0
102
RTVSPost2010PropOp34
 70
     1
102
RTVSPost2010Prop35
280
     0
102
RTVSPost2010PropOp35
 70
     1
102
RTVSPost2010Prop36
280
     0
102
RTVSPost2010PropOp36
 70
     1
102
RTVSPost2010Prop37
 90
       50
102
RTVSPost2010PropOp37
 70
     1
102
RTVSPost2010Prop38
140
0.0
102
RTVSPost2010PropOp38
 70
     1
102
RTVSPost2010Prop39
140
1.0
102
RTVSPost2010PropOp39
 70
     1
102
RTVSPost2010Prop40
 90
        0
102
RTVSPost2010PropOp40
 70
     1
102
RTVSPost2010Prop41ColorIndex
 90
       18
102
RTVSPost2010Prop41ColorRGB
 90
        0
102
RTVSPost2010PropOp41
 70
     1
102
RTVSPost2010Prop42
 90
       50
102
RTVSPost2010PropOp42
 70
     1
102
RTVSPost2010Prop43
 90
        3
102
RTVSPost2010PropOp43
 70
     1
102
RTVSPost2010Prop44ColorIndex
 90
        5
102
RTVSPost2010Prop44ColorRGB
 90
      255
102
RTVSPost2010PropOp44
 70
     1
102
RTVSPost2010Prop45
280
     0
102
RTVSPost2010PropOp45
 70
     1
102
RTVSPost2010Prop46
 90
       50
102
RTVSPost2010PropOp46
 70
     1
102
RTVSPost2010Prop47
 90
       50
102
RTVSPost2010PropOp47
 70
     1
102
RTVSPost2010Prop48
 90
       50
102
RTVSPost2010PropOp48
 70
     1
102
RTVSPost2010Prop49
280
     0
102
RTVSPost2010PropOp49
 70
     1
102
RTVSPost2010Prop50
 90
       50
102
RTVSPost2010PropOp50
 70
     1
102
RTVSPost2010Prop51ColorIndex
 90
      256
102
RTVSPost2010Prop51ColorRGB
 90
-16777216
102
RTVSPost2010PropOp51
 70
     0
102
RTVSPost2010Prop52
140
1.0
102
RTVSPost2010PropOp52
 70
     0
102
RTVSPost2010Prop53
 90
        2
102
RTVSPost2010PropOp53
 70
     1
102
RTVSPost2010Prop54
  1
strokes_ogs.tif
102
RTVSPost2010PropOp54
 70
     1
102
RTVSPost2010Prop55
280
     0
102
RTVSPost2010PropOp55
 70
     1
102
RTVSPost2010Prop56
140
1.0
102
RTVSPost2010PropOp56
 70
     1
102
RTVSPost2010Prop57
140
1.0
102
RTVSPost2010PropOp57
 70
     1
  0
XRECORD
  5
3CC
102
{ACAD_REACTORS
330
3CB
102
}
330
3CB
100
AcDbXrecord
280
     1
102
RTVSPropertyOp0
 70
     0
102
RTVSPropertyOp1
 70
     0
102
RTVSPropertyOp2
 70
     0
102
RTVSPropertyOp3
 70
     0
102
RTVSPropertyOp4
 70
     0
102
RTVSPropertyOp5
 70
     0
102
RTVSPropertyOp6
 70
     0
102
RTVSPropertyOp7
 70
     0
102
RTVSPropertyOp8
 70
     0
102
RTVSPropertyOp9
 70
     0
102
RTVSPropertyOp10
 70
     0
102
RTVSPropertyOp11
 70
     0
102
RTVSPropertyOp12
 70
     0
102
RTVSPropertyOp13
 70
     0
102
RTVSPropertyOp14
 70
     2
102
RTVSPropertyOp15
 70
     0
102
RTVSPropertyOp16
 70
     0
102
RTVSPropertyOp17
 70
     0
102
RTVSPropertyOp18
 70
     0
102
RTVSPropertyOp19
 70
     0
102
RTVSPropertyOp20
 70
     0
102
RTVSPropertyOp21
 70
     0
102
RTVSPropertyOp22
 70
     0
102
RTVSPropertyOp23
 70
     0
102
RTVSPropertyOp24
 70
     0
102
RTVSPropertyOp25
 70
     0
102
RTVSPropertyOp26
 70
     0
102
RTVSPropertyOp27
 70
     0
102
RTVSPropertyOp28
 70
     0
102
RTVSPropertyOp29
 70
     0
102
RTVSPropertyOp30
 70
     0
102
RTVSPropertyOp31
 70
     0
102
RTVSPropertyOp32
 70
     0
102
RTVSPropertyOp33
 70
     0
102
RTVSPropertyOp34
 70
     0
102
RTVSPropertyOp35
 70
     0
102
RTVSPropertyOp36
 70
     0
102
RTVSPropertyOp37
 70
     0
102
RTVSPropertyOp38
 70
     0
102
RTVSPropertyOp39
 70
     0
102
RTVSPropertyOp40
 70
     0
102
RTVSPropertyOp41
 70
     0
102
RTVSPropertyOp42
 70
     0
102
RTVSPropertyOp43
 70
     0
102
RTVSPropertyOp44
 70
     0
102
RTVSPropertyOp45
 70
     0
102
RTVSPropertyOp46
 70
     0
102
RTVSPropertyOp47
 70
     0
102
RTVSPropertyOp48
 70
     0
102
RTVSPropertyOp49
 70
     0
102
RTVSPropertyOp50
 70
     0
102
RTVSPropertyOp51
 70
     0
102
RTVSPropertyOp52
 70
     0
102
RTVSPropertyOp53
 70
     0
102
RTVSPropertyOp54
 70
     0
102
RTVSPropertyOp55
 70
     0
102
RTVSPropertyOp56
 70
     0
102
RTVSPropertyOp57
 70
     0
102
RTVSPost2010Prop28
280
     0
102
RTVSPost2010PropOp28
 70
     0
102
RTVSPost2010Prop29
280
     1
102
RTVSPost2010PropOp29
 70
     0
102
RTVSPost2010Prop30
280
     1
102
RTVSPost2010PropOp30
 70
     0
102
RTVSPost2010Prop31
280
     0
102
RTVSPost2010PropOp31
 70
     0
102
RTVSPost2010Prop32
280
     0
102
RTVSPost2010PropOp32
 70
     0
102
RTVSPost2010Prop33
280
     0
102
RTVSPost2010PropOp33
 70
     0
102
RTVSPost2010Prop34
280
     0
102
RTVSPost2010PropOp34
 70
     0
102
RTVSPost2010Prop35
280
     0
102
RTVSPost2010PropOp35
 70
     0
102
RTVSPost2010Prop36
280
     0
102
RTVSPost2010PropOp36
 70
     0
102
RTVSPost2010Prop37
 90
       50
102
RTVSPost2010PropOp37
 70
     0
102
RTVSPost2010Prop38
140
0.0
102
RTVSPost2010PropOp38
 70
     0
102
RTVSPost2010Prop39
140
1.0
102
RTVSPost2010PropOp39
 70
     0
102
RTVSPost2010Prop40
 90
        0
102
RTVSPost2010PropOp40
 70
     0
102
RTVSPost2010Prop41ColorIndex
 90
       18
102
RTVSPost2010Prop41ColorRGB
 90
        0
102
RTVSPost2010PropOp41
 70
     0
102
RTVSPost2010Prop42
 90
       50
102
RTVSPost2010PropOp42
 70
     0
102
RTVSPost2010Prop43
 90
        3
102
RTVSPost2010PropOp43
 70
     0
102
RTVSPost2010Prop44ColorIndex
 90
        5
102
RTVSPost2010Prop44ColorRGB
 90
      255
102
RTVSPost2010PropOp44
 70
     0
102
RTVSPost2010Prop45
280
     0
102
RTVSPost2010PropOp45
 70
     0
102
RTVSPost2010Prop46
 90
       50
102
RTVSPost2010PropOp46
 70
     0
102
RTVSPost2010Prop47
 90
       50
102
RTVSPost2010PropOp47
 70
     0
102
RTVSPost2010Prop48
 90
       50
102
RTVSPost2010PropOp48
 70
     0
102
RTVSPost2010Prop49
280
     0
102
RTVSPost2010PropOp49
 70
     0
102
RTVSPost2010Prop50
 90
       50
102
RTVSPost2010PropOp50
 70
     0
102
RTVSPost2010Prop51ColorIndex
 90
      256
102
RTVSPost2010Prop51ColorRGB
 90
-16777216
102
RTVSPost2010PropOp51
 70
     0
102
RTVSPost2010Prop52
140
1.0
102
RTVSPost2010PropOp52
 70
     0
102
RTVSPost2010Prop53
 90
        2
102
RTVSPost2010PropOp53
 70
     0
102
RTVSPost2010Prop54
  1
strokes_ogs.tif
102
RTVSPost2010PropOp54
 70
     0
102
RTVSPost2010Prop55
280
     0
102
RTVSPost2010PropOp55
 70
     0
102
RTVSPost2010Prop56
140
1.0
102
RTVSPost2010PropOp56
 70
     0
102
RTVSPost2010Prop57
140
1.0
102
RTVSPost2010PropOp57
 70
     0
  0
XRECORD
  5
3C4
102
{ACAD_REACTORS
330
3C3
102
}
330
3C3
100
AcDbXrecord
280
     1
102
RTVSPropertyOp0
 70
     1
102
RTVSPropertyOp1
 70
     1
102
RTVSPropertyOp2
 70
     1
102
RTVSPropertyOp3
 70
     1
102
RTVSPropertyOp4
 70
     1
102
RTVSPropertyOp5
 70
     1
102
RTVSPropertyOp6
 70
     1
102
RTVSPropertyOp7
 70
     1
102
RTVSPropertyOp8
 70
     1
102
RTVSPropertyOp9
 70
     1
102
RTVSPropertyOp10
 70
     1
102
RTVSPropertyOp11
 70
     1
102
RTVSPropertyOp12
 70
     1
102
RTVSPropertyOp13
 70
     1
102
RTVSPropertyOp14
 70
     1
102
RTVSPropertyOp15
 70
     1
102
RTVSPropertyOp16
 70
     1
102
RTVSPropertyOp17
 70
     1
102
RTVSPropertyOp18
 70
     1
102
RTVSPropertyOp19
 70
     1
102
RTVSPropertyOp20
 70
     1
102
RTVSPropertyOp21
 70
     1
102
RTVSPropertyOp22
 70
     1
102
RTVSPropertyOp23
 70
     1
102
RTVSPropertyOp24
 70
     1
102
RTVSPropertyOp25
 70
     1
102
RTVSPropertyOp26
 70
     1
102
RTVSPropertyOp27
 70
     1
102
RTVSPropertyOp28
 70
     1
102
RTVSPropertyOp29
 70
     1
102
RTVSPropertyOp30
 70
     1
102
RTVSPropertyOp31
 70
     1
102
RTVSPropertyOp32
 70
     1
102
RTVSPropertyOp33
 70
     1
102
RTVSPropertyOp34
 70
     1
102
RTVSPropertyOp35
 70
     1
102
RTVSPropertyOp36
 70
     1
102
RTVSPropertyOp37
 70
     1
102
RTVSPropertyOp38
 70
     1
102
RTVSPropertyOp39
 70
     1
102
RTVSPropertyOp40
 70
     1
102
RTVSPropertyOp41
 70
     1
102
RTVSPropertyOp42
 70
     1
102
RTVSPropertyOp43
 70
     1
102
RTVSPropertyOp44
 70
     1
102
RTVSPropertyOp45
 70
     1
102
RTVSPropertyOp46
 70
     1
102
RTVSPropertyOp47
 70
     1
102
RTVSPropertyOp48
 70
     1
102
RTVSPropertyOp49
 70
     1
102
RTVSPropertyOp50
 70
     1
102
RTVSPropertyOp51
 70
     0
102
RTVSPropertyOp52
 70
     0
102
RTVSPropertyOp53
 70
     1
102
RTVSPropertyOp54
 70
     1
102
RTVSPropertyOp55
 70
     1
102
RTVSPropertyOp56
 70
     1
102
RTVSPropertyOp57
 70
     1
102
RTVSPost2010Prop28
280
     0
102
RTVSPost2010PropOp28
 70
     1
102
RTVSPost2010Prop29
280
     1
102
RTVSPost2010PropOp29
 70
     1
102
RTVSPost2010Prop30
280
     1
102
RTVSPost2010PropOp30
 70
     1
102
RTVSPost2010Prop31
280
     0
102
RTVSPost2010PropOp31
 70
     1
102
RTVSPost2010Prop32
280
     0
102
RTVSPost2010PropOp32
 70
     1
102
RTVSPost2010Prop33
280
     0
102
RTVSPost2010PropOp33
 70
     1
102
RTVSPost2010Prop34
280
     0
102
RTVSPost2010PropOp34
 70
     1
102
RTVSPost2010Prop35
280
     0
102
RTVSPost2010PropOp35
 70
     1
102
RTVSPost2010Prop36
280
     0
102
RTVSPost2010PropOp36
 70
     1
102
RTVSPost2010Prop37
 90
       50
102
RTVSPost2010PropOp37
 70
     1
102
RTVSPost2010Prop38
140
0.0
102
RTVSPost2010PropOp38
 70
     1
102
RTVSPost2010Prop39
140
1.0
102
RTVSPost2010PropOp39
 70
     1
102
RTVSPost2010Prop40
 90
        0
102
RTVSPost2010PropOp40
 70
     1
102
RTVSPost2010Prop41ColorIndex
 90
       18
102
RTVSPost2010Prop41ColorRGB
 90
        0
102
RTVSPost2010PropOp41
 70
     1
102
RTVSPost2010Prop42
 90
       50
102
RTVSPost2010PropOp42
 70
     1
102
RTVSPost2010Prop43
 90
        3
102
RTVSPost2010PropOp43
 70
     1
102
RTVSPost2010Prop44ColorIndex
 90
        5
102
RTVSPost2010Prop44ColorRGB
 90
      255
102
RTVSPost2010PropOp44
 70
     1
102
RTVSPost2010Prop45
280
     0
102
RTVSPost2010PropOp45
 70
     1
102
RTVSPost2010Prop46
 90
       50
102
RTVSPost2010PropOp46
 70
     1
102
RTVSPost2010Prop47
 90
       50
102
RTVSPost2010PropOp47
 70
     1
102
RTVSPost2010Prop48
 90
       50
102
RTVSPost2010PropOp48
 70
     1
102
RTVSPost2010Prop49
280
     0
102
RTVSPost2010PropOp49
 70
     1
102
RTVSPost2010Prop50
 90
       50
102
RTVSPost2010PropOp50
 70
     1
102
RTVSPost2010Prop51ColorIndex
 90
      256
102
RTVSPost2010Prop51ColorRGB
 90
-16777216
102
RTVSPost2010PropOp51
 70
     0
102
RTVSPost2010Prop52
140
1.0
102
RTVSPost2010PropOp52
 70
     0
102
RTVSPost2010Prop53
 90
        2
102
RTVSPost2010PropOp53
 70
     1
102
RTVSPost2010Prop54
  1
strokes_ogs.tif
102
RTVSPost2010PropOp54
 70
     1
102
RTVSPost2010Prop55
280
     0
102
RTVSPost2010PropOp55
 70
     1
102
RTVSPost2010Prop56
140
1.0
102
RTVSPost2010PropOp56
 70
     1
102
RTVSPost2010Prop57
140
1.0
102
RTVSPost2010PropOp57
 70
     1
  0
XRECORD
  5
3A8
102
{ACAD_REACTORS
330
3A7
102
}
330
3A7
100
AcDbXrecord
280
     1
102
RTVSPropertyOp0
 70
     1
102
RTVSPropertyOp1
 70
     1
102
RTVSPropertyOp2
 70
     1
102
RTVSPropertyOp3
 70
     1
102
RTVSPropertyOp4
 70
     1
102
RTVSPropertyOp5
 70
     1
102
RTVSPropertyOp6
 70
     1
102
RTVSPropertyOp7
 70
     1
102
RTVSPropertyOp8
 70
     1
102
RTVSPropertyOp9
 70
     1
102
RTVSPropertyOp10
 70
     1
102
RTVSPropertyOp11
 70
     1
102
RTVSPropertyOp12
 70
     1
102
RTVSPropertyOp13
 70
     1
102
RTVSPropertyOp14
 70
     1
102
RTVSPropertyOp15
 70
     1
102
RTVSPropertyOp16
 70
     1
102
RTVSPropertyOp17
 70
     1
102
RTVSPropertyOp18
 70
     1
102
RTVSPropertyOp19
 70
     1
102
RTVSPropertyOp20
 70
     1
102
RTVSPropertyOp21
 70
     1
102
RTVSPropertyOp22
 70
     1
102
RTVSPropertyOp23
 70
     1
102
RTVSPropertyOp24
 70
     1
102
RTVSPropertyOp25
 70
     1
102
RTVSPropertyOp26
 70
     1
102
RTVSPropertyOp27
 70
     1
102
RTVSPropertyOp28
 70
     1
102
RTVSPropertyOp29
 70
     1
102
RTVSPropertyOp30
 70
     1
102
RTVSPropertyOp31
 70
     1
102
RTVSPropertyOp32
 70
     1
102
RTVSPropertyOp33
 70
     1
102
RTVSPropertyOp34
 70
     1
102
RTVSPropertyOp35
 70
     1
102
RTVSPropertyOp36
 70
     1
102
RTVSPropertyOp37
 70
     1
102
RTVSPropertyOp38
 70
     1
102
RTVSPropertyOp39
 70
     1
102
RTVSPropertyOp40
 70
     1
102
RTVSPropertyOp41
 70
     1
102
RTVSPropertyOp42
 70
     1
102
RTVSPropertyOp43
 70
     1
102
RTVSPropertyOp44
 70
     1
102
RTVSPropertyOp45
 70
     1
102
RTVSPropertyOp46
 70
     1
102
RTVSPropertyOp47
 70
     1
102
RTVSPropertyOp48
 70
     1
102
RTVSPropertyOp49
 70
     1
102
RTVSPropertyOp50
 70
     1
102
RTVSPropertyOp51
 70
     0
102
RTVSPropertyOp52
 70
     0
102
RTVSPropertyOp53
 70
     1
102
RTVSPropertyOp54
 70
     1
102
RTVSPropertyOp55
 70
     1
102
RTVSPropertyOp56
 70
     1
102
RTVSPropertyOp57
 70
     1
102
RTVSPost2010Prop28
280
     0
102
RTVSPost2010PropOp28
 70
     1
102
RTVSPost2010Prop29
280
     1
102
RTVSPost2010PropOp29
 70
     1
102
RTVSPost2010Prop30
280
     1
102
RTVSPost2010PropOp30
 70
     1
102
RTVSPost2010Prop31
280
     0
102
RTVSPost2010PropOp31
 70
     1
102
RTVSPost2010Prop32
280
     0
102
RTVSPost2010PropOp32
 70
     1
102
RTVSPost2010Prop33
280
     0
102
RTVSPost2010PropOp33
 70
     1
102
RTVSPost2010Prop34
280
     0
102
RTVSPost2010PropOp34
 70
     1
102
RTVSPost2010Prop35
280
     0
102
RTVSPost2010PropOp35
 70
     1
102
RTVSPost2010Prop36
280
     0
102
RTVSPost2010PropOp36
 70
     1
102
RTVSPost2010Prop37
 90
       50
102
RTVSPost2010PropOp37
 70
     1
102
RTVSPost2010Prop38
140
0.0
102
RTVSPost2010PropOp38
 70
     1
102
RTVSPost2010Prop39
140
1.0
102
RTVSPost2010PropOp39
 70
     1
102
RTVSPost2010Prop40
 90
        0
102
RTVSPost2010PropOp40
 70
     1
102
RTVSPost2010Prop41ColorIndex
 90
       18
102
RTVSPost2010Prop41ColorRGB
 90
        0
102
RTVSPost2010PropOp41
 70
     1
102
RTVSPost2010Prop42
 90
       50
102
RTVSPost2010PropOp42
 70
     1
102
RTVSPost2010Prop43
 90
        3
102
RTVSPost2010PropOp43
 70
     1
102
RTVSPost2010Prop44ColorIndex
 90
        5
102
RTVSPost2010Prop44ColorRGB
 90
      255
102
RTVSPost2010PropOp44
 70
     1
102
RTVSPost2010Prop45
280
     0
102
RTVSPost2010PropOp45
 70
     1
102
RTVSPost2010Prop46
 90
       50
102
RTVSPost2010PropOp46
 70
     1
102
RTVSPost2010Prop47
 90
       50
102
RTVSPost2010PropOp47
 70
     1
102
RTVSPost2010Prop48
 90
       50
102
RTVSPost2010PropOp48
 70
     1
102
RTVSPost2010Prop49
280
     0
102
RTVSPost2010PropOp49
 70
     1
102
RTVSPost2010Prop50
 90
       50
102
RTVSPost2010PropOp50
 70
     1
102
RTVSPost2010Prop51ColorIndex
 90
      256
102
RTVSPost2010Prop51ColorRGB
 90
-16777216
102
RTVSPost2010PropOp51
 70
     0
102
RTVSPost2010Prop52
140
1.0
102
RTVSPost2010PropOp52
 70
     0
102
RTVSPost2010Prop53
 90
        2
102
RTVSPost2010PropOp53
 70
     1
102
RTVSPost2010Prop54
  1
strokes_ogs.tif
102
RTVSPost2010PropOp54
 70
     1
102
RTVSPost2010Prop55
280
     0
102
RTVSPost2010PropOp55
 70
     1
102
RTVSPost2010Prop56
140
1.0
102
RTVSPost2010PropOp56
 70
     1
102
RTVSPost2010Prop57
140
1.0
102
RTVSPost2010PropOp57
 70
     1
  0
XRECORD
  5
3AA
102
{ACAD_REACTORS
330
3A9
102
}
330
3A9
100
AcDbXrecord
280
     1
102
RTVSPropertyOp0
 70
     1
102
RTVSPropertyOp1
 70
     1
102
RTVSPropertyOp2
 70
     1
102
RTVSPropertyOp3
 70
     1
102
RTVSPropertyOp4
 70
     1
102
RTVSPropertyOp5
 70
     1
102
RTVSPropertyOp6
 70
     1
102
RTVSPropertyOp7
 70
     1
102
RTVSPropertyOp8
 70
     1
102
RTVSPropertyOp9
 70
     1
102
RTVSPropertyOp10
 70
     1
102
RTVSPropertyOp11
 70
     1
102
RTVSPropertyOp12
 70
     1
102
RTVSPropertyOp13
 70
     1
102
RTVSPropertyOp14
 70
     1
102
RTVSPropertyOp15
 70
     1
102
RTVSPropertyOp16
 70
     1
102
RTVSPropertyOp17
 70
     1
102
RTVSPropertyOp18
 70
     1
102
RTVSPropertyOp19
 70
     1
102
RTVSPropertyOp20
 70
     1
102
RTVSPropertyOp21
 70
     1
102
RTVSPropertyOp22
 70
     1
102
RTVSPropertyOp23
 70
     1
102
RTVSPropertyOp24
 70
     1
102
RTVSPropertyOp25
 70
     1
102
RTVSPropertyOp26
 70
     1
102
RTVSPropertyOp27
 70
     1
102
RTVSPropertyOp28
 70
     1
102
RTVSPropertyOp29
 70
     1
102
RTVSPropertyOp30
 70
     1
102
RTVSPropertyOp31
 70
     1
102
RTVSPropertyOp32
 70
     1
102
RTVSPropertyOp33
 70
     1
102
RTVSPropertyOp34
 70
     1
102
RTVSPropertyOp35
 70
     1
102
RTVSPropertyOp36
 70
     1
102
RTVSPropertyOp37
 70
     1
102
RTVSPropertyOp38
 70
     1
102
RTVSPropertyOp39
 70
     1
102
RTVSPropertyOp40
 70
     1
102
RTVSPropertyOp41
 70
     1
102
RTVSPropertyOp42
 70
     1
102
RTVSPropertyOp43
 70
     1
102
RTVSPropertyOp44
 70
     1
102
RTVSPropertyOp45
 70
     1
102
RTVSPropertyOp46
 70
     1
102
RTVSPropertyOp47
 70
     1
102
RTVSPropertyOp48
 70
     1
102
RTVSPropertyOp49
 70
     1
102
RTVSPropertyOp50
 70
     1
102
RTVSPropertyOp51
 70
     0
102
RTVSPropertyOp52
 70
     0
102
RTVSPropertyOp53
 70
     1
102
RTVSPropertyOp54
 70
     1
102
RTVSPropertyOp55
 70
     1
102
RTVSPropertyOp56
 70
     1
102
RTVSPropertyOp57
 70
     1
102
RTVSPost2010Prop28
280
     0
102
RTVSPost2010PropOp28
 70
     1
102
RTVSPost2010Prop29
280
     1
102
RTVSPost2010PropOp29
 70
     1
102
RTVSPost2010Prop30
280
     1
102
RTVSPost2010PropOp30
 70
     1
102
RTVSPost2010Prop31
280
     0
102
RTVSPost2010PropOp31
 70
     1
102
RTVSPost2010Prop32
280
     0
102
RTVSPost2010PropOp32
 70
     1
102
RTVSPost2010Prop33
280
     0
102
RTVSPost2010PropOp33
 70
     1
102
RTVSPost2010Prop34
280
     0
102
RTVSPost2010PropOp34
 70
     1
102
RTVSPost2010Prop35
280
     0
102
RTVSPost2010PropOp35
 70
     1
102
RTVSPost2010Prop36
280
     0
102
RTVSPost2010PropOp36
 70
     1
102
RTVSPost2010Prop37
 90
       50
102
RTVSPost2010PropOp37
 70
     1
102
RTVSPost2010Prop38
140
0.0
102
RTVSPost2010PropOp38
 70
     1
102
RTVSPost2010Prop39
140
1.0
102
RTVSPost2010PropOp39
 70
     1
102
RTVSPost2010Prop40
 90
        0
102
RTVSPost2010PropOp40
 70
     1
102
RTVSPost2010Prop41ColorIndex
 90
       18
102
RTVSPost2010Prop41ColorRGB
 90
        0
102
RTVSPost2010PropOp41
 70
     1
102
RTVSPost2010Prop42
 90
       50
102
RTVSPost2010PropOp42
 70
     1
102
RTVSPost2010Prop43
 90
        3
102
RTVSPost2010PropOp43
 70
     1
102
RTVSPost2010Prop44ColorIndex
 90
        5
102
RTVSPost2010Prop44ColorRGB
 90
      255
102
RTVSPost2010PropOp44
 70
     1
102
RTVSPost2010Prop45
280
     0
102
RTVSPost2010PropOp45
 70
     1
102
RTVSPost2010Prop46
 90
       50
102
RTVSPost2010PropOp46
 70
     1
102
RTVSPost2010Prop47
 90
       50
102
RTVSPost2010PropOp47
 70
     1
102
RTVSPost2010Prop48
 90
       50
102
RTVSPost2010PropOp48
 70
     1
102
RTVSPost2010Prop49
280
     0
102
RTVSPost2010PropOp49
 70
     1
102
RTVSPost2010Prop50
 90
       50
102
RTVSPost2010PropOp50
 70
     1
102
RTVSPost2010Prop51ColorIndex
 90
      256
102
RTVSPost2010Prop51ColorRGB
 90
-16777216
102
RTVSPost2010PropOp51
 70
     0
102
RTVSPost2010Prop52
140
1.0
102
RTVSPost2010PropOp52
 70
     0
102
RTVSPost2010Prop53
 90
        2
102
RTVSPost2010PropOp53
 70
     1
102
RTVSPost2010Prop54
  1
strokes_ogs.tif
102
RTVSPost2010PropOp54
 70
     1
102
RTVSPost2010Prop55
280
     0
102
RTVSPost2010PropOp55
 70
     1
102
RTVSPost2010Prop56
140
1.0
102
RTVSPost2010PropOp56
 70
     1
102
RTVSPost2010Prop57
140
1.0
102
RTVSPost2010PropOp57
 70
     1
  0
XRECORD
  5
3AC
102
{ACAD_REACTORS
330
3AB
102
}
330
3AB
100
AcDbXrecord
280
     1
102
RTVSPropertyOp0
 70
     1
102
RTVSPropertyOp1
 70
     1
102
RTVSPropertyOp2
 70
     1
102
RTVSPropertyOp3
 70
     1
102
RTVSPropertyOp4
 70
     1
102
RTVSPropertyOp5
 70
     1
102
RTVSPropertyOp6
 70
     1
102
RTVSPropertyOp7
 70
     1
102
RTVSPropertyOp8
 70
     1
102
RTVSPropertyOp9
 70
     1
102
RTVSPropertyOp10
 70
     1
102
RTVSPropertyOp11
 70
     1
102
RTVSPropertyOp12
 70
     1
102
RTVSPropertyOp13
 70
     1
102
RTVSPropertyOp14
 70
     1
102
RTVSPropertyOp15
 70
     1
102
RTVSPropertyOp16
 70
     1
102
RTVSPropertyOp17
 70
     1
102
RTVSPropertyOp18
 70
     1
102
RTVSPropertyOp19
 70
     1
102
RTVSPropertyOp20
 70
     1
102
RTVSPropertyOp21
 70
     1
102
RTVSPropertyOp22
 70
     1
102
RTVSPropertyOp23
 70
     1
102
RTVSPropertyOp24
 70
     1
102
RTVSPropertyOp25
 70
     1
102
RTVSPropertyOp26
 70
     1
102
RTVSPropertyOp27
 70
     1
102
RTVSPropertyOp28
 70
     1
102
RTVSPropertyOp29
 70
     1
102
RTVSPropertyOp30
 70
     1
102
RTVSPropertyOp31
 70
     1
102
RTVSPropertyOp32
 70
     1
102
RTVSPropertyOp33
 70
     1
102
RTVSPropertyOp34
 70
     1
102
RTVSPropertyOp35
 70
     1
102
RTVSPropertyOp36
 70
     1
102
RTVSPropertyOp37
 70
     1
102
RTVSPropertyOp38
 70
     1
102
RTVSPropertyOp39
 70
     1
102
RTVSPropertyOp40
 70
     1
102
RTVSPropertyOp41
 70
     1
102
RTVSPropertyOp42
 70
     1
102
RTVSPropertyOp43
 70
     1
102
RTVSPropertyOp44
 70
     1
102
RTVSPropertyOp45
 70
     1
102
RTVSPropertyOp46
 70
     1
102
RTVSPropertyOp47
 70
     1
102
RTVSPropertyOp48
 70
     1
102
RTVSPropertyOp49
 70
     1
102
RTVSPropertyOp50
 70
     1
102
RTVSPropertyOp51
 70
     0
102
RTVSPropertyOp52
 70
     0
102
RTVSPropertyOp53
 70
     1
102
RTVSPropertyOp54
 70
     1
102
RTVSPropertyOp55
 70
     1
102
RTVSPropertyOp56
 70
     1
102
RTVSPropertyOp57
 70
     1
102
RTVSPost2010Prop28
280
     0
102
RTVSPost2010PropOp28
 70
     1
102
RTVSPost2010Prop29
280
     1
102
RTVSPost2010PropOp29
 70
     1
102
RTVSPost2010Prop30
280
     1
102
RTVSPost2010PropOp30
 70
     1
102
RTVSPost2010Prop31
280
     0
102
RTVSPost2010PropOp31
 70
     1
102
RTVSPost2010Prop32
280
     0
102
RTVSPost2010PropOp32
 70
     1
102
RTVSPost2010Prop33
280
     0
102
RTVSPost2010PropOp33
 70
     1
102
RTVSPost2010Prop34
280
     0
102
RTVSPost2010PropOp34
 70
     1
102
RTVSPost2010Prop35
280
     0
102
RTVSPost2010PropOp35
 70
     1
102
RTVSPost2010Prop36
280
     0
102
RTVSPost2010PropOp36
 70
     1
102
RTVSPost2010Prop37
 90
       50
102
RTVSPost2010PropOp37
 70
     1
102
RTVSPost2010Prop38
140
0.0
102
RTVSPost2010PropOp38
 70
     1
102
RTVSPost2010Prop39
140
1.0
102
RTVSPost2010PropOp39
 70
     1
102
RTVSPost2010Prop40
 90
        0
102
RTVSPost2010PropOp40
 70
     1
102
RTVSPost2010Prop41ColorIndex
 90
       18
102
RTVSPost2010Prop41ColorRGB
 90
        0
102
RTVSPost2010PropOp41
 70
     1
102
RTVSPost2010Prop42
 90
       50
102
RTVSPost2010PropOp42
 70
     1
102
RTVSPost2010Prop43
 90
        3
102
RTVSPost2010PropOp43
 70
     1
102
RTVSPost2010Prop44ColorIndex
 90
        5
102
RTVSPost2010Prop44ColorRGB
 90
      255
102
RTVSPost2010PropOp44
 70
     1
102
RTVSPost2010Prop45
280
     0
102
RTVSPost2010PropOp45
 70
     1
102
RTVSPost2010Prop46
 90
       50
102
RTVSPost2010PropOp46
 70
     1
102
RTVSPost2010Prop47
 90
       50
102
RTVSPost2010PropOp47
 70
     1
102
RTVSPost2010Prop48
 90
       50
102
RTVSPost2010PropOp48
 70
     1
102
RTVSPost2010Prop49
280
     0
102
RTVSPost2010PropOp49
 70
     1
102
RTVSPost2010Prop50
 90
       50
102
RTVSPost2010PropOp50
 70
     1
102
RTVSPost2010Prop51ColorIndex
 90
      256
102
RTVSPost2010Prop51ColorRGB
 90
-16777216
102
RTVSPost2010PropOp51
 70
     0
102
RTVSPost2010Prop52
140
1.0
102
RTVSPost2010PropOp52
 70
     0
102
RTVSPost2010Prop53
 90
        2
102
RTVSPost2010PropOp53
 70
     1
102
RTVSPost2010Prop54
  1
strokes_ogs.tif
102
RTVSPost2010PropOp54
 70
     1
102
RTVSPost2010Prop55
280
     0
102
RTVSPost2010PropOp55
 70
     1
102
RTVSPost2010Prop56
140
1.0
102
RTVSPost2010PropOp56
 70
     1
102
RTVSPost2010Prop57
140
1.0
102
RTVSPost2010PropOp57
 70
     1
  0
XRECORD
  5
3AE
102
{ACAD_REACTORS
330
3AD
102
}
330
3AD
100
AcDbXrecord
280
     1
102
RTVSPropertyOp0
 70
     1
102
RTVSPropertyOp1
 70
     1
102
RTVSPropertyOp2
 70
     1
102
RTVSPropertyOp3
 70
     1
102
RTVSPropertyOp4
 70
     1
102
RTVSPropertyOp5
 70
     1
102
RTVSPropertyOp6
 70
     1
102
RTVSPropertyOp7
 70
     1
102
RTVSPropertyOp8
 70
     1
102
RTVSPropertyOp9
 70
     1
102
RTVSPropertyOp10
 70
     1
102
RTVSPropertyOp11
 70
     1
102
RTVSPropertyOp12
 70
     1
102
RTVSPropertyOp13
 70
     1
102
RTVSPropertyOp14
 70
     1
102
RTVSPropertyOp15
 70
     1
102
RTVSPropertyOp16
 70
     1
102
RTVSPropertyOp17
 70
     1
102
RTVSPropertyOp18
 70
     1
102
RTVSPropertyOp19
 70
     1
102
RTVSPropertyOp20
 70
     1
102
RTVSPropertyOp21
 70
     1
102
RTVSPropertyOp22
 70
     1
102
RTVSPropertyOp23
 70
     1
102
RTVSPropertyOp24
 70
     1
102
RTVSPropertyOp25
 70
     1
102
RTVSPropertyOp26
 70
     1
102
RTVSPropertyOp27
 70
     1
102
RTVSPropertyOp28
 70
     1
102
RTVSPropertyOp29
 70
     1
102
RTVSPropertyOp30
 70
     1
102
RTVSPropertyOp31
 70
     1
102
RTVSPropertyOp32
 70
     1
102
RTVSPropertyOp33
 70
     1
102
RTVSPropertyOp34
 70
     1
102
RTVSPropertyOp35
 70
     1
102
RTVSPropertyOp36
 70
     1
102
RTVSPropertyOp37
 70
     1
102
RTVSPropertyOp38
 70
     1
102
RTVSPropertyOp39
 70
     1
102
RTVSPropertyOp40
 70
     1
102
RTVSPropertyOp41
 70
     1
102
RTVSPropertyOp42
 70
     1
102
RTVSPropertyOp43
 70
     1
102
RTVSPropertyOp44
 70
     1
102
RTVSPropertyOp45
 70
     1
102
RTVSPropertyOp46
 70
     1
102
RTVSPropertyOp47
 70
     1
102
RTVSPropertyOp48
 70
     1
102
RTVSPropertyOp49
 70
     1
102
RTVSPropertyOp50
 70
     1
102
RTVSPropertyOp51
 70
     0
102
RTVSPropertyOp52
 70
     0
102
RTVSPropertyOp53
 70
     1
102
RTVSPropertyOp54
 70
     1
102
RTVSPropertyOp55
 70
     1
102
RTVSPropertyOp56
 70
     1
102
RTVSPropertyOp57
 70
     1
102
RTVSPost2010Prop28
280
     0
102
RTVSPost2010PropOp28
 70
     1
102
RTVSPost2010Prop29
280
     1
102
RTVSPost2010PropOp29
 70
     1
102
RTVSPost2010Prop30
280
     1
102
RTVSPost2010PropOp30
 70
     1
102
RTVSPost2010Prop31
280
     0
102
RTVSPost2010PropOp31
 70
     1
102
RTVSPost2010Prop32
280
     0
102
RTVSPost2010PropOp32
 70
     1
102
RTVSPost2010Prop33
280
     0
102
RTVSPost2010PropOp33
 70
     1
102
RTVSPost2010Prop34
280
     0
102
RTVSPost2010PropOp34
 70
     1
102
RTVSPost2010Prop35
280
     0
102
RTVSPost2010PropOp35
 70
     1
102
RTVSPost2010Prop36
280
     0
102
RTVSPost2010PropOp36
 70
     1
102
RTVSPost2010Prop37
 90
       50
102
RTVSPost2010PropOp37
 70
     1
102
RTVSPost2010Prop38
140
0.0
102
RTVSPost2010PropOp38
 70
     1
102
RTVSPost2010Prop39
140
1.0
102
RTVSPost2010PropOp39
 70
     1
102
RTVSPost2010Prop40
 90
        0
102
RTVSPost2010PropOp40
 70
     1
102
RTVSPost2010Prop41ColorIndex
 90
       18
102
RTVSPost2010Prop41ColorRGB
 90
        0
102
RTVSPost2010PropOp41
 70
     1
102
RTVSPost2010Prop42
 90
       50
102
RTVSPost2010PropOp42
 70
     1
102
RTVSPost2010Prop43
 90
        3
102
RTVSPost2010PropOp43
 70
     1
102
RTVSPost2010Prop44ColorIndex
 90
        5
102
RTVSPost2010Prop44ColorRGB
 90
      255
102
RTVSPost2010PropOp44
 70
     1
102
RTVSPost2010Prop45
280
     0
102
RTVSPost2010PropOp45
 70
     1
102
RTVSPost2010Prop46
 90
       50
102
RTVSPost2010PropOp46
 70
     1
102
RTVSPost2010Prop47
 90
       50
102
RTVSPost2010PropOp47
 70
     1
102
RTVSPost2010Prop48
 90
       50
102
RTVSPost2010PropOp48
 70
     1
102
RTVSPost2010Prop49
280
     0
102
RTVSPost2010PropOp49
 70
     1
102
RTVSPost2010Prop50
 90
       50
102
RTVSPost2010PropOp50
 70
     1
102
RTVSPost2010Prop51ColorIndex
 90
      256
102
RTVSPost2010Prop51ColorRGB
 90
-16777216
102
RTVSPost2010PropOp51
 70
     0
102
RTVSPost2010Prop52
140
1.0
102
RTVSPost2010PropOp52
 70
     0
102
RTVSPost2010Prop53
 90
        2
102
RTVSPost2010PropOp53
 70
     1
102
RTVSPost2010Prop54
  1
strokes_ogs.tif
102
RTVSPost2010PropOp54
 70
     1
102
RTVSPost2010Prop55
280
     0
102
RTVSPost2010PropOp55
 70
     1
102
RTVSPost2010Prop56
140
1.0
102
RTVSPost2010PropOp56
 70
     1
102
RTVSPost2010Prop57
140
1.0
102
RTVSPost2010PropOp57
 70
     1
  0
XRECORD
  5
3B4
102
{ACAD_REACTORS
330
3B3
102
}
330
3B3
100
AcDbXrecord
280
     1
102
RTVSPropertyOp0
 70
     1
102
RTVSPropertyOp1
 70
     1
102
RTVSPropertyOp2
 70
     1
102
RTVSPropertyOp3
 70
     1
102
RTVSPropertyOp4
 70
     1
102
RTVSPropertyOp5
 70
     1
102
RTVSPropertyOp6
 70
     1
102
RTVSPropertyOp7
 70
     1
102
RTVSPropertyOp8
 70
     1
102
RTVSPropertyOp9
 70
     1
102
RTVSPropertyOp10
 70
     1
102
RTVSPropertyOp11
 70
     1
102
RTVSPropertyOp12
 70
     1
102
RTVSPropertyOp13
 70
     1
102
RTVSPropertyOp14
 70
     1
102
RTVSPropertyOp15
 70
     1
102
RTVSPropertyOp16
 70
     1
102
RTVSPropertyOp17
 70
     1
102
RTVSPropertyOp18
 70
     1
102
RTVSPropertyOp19
 70
     1
102
RTVSPropertyOp20
 70
     1
102
RTVSPropertyOp21
 70
     1
102
RTVSPropertyOp22
 70
     1
102
RTVSPropertyOp23
 70
     1
102
RTVSPropertyOp24
 70
     1
102
RTVSPropertyOp25
 70
     1
102
RTVSPropertyOp26
 70
     1
102
RTVSPropertyOp27
 70
     1
102
RTVSPropertyOp28
 70
     1
102
RTVSPropertyOp29
 70
     1
102
RTVSPropertyOp30
 70
     1
102
RTVSPropertyOp31
 70
     1
102
RTVSPropertyOp32
 70
     1
102
RTVSPropertyOp33
 70
     1
102
RTVSPropertyOp34
 70
     1
102
RTVSPropertyOp35
 70
     1
102
RTVSPropertyOp36
 70
     1
102
RTVSPropertyOp37
 70
     1
102
RTVSPropertyOp38
 70
     1
102
RTVSPropertyOp39
 70
     1
102
RTVSPropertyOp40
 70
     1
102
RTVSPropertyOp41
 70
     1
102
RTVSPropertyOp42
 70
     1
102
RTVSPropertyOp43
 70
     1
102
RTVSPropertyOp44
 70
     1
102
RTVSPropertyOp45
 70
     1
102
RTVSPropertyOp46
 70
     1
102
RTVSPropertyOp47
 70
     1
102
RTVSPropertyOp48
 70
     1
102
RTVSPropertyOp49
 70
     1
102
RTVSPropertyOp50
 70
     1
102
RTVSPropertyOp51
 70
     0
102
RTVSPropertyOp52
 70
     0
102
RTVSPropertyOp53
 70
     1
102
RTVSPropertyOp54
 70
     1
102
RTVSPropertyOp55
 70
     1
102
RTVSPropertyOp56
 70
     1
102
RTVSPropertyOp57
 70
     1
102
RTVSPost2010Prop28
280
     0
102
RTVSPost2010PropOp28
 70
     1
102
RTVSPost2010Prop29
280
     1
102
RTVSPost2010PropOp29
 70
     1
102
RTVSPost2010Prop30
280
     1
102
RTVSPost2010PropOp30
 70
     1
102
RTVSPost2010Prop31
280
     0
102
RTVSPost2010PropOp31
 70
     1
102
RTVSPost2010Prop32
280
     0
102
RTVSPost2010PropOp32
 70
     1
102
RTVSPost2010Prop33
280
     0
102
RTVSPost2010PropOp33
 70
     1
102
RTVSPost2010Prop34
280
     0
102
RTVSPost2010PropOp34
 70
     1
102
RTVSPost2010Prop35
280
     0
102
RTVSPost2010PropOp35
 70
     1
102
RTVSPost2010Prop36
280
     0
102
RTVSPost2010PropOp36
 70
     1
102
RTVSPost2010Prop37
 90
       50
102
RTVSPost2010PropOp37
 70
     1
102
RTVSPost2010Prop38
140
0.0
102
RTVSPost2010PropOp38
 70
     1
102
RTVSPost2010Prop39
140
1.0
102
RTVSPost2010PropOp39
 70
     1
102
RTVSPost2010Prop40
 90
        0
102
RTVSPost2010PropOp40
 70
     1
102
RTVSPost2010Prop41ColorIndex
 90
       18
102
RTVSPost2010Prop41ColorRGB
 90
        0
102
RTVSPost2010PropOp41
 70
     1
102
RTVSPost2010Prop42
 90
       50
102
RTVSPost2010PropOp42
 70
     1
102
RTVSPost2010Prop43
 90
        3
102
RTVSPost2010PropOp43
 70
     1
102
RTVSPost2010Prop44ColorIndex
 90
        5
102
RTVSPost2010Prop44ColorRGB
 90
      255
102
RTVSPost2010PropOp44
 70
     1
102
RTVSPost2010Prop45
280
     0
102
RTVSPost2010PropOp45
 70
     1
102
RTVSPost2010Prop46
 90
       50
102
RTVSPost2010PropOp46
 70
     1
102
RTVSPost2010Prop47
 90
       50
102
RTVSPost2010PropOp47
 70
     1
102
RTVSPost2010Prop48
 90
       50
102
RTVSPost2010PropOp48
 70
     1
102
RTVSPost2010Prop49
280
     0
102
RTVSPost2010PropOp49
 70
     1
102
RTVSPost2010Prop50
 90
       50
102
RTVSPost2010PropOp50
 70
     1
102
RTVSPost2010Prop51ColorIndex
 90
      256
102
RTVSPost2010Prop51ColorRGB
 90
-16777216
102
RTVSPost2010PropOp51
 70
     0
102
RTVSPost2010Prop52
140
1.0
102
RTVSPost2010PropOp52
 70
     0
102
RTVSPost2010Prop53
 90
        2
102
RTVSPost2010PropOp53
 70
     1
102
RTVSPost2010Prop54
  1
strokes_ogs.tif
102
RTVSPost2010PropOp54
 70
     1
102
RTVSPost2010Prop55
280
     0
102
RTVSPost2010PropOp55
 70
     1
102
RTVSPost2010Prop56
140
1.0
102
RTVSPost2010PropOp56
 70
     1
102
RTVSPost2010Prop57
140
1.0
102
RTVSPost2010PropOp57
 70
     1
  0
XRECORD
  5
3C8
102
{ACAD_REACTORS
330
3C7
102
}
330
3C7
100
AcDbXrecord
280
     1
102
RTVSPropertyOp0
 70
     0
102
RTVSPropertyOp1
 70
     0
102
RTVSPropertyOp2
 70
     0
102
RTVSPropertyOp3
 70
     0
102
RTVSPropertyOp4
 70
     0
102
RTVSPropertyOp5
 70
     0
102
RTVSPropertyOp6
 70
     0
102
RTVSPropertyOp7
 70
     0
102
RTVSPropertyOp8
 70
     0
102
RTVSPropertyOp9
 70
     0
102
RTVSPropertyOp10
 70
     0
102
RTVSPropertyOp11
 70
     0
102
RTVSPropertyOp12
 70
     0
102
RTVSPropertyOp13
 70
     0
102
RTVSPropertyOp14
 70
     2
102
RTVSPropertyOp15
 70
     0
102
RTVSPropertyOp16
 70
     0
102
RTVSPropertyOp17
 70
     0
102
RTVSPropertyOp18
 70
     0
102
RTVSPropertyOp19
 70
     0
102
RTVSPropertyOp20
 70
     0
102
RTVSPropertyOp21
 70
     0
102
RTVSPropertyOp22
 70
     0
102
RTVSPropertyOp23
 70
     0
102
RTVSPropertyOp24
 70
     0
102
RTVSPropertyOp25
 70
     0
102
RTVSPropertyOp26
 70
     0
102
RTVSPropertyOp27
 70
     0
102
RTVSPropertyOp28
 70
     0
102
RTVSPropertyOp29
 70
     0
102
RTVSPropertyOp30
 70
     0
102
RTVSPropertyOp31
 70
     0
102
RTVSPropertyOp32
 70
     0
102
RTVSPropertyOp33
 70
     0
102
RTVSPropertyOp34
 70
     0
102
RTVSPropertyOp35
 70
     0
102
RTVSPropertyOp36
 70
     0
102
RTVSPropertyOp37
 70
     0
102
RTVSPropertyOp38
 70
     0
102
RTVSPropertyOp39
 70
     0
102
RTVSPropertyOp40
 70
     0
102
RTVSPropertyOp41
 70
     0
102
RTVSPropertyOp42
 70
     0
102
RTVSPropertyOp43
 70
     0
102
RTVSPropertyOp44
 70
     0
102
RTVSPropertyOp45
 70
     0
102
RTVSPropertyOp46
 70
     0
102
RTVSPropertyOp47
 70
     0
102
RTVSPropertyOp48
 70
     0
102
RTVSPropertyOp49
 70
     0
102
RTVSPropertyOp50
 70
     0
102
RTVSPropertyOp51
 70
     0
102
RTVSPropertyOp52
 70
     0
102
RTVSPropertyOp53
 70
     0
102
RTVSPropertyOp54
 70
     0
102
RTVSPropertyOp55
 70
     0
102
RTVSPropertyOp56
 70
     0
102
RTVSPropertyOp57
 70
     0
102
RTVSPost2010Prop28
280
     0
102
RTVSPost2010PropOp28
 70
     0
102
RTVSPost2010Prop29
280
     1
102
RTVSPost2010PropOp29
 70
     0
102
RTVSPost2010Prop30
280
     1
102
RTVSPost2010PropOp30
 70
     0
102
RTVSPost2010Prop31
280
     0
102
RTVSPost2010PropOp31
 70
     0
102
RTVSPost2010Prop32
280
     0
102
RTVSPost2010PropOp32
 70
     0
102
RTVSPost2010Prop33
280
     0
102
RTVSPost2010PropOp33
 70
     0
102
RTVSPost2010Prop34
280
     0
102
RTVSPost2010PropOp34
 70
     0
102
RTVSPost2010Prop35
280
     0
102
RTVSPost2010PropOp35
 70
     0
102
RTVSPost2010Prop36
280
     0
102
RTVSPost2010PropOp36
 70
     0
102
RTVSPost2010Prop37
 90
       50
102
RTVSPost2010PropOp37
 70
     0
102
RTVSPost2010Prop38
140
0.0
102
RTVSPost2010PropOp38
 70
     0
102
RTVSPost2010Prop39
140
1.0
102
RTVSPost2010PropOp39
 70
     0
102
RTVSPost2010Prop40
 90
        0
102
RTVSPost2010PropOp40
 70
     0
102
RTVSPost2010Prop41ColorIndex
 90
       18
102
RTVSPost2010Prop41ColorRGB
 90
        0
102
RTVSPost2010PropOp41
 70
     0
102
RTVSPost2010Prop42
 90
       50
102
RTVSPost2010PropOp42
 70
     0
102
RTVSPost2010Prop43
 90
        3
102
RTVSPost2010PropOp43
 70
     0
102
RTVSPost2010Prop44ColorIndex
 90
        5
102
RTVSPost2010Prop44ColorRGB
 90
      255
102
RTVSPost2010PropOp44
 70
     0
102
RTVSPost2010Prop45
280
     0
102
RTVSPost2010PropOp45
 70
     0
102
RTVSPost2010Prop46
 90
       50
102
RTVSPost2010PropOp46
 70
     0
102
RTVSPost2010Prop47
 90
       50
102
RTVSPost2010PropOp47
 70
     0
102
RTVSPost2010Prop48
 90
       50
102
RTVSPost2010PropOp48
 70
     0
102
RTVSPost2010Prop49
280
     0
102
RTVSPost2010PropOp49
 70
     0
102
RTVSPost2010Prop50
 90
       50
102
RTVSPost2010PropOp50
 70
     0
102
RTVSPost2010Prop51ColorIndex
 90
      256
102
RTVSPost2010Prop51ColorRGB
 90
-16777216
102
RTVSPost2010PropOp51
 70
     0
102
RTVSPost2010Prop52
140
1.0
102
RTVSPost2010PropOp52
 70
     0
102
RTVSPost2010Prop53
 90
        2
102
RTVSPost2010PropOp53
 70
     0
102
RTVSPost2010Prop54
  1
strokes_ogs.tif
102
RTVSPost2010PropOp54
 70
     0
102
RTVSPost2010Prop55
280
     0
102
RTVSPost2010PropOp55
 70
     0
102
RTVSPost2010Prop56
140
1.0
102
RTVSPost2010PropOp56
 70
     0
102
RTVSPost2010Prop57
140
1.0
102
RTVSPost2010PropOp57
 70
     0
  0
XRECORD
  5
3C2
102
{ACAD_REACTORS
330
3C1
102
}
330
3C1
100
AcDbXrecord
280
     1
102
RTVSPropertyOp0
 70
     1
102
RTVSPropertyOp1
 70
     1
102
RTVSPropertyOp2
 70
     1
102
RTVSPropertyOp3
 70
     1
102
RTVSPropertyOp4
 70
     1
102
RTVSPropertyOp5
 70
     1
102
RTVSPropertyOp6
 70
     1
102
RTVSPropertyOp7
 70
     1
102
RTVSPropertyOp8
 70
     1
102
RTVSPropertyOp9
 70
     1
102
RTVSPropertyOp10
 70
     1
102
RTVSPropertyOp11
 70
     1
102
RTVSPropertyOp12
 70
     1
102
RTVSPropertyOp13
 70
     1
102
RTVSPropertyOp14
 70
     1
102
RTVSPropertyOp15
 70
     1
102
RTVSPropertyOp16
 70
     1
102
RTVSPropertyOp17
 70
     1
102
RTVSPropertyOp18
 70
     1
102
RTVSPropertyOp19
 70
     1
102
RTVSPropertyOp20
 70
     1
102
RTVSPropertyOp21
 70
     1
102
RTVSPropertyOp22
 70
     1
102
RTVSPropertyOp23
 70
     1
102
RTVSPropertyOp24
 70
     1
102
RTVSPropertyOp25
 70
     1
102
RTVSPropertyOp26
 70
     1
102
RTVSPropertyOp27
 70
     1
102
RTVSPropertyOp28
 70
     1
102
RTVSPropertyOp29
 70
     1
102
RTVSPropertyOp30
 70
     1
102
RTVSPropertyOp31
 70
     1
102
RTVSPropertyOp32
 70
     1
102
RTVSPropertyOp33
 70
     1
102
RTVSPropertyOp34
 70
     1
102
RTVSPropertyOp35
 70
     1
102
RTVSPropertyOp36
 70
     1
102
RTVSPropertyOp37
 70
     1
102
RTVSPropertyOp38
 70
     1
102
RTVSPropertyOp39
 70
     1
102
RTVSPropertyOp40
 70
     1
102
RTVSPropertyOp41
 70
     1
102
RTVSPropertyOp42
 70
     1
102
RTVSPropertyOp43
 70
     1
102
RTVSPropertyOp44
 70
     1
102
RTVSPropertyOp45
 70
     1
102
RTVSPropertyOp46
 70
     1
102
RTVSPropertyOp47
 70
     1
102
RTVSPropertyOp48
 70
     1
102
RTVSPropertyOp49
 70
     1
102
RTVSPropertyOp50
 70
     1
102
RTVSPropertyOp51
 70
     0
102
RTVSPropertyOp52
 70
     0
102
RTVSPropertyOp53
 70
     1
102
RTVSPropertyOp54
 70
     1
102
RTVSPropertyOp55
 70
     1
102
RTVSPropertyOp56
 70
     1
102
RTVSPropertyOp57
 70
     1
102
RTVSPost2010Prop28
280
     0
102
RTVSPost2010PropOp28
 70
     1
102
RTVSPost2010Prop29
280
     1
102
RTVSPost2010PropOp29
 70
     1
102
RTVSPost2010Prop30
280
     1
102
RTVSPost2010PropOp30
 70
     1
102
RTVSPost2010Prop31
280
     0
102
RTVSPost2010PropOp31
 70
     1
102
RTVSPost2010Prop32
280
     0
102
RTVSPost2010PropOp32
 70
     1
102
RTVSPost2010Prop33
280
     0
102
RTVSPost2010PropOp33
 70
     1
102
RTVSPost2010Prop34
280
     0
102
RTVSPost2010PropOp34
 70
     1
102
RTVSPost2010Prop35
280
     0
102
RTVSPost2010PropOp35
 70
     1
102
RTVSPost2010Prop36
280
     0
102
RTVSPost2010PropOp36
 70
     1
102
RTVSPost2010Prop37
 90
       50
102
RTVSPost2010PropOp37
 70
     1
102
RTVSPost2010Prop38
140
0.0
102
RTVSPost2010PropOp38
 70
     1
102
RTVSPost2010Prop39
140
1.0
102
RTVSPost2010PropOp39
 70
     1
102
RTVSPost2010Prop40
 90
        0
102
RTVSPost2010PropOp40
 70
     1
102
RTVSPost2010Prop41ColorIndex
 90
       18
102
RTVSPost2010Prop41ColorRGB
 90
        0
102
RTVSPost2010PropOp41
 70
     1
102
RTVSPost2010Prop42
 90
       50
102
RTVSPost2010PropOp42
 70
     1
102
RTVSPost2010Prop43
 90
        3
102
RTVSPost2010PropOp43
 70
     1
102
RTVSPost2010Prop44ColorIndex
 90
        5
102
RTVSPost2010Prop44ColorRGB
 90
      255
102
RTVSPost2010PropOp44
 70
     1
102
RTVSPost2010Prop45
280
     0
102
RTVSPost2010PropOp45
 70
     1
102
RTVSPost2010Prop46
 90
       50
102
RTVSPost2010PropOp46
 70
     1
102
RTVSPost2010Prop47
 90
       50
102
RTVSPost2010PropOp47
 70
     1
102
RTVSPost2010Prop48
 90
       50
102
RTVSPost2010PropOp48
 70
     1
102
RTVSPost2010Prop49
280
     0
102
RTVSPost2010PropOp49
 70
     1
102
RTVSPost2010Prop50
 90
       50
102
RTVSPost2010PropOp50
 70
     1
102
RTVSPost2010Prop51ColorIndex
 90
      256
102
RTVSPost2010Prop51ColorRGB
 90
-16777216
102
RTVSPost2010PropOp51
 70
     0
102
RTVSPost2010Prop52
140
1.0
102
RTVSPost2010PropOp52
 70
     0
102
RTVSPost2010Prop53
 90
        2
102
RTVSPost2010PropOp53
 70
     1
102
RTVSPost2010Prop54
  1
strokes_ogs.tif
102
RTVSPost2010PropOp54
 70
     1
102
RTVSPost2010Prop55
280
     0
102
RTVSPost2010PropOp55
 70
     1
102
RTVSPost2010Prop56
140
1.0
102
RTVSPost2010PropOp56
 70
     1
102
RTVSPost2010Prop57
140
1.0
102
RTVSPost2010PropOp57
 70
     1
  0
XRECORD
  5
3CA
102
{ACAD_REACTORS
330
3C9
102
}
330
3C9
100
AcDbXrecord
280
     1
102
RTVSPropertyOp0
 70
     0
102
RTVSPropertyOp1
 70
     0
102
RTVSPropertyOp2
 70
     0
102
RTVSPropertyOp3
 70
     0
102
RTVSPropertyOp4
 70
     0
102
RTVSPropertyOp5
 70
     0
102
RTVSPropertyOp6
 70
     0
102
RTVSPropertyOp7
 70
     0
102
RTVSPropertyOp8
 70
     0
102
RTVSPropertyOp9
 70
     0
102
RTVSPropertyOp10
 70
     0
102
RTVSPropertyOp11
 70
     0
102
RTVSPropertyOp12
 70
     0
102
RTVSPropertyOp13
 70
     0
102
RTVSPropertyOp14
 70
     2
102
RTVSPropertyOp15
 70
     0
102
RTVSPropertyOp16
 70
     0
102
RTVSPropertyOp17
 70
     0
102
RTVSPropertyOp18
 70
     0
102
RTVSPropertyOp19
 70
     0
102
RTVSPropertyOp20
 70
     0
102
RTVSPropertyOp21
 70
     0
102
RTVSPropertyOp22
 70
     0
102
RTVSPropertyOp23
 70
     0
102
RTVSPropertyOp24
 70
     0
102
RTVSPropertyOp25
 70
     0
102
RTVSPropertyOp26
 70
     0
102
RTVSPropertyOp27
 70
     0
102
RTVSPropertyOp28
 70
     0
102
RTVSPropertyOp29
 70
     0
102
RTVSPropertyOp30
 70
     0
102
RTVSPropertyOp31
 70
     0
102
RTVSPropertyOp32
 70
     0
102
RTVSPropertyOp33
 70
     0
102
RTVSPropertyOp34
 70
     0
102
RTVSPropertyOp35
 70
     0
102
RTVSPropertyOp36
 70
     0
102
RTVSPropertyOp37
 70
     0
102
RTVSPropertyOp38
 70
     0
102
RTVSPropertyOp39
 70
     0
102
RTVSPropertyOp40
 70
     0
102
RTVSPropertyOp41
 70
     0
102
RTVSPropertyOp42
 70
     0
102
RTVSPropertyOp43
 70
     0
102
RTVSPropertyOp44
 70
     0
102
RTVSPropertyOp45
 70
     0
102
RTVSPropertyOp46
 70
     0
102
RTVSPropertyOp47
 70
     0
102
RTVSPropertyOp48
 70
     0
102
RTVSPropertyOp49
 70
     0
102
RTVSPropertyOp50
 70
     0
102
RTVSPropertyOp51
 70
     0
102
RTVSPropertyOp52
 70
     0
102
RTVSPropertyOp53
 70
     0
102
RTVSPropertyOp54
 70
     0
102
RTVSPropertyOp55
 70
     0
102
RTVSPropertyOp56
 70
     0
102
RTVSPropertyOp57
 70
     0
102
RTVSPost2010Prop28
280
     0
102
RTVSPost2010PropOp28
 70
     0
102
RTVSPost2010Prop29
280
     1
102
RTVSPost2010PropOp29
 70
     0
102
RTVSPost2010Prop30
280
     1
102
RTVSPost2010PropOp30
 70
     0
102
RTVSPost2010Prop31
280
     0
102
RTVSPost2010PropOp31
 70
     0
102
RTVSPost2010Prop32
280
     0
102
RTVSPost2010PropOp32
 70
     0
102
RTVSPost2010Prop33
280
     0
102
RTVSPost2010PropOp33
 70
     0
102
RTVSPost2010Prop34
280
     0
102
RTVSPost2010PropOp34
 70
     0
102
RTVSPost2010Prop35
280
     0
102
RTVSPost2010PropOp35
 70
     0
102
RTVSPost2010Prop36
280
     0
102
RTVSPost2010PropOp36
 70
     0
102
RTVSPost2010Prop37
 90
       50
102
RTVSPost2010PropOp37
 70
     0
102
RTVSPost2010Prop38
140
0.0
102
RTVSPost2010PropOp38
 70
     0
102
RTVSPost2010Prop39
140
1.0
102
RTVSPost2010PropOp39
 70
     0
102
RTVSPost2010Prop40
 90
        0
102
RTVSPost2010PropOp40
 70
     0
102
RTVSPost2010Prop41ColorIndex
 90
       18
102
RTVSPost2010Prop41ColorRGB
 90
        0
102
RTVSPost2010PropOp41
 70
     0
102
RTVSPost2010Prop42
 90
       50
102
RTVSPost2010PropOp42
 70
     0
102
RTVSPost2010Prop43
 90
        3
102
RTVSPost2010PropOp43
 70
     0
102
RTVSPost2010Prop44ColorIndex
 90
        5
102
RTVSPost2010Prop44ColorRGB
 90
      255
102
RTVSPost2010PropOp44
 70
     0
102
RTVSPost2010Prop45
280
     0
102
RTVSPost2010PropOp45
 70
     0
102
RTVSPost2010Prop46
 90
       50
102
RTVSPost2010PropOp46
 70
     0
102
RTVSPost2010Prop47
 90
       50
102
RTVSPost2010PropOp47
 70
     0
102
RTVSPost2010Prop48
 90
       50
102
RTVSPost2010PropOp48
 70
     0
102
RTVSPost2010Prop49
280
     0
102
RTVSPost2010PropOp49
 70
     0
102
RTVSPost2010Prop50
 90
       50
102
RTVSPost2010PropOp50
 70
     0
102
RTVSPost2010Prop51ColorIndex
 90
      256
102
RTVSPost2010Prop51ColorRGB
 90
-16777216
102
RTVSPost2010PropOp51
 70
     0
102
RTVSPost2010Prop52
140
1.0
102
RTVSPost2010PropOp52
 70
     0
102
RTVSPost2010Prop53
 90
        2
102
RTVSPost2010PropOp53
 70
     0
102
RTVSPost2010Prop54
  1
strokes_ogs.tif
102
RTVSPost2010PropOp54
 70
     0
102
RTVSPost2010Prop55
280
     0
102
RTVSPost2010PropOp55
 70
     0
102
RTVSPost2010Prop56
140
1.0
102
RTVSPost2010PropOp56
 70
     0
102
RTVSPost2010Prop57
140
1.0
102
RTVSPost2010PropOp57
 70
     0
  0
XRECORD
  5
3B8
102
{ACAD_REACTORS
330
3B7
102
}
330
3B7
100
AcDbXrecord
280
     1
102
RTVSPropertyOp0
 70
     1
102
RTVSPropertyOp1
 70
     1
102
RTVSPropertyOp2
 70
     1
102
RTVSPropertyOp3
 70
     1
102
RTVSPropertyOp4
 70
     1
102
RTVSPropertyOp5
 70
     1
102
RTVSPropertyOp6
 70
     1
102
RTVSPropertyOp7
 70
     1
102
RTVSPropertyOp8
 70
     1
102
RTVSPropertyOp9
 70
     1
102
RTVSPropertyOp10
 70
     1
102
RTVSPropertyOp11
 70
     1
102
RTVSPropertyOp12
 70
     1
102
RTVSPropertyOp13
 70
     1
102
RTVSPropertyOp14
 70
     1
102
RTVSPropertyOp15
 70
     1
102
RTVSPropertyOp16
 70
     1
102
RTVSPropertyOp17
 70
     1
102
RTVSPropertyOp18
 70
     1
102
RTVSPropertyOp19
 70
     1
102
RTVSPropertyOp20
 70
     1
102
RTVSPropertyOp21
 70
     1
102
RTVSPropertyOp22
 70
     1
102
RTVSPropertyOp23
 70
     1
102
RTVSPropertyOp24
 70
     1
102
RTVSPropertyOp25
 70
     1
102
RTVSPropertyOp26
 70
     1
102
RTVSPropertyOp27
 70
     1
102
RTVSPropertyOp28
 70
     1
102
RTVSPropertyOp29
 70
     1
102
RTVSPropertyOp30
 70
     1
102
RTVSPropertyOp31
 70
     1
102
RTVSPropertyOp32
 70
     1
102
RTVSPropertyOp33
 70
     1
102
RTVSPropertyOp34
 70
     1
102
RTVSPropertyOp35
 70
     1
102
RTVSPropertyOp36
 70
     1
102
RTVSPropertyOp37
 70
     1
102
RTVSPropertyOp38
 70
     1
102
RTVSPropertyOp39
 70
     1
102
RTVSPropertyOp40
 70
     1
102
RTVSPropertyOp41
 70
     1
102
RTVSPropertyOp42
 70
     1
102
RTVSPropertyOp43
 70
     1
102
RTVSPropertyOp44
 70
     1
102
RTVSPropertyOp45
 70
     1
102
RTVSPropertyOp46
 70
     1
102
RTVSPropertyOp47
 70
     1
102
RTVSPropertyOp48
 70
     1
102
RTVSPropertyOp49
 70
     1
102
RTVSPropertyOp50
 70
     1
102
RTVSPropertyOp51
 70
     0
102
RTVSPropertyOp52
 70
     0
102
RTVSPropertyOp53
 70
     1
102
RTVSPropertyOp54
 70
     1
102
RTVSPropertyOp55
 70
     1
102
RTVSPropertyOp56
 70
     1
102
RTVSPropertyOp57
 70
     1
102
RTVSPost2010Prop28
280
     0
102
RTVSPost2010PropOp28
 70
     1
102
RTVSPost2010Prop29
280
     1
102
RTVSPost2010PropOp29
 70
     1
102
RTVSPost2010Prop30
280
     1
102
RTVSPost2010PropOp30
 70
     1
102
RTVSPost2010Prop31
280
     0
102
RTVSPost2010PropOp31
 70
     1
102
RTVSPost2010Prop32
280
     0
102
RTVSPost2010PropOp32
 70
     1
102
RTVSPost2010Prop33
280
     0
102
RTVSPost2010PropOp33
 70
     1
102
RTVSPost2010Prop34
280
     0
102
RTVSPost2010PropOp34
 70
     1
102
RTVSPost2010Prop35
280
     0
102
RTVSPost2010PropOp35
 70
     1
102
RTVSPost2010Prop36
280
     0
102
RTVSPost2010PropOp36
 70
     1
102
RTVSPost2010Prop37
 90
       50
102
RTVSPost2010PropOp37
 70
     1
102
RTVSPost2010Prop38
140
0.0
102
RTVSPost2010PropOp38
 70
     1
102
RTVSPost2010Prop39
140
1.0
102
RTVSPost2010PropOp39
 70
     1
102
RTVSPost2010Prop40
 90
        0
102
RTVSPost2010PropOp40
 70
     1
102
RTVSPost2010Prop41ColorIndex
 90
       18
102
RTVSPost2010Prop41ColorRGB
 90
        0
102
RTVSPost2010PropOp41
 70
     1
102
RTVSPost2010Prop42
 90
       50
102
RTVSPost2010PropOp42
 70
     1
102
RTVSPost2010Prop43
 90
        3
102
RTVSPost2010PropOp43
 70
     1
102
RTVSPost2010Prop44ColorIndex
 90
        5
102
RTVSPost2010Prop44ColorRGB
 90
      255
102
RTVSPost2010PropOp44
 70
     1
102
RTVSPost2010Prop45
280
     0
102
RTVSPost2010PropOp45
 70
     1
102
RTVSPost2010Prop46
 90
       50
102
RTVSPost2010PropOp46
 70
     1
102
RTVSPost2010Prop47
 90
       50
102
RTVSPost2010PropOp47
 70
     1
102
RTVSPost2010Prop48
 90
       50
102
RTVSPost2010PropOp48
 70
     1
102
RTVSPost2010Prop49
280
     0
102
RTVSPost2010PropOp49
 70
     1
102
RTVSPost2010Prop50
 90
       50
102
RTVSPost2010PropOp50
 70
     1
102
RTVSPost2010Prop51ColorIndex
 90
      256
102
RTVSPost2010Prop51ColorRGB
 90
-16777216
102
RTVSPost2010PropOp51
 70
     0
102
RTVSPost2010Prop52
140
1.0
102
RTVSPost2010PropOp52
 70
     0
102
RTVSPost2010Prop53
 90
        2
102
RTVSPost2010PropOp53
 70
     1
102
RTVSPost2010Prop54
  1
strokes_ogs.tif
102
RTVSPost2010PropOp54
 70
     1
102
RTVSPost2010Prop55
280
     0
102
RTVSPost2010PropOp55
 70
     1
102
RTVSPost2010Prop56
140
1.0
102
RTVSPost2010PropOp56
 70
     1
102
RTVSPost2010Prop57
140
1.0
102
RTVSPost2010PropOp57
 70
     1
  0
XRECORD
  5
3D6
102
{ACAD_REACTORS
330
3D5
102
}
330
3D5
100
AcDbXrecord
280
     1
102
RTVSPropertyOp0
 70
     1
102
RTVSPropertyOp1
 70
     1
102
RTVSPropertyOp2
 70
     1
102
RTVSPropertyOp3
 70
     1
102
RTVSPropertyOp4
 70
     1
102
RTVSPropertyOp5
 70
     1
102
RTVSPropertyOp6
 70
     1
102
RTVSPropertyOp7
 70
     1
102
RTVSPropertyOp8
 70
     1
102
RTVSPropertyOp9
 70
     1
102
RTVSPropertyOp10
 70
     1
102
RTVSPropertyOp11
 70
     1
102
RTVSPropertyOp12
 70
     1
102
RTVSPropertyOp13
 70
     1
102
RTVSPropertyOp14
 70
     1
102
RTVSPropertyOp15
 70
     1
102
RTVSPropertyOp16
 70
     1
102
RTVSPropertyOp17
 70
     1
102
RTVSPropertyOp18
 70
     1
102
RTVSPropertyOp19
 70
     1
102
RTVSPropertyOp20
 70
     1
102
RTVSPropertyOp21
 70
     1
102
RTVSPropertyOp22
 70
     1
102
RTVSPropertyOp23
 70
     1
102
RTVSPropertyOp24
 70
     1
102
RTVSPropertyOp25
 70
     1
102
RTVSPropertyOp26
 70
     1
102
RTVSPropertyOp27
 70
     1
102
RTVSPropertyOp28
 70
     1
102
RTVSPropertyOp29
 70
     1
102
RTVSPropertyOp30
 70
     1
102
RTVSPropertyOp31
 70
     1
102
RTVSPropertyOp32
 70
     1
102
RTVSPropertyOp33
 70
     1
102
RTVSPropertyOp34
 70
     1
102
RTVSPropertyOp35
 70
     1
102
RTVSPropertyOp36
 70
     1
102
RTVSPropertyOp37
 70
     1
102
RTVSPropertyOp38
 70
     1
102
RTVSPropertyOp39
 70
     1
102
RTVSPropertyOp40
 70
     1
102
RTVSPropertyOp41
 70
     1
102
RTVSPropertyOp42
 70
     1
102
RTVSPropertyOp43
 70
     1
102
RTVSPropertyOp44
 70
     1
102
RTVSPropertyOp45
 70
     1
102
RTVSPropertyOp46
 70
     1
102
RTVSPropertyOp47
 70
     1
102
RTVSPropertyOp48
 70
     1
102
RTVSPropertyOp49
 70
     1
102
RTVSPropertyOp50
 70
     1
102
RTVSPropertyOp51
 70
     0
102
RTVSPropertyOp52
 70
     0
102
RTVSPropertyOp53
 70
     1
102
RTVSPropertyOp54
 70
     1
102
RTVSPropertyOp55
 70
     1
102
RTVSPropertyOp56
 70
     1
102
RTVSPropertyOp57
 70
     1
102
RTVSPost2010Prop28
280
     0
102
RTVSPost2010PropOp28
 70
     1
102
RTVSPost2010Prop29
280
     1
102
RTVSPost2010PropOp29
 70
     1
102
RTVSPost2010Prop30
280
     1
102
RTVSPost2010PropOp30
 70
     1
102
RTVSPost2010Prop31
280
     0
102
RTVSPost2010PropOp31
 70
     1
102
RTVSPost2010Prop32
280
     0
102
RTVSPost2010PropOp32
 70
     1
102
RTVSPost2010Prop33
280
     0
102
RTVSPost2010PropOp33
 70
     1
102
RTVSPost2010Prop34
280
     0
102
RTVSPost2010PropOp34
 70
     1
102
RTVSPost2010Prop35
280
     0
102
RTVSPost2010PropOp35
 70
     1
102
RTVSPost2010Prop36
280
     0
102
RTVSPost2010PropOp36
 70
     1
102
RTVSPost2010Prop37
 90
       50
102
RTVSPost2010PropOp37
 70
     1
102
RTVSPost2010Prop38
140
0.0
102
RTVSPost2010PropOp38
 70
     1
102
RTVSPost2010Prop39
140
1.0
102
RTVSPost2010PropOp39
 70
     1
102
RTVSPost2010Prop40
 90
        0
102
RTVSPost2010PropOp40
 70
     1
102
RTVSPost2010Prop41ColorIndex
 90
       18
102
RTVSPost2010Prop41ColorRGB
 90
        0
102
RTVSPost2010PropOp41
 70
     1
102
RTVSPost2010Prop42
 90
       50
102
RTVSPost2010PropOp42
 70
     1
102
RTVSPost2010Prop43
 90
        3
102
RTVSPost2010PropOp43
 70
     1
102
RTVSPost2010Prop44ColorIndex
 90
        5
102
RTVSPost2010Prop44ColorRGB
 90
      255
102
RTVSPost2010PropOp44
 70
     1
102
RTVSPost2010Prop45
280
     0
102
RTVSPost2010PropOp45
 70
     1
102
RTVSPost2010Prop46
 90
       50
102
RTVSPost2010PropOp46
 70
     1
102
RTVSPost2010Prop47
 90
       50
102
RTVSPost2010PropOp47
 70
     1
102
RTVSPost2010Prop48
 90
       50
102
RTVSPost2010PropOp48
 70
     1
102
RTVSPost2010Prop49
280
     0
102
RTVSPost2010PropOp49
 70
     1
102
RTVSPost2010Prop50
 90
       50
102
RTVSPost2010PropOp50
 70
     1
102
RTVSPost2010Prop51ColorIndex
 90
      256
102
RTVSPost2010Prop51ColorRGB
 90
-16777216
102
RTVSPost2010PropOp51
 70
     0
102
RTVSPost2010Prop52
140
1.0
102
RTVSPost2010PropOp52
 70
     0
102
RTVSPost2010Prop53
 90
        2
102
RTVSPost2010PropOp53
 70
     1
102
RTVSPost2010Prop54
  1
strokes_ogs.tif
102
RTVSPost2010PropOp54
 70
     1
102
RTVSPost2010Prop55
280
     0
102
RTVSPost2010PropOp55
 70
     1
102
RTVSPost2010Prop56
140
1.0
102
RTVSPost2010PropOp56
 70
     1
102
RTVSPost2010Prop57
140
1.0
102
RTVSPost2010PropOp57
 70
     1
  0
XRECORD
  5
3D4
102
{ACAD_REACTORS
330
3D3
102
}
330
3D3
100
AcDbXrecord
280
     1
102
RTVSPropertyOp0
 70
     1
102
RTVSPropertyOp1
 70
     1
102
RTVSPropertyOp2
 70
     1
102
RTVSPropertyOp3
 70
     1
102
RTVSPropertyOp4
 70
     1
102
RTVSPropertyOp5
 70
     1
102
RTVSPropertyOp6
 70
     1
102
RTVSPropertyOp7
 70
     1
102
RTVSPropertyOp8
 70
     1
102
RTVSPropertyOp9
 70
     1
102
RTVSPropertyOp10
 70
     1
102
RTVSPropertyOp11
 70
     1
102
RTVSPropertyOp12
 70
     1
102
RTVSPropertyOp13
 70
     1
102
RTVSPropertyOp14
 70
     1
102
RTVSPropertyOp15
 70
     1
102
RTVSPropertyOp16
 70
     1
102
RTVSPropertyOp17
 70
     1
102
RTVSPropertyOp18
 70
     1
102
RTVSPropertyOp19
 70
     1
102
RTVSPropertyOp20
 70
     1
102
RTVSPropertyOp21
 70
     1
102
RTVSPropertyOp22
 70
     1
102
RTVSPropertyOp23
 70
     1
102
RTVSPropertyOp24
 70
     1
102
RTVSPropertyOp25
 70
     1
102
RTVSPropertyOp26
 70
     1
102
RTVSPropertyOp27
 70
     1
102
RTVSPropertyOp28
 70
     1
102
RTVSPropertyOp29
 70
     1
102
RTVSPropertyOp30
 70
     1
102
RTVSPropertyOp31
 70
     1
102
RTVSPropertyOp32
 70
     1
102
RTVSPropertyOp33
 70
     1
102
RTVSPropertyOp34
 70
     1
102
RTVSPropertyOp35
 70
     1
102
RTVSPropertyOp36
 70
     1
102
RTVSPropertyOp37
 70
     1
102
RTVSPropertyOp38
 70
     1
102
RTVSPropertyOp39
 70
     1
102
RTVSPropertyOp40
 70
     1
102
RTVSPropertyOp41
 70
     1
102
RTVSPropertyOp42
 70
     1
102
RTVSPropertyOp43
 70
     1
102
RTVSPropertyOp44
 70
     1
102
RTVSPropertyOp45
 70
     1
102
RTVSPropertyOp46
 70
     1
102
RTVSPropertyOp47
 70
     1
102
RTVSPropertyOp48
 70
     1
102
RTVSPropertyOp49
 70
     1
102
RTVSPropertyOp50
 70
     1
102
RTVSPropertyOp51
 70
     0
102
RTVSPropertyOp52
 70
     0
102
RTVSPropertyOp53
 70
     1
102
RTVSPropertyOp54
 70
     1
102
RTVSPropertyOp55
 70
     1
102
RTVSPropertyOp56
 70
     1
102
RTVSPropertyOp57
 70
     1
102
RTVSPost2010Prop28
280
     0
102
RTVSPost2010PropOp28
 70
     1
102
RTVSPost2010Prop29
280
     1
102
RTVSPost2010PropOp29
 70
     1
102
RTVSPost2010Prop30
280
     1
102
RTVSPost2010PropOp30
 70
     1
102
RTVSPost2010Prop31
280
     0
102
RTVSPost2010PropOp31
 70
     1
102
RTVSPost2010Prop32
280
     0
102
RTVSPost2010PropOp32
 70
     1
102
RTVSPost2010Prop33
280
     0
102
RTVSPost2010PropOp33
 70
     1
102
RTVSPost2010Prop34
280
     0
102
RTVSPost2010PropOp34
 70
     1
102
RTVSPost2010Prop35
280
     0
102
RTVSPost2010PropOp35
 70
     1
102
RTVSPost2010Prop36
280
     0
102
RTVSPost2010PropOp36
 70
     1
102
RTVSPost2010Prop37
 90
       50
102
RTVSPost2010PropOp37
 70
     1
102
RTVSPost2010Prop38
140
0.0
102
RTVSPost2010PropOp38
 70
     1
102
RTVSPost2010Prop39
140
1.0
102
RTVSPost2010PropOp39
 70
     1
102
RTVSPost2010Prop40
 90
        0
102
RTVSPost2010PropOp40
 70
     1
102
RTVSPost2010Prop41ColorIndex
 90
       18
102
RTVSPost2010Prop41ColorRGB
 90
        0
102
RTVSPost2010PropOp41
 70
     1
102
RTVSPost2010Prop42
 90
       50
102
RTVSPost2010PropOp42
 70
     1
102
RTVSPost2010Prop43
 90
        3
102
RTVSPost2010PropOp43
 70
     1
102
RTVSPost2010Prop44ColorIndex
 90
        5
102
RTVSPost2010Prop44ColorRGB
 90
      255
102
RTVSPost2010PropOp44
 70
     1
102
RTVSPost2010Prop45
280
     0
102
RTVSPost2010PropOp45
 70
     1
102
RTVSPost2010Prop46
 90
       50
102
RTVSPost2010PropOp46
 70
     1
102
RTVSPost2010Prop47
 90
       50
102
RTVSPost2010PropOp47
 70
     1
102
RTVSPost2010Prop48
 90
       50
102
RTVSPost2010PropOp48
 70
     1
102
RTVSPost2010Prop49
280
     0
102
RTVSPost2010PropOp49
 70
     1
102
RTVSPost2010Prop50
 90
       50
102
RTVSPost2010PropOp50
 70
     1
102
RTVSPost2010Prop51ColorIndex
 90
      256
102
RTVSPost2010Prop51ColorRGB
 90
-16777216
102
RTVSPost2010PropOp51
 70
     0
102
RTVSPost2010Prop52
140
1.0
102
RTVSPost2010PropOp52
 70
     0
102
RTVSPost2010Prop53
 90
        2
102
RTVSPost2010PropOp53
 70
     1
102
RTVSPost2010Prop54
  1
strokes_ogs.tif
102
RTVSPost2010PropOp54
 70
     1
102
RTVSPost2010Prop55
280
     0
102
RTVSPost2010PropOp55
 70
     1
102
RTVSPost2010Prop56
140
1.0
102
RTVSPost2010PropOp56
 70
     1
102
RTVSPost2010Prop57
140
1.0
102
RTVSPost2010PropOp57
 70
     1
  0
XRECORD
  5
3CE
102
{ACAD_REACTORS
330
3CD
102
}
330
3CD
100
AcDbXrecord
280
     1
102
RTVSPropertyOp0
 70
     1
102
RTVSPropertyOp1
 70
     1
102
RTVSPropertyOp2
 70
     1
102
RTVSPropertyOp3
 70
     1
102
RTVSPropertyOp4
 70
     1
102
RTVSPropertyOp5
 70
     1
102
RTVSPropertyOp6
 70
     1
102
RTVSPropertyOp7
 70
     1
102
RTVSPropertyOp8
 70
     1
102
RTVSPropertyOp9
 70
     1
102
RTVSPropertyOp10
 70
     1
102
RTVSPropertyOp11
 70
     1
102
RTVSPropertyOp12
 70
     1
102
RTVSPropertyOp13
 70
     1
102
RTVSPropertyOp14
 70
     1
102
RTVSPropertyOp15
 70
     1
102
RTVSPropertyOp16
 70
     1
102
RTVSPropertyOp17
 70
     1
102
RTVSPropertyOp18
 70
     1
102
RTVSPropertyOp19
 70
     1
102
RTVSPropertyOp20
 70
     1
102
RTVSPropertyOp21
 70
     1
102
RTVSPropertyOp22
 70
     1
102
RTVSPropertyOp23
 70
     1
102
RTVSPropertyOp24
 70
     1
102
RTVSPropertyOp25
 70
     1
102
RTVSPropertyOp26
 70
     1
102
RTVSPropertyOp27
 70
     1
102
RTVSPropertyOp28
 70
     1
102
RTVSPropertyOp29
 70
     1
102
RTVSPropertyOp30
 70
     1
102
RTVSPropertyOp31
 70
     1
102
RTVSPropertyOp32
 70
     1
102
RTVSPropertyOp33
 70
     1
102
RTVSPropertyOp34
 70
     1
102
RTVSPropertyOp35
 70
     1
102
RTVSPropertyOp36
 70
     1
102
RTVSPropertyOp37
 70
     1
102
RTVSPropertyOp38
 70
     1
102
RTVSPropertyOp39
 70
     1
102
RTVSPropertyOp40
 70
     1
102
RTVSPropertyOp41
 70
     1
102
RTVSPropertyOp42
 70
     1
102
RTVSPropertyOp43
 70
     1
102
RTVSPropertyOp44
 70
     1
102
RTVSPropertyOp45
 70
     1
102
RTVSPropertyOp46
 70
     1
102
RTVSPropertyOp47
 70
     1
102
RTVSPropertyOp48
 70
     1
102
RTVSPropertyOp49
 70
     1
102
RTVSPropertyOp50
 70
     1
102
RTVSPropertyOp51
 70
     0
102
RTVSPropertyOp52
 70
     0
102
RTVSPropertyOp53
 70
     1
102
RTVSPropertyOp54
 70
     1
102
RTVSPropertyOp55
 70
     1
102
RTVSPropertyOp56
 70
     1
102
RTVSPropertyOp57
 70
     1
102
RTVSPost2010Prop28
280
     0
102
RTVSPost2010PropOp28
 70
     1
102
RTVSPost2010Prop29
280
     1
102
RTVSPost2010PropOp29
 70
     1
102
RTVSPost2010Prop30
280
     1
102
RTVSPost2010PropOp30
 70
     1
102
RTVSPost2010Prop31
280
     0
102
RTVSPost2010PropOp31
 70
     1
102
RTVSPost2010Prop32
280
     0
102
RTVSPost2010PropOp32
 70
     1
102
RTVSPost2010Prop33
280
     0
102
RTVSPost2010PropOp33
 70
     1
102
RTVSPost2010Prop34
280
     0
102
RTVSPost2010PropOp34
 70
     1
102
RTVSPost2010Prop35
280
     0
102
RTVSPost2010PropOp35
 70
     1
102
RTVSPost2010Prop36
280
     0
102
RTVSPost2010PropOp36
 70
     1
102
RTVSPost2010Prop37
 90
       50
102
RTVSPost2010PropOp37
 70
     1
102
RTVSPost2010Prop38
140
0.0
102
RTVSPost2010PropOp38
 70
     1
102
RTVSPost2010Prop39
140
1.0
102
RTVSPost2010PropOp39
 70
     1
102
RTVSPost2010Prop40
 90
        0
102
RTVSPost2010PropOp40
 70
     1
102
RTVSPost2010Prop41ColorIndex
 90
       18
102
RTVSPost2010Prop41ColorRGB
 90
        0
102
RTVSPost2010PropOp41
 70
     1
102
RTVSPost2010Prop42
 90
       50
102
RTVSPost2010PropOp42
 70
     1
102
RTVSPost2010Prop43
 90
        3
102
RTVSPost2010PropOp43
 70
     1
102
RTVSPost2010Prop44ColorIndex
 90
        5
102
RTVSPost2010Prop44ColorRGB
 90
      255
102
RTVSPost2010PropOp44
 70
     1
102
RTVSPost2010Prop45
280
     0
102
RTVSPost2010PropOp45
 70
     1
102
RTVSPost2010Prop46
 90
       50
102
RTVSPost2010PropOp46
 70
     1
102
RTVSPost2010Prop47
 90
       50
102
RTVSPost2010PropOp47
 70
     1
102
RTVSPost2010Prop48
 90
       50
102
RTVSPost2010PropOp48
 70
     1
102
RTVSPost2010Prop49
280
     0
102
RTVSPost2010PropOp49
 70
     1
102
RTVSPost2010Prop50
 90
       50
102
RTVSPost2010PropOp50
 70
     1
102
RTVSPost2010Prop51ColorIndex
 90
      256
102
RTVSPost2010Prop51ColorRGB
 90
-16777216
102
RTVSPost2010PropOp51
 70
     0
102
RTVSPost2010Prop52
140
1.0
102
RTVSPost2010PropOp52
 70
     0
102
RTVSPost2010Prop53
 90
        2
102
RTVSPost2010PropOp53
 70
     1
102
RTVSPost2010Prop54
  1
strokes_ogs.tif
102
RTVSPost2010PropOp54
 70
     1
102
RTVSPost2010Prop55
280
     0
102
RTVSPost2010PropOp55
 70
     1
102
RTVSPost2010Prop56
140
1.0
102
RTVSPost2010PropOp56
 70
     1
102
RTVSPost2010Prop57
140
1.0
102
RTVSPost2010PropOp57
 70
     1
  0
XRECORD
  5
3D0
102
{ACAD_REACTORS
330
3CF
102
}
330
3CF
100
AcDbXrecord
280
     1
102
RTVSPropertyOp0
 70
     1
102
RTVSPropertyOp1
 70
     1
102
RTVSPropertyOp2
 70
     1
102
RTVSPropertyOp3
 70
     1
102
RTVSPropertyOp4
 70
     1
102
RTVSPropertyOp5
 70
     1
102
RTVSPropertyOp6
 70
     1
102
RTVSPropertyOp7
 70
     1
102
RTVSPropertyOp8
 70
     1
102
RTVSPropertyOp9
 70
     1
102
RTVSPropertyOp10
 70
     1
102
RTVSPropertyOp11
 70
     1
102
RTVSPropertyOp12
 70
     1
102
RTVSPropertyOp13
 70
     1
102
RTVSPropertyOp14
 70
     1
102
RTVSPropertyOp15
 70
     1
102
RTVSPropertyOp16
 70
     1
102
RTVSPropertyOp17
 70
     1
102
RTVSPropertyOp18
 70
     1
102
RTVSPropertyOp19
 70
     1
102
RTVSPropertyOp20
 70
     1
102
RTVSPropertyOp21
 70
     1
102
RTVSPropertyOp22
 70
     1
102
RTVSPropertyOp23
 70
     1
102
RTVSPropertyOp24
 70
     1
102
RTVSPropertyOp25
 70
     1
102
RTVSPropertyOp26
 70
     1
102
RTVSPropertyOp27
 70
     1
102
RTVSPropertyOp28
 70
     1
102
RTVSPropertyOp29
 70
     1
102
RTVSPropertyOp30
 70
     1
102
RTVSPropertyOp31
 70
     1
102
RTVSPropertyOp32
 70
     1
102
RTVSPropertyOp33
 70
     1
102
RTVSPropertyOp34
 70
     1
102
RTVSPropertyOp35
 70
     1
102
RTVSPropertyOp36
 70
     1
102
RTVSPropertyOp37
 70
     1
102
RTVSPropertyOp38
 70
     1
102
RTVSPropertyOp39
 70
     1
102
RTVSPropertyOp40
 70
     1
102
RTVSPropertyOp41
 70
     1
102
RTVSPropertyOp42
 70
     1
102
RTVSPropertyOp43
 70
     1
102
RTVSPropertyOp44
 70
     1
102
RTVSPropertyOp45
 70
     1
102
RTVSPropertyOp46
 70
     1
102
RTVSPropertyOp47
 70
     1
102
RTVSPropertyOp48
 70
     1
102
RTVSPropertyOp49
 70
     1
102
RTVSPropertyOp50
 70
     1
102
RTVSPropertyOp51
 70
     0
102
RTVSPropertyOp52
 70
     0
102
RTVSPropertyOp53
 70
     1
102
RTVSPropertyOp54
 70
     1
102
RTVSPropertyOp55
 70
     1
102
RTVSPropertyOp56
 70
     1
102
RTVSPropertyOp57
 70
     1
102
RTVSPost2010Prop28
280
     0
102
RTVSPost2010PropOp28
 70
     1
102
RTVSPost2010Prop29
280
     1
102
RTVSPost2010PropOp29
 70
     1
102
RTVSPost2010Prop30
280
     1
102
RTVSPost2010PropOp30
 70
     1
102
RTVSPost2010Prop31
280
     0
102
RTVSPost2010PropOp31
 70
     1
102
RTVSPost2010Prop32
280
     0
102
RTVSPost2010PropOp32
 70
     1
102
RTVSPost2010Prop33
280
     0
102
RTVSPost2010PropOp33
 70
     1
102
RTVSPost2010Prop34
280
     0
102
RTVSPost2010PropOp34
 70
     1
102
RTVSPost2010Prop35
280
     0
102
RTVSPost2010PropOp35
 70
     1
102
RTVSPost2010Prop36
280
     0
102
RTVSPost2010PropOp36
 70
     1
102
RTVSPost2010Prop37
 90
       50
102
RTVSPost2010PropOp37
 70
     1
102
RTVSPost2010Prop38
140
0.0
102
RTVSPost2010PropOp38
 70
     1
102
RTVSPost2010Prop39
140
1.0
102
RTVSPost2010PropOp39
 70
     1
102
RTVSPost2010Prop40
 90
        0
102
RTVSPost2010PropOp40
 70
     1
102
RTVSPost2010Prop41ColorIndex
 90
       18
102
RTVSPost2010Prop41ColorRGB
 90
        0
102
RTVSPost2010PropOp41
 70
     1
102
RTVSPost2010Prop42
 90
       50
102
RTVSPost2010PropOp42
 70
     1
102
RTVSPost2010Prop43
 90
        3
102
RTVSPost2010PropOp43
 70
     1
102
RTVSPost2010Prop44ColorIndex
 90
        5
102
RTVSPost2010Prop44ColorRGB
 90
      255
102
RTVSPost2010PropOp44
 70
     1
102
RTVSPost2010Prop45
280
     0
102
RTVSPost2010PropOp45
 70
     1
102
RTVSPost2010Prop46
 90
       50
102
RTVSPost2010PropOp46
 70
     1
102
RTVSPost2010Prop47
 90
       50
102
RTVSPost2010PropOp47
 70
     1
102
RTVSPost2010Prop48
 90
       50
102
RTVSPost2010PropOp48
 70
     1
102
RTVSPost2010Prop49
280
     0
102
RTVSPost2010PropOp49
 70
     1
102
RTVSPost2010Prop50
 90
       50
102
RTVSPost2010PropOp50
 70
     1
102
RTVSPost2010Prop51ColorIndex
 90
      256
102
RTVSPost2010Prop51ColorRGB
 90
-16777216
102
RTVSPost2010PropOp51
 70
     0
102
RTVSPost2010Prop52
140
1.0
102
RTVSPost2010PropOp52
 70
     0
102
RTVSPost2010Prop53
 90
        2
102
RTVSPost2010PropOp53
 70
     1
102
RTVSPost2010Prop54
  1
strokes_ogs.tif
102
RTVSPost2010PropOp54
 70
     1
102
RTVSPost2010Prop55
280
     0
102
RTVSPost2010PropOp55
 70
     1
102
RTVSPost2010Prop56
140
1.0
102
RTVSPost2010PropOp56
 70
     1
102
RTVSPost2010Prop57
140
1.0
102
RTVSPost2010PropOp57
 70
     1
  0
XRECORD
  5
3C0
102
{ACAD_REACTORS
330
3BF
102
}
330
3BF
100
AcDbXrecord
280
     1
102
RTVSPropertyOp0
 70
     1
102
RTVSPropertyOp1
 70
     1
102
RTVSPropertyOp2
 70
     1
102
RTVSPropertyOp3
 70
     1
102
RTVSPropertyOp4
 70
     1
102
RTVSPropertyOp5
 70
     1
102
RTVSPropertyOp6
 70
     1
102
RTVSPropertyOp7
 70
     1
102
RTVSPropertyOp8
 70
     1
102
RTVSPropertyOp9
 70
     1
102
RTVSPropertyOp10
 70
     1
102
RTVSPropertyOp11
 70
     1
102
RTVSPropertyOp12
 70
     1
102
RTVSPropertyOp13
 70
     1
102
RTVSPropertyOp14
 70
     1
102
RTVSPropertyOp15
 70
     1
102
RTVSPropertyOp16
 70
     1
102
RTVSPropertyOp17
 70
     1
102
RTVSPropertyOp18
 70
     1
102
RTVSPropertyOp19
 70
     1
102
RTVSPropertyOp20
 70
     1
102
RTVSPropertyOp21
 70
     1
102
RTVSPropertyOp22
 70
     1
102
RTVSPropertyOp23
 70
     1
102
RTVSPropertyOp24
 70
     1
102
RTVSPropertyOp25
 70
     1
102
RTVSPropertyOp26
 70
     1
102
RTVSPropertyOp27
 70
     1
102
RTVSPropertyOp28
 70
     1
102
RTVSPropertyOp29
 70
     1
102
RTVSPropertyOp30
 70
     1
102
RTVSPropertyOp31
 70
     1
102
RTVSPropertyOp32
 70
     1
102
RTVSPropertyOp33
 70
     1
102
RTVSPropertyOp34
 70
     1
102
RTVSPropertyOp35
 70
     1
102
RTVSPropertyOp36
 70
     1
102
RTVSPropertyOp37
 70
     1
102
RTVSPropertyOp38
 70
     1
102
RTVSPropertyOp39
 70
     1
102
RTVSPropertyOp40
 70
     1
102
RTVSPropertyOp41
 70
     1
102
RTVSPropertyOp42
 70
     1
102
RTVSPropertyOp43
 70
     1
102
RTVSPropertyOp44
 70
     1
102
RTVSPropertyOp45
 70
     1
102
RTVSPropertyOp46
 70
     1
102
RTVSPropertyOp47
 70
     1
102
RTVSPropertyOp48
 70
     1
102
RTVSPropertyOp49
 70
     1
102
RTVSPropertyOp50
 70
     1
102
RTVSPropertyOp51
 70
     0
102
RTVSPropertyOp52
 70
     0
102
RTVSPropertyOp53
 70
     1
102
RTVSPropertyOp54
 70
     1
102
RTVSPropertyOp55
 70
     1
102
RTVSPropertyOp56
 70
     1
102
RTVSPropertyOp57
 70
     1
102
RTVSPost2010Prop28
280
     0
102
RTVSPost2010PropOp28
 70
     1
102
RTVSPost2010Prop29
280
     1
102
RTVSPost2010PropOp29
 70
     1
102
RTVSPost2010Prop30
280
     1
102
RTVSPost2010PropOp30
 70
     1
102
RTVSPost2010Prop31
280
     0
102
RTVSPost2010PropOp31
 70
     1
102
RTVSPost2010Prop32
280
     0
102
RTVSPost2010PropOp32
 70
     1
102
RTVSPost2010Prop33
280
     0
102
RTVSPost2010PropOp33
 70
     1
102
RTVSPost2010Prop34
280
     0
102
RTVSPost2010PropOp34
 70
     1
102
RTVSPost2010Prop35
280
     0
102
RTVSPost2010PropOp35
 70
     1
102
RTVSPost2010Prop36
280
     0
102
RTVSPost2010PropOp36
 70
     1
102
RTVSPost2010Prop37
 90
       50
102
RTVSPost2010PropOp37
 70
     1
102
RTVSPost2010Prop38
140
0.0
102
RTVSPost2010PropOp38
 70
     1
102
RTVSPost2010Prop39
140
1.0
102
RTVSPost2010PropOp39
 70
     1
102
RTVSPost2010Prop40
 90
        0
102
RTVSPost2010PropOp40
 70
     1
102
RTVSPost2010Prop41ColorIndex
 90
       18
102
RTVSPost2010Prop41ColorRGB
 90
        0
102
RTVSPost2010PropOp41
 70
     1
102
RTVSPost2010Prop42
 90
       50
102
RTVSPost2010PropOp42
 70
     1
102
RTVSPost2010Prop43
 90
        3
102
RTVSPost2010PropOp43
 70
     1
102
RTVSPost2010Prop44ColorIndex
 90
        5
102
RTVSPost2010Prop44ColorRGB
 90
      255
102
RTVSPost2010PropOp44
 70
     1
102
RTVSPost2010Prop45
280
     0
102
RTVSPost2010PropOp45
 70
     1
102
RTVSPost2010Prop46
 90
       50
102
RTVSPost2010PropOp46
 70
     1
102
RTVSPost2010Prop47
 90
       50
102
RTVSPost2010PropOp47
 70
     1
102
RTVSPost2010Prop48
 90
       50
102
RTVSPost2010PropOp48
 70
     1
102
RTVSPost2010Prop49
280
     0
102
RTVSPost2010PropOp49
 70
     1
102
RTVSPost2010Prop50
 90
       50
102
RTVSPost2010PropOp50
 70
     1
102
RTVSPost2010Prop51ColorIndex
 90
      256
102
RTVSPost2010Prop51ColorRGB
 90
-16777216
102
RTVSPost2010PropOp51
 70
     0
102
RTVSPost2010Prop52
140
1.0
102
RTVSPost2010PropOp52
 70
     0
102
RTVSPost2010Prop53
 90
        2
102
RTVSPost2010PropOp53
 70
     1
102
RTVSPost2010Prop54
  1
strokes_ogs.tif
102
RTVSPost2010PropOp54
 70
     1
102
RTVSPost2010Prop55
280
     0
102
RTVSPost2010PropOp55
 70
     1
102
RTVSPost2010Prop56
140
1.0
102
RTVSPost2010PropOp56
 70
     1
102
RTVSPost2010Prop57
140
1.0
102
RTVSPost2010PropOp57
 70
     1
  0
XRECORD
  5
3B2
102
{ACAD_REACTORS
330
3B1
102
}
330
3B1
100
AcDbXrecord
280
     1
102
RTVSPropertyOp0
 70
     1
102
RTVSPropertyOp1
 70
     1
102
RTVSPropertyOp2
 70
     1
102
RTVSPropertyOp3
 70
     1
102
RTVSPropertyOp4
 70
     1
102
RTVSPropertyOp5
 70
     1
102
RTVSPropertyOp6
 70
     1
102
RTVSPropertyOp7
 70
     1
102
RTVSPropertyOp8
 70
     1
102
RTVSPropertyOp9
 70
     1
102
RTVSPropertyOp10
 70
     1
102
RTVSPropertyOp11
 70
     1
102
RTVSPropertyOp12
 70
     1
102
RTVSPropertyOp13
 70
     1
102
RTVSPropertyOp14
 70
     1
102
RTVSPropertyOp15
 70
     1
102
RTVSPropertyOp16
 70
     1
102
RTVSPropertyOp17
 70
     1
102
RTVSPropertyOp18
 70
     1
102
RTVSPropertyOp19
 70
     1
102
RTVSPropertyOp20
 70
     1
102
RTVSPropertyOp21
 70
     1
102
RTVSPropertyOp22
 70
     1
102
RTVSPropertyOp23
 70
     1
102
RTVSPropertyOp24
 70
     1
102
RTVSPropertyOp25
 70
     1
102
RTVSPropertyOp26
 70
     1
102
RTVSPropertyOp27
 70
     1
102
RTVSPropertyOp28
 70
     1
102
RTVSPropertyOp29
 70
     1
102
RTVSPropertyOp30
 70
     1
102
RTVSPropertyOp31
 70
     1
102
RTVSPropertyOp32
 70
     1
102
RTVSPropertyOp33
 70
     1
102
RTVSPropertyOp34
 70
     1
102
RTVSPropertyOp35
 70
     1
102
RTVSPropertyOp36
 70
     1
102
RTVSPropertyOp37
 70
     1
102
RTVSPropertyOp38
 70
     1
102
RTVSPropertyOp39
 70
     1
102
RTVSPropertyOp40
 70
     1
102
RTVSPropertyOp41
 70
     1
102
RTVSPropertyOp42
 70
     1
102
RTVSPropertyOp43
 70
     1
102
RTVSPropertyOp44
 70
     1
102
RTVSPropertyOp45
 70
     1
102
RTVSPropertyOp46
 70
     1
102
RTVSPropertyOp47
 70
     1
102
RTVSPropertyOp48
 70
     1
102
RTVSPropertyOp49
 70
     1
102
RTVSPropertyOp50
 70
     1
102
RTVSPropertyOp51
 70
     0
102
RTVSPropertyOp52
 70
     0
102
RTVSPropertyOp53
 70
     1
102
RTVSPropertyOp54
 70
     1
102
RTVSPropertyOp55
 70
     1
102
RTVSPropertyOp56
 70
     1
102
RTVSPropertyOp57
 70
     1
102
RTVSPost2010Prop28
280
     0
102
RTVSPost2010PropOp28
 70
     1
102
RTVSPost2010Prop29
280
     1
102
RTVSPost2010PropOp29
 70
     1
102
RTVSPost2010Prop30
280
     1
102
RTVSPost2010PropOp30
 70
     1
102
RTVSPost2010Prop31
280
     0
102
RTVSPost2010PropOp31
 70
     1
102
RTVSPost2010Prop32
280
     0
102
RTVSPost2010PropOp32
 70
     1
102
RTVSPost2010Prop33
280
     0
102
RTVSPost2010PropOp33
 70
     1
102
RTVSPost2010Prop34
280
     0
102
RTVSPost2010PropOp34
 70
     1
102
RTVSPost2010Prop35
280
     0
102
RTVSPost2010PropOp35
 70
     1
102
RTVSPost2010Prop36
280
     0
102
RTVSPost2010PropOp36
 70
     1
102
RTVSPost2010Prop37
 90
       50
102
RTVSPost2010PropOp37
 70
     1
102
RTVSPost2010Prop38
140
0.0
102
RTVSPost2010PropOp38
 70
     1
102
RTVSPost2010Prop39
140
1.0
102
RTVSPost2010PropOp39
 70
     1
102
RTVSPost2010Prop40
 90
        0
102
RTVSPost2010PropOp40
 70
     1
102
RTVSPost2010Prop41ColorIndex
 90
       18
102
RTVSPost2010Prop41ColorRGB
 90
        0
102
RTVSPost2010PropOp41
 70
     1
102
RTVSPost2010Prop42
 90
       50
102
RTVSPost2010PropOp42
 70
     1
102
RTVSPost2010Prop43
 90
        3
102
RTVSPost2010PropOp43
 70
     1
102
RTVSPost2010Prop44ColorIndex
 90
        5
102
RTVSPost2010Prop44ColorRGB
 90
      255
102
RTVSPost2010PropOp44
 70
     1
102
RTVSPost2010Prop45
280
     0
102
RTVSPost2010PropOp45
 70
     1
102
RTVSPost2010Prop46
 90
       50
102
RTVSPost2010PropOp46
 70
     1
102
RTVSPost2010Prop47
 90
       50
102
RTVSPost2010PropOp47
 70
     1
102
RTVSPost2010Prop48
 90
       50
102
RTVSPost2010PropOp48
 70
     1
102
RTVSPost2010Prop49
280
     0
102
RTVSPost2010PropOp49
 70
     1
102
RTVSPost2010Prop50
 90
       50
102
RTVSPost2010PropOp50
 70
     1
102
RTVSPost2010Prop51ColorIndex
 90
      256
102
RTVSPost2010Prop51ColorRGB
 90
-16777216
102
RTVSPost2010PropOp51
 70
     0
102
RTVSPost2010Prop52
140
1.0
102
RTVSPost2010PropOp52
 70
     0
102
RTVSPost2010Prop53
 90
        2
102
RTVSPost2010PropOp53
 70
     1
102
RTVSPost2010Prop54
  1
strokes_ogs.tif
102
RTVSPost2010PropOp54
 70
     1
102
RTVSPost2010Prop55
280
     0
102
RTVSPost2010PropOp55
 70
     1
102
RTVSPost2010Prop56
140
1.0
102
RTVSPost2010PropOp56
 70
     1
102
RTVSPost2010Prop57
140
1.0
102
RTVSPost2010PropOp57
 70
     1
  0
XRECORD
  5
3D2
102
{ACAD_REACTORS
330
3D1
102
}
330
3D1
100
AcDbXrecord
280
     1
102
RTVSPropertyOp0
 70
     1
102
RTVSPropertyOp1
 70
     1
102
RTVSPropertyOp2
 70
     1
102
RTVSPropertyOp3
 70
     1
102
RTVSPropertyOp4
 70
     1
102
RTVSPropertyOp5
 70
     1
102
RTVSPropertyOp6
 70
     1
102
RTVSPropertyOp7
 70
     1
102
RTVSPropertyOp8
 70
     1
102
RTVSPropertyOp9
 70
     1
102
RTVSPropertyOp10
 70
     1
102
RTVSPropertyOp11
 70
     1
102
RTVSPropertyOp12
 70
     1
102
RTVSPropertyOp13
 70
     1
102
RTVSPropertyOp14
 70
     1
102
RTVSPropertyOp15
 70
     1
102
RTVSPropertyOp16
 70
     1
102
RTVSPropertyOp17
 70
     1
102
RTVSPropertyOp18
 70
     1
102
RTVSPropertyOp19
 70
     1
102
RTVSPropertyOp20
 70
     1
102
RTVSPropertyOp21
 70
     1
102
RTVSPropertyOp22
 70
     1
102
RTVSPropertyOp23
 70
     1
102
RTVSPropertyOp24
 70
     1
102
RTVSPropertyOp25
 70
     1
102
RTVSPropertyOp26
 70
     1
102
RTVSPropertyOp27
 70
     1
102
RTVSPropertyOp28
 70
     1
102
RTVSPropertyOp29
 70
     1
102
RTVSPropertyOp30
 70
     1
102
RTVSPropertyOp31
 70
     1
102
RTVSPropertyOp32
 70
     1
102
RTVSPropertyOp33
 70
     1
102
RTVSPropertyOp34
 70
     1
102
RTVSPropertyOp35
 70
     1
102
RTVSPropertyOp36
 70
     1
102
RTVSPropertyOp37
 70
     1
102
RTVSPropertyOp38
 70
     1
102
RTVSPropertyOp39
 70
     1
102
RTVSPropertyOp40
 70
     1
102
RTVSPropertyOp41
 70
     1
102
RTVSPropertyOp42
 70
     1
102
RTVSPropertyOp43
 70
     1
102
RTVSPropertyOp44
 70
     1
102
RTVSPropertyOp45
 70
     1
102
RTVSPropertyOp46
 70
     1
102
RTVSPropertyOp47
 70
     1
102
RTVSPropertyOp48
 70
     1
102
RTVSPropertyOp49
 70
     1
102
RTVSPropertyOp50
 70
     1
102
RTVSPropertyOp51
 70
     0
102
RTVSPropertyOp52
 70
     0
102
RTVSPropertyOp53
 70
     1
102
RTVSPropertyOp54
 70
     1
102
RTVSPropertyOp55
 70
     1
102
RTVSPropertyOp56
 70
     1
102
RTVSPropertyOp57
 70
     1
102
RTVSPost2010Prop28
280
     0
102
RTVSPost2010PropOp28
 70
     1
102
RTVSPost2010Prop29
280
     1
102
RTVSPost2010PropOp29
 70
     1
102
RTVSPost2010Prop30
280
     1
102
RTVSPost2010PropOp30
 70
     1
102
RTVSPost2010Prop31
280
     0
102
RTVSPost2010PropOp31
 70
     1
102
RTVSPost2010Prop32
280
     0
102
RTVSPost2010PropOp32
 70
     1
102
RTVSPost2010Prop33
280
     0
102
RTVSPost2010PropOp33
 70
     1
102
RTVSPost2010Prop34
280
     0
102
RTVSPost2010PropOp34
 70
     1
102
RTVSPost2010Prop35
280
     0
102
RTVSPost2010PropOp35
 70
     1
102
RTVSPost2010Prop36
280
     0
102
RTVSPost2010PropOp36
 70
     1
102
RTVSPost2010Prop37
 90
       50
102
RTVSPost2010PropOp37
 70
     1
102
RTVSPost2010Prop38
140
0.0
102
RTVSPost2010PropOp38
 70
     1
102
RTVSPost2010Prop39
140
1.0
102
RTVSPost2010PropOp39
 70
     1
102
RTVSPost2010Prop40
 90
        0
102
RTVSPost2010PropOp40
 70
     1
102
RTVSPost2010Prop41ColorIndex
 90
       18
102
RTVSPost2010Prop41ColorRGB
 90
        0
102
RTVSPost2010PropOp41
 70
     1
102
RTVSPost2010Prop42
 90
       50
102
RTVSPost2010PropOp42
 70
     1
102
RTVSPost2010Prop43
 90
        3
102
RTVSPost2010PropOp43
 70
     1
102
RTVSPost2010Prop44ColorIndex
 90
        5
102
RTVSPost2010Prop44ColorRGB
 90
      255
102
RTVSPost2010PropOp44
 70
     1
102
RTVSPost2010Prop45
280
     0
102
RTVSPost2010PropOp45
 70
     1
102
RTVSPost2010Prop46
 90
       50
102
RTVSPost2010PropOp46
 70
     1
102
RTVSPost2010Prop47
 90
       50
102
RTVSPost2010PropOp47
 70
     1
102
RTVSPost2010Prop48
 90
       50
102
RTVSPost2010PropOp48
 70
     1
102
RTVSPost2010Prop49
280
     0
102
RTVSPost2010PropOp49
 70
     1
102
RTVSPost2010Prop50
 90
       50
102
RTVSPost2010PropOp50
 70
     1
102
RTVSPost2010Prop51ColorIndex
 90
      256
102
RTVSPost2010Prop51ColorRGB
 90
-16777216
102
RTVSPost2010PropOp51
 70
     0
102
RTVSPost2010Prop52
140
1.0
102
RTVSPost2010PropOp52
 70
     0
102
RTVSPost2010Prop53
 90
        2
102
RTVSPost2010PropOp53
 70
     1
102
RTVSPost2010Prop54
  1
strokes_ogs.tif
102
RTVSPost2010PropOp54
 70
     1
102
RTVSPost2010Prop55
280
     0
102
RTVSPost2010PropOp55
 70
     1
102
RTVSPost2010Prop56
140
1.0
102
RTVSPost2010PropOp56
 70
     1
102
RTVSPost2010Prop57
140
1.0
102
RTVSPost2010PropOp57
 70
     1
  0
ENDSEC
  0
EOF
