  0
SECTION
  2
HEADER
  9
$ACADVER
  1
AC1018
  9
$ACADMAINTVER
 70
     0
  9
$DWGCODEPAGE
  3
ANSI_932
  9
$INSBASE
 10
0.0
 20
0.0
 30
0.0
  9
$EXTMIN
 10
-2100.0
 20
-1485.0
 30
0.0
  9
$EXTMAX
 10
2100.0
 20
1485.0
 30
0.0
  9
$LIMMIN
 10
-2100.0
 20
-1485.0
  9
$LIMMAX
 10
2100.0
 20
1485.0
  9
$ORTHOMODE
 70
     0
  9
$REGENMODE
 70
     1
  9
$FILLMODE
 70
     1
  9
$QTEXTMODE
 70
     0
  9
$MIRRTEXT
 70
     1
  9
$LTSCALE
 40
10.0
  9
$ATTMODE
 70
     1
  9
$TEXTSIZE
 40
2.5
  9
$TRACEWID
 40
1.0
  9
$TEXTSTYLE
  7
Standard
  9
$CLAYER
  8
0
  9
$CELTYPE
  6
ByLayer
  9
$CECOLOR
 62
   256
  9
$CELTSCALE
 40
1.0
  9
$DISPSILH
 70
     0
  9
$DIMSCALE
 40
1.0
  9
$DIMASZ
 40
2.5
  9
$DIMEXO
 40
0.625
  9
$DIMDLI
 40
3.75
  9
$DIMRND
 40
0.0
  9
$DIMDLE
 40
0.0
  9
$DIMEXE
 40
1.25
  9
$DIMTP
 40
0.0
  9
$DIMTM
 40
0.0
  9
$DIMTXT
 40
2.5
  9
$DIMCEN
 40
2.5
  9
$DIMTSZ
 40
0.0
  9
$DIMTOL
 70
     0
  9
$DIMLIM
 70
     0
  9
$DIMTIH
 70
     0
  9
$DIMTOH
 70
     0
  9
$DIMSE1
 70
     0
  9
$DIMSE2
 70
     0
  9
$DIMTAD
 70
     1
  9
$DIMZIN
 70
     8
  9
$DIMBLK
  1

  9
$DIMASO
 70
     1
  9
$DIMSHO
 70
     1
  9
$DIMPOST
  1

  9
$DIMAPOST
  1

  9
$DIMALT
 70
     0
  9
$DIMALTD
 70
     3
  9
$DIMALTF
 40
0.03937007874016
  9
$DIMLFAC
 40
1.0
  9
$DIMTOFL
 70
     1
  9
$DIMTVP
 40
0.0
  9
$DIMTIX
 70
     0
  9
$DIMSOXD
 70
     0
  9
$DIMSAH
 70
     0
  9
$DIMBLK1
  1

  9
$DIMBLK2
  1

  9
$DIMSTYLE
  2
ISO-25
  9
$DIMCLRD
 70
     0
  9
$DIMCLRE
 70
     0
  9
$DIMCLRT
 70
     0
  9
$DIMTFAC
 40
1.0
  9
$DIMGAP
 40
0.625
  9
$DIMJUST
 70
     0
  9
$DIMSD1
 70
     0
  9
$DIMSD2
 70
     0
  9
$DIMTOLJ
 70
     0
  9
$DIMTZIN
 70
     8
  9
$DIMALTZ
 70
     0
  9
$DIMALTTZ
 70
     0
  9
$DIMUPT
 70
     0
  9
$DIMDEC
 70
     2
  9
$DIMTDEC
 70
     2
  9
$DIMALTU
 70
     2
  9
$DIMALTTD
 70
     3
  9
$DIMTXSTY
  7
Standard
  9
$DIMAUNIT
 70
     0
  9
$DIMADEC
 70
     0
  9
$DIMALTRND
 40
0.0
  9
$DIMAZIN
 70
     0
  9
$DIMDSEP
 70
    44
  9
$DIMATFIT
 70
     3
  9
$DIMFRAC
 70
     0
  9
$DIMLDRBLK
  1

  9
$DIMLUNIT
 70
     2
  9
$DIMLWD
 70
    -2
  9
$DIMLWE
 70
    -2
  9
$DIMTMOVE
 70
     0
  9
$LUNITS
 70
     2
  9
$LUPREC
 70
     4
  9
$SKETCHINC
 40
1.0
  9
$FILLETRAD
 40
10.0
  9
$AUNITS
 70
     0
  9
$AUPREC
 70
     0
  9
$MENU
  1
.
  9
$ELEVATION
 40
0.0
  9
$PELEVATION
 40
0.0
  9
$THICKNESS
 40
0.0
  9
$LIMCHECK
 70
     0
  9
$CHAMFERA
 40
0.0
  9
$CHAMFERB
 40
0.0
  9
$CHAMFERC
 40
0.0
  9
$CHAMFERD
 40
0.0
  9
$SKPOLY
 70
     0
  9
$TDCREATE
 40
2460418.432022268
  9
$TDUCREATE
 40
2460418.057022268
  9
$TDUPDATE
 40
2460418.432022373
  9
$TDUUPDATE
 40
2460418.057022373
  9
$TDINDWG
 40
0.0000000116
  9
$TDUSRTIMER
 40
0.0000000116
  9
$USRTIMER
 70
     1
  9
$ANGBASE
 50
0.0
  9
$ANGDIR
 70
     0
  9
$PDMODE
 70
     0
  9
$PDSIZE
 40
0.0
  9
$PLINEWID
 40
0.0
  9
$SPLFRAME
 70
     0
  9
$SPLINETYPE
 70
     6
  9
$SPLINESEGS
 70
     8
  9
$HANDSEED
  5
36E
  9
$SURFTAB1
 70
     6
  9
$SURFTAB2
 70
     6
  9
$SURFTYPE
 70
     6
  9
$SURFU
 70
     6
  9
$SURFV
 70
     6
  9
$UCSBASE
  2

  9
$UCSNAME
  2

  9
$UCSORG
 10
0.0
 20
0.0
 30
0.0
  9
$UCSXDIR
 10
1.0
 20
0.0
 30
0.0
  9
$UCSYDIR
 10
0.0
 20
1.0
 30
0.0
  9
$UCSORTHOREF
  2

  9
$UCSORTHOVIEW
 70
     0
  9
$UCSORGTOP
 10
0.0
 20
0.0
 30
0.0
  9
$UCSORGBOTTOM
 10
0.0
 20
0.0
 30
0.0
  9
$UCSORGLEFT
 10
0.0
 20
0.0
 30
0.0
  9
$UCSORGRIGHT
 10
0.0
 20
0.0
 30
0.0
  9
$UCSORGFRONT
 10
0.0
 20
0.0
 30
0.0
  9
$UCSORGBACK
 10
0.0
 20
0.0
 30
0.0
  9
$PUCSBASE
  2

  9
$PUCSNAME
  2

  9
$PUCSORG
 10
0.0
 20
0.0
 30
0.0
  9
$PUCSXDIR
 10
1.0
 20
0.0
 30
0.0
  9
$PUCSYDIR
 10
0.0
 20
1.0
 30
0.0
  9
$PUCSORTHOREF
  2

  9
$PUCSORTHOVIEW
 70
     0
  9
$PUCSORGTOP
 10
0.0
 20
0.0
 30
0.0
  9
$PUCSORGBOTTOM
 10
0.0
 20
0.0
 30
0.0
  9
$PUCSORGLEFT
 10
0.0
 20
0.0
 30
0.0
  9
$PUCSORGRIGHT
 10
0.0
 20
0.0
 30
0.0
  9
$PUCSORGFRONT
 10
0.0
 20
0.0
 30
0.0
  9
$PUCSORGBACK
 10
0.0
 20
0.0
 30
0.0
  9
$USERI1
 70
     0
  9
$USERI2
 70
     0
  9
$USERI3
 70
     0
  9
$USERI4
 70
     0
  9
$USERI5
 70
     0
  9
$USERR1
 40
0.0
  9
$USERR2
 40
0.0
  9
$USERR3
 40
0.0
  9
$USERR4
 40
0.0
  9
$USERR5
 40
0.0
  9
$WORLDVIEW
 70
     1
  9
$SHADEDGE
 70
     3
  9
$SHADEDIF
 70
    70
  9
$TILEMODE
 70
     1
  9
$MAXACTVP
 70
    64
  9
$PINSBASE
 10
0.0
 20
0.0
 30
0.0
  9
$PLIMCHECK
 70
     0
  9
$PEXTMIN
 10
1.000000000000000E+20
 20
1.000000000000000E+20
 30
1.000000000000000E+20
  9
$PEXTMAX
 10
-1.000000000000000E+20
 20
-1.000000000000000E+20
 30
-1.000000000000000E+20
  9
$PLIMMIN
 10
0.0
 20
0.0
  9
$PLIMMAX
 10
420.0
 20
297.0
  9
$UNITMODE
 70
     0
  9
$VISRETAIN
 70
     1
  9
$PLINEGEN
 70
     0
  9
$PSLTSCALE
 70
     1
  9
$TREEDEPTH
 70
  3020
  9
$CMLSTYLE
  2
Standard
  9
$CMLJUST
 70
     0
  9
$CMLSCALE
 40
20.0
  9
$PROXYGRAPHICS
 70
     1
  9
$MEASUREMENT
 70
     1
  9
$CELWEIGHT
370
    -1
  9
$ENDCAPS
280
     0
  9
$JOINSTYLE
280
     0
  9
$LWDISPLAY
290
     0
  9
$INSUNITS
 70
     4
  9
$HYPERLINKBASE
  1

  9
$STYLESHEET
  1

  9
$XEDIT
290
     1
  9
$CEPSNTYPE
380
     0
  9
$PSTYLEMODE
290
     1
  9
$FINGERPRINTGUID
  2
{483CDAF0-A4D7-4892-8D02-FEB8EA485FD5}
  9
$VERSIONGUID
  2
{FAEB1C32-E019-11D5-929B-00C0DF256EC4}
  9
$EXTNAMES
290
     1
  9
$PSVPSCALE
 40
0.0
  9
$OLESTARTUP
290
     0
  9
$SORTENTS
280
   127
  9
$INDEXCTL
280
     0
  9
$HIDETEXT
280
     1
  9
$XCLIPFRAME
290
     0
  9
$HALOGAP
280
     0
  9
$OBSCOLOR
 70
   257
  9
$OBSLTYPE
280
     0
  9
$INTERSECTIONDISPLAY
280
     0
  9
$INTERSECTIONCOLOR
 70
   257
  9
$DIMASSOC
280
     2
  9
$PROJECTNAME
  1

  0
ENDSEC
  0
SECTION
  2
CLASSES
  0
CLASS
  1
ACDBDICTIONARYWDFLT
  2
AcDbDictionaryWithDefault
  3
ObjectDBX Classes
 90
        0
 91
        4
280
     0
281
     0
  0
CLASS
  1
VISUALSTYLE
  2
AcDbVisualStyle
  3
ObjectDBX Classes
 90
     4095
 91
        4
280
     0
281
     0
  0
CLASS
  1
MATERIAL
  2
AcDbMaterial
  3
ObjectDBX Classes
 90
     1153
 91
        4
280
     0
281
     0
  0
CLASS
  1
SCALE
  2
AcDbScale
  3
ObjectDBX Classes
 90
     1153
 91
        4
280
     0
281
     0
  0
CLASS
  1
TABLESTYLE
  2
AcDbTableStyle
  3
ObjectDBX Classes
 90
     4095
 91
        4
280
     0
281
     0
  0
CLASS
  1
MLEADERSTYLE
  2
AcDbMLeaderStyle
  3
ACDB_MLEADERSTYLE_CLASS
 90
     4095
 91
        4
280
     0
281
     0
  0
CLASS
  1
SUN
  2
AcDbSun
  3
SCENEOE
 90
     1153
 91
        4
280
     0
281
     0
  0
CLASS
  1
DICTIONARYVAR
  2
AcDbDictionaryVar
  3
ObjectDBX Classes
 90
        0
 91
        4
280
     0
281
     0
  0
CLASS
  1
CELLSTYLEMAP
  2
AcDbCellStyleMap
  3
ObjectDBX Classes
 90
     1152
 91
        4
280
     0
281
     0
  0
ENDSEC
  0
SECTION
  2
TABLES
  0
TABLE
  2
VPORT
  5
8
102
{ACAD_XDICTIONARY
360
325
102
}
330
0
100
AcDbSymbolTable
 70
     1
  0
VPORT
  5
29
330
8
100
AcDbSymbolTableRecord
100
AcDbViewportTableRecord
  2
*Active
 70
     0
 10
0.0
 20
0.0
 11
1.0
 21
1.0
 12
0.0
 22
0.0
 13
0.0
 23
0.0
 14
10.0
 24
10.0
 15
10.0
 25
10.0
 16
0.0
 26
0.0
 36
1.0
 17
0.0
 27
0.0
 37
0.0
 40
3267.0
 41
1.414141414141414
 42
50.0
 43
0.0
 44
0.0
 50
0.0
 51
0.0
 71
     0
 72
 10000
 73
     1
 74
     3
 75
     0
 76
     0
 77
     0
 78
     0
281
     0
 65
     1
110
0.0
120
0.0
130
0.0
111
1.0
121
0.0
131
0.0
112
0.0
122
1.0
132
0.0
 79
     0
146
0.0
  0
ENDTAB
  0
TABLE
  2
LTYPE
  5
5
330
0
100
AcDbSymbolTable
 70
     3
  0
LTYPE
  5
14
330
5
100
AcDbSymbolTableRecord
100
AcDbLinetypeTableRecord
  2
ByBlock
 70
     0
  3

 72
    65
 73
     0
 40
0.0
  0
LTYPE
  5
15
330
5
100
AcDbSymbolTableRecord
100
AcDbLinetypeTableRecord
  2
ByLayer
 70
     0
  3

 72
    65
 73
     0
 40
0.0
  0
LTYPE
  5
16
330
5
100
AcDbSymbolTableRecord
100
AcDbLinetypeTableRecord
  2
Continuous
 70
     0
  3
Solid line
 72
    65
 73
     0
 40
0.0
  0
LTYPE
  5
6F
330
5
100
AcDbSymbolTableRecord
100
AcDbLinetypeTableRecord
  2
JWW_DASHED3
 70
     0
  3
---  ------  ------  ------  ---
 72
    65
 73
     2
 40
3.386666666666667
 49
2.54
 74
     0
 49
-0.8466666666666667
 74
     0
  0
LTYPE
  5
70
330
5
100
AcDbSymbolTableRecord
100
AcDbLinetypeTableRecord
  2
JWW_PHANTOM1
 70
     0
  3
----  -  -  --------  -  -  ----
 72
    65
 73
     6
 40
6.773333333333333
 49
3.386666666666667
 74
     0
 49
-0.8466666666666667
 74
     0
 49
0.4233333333333333
 74
     0
 49
-0.8466666666666667
 74
     0
 49
0.4233333333333333
 74
     0
 49
-0.8466666666666667
 74
     0
  0
ENDTAB
  0
TABLE
  2
LAYER
  5
2
330
0
100
AcDbSymbolTable
 70
    10
  0
LAYER
  5
10
330
2
100
AcDbSymbolTableRecord
100
AcDbLayerTableRecord
  2
0
 70
     0
 62
     7
  6
Continuous
370
    -3
390
F
  0
LAYER
  5
71
330
2
100
AcDbSymbolTableRecord
100
AcDbLayerTableRecord
  2
C-2
 70
     0
 62
     7
  6
Continuous
370
    -3
390
F
  0
LAYER
  5
72
330
2
100
AcDbSymbolTableRecord
100
AcDbLayerTableRecord
  2
C-5
 70
     0
 62
     7
  6
Continuous
370
    -3
390
F
  0
LAYER
  5
73
330
2
100
AcDbSymbolTableRecord
100
AcDbLayerTableRecord
  2
C-9
 70
     0
 62
     7
  6
Continuous
370
    -3
390
F
  0
LAYER
  5
74
330
2
100
AcDbSymbolTableRecord
100
AcDbLayerTableRecord
  2
C-4
 70
     0
 62
     7
  6
Continuous
370
    -3
390
F
  0
LAYER
  5
75
330
2
100
AcDbSymbolTableRecord
100
AcDbLayerTableRecord
  2
C-1
 70
     0
 62
     7
  6
Continuous
370
    -3
390
F
  0
LAYER
  5
76
330
2
100
AcDbSymbolTableRecord
100
AcDbLayerTableRecord
  2
A-0
 70
     0
 62
     7
  6
Continuous
370
    -3
390
F
  0
LAYER
  5
77
330
2
100
AcDbSymbolTableRecord
100
AcDbLayerTableRecord
  2
A-5
 70
     0
 62
     7
  6
Continuous
370
    -3
390
F
  0
LAYER
  5
78
330
2
100
AcDbSymbolTableRecord
100
AcDbLayerTableRecord
  2
A-4
 70
     0
 62
     7
  6
Continuous
370
    -3
390
F
  0
LAYER
  5
79
330
2
100
AcDbSymbolTableRecord
100
AcDbLayerTableRecord
  2
F-5
 70
     0
 62
     7
  6
Continuous
370
    -3
390
F
  0
ENDTAB
  0
TABLE
  2
STYLE
  5
3
330
0
100
AcDbSymbolTable
 70
     2
  0
STYLE
  5
11
330
3
100
AcDbSymbolTableRecord
100
AcDbTextStyleTableRecord
  2
Standard
 70
     0
 40
0.0
 41
1.0
 50
0.0
 71
     0
 42
2.5
  3
txt
  4

  0
STYLE
  5
6E
330
3
100
AcDbSymbolTableRecord
100
AcDbTextStyleTableRecord
  2
ＭＳ ゴシック
 70
     0
 40
1.0
 41
1.0
 50
0.0
 71
     0
 42
2.5
  3

  4

1001
ACAD
1000
MS Gothic
1071
    32817
  0
ENDTAB
  0
TABLE
  2
VIEW
  5
6
330
0
100
AcDbSymbolTable
 70
     0
  0
ENDTAB
  0
TABLE
  2
UCS
  5
7
330
0
100
AcDbSymbolTable
 70
     0
  0
ENDTAB
  0
TABLE
  2
APPID
  5
9
330
0
100
AcDbSymbolTable
 70
     2
  0
APPID
  5
12
330
9
100
AcDbSymbolTableRecord
100
AcDbRegAppTableRecord
  2
ACAD
 70
     0
  0
APPID
  5
364
330
9
100
AcDbSymbolTableRecord
100
AcDbRegAppTableRecord
  2
ACAD_MLEADERVER
 70
     0
  0
ENDTAB
  0
TABLE
  2
DIMSTYLE
  5
A
330
0
100
AcDbSymbolTable
 70
     1
100
AcDbDimStyleTable
  0
DIMSTYLE
105
27
330
A
100
AcDbSymbolTableRecord
100
AcDbDimStyleTableRecord
  2
ISO-25
 70
     0
 41
2.5
 42
0.625
 43
3.75
 44
1.25
 73
     0
 74
     0
 77
     1
 78
     8
140
2.5
141
2.5
143
0.03937007874016
147
0.625
171
     3
172
     1
178
     0
271
     2
272
     2
274
     3
278
    44
283
     0
284
     8
340
11
  0
ENDTAB
  0
TABLE
  2
BLOCK_RECORD
  5
1
330
0
100
AcDbSymbolTable
 70
     1
  0
BLOCK_RECORD
  5
1F
330
1
100
AcDbSymbolTableRecord
100
AcDbBlockTableRecord
  2
*Model_Space
340
22
  0
BLOCK_RECORD
  5
1B
330
1
100
AcDbSymbolTableRecord
100
AcDbBlockTableRecord
  2
*Paper_Space
340
1E
  0
BLOCK_RECORD
  5
23
330
1
100
AcDbSymbolTableRecord
100
AcDbBlockTableRecord
  2
*Paper_Space0
340
26
  0
ENDTAB
  0
ENDSEC
  0
SECTION
  2
BLOCKS
  0
BLOCK
  5
20
330
1F
100
AcDbEntity
  8
0
100
AcDbBlockBegin
  2
*Model_Space
 70
     0
 10
0.0
 20
0.0
 30
0.0
  3
*Model_Space
  1

  0
ENDBLK
  5
21
330
1F
100
AcDbEntity
  8
0
100
AcDbBlockEnd
  0
BLOCK
  5
1C
330
1B
100
AcDbEntity
 67
     1
  8
0
100
AcDbBlockBegin
  2
*Paper_Space
 70
     0
 10
0.0
 20
0.0
 30
0.0
  3
*Paper_Space
  1

  0
ENDBLK
  5
1D
330
1B
100
AcDbEntity
 67
     1
  8
0
100
AcDbBlockEnd
  0
BLOCK
  5
24
330
23
100
AcDbEntity
  8
0
100
AcDbBlockBegin
  2
*Paper_Space0
 70
     0
 10
0.0
 20
0.0
 30
0.0
  3
*Paper_Space0
  1

  0
ENDBLK
  5
25
330
23
100
AcDbEntity
  8
0
100
AcDbBlockEnd
  0
ENDSEC
  0
SECTION
  2
ENTITIES
  0
LINE
  5
7A
330
1F
100
AcDbEntity
  8
C-2
  6
Continuous
 62
     3
370
     9
100
AcDbLine
 10
758.5980389569261
 20
478.0692765519427
 30
0.0
 11
758.5980389569261
 21
708.0683032886404
 31
0.0
  0
LINE
  5
7B
330
1F
100
AcDbEntity
  8
C-2
  6
Continuous
 62
     3
370
     9
100
AcDbLine
 10
718.598896748311
 20
495.2774790171031
 30
0.0
 11
718.598896748311
 21
725.2774955130915
 31
0.0
  0
LINE
  5
7C
330
1F
100
AcDbEntity
  8
C-5
  6
Continuous
 62
     7
370
     9
100
AcDbLine
 10
846.915250211149
 20
697.1760022962417
 30
0.0
 11
754.941373258024
 21
614.045129724451
 31
0.0
  0
LINE
  5
7D
330
1F
100
AcDbEntity
  8
C-5
  6
Continuous
 62
     7
370
     9
100
AcDbLine
 10
754.941373258024
 20
614.045129724451
 30
0.0
 11
771.1402686866558
 21
633.08611895587
 31
0.0
  0
LINE
  5
7E
330
1F
100
AcDbEntity
  8
C-5
  6
Continuous
 62
     7
370
     9
100
AcDbLine
 10
754.941373258024
 20
614.045129724451
 30
0.0
 11
775.5174791490708
 21
628.2444639463682
 31
0.0
  0
LINE
  5
7F
330
1F
100
AcDbEntity
  8
C-5
  6
Continuous
 62
     7
370
     9
100
AcDbLine
 10
520.9721745671453
 20
417.1092595280828
 30
0.0
 11
959.0062321843328
 21
417.1092595280828
 31
0.0
  0
LINE
  5
80
330
1F
100
AcDbEntity
  8
C-9
  6
Continuous
 62
     6
370
     5
100
AcDbLine
 10
723.7882047086151
 20
494.6682821737755
 30
0.0
 11
718.598896748311
 21
499.0232230521539
 31
0.0
  0
LINE
  5
81
330
1F
100
AcDbEntity
  8
C-9
  6
Continuous
 62
     6
370
     5
100
AcDbLine
 10
757.2188093855578
 20
478.6173557590794
 30
0.0
 11
718.598896748311
 21
511.0235595703125
 31
0.0
  0
LINE
  5
82
330
1F
100
AcDbEntity
  8
C-9
  6
Continuous
 62
     6
370
     5
100
AcDbLine
 10
723.1314994193411
 20
724.8182472022804
 30
0.0
 11
718.598896748311
 21
722.2010761982688
 31
0.0
  0
LINE
  5
83
330
1F
100
AcDbEntity
  8
C-9
  6
Continuous
 62
     6
370
     5
100
AcDbLine
 10
735.3772962415542
 20
719.8882561760981
 30
0.0
 11
718.598896748311
 21
710.2007396801099
 31
0.0
  0
LINE
  5
84
330
1F
100
AcDbEntity
  8
C-9
  6
Continuous
 62
     6
370
     5
100
AcDbLine
 10
744.7686272698479
 20
713.3098210515203
 30
0.0
 11
718.598896748311
 21
698.201145481419
 31
0.0
  0
LINE
  5
85
330
1F
100
AcDbEntity
  8
C-9
  6
Continuous
 62
     6
370
     5
100
AcDbLine
 10
757.3732118348818
 20
708.5876794763516
 30
0.0
 11
718.598896748311
 21
686.2008089632602
 31
0.0
  0
LINE
  5
86
330
1F
100
AcDbEntity
  8
C-9
  6
Continuous
 62
     6
370
     5
100
AcDbLine
 10
758.5980389569261
 20
705.4597926784209
 30
0.0
 11
753.8810936180323
 21
709.4180875211151
 31
0.0
  0
LINE
  5
87
330
1F
100
AcDbEntity
  8
C-9
  6
Continuous
 62
     6
370
     5
100
AcDbLine
 10
758.5980389569261
 20
693.459456160262
 30
0.0
 11
720.6828349345443
 21
725.2750211148651
 31
0.0
  0
LINE
  5
88
330
1F
100
AcDbEntity
  8
C-9
  6
Continuous
 62
     6
370
     5
100
AcDbLine
 10
758.5980389569261
 20
481.2953969594597
 30
0.0
 11
754.8770389041385
 21
479.1468769795188
 31
0.0
  0
LINE
  5
89
330
1F
100
AcDbEntity
  8
C-9
  6
Continuous
 62
     6
370
     5
100
AcDbLine
 10
758.5980389569261
 20
493.2949911581505
 30
0.0
 11
743.0949443095443
 21
484.3443504539698
 31
0.0
  0
LINE
  5
8A
330
1F
100
AcDbEntity
  8
C-9
  6
Continuous
 62
     6
370
     5
100
AcDbLine
 10
758.5980389569261
 20
505.2948327966641
 30
0.0
 11
733.6471970016896
 21
490.8893812024917
 31
0.0
  0
LINE
  5
8B
330
1F
100
AcDbEntity
  8
C-9
  6
Continuous
 62
     6
370
     5
100
AcDbLine
 10
758.5980389569261
 20
517.2951693148227
 30
0.0
 11
720.504430822424
 21
495.3017281197214
 31
0.0
  0
LINE
  5
8C
330
1F
100
AcDbEntity
  8
C-9
  6
Continuous
 62
     6
370
     5
100
AcDbLine
 10
758.5980389569261
 20
489.4596739073057
 30
0.0
 11
718.598896748311
 21
523.0231537690033
 31
0.0
  0
LINE
  5
8D
330
1F
100
AcDbEntity
  8
C-9
  6
Continuous
 62
     6
370
     5
100
AcDbLine
 10
758.5980389569261
 20
501.4600104254646
 30
0.0
 11
718.598896748311
 21
535.0232428473396
 31
0.0
  0
LINE
  5
8E
330
1F
100
AcDbEntity
  8
C-9
  6
Continuous
 62
     6
370
     5
100
AcDbLine
 10
758.5980389569261
 20
513.4596046241554
 30
0.0
 11
718.598896748311
 21
547.0230844858531
 31
0.0
  0
LINE
  5
8F
330
1F
100
AcDbEntity
  8
C-9
  6
Continuous
 62
     6
370
     5
100
AcDbLine
 10
758.5980389569261
 20
525.4596937024917
 30
0.0
 11
718.598896748311
 21
559.023421004012
 31
0.0
  0
LINE
  5
90
330
1F
100
AcDbEntity
  8
C-9
  6
Continuous
 62
     6
370
     5
100
AcDbLine
 10
758.5980389569261
 20
681.4596145217484
 30
0.0
 11
718.598896748311
 21
715.0233418232688
 31
0.0
  0
LINE
  5
91
330
1F
100
AcDbEntity
  8
C-9
  6
Continuous
 62
     6
370
     5
100
AcDbLine
 10
758.5980389569261
 20
669.4595254434123
 30
0.0
 11
718.598896748311
 21
703.0235001847552
 31
0.0
  0
LINE
  5
92
330
1F
100
AcDbEntity
  8
C-9
  6
Continuous
 62
     6
370
     5
100
AcDbLine
 10
758.5980389569261
 20
657.4596838048988
 30
0.0
 11
718.598896748311
 21
691.0231636665964
 31
0.0
  0
LINE
  5
93
330
1F
100
AcDbEntity
  8
C-9
  6
Continuous
 62
     6
370
     5
100
AcDbLine
 10
758.5980389569261
 20
645.4598421663852
 30
0.0
 11
718.598896748311
 21
679.0235694679054
 31
0.0
  0
LINE
  5
94
330
1F
100
AcDbEntity
  8
C-9
  6
Continuous
 62
     6
370
     5
100
AcDbLine
 10
758.5980389569261
 20
633.4597530880492
 30
0.0
 11
718.598896748311
 21
667.0232329497467
 31
0.0
  0
LINE
  5
95
330
1F
100
AcDbEntity
  8
C-9
  6
Continuous
 62
     6
370
     5
100
AcDbLine
 10
758.5980389569261
 20
621.4599114495356
 30
0.0
 11
718.598896748311
 21
655.0233913112334
 31
0.0
  0
LINE
  5
96
330
1F
100
AcDbEntity
  8
C-9
  6
Continuous
 62
     6
370
     5
100
AcDbLine
 10
758.5980389569261
 20
609.4595749313769
 30
0.0
 11
718.598896748311
 21
643.0233022328971
 31
0.0
  0
LINE
  5
97
330
1F
100
AcDbEntity
  8
C-9
  6
Continuous
 62
     6
370
     5
100
AcDbLine
 10
758.5980389569261
 20
597.459980732686
 30
0.0
 11
718.598896748311
 21
631.0234605943836
 31
0.0
  0
LINE
  5
98
330
1F
100
AcDbEntity
  8
C-9
  6
Continuous
 62
     6
370
     5
100
AcDbLine
 10
758.5980389569261
 20
585.4596442145271
 30
0.0
 11
718.598896748311
 21
619.0231240762248
 31
0.0
  0
LINE
  5
99
330
1F
100
AcDbEntity
  8
C-9
  6
Continuous
 62
     6
370
     5
100
AcDbLine
 10
758.5980389569261
 20
573.4595551361908
 30
0.0
 11
718.598896748311
 21
607.0230349978885
 31
0.0
  0
LINE
  5
9A
330
1F
100
AcDbEntity
  8
C-9
  6
Continuous
 62
     6
370
     5
100
AcDbLine
 10
758.5980389569261
 20
561.4597134976773
 30
0.0
 11
718.598896748311
 21
595.023193359375
 31
0.0
  0
LINE
  5
9B
330
1F
100
AcDbEntity
  8
C-9
  6
Continuous
 62
     6
370
     5
100
AcDbLine
 10
758.5980389569261
 20
549.4598718591641
 30
0.0
 11
718.598896748311
 21
583.0233517208617
 31
0.0
  0
LINE
  5
9C
330
1F
100
AcDbEntity
  8
C-9
  6
Continuous
 62
     6
370
     5
100
AcDbLine
 10
758.5980389569261
 20
537.4595353410052
 30
0.0
 11
718.598896748311
 21
571.0232626425255
 31
0.0
  0
LINE
  5
9D
330
1F
100
AcDbEntity
  8
C-9
  6
Continuous
 62
     6
370
     5
100
AcDbLine
 10
758.5980389569261
 20
529.2947635135135
 30
0.0
 11
718.598896748311
 21
506.2009574271539
 31
0.0
  0
LINE
  5
9E
330
1F
100
AcDbEntity
  8
C-9
  6
Continuous
 62
     6
370
     5
100
AcDbLine
 10
758.5980389569261
 20
541.2951000316724
 30
0.0
 11
718.598896748311
 21
518.2012939453125
 31
0.0
  0
LINE
  5
9F
330
1F
100
AcDbEntity
  8
C-9
  6
Continuous
 62
     6
370
     5
100
AcDbLine
 10
758.5980389569261
 20
553.2946942303633
 30
0.0
 11
718.598896748311
 21
530.2016304634714
 31
0.0
  0
LINE
  5
A0
330
1F
100
AcDbEntity
  8
C-9
  6
Continuous
 62
     6
370
     5
100
AcDbLine
 10
758.5980389569261
 20
565.2945358688769
 30
0.0
 11
718.598896748311
 21
542.2007297825169
 31
0.0
  0
LINE
  5
A1
330
1F
100
AcDbEntity
  8
C-9
  6
Continuous
 62
     6
370
     5
100
AcDbLine
 10
758.5980389569261
 20
697.2947734111065
 30
0.0
 11
718.598896748311
 21
674.2009673247467
 31
0.0
  0
LINE
  5
A2
330
1F
100
AcDbEntity
  8
C-9
  6
Continuous
 62
     6
370
     5
100
AcDbLine
 10
758.5980389569261
 20
577.2948723870356
 30
0.0
 11
718.598896748311
 21
554.2010663006758
 31
0.0
  0
LINE
  5
A3
330
1F
100
AcDbEntity
  8
C-9
  6
Continuous
 62
     6
370
     5
100
AcDbLine
 10
758.5980389569261
 20
589.2949614653717
 30
0.0
 11
718.598896748311
 21
566.201155379012
 31
0.0
  0
LINE
  5
A4
330
1F
100
AcDbEntity
  8
C-9
  6
Continuous
 62
     6
370
     5
100
AcDbLine
 10
758.5980389569261
 20
601.2948031038852
 30
0.0
 11
718.598896748311
 21
578.2009970175255
 31
0.0
  0
LINE
  5
A5
330
1F
100
AcDbEntity
  8
C-9
  6
Continuous
 62
     6
370
     5
100
AcDbLine
 10
758.5980389569261
 20
613.2946447423988
 30
0.0
 11
718.598896748311
 21
590.2008386560391
 31
0.0
  0
LINE
  5
A6
330
1F
100
AcDbEntity
  8
C-9
  6
Continuous
 62
     6
370
     5
100
AcDbLine
 10
758.5980389569261
 20
625.2947338207349
 30
0.0
 11
718.598896748311
 21
602.200927734375
 31
0.0
  0
LINE
  5
A7
330
1F
100
AcDbEntity
  8
C-9
  6
Continuous
 62
     6
370
     5
100
AcDbLine
 10
758.5980389569261
 20
637.2945754592484
 30
0.0
 11
718.598896748311
 21
614.2012642525339
 31
0.0
  0
LINE
  5
A8
330
1F
100
AcDbEntity
  8
C-9
  6
Continuous
 62
     6
370
     5
100
AcDbLine
 10
758.5980389569261
 20
649.294417097762
 30
0.0
 11
718.598896748311
 21
626.2011058910474
 31
0.0
  0
LINE
  5
A9
330
1F
100
AcDbEntity
  8
C-9
  6
Continuous
 62
     6
370
     5
100
AcDbLine
 10
758.5980389569261
 20
661.2945061760981
 30
0.0
 11
718.598896748311
 21
638.2007000897383
 31
0.0
  0
LINE
  5
AA
330
1F
100
AcDbEntity
  8
C-9
  6
Continuous
 62
     6
370
     5
100
AcDbLine
 10
758.5980389569261
 20
673.2948426942568
 30
0.0
 11
718.598896748311
 21
650.2010366078971
 31
0.0
  0
LINE
  5
AB
330
1F
100
AcDbEntity
  8
C-9
  6
Continuous
 62
     6
370
     5
100
AcDbLine
 10
758.5980389569261
 20
685.2946843327703
 30
0.0
 11
718.598896748311
 21
662.2013731260557
 31
0.0
  0
LINE
  5
AC
330
1F
100
AcDbEntity
  8
C-4
  6
Continuous
 62
     7
370
     9
100
AcDbLine
 10
718.598896748311
 20
765.5065093169342
 30
0.0
 11
758.5980389569261
 21
765.5065093169342
 31
0.0
  0
LINE
  5
AD
330
1F
100
AcDbEntity
  8
C-4
  6
Continuous
 62
     7
370
     9
100
AcDbLine
 10
718.598896748311
 20
740.2777924408783
 30
0.0
 11
718.598896748311
 21
768.5067171663852
 31
0.0
  0
LINE
  5
AE
330
1F
100
AcDbEntity
  8
C-4
  6
Continuous
 62
     7
370
     9
100
AcDbLine
 10
758.5980389569261
 20
723.0681053367823
 30
0.0
 11
758.5980389569261
 21
768.5067171663852
 31
0.0
  0
ARC
  5
AF
330
1F
100
AcDbEntity
  8
C-2
  6
Continuous
 62
     3
370
     9
100
AcDbCircle
 10
714.6311991923568
 20
456.0263473923143
 30
0.0
 40
39.7122589317528
100
AcDbArc
 50
50.82627868652344
 51
129.1737060546875
  0
ARC
  5
B0
330
1F
100
AcDbEntity
  8
C-2
  6
Continuous
 62
     3
370
     9
100
AcDbCircle
 10
764.8023450696792
 20
517.598777977196
 30
0.0
 40
39.7122589317528
100
AcDbArc
 50
230.8262786865234
 51
309.1737060546875
  0
ARC
  5
B1
330
1F
100
AcDbEntity
  8
C-2
  6
Continuous
 62
     3
370
     9
100
AcDbCircle
 10
764.8023450696792
 20
747.5987944731842
 30
0.0
 40
39.7122589317528
100
AcDbArc
 50
230.8262786865234
 51
309.1737060546875
  0
ARC
  5
B2
330
1F
100
AcDbEntity
  8
C-2
  6
Continuous
 62
     3
370
     9
100
AcDbCircle
 10
714.6311991923568
 20
686.0258690086573
 30
0.0
 40
39.7122589317528
100
AcDbArc
 50
50.82627868652344
 51
129.1737060546875
  0
TEXT
  5
B3
330
1F
100
AcDbEntity
  8
C-5
  6
Continuous
 62
     7
370
     9
100
AcDbText
 10
853.9895052523229
 20
708.4812965846709
 30
0.0
 40
22.86
  1
ローレット模様
 41
1.142857142857143
  7
ＭＳ ゴシック
100
AcDbText
  0
TEXT
  5
B4
330
1F
100
AcDbEntity
  8
C-5
  6
Continuous
 62
     7
370
     9
100
AcDbText
 10
517.4107731999578
 20
428.0399299250425
 30
0.0
 40
22.86
  1
メインバー表面　Ｓ＝１：１
 41
1.153846153846154
  7
ＭＳ ゴシック
100
AcDbText
  0
TEXT
  5
B5
330
1F
100
AcDbEntity
  8
C-4
  6
Continuous
 62
     2
370
     9
100
AcDbText
 10
728.5984678526186
 20
776.1462783730998
 30
0.0
 40
30.48
  1
4
 41
0.9999999999999998
  7
ＭＳ ゴシック
100
AcDbText
  0
LWPOLYLINE
  5
B6
330
1F
100
AcDbEntity
  8
C-4
  6
Continuous
 62
     7
370
     9
100
AcDbPolyline
 90
        4
 70
     1
 43
2.0
 10
719.5988967483108
 20
765.5065093169342
 42
0.4142135623731
 10
718.598896748311
 20
766.5065093169341
 42
0.4142135623731
 10
717.5988967483111
 20
765.5065093169342
 42
0.4142135623731
 10
718.598896748311
 20
764.5065093169342
 42
0.4142135623731
  0
LWPOLYLINE
  5
B7
330
1F
100
AcDbEntity
  8
C-4
  6
Continuous
 62
     7
370
     9
100
AcDbPolyline
 90
        4
 70
     1
 43
2.0
 10
759.5980389569261
 20
765.5065093169342
 42
0.4142135623731
 10
758.5980389569261
 20
766.5065093169341
 42
0.4142135623731
 10
757.5980389569261
 20
765.5065093169342
 42
0.4142135623731
 10
758.5980389569261
 20
764.5065093169342
 42
0.4142135623731
  0
LINE
  5
B8
330
1F
100
AcDbEntity
  8
C-2
  6
Continuous
 62
     3
370
     9
100
AcDbLine
 10
-1506.021259383402
 20
721.1088768211573
 30
0.0
 11
-1506.021259383402
 21
617.1104142472552
 31
0.0
  0
LINE
  5
B9
330
1F
100
AcDbEntity
  8
C-2
  6
Continuous
 62
     3
370
     9
100
AcDbLine
 10
-1484.021508472823
 20
721.1088768211573
 30
0.0
 11
-1484.021508472823
 21
617.1104142472552
 31
0.0
  0
LINE
  5
BA
330
1F
100
AcDbEntity
  8
C-2
  6
Continuous
 62
     3
370
     9
100
AcDbLine
 10
-1488.02137320572
 20
721.1088768211573
 30
0.0
 11
-1488.02137320572
 21
617.1104142472552
 31
0.0
  0
LINE
  5
BB
330
1F
100
AcDbEntity
  8
C-2
  6
Continuous
 62
     3
370
     9
100
AcDbLine
 10
-1506.021259383402
 20
670.6096257390203
 30
0.0
 11
-1488.02137320572
 21
670.6096257390203
 31
0.0
  0
LINE
  5
BC
330
1F
100
AcDbEntity
  8
C-2
  6
Continuous
 62
     3
370
     9
100
AcDbLine
 10
-1506.021259383402
 20
667.6096653293919
 30
0.0
 11
-1488.02137320572
 21
667.6096653293919
 31
0.0
  0
LINE
  5
BD
330
1F
100
AcDbEntity
  8
C-2
  6
Continuous
 62
     3
370
     9
100
AcDbLine
 10
-1462.021138962688
 20
721.1088768211573
 30
0.0
 11
-1462.021138962688
 21
617.1104142472552
 31
0.0
  0
LINE
  5
BE
330
1F
100
AcDbEntity
  8
C-2
  6
Continuous
 62
     3
370
     9
100
AcDbLine
 10
-1466.021127415496
 20
721.1088768211573
 30
0.0
 11
-1466.021127415496
 21
617.1104142472552
 31
0.0
  0
LINE
  5
BF
330
1F
100
AcDbEntity
  8
C-2
  6
Continuous
 62
     3
370
     9
100
AcDbLine
 10
-1484.021013593178
 20
670.6096257390203
 30
0.0
 11
-1466.021127415496
 21
670.6096257390203
 31
0.0
  0
LINE
  5
C0
330
1F
100
AcDbEntity
  8
C-2
  6
Continuous
 62
     3
370
     9
100
AcDbLine
 10
-1484.021013593178
 20
667.6096653293919
 30
0.0
 11
-1466.021127415496
 21
667.6096653293919
 31
0.0
  0
LINE
  5
C1
330
1F
100
AcDbEntity
  8
C-2
  6
Continuous
 62
     3
370
     9
100
AcDbLine
 10
-1440.02138805211
 20
721.1088768211573
 30
0.0
 11
-1440.02138805211
 21
617.1104142472552
 31
0.0
  0
LINE
  5
C2
330
1F
100
AcDbEntity
  8
C-2
  6
Continuous
 62
     3
370
     9
100
AcDbLine
 10
-1444.021376504918
 20
721.1088768211573
 30
0.0
 11
-1444.021376504918
 21
617.1104142472552
 31
0.0
  0
LINE
  5
C3
330
1F
100
AcDbEntity
  8
C-2
  6
Continuous
 62
     3
370
     9
100
AcDbLine
 10
-1462.021138962688
 20
670.6096257390203
 30
0.0
 11
-1444.021376504918
 21
670.6096257390203
 31
0.0
  0
LINE
  5
C4
330
1F
100
AcDbEntity
  8
C-2
  6
Continuous
 62
     3
370
     9
100
AcDbLine
 10
-1462.021138962688
 20
667.6096653293919
 30
0.0
 11
-1444.021376504918
 21
667.6096653293919
 31
0.0
  0
LINE
  5
C5
330
1F
100
AcDbEntity
  8
C-2
  6
Continuous
 62
     3
370
     9
100
AcDbLine
 10
-1418.021142261886
 20
721.1088768211573
 30
0.0
 11
-1418.021142261886
 21
617.1104142472552
 31
0.0
  0
LINE
  5
C6
330
1F
100
AcDbEntity
  8
C-2
  6
Continuous
 62
     3
370
     9
100
AcDbLine
 10
-1422.021501874428
 20
721.1088768211573
 30
0.0
 11
-1422.021501874428
 21
617.1104142472552
 31
0.0
  0
LINE
  5
C7
330
1F
100
AcDbEntity
  8
C-2
  6
Continuous
 62
     3
370
     9
100
AcDbLine
 10
-1440.02138805211
 20
670.6096257390203
 30
0.0
 11
-1422.021501874428
 21
670.6096257390203
 31
0.0
  0
LINE
  5
C8
330
1F
100
AcDbEntity
  8
C-2
  6
Continuous
 62
     3
370
     9
100
AcDbLine
 10
-1440.02138805211
 20
667.6096653293919
 30
0.0
 11
-1422.021501874428
 21
667.6096653293919
 31
0.0
  0
LINE
  5
C9
330
1F
100
AcDbEntity
  8
C-2
  6
Continuous
 62
     3
370
     9
100
AcDbLine
 10
-1396.021267631396
 20
721.1088768211573
 30
0.0
 11
-1396.021267631396
 21
617.1104142472552
 31
0.0
  0
LINE
  5
CA
330
1F
100
AcDbEntity
  8
C-2
  6
Continuous
 62
     3
370
     9
100
AcDbLine
 10
-1400.021256084204
 20
721.1088768211573
 30
0.0
 11
-1400.021256084204
 21
617.1104142472552
 31
0.0
  0
LINE
  5
CB
330
1F
100
AcDbEntity
  8
C-2
  6
Continuous
 62
     3
370
     9
100
AcDbLine
 10
-1418.021142261886
 20
670.6096257390203
 30
0.0
 11
-1400.021256084204
 21
670.6096257390203
 31
0.0
  0
LINE
  5
CC
330
1F
100
AcDbEntity
  8
C-2
  6
Continuous
 62
     3
370
     9
100
AcDbLine
 10
-1418.021142261886
 20
667.6096653293919
 30
0.0
 11
-1400.021256084204
 21
667.6096653293919
 31
0.0
  0
LINE
  5
CD
330
1F
100
AcDbEntity
  8
C-2
  6
Continuous
 62
     3
370
     9
100
AcDbLine
 10
-1374.021516720818
 20
721.1088768211573
 30
0.0
 11
-1374.021516720818
 21
617.1104142472552
 31
0.0
  0
LINE
  5
CE
330
1F
100
AcDbEntity
  8
C-2
  6
Continuous
 62
     3
370
     9
100
AcDbLine
 10
-1378.021381453714
 20
721.1088768211573
 30
0.0
 11
-1378.021381453714
 21
617.1104142472552
 31
0.0
  0
LINE
  5
CF
330
1F
100
AcDbEntity
  8
C-2
  6
Continuous
 62
     3
370
     9
100
AcDbLine
 10
-1396.021267631396
 20
670.6096257390203
 30
0.0
 11
-1378.021381453714
 21
670.6096257390203
 31
0.0
  0
LINE
  5
D0
330
1F
100
AcDbEntity
  8
C-2
  6
Continuous
 62
     3
370
     9
100
AcDbLine
 10
-1396.021267631396
 20
667.6096653293919
 30
0.0
 11
-1378.021381453714
 21
667.6096653293919
 31
0.0
  0
LINE
  5
D1
330
1F
100
AcDbEntity
  8
C-2
  6
Continuous
 62
     3
370
     9
100
AcDbLine
 10
-1352.021147210682
 20
721.1088768211573
 30
0.0
 11
-1352.021147210682
 21
617.1104142472552
 31
0.0
  0
LINE
  5
D2
330
1F
100
AcDbEntity
  8
C-2
  6
Continuous
 62
     3
370
     9
100
AcDbLine
 10
-1356.021135663491
 20
721.1088768211573
 30
0.0
 11
-1356.021135663491
 21
617.1104142472552
 31
0.0
  0
LINE
  5
D3
330
1F
100
AcDbEntity
  8
C-2
  6
Continuous
 62
     3
370
     9
100
AcDbLine
 10
-1374.021516720818
 20
670.6096257390203
 30
0.0
 11
-1356.021135663491
 21
670.6096257390203
 31
0.0
  0
LINE
  5
D4
330
1F
100
AcDbEntity
  8
C-2
  6
Continuous
 62
     3
370
     9
100
AcDbLine
 10
-1374.021516720818
 20
667.6096653293919
 30
0.0
 11
-1356.021135663491
 21
667.6096653293919
 31
0.0
  0
LINE
  5
D5
330
1F
100
AcDbEntity
  8
C-2
  6
Continuous
 62
     3
370
     9
100
AcDbLine
 10
-1330.021396300104
 20
721.1088768211573
 30
0.0
 11
-1330.021396300104
 21
617.1104142472552
 31
0.0
  0
LINE
  5
D6
330
1F
100
AcDbEntity
  8
C-2
  6
Continuous
 62
     3
370
     9
100
AcDbLine
 10
-1334.021261033001
 20
721.1088768211573
 30
0.0
 11
-1334.021261033001
 21
617.1104142472552
 31
0.0
  0
LINE
  5
D7
330
1F
100
AcDbEntity
  8
C-2
  6
Continuous
 62
     3
370
     9
100
AcDbLine
 10
-1352.021147210682
 20
670.6096257390203
 30
0.0
 11
-1334.021261033001
 21
670.6096257390203
 31
0.0
  0
LINE
  5
D8
330
1F
100
AcDbEntity
  8
C-2
  6
Continuous
 62
     3
370
     9
100
AcDbLine
 10
-1352.021147210682
 20
667.6096653293919
 30
0.0
 11
-1334.021261033001
 21
667.6096653293919
 31
0.0
  0
LINE
  5
D9
330
1F
100
AcDbEntity
  8
C-2
  6
Continuous
 62
     3
370
     9
100
AcDbLine
 10
-1308.021026789968
 20
721.1088768211573
 30
0.0
 11
-1308.021026789968
 21
617.1104142472552
 31
0.0
  0
LINE
  5
DA
330
1F
100
AcDbEntity
  8
C-2
  6
Continuous
 62
     3
370
     9
100
AcDbLine
 10
-1312.021510122422
 20
721.1088768211573
 30
0.0
 11
-1312.021510122422
 21
617.1104142472552
 31
0.0
  0
LINE
  5
DB
330
1F
100
AcDbEntity
  8
C-2
  6
Continuous
 62
     3
370
     9
100
AcDbLine
 10
-1330.020901420458
 20
670.6096257390203
 30
0.0
 11
-1312.021510122422
 21
670.6096257390203
 31
0.0
  0
LINE
  5
DC
330
1F
100
AcDbEntity
  8
C-2
  6
Continuous
 62
     3
370
     9
100
AcDbLine
 10
-1330.020901420458
 20
667.6096653293919
 30
0.0
 11
-1312.021510122422
 21
667.6096653293919
 31
0.0
  0
LINE
  5
DD
330
1F
100
AcDbEntity
  8
C-2
  6
Continuous
 62
     3
370
     9
100
AcDbLine
 10
-1286.02127587939
 20
721.1088768211573
 30
0.0
 11
-1286.02127587939
 21
617.1104142472552
 31
0.0
  0
LINE
  5
DE
330
1F
100
AcDbEntity
  8
C-2
  6
Continuous
 62
     3
370
     9
100
AcDbLine
 10
-1290.021140612287
 20
721.1088768211573
 30
0.0
 11
-1290.021140612287
 21
617.1104142472552
 31
0.0
  0
LINE
  5
DF
330
1F
100
AcDbEntity
  8
C-2
  6
Continuous
 62
     3
370
     9
100
AcDbLine
 10
-1308.021026789968
 20
670.6096257390203
 30
0.0
 11
-1290.021140612287
 21
670.6096257390203
 31
0.0
  0
LINE
  5
E0
330
1F
100
AcDbEntity
  8
C-2
  6
Continuous
 62
     3
370
     9
100
AcDbLine
 10
-1308.021026789968
 20
667.6096653293919
 30
0.0
 11
-1290.021140612287
 21
667.6096653293919
 31
0.0
  0
LINE
  5
E1
330
1F
100
AcDbEntity
  8
C-2
  6
Continuous
 62
     3
370
     9
100
AcDbLine
 10
-1264.021524968811
 20
721.1088768211573
 30
0.0
 11
-1264.021524968811
 21
617.1104142472552
 31
0.0
  0
LINE
  5
E2
330
1F
100
AcDbEntity
  8
C-2
  6
Continuous
 62
     3
370
     9
100
AcDbLine
 10
-1268.020894822063
 20
721.1088768211573
 30
0.0
 11
-1268.020894822063
 21
617.1104142472552
 31
0.0
  0
LINE
  5
E3
330
1F
100
AcDbEntity
  8
C-2
  6
Continuous
 62
     3
370
     9
100
AcDbLine
 10
-1286.02127587939
 20
670.6096257390203
 30
0.0
 11
-1268.020894822063
 21
670.6096257390203
 31
0.0
  0
LINE
  5
E4
330
1F
100
AcDbEntity
  8
C-2
  6
Continuous
 62
     3
370
     9
100
AcDbLine
 10
-1286.02127587939
 20
667.6096653293919
 30
0.0
 11
-1268.020894822063
 21
667.6096653293919
 31
0.0
  0
LINE
  5
E5
330
1F
100
AcDbEntity
  8
C-2
  6
Continuous
 62
     3
370
     9
100
AcDbLine
 10
-1242.021155458676
 20
721.1088768211573
 30
0.0
 11
-1242.021155458676
 21
617.1104142472552
 31
0.0
  0
LINE
  5
E6
330
1F
100
AcDbEntity
  8
C-2
  6
Continuous
 62
     3
370
     9
100
AcDbLine
 10
-1246.021143911485
 20
721.1088768211573
 30
0.0
 11
-1246.021143911485
 21
617.1104142472552
 31
0.0
  0
LINE
  5
E7
330
1F
100
AcDbEntity
  8
C-2
  6
Continuous
 62
     3
370
     9
100
AcDbLine
 10
-1264.021030089166
 20
670.6096257390203
 30
0.0
 11
-1246.021143911485
 21
670.6096257390203
 31
0.0
  0
LINE
  5
E8
330
1F
100
AcDbEntity
  8
C-2
  6
Continuous
 62
     3
370
     9
100
AcDbLine
 10
-1264.021030089166
 20
667.6096653293919
 30
0.0
 11
-1246.021143911485
 21
667.6096653293919
 31
0.0
  0
LINE
  5
E9
330
1F
100
AcDbEntity
  8
C-2
  6
Continuous
 62
     3
370
     9
100
AcDbLine
 10
-1220.020909668453
 20
721.1088768211573
 30
0.0
 11
-1220.020909668453
 21
617.1104142472552
 31
0.0
  0
LINE
  5
EA
330
1F
100
AcDbEntity
  8
C-2
  6
Continuous
 62
     3
370
     9
100
AcDbLine
 10
-1224.021269280995
 20
721.1088768211573
 30
0.0
 11
-1224.021269280995
 21
617.1104142472552
 31
0.0
  0
LINE
  5
EB
330
1F
100
AcDbEntity
  8
C-2
  6
Continuous
 62
     3
370
     9
100
AcDbLine
 10
-1242.021155458676
 20
670.6096257390203
 30
0.0
 11
-1224.021269280995
 21
670.6096257390203
 31
0.0
  0
LINE
  5
EC
330
1F
100
AcDbEntity
  8
C-2
  6
Continuous
 62
     3
370
     9
100
AcDbLine
 10
-1242.021155458676
 20
667.6096653293919
 30
0.0
 11
-1224.021269280995
 21
667.6096653293919
 31
0.0
  0
LINE
  5
ED
330
1F
100
AcDbEntity
  8
C-2
  6
Continuous
 62
     3
370
     9
100
AcDbLine
 10
-1198.021035037963
 20
721.1088768211573
 30
0.0
 11
-1198.021035037963
 21
617.1104142472552
 31
0.0
  0
LINE
  5
EE
330
1F
100
AcDbEntity
  8
C-2
  6
Continuous
 62
     3
370
     9
100
AcDbLine
 10
-1202.021518370416
 20
721.1088768211573
 30
0.0
 11
-1202.021518370416
 21
617.1104142472552
 31
0.0
  0
LINE
  5
EF
330
1F
100
AcDbEntity
  8
C-2
  6
Continuous
 62
     3
370
     9
100
AcDbLine
 10
-1220.020909668453
 20
670.6096257390203
 30
0.0
 11
-1202.021518370416
 21
670.6096257390203
 31
0.0
  0
LINE
  5
F0
330
1F
100
AcDbEntity
  8
C-2
  6
Continuous
 62
     3
370
     9
100
AcDbLine
 10
-1220.020909668453
 20
667.6096653293919
 30
0.0
 11
-1202.021518370416
 21
667.6096653293919
 31
0.0
  0
LINE
  5
F1
330
1F
100
AcDbEntity
  8
C-2
  6
Continuous
 62
     3
370
     9
100
AcDbLine
 10
-1198.021035037963
 20
670.6096257390203
 30
0.0
 11
-1180.021148860281
 21
670.6096257390203
 31
0.0
  0
LINE
  5
F2
330
1F
100
AcDbEntity
  8
C-2
  6
Continuous
 62
     3
370
     9
100
AcDbLine
 10
-1198.021035037963
 20
667.6096653293919
 30
0.0
 11
-1180.021148860281
 21
667.6096653293919
 31
0.0
  0
LINE
  5
F3
330
1F
100
AcDbEntity
  8
C-2
  6
Continuous
 62
     3
370
     9
100
AcDbLine
 10
-1176.020789247739
 20
721.1088768211573
 30
0.0
 11
-1176.020789247739
 21
617.1104142472552
 31
0.0
  0
LINE
  5
F4
330
1F
100
AcDbEntity
  8
C-2
  6
Continuous
 62
     3
370
     9
100
AcDbLine
 10
-1180.021148860281
 20
721.1088768211573
 30
0.0
 11
-1180.021148860281
 21
617.1104142472552
 31
0.0
  0
LINE
  5
F5
330
1F
100
AcDbEntity
  8
C-2
  6
Continuous
 62
     3
370
     9
100
AcDbLine
 10
-1176.020789247739
 20
670.6096257390203
 30
0.0
 11
-1158.020903070057
 21
670.6096257390203
 31
0.0
  0
LINE
  5
F6
330
1F
100
AcDbEntity
  8
C-2
  6
Continuous
 62
     3
370
     9
100
AcDbLine
 10
-1176.020789247739
 20
667.6096653293919
 30
0.0
 11
-1158.020903070057
 21
667.6096653293919
 31
0.0
  0
LINE
  5
F7
330
1F
100
AcDbEntity
  8
C-2
  6
Continuous
 62
     3
370
     9
100
AcDbLine
 10
-1154.020914617249
 20
721.1088768211573
 30
0.0
 11
-1154.020914617249
 21
617.1104142472552
 31
0.0
  0
LINE
  5
F8
330
1F
100
AcDbEntity
  8
C-2
  6
Continuous
 62
     3
370
     9
100
AcDbLine
 10
-1158.020903070057
 20
721.1088768211573
 30
0.0
 11
-1158.020903070057
 21
617.1104142472552
 31
0.0
  0
LINE
  5
F9
330
1F
100
AcDbEntity
  8
C-2
  6
Continuous
 62
     3
370
     9
100
AcDbLine
 10
-1154.020914617249
 20
670.6096257390203
 30
0.0
 11
-1136.021152159479
 21
670.6096257390203
 31
0.0
  0
LINE
  5
FA
330
1F
100
AcDbEntity
  8
C-2
  6
Continuous
 62
     3
370
     9
100
AcDbLine
 10
-1154.020914617249
 20
667.6096653293919
 30
0.0
 11
-1136.021152159479
 21
667.6096653293919
 31
0.0
  0
LINE
  5
FB
330
1F
100
AcDbEntity
  8
C-2
  6
Continuous
 62
     3
370
     9
100
AcDbLine
 10
-1132.02116370667
 20
721.1088768211573
 30
0.0
 11
-1132.02116370667
 21
617.1104142472552
 31
0.0
  0
LINE
  5
FC
330
1F
100
AcDbEntity
  8
C-2
  6
Continuous
 62
     3
370
     9
100
AcDbLine
 10
-1136.021152159479
 20
721.1088768211573
 30
0.0
 11
-1136.021152159479
 21
617.1104142472552
 31
0.0
  0
LINE
  5
FD
330
1F
100
AcDbEntity
  8
C-2
  6
Continuous
 62
     3
370
     9
100
AcDbLine
 10
-1132.02116370667
 20
670.6096257390203
 30
0.0
 11
-1114.021277528989
 21
670.6096257390203
 31
0.0
  0
LINE
  5
FE
330
1F
100
AcDbEntity
  8
C-2
  6
Continuous
 62
     3
370
     9
100
AcDbLine
 10
-1132.02116370667
 20
667.6096653293919
 30
0.0
 11
-1114.021277528989
 21
667.6096653293919
 31
0.0
  0
LINE
  5
FF
330
1F
100
AcDbEntity
  8
C-2
  6
Continuous
 62
     3
370
     9
100
AcDbLine
 10
-1110.020917916447
 20
721.1088768211573
 30
0.0
 11
-1110.020917916447
 21
617.1104142472552
 31
0.0
  0
LINE
  5
100
330
1F
100
AcDbEntity
  8
C-2
  6
Continuous
 62
     3
370
     9
100
AcDbLine
 10
-1114.021277528989
 20
721.1088768211573
 30
0.0
 11
-1114.021277528989
 21
617.1104142472552
 31
0.0
  0
LINE
  5
101
330
1F
100
AcDbEntity
  8
C-2
  6
Continuous
 62
     3
370
     9
100
AcDbLine
 10
-1110.020917916447
 20
670.6096257390203
 30
0.0
 11
-1092.021402898499
 21
670.6096257390203
 31
0.0
  0
LINE
  5
102
330
1F
100
AcDbEntity
  8
C-2
  6
Continuous
 62
     3
370
     9
100
AcDbLine
 10
-1110.020917916447
 20
667.6096653293919
 30
0.0
 11
-1092.021402898499
 21
667.6096653293919
 31
0.0
  0
LINE
  5
103
330
1F
100
AcDbEntity
  8
C-2
  6
Continuous
 62
     3
370
     9
100
AcDbLine
 10
-1088.021043285957
 20
721.1088768211573
 30
0.0
 11
-1088.021043285957
 21
617.1104142472552
 31
0.0
  0
LINE
  5
104
330
1F
100
AcDbEntity
  8
C-2
  6
Continuous
 62
     3
370
     9
100
AcDbLine
 10
-1092.021402898499
 20
721.1088768211573
 30
0.0
 11
-1092.021402898499
 21
617.1104142472552
 31
0.0
  0
LINE
  5
105
330
1F
100
AcDbEntity
  8
C-2
  6
Continuous
 62
     3
370
     9
100
AcDbLine
 10
-1088.021043285957
 20
670.6096257390203
 30
0.0
 11
-1070.021280828186
 21
670.6096257390203
 31
0.0
  0
LINE
  5
106
330
1F
100
AcDbEntity
  8
C-2
  6
Continuous
 62
     3
370
     9
100
AcDbLine
 10
-1088.021043285957
 20
667.6096653293919
 30
0.0
 11
-1070.021280828186
 21
667.6096653293919
 31
0.0
  0
LINE
  5
107
330
1F
100
AcDbEntity
  8
C-2
  6
Continuous
 62
     3
370
     9
100
AcDbLine
 10
-1066.021168655467
 20
721.1088768211573
 30
0.0
 11
-1066.021168655467
 21
617.1104142472552
 31
0.0
  0
LINE
  5
108
330
1F
100
AcDbEntity
  8
C-2
  6
Continuous
 62
     3
370
     9
100
AcDbLine
 10
-1070.021280828186
 20
721.1088768211573
 30
0.0
 11
-1070.021280828186
 21
617.1104142472552
 31
0.0
  0
LINE
  5
109
330
1F
100
AcDbEntity
  8
C-2
  6
Continuous
 62
     3
370
     9
100
AcDbLine
 10
-1066.021168655467
 20
670.6096257390203
 30
0.0
 11
-1048.021406197697
 21
670.6096257390203
 31
0.0
  0
LINE
  5
10A
330
1F
100
AcDbEntity
  8
C-2
  6
Continuous
 62
     3
370
     9
100
AcDbLine
 10
-1066.021168655467
 20
667.6096653293919
 30
0.0
 11
-1048.021406197697
 21
667.6096653293919
 31
0.0
  0
LINE
  5
10B
330
1F
100
AcDbEntity
  8
C-2
  6
Continuous
 62
     3
370
     9
100
AcDbLine
 10
-1044.021046585154
 20
721.1088768211573
 30
0.0
 11
-1044.021046585154
 21
617.1104142472552
 31
0.0
  0
LINE
  5
10C
330
1F
100
AcDbEntity
  8
C-2
  6
Continuous
 62
     3
370
     9
100
AcDbLine
 10
-1048.020911318051
 20
721.1088768211573
 30
0.0
 11
-1048.020911318051
 21
617.1104142472552
 31
0.0
  0
LINE
  5
10D
330
1F
100
AcDbEntity
  8
C-2
  6
Continuous
 62
     3
370
     9
100
AcDbLine
 10
-1044.021046585154
 20
670.6096257390203
 30
0.0
 11
-1026.021036687561
 21
670.6096257390203
 31
0.0
  0
LINE
  5
10E
330
1F
100
AcDbEntity
  8
C-2
  6
Continuous
 62
     3
370
     9
100
AcDbLine
 10
-1044.021046585154
 20
667.6096653293919
 30
0.0
 11
-1026.021036687561
 21
667.6096653293919
 31
0.0
  0
LINE
  5
10F
330
1F
100
AcDbEntity
  8
C-2
  6
Continuous
 62
     3
370
     9
100
AcDbLine
 10
-1022.021171954665
 20
721.1088768211573
 30
0.0
 11
-1022.021171954665
 21
617.1104142472552
 31
0.0
  0
LINE
  5
110
330
1F
100
AcDbEntity
  8
C-2
  6
Continuous
 62
     3
370
     9
100
AcDbLine
 10
-1026.021036687561
 20
721.1088768211573
 30
0.0
 11
-1026.021036687561
 21
617.1104142472552
 31
0.0
  0
LINE
  5
111
330
1F
100
AcDbEntity
  8
C-2
  6
Continuous
 62
     3
370
     9
100
AcDbLine
 10
-1022.021171954665
 20
670.6096257390203
 30
0.0
 11
-1004.021162057072
 21
670.6096257390203
 31
0.0
  0
LINE
  5
112
330
1F
100
AcDbEntity
  8
C-2
  6
Continuous
 62
     3
370
     9
100
AcDbLine
 10
-1022.021171954665
 20
667.6096653293919
 30
0.0
 11
-1004.021162057072
 21
667.6096653293919
 31
0.0
  0
LINE
  5
113
330
1F
100
AcDbEntity
  8
C-2
  6
Continuous
 62
     3
370
     9
100
AcDbLine
 10
-1000.020802444529
 20
721.1088768211573
 30
0.0
 11
-1000.020802444529
 21
617.1104142472552
 31
0.0
  0
LINE
  5
114
330
1F
100
AcDbEntity
  8
C-2
  6
Continuous
 62
     3
370
     9
100
AcDbLine
 10
-1004.021162057072
 20
721.1088768211573
 30
0.0
 11
-1004.021162057072
 21
617.1104142472552
 31
0.0
  0
LINE
  5
115
330
1F
100
AcDbEntity
  8
C-2
  6
Continuous
 62
     3
370
     9
100
AcDbLine
 10
-1000.020802444529
 20
670.6096257390203
 30
0.0
 11
-982.0210399867591
 21
670.6096257390203
 31
0.0
  0
LINE
  5
116
330
1F
100
AcDbEntity
  8
C-2
  6
Continuous
 62
     3
370
     9
100
AcDbLine
 10
-1000.020802444529
 20
667.6096653293919
 30
0.0
 11
-982.0210399867591
 21
667.6096653293919
 31
0.0
  0
LINE
  5
117
330
1F
100
AcDbEntity
  8
C-2
  6
Continuous
 62
     3
370
     9
100
AcDbLine
 10
-978.0211752538622
 20
721.1088768211573
 30
0.0
 11
-978.0211752538622
 21
617.1104142472552
 31
0.0
  0
LINE
  5
118
330
1F
100
AcDbEntity
  8
C-2
  6
Continuous
 62
     3
370
     9
100
AcDbLine
 10
-982.0210399867591
 20
721.1088768211573
 30
0.0
 11
-982.0210399867591
 21
617.1104142472552
 31
0.0
  0
LINE
  5
119
330
1F
100
AcDbEntity
  8
C-2
  6
Continuous
 62
     3
370
     9
100
AcDbLine
 10
-978.0211752538622
 20
670.6096257390203
 30
0.0
 11
-960.0211653562692
 21
670.6096257390203
 31
0.0
  0
LINE
  5
11A
330
1F
100
AcDbEntity
  8
C-2
  6
Continuous
 62
     3
370
     9
100
AcDbLine
 10
-978.0211752538622
 20
667.6096653293919
 30
0.0
 11
-960.0211653562692
 21
667.6096653293919
 31
0.0
  0
LINE
  5
11B
330
1F
100
AcDbEntity
  8
C-2
  6
Continuous
 62
     3
370
     9
100
AcDbLine
 10
-956.0213006233723
 20
721.1088768211573
 30
0.0
 11
-956.0213006233723
 21
617.1104142472552
 31
0.0
  0
LINE
  5
11C
330
1F
100
AcDbEntity
  8
C-2
  6
Continuous
 62
     3
370
     9
100
AcDbLine
 10
-960.0211653562692
 20
721.1088768211573
 30
0.0
 11
-960.0211653562692
 21
617.1104142472552
 31
0.0
  0
LINE
  5
11D
330
1F
100
AcDbEntity
  8
C-2
  6
Continuous
 62
     3
370
     9
100
AcDbLine
 10
-956.0213006233723
 20
670.6096257390203
 30
0.0
 11
-938.0207958461341
 21
670.6096257390203
 31
0.0
  0
LINE
  5
11E
330
1F
100
AcDbEntity
  8
C-2
  6
Continuous
 62
     3
370
     9
100
AcDbLine
 10
-956.0213006233723
 20
667.6096653293919
 30
0.0
 11
-938.0207958461341
 21
667.6096653293919
 31
0.0
  0
LINE
  5
11F
330
1F
100
AcDbEntity
  8
C-2
  6
Continuous
 62
     3
370
     9
100
AcDbLine
 10
-934.0214259928823
 20
721.1088768211573
 30
0.0
 11
-934.0214259928823
 21
617.1104142472552
 31
0.0
  0
LINE
  5
120
330
1F
100
AcDbEntity
  8
C-2
  6
Continuous
 62
     3
370
     9
100
AcDbLine
 10
-938.0207958461341
 20
721.1088768211573
 30
0.0
 11
-938.0207958461341
 21
617.1104142472552
 31
0.0
  0
LINE
  5
121
330
1F
100
AcDbEntity
  8
C-2
  6
Continuous
 62
     3
370
     9
100
AcDbLine
 10
-934.0214259928823
 20
670.6096257390203
 30
0.0
 11
-916.0211686554669
 21
670.6096257390203
 31
0.0
  0
LINE
  5
122
330
1F
100
AcDbEntity
  8
C-2
  6
Continuous
 62
     3
370
     9
100
AcDbLine
 10
-934.0214259928823
 20
667.6096653293919
 30
0.0
 11
-916.0211686554669
 21
667.6096653293919
 31
0.0
  0
LINE
  5
123
330
1F
100
AcDbEntity
  8
C-2
  6
Continuous
 62
     3
370
     9
100
AcDbLine
 10
-912.0210564827473
 20
721.1088768211573
 30
0.0
 11
-912.0210564827473
 21
617.1104142472552
 31
0.0
  0
LINE
  5
124
330
1F
100
AcDbEntity
  8
C-2
  6
Continuous
 62
     3
370
     9
100
AcDbLine
 10
-916.0211686554669
 20
721.1088768211573
 30
0.0
 11
-916.0211686554669
 21
617.1104142472552
 31
0.0
  0
LINE
  5
125
330
1F
100
AcDbEntity
  8
C-2
  6
Continuous
 62
     3
370
     9
100
AcDbLine
 10
-912.0210564827473
 20
670.6096257390203
 30
0.0
 11
-894.0212940249771
 21
670.6096257390203
 31
0.0
  0
LINE
  5
126
330
1F
100
AcDbEntity
  8
C-2
  6
Continuous
 62
     3
370
     9
100
AcDbLine
 10
-912.0210564827473
 20
667.6096653293919
 30
0.0
 11
-894.0212940249771
 21
667.6096653293919
 31
0.0
  0
LINE
  5
127
330
1F
100
AcDbEntity
  8
C-2
  6
Continuous
 62
     3
370
     9
100
AcDbLine
 10
-890.0209344124348
 20
721.1088768211573
 30
0.0
 11
-890.0209344124348
 21
617.1104142472552
 31
0.0
  0
LINE
  5
128
330
1F
100
AcDbEntity
  8
C-2
  6
Continuous
 62
     3
370
     9
100
AcDbLine
 10
-894.0212940249771
 20
721.1088768211573
 30
0.0
 11
-894.0212940249771
 21
617.1104142472552
 31
0.0
  0
LINE
  5
129
330
1F
100
AcDbEntity
  8
C-2
  6
Continuous
 62
     3
370
     9
100
AcDbLine
 10
-890.0209344124348
 20
670.6096257390203
 30
0.0
 11
-872.0214193944872
 21
670.6096257390203
 31
0.0
  0
LINE
  5
12A
330
1F
100
AcDbEntity
  8
C-2
  6
Continuous
 62
     3
370
     9
100
AcDbLine
 10
-890.0209344124348
 20
667.6096653293919
 30
0.0
 11
-872.0214193944872
 21
667.6096653293919
 31
0.0
  0
LINE
  5
12B
330
1F
100
AcDbEntity
  8
C-2
  6
Continuous
 62
     3
370
     9
100
AcDbLine
 10
-868.0210597819448
 20
721.1088768211573
 30
0.0
 11
-868.0210597819448
 21
617.1104142472552
 31
0.0
  0
LINE
  5
12C
330
1F
100
AcDbEntity
  8
C-2
  6
Continuous
 62
     3
370
     9
100
AcDbLine
 10
-872.0214193944872
 20
721.1088768211573
 30
0.0
 11
-872.0214193944872
 21
617.1104142472552
 31
0.0
  0
LINE
  5
12D
330
1F
100
AcDbEntity
  8
C-2
  6
Continuous
 62
     3
370
     9
100
AcDbLine
 10
-868.0210597819448
 20
670.6096257390203
 30
0.0
 11
-850.0210498843521
 21
670.6096257390203
 31
0.0
  0
LINE
  5
12E
330
1F
100
AcDbEntity
  8
C-2
  6
Continuous
 62
     3
370
     9
100
AcDbLine
 10
-868.0210597819448
 20
667.6096653293919
 30
0.0
 11
-850.0210498843521
 21
667.6096653293919
 31
0.0
  0
LINE
  5
12F
330
1F
100
AcDbEntity
  8
C-2
  6
Continuous
 62
     3
370
     9
100
AcDbLine
 10
-846.0211851514549
 20
721.1088768211573
 30
0.0
 11
-846.0211851514549
 21
617.1104142472552
 31
0.0
  0
LINE
  5
130
330
1F
100
AcDbEntity
  8
C-2
  6
Continuous
 62
     3
370
     9
100
AcDbLine
 10
-850.0210498843521
 20
721.1088768211573
 30
0.0
 11
-850.0210498843521
 21
617.1104142472552
 31
0.0
  0
LINE
  5
131
330
1F
100
AcDbEntity
  8
C-2
  6
Continuous
 62
     3
370
     9
100
AcDbLine
 10
-846.0211851514549
 20
670.6096257390203
 30
0.0
 11
-828.0214226936848
 21
670.6096257390203
 31
0.0
  0
LINE
  5
132
330
1F
100
AcDbEntity
  8
C-2
  6
Continuous
 62
     3
370
     9
100
AcDbLine
 10
-846.0211851514549
 20
667.6096653293919
 30
0.0
 11
-828.0214226936848
 21
667.6096653293919
 31
0.0
  0
LINE
  5
133
330
1F
100
AcDbEntity
  8
C-2
  6
Continuous
 62
     3
370
     9
100
AcDbLine
 10
-824.0210630811424
 20
721.1088768211573
 30
0.0
 11
-824.0210630811424
 21
617.1104142472552
 31
0.0
  0
LINE
  5
134
330
1F
100
AcDbEntity
  8
C-2
  6
Continuous
 62
     3
370
     9
100
AcDbLine
 10
-828.0209278140396
 20
721.1088768211573
 30
0.0
 11
-828.0209278140396
 21
617.1104142472552
 31
0.0
  0
LINE
  5
135
330
1F
100
AcDbEntity
  8
C-2
  6
Continuous
 62
     3
370
     9
100
AcDbLine
 10
-824.0210630811424
 20
670.6096257390203
 30
0.0
 11
-806.0210531835497
 21
670.6096257390203
 31
0.0
  0
LINE
  5
136
330
1F
100
AcDbEntity
  8
C-2
  6
Continuous
 62
     3
370
     9
100
AcDbLine
 10
-824.0210630811424
 20
667.6096653293919
 30
0.0
 11
-806.0210531835497
 21
667.6096653293919
 31
0.0
  0
LINE
  5
137
330
1F
100
AcDbEntity
  8
C-2
  6
Continuous
 62
     3
370
     9
100
AcDbLine
 10
-802.0211884506525
 20
721.1088768211573
 30
0.0
 11
-802.0211884506525
 21
617.1104142472552
 31
0.0
  0
LINE
  5
138
330
1F
100
AcDbEntity
  8
C-2
  6
Continuous
 62
     3
370
     9
100
AcDbLine
 10
-806.0210531835497
 20
721.1088768211573
 30
0.0
 11
-806.0210531835497
 21
617.1104142472552
 31
0.0
  0
LINE
  5
139
330
1F
100
AcDbEntity
  8
C-2
  6
Continuous
 62
     3
370
     9
100
AcDbLine
 10
-802.0211884506525
 20
670.6096257390203
 30
0.0
 11
-784.0211785530598
 21
670.6096257390203
 31
0.0
  0
LINE
  5
13A
330
1F
100
AcDbEntity
  8
C-2
  6
Continuous
 62
     3
370
     9
100
AcDbLine
 10
-802.0211884506525
 20
667.6096653293919
 30
0.0
 11
-784.0211785530598
 21
667.6096653293919
 31
0.0
  0
LINE
  5
13B
330
1F
100
AcDbEntity
  8
C-2
  6
Continuous
 62
     3
370
     9
100
AcDbLine
 10
-780.02106638034
 20
721.1088768211573
 30
0.0
 11
-780.02106638034
 21
617.1104142472552
 31
0.0
  0
LINE
  5
13C
330
1F
100
AcDbEntity
  8
C-2
  6
Continuous
 62
     3
370
     9
100
AcDbLine
 10
-784.0211785530598
 20
721.1088768211573
 30
0.0
 11
-784.0211785530598
 21
617.1104142472552
 31
0.0
  0
LINE
  5
13D
330
1F
100
AcDbEntity
  8
C-2
  6
Continuous
 62
     3
370
     9
100
AcDbLine
 10
-780.02106638034
 20
670.6096257390203
 30
0.0
 11
-762.0210564827473
 21
670.6096257390203
 31
0.0
  0
LINE
  5
13E
330
1F
100
AcDbEntity
  8
C-2
  6
Continuous
 62
     3
370
     9
100
AcDbLine
 10
-780.02106638034
 20
667.6096653293919
 30
0.0
 11
-762.0210564827473
 21
667.6096653293919
 31
0.0
  0
LINE
  5
13F
330
1F
100
AcDbEntity
  8
C-2
  6
Continuous
 62
     3
370
     9
100
AcDbLine
 10
-758.0209443100275
 20
721.1088768211573
 30
0.0
 11
-758.0209443100275
 21
617.1104142472552
 31
0.0
  0
LINE
  5
140
330
1F
100
AcDbEntity
  8
C-2
  6
Continuous
 62
     3
370
     9
100
AcDbLine
 10
-762.0210564827473
 20
721.1088768211573
 30
0.0
 11
-762.0210564827473
 21
617.1104142472552
 31
0.0
  0
LINE
  5
141
330
1F
100
AcDbEntity
  8
C-2
  6
Continuous
 62
     3
370
     9
100
AcDbLine
 10
-758.0209443100275
 20
670.6096257390203
 30
0.0
 11
-740.0216767319025
 21
670.6096257390203
 31
0.0
  0
LINE
  5
142
330
1F
100
AcDbEntity
  8
C-2
  6
Continuous
 62
     3
370
     9
100
AcDbLine
 10
-758.0209443100275
 20
667.6096653293919
 30
0.0
 11
-740.0216767319025
 21
667.6096653293919
 31
0.0
  0
LINE
  5
143
330
1F
100
AcDbEntity
  8
C-2
  6
Continuous
 62
     3
370
     9
100
AcDbLine
 10
-736.0213171193604
 20
721.1088768211573
 30
0.0
 11
-736.0213171193604
 21
617.1104142472552
 31
0.0
  0
LINE
  5
144
330
1F
100
AcDbEntity
  8
C-2
  6
Continuous
 62
     3
370
     9
100
AcDbLine
 10
-740.0211818522573
 20
721.1088768211573
 30
0.0
 11
-740.0211818522573
 21
617.1104142472552
 31
0.0
  0
LINE
  5
145
330
1F
100
AcDbEntity
  8
C-2
  6
Continuous
 62
     3
370
     9
100
AcDbLine
 10
-736.0213171193604
 20
670.6096257390203
 30
0.0
 11
-718.0213072217674
 21
670.6096257390203
 31
0.0
  0
LINE
  5
146
330
1F
100
AcDbEntity
  8
C-2
  6
Continuous
 62
     3
370
     9
100
AcDbLine
 10
-736.0213171193604
 20
667.6096653293919
 30
0.0
 11
-718.0213072217674
 21
667.6096653293919
 31
0.0
  0
LINE
  5
147
330
1F
100
AcDbEntity
  8
C-2
  6
Continuous
 62
     3
370
     9
100
AcDbLine
 10
-714.0214424888705
 20
721.1088768211573
 30
0.0
 11
-714.0214424888705
 21
617.1104142472552
 31
0.0
  0
LINE
  5
148
330
1F
100
AcDbEntity
  8
C-2
  6
Continuous
 62
     3
370
     9
100
AcDbLine
 10
-718.0213072217674
 20
721.1088768211573
 30
0.0
 11
-718.0213072217674
 21
617.1104142472552
 31
0.0
  0
LINE
  5
149
330
1F
100
AcDbEntity
  8
C-2
  6
Continuous
 62
     3
370
     9
100
AcDbLine
 10
-714.0214424888705
 20
670.6096257390203
 30
0.0
 11
-696.0209377116323
 21
670.6096257390203
 31
0.0
  0
LINE
  5
14A
330
1F
100
AcDbEntity
  8
C-2
  6
Continuous
 62
     3
370
     9
100
AcDbLine
 10
-714.0214424888705
 20
667.6096653293919
 30
0.0
 11
-696.0209377116323
 21
667.6096653293919
 31
0.0
  0
LINE
  5
14B
330
1F
100
AcDbEntity
  8
C-2
  6
Continuous
 62
     3
370
     9
100
AcDbLine
 10
-692.0210729787354
 20
721.1088768211573
 30
0.0
 11
-692.0210729787354
 21
617.1104142472552
 31
0.0
  0
LINE
  5
14C
330
1F
100
AcDbEntity
  8
C-2
  6
Continuous
 62
     3
370
     9
100
AcDbLine
 10
-696.0209377116323
 20
721.1088768211573
 30
0.0
 11
-696.0209377116323
 21
617.1104142472552
 31
0.0
  0
LINE
  5
14D
330
1F
100
AcDbEntity
  8
C-2
  6
Continuous
 62
     3
370
     9
100
AcDbLine
 10
-692.0210729787354
 20
670.6096257390203
 30
0.0
 11
-674.021310520965
 21
670.6096257390203
 31
0.0
  0
LINE
  5
14E
330
1F
100
AcDbEntity
  8
C-2
  6
Continuous
 62
     3
370
     9
100
AcDbLine
 10
-692.0210729787354
 20
667.6096653293919
 30
0.0
 11
-674.021310520965
 21
667.6096653293919
 31
0.0
  0
LINE
  5
14F
330
1F
100
AcDbEntity
  8
C-2
  6
Continuous
 62
     3
370
     9
100
AcDbLine
 10
-670.0214457880681
 20
721.1088768211573
 30
0.0
 11
-670.0214457880681
 21
617.1104142472552
 31
0.0
  0
LINE
  5
150
330
1F
100
AcDbEntity
  8
C-2
  6
Continuous
 62
     3
370
     9
100
AcDbLine
 10
-674.021310520965
 20
721.1088768211573
 30
0.0
 11
-674.021310520965
 21
617.1104142472552
 31
0.0
  0
LINE
  5
151
330
1F
100
AcDbEntity
  8
C-2
  6
Continuous
 62
     3
370
     9
100
AcDbLine
 10
-670.0214457880681
 20
670.6096257390203
 30
0.0
 11
-652.0214358904752
 21
670.6096257390203
 31
0.0
  0
LINE
  5
152
330
1F
100
AcDbEntity
  8
C-2
  6
Continuous
 62
     3
370
     9
100
AcDbLine
 10
-670.0214457880681
 20
667.6096653293919
 30
0.0
 11
-652.0214358904752
 21
667.6096653293919
 31
0.0
  0
LINE
  5
153
330
1F
100
AcDbEntity
  8
C-2
  6
Continuous
 62
     3
370
     9
100
AcDbLine
 10
-648.021076277933
 20
721.1088768211573
 30
0.0
 11
-648.021076277933
 21
617.1104142472552
 31
0.0
  0
LINE
  5
154
330
1F
100
AcDbEntity
  8
C-2
  6
Continuous
 62
     3
370
     9
100
AcDbLine
 10
-652.0209410108299
 20
721.1088768211573
 30
0.0
 11
-652.0209410108299
 21
617.1104142472552
 31
0.0
  0
LINE
  5
155
330
1F
100
AcDbEntity
  8
C-2
  6
Continuous
 62
     3
370
     9
100
AcDbLine
 10
-648.021076277933
 20
670.6096257390203
 30
0.0
 11
-630.0215612599854
 21
670.6096257390203
 31
0.0
  0
LINE
  5
156
330
1F
100
AcDbEntity
  8
C-2
  6
Continuous
 62
     3
370
     9
100
AcDbLine
 10
-648.021076277933
 20
667.6096653293919
 30
0.0
 11
-630.0215612599854
 21
667.6096653293919
 31
0.0
  0
LINE
  5
157
330
1F
100
AcDbEntity
  8
C-2
  6
Continuous
 62
     3
370
     9
100
AcDbLine
 10
-626.0212016474431
 20
721.1088768211573
 30
0.0
 11
-626.0212016474431
 21
617.1104142472552
 31
0.0
  0
LINE
  5
158
330
1F
100
AcDbEntity
  8
C-2
  6
Continuous
 62
     3
370
     9
100
AcDbLine
 10
-630.0215612599854
 20
721.1088768211573
 30
0.0
 11
-630.0215612599854
 21
617.1104142472552
 31
0.0
  0
LINE
  5
159
330
1F
100
AcDbEntity
  8
C-2
  6
Continuous
 62
     3
370
     9
100
AcDbLine
 10
-626.0212016474431
 20
670.6096257390203
 30
0.0
 11
-608.0209443100275
 21
670.6096257390203
 31
0.0
  0
LINE
  5
15A
330
1F
100
AcDbEntity
  8
C-2
  6
Continuous
 62
     3
370
     9
100
AcDbLine
 10
-626.0212016474431
 20
667.6096653293919
 30
0.0
 11
-608.0209443100275
 21
667.6096653293919
 31
0.0
  0
LINE
  5
15B
330
1F
100
AcDbEntity
  8
C-2
  6
Continuous
 62
     3
370
     9
100
AcDbLine
 10
-604.0213270169534
 20
721.1088768211573
 30
0.0
 11
-604.0213270169534
 21
617.1104142472552
 31
0.0
  0
LINE
  5
15C
330
1F
100
AcDbEntity
  8
C-2
  6
Continuous
 62
     3
370
     9
100
AcDbLine
 10
-608.0209443100275
 20
721.1088768211573
 30
0.0
 11
-608.0209443100275
 21
617.1104142472552
 31
0.0
  0
LINE
  5
15D
330
1F
100
AcDbEntity
  8
C-2
  6
Continuous
 62
     3
370
     9
100
AcDbLine
 10
-604.0213270169534
 20
670.6096257390203
 30
0.0
 11
-586.0210696795377
 21
670.6096257390203
 31
0.0
  0
LINE
  5
15E
330
1F
100
AcDbEntity
  8
C-2
  6
Continuous
 62
     3
370
     9
100
AcDbLine
 10
-604.0213270169534
 20
667.6096653293919
 30
0.0
 11
-586.0210696795377
 21
667.6096653293919
 31
0.0
  0
LINE
  5
15F
330
1F
100
AcDbEntity
  8
C-2
  6
Continuous
 62
     3
370
     9
100
AcDbLine
 10
-582.0216998262862
 20
721.1088768211573
 30
0.0
 11
-582.0216998262862
 21
617.1104142472552
 31
0.0
  0
LINE
  5
160
330
1F
100
AcDbEntity
  8
C-2
  6
Continuous
 62
     3
370
     9
100
AcDbLine
 10
-586.0210696795377
 20
721.1088768211573
 30
0.0
 11
-586.0210696795377
 21
617.1104142472552
 31
0.0
  0
LINE
  5
161
330
1F
100
AcDbEntity
  8
C-2
  6
Continuous
 62
     3
370
     9
100
AcDbLine
 10
-582.0216998262862
 20
670.6096257390203
 30
0.0
 11
-564.0216899286931
 21
670.6096257390203
 31
0.0
  0
LINE
  5
162
330
1F
100
AcDbEntity
  8
C-2
  6
Continuous
 62
     3
370
     9
100
AcDbLine
 10
-582.0216998262862
 20
667.6096653293919
 30
0.0
 11
-564.0216899286931
 21
667.6096653293919
 31
0.0
  0
LINE
  5
163
330
1F
100
AcDbEntity
  8
C-2
  6
Continuous
 62
     3
370
     9
100
AcDbLine
 10
-560.0213303161511
 20
721.1088768211573
 30
0.0
 11
-560.0213303161511
 21
617.1104142472552
 31
0.0
  0
LINE
  5
164
330
1F
100
AcDbEntity
  8
C-2
  6
Continuous
 62
     3
370
     9
100
AcDbLine
 10
-564.0216899286931
 20
721.1088768211573
 30
0.0
 11
-564.0216899286931
 21
617.1104142472552
 31
0.0
  0
LINE
  5
165
330
1F
100
AcDbEntity
  8
C-2
  6
Continuous
 62
     3
370
     9
100
AcDbLine
 10
-560.0213303161511
 20
670.6096257390203
 30
0.0
 11
-542.021320418558
 21
670.6096257390203
 31
0.0
  0
LINE
  5
166
330
1F
100
AcDbEntity
  8
C-2
  6
Continuous
 62
     3
370
     9
100
AcDbLine
 10
-560.0213303161511
 20
667.6096653293919
 30
0.0
 11
-542.021320418558
 21
667.6096653293919
 31
0.0
  0
LINE
  5
167
330
1F
100
AcDbEntity
  8
C-2
  6
Continuous
 62
     3
370
     9
100
AcDbLine
 10
-538.0209608060159
 20
721.1088768211573
 30
0.0
 11
-538.0209608060159
 21
617.1104142472552
 31
0.0
  0
LINE
  5
168
330
1F
100
AcDbEntity
  8
C-2
  6
Continuous
 62
     3
370
     9
100
AcDbLine
 10
-542.021320418558
 20
721.1088768211573
 30
0.0
 11
-542.021320418558
 21
617.1104142472552
 31
0.0
  0
LINE
  5
169
330
1F
100
AcDbEntity
  8
C-2
  6
Continuous
 62
     3
370
     9
100
AcDbLine
 10
-538.0209608060159
 20
670.6096257390203
 30
0.0
 11
-520.0211983482455
 21
670.6096257390203
 31
0.0
  0
LINE
  5
16A
330
1F
100
AcDbEntity
  8
C-2
  6
Continuous
 62
     3
370
     9
100
AcDbLine
 10
-538.0209608060159
 20
667.6096653293919
 30
0.0
 11
-520.0211983482455
 21
667.6096653293919
 31
0.0
  0
LINE
  5
16B
330
1F
100
AcDbEntity
  8
C-2
  6
Continuous
 62
     3
370
     9
100
AcDbLine
 10
-520.0211983482455
 20
721.1088768211573
 30
0.0
 11
-520.0211983482455
 21
617.1104142472552
 31
0.0
  0
LINE
  5
16C
330
1F
100
AcDbEntity
  8
C-2
  6
Continuous
 62
     3
370
     9
100
AcDbLine
 10
-516.0208387357034
 20
721.1088768211573
 30
0.0
 11
-516.0208387357034
 21
617.1104142472552
 31
0.0
  0
LINE
  5
16D
330
1F
100
AcDbEntity
  8
C-2
  6
Continuous
 62
     3
370
     9
100
AcDbLine
 10
-1510.02124783621
 20
721.1088768211573
 30
0.0
 11
-1510.02124783621
 21
617.1104142472552
 31
0.0
  0
LINE
  5
16E
330
1F
100
AcDbEntity
  8
C-1
  6
Continuous
 62
     2
370
     9
100
AcDbLine
 10
-1510.02124783621
 20
617.1099193676099
 30
0.0
 11
-516.0208387357034
 21
617.1099193676099
 31
0.0
  0
LINE
  5
16F
330
1F
100
AcDbEntity
  8
C-1
  6
Continuous
 62
     2
370
     9
100
AcDbLine
 10
-516.0208387357034
 20
751.1089757970863
 30
0.0
 11
-1510.02124783621
 21
751.1089757970863
 31
0.0
  0
LINE
  5
170
330
1F
100
AcDbEntity
  8
C-1
  6
Continuous
 62
     2
370
     9
100
AcDbLine
 10
-1510.02124783621
 20
587.1093255120356
 30
0.0
 11
-516.0208387357034
 21
587.1093255120356
 31
0.0
  0
LINE
  5
171
330
1F
100
AcDbEntity
  8
C-1
  6
Continuous
 62
     2
370
     9
100
AcDbLine
 10
-1510.02124783621
 20
721.1088768211573
 30
0.0
 11
-1510.02124783621
 21
751.1089757970863
 31
0.0
  0
LINE
  5
172
330
1F
100
AcDbEntity
  8
C-1
  6
Continuous
 62
     2
370
     9
100
AcDbLine
 10
-1510.02124783621
 20
587.1093255120356
 30
0.0
 11
-1510.02124783621
 21
617.1099193676099
 31
0.0
  0
LINE
  5
173
330
1F
100
AcDbEntity
  8
C-1
  6
Continuous
 62
     2
370
     9
100
AcDbLine
 10
-516.0208387357034
 20
751.1089757970863
 30
0.0
 11
-516.0208387357034
 21
721.1088768211573
 31
0.0
  0
LINE
  5
174
330
1F
100
AcDbEntity
  8
C-1
  6
Continuous
 62
     2
370
     9
100
AcDbLine
 10
-516.0208387357034
 20
617.1099193676099
 30
0.0
 11
-516.0208387357034
 21
587.1093255120356
 31
0.0
  0
LINE
  5
175
330
1F
100
AcDbEntity
  8
C-1
  6
JWW_DASHED3
 62
     2
370
     9
100
AcDbLine
 10
-1510.02124783621
 20
614.1099589579815
 30
0.0
 11
-516.0208387357034
 21
614.1099589579815
 31
0.0
  0
LINE
  5
176
330
1F
100
AcDbEntity
  8
C-1
  6
Continuous
 62
     2
370
     9
100
AcDbLine
 10
-516.0208387357034
 20
721.1088768211573
 30
0.0
 11
-1510.02124783621
 21
721.1088768211573
 31
0.0
  0
LINE
  5
177
330
1F
100
AcDbEntity
  8
C-1
  6
JWW_DASHED3
 62
     2
370
     9
100
AcDbLine
 10
-516.0208387357034
 20
724.1093321104307
 30
0.0
 11
-1510.02124783621
 21
724.1093321104307
 31
0.0
  0
LINE
  5
178
330
1F
100
AcDbEntity
  8
C-1
  6
JWW_PHANTOM1
 62
     2
370
     9
100
AcDbLine
 10
-1512.021922522126
 20
751.1089757970863
 30
0.0
 11
-1662.021551362393
 21
751.1089757970863
 31
0.0
  0
LINE
  5
179
330
1F
100
AcDbEntity
  8
C-1
  6
JWW_PHANTOM1
 62
     2
370
     9
100
AcDbLine
 10
-1512.021922522126
 20
587.1093255120356
 30
0.0
 11
-1512.021922522126
 21
751.1089757970863
 31
0.0
  0
LINE
  5
17A
330
1F
100
AcDbEntity
  8
C-1
  6
JWW_PHANTOM1
 62
     2
370
     9
100
AcDbLine
 10
-1512.021922522126
 20
587.1093255120356
 30
0.0
 11
-1662.021551362393
 21
587.1093255120356
 31
0.0
  0
LINE
  5
17B
330
1F
100
AcDbEntity
  8
C-1
  6
JWW_PHANTOM1
 62
     2
370
     9
100
AcDbLine
 10
-1512.021922522126
 20
721.1088768211573
 30
0.0
 11
-1662.021551362393
 21
721.1088768211573
 31
0.0
  0
LINE
  5
17C
330
1F
100
AcDbEntity
  8
C-1
  6
JWW_PHANTOM1
 62
     2
370
     9
100
AcDbLine
 10
-1512.021922522126
 20
617.1099193676099
 30
0.0
 11
-1662.021551362393
 21
617.1099193676099
 31
0.0
  0
LINE
  5
17D
330
1F
100
AcDbEntity
  8
C-1
  6
JWW_PHANTOM1
 62
     2
370
     9
100
AcDbLine
 10
-514.0220198484567
 20
751.1089757970863
 30
0.0
 11
-364.0222672882791
 21
751.1089757970863
 31
0.0
  0
LINE
  5
17E
330
1F
100
AcDbEntity
  8
C-1
  6
JWW_PHANTOM1
 62
     2
370
     9
100
AcDbLine
 10
-514.0220198484567
 20
587.1093255120356
 30
0.0
 11
-514.0220198484567
 21
751.1089757970863
 31
0.0
  0
LINE
  5
17F
330
1F
100
AcDbEntity
  8
C-1
  6
JWW_PHANTOM1
 62
     2
370
     9
100
AcDbLine
 10
-514.0220198484567
 20
587.1093255120356
 30
0.0
 11
-364.0222672882791
 21
587.1093255120356
 31
0.0
  0
LINE
  5
180
330
1F
100
AcDbEntity
  8
C-1
  6
JWW_PHANTOM1
 62
     2
370
     9
100
AcDbLine
 10
-514.0220198484567
 20
721.1088768211573
 30
0.0
 11
-364.0222672882791
 21
721.1088768211573
 31
0.0
  0
LINE
  5
181
330
1F
100
AcDbEntity
  8
C-1
  6
JWW_PHANTOM1
 62
     2
370
     9
100
AcDbLine
 10
-514.0220198484567
 20
617.1099193676099
 30
0.0
 11
-364.0222672882791
 21
617.1099193676099
 31
0.0
  0
LINE
  5
182
330
1F
100
AcDbEntity
  8
C-1
  6
Continuous
 62
     2
370
     9
100
AcDbLine
 10
-1679.342215226941
 20
659.1093651024073
 30
0.0
 11
-1644.701506097401
 21
679.1094310863599
 31
0.0
  0
LINE
  5
183
330
1F
100
AcDbEntity
  8
C-1
  6
Continuous
 62
     2
370
     9
100
AcDbLine
 10
-1662.021551362393
 20
771.1095366606842
 30
0.0
 11
-1662.021551362393
 21
679.1094310863599
 31
0.0
  0
LINE
  5
184
330
1F
100
AcDbEntity
  8
C-1
  6
Continuous
 62
     2
370
     9
100
AcDbLine
 10
-1662.021551362393
 20
679.1094310863599
 30
0.0
 11
-1644.701506097401
 21
679.1094310863599
 31
0.0
  0
LINE
  5
185
330
1F
100
AcDbEntity
  8
C-1
  6
Continuous
 62
     2
370
     9
100
AcDbLine
 10
-1679.342215226941
 20
659.1093651024073
 30
0.0
 11
-1662.021551362393
 21
659.1093651024073
 31
0.0
  0
LINE
  5
186
330
1F
100
AcDbEntity
  8
C-1
  6
Continuous
 62
     2
370
     9
100
AcDbLine
 10
-1662.021551362393
 20
659.1093651024073
 30
0.0
 11
-1662.021551362393
 21
567.1092595280828
 31
0.0
  0
LINE
  5
187
330
1F
100
AcDbEntity
  8
C-1
  6
Continuous
 62
     2
370
     9
100
AcDbLine
 10
-381.3428074329161
 20
659.1093651024073
 30
0.0
 11
-346.702222023288
 21
679.1094310863599
 31
0.0
  0
LINE
  5
188
330
1F
100
AcDbEntity
  8
C-1
  6
Continuous
 62
     2
370
     9
100
AcDbLine
 10
-364.0222672882791
 20
771.1095366606842
 30
0.0
 11
-364.0222672882791
 21
679.1094310863599
 31
0.0
  0
LINE
  5
189
330
1F
100
AcDbEntity
  8
C-1
  6
Continuous
 62
     2
370
     9
100
AcDbLine
 10
-364.0222672882791
 20
679.1094310863599
 30
0.0
 11
-346.702222023288
 21
679.1094310863599
 31
0.0
  0
LINE
  5
18A
330
1F
100
AcDbEntity
  8
C-1
  6
Continuous
 62
     2
370
     9
100
AcDbLine
 10
-381.3428074329161
 20
659.1093651024073
 30
0.0
 11
-364.0222672882791
 21
659.1093651024073
 31
0.0
  0
LINE
  5
18B
330
1F
100
AcDbEntity
  8
C-1
  6
Continuous
 62
     2
370
     9
100
AcDbLine
 10
-364.0222672882791
 20
659.1093651024073
 30
0.0
 11
-364.0222672882791
 21
567.1092595280828
 31
0.0
  0
LINE
  5
18C
330
1F
100
AcDbEntity
  8
C-4
  6
Continuous
 62
     7
370
     9
100
AcDbLine
 10
-1512.021922522126
 20
763.1083225559544
 30
0.0
 11
-1512.021922522126
 21
846.108299461571
 31
0.0
  0
LINE
  5
18D
330
1F
100
AcDbEntity
  8
C-4
  6
Continuous
 62
     7
370
     9
100
AcDbLine
 10
-1510.02124783621
 20
763.1083225559544
 30
0.0
 11
-1510.02124783621
 21
926.1085633973818
 31
0.0
  0
LINE
  5
18E
330
1F
100
AcDbEntity
  8
C-4
  6
Continuous
 62
     7
370
     9
100
AcDbLine
 10
-516.021828494994
 20
763.1083225559544
 30
0.0
 11
-516.021828494994
 21
846.108299461571
 31
0.0
  0
LINE
  5
18F
330
1F
100
AcDbEntity
  8
C-4
  6
Continuous
 62
     7
370
     9
100
AcDbLine
 10
-514.0220198484567
 20
763.1083225559544
 30
0.0
 11
-514.0220198484567
 21
926.1085633973818
 31
0.0
  0
LINE
  5
190
330
1F
100
AcDbEntity
  8
C-4
  6
Continuous
 62
     7
370
     9
100
AcDbLine
 10
-1662.021551362393
 20
923.1081081081084
 30
0.0
 11
-364.0222672882791
 21
923.1081081081084
 31
0.0
  0
LINE
  5
191
330
1F
100
AcDbEntity
  8
C-4
  6
Continuous
 62
     7
370
     9
100
AcDbLine
 10
-1662.021551362393
 20
843.1085864917654
 30
0.0
 11
-364.0222672882791
 21
843.1085864917654
 31
0.0
  0
LINE
  5
192
330
1F
100
AcDbEntity
  8
C-5
  6
Continuous
 62
     7
370
     9
100
AcDbLine
 10
-1301.521030089166
 20
422.1097709037164
 30
0.0
 11
-1301.521030089166
 21
487.109366752006
 31
0.0
  0
LINE
  5
193
330
1F
100
AcDbEntity
  8
C-5
  6
Continuous
 62
     7
370
     9
100
AcDbLine
 10
-1301.521030089166
 20
487.109366752006
 30
0.0
 11
-726.521112569107
 21
487.109366752006
 31
0.0
  0
LINE
  5
194
330
1F
100
AcDbEntity
  8
C-5
  6
Continuous
 62
     7
370
     9
100
AcDbLine
 10
-726.521112569107
 20
487.109366752006
 30
0.0
 11
-726.521112569107
 21
422.1097709037164
 31
0.0
  0
LINE
  5
195
330
1F
100
AcDbEntity
  8
C-5
  6
Continuous
 62
     7
370
     9
100
AcDbLine
 10
-726.521112569107
 20
422.1097709037164
 30
0.0
 11
-1301.521030089166
 21
422.1097709037164
 31
0.0
  0
LINE
  5
196
330
1F
100
AcDbEntity
  8
C-4
  6
Continuous
 62
     7
370
     9
100
AcDbLine
 10
-650.0201426050023
 20
771.1090417810391
 30
0.0
 11
-628.0210102939805
 21
771.1090417810391
 31
0.0
  0
LINE
  5
197
330
1F
100
AcDbEntity
  8
C-4
  6
Continuous
 62
     7
370
     9
100
AcDbLine
 10
-628.0210102939805
 20
711.109338708826
 30
0.0
 11
-628.0210102939805
 21
774.1092496304901
 31
0.0
  0
LINE
  5
198
330
1F
100
AcDbEntity
  8
C-4
  6
Continuous
 62
     7
370
     9
100
AcDbLine
 10
-650.0201426050023
 20
711.109338708826
 30
0.0
 11
-650.0201426050023
 21
774.1092496304901
 31
0.0
  0
LINE
  5
199
330
1F
100
AcDbEntity
  8
C-9
  6
Continuous
 62
     6
370
     5
100
AcDbLine
 10
-1510.02124783621
 20
654.8160367398648
 30
0.0
 11
-1506.021011943579
 21
650.8161720069679
 31
0.0
  0
LINE
  5
19A
330
1F
100
AcDbEntity
  8
C-9
  6
Continuous
 62
     6
370
     5
100
AcDbLine
 10
-1510.02124783621
 20
657.64476879223
 30
0.0
 11
-1506.021011943579
 21
653.6444091796875
 31
0.0
  0
LINE
  5
19B
330
1F
100
AcDbEntity
  8
C-9
  6
Continuous
 62
     6
370
     5
100
AcDbLine
 10
-1510.02124783621
 20
660.4730059649495
 30
0.0
 11
-1506.021011943579
 21
656.47289379223
 31
0.0
  0
LINE
  5
19C
330
1F
100
AcDbEntity
  8
C-9
  6
Continuous
 62
     6
370
     5
100
AcDbLine
 10
-1510.02124783621
 20
663.3014905774917
 30
0.0
 11
-1506.021011943579
 21
659.3016258445948
 31
0.0
  0
LINE
  5
19D
330
1F
100
AcDbEntity
  8
C-9
  6
Continuous
 62
     6
370
     5
100
AcDbLine
 10
-1510.02124783621
 20
666.1297277502113
 30
0.0
 11
-1506.021011943579
 21
662.1298630173144
 31
0.0
  0
LINE
  5
19E
330
1F
100
AcDbEntity
  8
C-9
  6
Continuous
 62
     6
370
     5
100
AcDbLine
 10
-1510.02124783621
 20
668.9582123627533
 30
0.0
 11
-1506.021011943579
 21
664.9583476298565
 31
0.0
  0
LINE
  5
19F
330
1F
100
AcDbEntity
  8
C-9
  6
Continuous
 62
     6
370
     5
100
AcDbLine
 10
-1510.02124783621
 20
671.7869444151182
 30
0.0
 11
-1506.021011943579
 21
667.786584802576
 31
0.0
  0
LINE
  5
1A0
330
1F
100
AcDbEntity
  8
C-9
  6
Continuous
 62
     6
370
     5
100
AcDbLine
 10
-1510.02124783621
 20
674.615181587838
 30
0.0
 11
-1506.021011943579
 21
670.6150694151182
 31
0.0
  0
LINE
  5
1A1
330
1F
100
AcDbEntity
  8
C-9
  6
Continuous
 62
     6
370
     5
100
AcDbLine
 10
-1510.02124783621
 20
677.4436662003802
 30
0.0
 11
-1506.021011943579
 21
673.443306587838
 31
0.0
  0
LINE
  5
1A2
330
1F
100
AcDbEntity
  8
C-9
  6
Continuous
 62
     6
370
     5
100
AcDbLine
 10
-1510.02124783621
 20
680.2719033730998
 30
0.0
 11
-1506.021011943579
 21
676.2720386402029
 31
0.0
  0
LINE
  5
1A3
330
1F
100
AcDbEntity
  8
C-9
  6
Continuous
 62
     6
370
     5
100
AcDbLine
 10
-1510.02124783621
 20
683.1003879856419
 30
0.0
 11
-1506.021011943579
 21
679.100523252745
 31
0.0
  0
LINE
  5
1A4
330
1F
100
AcDbEntity
  8
C-9
  6
Continuous
 62
     6
370
     5
100
AcDbLine
 10
-1510.02124783621
 20
685.9286251583617
 30
0.0
 11
-1506.021011943579
 21
681.9287604254646
 31
0.0
  0
LINE
  5
1A5
330
1F
100
AcDbEntity
  8
C-9
  6
Continuous
 62
     6
370
     5
100
AcDbLine
 10
-1510.02124783621
 20
688.7573572107266
 30
0.0
 11
-1506.021011943579
 21
684.7572450380068
 31
0.0
  0
LINE
  5
1A6
330
1F
100
AcDbEntity
  8
C-9
  6
Continuous
 62
     6
370
     5
100
AcDbLine
 10
-1510.02124783621
 20
691.5858418232688
 30
0.0
 11
-1506.021011943579
 21
687.5854822107266
 31
0.0
  0
LINE
  5
1A7
330
1F
100
AcDbEntity
  8
C-9
  6
Continuous
 62
     6
370
     5
100
AcDbLine
 10
-1510.02124783621
 20
694.4140789959883
 30
0.0
 11
-1506.021011943579
 21
690.4139668232688
 31
0.0
  0
LINE
  5
1A8
330
1F
100
AcDbEntity
  8
C-9
  6
Continuous
 62
     6
370
     5
100
AcDbLine
 10
-1510.02124783621
 20
697.2420687288852
 30
0.0
 11
-1506.021011943579
 21
693.2422039959883
 31
0.0
  0
LINE
  5
1A9
330
1F
100
AcDbEntity
  8
C-9
  6
Continuous
 62
     6
370
     5
100
AcDbLine
 10
-1510.02124783621
 20
700.07080078125
 30
0.0
 11
-1506.021011943579
 21
696.0709360483531
 31
0.0
  0
LINE
  5
1AA
330
1F
100
AcDbEntity
  8
C-9
  6
Continuous
 62
     6
370
     5
100
AcDbLine
 10
-1510.02124783621
 20
702.8992853937925
 30
0.0
 11
-1506.021011943579
 21
698.8994206608953
 31
0.0
  0
LINE
  5
1AB
330
1F
100
AcDbEntity
  8
C-9
  6
Continuous
 62
     6
370
     5
100
AcDbLine
 10
-1510.02124783621
 20
705.727522566512
 30
0.0
 11
-1506.021011943579
 21
701.7276578336151
 31
0.0
  0
LINE
  5
1AC
330
1F
100
AcDbEntity
  8
C-9
  6
Continuous
 62
     6
370
     5
100
AcDbLine
 10
-1510.02124783621
 20
708.5562546188769
 30
0.0
 11
-1506.021011943579
 21
704.5561424461573
 31
0.0
  0
LINE
  5
1AD
330
1F
100
AcDbEntity
  8
C-9
  6
Continuous
 62
     6
370
     5
100
AcDbLine
 10
-1510.02124783621
 20
711.384739231419
 30
0.0
 11
-1506.021011943579
 21
707.3843796188769
 31
0.0
  0
LINE
  5
1AE
330
1F
100
AcDbEntity
  8
C-9
  6
Continuous
 62
     6
370
     5
100
AcDbLine
 10
-1510.02124783621
 20
714.2129764041385
 30
0.0
 11
-1506.021011943579
 21
710.2131116712417
 31
0.0
  0
LINE
  5
1AF
330
1F
100
AcDbEntity
  8
C-9
  6
Continuous
 62
     6
370
     5
100
AcDbLine
 10
-1510.02124783621
 20
717.0412135768584
 30
0.0
 11
-1506.021011943579
 21
713.0411014041385
 31
0.0
  0
LINE
  5
1B0
330
1F
100
AcDbEntity
  8
C-9
  6
Continuous
 62
     6
370
     5
100
AcDbLine
 10
-1510.02124783621
 20
719.8696981894005
 30
0.0
 11
-1506.021011943579
 21
715.8698334565033
 31
0.0
  0
LINE
  5
1B1
330
1F
100
AcDbEntity
  8
C-9
  6
Continuous
 62
     6
370
     5
100
AcDbLine
 10
-1508.431694415602
 20
721.1088768211573
 30
0.0
 11
-1506.021011943579
 21
718.6983180690459
 31
0.0
  0
LINE
  5
1B2
330
1F
100
AcDbEntity
  8
C-9
  6
Continuous
 62
     6
370
     5
100
AcDbLine
 10
-1510.02124783621
 20
646.6077155035896
 30
0.0
 11
-1506.021011943579
 21
650.6080751161318
 31
0.0
  0
LINE
  5
1B3
330
1F
100
AcDbEntity
  8
C-9
  6
Continuous
 62
     6
370
     5
100
AcDbLine
 10
-1510.02124783621
 20
649.4364475559544
 30
0.0
 11
-1506.021011943579
 21
653.4363122888516
 31
0.0
  0
LINE
  5
1B4
330
1F
100
AcDbEntity
  8
C-9
  6
Continuous
 62
     6
370
     5
100
AcDbLine
 10
-1510.02124783621
 20
652.2644372888516
 30
0.0
 11
-1506.021011943579
 21
656.2647969013938
 31
0.0
  0
LINE
  5
1B5
330
1F
100
AcDbEntity
  8
C-9
  6
Continuous
 62
     6
370
     5
100
AcDbLine
 10
-1510.02124783621
 20
655.0931693412165
 30
0.0
 11
-1506.021011943579
 21
659.0930340741133
 31
0.0
  0
LINE
  5
1B6
330
1F
100
AcDbEntity
  8
C-9
  6
Continuous
 62
     6
370
     5
100
AcDbLine
 10
-1510.02124783621
 20
657.9216539537586
 30
0.0
 11
-1506.021011943579
 21
661.9215186866554
 31
0.0
  0
LINE
  5
1B7
330
1F
100
AcDbEntity
  8
C-9
  6
Continuous
 62
     6
370
     5
100
AcDbLine
 10
-1510.02124783621
 20
660.7498911264781
 30
0.0
 11
-1506.021011943579
 21
664.749755859375
 31
0.0
  0
LINE
  5
1B8
330
1F
100
AcDbEntity
  8
C-9
  6
Continuous
 62
     6
370
     5
100
AcDbLine
 10
-1510.02124783621
 20
663.5783757390203
 30
0.0
 11
-1506.021011943579
 21
667.5784879117401
 31
0.0
  0
LINE
  5
1B9
330
1F
100
AcDbEntity
  8
C-9
  6
Continuous
 62
     6
370
     5
100
AcDbLine
 10
-1510.02124783621
 20
666.4066129117401
 30
0.0
 11
-1506.021011943579
 21
670.4069725242823
 31
0.0
  0
LINE
  5
1BA
330
1F
100
AcDbEntity
  8
C-9
  6
Continuous
 62
     6
370
     5
100
AcDbLine
 10
-1510.02124783621
 20
669.235344964105
 30
0.0
 11
-1506.021011943579
 21
673.2352096970019
 31
0.0
  0
LINE
  5
1BB
330
1F
100
AcDbEntity
  8
C-9
  6
Continuous
 62
     6
370
     5
100
AcDbLine
 10
-1510.02124783621
 20
672.0633346970019
 30
0.0
 11
-1506.021011943579
 21
676.063694309544
 31
0.0
  0
LINE
  5
1BC
330
1F
100
AcDbEntity
  8
C-9
  6
Continuous
 62
     6
370
     5
100
AcDbLine
 10
-1510.02124783621
 20
674.8920667493667
 30
0.0
 11
-1506.021011943579
 21
678.8919314822635
 31
0.0
  0
LINE
  5
1BD
330
1F
100
AcDbEntity
  8
C-9
  6
Continuous
 62
     6
370
     5
100
AcDbLine
 10
-1510.02124783621
 20
677.7205513619089
 30
0.0
 11
-1506.021011943579
 21
681.7206635346283
 31
0.0
  0
LINE
  5
1BE
330
1F
100
AcDbEntity
  8
C-9
  6
Continuous
 62
     6
370
     5
100
AcDbLine
 10
-1510.02124783621
 20
680.5487885346283
 30
0.0
 11
-1506.021011943579
 21
684.5486532675255
 31
0.0
  0
LINE
  5
1BF
330
1F
100
AcDbEntity
  8
C-9
  6
Continuous
 62
     6
370
     5
100
AcDbLine
 10
-1510.02124783621
 20
683.3775205869932
 30
0.0
 11
-1506.021011943579
 21
687.3773853198904
 31
0.0
  0
LINE
  5
1C0
330
1F
100
AcDbEntity
  8
C-9
  6
Continuous
 62
     6
370
     5
100
AcDbLine
 10
-1510.02124783621
 20
686.2055103198904
 30
0.0
 11
-1506.021011943579
 21
690.2053750527873
 31
0.0
  0
LINE
  5
1C1
330
1F
100
AcDbEntity
  8
C-9
  6
Continuous
 62
     6
370
     5
100
AcDbLine
 10
-1510.02124783621
 20
689.0342423722552
 30
0.0
 11
-1506.021011943579
 21
693.0341071051521
 31
0.0
  0
LINE
  5
1C2
330
1F
100
AcDbEntity
  8
C-9
  6
Continuous
 62
     6
370
     5
100
AcDbLine
 10
-1510.02124783621
 20
691.8627269847974
 30
0.0
 11
-1506.021011943579
 21
695.8628391575169
 31
0.0
  0
LINE
  5
1C3
330
1F
100
AcDbEntity
  8
C-9
  6
Continuous
 62
     6
370
     5
100
AcDbLine
 10
-1510.02124783621
 20
694.6909641575169
 30
0.0
 11
-1506.021011943579
 21
698.6908288904141
 31
0.0
  0
LINE
  5
1C4
330
1F
100
AcDbEntity
  8
C-9
  6
Continuous
 62
     6
370
     5
100
AcDbLine
 10
-1510.02124783621
 20
697.5196962098818
 30
0.0
 11
-1506.021011943579
 21
701.519560942779
 31
0.0
  0
LINE
  5
1C5
330
1F
100
AcDbEntity
  8
C-9
  6
Continuous
 62
     6
370
     5
100
AcDbLine
 10
-1510.02124783621
 20
700.347685942779
 30
0.0
 11
-1506.021011943579
 21
704.3475506756758
 31
0.0
  0
LINE
  5
1C6
330
1F
100
AcDbEntity
  8
C-9
  6
Continuous
 62
     6
370
     5
100
AcDbLine
 10
-1510.02124783621
 20
703.1764179951438
 30
0.0
 11
-1506.021011943579
 21
707.1762827280406
 31
0.0
  0
LINE
  5
1C7
330
1F
100
AcDbEntity
  8
C-9
  6
Continuous
 62
     6
370
     5
100
AcDbLine
 10
-1510.02124783621
 20
706.0044077280406
 30
0.0
 11
-1506.021011943579
 21
710.0050147804054
 31
0.0
  0
LINE
  5
1C8
330
1F
100
AcDbEntity
  8
C-9
  6
Continuous
 62
     6
370
     5
100
AcDbLine
 10
-1510.02124783621
 20
708.8331397804054
 30
0.0
 11
-1506.021011943579
 21
712.8330045133026
 31
0.0
  0
LINE
  5
1C9
330
1F
100
AcDbEntity
  8
C-9
  6
Continuous
 62
     6
370
     5
100
AcDbLine
 10
-1510.02124783621
 20
711.6618718327703
 30
0.0
 11
-1506.021011943579
 21
715.6617365656675
 31
0.0
  0
LINE
  5
1CA
330
1F
100
AcDbEntity
  8
C-9
  6
Continuous
 62
     6
370
     5
100
AcDbLine
 10
-1510.02124783621
 20
714.4898615656675
 30
0.0
 11
-1506.021011943579
 21
718.4897262985644
 31
0.0
  0
LINE
  5
1CB
330
1F
100
AcDbEntity
  8
C-9
  6
Continuous
 62
     6
370
     5
100
AcDbLine
 10
-1510.02124783621
 20
717.318098738387
 30
0.0
 11
-1506.230593473351
 21
721.1088768211573
 31
0.0
  0
LINE
  5
1CC
330
1F
100
AcDbEntity
  8
C-9
  6
Continuous
 62
     6
370
     5
100
AcDbLine
 10
-1510.02124783621
 20
720.1465833509292
 30
0.0
 11
-1509.059325525716
 21
721.1088768211573
 31
0.0
  0
LINE
  5
1CD
330
1F
100
AcDbEntity
  8
C-9
  6
Continuous
 62
     6
370
     5
100
AcDbLine
 10
-1488.021496925631
 20
655.9512906461148
 30
0.0
 11
-1484.021508472823
 21
659.951155379012
 31
0.0
  0
LINE
  5
1CE
330
1F
100
AcDbEntity
  8
C-9
  6
Continuous
 62
     6
370
     5
100
AcDbLine
 10
-1488.021496925631
 20
658.7795278188346
 30
0.0
 11
-1484.021508472823
 21
662.7793925517315
 31
0.0
  0
LINE
  5
1CF
330
1F
100
AcDbEntity
  8
C-9
  6
Continuous
 62
     6
370
     5
100
AcDbLine
 10
-1488.021496925631
 20
661.6080124313769
 30
0.0
 11
-1484.021508472823
 21
665.6078771642738
 31
0.0
  0
LINE
  5
1D0
330
1F
100
AcDbEntity
  8
C-9
  6
Continuous
 62
     6
370
     5
100
AcDbLine
 10
-1488.021496925631
 20
664.4362496040964
 30
0.0
 11
-1484.021508472823
 21
668.4366092166385
 31
0.0
  0
LINE
  5
1D1
330
1F
100
AcDbEntity
  8
C-9
  6
Continuous
 62
     6
370
     5
100
AcDbLine
 10
-1488.021496925631
 20
667.2647342166385
 30
0.0
 11
-1484.021508472823
 21
671.2648463893584
 31
0.0
  0
LINE
  5
1D2
330
1F
100
AcDbEntity
  8
C-9
  6
Continuous
 62
     6
370
     5
100
AcDbLine
 10
-1488.021496925631
 20
670.0929713893584
 30
0.0
 11
-1484.021508472823
 21
674.0933310019005
 31
0.0
  0
LINE
  5
1D3
330
1F
100
AcDbEntity
  8
C-9
  6
Continuous
 62
     6
370
     5
100
AcDbLine
 10
-1488.021496925631
 20
672.9214560019005
 30
0.0
 11
-1484.021508472823
 21
676.92156817462
 31
0.0
  0
LINE
  5
1D4
330
1F
100
AcDbEntity
  8
C-9
  6
Continuous
 62
     6
370
     5
100
AcDbLine
 10
-1488.021496925631
 20
675.7501880542654
 30
0.0
 11
-1484.021508472823
 21
679.7500527871623
 31
0.0
  0
LINE
  5
1D5
330
1F
100
AcDbEntity
  8
C-9
  6
Continuous
 62
     6
370
     5
100
AcDbLine
 10
-1488.021496925631
 20
678.5781777871623
 30
0.0
 11
-1484.021508472823
 21
682.5782899598818
 31
0.0
  0
LINE
  5
1D6
330
1F
100
AcDbEntity
  8
C-9
  6
Continuous
 62
     6
370
     5
100
AcDbLine
 10
-1488.021496925631
 20
681.4069098395271
 30
0.0
 11
-1484.021508472823
 21
685.4067745724242
 31
0.0
  0
LINE
  5
1D7
330
1F
100
AcDbEntity
  8
C-9
  6
Continuous
 62
     6
370
     5
100
AcDbLine
 10
-1488.021496925631
 20
684.2351470122467
 30
0.0
 11
-1484.021508472823
 21
688.2355066247891
 31
0.0
  0
LINE
  5
1D8
330
1F
100
AcDbEntity
  8
C-9
  6
Continuous
 62
     6
370
     5
100
AcDbLine
 10
-1488.021496925631
 20
687.0636316247891
 30
0.0
 11
-1484.021508472823
 21
691.063496357686
 31
0.0
  0
LINE
  5
1D9
330
1F
100
AcDbEntity
  8
C-9
  6
Continuous
 62
     6
370
     5
100
AcDbLine
 10
-1488.021496925631
 20
689.8918687975086
 30
0.0
 11
-1484.021508472823
 21
693.8922284100508
 31
0.0
  0
LINE
  5
1DA
330
1F
100
AcDbEntity
  8
C-9
  6
Continuous
 62
     6
370
     5
100
AcDbLine
 10
-1488.021496925631
 20
692.7203534100508
 30
0.0
 11
-1484.021508472823
 21
696.7204655827703
 31
0.0
  0
LINE
  5
1DB
330
1F
100
AcDbEntity
  8
C-9
  6
Continuous
 62
     6
370
     5
100
AcDbLine
 10
-1488.021496925631
 20
695.5490854624156
 30
0.0
 11
-1484.021508472823
 21
699.5489501953125
 31
0.0
  0
LINE
  5
1DC
330
1F
100
AcDbEntity
  8
C-9
  6
Continuous
 62
     6
370
     5
100
AcDbLine
 10
-1488.021496925631
 20
698.3773226351352
 30
0.0
 11
-1484.021508472823
 21
702.3771873680323
 31
0.0
  0
LINE
  5
1DD
330
1F
100
AcDbEntity
  8
C-9
  6
Continuous
 62
     6
370
     5
100
AcDbLine
 10
-1488.021496925631
 20
701.2058072476776
 30
0.0
 11
-1484.021508472823
 21
705.2059194203971
 31
0.0
  0
LINE
  5
1DE
330
1F
100
AcDbEntity
  8
C-9
  6
Continuous
 62
     6
370
     5
100
AcDbLine
 10
-1488.021496925631
 20
704.0340444203971
 30
0.0
 11
-1484.021508472823
 21
708.0344040329394
 31
0.0
  0
LINE
  5
1DF
330
1F
100
AcDbEntity
  8
C-9
  6
Continuous
 62
     6
370
     5
100
AcDbLine
 10
-1488.021496925631
 20
706.8625290329394
 30
0.0
 11
-1484.021508472823
 21
710.8626412056589
 31
0.0
  0
LINE
  5
1E0
330
1F
100
AcDbEntity
  8
C-9
  6
Continuous
 62
     6
370
     5
100
AcDbLine
 10
-1488.021496925631
 20
709.6907662056589
 30
0.0
 11
-1484.021508472823
 21
713.6906309385557
 31
0.0
  0
LINE
  5
1E1
330
1F
100
AcDbEntity
  8
C-9
  6
Continuous
 62
     6
370
     5
100
AcDbLine
 10
-1488.021496925631
 20
712.5194982580238
 30
0.0
 11
-1484.021508472823
 21
716.5193629909209
 31
0.0
  0
LINE
  5
1E2
330
1F
100
AcDbEntity
  8
C-9
  6
Continuous
 62
     6
370
     5
100
AcDbLine
 10
-1488.021496925631
 20
715.3479828705658
 30
0.0
 11
-1484.021508472823
 21
719.347847603463
 31
0.0
  0
LINE
  5
1E3
330
1F
100
AcDbEntity
  8
C-9
  6
Continuous
 62
     6
370
     5
100
AcDbLine
 10
-1488.021496925631
 20
718.1762200432856
 30
0.0
 11
-1485.089087587583
 21
721.1088768211573
 31
0.0
  0
LINE
  5
1E4
330
1F
100
AcDbEntity
  8
C-9
  6
Continuous
 62
     6
370
     5
100
AcDbLine
 10
-1488.021496925631
 20
721.0047046558279
 30
0.0
 11
-1487.917448480214
 21
721.1088768211573
 31
0.0
  0
LINE
  5
1E5
330
1F
100
AcDbEntity
  8
C-9
  6
Continuous
 62
     6
370
     5
100
AcDbLine
 10
-1488.021496925631
 20
665.2721013249578
 30
0.0
 11
-1484.021508472823
 21
661.272236592061
 31
0.0
  0
LINE
  5
1E6
330
1F
100
AcDbEntity
  8
C-9
  6
Continuous
 62
     6
370
     5
100
AcDbLine
 10
-1488.021496925631
 20
668.100091057855
 30
0.0
 11
-1484.021508472823
 21
664.1002263249578
 31
0.0
  0
LINE
  5
1E7
330
1F
100
AcDbEntity
  8
C-9
  6
Continuous
 62
     6
370
     5
100
AcDbLine
 10
-1488.021496925631
 20
670.9288231102198
 30
0.0
 11
-1484.021508472823
 21
666.9289583773227
 31
0.0
  0
LINE
  5
1E8
330
1F
100
AcDbEntity
  8
C-9
  6
Continuous
 62
     6
370
     5
100
AcDbLine
 10
-1488.021496925631
 20
673.7575551625846
 30
0.0
 11
-1484.021508472823
 21
669.7574429898651
 31
0.0
  0
LINE
  5
1E9
330
1F
100
AcDbEntity
  8
C-9
  6
Continuous
 62
     6
370
     5
100
AcDbLine
 10
-1488.021496925631
 20
676.5855448954815
 30
0.0
 11
-1484.021508472823
 21
672.5856801625846
 31
0.0
  0
LINE
  5
1EA
330
1F
100
AcDbEntity
  8
C-9
  6
Continuous
 62
     6
370
     5
100
AcDbLine
 10
-1488.021496925631
 20
679.4142769478464
 30
0.0
 11
-1484.021508472823
 21
675.4141647751269
 31
0.0
  0
LINE
  5
1EB
330
1F
100
AcDbEntity
  8
C-9
  6
Continuous
 62
     6
370
     5
100
AcDbLine
 10
-1488.021496925631
 20
682.2427615603885
 30
0.0
 11
-1484.021508472823
 21
678.2424019478464
 31
0.0
  0
LINE
  5
1EC
330
1F
100
AcDbEntity
  8
C-9
  6
Continuous
 62
     6
370
     5
100
AcDbLine
 10
-1488.021496925631
 20
685.0709987331084
 30
0.0
 11
-1484.021508472823
 21
681.0708865603885
 31
0.0
  0
LINE
  5
1ED
330
1F
100
AcDbEntity
  8
C-9
  6
Continuous
 62
     6
370
     5
100
AcDbLine
 10
-1488.021496925631
 20
687.8989884660052
 30
0.0
 11
-1484.021508472823
 21
683.8991237331084
 31
0.0
  0
LINE
  5
1EE
330
1F
100
AcDbEntity
  8
C-9
  6
Continuous
 62
     6
370
     5
100
AcDbLine
 10
-1488.021496925631
 20
690.72772051837
 30
0.0
 11
-1484.021508472823
 21
686.7278557854731
 31
0.0
  0
LINE
  5
1EF
330
1F
100
AcDbEntity
  8
C-9
  6
Continuous
 62
     6
370
     5
100
AcDbLine
 10
-1488.021496925631
 20
693.5562051309123
 30
0.0
 11
-1484.021508472823
 21
689.55584551837
 31
0.0
  0
LINE
  5
1F0
330
1F
100
AcDbEntity
  8
C-9
  6
Continuous
 62
     6
370
     5
100
AcDbLine
 10
-1488.021496925631
 20
696.3844423036318
 30
0.0
 11
-1484.021508472823
 21
692.3845775707349
 31
0.0
  0
LINE
  5
1F1
330
1F
100
AcDbEntity
  8
C-9
  6
Continuous
 62
     6
370
     5
100
AcDbLine
 10
-1488.021496925631
 20
699.2131743559967
 30
0.0
 11
-1484.021508472823
 21
695.2130621832771
 31
0.0
  0
LINE
  5
1F2
330
1F
100
AcDbEntity
  8
C-9
  6
Continuous
 62
     6
370
     5
100
AcDbLine
 10
-1488.021496925631
 20
702.0411640888938
 30
0.0
 11
-1484.021508472823
 21
698.0412993559967
 31
0.0
  0
LINE
  5
1F3
330
1F
100
AcDbEntity
  8
C-9
  6
Continuous
 62
     6
370
     5
100
AcDbLine
 10
-1488.021496925631
 20
704.8698961412586
 30
0.0
 11
-1484.021508472823
 21
700.8700314083617
 31
0.0
  0
LINE
  5
1F4
330
1F
100
AcDbEntity
  8
C-9
  6
Continuous
 62
     6
370
     5
100
AcDbLine
 10
-1488.021496925631
 20
707.6983807538008
 30
0.0
 11
-1484.021508472823
 21
703.6980211412586
 31
0.0
  0
LINE
  5
1F5
330
1F
100
AcDbEntity
  8
C-9
  6
Continuous
 62
     6
370
     5
100
AcDbLine
 10
-1488.021496925631
 20
710.5266179265203
 30
0.0
 11
-1484.021508472823
 21
706.5267531936234
 31
0.0
  0
LINE
  5
1F6
330
1F
100
AcDbEntity
  8
C-9
  6
Continuous
 62
     6
370
     5
100
AcDbLine
 10
-1488.021496925631
 20
713.3553499788852
 30
0.0
 11
-1484.021508472823
 21
709.3552378061656
 31
0.0
  0
LINE
  5
1F7
330
1F
100
AcDbEntity
  8
C-9
  6
Continuous
 62
     6
370
     5
100
AcDbLine
 10
-1488.021496925631
 20
716.1833397117823
 30
0.0
 11
-1484.021508472823
 21
712.1834749788852
 31
0.0
  0
LINE
  5
1F8
330
1F
100
AcDbEntity
  8
C-9
  6
Continuous
 62
     6
370
     5
100
AcDbLine
 10
-1488.021496925631
 20
719.0120717641471
 30
0.0
 11
-1484.021508472823
 21
715.01220703125
 31
0.0
  0
LINE
  5
1F9
330
1F
100
AcDbEntity
  8
C-9
  6
Continuous
 62
     6
370
     5
100
AcDbLine
 10
-1487.289817370099
 20
721.1088768211573
 30
0.0
 11
-1484.021508472823
 21
717.8401967641471
 31
0.0
  0
LINE
  5
1FA
330
1F
100
AcDbEntity
  8
C-9
  6
Continuous
 62
     6
370
     5
100
AcDbLine
 10
-1484.46158019738
 20
721.1088768211573
 30
0.0
 11
-1484.021508472823
 21
720.668928816512
 31
0.0
  0
LINE
  5
1FB
330
1F
100
AcDbEntity
  8
C-9
  6
Continuous
 62
     6
370
     5
100
AcDbLine
 10
-1466.021251135408
 20
675.7279184702281
 30
0.0
 11
-1462.021262682599
 21
671.7280537373313
 31
0.0
  0
LINE
  5
1FC
330
1F
100
AcDbEntity
  8
C-9
  6
Continuous
 62
     6
370
     5
100
AcDbLine
 10
-1466.021251135408
 20
678.5564030827703
 30
0.0
 11
-1462.021262682599
 21
674.5560434702281
 31
0.0
  0
LINE
  5
1FD
330
1F
100
AcDbEntity
  8
C-9
  6
Continuous
 62
     6
370
     5
100
AcDbLine
 10
-1466.021251135408
 20
681.3846402554901
 30
0.0
 11
-1462.021262682599
 21
677.3847755225929
 31
0.0
  0
LINE
  5
1FE
330
1F
100
AcDbEntity
  8
C-9
  6
Continuous
 62
     6
370
     5
100
AcDbLine
 10
-1466.021251135408
 20
684.213372307855
 30
0.0
 11
-1462.021262682599
 21
680.2132601351352
 31
0.0
  0
LINE
  5
1FF
330
1F
100
AcDbEntity
  8
C-9
  6
Continuous
 62
     6
370
     5
100
AcDbLine
 10
-1466.021251135408
 20
687.0413620407519
 30
0.0
 11
-1462.021262682599
 21
683.041497307855
 31
0.0
  0
LINE
  5
200
330
1F
100
AcDbEntity
  8
C-9
  6
Continuous
 62
     6
370
     5
100
AcDbLine
 10
-1466.021251135408
 20
689.8700940931167
 30
0.0
 11
-1462.021262682599
 21
685.8702293602198
 31
0.0
  0
LINE
  5
201
330
1F
100
AcDbEntity
  8
C-9
  6
Continuous
 62
     6
370
     5
100
AcDbLine
 10
-1466.021251135408
 20
692.6980838260135
 30
0.0
 11
-1462.021262682599
 21
688.6982190931167
 31
0.0
  0
LINE
  5
202
330
1F
100
AcDbEntity
  8
C-9
  6
Continuous
 62
     6
370
     5
100
AcDbLine
 10
-1466.021251135408
 20
695.5268158783783
 30
0.0
 11
-1462.021262682599
 21
691.5269511454815
 31
0.0
  0
LINE
  5
203
330
1F
100
AcDbEntity
  8
C-9
  6
Continuous
 62
     6
370
     5
100
AcDbLine
 10
-1466.021251135408
 20
698.3555479307432
 30
0.0
 11
-1462.021262682599
 21
694.3549408783783
 31
0.0
  0
LINE
  5
204
330
1F
100
AcDbEntity
  8
C-9
  6
Continuous
 62
     6
370
     5
100
AcDbLine
 10
-1466.021251135408
 20
701.1835376636404
 30
0.0
 11
-1462.021262682599
 21
697.1836729307432
 31
0.0
  0
LINE
  5
205
330
1F
100
AcDbEntity
  8
C-9
  6
Continuous
 62
     6
370
     5
100
AcDbLine
 10
-1466.021251135408
 20
704.0122697160052
 30
0.0
 11
-1462.021262682599
 21
700.0124049831084
 31
0.0
  0
LINE
  5
206
330
1F
100
AcDbEntity
  8
C-9
  6
Continuous
 62
     6
370
     5
100
AcDbLine
 10
-1466.021251135408
 20
706.8402594489021
 30
0.0
 11
-1462.021262682599
 21
702.8403947160052
 31
0.0
  0
LINE
  5
207
330
1F
100
AcDbEntity
  8
C-9
  6
Continuous
 62
     6
370
     5
100
AcDbLine
 10
-1466.021251135408
 20
709.6689915012669
 30
0.0
 11
-1462.021262682599
 21
705.6686318887248
 31
0.0
  0
LINE
  5
208
330
1F
100
AcDbEntity
  8
C-9
  6
Continuous
 62
     6
370
     5
100
AcDbLine
 10
-1466.021251135408
 20
712.4972286739867
 30
0.0
 11
-1462.021262682599
 21
708.4971165012669
 31
0.0
  0
LINE
  5
209
330
1F
100
AcDbEntity
  8
C-9
  6
Continuous
 62
     6
370
     5
100
AcDbLine
 10
-1466.021251135408
 20
715.325713286529
 30
0.0
 11
-1462.021262682599
 21
711.3258485536318
 31
0.0
  0
LINE
  5
20A
330
1F
100
AcDbEntity
  8
C-9
  6
Continuous
 62
     6
370
     5
100
AcDbLine
 10
-1466.021251135408
 20
718.1539504592484
 30
0.0
 11
-1462.021262682599
 21
714.1540857263516
 31
0.0
  0
LINE
  5
20B
330
1F
100
AcDbEntity
  8
C-9
  6
Continuous
 62
     6
370
     5
100
AcDbLine
 10
-1466.021251135408
 20
720.9824350717906
 30
0.0
 11
-1462.021262682599
 21
716.9825703388938
 31
0.0
  0
LINE
  5
20C
330
1F
100
AcDbEntity
  8
C-9
  6
Continuous
 62
     6
370
     5
100
AcDbLine
 10
-1463.318960832409
 20
721.1088768211573
 30
0.0
 11
-1462.021262682599
 21
719.8113023912586
 31
0.0
  0
LINE
  5
20D
330
1F
100
AcDbEntity
  8
C-9
  6
Continuous
 62
     6
370
     5
100
AcDbLine
 10
-1466.021251135408
 20
668.1223606418919
 30
0.0
 11
-1462.021262682599
 21
672.1224728146117
 31
0.0
  0
LINE
  5
20E
330
1F
100
AcDbEntity
  8
C-9
  6
Continuous
 62
     6
370
     5
100
AcDbLine
 10
-1466.021251135408
 20
670.9510926942568
 30
0.0
 11
-1462.021262682599
 21
674.950957427154
 31
0.0
  0
LINE
  5
20F
330
1F
100
AcDbEntity
  8
C-9
  6
Continuous
 62
     6
370
     5
100
AcDbLine
 10
-1466.021251135408
 20
673.7798247466217
 30
0.0
 11
-1462.021262682599
 21
677.7796894795188
 31
0.0
  0
LINE
  5
210
330
1F
100
AcDbEntity
  8
C-9
  6
Continuous
 62
     6
370
     5
100
AcDbLine
 10
-1466.021251135408
 20
676.6078144795188
 30
0.0
 11
-1462.021262682599
 21
680.6076792124156
 31
0.0
  0
LINE
  5
211
330
1F
100
AcDbEntity
  8
C-9
  6
Continuous
 62
     6
370
     5
100
AcDbLine
 10
-1466.021251135408
 20
679.4365465318836
 30
0.0
 11
-1462.021262682599
 21
683.4364112647804
 31
0.0
  0
LINE
  5
212
330
1F
100
AcDbEntity
  8
C-9
  6
Continuous
 62
     6
370
     5
100
AcDbLine
 10
-1466.021251135408
 20
682.2645362647804
 30
0.0
 11
-1462.021262682599
 21
686.2646484375
 31
0.0
  0
LINE
  5
213
330
1F
100
AcDbEntity
  8
C-9
  6
Continuous
 62
     6
370
     5
100
AcDbLine
 10
-1466.021251135408
 20
685.0932683171453
 30
0.0
 11
-1462.021262682599
 21
689.0931330500425
 31
0.0
  0
LINE
  5
214
330
1F
100
AcDbEntity
  8
C-9
  6
Continuous
 62
     6
370
     5
100
AcDbLine
 10
-1466.021251135408
 20
687.9212580500425
 30
0.0
 11
-1462.021262682599
 21
691.9218651024073
 31
0.0
  0
LINE
  5
215
330
1F
100
AcDbEntity
  8
C-9
  6
Continuous
 62
     6
370
     5
100
AcDbLine
 10
-1466.021251135408
 20
690.7499901024073
 30
0.0
 11
-1462.021262682599
 21
694.7498548353042
 31
0.0
  0
LINE
  5
216
330
1F
100
AcDbEntity
  8
C-9
  6
Continuous
 62
     6
370
     5
100
AcDbLine
 10
-1466.021251135408
 20
693.5787221547721
 30
0.0
 11
-1462.021262682599
 21
697.578586887669
 31
0.0
  0
LINE
  5
217
330
1F
100
AcDbEntity
  8
C-9
  6
Continuous
 62
     6
370
     5
100
AcDbLine
 10
-1466.021251135408
 20
696.406711887669
 30
0.0
 11
-1462.021262682599
 21
700.4065766205658
 31
0.0
  0
LINE
  5
218
330
1F
100
AcDbEntity
  8
C-9
  6
Continuous
 62
     6
370
     5
100
AcDbLine
 10
-1466.021251135408
 20
699.2354439400339
 30
0.0
 11
-1462.021262682599
 21
703.2353086729307
 31
0.0
  0
LINE
  5
219
330
1F
100
AcDbEntity
  8
C-9
  6
Continuous
 62
     6
370
     5
100
AcDbLine
 10
-1466.021251135408
 20
702.0634336729307
 30
0.0
 11
-1462.021262682599
 21
706.0635458456505
 31
0.0
  0
LINE
  5
21A
330
1F
100
AcDbEntity
  8
C-9
  6
Continuous
 62
     6
370
     5
100
AcDbLine
 10
-1466.021251135408
 20
704.8921657252959
 30
0.0
 11
-1462.021262682599
 21
708.8920304581927
 31
0.0
  0
LINE
  5
21B
330
1F
100
AcDbEntity
  8
C-9
  6
Continuous
 62
     6
370
     5
100
AcDbLine
 10
-1466.021251135408
 20
707.7208977776606
 30
0.0
 11
-1462.021262682599
 21
711.7207625105575
 31
0.0
  0
LINE
  5
21C
330
1F
100
AcDbEntity
  8
C-9
  6
Continuous
 62
     6
370
     5
100
AcDbLine
 10
-1466.021251135408
 20
710.5488875105575
 30
0.0
 11
-1462.021262682599
 21
714.5487522434544
 31
0.0
  0
LINE
  5
21D
330
1F
100
AcDbEntity
  8
C-9
  6
Continuous
 62
     6
370
     5
100
AcDbLine
 10
-1466.021251135408
 20
713.3771246832771
 30
0.0
 11
-1462.021262682599
 21
717.3774842958193
 31
0.0
  0
LINE
  5
21E
330
1F
100
AcDbEntity
  8
C-9
  6
Continuous
 62
     6
370
     5
100
AcDbLine
 10
-1466.021251135408
 20
716.2056092958193
 30
0.0
 11
-1462.021262682599
 21
720.2057214685391
 31
0.0
  0
LINE
  5
21F
330
1F
100
AcDbEntity
  8
C-9
  6
Continuous
 62
     6
370
     5
100
AcDbLine
 10
-1466.021251135408
 20
719.0343413481842
 30
0.0
 11
-1463.946715662435
 21
721.1088768211573
 31
0.0
  0
LINE
  5
220
330
1F
100
AcDbEntity
  8
C-9
  6
Continuous
 62
     6
370
     5
100
AcDbLine
 10
-1444.021376504918
 20
677.4654409047721
 30
0.0
 11
-1440.021511772021
 21
681.4658005173144
 31
0.0
  0
LINE
  5
221
330
1F
100
AcDbEntity
  8
C-9
  6
Continuous
 62
     6
370
     5
100
AcDbLine
 10
-1444.021376504918
 20
680.294172957137
 30
0.0
 11
-1440.021511772021
 21
684.2940376900339
 31
0.0
  0
LINE
  5
222
330
1F
100
AcDbEntity
  8
C-9
  6
Continuous
 62
     6
370
     5
100
AcDbLine
 10
-1444.021376504918
 20
683.1226575696792
 30
0.0
 11
-1440.021511772021
 21
687.1227697423988
 31
0.0
  0
LINE
  5
223
330
1F
100
AcDbEntity
  8
C-9
  6
Continuous
 62
     6
370
     5
100
AcDbLine
 10
-1444.021376504918
 20
685.9508947423988
 30
0.0
 11
-1440.021511772021
 21
689.9507594752959
 31
0.0
  0
LINE
  5
224
330
1F
100
AcDbEntity
  8
C-9
  6
Continuous
 62
     6
370
     5
100
AcDbLine
 10
-1444.021376504918
 20
688.7796267947635
 30
0.0
 11
-1440.021511772021
 21
692.7794915276606
 31
0.0
  0
LINE
  5
225
330
1F
100
AcDbEntity
  8
C-9
  6
Continuous
 62
     6
370
     5
100
AcDbLine
 10
-1444.021376504918
 20
691.6081114073057
 30
0.0
 11
-1440.021511772021
 21
695.6079761402029
 31
0.0
  0
LINE
  5
226
330
1F
100
AcDbEntity
  8
C-9
  6
Continuous
 62
     6
370
     5
100
AcDbLine
 10
-1444.021376504918
 20
694.4363485800255
 30
0.0
 11
-1440.021511772021
 21
698.4362133129224
 31
0.0
  0
LINE
  5
227
330
1F
100
AcDbEntity
  8
C-9
  6
Continuous
 62
     6
370
     5
100
AcDbLine
 10
-1444.021376504918
 20
697.2648331925677
 30
0.0
 11
-1440.021511772021
 21
701.2649453652873
 31
0.0
  0
LINE
  5
228
330
1F
100
AcDbEntity
  8
C-9
  6
Continuous
 62
     6
370
     5
100
AcDbLine
 10
-1444.021376504918
 20
700.0930703652873
 30
0.0
 11
-1440.021511772021
 21
704.0929350981842
 31
0.0
  0
LINE
  5
229
330
1F
100
AcDbEntity
  8
C-9
  6
Continuous
 62
     6
370
     5
100
AcDbLine
 10
-1444.021376504918
 20
702.9218024176521
 30
0.0
 11
-1440.021511772021
 21
706.9216671505492
 31
0.0
  0
LINE
  5
22A
330
1F
100
AcDbEntity
  8
C-9
  6
Continuous
 62
     6
370
     5
100
AcDbLine
 10
-1444.021376504918
 20
705.7497921505492
 30
0.0
 11
-1440.021511772021
 21
709.749656883446
 31
0.0
  0
LINE
  5
22B
330
1F
100
AcDbEntity
  8
C-9
  6
Continuous
 62
     6
370
     5
100
AcDbLine
 10
-1444.021376504918
 20
708.5785242029141
 30
0.0
 11
-1440.021511772021
 21
712.578388935811
 31
0.0
  0
LINE
  5
22C
330
1F
100
AcDbEntity
  8
C-9
  6
Continuous
 62
     6
370
     5
100
AcDbLine
 10
-1444.021376504918
 20
711.406513935811
 30
0.0
 11
-1440.021511772021
 21
715.4071209881758
 31
0.0
  0
LINE
  5
22D
330
1F
100
AcDbEntity
  8
C-9
  6
Continuous
 62
     6
370
     5
100
AcDbLine
 10
-1444.021376504918
 20
714.2352459881758
 30
0.0
 11
-1440.021511772021
 21
718.2351107210727
 31
0.0
  0
LINE
  5
22E
330
1F
100
AcDbEntity
  8
C-9
  6
Continuous
 62
     6
370
     5
100
AcDbLine
 10
-1444.021376504918
 20
717.0639780405406
 30
0.0
 11
-1440.021511772021
 21
721.0638427734375
 31
0.0
  0
LINE
  5
22F
330
1F
100
AcDbEntity
  8
C-9
  6
Continuous
 62
     6
370
     5
100
AcDbLine
 10
-1444.021376504918
 20
719.8919677734375
 30
0.0
 11
-1442.804838616932
 21
721.1088768211573
 31
0.0
  0
LINE
  5
230
330
1F
100
AcDbEntity
  8
C-9
  6
Continuous
 62
     6
370
     5
100
AcDbLine
 10
-1444.021376504918
 20
686.1837356154984
 30
0.0
 11
-1440.021511772021
 21
682.1838708826016
 31
0.0
  0
LINE
  5
231
330
1F
100
AcDbEntity
  8
C-9
  6
Continuous
 62
     6
370
     5
100
AcDbLine
 10
-1444.021376504918
 20
689.0124676678633
 30
0.0
 11
-1440.021511772021
 21
685.0118606154984
 31
0.0
  0
LINE
  5
232
330
1F
100
AcDbEntity
  8
C-9
  6
Continuous
 62
     6
370
     5
100
AcDbLine
 10
-1444.021376504918
 20
691.8404574007602
 30
0.0
 11
-1440.021511772021
 21
687.8405926678633
 31
0.0
  0
LINE
  5
233
330
1F
100
AcDbEntity
  8
C-9
  6
Continuous
 62
     6
370
     5
100
AcDbLine
 10
-1444.021376504918
 20
694.669189453125
 30
0.0
 11
-1440.021511772021
 21
690.6693247202281
 31
0.0
  0
LINE
  5
234
330
1F
100
AcDbEntity
  8
C-9
  6
Continuous
 62
     6
370
     5
100
AcDbLine
 10
-1444.021376504918
 20
697.4971791860221
 30
0.0
 11
-1440.021511772021
 21
693.497314453125
 31
0.0
  0
LINE
  5
235
330
1F
100
AcDbEntity
  8
C-9
  6
Continuous
 62
     6
370
     5
100
AcDbLine
 10
-1444.021376504918
 20
700.325911238387
 30
0.0
 11
-1440.021511772021
 21
696.3260465054901
 31
0.0
  0
LINE
  5
236
330
1F
100
AcDbEntity
  8
C-9
  6
Continuous
 62
     6
370
     5
100
AcDbLine
 10
-1444.021376504918
 20
703.1541484111065
 30
0.0
 11
-1440.021511772021
 21
699.1542836782096
 31
0.0
  0
LINE
  5
237
330
1F
100
AcDbEntity
  8
C-9
  6
Continuous
 62
     6
370
     5
100
AcDbLine
 10
-1444.021376504918
 20
705.9826330236488
 30
0.0
 11
-1440.021511772021
 21
701.9827682907519
 31
0.0
  0
LINE
  5
238
330
1F
100
AcDbEntity
  8
C-9
  6
Continuous
 62
     6
370
     5
100
AcDbLine
 10
-1444.021376504918
 20
708.8108701963682
 30
0.0
 11
-1440.021511772021
 21
704.8110054634714
 31
0.0
  0
LINE
  5
239
330
1F
100
AcDbEntity
  8
C-9
  6
Continuous
 62
     6
370
     5
100
AcDbLine
 10
-1444.021376504918
 20
711.6396022487334
 30
0.0
 11
-1440.021511772021
 21
707.6394900760135
 31
0.0
  0
LINE
  5
23A
330
1F
100
AcDbEntity
  8
C-9
  6
Continuous
 62
     6
370
     5
100
AcDbLine
 10
-1444.021376504918
 20
714.4680868612755
 30
0.0
 11
-1440.021511772021
 21
710.4677272487334
 31
0.0
  0
LINE
  5
23B
330
1F
100
AcDbEntity
  8
C-9
  6
Continuous
 62
     6
370
     5
100
AcDbLine
 10
-1444.021376504918
 20
717.296324033995
 30
0.0
 11
-1440.021511772021
 21
713.2962118612755
 31
0.0
  0
LINE
  5
23C
330
1F
100
AcDbEntity
  8
C-9
  6
Continuous
 62
     6
370
     5
100
AcDbLine
 10
-1444.021376504918
 20
720.1248086465373
 30
0.0
 11
-1440.021511772021
 21
716.1249439136404
 31
0.0
  0
LINE
  5
23D
330
1F
100
AcDbEntity
  8
C-9
  6
Continuous
 62
     6
370
     5
100
AcDbLine
 10
-1442.17733122673
 20
721.1088768211573
 30
0.0
 11
-1440.021511772021
 21
718.9529336465373
 31
0.0
  0
LINE
  5
23E
330
1F
100
AcDbEntity
  8
C-9
  6
Continuous
 62
     6
370
     5
100
AcDbLine
 10
-1422.021625594339
 20
696.6395527607688
 30
0.0
 11
-1418.021760861443
 21
692.6396880278717
 31
0.0
  0
LINE
  5
23F
330
1F
100
AcDbEntity
  8
C-9
  6
Continuous
 62
     6
370
     5
100
AcDbLine
 10
-1422.021625594339
 20
699.4677899334883
 30
0.0
 11
-1418.021760861443
 21
695.4679252005915
 31
0.0
  0
LINE
  5
240
330
1F
100
AcDbEntity
  8
C-9
  6
Continuous
 62
     6
370
     5
100
AcDbLine
 10
-1422.021625594339
 20
702.2965219858531
 30
0.0
 11
-1418.021760861443
 21
698.2964098131336
 31
0.0
  0
LINE
  5
241
330
1F
100
AcDbEntity
  8
C-9
  6
Continuous
 62
     6
370
     5
100
AcDbLine
 10
-1422.021625594339
 20
705.1250065983953
 30
0.0
 11
-1418.021760861443
 21
701.1246469858531
 31
0.0
  0
LINE
  5
242
330
1F
100
AcDbEntity
  8
C-9
  6
Continuous
 62
     6
370
     5
100
AcDbLine
 10
-1422.021625594339
 20
707.9532437711151
 30
0.0
 11
-1418.021760861443
 21
703.9531315983953
 31
0.0
  0
LINE
  5
243
330
1F
100
AcDbEntity
  8
C-9
  6
Continuous
 62
     6
370
     5
100
AcDbLine
 10
-1422.021625594339
 20
710.7817283836573
 30
0.0
 11
-1418.021760861443
 21
706.7818636507602
 31
0.0
  0
LINE
  5
244
330
1F
100
AcDbEntity
  8
C-9
  6
Continuous
 62
     6
370
     5
100
AcDbLine
 10
-1422.021625594339
 20
713.6099655563769
 30
0.0
 11
-1418.021760861443
 21
709.61010082348
 31
0.0
  0
LINE
  5
245
330
1F
100
AcDbEntity
  8
C-9
  6
Continuous
 62
     6
370
     5
100
AcDbLine
 10
-1422.021625594339
 20
716.438450168919
 30
0.0
 11
-1418.021760861443
 21
712.4385854360221
 31
0.0
  0
LINE
  5
246
330
1F
100
AcDbEntity
  8
C-9
  6
Continuous
 62
     6
370
     5
100
AcDbLine
 10
-1422.021625594339
 20
719.2671822212839
 30
0.0
 11
-1418.021760861443
 21
715.2668226087417
 31
0.0
  0
LINE
  5
247
330
1F
100
AcDbEntity
  8
C-9
  6
Continuous
 62
     6
370
     5
100
AcDbLine
 10
-1421.035206741404
 20
721.1088768211573
 30
0.0
 11
-1418.021760861443
 21
718.0953072212839
 31
0.0
  0
LINE
  5
248
330
1F
100
AcDbEntity
  8
C-9
  6
Continuous
 62
     6
370
     5
100
AcDbLine
 10
-1418.206722128862
 20
721.1088768211573
 30
0.0
 11
-1418.021760861443
 21
720.9235443940033
 31
0.0
  0
LINE
  5
249
330
1F
100
AcDbEntity
  8
C-9
  6
Continuous
 62
     6
370
     5
100
AcDbLine
 10
-1422.021625594339
 20
689.6372532200169
 30
0.0
 11
-1418.021760861443
 21
693.6371179529141
 31
0.0
  0
LINE
  5
24A
330
1F
100
AcDbEntity
  8
C-9
  6
Continuous
 62
     6
370
     5
100
AcDbLine
 10
-1422.021625594339
 20
692.4657378325592
 30
0.0
 11
-1418.021760861443
 21
696.4656025654563
 31
0.0
  0
LINE
  5
24B
330
1F
100
AcDbEntity
  8
C-9
  6
Continuous
 62
     6
370
     5
100
AcDbLine
 10
-1422.021625594339
 20
695.293975005279
 30
0.0
 11
-1418.021760861443
 21
699.294334617821
 31
0.0
  0
LINE
  5
24C
330
1F
100
AcDbEntity
  8
C-9
  6
Continuous
 62
     6
370
     5
100
AcDbLine
 10
-1422.021625594339
 20
698.122459617821
 30
0.0
 11
-1418.021760861443
 21
702.1225717905406
 31
0.0
  0
LINE
  5
24D
330
1F
100
AcDbEntity
  8
C-9
  6
Continuous
 62
     6
370
     5
100
AcDbLine
 10
-1422.021625594339
 20
700.951191670186
 30
0.0
 11
-1418.021760861443
 21
704.9510564030828
 31
0.0
  0
LINE
  5
24E
330
1F
100
AcDbEntity
  8
C-9
  6
Continuous
 62
     6
370
     5
100
AcDbLine
 10
-1422.021625594339
 20
703.7794288429054
 30
0.0
 11
-1418.021760861443
 21
707.7792935758026
 31
0.0
  0
LINE
  5
24F
330
1F
100
AcDbEntity
  8
C-9
  6
Continuous
 62
     6
370
     5
100
AcDbLine
 10
-1422.021625594339
 20
706.6079134554477
 30
0.0
 11
-1418.021760861443
 21
710.6077781883448
 31
0.0
  0
LINE
  5
250
330
1F
100
AcDbEntity
  8
C-9
  6
Continuous
 62
     6
370
     5
100
AcDbLine
 10
-1422.021625594339
 20
709.4361506281675
 30
0.0
 11
-1418.021760861443
 21
713.4365102407096
 31
0.0
  0
LINE
  5
251
330
1F
100
AcDbEntity
  8
C-9
  6
Continuous
 62
     6
370
     5
100
AcDbLine
 10
-1422.021625594339
 20
712.2646352407096
 30
0.0
 11
-1418.021760861443
 21
716.2647474134292
 31
0.0
  0
LINE
  5
252
330
1F
100
AcDbEntity
  8
C-9
  6
Continuous
 62
     6
370
     5
100
AcDbLine
 10
-1422.021625594339
 20
715.0933672930745
 30
0.0
 11
-1418.021760861443
 21
719.0932320259714
 31
0.0
  0
LINE
  5
253
330
1F
100
AcDbEntity
  8
C-9
  6
Continuous
 62
     6
370
     5
100
AcDbLine
 10
-1422.021625594339
 20
717.921604465794
 30
0.0
 11
-1418.834600678799
 21
721.1088768211573
 31
0.0
  0
LINE
  5
254
330
1F
100
AcDbEntity
  8
C-9
  6
Continuous
 62
     6
370
     5
100
AcDbLine
 10
-1422.021625594339
 20
720.7500890783363
 30
0.0
 11
-1421.66296157143
 21
721.1088768211573
 31
0.0
  0
LINE
  5
255
330
1F
100
AcDbEntity
  8
C-9
  6
Continuous
 62
     6
370
     5
100
AcDbLine
 10
-1420.238945392165
 20
688.591572529561
 30
0.0
 11
-1418.021760861443
 21
690.8088807801943
 31
0.0
  0
LINE
  5
256
330
1F
100
AcDbEntity
  8
C-9
  6
Continuous
 62
     6
370
     5
100
AcDbLine
 10
-1422.021625594339
 20
693.8110681482266
 30
0.0
 11
-1418.217609481058
 21
690.0069283150339
 31
0.0
  0
LINE
  5
257
330
1F
100
AcDbEntity
  8
C-9
  6
Continuous
 62
     6
370
     5
100
AcDbLine
 10
-1422.021625594339
 20
690.9828309755068
 30
0.0
 11
-1419.881023688723
 21
688.8422290698904
 31
0.0
  0
LINE
  5
258
330
1F
100
AcDbEntity
  8
C-9
  6
Continuous
 62
     6
370
     5
100
AcDbLine
 10
-1422.021625594339
 20
688.1540989231419
 30
0.0
 11
-1421.544809056121
 21
687.6772823849242
 31
0.0
  0
LINE
  5
259
330
1F
100
AcDbEntity
  8
C-9
  6
Continuous
 62
     6
370
     5
100
AcDbLine
 10
-1444.021376504918
 20
683.3552510029563
 30
0.0
 11
-1440.189770851413
 21
679.5233979096283
 31
0.0
  0
LINE
  5
25A
330
1F
100
AcDbEntity
  8
C-9
  6
Continuous
 62
     6
370
     5
100
AcDbLine
 10
-1444.021376504918
 20
680.5270138302367
 30
0.0
 11
-1441.853061339166
 21
678.3586986644849
 31
0.0
  0
LINE
  5
25B
330
1F
100
AcDbEntity
  8
C-9
  6
Continuous
 62
     6
370
     5
100
AcDbLine
 10
-1444.021376504918
 20
677.6982817778717
 30
0.0
 11
-1443.516846706565
 21
677.1937519795188
 31
0.0
  0
LINE
  5
25C
330
1F
100
AcDbEntity
  8
C-9
  6
Continuous
 62
     6
370
     5
100
AcDbLine
 10
-1462.541628629601
 20
668.7738696948904
 30
0.0
 11
-1462.021262682599
 21
669.2942356418919
 31
0.0
  0
LINE
  5
25D
330
1F
100
AcDbEntity
  8
C-9
  6
Continuous
 62
     6
370
     5
100
AcDbLine
 10
-1466.021251135408
 20
672.8991864178633
 30
0.0
 11
-1462.161808501856
 21
669.0398675042231
 31
0.0
  0
LINE
  5
25E
330
1F
100
AcDbEntity
  8
C-9
  6
Continuous
 62
     6
370
     5
100
AcDbLine
 10
-1466.021251135408
 20
670.0711966849665
 30
0.0
 11
-1463.825222709521
 21
667.8751682590794
 31
0.0
  0
LINE
  5
25F
330
1F
100
AcDbEntity
  8
C-9
  6
Continuous
 62
     6
370
     5
100
AcDbLine
 10
-1466.021251135408
 20
667.2424646326016
 30
0.0
 11
-1465.488884357008
 21
666.7102215741133
 31
0.0
  0
LINE
  5
260
330
1F
100
AcDbEntity
  8
C-9
  6
Continuous
 62
     6
370
     5
100
AcDbLine
 10
-1488.021496925631
 20
662.4433692725929
 30
0.0
 11
-1484.134093592122
 21
658.556089658995
 31
0.0
  0
LINE
  5
261
330
1F
100
AcDbEntity
  8
C-9
  6
Continuous
 62
     6
370
     5
100
AcDbLine
 10
-1488.021496925631
 20
659.6151320998734
 30
0.0
 11
-1485.797631519698
 21
657.3913904138516
 31
0.0
  0
LINE
  5
262
330
1F
100
AcDbEntity
  8
C-9
  6
Continuous
 62
     6
370
     5
100
AcDbLine
 10
-1488.021496925631
 20
656.7866474873313
 30
0.0
 11
-1487.461293167186
 21
656.2264437288852
 31
0.0
  0
LINE
  5
263
330
1F
100
AcDbEntity
  8
C-9
  6
Continuous
 62
     6
370
     5
100
AcDbLine
 10
-1510.02124783621
 20
651.9875521273227
 30
0.0
 11
-1506.106007522654
 21
648.0725592535896
 31
0.0
  0
LINE
  5
264
330
1F
100
AcDbEntity
  8
C-9
  6
Continuous
 62
     6
370
     5
100
AcDbLine
 10
-1510.02124783621
 20
649.1593149546031
 30
0.0
 11
-1507.76954545023
 21
646.907860008446
 31
0.0
  0
LINE
  5
265
330
1F
100
AcDbEntity
  8
C-9
  6
Continuous
 62
     6
370
     5
100
AcDbLine
 10
-1510.02124783621
 20
646.330830342061
 30
0.0
 11
-1509.433330817629
 21
645.74291332348
 31
0.0
  0
TEXT
  5
266
330
1F
100
AcDbEntity
  8
C-4
  6
Continuous
 62
     2
370
     9
100
AcDbText
 10
-1537.983090141162
 20
853.7478606682856
 30
0.0
 40
30.48
  1
2
 41
0.9999999999999998
  7
ＭＳ ゴシック
100
AcDbText
  0
TEXT
  5
267
330
1F
100
AcDbEntity
  8
C-4
  6
Continuous
 62
     2
370
     9
100
AcDbText
 10
-1045.521290725779
 20
853.7478606682856
 30
0.0
 40
30.48
  1
994
 41
1.083333333333333
  7
ＭＳ ゴシック
100
AcDbText
  0
TEXT
  5
268
330
1F
100
AcDbEntity
  8
C-4
  6
Continuous
 62
     2
370
     9
100
AcDbText
 10
-541.9826868142507
 20
853.7478606682856
 30
0.0
 40
30.48
  1
2
 41
0.9999999999999998
  7
ＭＳ ゴシック
100
AcDbText
  0
TEXT
  5
269
330
1F
100
AcDbEntity
  8
C-4
  6
Continuous
 62
     2
370
     9
100
AcDbText
 10
-1044.521364932101
 20
933.748372043941
 30
0.0
 40
30.48
  1
996
 50
359.9997818882351
 41
1.083333333333334
  7
ＭＳ ゴシック
100
AcDbText
  0
TEXT
  5
26A
330
1F
100
AcDbEntity
  8
C-5
  6
Continuous
 62
     2
370
     9
100
AcDbText
 10
-1281.520947609225
 20
440.2494409839529
 30
0.0
 40
30.48
  1
平面詳細図　Ｓ＝１：１０
 41
1.114583333333333
  7
ＭＳ ゴシック
100
AcDbText
  0
TEXT
  5
26B
330
1F
100
AcDbEntity
  8
C-4
  6
Continuous
 62
     2
370
     9
100
AcDbText
 10
-660.2705764494913
 20
781.7490582770271
 30
0.0
 40
30.48
  1
22
 41
1.0625
  7
ＭＳ ゴシック
100
AcDbText
  0
LWPOLYLINE
  5
26C
330
1F
100
AcDbEntity
  8
C-4
  6
Continuous
 62
     7
370
     9
100
AcDbPolyline
 90
        4
 70
     1
 43
2.0
 10
-1511.021922522127
 20
843.1085864917654
 42
0.4142135623731
 10
-1512.021922522126
 20
844.1085864917653
 42
0.4142135623731
 10
-1513.021922522126
 20
843.1085864917654
 42
0.4142135623731
 10
-1512.021922522126
 20
842.1085864917654
 42
0.4142135623731
  0
LWPOLYLINE
  5
26D
330
1F
100
AcDbEntity
  8
C-4
  6
Continuous
 62
     7
370
     9
100
AcDbPolyline
 90
        4
 70
     1
 43
2.0
 10
-1509.02124783621
 20
843.1085864917654
 42
0.4142135623731
 10
-1510.02124783621
 20
844.1085864917653
 42
0.4142135623731
 10
-1511.02124783621
 20
843.1085864917654
 42
0.4142135623731
 10
-1510.02124783621
 20
842.1085864917654
 42
0.4142135623731
  0
LWPOLYLINE
  5
26E
330
1F
100
AcDbEntity
  8
C-4
  6
Continuous
 62
     7
370
     9
100
AcDbPolyline
 90
        4
 70
     1
 43
2.0
 10
-515.021828494994
 20
843.1085864917654
 42
0.4142135623731
 10
-516.021828494994
 20
844.1085864917653
 42
0.4142135623731
 10
-517.021828494994
 20
843.1085864917654
 42
0.4142135623731
 10
-516.021828494994
 20
842.1085864917654
 42
0.4142135623731
  0
LWPOLYLINE
  5
26F
330
1F
100
AcDbEntity
  8
C-4
  6
Continuous
 62
     7
370
     9
100
AcDbPolyline
 90
        4
 70
     1
 43
2.0
 10
-513.0220198484567
 20
843.1085864917654
 42
0.4142135623731
 10
-514.0220198484567
 20
844.1085864917653
 42
0.4142135623731
 10
-515.0220198484568
 20
843.1085864917654
 42
0.4142135623731
 10
-514.0220198484567
 20
842.1085864917654
 42
0.4142135623731
  0
LWPOLYLINE
  5
270
330
1F
100
AcDbEntity
  8
C-4
  6
Continuous
 62
     7
370
     9
100
AcDbPolyline
 90
        4
 70
     1
 43
2.0
 10
-1509.02124783621
 20
923.1081081081084
 42
0.4142135623731
 10
-1510.02124783621
 20
924.1081081081084
 42
0.4142135623731
 10
-1511.02124783621
 20
923.1081081081084
 42
0.4142135623731
 10
-1510.02124783621
 20
922.1081081081084
 42
0.4142135623731
  0
LWPOLYLINE
  5
271
330
1F
100
AcDbEntity
  8
C-4
  6
Continuous
 62
     7
370
     9
100
AcDbPolyline
 90
        4
 70
     1
 43
2.0
 10
-513.0220198484567
 20
923.1081081081084
 42
0.4142135623731
 10
-514.0220198484567
 20
924.1081081081084
 42
0.4142135623731
 10
-515.0220198484568
 20
923.1081081081084
 42
0.4142135623731
 10
-514.0220198484567
 20
922.1081081081084
 42
0.4142135623731
  0
LWPOLYLINE
  5
272
330
1F
100
AcDbEntity
  8
C-4
  6
Continuous
 62
     7
370
     9
100
AcDbPolyline
 90
        4
 70
     1
 43
2.0
 10
-649.0201426050023
 20
771.1090417810391
 42
0.4142135623731
 10
-650.0201426050023
 20
772.109041781039
 42
0.4142135623731
 10
-651.0201426050023
 20
771.1090417810391
 42
0.4142135623731
 10
-650.0201426050023
 20
770.1090417810392
 42
0.4142135623731
  0
LWPOLYLINE
  5
273
330
1F
100
AcDbEntity
  8
C-4
  6
Continuous
 62
     7
370
     9
100
AcDbPolyline
 90
        4
 70
     1
 43
2.0
 10
-627.0210102939805
 20
771.1090417810391
 42
0.4142135623731
 10
-628.0210102939805
 20
772.109041781039
 42
0.4142135623731
 10
-629.0210102939805
 20
771.1090417810391
 42
0.4142135623731
 10
-628.0210102939805
 20
770.1090417810392
 42
0.4142135623731
  0
LINE
  5
274
330
1F
100
AcDbEntity
  8
A-0
  6
Continuous
 62
     3
370
     9
100
AcDbLine
 10
-884.0210754531337
 20
-281.3740742485837
 30
0.0
 11
-884.0210754531337
 21
-356.3741361085395
 31
0.0
  0
LINE
  5
275
330
1F
100
AcDbEntity
  8
A-0
  6
Continuous
 62
     3
370
     9
100
AcDbLine
 10
-884.0210754531337
 20
-281.3740742485837
 30
0.0
 11
-809.0214466128675
 21
-281.3740742485837
 31
0.0
  0
LINE
  5
276
330
1F
100
AcDbEntity
  8
A-0
  6
Continuous
 62
     3
370
     9
100
AcDbLine
 10
-809.0214466128675
 20
-283.8741443565335
 30
0.0
 11
-809.0214466128675
 21
-281.3740742485837
 31
0.0
  0
LINE
  5
277
330
1F
100
AcDbEntity
  8
A-0
  6
Continuous
 62
     3
370
     9
100
AcDbLine
 10
-814.0214631088561
 20
-288.8742227124774
 30
0.0
 11
-866.5211414370863
 21
-288.8742227124774
 31
0.0
  0
LINE
  5
278
330
1F
100
AcDbEntity
  8
A-0
  6
Continuous
 62
     3
370
     9
100
AcDbLine
 10
-876.5211744290629
 20
-351.37399589264
 30
0.0
 11
-876.5211744290629
 21
-298.8740701245868
 31
0.0
  0
LINE
  5
279
330
1F
100
AcDbEntity
  8
A-0
  6
Continuous
 62
     3
370
     9
100
AcDbLine
 10
-881.5211909250509
 20
-356.3741361085395
 30
0.0
 11
-884.0210754531337
 21
-356.3741361085395
 31
0.0
  0
LINE
  5
27A
330
1F
100
AcDbEntity
  8
A-0
  6
Continuous
 62
     3
370
     9
100
AcDbLine
 10
-884.0210754531337
 20
-281.3740742485837
 30
0.0
 11
-1159.021054833149
 21
-281.3740742485837
 31
0.0
  0
LINE
  5
27B
330
1F
100
AcDbEntity
  8
A-0
  6
Continuous
 62
     7
370
     9
100
AcDbLine
 10
-1161.696095825679
 20
-281.3740742485837
 30
0.0
 11
-1190.721560270227
 21
-281.3740742485837
 31
0.0
  0
LINE
  5
27C
330
1F
100
AcDbEntity
  8
A-0
  6
Continuous
 62
     6
370
     5
100
AcDbLine
 10
-801.5210507091514
 20
-288.8742227124774
 30
0.0
 11
-864.0211950490477
 21
-288.8742227124774
 31
0.0
  0
LINE
  5
27D
330
1F
100
AcDbEntity
  8
A-0
  6
Continuous
 62
     6
370
     5
100
AcDbLine
 10
-801.5210507091514
 20
-288.8742227124774
 30
0.0
 11
-801.5210507091514
 21
-613.8742124024848
 31
0.0
  0
LINE
  5
27E
330
1F
100
AcDbEntity
  8
A-0
  6
Continuous
 62
     6
370
     5
100
AcDbLine
 10
-873.5262246758425
 20
-516.9965421143988
 30
0.0
 11
-864.0211950490477
 21
-288.8742227124774
 31
0.0
  0
LINE
  5
27F
330
1F
100
AcDbEntity
  8
A-0
  6
Continuous
 62
     6
370
     5
100
AcDbLine
 10
-773.5577526332436
 20
-488.8741402325365
 30
0.0
 11
-762.5234211826524
 21
-507.9861756230296
 31
0.0
  0
LINE
  5
280
330
1F
100
AcDbEntity
  8
A-0
  6
Continuous
 62
     6
370
     5
100
AcDbLine
 10
-653.370168503704
 20
-488.8741402325365
 30
0.0
 11
-642.335898913068
 21
-507.9861756230296
 31
0.0
  0
LINE
  5
281
330
1F
100
AcDbEntity
  8
A-0
  6
Continuous
 62
     6
370
     5
100
AcDbLine
 10
-710.268831998742
 20
-663.8742227124774
 30
0.0
 11
-721.3032871692446
 21
-644.7621563920065
 31
0.0
  0
LINE
  5
282
330
1F
100
AcDbEntity
  8
A-0
  6
Continuous
 62
     6
370
     5
100
AcDbLine
 10
-751.4891515920165
 20
-488.8741402325365
 30
0.0
 11
-801.5210507091514
 21
-575.531896316257
 31
0.0
  0
LINE
  5
283
330
1F
100
AcDbEntity
  8
A-0
  6
Continuous
 62
     6
370
     5
100
AcDbLine
 10
-705.5009140563852
 20
-488.8741402325365
 30
0.0
 11
-801.5210507091514
 21
-392.8540035797704
 31
0.0
  0
LINE
  5
284
330
1F
100
AcDbEntity
  8
A-0
  6
Continuous
 62
     6
370
     5
100
AcDbLine
 10
-698.429826244941
 20
-488.8741402325365
 30
0.0
 11
-798.4297850049707
 21
-388.8741814725069
 31
0.0
  0
LINE
  5
285
330
1F
100
AcDbEntity
  8
A-0
  6
Continuous
 62
     6
370
     5
100
AcDbLine
 10
-691.35855285363
 20
-488.8741402325365
 30
0.0
 11
-791.3590064933045
 21
-388.8741814725069
 31
0.0
  0
LINE
  5
286
330
1F
100
AcDbEntity
  8
A-0
  6
Continuous
 62
     6
370
     5
100
AcDbLine
 10
-851.5213393889446
 20
-663.8742227124774
 30
0.0
 11
-801.5210507091514
 21
-613.8742124024848
 31
0.0
  0
LINE
  5
287
330
1F
100
AcDbEntity
  8
A-0
  6
Continuous
 62
     6
370
     5
100
AcDbLine
 10
-948.5358129689696
 20
-663.8742227124774
 30
0.0
 11
-801.5210507091514
 21
-516.8589965029915
 31
0.0
  0
LINE
  5
288
330
1F
100
AcDbEntity
  8
A-0
  6
Continuous
 62
     6
370
     5
100
AcDbLine
 10
-941.4647251575259
 20
-663.8742227124774
 30
0.0
 11
-801.5210507091514
 21
-523.9300843144358
 31
0.0
  0
LINE
  5
289
330
1F
100
AcDbEntity
  8
A-0
  6
Continuous
 62
     6
370
     5
100
AcDbLine
 10
-934.3938229259483
 20
-663.8742227124774
 30
0.0
 11
-801.5210507091514
 21
-531.0008318961238
 31
0.0
  0
LINE
  5
28A
330
1F
100
AcDbEntity
  8
A-0
  6
Continuous
 62
     6
370
     5
100
AcDbLine
 10
-1226.521184739056
 20
-288.8742227124774
 30
0.0
 11
-1226.521184739056
 21
-613.8742124024848
 31
0.0
  0
LINE
  5
28B
330
1F
100
AcDbEntity
  8
A-0
  6
Continuous
 62
     6
370
     5
100
AcDbLine
 10
-1154.51607263232
 20
-516.9965421143988
 30
0.0
 11
-1164.021071329137
 21
-288.8742227124774
 31
0.0
  0
LINE
  5
28C
330
1F
100
AcDbEntity
  8
A-0
  6
Continuous
 62
     6
370
     5
100
AcDbLine
 10
-948.46114800249
 20
-588.874098992566
 30
0.0
 11
-1079.581118375695
 21
-588.874098992566
 31
0.0
  0
LINE
  5
28D
330
1F
100
AcDbEntity
  8
A-0
  6
Continuous
 62
     6
370
     5
100
AcDbLine
 10
-1176.521143499085
 20
-663.8742227124774
 30
0.0
 11
-1226.521184739056
 21
-613.8742124024848
 31
0.0
  0
LINE
  5
28E
330
1F
100
AcDbEntity
  8
A-0
  6
Continuous
 62
     6
370
     5
100
AcDbLine
 10
-631.3013818826103
 20
-488.8741402325365
 30
0.0
 11
-732.33755675988
 21
-663.8742227124774
 31
0.0
  0
LINE
  5
28F
330
1F
100
AcDbEntity
  8
A-0
  6
Continuous
 62
     6
370
     5
100
AcDbLine
 10
-613.735628873742
 20
-288.8742227124774
 30
0.0
 11
-864.0211950490477
 21
-288.8742227124774
 31
0.0
  0
LINE
  5
290
330
1F
100
AcDbEntity
  8
A-0
  6
Continuous
 62
     6
370
     5
100
AcDbLine
 10
-613.735628873742
 20
-388.8741814725069
 30
0.0
 11
-801.5210507091514
 21
-388.8741814725069
 31
0.0
  0
LINE
  5
291
330
1F
100
AcDbEntity
  8
A-0
  6
Continuous
 62
     6
370
     5
100
AcDbLine
 10
-613.735628873742
 20
-434.6913143707861
 30
0.0
 11
-659.552576192154
 21
-388.8741814725069
 31
0.0
  0
LINE
  5
292
330
1F
100
AcDbEntity
  8
A-0
  6
Continuous
 62
     6
370
     5
100
AcDbLine
 10
-613.735628873742
 20
-420.5492624678089
 30
0.0
 11
-645.4107098690436
 21
-388.8741814725069
 31
0.0
  0
LINE
  5
293
330
1F
100
AcDbEntity
  8
A-0
  6
Continuous
 62
     6
370
     5
100
AcDbLine
 10
-613.735628873742
 20
-427.6200409794749
 30
0.0
 11
-652.4814883807097
 21
-388.8741814725069
 31
0.0
  0
LINE
  5
294
330
1F
100
AcDbEntity
  8
A-0
  6
Continuous
 62
     6
370
     5
100
AcDbLine
 10
-613.735628873742
 20
-488.8741402325365
 30
0.0
 11
-801.5210507091514
 21
-488.8741402325365
 31
0.0
  0
LINE
  5
295
330
1F
100
AcDbEntity
  8
A-0
  6
Continuous
 62
     6
370
     5
100
AcDbLine
 10
-839.0216074487524
 20
-663.8742227124774
 30
0.0
 11
-613.735628873742
 21
-663.8742227124774
 31
0.0
  0
LINE
  5
296
330
1F
100
AcDbEntity
  8
A-0
  6
Continuous
 62
     6
370
     5
100
AcDbLine
 10
-1414.306451924576
 20
-388.8741814725069
 30
0.0
 11
-1226.521061019144
 21
-388.8741814725069
 31
0.0
  0
LINE
  5
297
330
1F
100
AcDbEntity
  8
A-0
  6
Continuous
 62
     6
370
     5
100
AcDbLine
 10
-1414.306451924576
 20
-488.8741402325365
 30
0.0
 11
-1226.521061019144
 21
-488.8741402325365
 31
0.0
  0
LINE
  5
298
330
1F
100
AcDbEntity
  8
A-0
  6
Continuous
 62
     6
370
     5
100
AcDbLine
 10
-1414.306451924576
 20
-288.8742227124774
 30
0.0
 11
-1164.021071329137
 21
-288.8742227124774
 31
0.0
  0
LINE
  5
299
330
1F
100
AcDbEntity
  8
A-0
  6
Continuous
 62
     6
370
     5
100
AcDbLine
 10
-1377.466621371366
 20
-488.8741402325365
 30
0.0
 11
-1366.432351780731
 21
-507.9861756230296
 31
0.0
  0
LINE
  5
29A
330
1F
100
AcDbEntity
  8
A-0
  6
Continuous
 62
     6
370
     5
100
AcDbLine
 10
-1257.279099101782
 20
-488.8741402325365
 30
0.0
 11
-1246.244798581169
 21
-507.9861756230296
 31
0.0
  0
LINE
  5
29B
330
1F
100
AcDbEntity
  8
A-0
  6
Continuous
 62
     6
370
     5
100
AcDbLine
 10
-1314.177731666842
 20
-663.8742227124774
 30
0.0
 11
-1325.212186837345
 21
-644.7621563920065
 31
0.0
  0
LINE
  5
29C
330
1F
100
AcDbEntity
  8
A-0
  6
Continuous
 62
     6
370
     5
100
AcDbLine
 10
-1302.338725913042
 20
-488.8741402325365
 30
0.0
 11
-1402.338653743093
 21
-388.8741814725069
 31
0.0
  0
LINE
  5
29D
330
1F
100
AcDbEntity
  8
A-0
  6
Continuous
 62
     6
370
     5
100
AcDbLine
 10
-1235.210312480689
 20
-488.8741402325365
 30
0.0
 11
-1336.246425498003
 21
-663.8742227124774
 31
0.0
  0
LINE
  5
29E
330
1F
100
AcDbEntity
  8
A-0
  6
Continuous
 62
     6
370
     5
100
AcDbLine
 10
-1355.398020330139
 20
-488.8741402325365
 30
0.0
 11
-1414.306451924576
 21
-590.9064769057576
 31
0.0
  0
LINE
  5
29F
330
1F
100
AcDbEntity
  8
A-0
  6
Continuous
 62
     6
370
     5
100
AcDbLine
 10
-1309.409813724486
 20
-488.8741402325365
 30
0.0
 11
-1409.409741554538
 21
-388.8741814725069
 31
0.0
  0
LINE
  5
2A0
330
1F
100
AcDbEntity
  8
A-0
  6
Continuous
 62
     6
370
     5
100
AcDbLine
 10
-1295.267421591753
 20
-488.8741402325365
 30
0.0
 11
-1395.267937091383
 21
-388.8741814725069
 31
0.0
  0
LINE
  5
2A1
330
1F
100
AcDbEntity
  8
A-0
  6
Continuous
 62
     6
370
     5
100
AcDbLine
 10
-1226.521184739056
 20
-425.8145963136176
 30
0.0
 11
-1263.461506790233
 21
-388.8741814725069
 31
0.0
  0
LINE
  5
2A2
330
1F
100
AcDbEntity
  8
A-0
  6
Continuous
 62
     6
370
     5
100
AcDbLine
 10
-1226.521184739056
 20
-418.7433229223063
 30
0.0
 11
-1256.390326188855
 21
-388.8741814725069
 31
0.0
  0
LINE
  5
2A3
330
1F
100
AcDbEntity
  8
A-0
  6
Continuous
 62
     6
370
     5
100
AcDbLine
 10
-1226.521184739056
 20
-411.672606270596
 30
0.0
 11
-1249.319609537145
 21
-388.8741814725069
 31
0.0
  0
LINE
  5
2A4
330
1F
100
AcDbEntity
  8
A-0
  6
Continuous
 62
     6
370
     5
100
AcDbLine
 10
-613.735628873742
 20
-663.8742227124774
 30
0.0
 11
-1414.306451924576
 21
-663.8742227124774
 31
0.0
  0
LINE
  5
2A5
330
1F
100
AcDbEntity
  8
A-0
  6
Continuous
 62
     3
370
     9
100
AcDbLine
 10
-1144.02106720514
 20
-281.3740742485837
 30
0.0
 11
-1144.02106720514
 21
-356.3741361085395
 31
0.0
  0
LINE
  5
2A6
330
1F
100
AcDbEntity
  8
A-0
  6
Continuous
 62
     3
370
     9
100
AcDbLine
 10
-1144.02106720514
 20
-281.3740742485837
 30
0.0
 11
-1219.020696045406
 21
-281.3740742485837
 31
0.0
  0
LINE
  5
2A7
330
1F
100
AcDbEntity
  8
A-0
  6
Continuous
 62
     3
370
     9
100
AcDbLine
 10
-1219.020696045406
 20
-283.8741443565335
 30
0.0
 11
-1219.020696045406
 21
-281.3740742485837
 31
0.0
  0
LINE
  5
2A8
330
1F
100
AcDbEntity
  8
A-0
  6
Continuous
 62
     3
370
     9
100
AcDbLine
 10
-1214.020679549418
 20
-288.8742227124774
 30
0.0
 11
-1161.521001221187
 21
-288.8742227124774
 31
0.0
  0
LINE
  5
2A9
330
1F
100
AcDbEntity
  8
A-0
  6
Continuous
 62
     3
370
     9
100
AcDbLine
 10
-1151.520968229211
 20
-351.37399589264
 30
0.0
 11
-1151.520968229211
 21
-298.8740701245868
 31
0.0
  0
LINE
  5
2AA
330
1F
100
AcDbEntity
  8
A-0
  6
Continuous
 62
     3
370
     9
100
AcDbLine
 10
-1146.520951733222
 20
-356.3741361085395
 30
0.0
 11
-1144.02106720514
 21
-356.3741361085395
 31
0.0
  0
ARC
  5
2AB
330
1F
100
AcDbEntity
  8
A-0
  6
Continuous
 62
     3
370
     9
100
AcDbCircle
 10
-866.5211414370863
 20
-298.8740701245868
 30
0.0
 40
10.00000012887491
100
AcDbArc
 50
90.0
 51
180.0
  0
ARC
  5
2AC
330
1F
100
AcDbEntity
  8
A-0
  6
Continuous
 62
     3
370
     9
100
AcDbCircle
 10
-814.0214631088561
 20
-283.8741443565335
 30
0.0
 40
5.000000064437454
100
AcDbArc
 50
270.0
 51
0.0
  0
ARC
  5
2AD
330
1F
100
AcDbEntity
  8
A-0
  6
Continuous
 62
     3
370
     9
100
AcDbCircle
 10
-881.5211909250509
 20
-351.37399589264
 30
0.0
 40
5.000000064437454
100
AcDbArc
 50
270.0
 51
0.0
  0
ARC
  5
2AE
330
1F
100
AcDbEntity
  8
A-0
  6
Continuous
 62
     6
370
     5
100
AcDbCircle
 10
-948.46114800249
 20
-513.874098992566
 30
0.0
 40
75.0
100
AcDbArc
 50
270.0
 51
357.6139373779297
  0
ARC
  5
2AF
330
1F
100
AcDbEntity
  8
A-0
  6
Continuous
 62
     6
370
     5
100
AcDbCircle
 10
-1079.581118375695
 20
-513.8739134126992
 30
0.0
 40
75.0
100
AcDbArc
 50
182.3860626220703
 51
270.0
  0
ARC
  5
2B0
330
1F
100
AcDbEntity
  8
A-0
  6
Continuous
 62
     3
370
     9
100
AcDbCircle
 10
-1161.521001221187
 20
-298.8740701245868
 30
0.0
 40
10.00000012887491
100
AcDbArc
 50
0.0
 51
90.0
  0
ARC
  5
2B1
330
1F
100
AcDbEntity
  8
A-0
  6
Continuous
 62
     3
370
     9
100
AcDbCircle
 10
-1214.020679549418
 20
-283.8741443565335
 30
0.0
 40
5.000000064437454
100
AcDbArc
 50
180.0
 51
270.0
  0
ARC
  5
2B2
330
1F
100
AcDbEntity
  8
A-0
  6
Continuous
 62
     3
370
     9
100
AcDbCircle
 10
-1146.520951733222
 20
-351.37399589264
 30
0.0
 40
5.000000064437454
100
AcDbArc
 50
180.0
 51
270.0
  0
LINE
  5
2B3
330
1F
100
AcDbEntity
  8
A-0
  6
Continuous
 62
     3
370
     9
100
AcDbLine
 10
-1007.771099939366
 20
-303.2489905785636
 30
0.0
 11
-1001.521023645421
 21
-303.2489905785636
 31
0.0
  0
LINE
  5
2B4
330
1F
100
AcDbEntity
  8
A-0
  6
Continuous
 62
     3
370
     9
100
AcDbLine
 10
-1009.02129067423
 20
-305.1245866250114
 30
0.0
 11
-1009.02129067423
 21
-304.4997988175468
 31
0.0
  0
LINE
  5
2B5
330
1F
100
AcDbEntity
  8
A-0
  6
Continuous
 62
     3
370
     9
100
AcDbLine
 10
-1010.271119012853
 20
-306.374157471569
 30
0.0
 11
-1019.021214380284
 21
-306.374157471569
 31
0.0
  0
LINE
  5
2B6
330
1F
100
AcDbEntity
  8
A-0
  6
Continuous
 62
     3
370
     9
100
AcDbLine
 10
-1019.021214380284
 20
-290.7495687436179
 30
0.0
 11
-1019.021214380284
 21
-290.1247833203391
 31
0.0
  0
LINE
  5
2B7
330
1F
100
AcDbEntity
  8
A-0
  6
Continuous
 62
     3
370
     9
100
AcDbLine
 10
-1026.521099939366
 20
-291.9991395901756
 30
0.0
 11
-1020.271157159825
 21
-291.9991395901756
 31
0.0
  0
LINE
  5
2B8
330
1F
100
AcDbEntity
  8
A-0
  6
Continuous
 62
     3
370
     9
100
AcDbLine
 10
-1027.77129067423
 20
-302.3681054543571
 30
0.0
 11
-1027.77129067423
 21
-293.2492063473777
 31
0.0
  0
LINE
  5
2B9
330
1F
100
AcDbEntity
  8
A-0
  6
Continuous
 62
     3
370
     9
100
AcDbLine
 10
-1026.941498651525
 20
-303.5459194611625
 30
0.0
 11
-1019.021214380284
 21
-306.374157471569
 31
0.0
  0
LINE
  5
2BA
330
1F
100
AcDbEntity
  8
A-0
  6
Continuous
 62
     3
370
     9
100
AcDbLine
 10
-1001.100739374181
 20
-291.7034492920951
 30
0.0
 11
-1009.02129067423
 21
-288.8744703959541
 31
0.0
  0
LINE
  5
2BB
330
1F
100
AcDbEntity
  8
A-0
  6
Continuous
 62
     3
370
     9
100
AcDbLine
 10
-1000.271214380284
 20
-292.880025906475
 30
0.0
 11
-1000.271214380284
 21
-301.999419732006
 31
0.0
  0
LINE
  5
2BC
330
1F
100
AcDbEntity
  8
A-0
  6
Continuous
 62
     3
370
     9
100
AcDbLine
 10
-1017.771023645421
 20
-281.3740742485837
 30
0.0
 11
-1017.771023645421
 21
-306.374157471569
 31
0.0
  0
LINE
  5
2BD
330
1F
100
AcDbEntity
  8
A-0
  6
Continuous
 62
     3
370
     9
100
AcDbLine
 10
-1010.271119012853
 20
-281.3740742485837
 30
0.0
 11
-1017.771023645421
 21
-281.3740742485837
 31
0.0
  0
LINE
  5
2BE
330
1F
100
AcDbEntity
  8
A-0
  6
Continuous
 62
     3
370
     9
100
AcDbLine
 10
-1009.02129067423
 20
-288.8744703959541
 30
0.0
 11
-1010.271119012853
 21
-288.8744703959541
 31
0.0
  0
LINE
  5
2BF
330
1F
100
AcDbEntity
  8
A-0
  6
Continuous
 62
     3
370
     9
100
AcDbLine
 10
-1010.271119012853
 20
-281.3740742485837
 30
0.0
 11
-1010.271119012853
 21
-306.374157471569
 31
0.0
  0
ARC
  5
2C0
330
1F
100
AcDbEntity
  8
A-0
  6
Continuous
 62
     3
370
     9
100
AcDbCircle
 10
-1017.771023645421
 20
-290.1247833203391
 30
0.0
 40
1.25
100
AcDbArc
 50
90.0
 51
180.0
  0
ARC
  5
2C1
330
1F
100
AcDbEntity
  8
A-0
  6
Continuous
 62
     3
370
     9
100
AcDbCircle
 10
-1001.521023645421
 20
-301.999419732006
 30
0.0
 40
1.25
100
AcDbArc
 50
270.0
 51
0.0
  0
ARC
  5
2C2
330
1F
100
AcDbEntity
  8
A-0
  6
Continuous
 62
     3
370
     9
100
AcDbCircle
 10
-1007.771099939366
 20
-304.4997988175468
 30
0.0
 40
1.25
100
AcDbArc
 50
90.0
 51
180.0
  0
ARC
  5
2C3
330
1F
100
AcDbEntity
  8
A-0
  6
Continuous
 62
     3
370
     9
100
AcDbCircle
 10
-1010.271119012853
 20
-305.1245866250114
 30
0.0
 40
1.25
100
AcDbArc
 50
270.0
 51
0.0
  0
ARC
  5
2C4
330
1F
100
AcDbEntity
  8
A-0
  6
Continuous
 62
     3
370
     9
100
AcDbCircle
 10
-1020.271157159825
 20
-290.7495687436179
 30
0.0
 40
1.25
100
AcDbArc
 50
270.0
 51
0.0
  0
ARC
  5
2C5
330
1F
100
AcDbEntity
  8
A-0
  6
Continuous
 62
     3
370
     9
100
AcDbCircle
 10
-1026.521099939366
 20
-293.2492063473777
 30
0.0
 40
1.25
100
AcDbArc
 50
90.0
 51
180.0
  0
ARC
  5
2C6
330
1F
100
AcDbEntity
  8
A-0
  6
Continuous
 62
     3
370
     9
100
AcDbCircle
 10
-1026.521099939366
 20
-302.3681054543571
 30
0.0
 40
1.25
100
AcDbArc
 50
180.0
 51
250.3461608886719
  0
ARC
  5
2C7
330
1F
100
AcDbEntity
  8
A-0
  6
Continuous
 62
     3
370
     9
100
AcDbCircle
 10
-1001.521023645421
 20
-292.880025906475
 30
0.0
 40
1.25
100
AcDbArc
 50
0.0
 51
70.34616088867189
  0
LINE
  5
2C8
330
1F
100
AcDbEntity
  8
A-0
  6
Continuous
 62
     3
370
     9
100
AcDbLine
 10
-1144.02106720514
 20
-318.8739917686428
 30
0.0
 11
-884.0210754531337
 21
-318.8739917686428
 31
0.0
  0
LINE
  5
2C9
330
1F
100
AcDbEntity
  8
A-0
  6
Continuous
 62
     7
370
     9
100
AcDbLine
 10
-1219.020696045406
 20
67.30315369957943
 30
0.0
 11
-809.0214466128675
 21
67.30315369957943
 31
0.0
  0
LWPOLYLINE
  5
2CA
330
1F
100
AcDbEntity
  8
A-0
  6
Continuous
 62
     7
370
     9
100
AcDbPolyline
 90
        4
 70
     1
 43
2.0
 10
-1218.020696045406
 20
67.30315369957943
 42
0.4142135623731
 10
-1219.020696045406
 20
68.30315369957943
 42
0.4142135623731
 10
-1220.020696045405
 20
67.30315369957943
 42
0.4142135623731
 10
-1219.020696045406
 20
66.30315369957943
 42
0.4142135623731
  0
LWPOLYLINE
  5
2CB
330
1F
100
AcDbEntity
  8
A-0
  6
Continuous
 62
     7
370
     9
100
AcDbPolyline
 90
        4
 70
     1
 43
2.0
 10
-808.0214466128676
 20
67.30315369957943
 42
0.4142135623731
 10
-809.0214466128675
 20
68.30315369957943
 42
0.4142135623731
 10
-810.0214466128675
 20
67.30315369957943
 42
0.4142135623731
 10
-809.0214466128675
 20
66.30315369957943
 42
0.4142135623731
  0
LINE
  5
2CC
330
1F
100
AcDbEntity
  8
A-0
  6
Continuous
 62
     7
370
     9
100
AcDbLine
 10
-1219.020696045406
 20
70.3031536995794
 30
0.0
 11
-1219.020696045406
 21
-261.3740742485837
 31
0.0
  0
LINE
  5
2CD
330
1F
100
AcDbEntity
  8
A-0
  6
Continuous
 62
     7
370
     9
100
AcDbLine
 10
-809.0214466128675
 20
70.3031536995794
 30
0.0
 11
-809.0214466128675
 21
-261.3740742485837
 31
0.0
  0
TEXT
  5
2CE
330
1F
100
AcDbEntity
  8
A-0
  6
Continuous
 62
     2
370
   211
100
AcDbText
 10
-1046.521071329137
 20
78.94315369957944
 30
0.0
 40
30.48
  1
164
 41
1.083333333333333
  7
ＭＳ ゴシック
100
AcDbText
  0
LINE
  5
2CF
330
1F
100
AcDbEntity
  8
A-0
  6
Continuous
 62
     7
370
     9
100
AcDbLine
 10
-809.0214466128675
 20
-44.51985094569089
 30
0.0
 11
-864.0211950490477
 21
-44.51985094569089
 31
0.0
  0
LWPOLYLINE
  5
2D0
330
1F
100
AcDbEntity
  8
A-0
  6
Continuous
 62
     7
370
     9
100
AcDbPolyline
 90
        4
 70
     1
 43
2.0
 10
-808.0214466128676
 20
-44.51985094569089
 42
0.4142135623731
 10
-809.0214466128675
 20
-43.51985094569089
 42
0.4142135623731
 10
-810.0214466128675
 20
-44.51985094569089
 42
0.4142135623731
 10
-809.0214466128675
 20
-45.51985094569089
 42
0.4142135623731
  0
LWPOLYLINE
  5
2D1
330
1F
100
AcDbEntity
  8
A-0
  6
Continuous
 62
     7
370
     9
100
AcDbPolyline
 90
        4
 70
     1
 43
2.0
 10
-863.0211950490478
 20
-44.51985094569089
 42
0.4142135623731
 10
-864.0211950490477
 20
-43.51985094569089
 42
0.4142135623731
 10
-865.0211950490477
 20
-44.51985094569089
 42
0.4142135623731
 10
-864.0211950490477
 20
-45.51985094569089
 42
0.4142135623731
  0
TEXT
  5
2D2
330
1F
100
AcDbEntity
  8
A-0
  6
Continuous
 62
     2
370
   211
100
AcDbText
 10
-857.7713208309576
 20
-32.87985094569088
 30
0.0
 40
30.48
  1
22
 41
1.0625
  7
ＭＳ ゴシック
100
AcDbText
  0
LINE
  5
2D3
330
1F
100
AcDbEntity
  8
A-0
  6
Continuous
 62
     7
370
     9
100
AcDbLine
 10
-864.0211950490477
 20
-44.51985094569089
 30
0.0
 11
-1164.021071329137
 21
-44.51985094569089
 31
0.0
  0
LWPOLYLINE
  5
2D4
330
1F
100
AcDbEntity
  8
A-0
  6
Continuous
 62
     7
370
     9
100
AcDbPolyline
 90
        4
 70
     1
 43
2.0
 10
-1163.021071329137
 20
-44.51985094569089
 42
0.4142135623731
 10
-1164.021071329137
 20
-43.51985094569089
 42
0.4142135623731
 10
-1165.021071329137
 20
-44.51985094569089
 42
0.4142135623731
 10
-1164.021071329137
 20
-45.51985094569089
 42
0.4142135623731
  0
TEXT
  5
2D5
330
1F
100
AcDbEntity
  8
A-0
  6
Continuous
 62
     2
370
   211
100
AcDbText
 10
-1046.521133189092
 20
-32.87985094569088
 30
0.0
 40
30.48
  1
120
 41
1.083333333333333
  7
ＭＳ ゴシック
100
AcDbText
  0
LINE
  5
2D6
330
1F
100
AcDbEntity
  8
A-0
  6
Continuous
 62
     7
370
     9
100
AcDbLine
 10
-1164.021071329137
 20
-44.51985094569089
 30
0.0
 11
-1219.020696045406
 21
-44.51985094569089
 31
0.0
  0
LWPOLYLINE
  5
2D7
330
1F
100
AcDbEntity
  8
A-0
  6
Continuous
 62
     7
370
     9
100
AcDbPolyline
 90
        4
 70
     1
 43
2.0
 10
-1218.020696045406
 20
-44.51985094569089
 42
0.4142135623731
 10
-1219.020696045406
 20
-43.51985094569089
 42
0.4142135623731
 10
-1220.020696045405
 20
-44.51985094569089
 42
0.4142135623731
 10
-1219.020696045406
 20
-45.51985094569089
 42
0.4142135623731
  0
TEXT
  5
2D8
330
1F
100
AcDbEntity
  8
A-0
  6
Continuous
 62
     2
370
   211
100
AcDbText
 10
-1212.770883687271
 20
-32.87985094569088
 30
0.0
 40
30.48
  1
22
 41
1.0625
  7
ＭＳ ゴシック
100
AcDbText
  0
LINE
  5
2D9
330
1F
100
AcDbEntity
  8
A-0
  6
Continuous
 62
     7
370
     9
100
AcDbLine
 10
-864.0211950490477
 20
-149.2052064672282
 30
0.0
 11
-876.5211744290629
 21
-149.2052064672282
 31
0.0
  0
LWPOLYLINE
  5
2DA
330
1F
100
AcDbEntity
  8
A-0
  6
Continuous
 62
     7
370
     9
100
AcDbPolyline
 90
        4
 70
     1
 43
2.0
 10
-863.0211950490478
 20
-149.2052064672282
 42
0.4142135623731
 10
-864.0211950490477
 20
-148.2052064672282
 42
0.4142135623731
 10
-865.0211950490477
 20
-149.2052064672282
 42
0.4142135623731
 10
-864.0211950490477
 20
-150.2052064672281
 42
0.4142135623731
  0
LWPOLYLINE
  5
2DB
330
1F
100
AcDbEntity
  8
A-0
  6
Continuous
 62
     7
370
     9
100
AcDbPolyline
 90
        4
 70
     1
 43
2.0
 10
-875.521174429063
 20
-149.2052064672282
 42
0.4142135623731
 10
-876.5211744290629
 20
-148.2052064672282
 42
0.4142135623731
 10
-877.5211744290629
 20
-149.2052064672282
 42
0.4142135623731
 10
-876.5211744290629
 20
-150.2052064672281
 42
0.4142135623731
  0
LINE
  5
2DC
330
1F
100
AcDbEntity
  8
A-0
  6
Continuous
 62
     7
370
     9
100
AcDbLine
 10
-876.5211744290629
 20
-149.2052064672282
 30
0.0
 11
-1151.520968229211
 21
-149.2052064672282
 31
0.0
  0
LWPOLYLINE
  5
2DD
330
1F
100
AcDbEntity
  8
A-0
  6
Continuous
 62
     7
370
     9
100
AcDbPolyline
 90
        4
 70
     1
 43
2.0
 10
-1150.520968229211
 20
-149.2052064672282
 42
0.4142135623731
 10
-1151.520968229211
 20
-148.2052064672282
 42
0.4142135623731
 10
-1152.520968229211
 20
-149.2052064672282
 42
0.4142135623731
 10
-1151.520968229211
 20
-150.2052064672281
 42
0.4142135623731
  0
TEXT
  5
2DE
330
1F
100
AcDbEntity
  8
A-0
  6
Continuous
 62
     2
370
   211
100
AcDbText
 10
-1046.521071329137
 20
-137.5652064672281
 30
0.0
 40
30.48
  1
110
 41
1.083333333333333
  7
ＭＳ ゴシック
100
AcDbText
  0
LINE
  5
2DF
330
1F
100
AcDbEntity
  8
A-0
  6
Continuous
 62
     7
370
     9
100
AcDbLine
 10
-1151.520968229211
 20
-149.2052064672282
 30
0.0
 11
-1164.021071329137
 21
-149.2052064672282
 31
0.0
  0
LWPOLYLINE
  5
2E0
330
1F
100
AcDbEntity
  8
A-0
  6
Continuous
 62
     7
370
     9
100
AcDbPolyline
 90
        4
 70
     1
 43
2.0
 10
-1163.021071329137
 20
-149.2052064672282
 42
0.4142135623731
 10
-1164.021071329137
 20
-148.2052064672282
 42
0.4142135623731
 10
-1165.021071329137
 20
-149.2052064672282
 42
0.4142135623731
 10
-1164.021071329137
 20
-150.2052064672281
 42
0.4142135623731
  0
TEXT
  5
2E1
330
1F
100
AcDbEntity
  8
A-0
  6
Continuous
 62
     2
370
   211
100
AcDbText
 10
-1156.364891943669
 20
-137.5652064672281
 30
0.0
 40
30.48
  1
5
 41
0.9999999999999998
  7
ＭＳ ゴシック
100
AcDbText
  0
TEXT
  5
2E2
330
1F
100
AcDbEntity
  8
A-0
  6
Continuous
 62
     2
370
   211
100
AcDbText
 10
-891.1498081525469
 20
-137.5652064672281
 30
0.0
 40
30.48
  1
5
 41
0.9999999999999998
  7
ＭＳ ゴシック
100
AcDbText
  0
LINE
  5
2E3
330
1F
100
AcDbEntity
  8
A-0
  6
Continuous
 62
     7
370
     9
100
AcDbLine
 10
-864.0211950490477
 20
-41.51985094569088
 30
0.0
 11
-864.0211950490477
 21
-261.3740742485837
 31
0.0
  0
LINE
  5
2E4
330
1F
100
AcDbEntity
  8
A-0
  6
Continuous
 62
     7
370
     9
100
AcDbLine
 10
-876.5211744290629
 20
-146.2052064672281
 30
0.0
 11
-876.5211744290629
 21
-261.3740742485837
 31
0.0
  0
LINE
  5
2E5
330
1F
100
AcDbEntity
  8
A-0
  6
Continuous
 62
     7
370
     9
100
AcDbLine
 10
-1164.021071329137
 20
-41.51985094569088
 30
0.0
 11
-1164.021071329137
 21
-261.3740742485837
 31
0.0
  0
LINE
  5
2E6
330
1F
100
AcDbEntity
  8
A-0
  6
Continuous
 62
     7
370
     9
100
AcDbLine
 10
-1151.520968229211
 20
-146.2052064672281
 30
0.0
 11
-1151.520968229211
 21
-261.3740742485837
 31
0.0
  0
LINE
  5
2E7
330
1F
100
AcDbEntity
  8
A-0
  6
Continuous
 62
     7
370
     9
100
AcDbLine
 10
-864.0210094691822
 20
-281.3740742485837
 30
0.0
 11
-848.8019757381842
 21
-261.5402878254418
 31
0.0
  0
LINE
  5
2E8
330
1F
100
AcDbEntity
  8
A-0
  6
Continuous
 62
     7
370
     9
100
AcDbLine
 10
-864.0210094691822
 20
-281.3740742485837
 30
0.0
 11
-844.1869756062176
 21
-266.1550405175871
 31
0.0
  0
LINE
  5
2E9
330
1F
100
AcDbEntity
  8
A-0
  6
Continuous
 62
     7
370
     9
100
AcDbLine
 10
-864.0210094691822
 20
-281.3740742485837
 30
0.0
 11
-689.5539123671967
 21
-106.9069771465988
 31
0.0
  0
TEXT
  5
2EA
330
1F
100
AcDbEntity
  8
A-0
  6
Continuous
 62
     7
370
     9
100
AcDbText
 10
-687.1476838119822
 20
-25.05052714923822
 30
0.0
 40
22.86
  1
滑り止め模様付歩道Ｕ字溝用
 41
1.153846153846155
  7
ＭＳ ゴシック
100
AcDbText
  0
LINE
  5
2EB
330
1F
100
AcDbEntity
  8
A-0
  6
Continuous
 62
     7
370
     9
100
AcDbLine
 10
-689.5539123671967
 20
-106.9069771465988
 30
0.0
 11
-202.6698713122813
 21
-106.9069771465988
 31
0.0
  0
TEXT
  5
2EC
330
1F
100
AcDbEntity
  8
A-0
  6
Continuous
 62
     7
370
     9
100
AcDbText
 10
-687.1469487172069
 20
-62.5183599723
 30
0.0
 40
22.86
  1
ステンレス製グレーチング
 50
0.000153729295388
 41
1.152777777777775
  7
ＭＳ ゴシック
100
AcDbText
  0
LINE
  5
2ED
330
1F
100
AcDbEntity
  8
A-0
  6
Continuous
 62
     7
370
     9
100
AcDbLine
 10
-1300.774844374032
 20
-830.4119657456906
 30
0.0
 11
-1300.774844374032
 21
-765.4123698974001
 31
0.0
  0
LINE
  5
2EE
330
1F
100
AcDbEntity
  8
A-0
  6
Continuous
 62
     7
370
     9
100
AcDbLine
 10
-1300.774844374032
 20
-765.4123698974001
 30
0.0
 11
-725.7749268539739
 21
-765.4123698974001
 31
0.0
  0
LINE
  5
2EF
330
1F
100
AcDbEntity
  8
A-0
  6
Continuous
 62
     7
370
     9
100
AcDbLine
 10
-725.7749268539739
 20
-765.4123698974001
 30
0.0
 11
-725.7749268539739
 21
-830.4119657456906
 31
0.0
  0
LINE
  5
2F0
330
1F
100
AcDbEntity
  8
A-0
  6
Continuous
 62
     7
370
     9
100
AcDbLine
 10
-725.7749268539739
 20
-830.4119657456906
 30
0.0
 11
-1300.774844374032
 21
-830.4119657456906
 31
0.0
  0
TEXT
  5
2F1
330
1F
100
AcDbEntity
  8
A-0
  6
Continuous
 62
     2
370
     9
100
AcDbText
 10
-1262.005659539784
 20
-812.2722956654538
 30
0.0
 40
30.48
  1
断面詳細図　Ｓ＝１：４
 41
1.113636363636364
  7
ＭＳ ゴシック
100
AcDbText
  0
LINE
  5
2F2
330
1F
100
AcDbEntity
  8
A-0
  6
Continuous
 62
     6
370
     5
100
AcDbLine
 10
-1226.521184739056
 20
-445.5157552704821
 30
0.0
 11
-1160.255449383689
 21
-379.2500806780389
 31
0.0
  0
LINE
  5
2F3
330
1F
100
AcDbEntity
  8
A-0
  6
Continuous
 62
     6
370
     5
100
AcDbLine
 10
-1226.521184739056
 20
-438.4448749576621
 30
0.0
 11
-1160.538289086608
 21
-372.4618578589753
 31
0.0
  0
LINE
  5
2F4
330
1F
100
AcDbEntity
  8
A-0
  6
Continuous
 62
     6
370
     5
100
AcDbLine
 10
-1226.521184739056
 20
-431.373818943184
 30
0.0
 11
-1160.821118816842
 21
-365.6738743868171
 31
0.0
  0
LINE
  5
2F5
330
1F
100
AcDbEntity
  8
A-0
  6
Continuous
 62
     6
370
     5
100
AcDbLine
 10
-1223.262458467696
 20
-617.1329366579992
 30
0.0
 11
-1148.822951973097
 21
-542.6934984213312
 31
0.0
  0
LINE
  5
2F6
330
1F
100
AcDbEntity
  8
A-0
  6
Continuous
 62
     6
370
     5
100
AcDbLine
 10
-1226.521184739056
 20
-613.3212618544078
 30
0.0
 11
-1150.747027500359
 21
-537.5469651479547
 31
0.0
  0
LINE
  5
2F7
330
1F
100
AcDbEntity
  8
A-0
  6
Continuous
 62
     6
370
     5
100
AcDbLine
 10
-1226.521184739056
 20
-606.2495609244872
 30
0.0
 11
-1152.340558978661
 21
-532.0690721958338
 31
0.0
  0
LINE
  5
2F8
330
1F
100
AcDbEntity
  8
A-0
  6
Continuous
 62
     6
370
     5
100
AcDbLine
 10
-1095.12772235719
 20
-663.8742227124774
 30
0.0
 11
-1020.127529865221
 21
-588.874098992566
 31
0.0
  0
LINE
  5
2F9
330
1F
100
AcDbEntity
  8
A-0
  6
Continuous
 62
     6
370
     5
100
AcDbLine
 10
-1102.197987526117
 20
-663.8742227124774
 30
0.0
 11
-1027.198001849044
 21
-588.874098992566
 31
0.0
  0
LINE
  5
2FA
330
1F
100
AcDbEntity
  8
A-0
  6
Continuous
 62
     6
370
     5
100
AcDbLine
 10
-1109.269887950788
 20
-663.8742227124774
 30
0.0
 11
-1034.269625685044
 21
-588.874098992566
 31
0.0
  0
LINE
  5
2FB
330
1F
100
AcDbEntity
  8
A-0
  6
Continuous
 62
     6
370
     5
100
AcDbLine
 10
-870.2773959294866
 20
-439.0241024631725
 30
0.0
 11
-801.5210507091514
 21
-370.2678202895466
 31
0.0
  0
LINE
  5
2FC
330
1F
100
AcDbEntity
  8
A-0
  6
Continuous
 62
     6
370
     5
100
AcDbLine
 10
-869.9699678095176
 20
-431.6457755635968
 30
0.0
 11
-801.5210507091514
 21
-363.1967324781024
 31
0.0
  0
LINE
  5
2FD
330
1F
100
AcDbEntity
  8
A-0
  6
Continuous
 62
     6
370
     5
100
AcDbLine
 10
-869.6625339681567
 20
-424.267311349635
 30
0.0
 11
-801.5210507091514
 21
-356.1259539664363
 31
0.0
  0
LINE
  5
2FE
330
1F
100
AcDbEntity
  8
A-0
  6
Continuous
 62
     7
370
     9
100
AcDbLine
 10
-1044.291309522047
 20
-281.3740742485837
 30
0.0
 11
-1044.291309522047
 21
-318.8739917686428
 31
0.0
  0
LWPOLYLINE
  5
2FF
330
1F
100
AcDbEntity
  8
A-0
  6
Continuous
 62
     7
370
     9
100
AcDbPolyline
 90
        4
 70
     1
 43
2.0
 10
-1043.291309522047
 20
-281.3740742485837
 42
0.4142135623731
 10
-1044.291309522047
 20
-280.3740742485837
 42
0.4142135623731
 10
-1045.291309522047
 20
-281.3740742485837
 42
0.4142135623731
 10
-1044.291309522047
 20
-282.3740742485837
 42
0.4142135623731
  0
LWPOLYLINE
  5
300
330
1F
100
AcDbEntity
  8
A-0
  6
Continuous
 62
     7
370
     9
100
AcDbPolyline
 90
        4
 70
     1
 43
2.0
 10
-1043.291309522047
 20
-318.8739917686428
 42
0.4142135623731
 10
-1044.291309522047
 20
-317.8739917686428
 42
0.4142135623731
 10
-1045.291309522047
 20
-318.8739917686428
 42
0.4142135623731
 10
-1044.291309522047
 20
-319.8739917686429
 42
0.4142135623731
  0
TEXT
  5
301
330
1F
100
AcDbEntity
  8
A-0
  6
Continuous
 62
     2
370
   211
100
AcDbText
 10
-1055.931309522047
 20
-369.4832894132012
 30
0.0
 40
30.48
  1
15
 50
90.0
 41
1.0625
  7
ＭＳ ゴシック
100
AcDbText
  0
LINE
  5
302
330
1F
100
AcDbEntity
  8
A-0
  6
Continuous
 62
     7
370
     9
100
AcDbLine
 10
-1044.291309522047
 20
-318.8739917686428
 30
0.0
 11
-1044.291309522047
 21
-373.3792396247977
 31
0.0
  0
TEXT
  5
303
330
1F
100
AcDbEntity
  8
A-0
  6
Continuous
 62
     7
370
     9
100
AcDbText
 10
-687.1469507957073
 20
-99.15603219042227
 30
0.0
 40
22.86
  1
ＳＭＱＨＵ(h=15)ピッチ＝２２
 50
0.0001260200668
 41
1.154761904761904
  7
ＭＳ ゴシック
100
AcDbText
  0
LINE
  5
304
330
1F
100
AcDbEntity
  8
A-5
  6
Continuous
 62
     7
370
     9
100
AcDbLine
 10
330.4588524070948
 20
-13.06739749864661
 30
0.0
 11
330.4588524070948
 21
36.93289118114635
 31
0.0
  0
LINE
  5
305
330
1F
100
AcDbEntity
  8
A-5
  6
Continuous
 62
     7
370
     9
100
AcDbLine
 10
330.4588524070948
 20
36.93289118114635
 30
0.0
 11
555.4588524070948
 21
36.93289118114635
 31
0.0
  0
LINE
  5
306
330
1F
100
AcDbEntity
  8
A-5
  6
Continuous
 62
     7
370
     9
100
AcDbLine
 10
555.4588524070948
 20
36.93289118114635
 30
0.0
 11
555.4588524070948
 21
-13.06739749864661
 31
0.0
  0
LINE
  5
307
330
1F
100
AcDbEntity
  8
A-5
  6
Continuous
 62
     7
370
     9
100
AcDbLine
 10
555.4588524070948
 20
-13.06739749864661
 30
0.0
 11
330.4588524070948
 21
-13.06739749864661
 31
0.0
  0
TEXT
  5
308
330
1F
100
AcDbEntity
  8
A-5
  6
Continuous
 62
     2
370
     9
100
AcDbText
 10
373.0026327597129
 20
-4.993084523562246
 30
0.0
 40
30.48
  1
仕　様
 41
1.083333333333333
  7
ＭＳ ゴシック
100
AcDbText
  0
TEXT
  5
309
330
1F
100
AcDbEntity
  8
A-5
  6
Continuous
 62
     2
370
     9
100
AcDbText
 10
492.2612288191513
 20
-285.3487132846475
 30
0.0
 40
30.48
  1
　　　受けつば　　Ｌ３０×３０×３（ＳＵＳ３０４）
 41
1.12
  7
ＭＳ ゴシック
100
AcDbText
  0
TEXT
  5
30A
330
1F
100
AcDbEntity
  8
A-5
  6
Continuous
 62
     2
370
     9
100
AcDbText
 10
492.2605607316302
 20
-340.3490803203845
 30
0.0
 40
30.48
  1
定尺：９９４
 41
1.104166666666667
  7
ＭＳ ゴシック
100
AcDbText
  0
TEXT
  5
30B
330
1F
100
AcDbEntity
  8
A-5
  6
Continuous
 62
     2
370
     9
100
AcDbText
 10
492.261204075169
 20
-175.3483503729077
 30
0.0
 40
30.48
  1
材質：メインバー　ＦＢ４×１５（ＳＵＳ３０４）
 41
1.119565217391304
  7
ＭＳ ゴシック
100
AcDbText
  0
TEXT
  5
30C
330
1F
100
AcDbEntity
  8
A-5
  6
Continuous
 62
     2
370
     9
100
AcDbText
 10
492.261204075169
 20
-230.3491504283343
 30
0.0
 40
30.48
  1
　　　クロスバー　ＦＢ３×１０（ＳＵＳ３０４）
 41
1.119565217391304
  7
ＭＳ ゴシック
100
AcDbText
  0
TEXT
  5
30D
330
1F
100
AcDbEntity
  8
A-5
  6
Continuous
 62
     2
370
     9
100
AcDbText
 10
432.5485311972129
 20
-65.34774002134519
 30
0.0
 40
30.48
  1
滑り止め模様付　歩道Ｕ字溝用ステンレス製グレーチング
 41
1.120192307692308
  7
ＭＳ ゴシック
100
AcDbText
  0
TEXT
  5
30E
330
1F
100
AcDbEntity
  8
A-5
  6
Continuous
 62
     7
370
     9
100
AcDbText
 10
387.9588524070947
 20
-524.8749749378217
 30
0.0
 40
30.48
  1
強　度
 41
0.8749999999999999
  7
ＭＳ ゴシック
100
AcDbText
  0
TEXT
  5
30F
330
1F
100
AcDbEntity
  8
A-5
  6
Continuous
 62
     7
370
     9
100
AcDbText
 10
597.9588524070947
 20
-524.8749749378217
 30
0.0
 40
30.48
  1
歩行用
 41
0.8749999999999999
  7
ＭＳ ゴシック
100
AcDbText
  0
TEXT
  5
310
330
1F
100
AcDbEntity
  8
A-5
  6
Continuous
 62
     7
370
     9
100
AcDbText
 10
352.9588524070947
 20
-574.8749749378217
 30
0.0
 40
30.48
  1
等分布荷重
 41
0.8749999999999999
  7
ＭＳ ゴシック
100
AcDbText
  0
TEXT
  5
311
330
1F
100
AcDbEntity
  8
A-5
  6
Continuous
 62
     7
370
     9
100
AcDbText
 10
580.4588524070947
 20
-574.8749749378217
 30
0.0
 40
30.48
  1
5.0kN/㎡
 41
0.8749999999999999
  7
ＭＳ ゴシック
100
AcDbText
  0
TEXT
  5
312
330
1F
100
AcDbEntity
  8
A-5
  6
Continuous
 62
     7
370
     9
100
AcDbText
 10
370.4588524070947
 20
-624.8749749378217
 30
0.0
 40
30.48
  1
衝撃係数
 41
0.8749999999999999
  7
ＭＳ ゴシック
100
AcDbText
  0
TEXT
  5
313
330
1F
100
AcDbEntity
  8
A-5
  6
Continuous
 62
     7
370
     9
100
AcDbText
 10
641.7088524070947
 20
-624.8749749378217
 30
0.0
 40
30.48
  1
0
 41
0.8749999999999999
  7
ＭＳ ゴシック
100
AcDbText
  0
LINE
  5
314
330
1F
100
AcDbEntity
  8
A-4
  6
Continuous
 62
     2
370
     9
100
AcDbLine
 10
330.4588524070947
 20
-1023.117539040386
 30
0.0
 11
330.4588524070947
 21
-723.4515852068716
 31
0.0
  0
LINE
  5
315
330
1F
100
AcDbEntity
  8
A-4
  6
Continuous
 62
     2
370
     9
100
AcDbLine
 10
330.4588524070947
 20
-486.5149749378218
 30
0.0
 11
750.4588524070947
 21
-486.5149749378218
 31
0.0
  0
LINE
  5
316
330
1F
100
AcDbEntity
  8
A-4
  6
Continuous
 62
     2
370
     9
100
AcDbLine
 10
330.4588524070947
 20
-586.5149749378218
 30
0.0
 11
750.4588524070947
 21
-586.5149749378218
 31
0.0
  0
LINE
  5
317
330
1F
100
AcDbEntity
  8
A-4
  6
Continuous
 62
     2
370
     9
100
AcDbLine
 10
330.4588524070947
 20
-536.5149749378218
 30
0.0
 11
750.4588524070947
 21
-536.5149749378218
 31
0.0
  0
LINE
  5
318
330
1F
100
AcDbEntity
  8
A-4
  6
Continuous
 62
     2
370
     9
100
AcDbLine
 10
750.4588524070947
 20
-486.5149749378218
 30
0.0
 11
750.4588524070947
 21
-636.5149749378218
 31
0.0
  0
LINE
  5
319
330
1F
100
AcDbEntity
  8
A-4
  6
Continuous
 62
     2
370
     9
100
AcDbLine
 10
330.4588524070947
 20
-636.5149749378218
 30
0.0
 11
750.4588524070947
 21
-636.5149749378218
 31
0.0
  0
LINE
  5
31A
330
1F
100
AcDbEntity
  8
A-4
  6
Continuous
 62
     2
370
     9
100
AcDbLine
 10
330.4588524070947
 20
-486.5149749378218
 30
0.0
 11
330.4588524070947
 21
-636.5149749378218
 31
0.0
  0
LINE
  5
31B
330
1F
100
AcDbEntity
  8
A-4
  6
Continuous
 62
     2
370
     9
100
AcDbLine
 10
550.4588524070947
 20
-486.5149749378218
 30
0.0
 11
550.4588524070947
 21
-636.5149749378218
 31
0.0
  0
LINE
  5
31C
330
1F
100
AcDbEntity
  8
A-4
  6
Continuous
 62
     2
370
     9
100
AcDbLine
 10
330.4588524070947
 20
-723.4515852068716
 30
0.0
 11
1793.896414025946
 21
-723.4515852068716
 31
0.0
  0
LINE
  5
31D
330
1F
100
AcDbEntity
  8
A-4
  6
Continuous
 62
     2
370
     9
100
AcDbLine
 10
1793.896414025946
 20
-723.4515852068716
 30
0.0
 11
1793.896414025946
 21
-1023.117539040386
 31
0.0
  0
LINE
  5
31E
330
1F
100
AcDbEntity
  8
A-4
  6
Continuous
 62
     2
370
     9
100
AcDbLine
 10
1793.896414025946
 20
-1023.117539040386
 30
0.0
 11
330.4588524070947
 21
-1023.117539040386
 31
0.0
  0
TEXT
  5
31F
330
1F
100
AcDbEntity
  8
A-5
  6
Continuous
 62
     2
370
     9
100
AcDbText
 10
492.2605607316302
 20
-395.3498803758111
 30
0.0
 40
30.48
  1
質量：５．１ｋｇ／枚
 41
1.1125
  7
ＭＳ ゴシック
100
AcDbText
  0
TEXT
  5
320
330
1F
100
AcDbEntity
  8
A-5
  6
Continuous
 62
     7
370
     9
100
AcDbText
 10
329.5761993458701
 20
-705.6797824857832
 30
0.0
 40
30.48
  1
設置場所について
 41
0.8749999999999999
  7
ＭＳ ゴシック
100
AcDbText
  0
TEXT
  5
321
330
1F
100
AcDbEntity
  8
A-5
  6
Continuous
 62
     7
370
     9
100
AcDbText
 10
363.4078319989321
 20
-887.0053143534998
 30
0.0
 40
30.48
  1
建物内、建物敷地内などで、車の乗り入れの無い場所でお使いいただけます。
 41
0.875
  7
ＭＳ ゴシック
100
AcDbText
  0
TEXT
  5
322
330
1F
100
AcDbEntity
  8
A-5
  6
Continuous
 62
     2
370
     9
100
AcDbText
 10
432.5485311972129
 20
-120.3484163568604
 30
0.0
 40
30.48
  1
ＳＭＱＨＵ　１２１５　Ｐ＝２２（すきま１８mm）
 41
1.119565217391304
  7
ＭＳ ゴシック
100
AcDbText
  0
TEXT
  5
323
330
1F
100
AcDbEntity
  8
F-5
  6
Continuous
 62
     2
370
     9
100
AcDbText
 10
-914.4209390422117
 20
-1351.199162465688
 30
0.0
 40
30.48
  1
滑り止め模様付　歩道Ｕ字溝用ステンレス製グレーチング ＳＭＱＨＵ　１２１５　Ｐ＝２２
 41
0.7743975903614457
  7
ＭＳ ゴシック
100
AcDbText
  0
LINE
  5
324
330
1F
100
AcDbEntity
  8
C-5
  6
Continuous
 62
     7
370
     9
100
AcDbLine
 10
846.915250211149
 20
697.1760022962417
 30
0.0
 11
1093.989505252323
 21
697.1760022962417
 31
0.0
  0
ENDSEC
  0
SECTION
  2
OBJECTS
  0
DICTIONARY
  5
C
330
0
100
AcDbDictionary
281
     1
  3
ACAD_DETAILVIEWSTYLE
350
36A
  3
ACAD_GROUP
350
D
  3
ACAD_LAYOUT
350
1A
  3
ACAD_MATERIAL
350
43
  3
ACAD_MLEADERSTYLE
350
6B
  3
ACAD_MLINESTYLE
350
17
  3
ACAD_PLOTSETTINGS
350
19
  3
ACAD_PLOTSTYLENAME
350
E
  3
ACAD_SCALELIST
350
47
  3
ACAD_SECTIONVIEWSTYLE
350
36B
  3
ACAD_TABLESTYLE
350
69
  3
ACAD_VISUALSTYLE
350
2A
  3
ACDB_RECOMPOSE_DATA
350
367
  3
AcDbVariableDictionary
350
327
  0
DICTIONARY
  5
325
330
8
100
AcDbDictionary
280
     1
281
     1
  3
ACAD_XREC_ROUNDTRIP
360
326
  0
DICTIONARY
  5
36A
102
{ACAD_REACTORS
330
C
102
}
330
C
100
AcDbDictionary
281
     1
  0
DICTIONARY
  5
D
102
{ACAD_REACTORS
330
C
102
}
330
C
100
AcDbDictionary
281
     1
  0
DICTIONARY
  5
1A
102
{ACAD_REACTORS
330
C
102
}
330
C
100
AcDbDictionary
281
     1
  3
Layout1
350
1E
  3
Layout2
350
26
  3
Model
350
22
  0
DICTIONARY
  5
43
102
{ACAD_REACTORS
330
C
102
}
330
C
100
AcDbDictionary
281
     1
  3
ByBlock
350
45
  3
ByLayer
350
44
  3
Global
350
46
  0
DICTIONARY
  5
6B
102
{ACAD_REACTORS
330
C
102
}
330
C
100
AcDbDictionary
281
     1
  3
Standard
350
6C
  0
DICTIONARY
  5
17
102
{ACAD_REACTORS
330
C
102
}
330
C
100
AcDbDictionary
281
     1
  3
Standard
350
18
  0
DICTIONARY
  5
19
102
{ACAD_REACTORS
330
C
102
}
330
C
100
AcDbDictionary
281
     1
  0
ACDBDICTIONARYWDFLT
  5
E
102
{ACAD_REACTORS
330
C
102
}
330
C
100
AcDbDictionary
281
     1
  3
Normal
350
F
100
AcDbDictionaryWithDefault
340
F
  0
DICTIONARY
  5
47
102
{ACAD_REACTORS
330
C
102
}
330
C
100
AcDbDictionary
281
     1
  3
A0
350
48
  3
A1
350
49
  3
A2
350
4A
  3
A3
350
4B
  3
A4
350
4C
  3
A5
350
4D
  3
A6
350
4E
  3
A7
350
4F
  3
A8
350
50
  3
A9
350
51
  3
B0
350
52
  3
B1
350
53
  3
B2
350
54
  3
B3
350
55
  3
B4
350
56
  3
B5
350
57
  3
B6
350
58
  3
B7
350
59
  3
B8
350
5A
  3
B9
350
5B
  3
C0
350
5C
  3
C1
350
5D
  3
C2
350
5E
  3
C3
350
5F
  3
C4
350
60
  3
C5
350
61
  3
C6
350
62
  3
C7
350
63
  3
C8
350
64
  3
C9
350
65
  3
D0
350
66
  3
D1
350
67
  3
D2
350
68
  0
DICTIONARY
  5
36B
102
{ACAD_REACTORS
330
C
102
}
330
C
100
AcDbDictionary
281
     1
  0
DICTIONARY
  5
69
102
{ACAD_REACTORS
330
C
102
}
330
C
100
AcDbDictionary
281
     1
  3
Standard
350
6A
  0
DICTIONARY
  5
2A
102
{ACAD_REACTORS
330
C
102
}
330
C
100
AcDbDictionary
281
     1
  3
2dWireframe
350
2F
  3
Basic
350
32
  3
Brighten
350
36
  3
ColorChange
350
3A
  3
Conceptual
350
34
  3
Dim
350
35
  3
EdgeColorOff
350
3D
  3
Facepattern
350
39
  3
Flat
350
2B
  3
FlatWithEdges
350
2C
  3
Gouraud
350
2D
  3
GouraudWithEdges
350
2E
  3
Hidden
350
31
  3
JitterOff
350
3B
  3
Linepattern
350
38
  3
OverhangOff
350
3C
  3
Realistic
350
33
  3
Shaded
350
42
  3
Shaded with edges
350
41
  3
Shades of Gray
350
3E
  3
Sketchy
350
3F
  3
Thicken
350
37
  3
Wireframe
350
30
  3
X-Ray
350
40
  0
XRECORD
  5
367
102
{ACAD_REACTORS
330
C
102
}
330
C
100
AcDbXrecord
280
     1
 90
        1
330
6A
  0
DICTIONARY
  5
327
102
{ACAD_REACTORS
330
C
102
}
330
C
100
AcDbDictionary
281
     1
  3
CANNOSCALE
350
328
  3
CENTEREXE
350
36C
  3
CENTERLTYPEFILE
350
36D
  3
CMLEADERSTYLE
350
369
  3
CTABLESTYLE
350
368
  3
MSLTSCALE
350
329
  3
XCLIPFRAME
350
32A
  0
XRECORD
  5
326
102
{ACAD_REACTORS
330
325
102
}
330
325
100
AcDbXrecord
280
     1
102
VTR_0.000_0.000_1.000_1.000_VISUALSTYLE
340
2F
102
VTR_0.000_0.000_1.000_1.000_GRIDDISPLAY
 70
     3
102
VTR_0.000_0.000_1.000_1.000_GRIDMAJOR
 70
     5
102
VTR_0.000_0.000_1.000_1.000_DEFAULTLIGHTING
280
     1
102
VTR_0.000_0.000_1.000_1.000_DEFAULTLIGHTINGTYPE
 70
     1
102
VTR_0.000_0.000_1.000_1.000_BRIGHTNESS
141
0.0
102
VTR_0.000_0.000_1.000_1.000_CONTRAST
142
0.0
  0
LAYOUT
  5
1E
102
{ACAD_REACTORS
330
1A
102
}
330
1A
100
AcDbPlotSettings
  1

  2
none_device
  4

  6

 40
0.0
 41
0.0
 42
0.0
 43
0.0
 44
0.0
 45
0.0
 46
0.0
 47
0.0
 48
0.0
 49
0.0
140
0.0
141
0.0
142
1.0
143
1.0
 70
   688
 72
     1
 73
     0
 74
     5
  7

 75
    16
 76
     0
 77
     5
 78
   300
147
1.0
148
0.0
149
0.0
100
AcDbLayout
  1
Layout1
 70
     1
 71
     1
 10
0.0
 20
0.0
 11
420.0
 21
297.0
 12
0.0
 22
0.0
 32
0.0
 14
1.000000000000000E+20
 24
1.000000000000000E+20
 34
1.000000000000000E+20
 15
-1.000000000000000E+20
 25
-1.000000000000000E+20
 35
-1.000000000000000E+20
146
0.0
 13
0.0
 23
0.0
 33
0.0
 16
1.0
 26
0.0
 36
0.0
 17
0.0
 27
1.0
 37
0.0
 76
     0
330
1B
  0
LAYOUT
  5
26
102
{ACAD_REACTORS
330
1A
102
}
330
1A
100
AcDbPlotSettings
  1

  2
none_device
  4

  6

 40
0.0
 41
0.0
 42
0.0
 43
0.0
 44
0.0
 45
0.0
 46
0.0
 47
0.0
 48
0.0
 49
0.0
140
0.0
141
0.0
142
1.0
143
1.0
 70
   688
 72
     1
 73
     0
 74
     5
  7

 75
    16
 76
     0
 77
     5
 78
   300
147
1.0
148
0.0
149
0.0
100
AcDbLayout
  1
Layout2
 70
     1
 71
     2
 10
0.0
 20
0.0
 11
0.0
 21
0.0
 12
0.0
 22
0.0
 32
0.0
 14
0.0
 24
0.0
 34
0.0
 15
0.0
 25
0.0
 35
0.0
146
0.0
 13
0.0
 23
0.0
 33
0.0
 16
1.0
 26
0.0
 36
0.0
 17
0.0
 27
1.0
 37
0.0
 76
     0
330
23
  0
LAYOUT
  5
22
102
{ACAD_REACTORS
330
1A
102
}
330
1A
100
AcDbPlotSettings
  1

  2
none_device
  4
Letter_(8.50_x_11.00_Inches)
  6

 40
6.35
 41
6.35
 42
6.35000508
 43
6.35000508
 44
215.9
 45
279.4
 46
0.0
 47
0.0
 48
0.0
 49
0.0
140
0.0
141
0.0
142
1.0
143
1.0
 70
  1712
 72
     1
 73
     0
 74
     0
  7

 75
     0
 76
     0
 77
     5
 78
   300
147
1.0
148
0.0
149
0.0
100
AcDbLayout
  1
Model
 70
     1
 71
     0
 10
-2100.0
 20
-1485.0
 11
2100.0
 21
1485.0
 12
0.0
 22
0.0
 32
0.0
 14
-2100.0
 24
-1485.0
 34
0.0
 15
2100.0
 25
1485.0
 35
0.0
146
0.0
 13
0.0
 23
0.0
 33
0.0
 16
1.0
 26
0.0
 36
0.0
 17
0.0
 27
1.0
 37
0.0
 76
     0
330
1F
331
29
  0
MATERIAL
  5
45
102
{ACAD_REACTORS
330
43
102
}
102
{ACAD_XDICTIONARY
360
35D
102
}
330
43
100
AcDbMaterial
  1
ByBlock
  0
MATERIAL
  5
44
102
{ACAD_REACTORS
330
43
102
}
102
{ACAD_XDICTIONARY
360
35B
102
}
330
43
100
AcDbMaterial
  1
ByLayer
  0
MATERIAL
  5
46
102
{ACAD_REACTORS
330
43
102
}
102
{ACAD_XDICTIONARY
360
35F
102
}
330
43
100
AcDbMaterial
  1
Global
  0
MLEADERSTYLE
  5
6C
102
{ACAD_REACTORS
330
6B
102
}
102
{ACAD_XDICTIONARY
360
365
102
}
330
6B
100
AcDbMLeaderStyle
170
     2
171
     1
172
     0
 90
        2
 40
0.0
 41
0.0
173
     1
 91
-1056964608
340
14
 92
       -2
290
     1
 42
2.0
291
     1
 43
8.0
  3
Standard
341
0
 44
4.0
300

342
11
174
     1
178
     6
175
     1
176
     0
 93
-1056964608
 45
4.0
292
     0
297
     0
 46
4.0
343
0
 94
-1056964608
 47
1.0
 49
1.0
140
1.0
293
     1
141
0.0
294
     1
177
     0
142
1.0
295
     0
296
     0
143
3.75
1001
ACAD_MLEADERVER
1070
     2
  0
MLINESTYLE
  5
18
102
{ACAD_REACTORS
330
17
102
}
330
17
100
AcDbMlineStyle
  2
Standard
 70
     0
  3

 62
   256
 51
90.0
 52
90.0
 71
     2
 49
0.5
 62
   256
  6
BYLAYER
 49
-0.5
 62
   256
  6
BYLAYER
  0
ACDBPLACEHOLDER
  5
F
102
{ACAD_REACTORS
330
E
102
}
330
E
  0
SCALE
  5
48
102
{ACAD_REACTORS
330
47
102
}
330
47
100
AcDbScale
 70
     0
300
1:1
140
1.0
141
1.0
290
     1
  0
SCALE
  5
49
102
{ACAD_REACTORS
330
47
102
}
330
47
100
AcDbScale
 70
     0
300
1:2
140
1.0
141
2.0
290
     0
  0
SCALE
  5
4A
102
{ACAD_REACTORS
330
47
102
}
330
47
100
AcDbScale
 70
     0
300
1:4
140
1.0
141
4.0
290
     0
  0
SCALE
  5
4B
102
{ACAD_REACTORS
330
47
102
}
330
47
100
AcDbScale
 70
     0
300
1:5
140
1.0
141
5.0
290
     0
  0
SCALE
  5
4C
102
{ACAD_REACTORS
330
47
102
}
330
47
100
AcDbScale
 70
     0
300
1:8
140
1.0
141
8.0
290
     0
  0
SCALE
  5
4D
102
{ACAD_REACTORS
330
47
102
}
330
47
100
AcDbScale
 70
     0
300
1:10
140
1.0
141
10.0
290
     0
  0
SCALE
  5
4E
102
{ACAD_REACTORS
330
47
102
}
330
47
100
AcDbScale
 70
     0
300
1:16
140
1.0
141
16.0
290
     0
  0
SCALE
  5
4F
102
{ACAD_REACTORS
330
47
102
}
330
47
100
AcDbScale
 70
     0
300
1:20
140
1.0
141
20.0
290
     0
  0
SCALE
  5
50
102
{ACAD_REACTORS
330
47
102
}
330
47
100
AcDbScale
 70
     0
300
1:30
140
1.0
141
30.0
290
     0
  0
SCALE
  5
51
102
{ACAD_REACTORS
330
47
102
}
330
47
100
AcDbScale
 70
     0
300
1:40
140
1.0
141
40.0
290
     0
  0
SCALE
  5
52
102
{ACAD_REACTORS
330
47
102
}
330
47
100
AcDbScale
 70
     0
300
1:50
140
1.0
141
50.0
290
     0
  0
SCALE
  5
53
102
{ACAD_REACTORS
330
47
102
}
330
47
100
AcDbScale
 70
     0
300
1:100
140
1.0
141
100.0
290
     0
  0
SCALE
  5
54
102
{ACAD_REACTORS
330
47
102
}
330
47
100
AcDbScale
 70
     0
300
2:1
140
2.0
141
1.0
290
     0
  0
SCALE
  5
55
102
{ACAD_REACTORS
330
47
102
}
330
47
100
AcDbScale
 70
     0
300
4:1
140
4.0
141
1.0
290
     0
  0
SCALE
  5
56
102
{ACAD_REACTORS
330
47
102
}
330
47
100
AcDbScale
 70
     0
300
8:1
140
8.0
141
1.0
290
     0
  0
SCALE
  5
57
102
{ACAD_REACTORS
330
47
102
}
330
47
100
AcDbScale
 70
     0
300
10:1
140
10.0
141
1.0
290
     0
  0
SCALE
  5
58
102
{ACAD_REACTORS
330
47
102
}
330
47
100
AcDbScale
 70
     0
300
100:1
140
100.0
141
1.0
290
     0
  0
SCALE
  5
59
102
{ACAD_REACTORS
330
47
102
}
330
47
100
AcDbScale
 70
     0
300
1/128" = 1'-0"
140
0.0078125
141
12.0
290
     0
  0
SCALE
  5
5A
102
{ACAD_REACTORS
330
47
102
}
330
47
100
AcDbScale
 70
     0
300
1/64" = 1'-0"
140
0.015625
141
12.0
290
     0
  0
SCALE
  5
5B
102
{ACAD_REACTORS
330
47
102
}
330
47
100
AcDbScale
 70
     0
300
1/32" = 1'-0"
140
0.03125
141
12.0
290
     0
  0
SCALE
  5
5C
102
{ACAD_REACTORS
330
47
102
}
330
47
100
AcDbScale
 70
     0
300
1/16" = 1'-0"
140
0.0625
141
12.0
290
     0
  0
SCALE
  5
5D
102
{ACAD_REACTORS
330
47
102
}
330
47
100
AcDbScale
 70
     0
300
3/32" = 1'-0"
140
0.09375
141
12.0
290
     0
  0
SCALE
  5
5E
102
{ACAD_REACTORS
330
47
102
}
330
47
100
AcDbScale
 70
     0
300
1/8" = 1'-0"
140
0.125
141
12.0
290
     0
  0
SCALE
  5
5F
102
{ACAD_REACTORS
330
47
102
}
330
47
100
AcDbScale
 70
     0
300
3/16" = 1'-0"
140
0.1875
141
12.0
290
     0
  0
SCALE
  5
60
102
{ACAD_REACTORS
330
47
102
}
330
47
100
AcDbScale
 70
     0
300
1/4" = 1'-0"
140
0.25
141
12.0
290
     0
  0
SCALE
  5
61
102
{ACAD_REACTORS
330
47
102
}
330
47
100
AcDbScale
 70
     0
300
3/8" = 1'-0"
140
0.375
141
12.0
290
     0
  0
SCALE
  5
62
102
{ACAD_REACTORS
330
47
102
}
330
47
100
AcDbScale
 70
     0
300
1/2" = 1'-0"
140
0.5
141
12.0
290
     0
  0
SCALE
  5
63
102
{ACAD_REACTORS
330
47
102
}
330
47
100
AcDbScale
 70
     0
300
3/4" = 1'-0"
140
0.75
141
12.0
290
     0
  0
SCALE
  5
64
102
{ACAD_REACTORS
330
47
102
}
330
47
100
AcDbScale
 70
     0
300
1" = 1'-0"
140
1.0
141
12.0
290
     0
  0
SCALE
  5
65
102
{ACAD_REACTORS
330
47
102
}
330
47
100
AcDbScale
 70
     0
300
1-1/2" = 1'-0"
140
1.5
141
12.0
290
     0
  0
SCALE
  5
66
102
{ACAD_REACTORS
330
47
102
}
330
47
100
AcDbScale
 70
     0
300
3" = 1'-0"
140
3.0
141
12.0
290
     0
  0
SCALE
  5
67
102
{ACAD_REACTORS
330
47
102
}
330
47
100
AcDbScale
 70
     0
300
6" = 1'-0"
140
6.0
141
12.0
290
     0
  0
SCALE
  5
68
102
{ACAD_REACTORS
330
47
102
}
330
47
100
AcDbScale
 70
     0
300
1'-0" = 1'-0"
140
12.0
141
12.0
290
     0
  0
TABLESTYLE
  5
6A
102
{ACAD_REACTORS
330
69
102
}
102
{ACAD_XDICTIONARY
360
361
102
}
330
69
100
AcDbTableStyle
  3
Standard
 70
     0
 71
     0
 40
0.06
 41
0.06
280
     0
281
     0
  7
Standard
140
4.5
170
     2
 62
     0
 63
   257
283
     0
274
    -2
284
     1
 64
     0
275
    -2
285
     1
 65
     0
276
    -2
286
     1
 66
     0
277
    -2
287
     1
 67
     0
278
    -2
288
     1
 68
     0
279
    -2
289
     1
 69
     0
  7
Standard
140
6.0
170
     5
 62
     0
 63
   257
283
     0
274
    -2
284
     1
 64
     0
275
    -2
285
     1
 65
     0
276
    -2
286
     1
 66
     0
277
    -2
287
     1
 67
     0
278
    -2
288
     1
 68
     0
279
    -2
289
     1
 69
     0
  7
Standard
140
4.5
170
     5
 62
     0
 63
   257
283
     0
274
    -2
284
     1
 64
     0
275
    -2
285
     1
 65
     0
276
    -2
286
     1
 66
     0
277
    -2
287
     1
 67
     0
278
    -2
288
     1
 68
     0
279
    -2
289
     1
 69
     0
  0
VISUALSTYLE
  5
2F
102
{ACAD_REACTORS
330
2A
102
}
102
{ACAD_XDICTIONARY
360
333
102
}
330
2A
100
AcDbVisualStyle
  2
2dWireframe
 70
     4
 71
     0
 72
     2
 73
     0
 90
        0
 40
0.6
 41
30.0
 62
     5
 63
     7
421
 16777215
 74
     1
 91
        4
 64
     7
 65
   257
 75
     1
175
     1
 42
1.0
 92
        0
 66
   257
 43
1.0
 76
     1
 77
     6
 78
     2
 67
     7
 79
     5
170
     0
171
     0
290
     0
174
     0
 93
        1
 44
0.0
173
     0
291
     0
 45
0.0
1001
ACAD
1000
AcDbSavedByObjectVersion
1070
     0
  0
VISUALSTYLE
  5
32
102
{ACAD_REACTORS
330
2A
102
}
102
{ACAD_XDICTIONARY
360
339
102
}
330
2A
100
AcDbVisualStyle
  2
Basic
 70
     7
 71
     1
 72
     0
 73
     1
 90
        0
 40
0.6
 41
30.0
 62
     5
 63
     7
421
 16777215
 74
     0
 91
        4
 64
     7
 65
   257
 75
     1
175
     1
 42
1.0
 92
        8
 66
     7
 43
1.0
 76
     1
 77
     6
 78
     2
 67
     7
 79
     5
170
     0
171
     0
290
     0
174
     0
 93
        1
 44
0.0
173
     0
291
     1
 45
0.0
1001
ACAD
1000
AcDbSavedByObjectVersion
1070
     0
  0
VISUALSTYLE
  5
36
102
{ACAD_REACTORS
330
2A
102
}
102
{ACAD_XDICTIONARY
360
341
102
}
330
2A
100
AcDbVisualStyle
  2
Brighten
 70
    12
 71
     2
 72
     2
 73
     0
 90
        0
 40
0.6
 41
30.0
 62
     5
 63
     7
421
 16777215
 74
     1
 91
        4
 64
     7
 65
   257
 75
     1
175
     1
 42
1.0
 92
        8
 66
     7
 43
1.0
 76
     1
 77
     6
 78
     2
 67
     7
 79
     5
170
     0
171
     0
290
     0
174
     0
 93
        1
 44
50.0
173
     0
291
     1
 45
0.0
1001
ACAD
1000
AcDbSavedByObjectVersion
1070
     0
  0
VISUALSTYLE
  5
3A
102
{ACAD_REACTORS
330
2A
102
}
102
{ACAD_XDICTIONARY
360
349
102
}
330
2A
100
AcDbVisualStyle
  2
ColorChange
 70
    16
 71
     2
 72
     2
 73
     3
 90
        0
 40
0.6
 41
30.0
 62
     5
 63
     8
421
  8421504
 74
     1
 91
        4
 64
     7
 65
   257
 75
     1
175
     1
 42
1.0
 92
        8
 66
     8
424
  8421504
 43
1.0
 76
     1
 77
     6
 78
     2
 67
     7
 79
     5
170
     0
171
     0
290
     0
174
     0
 93
        1
 44
0.0
173
     0
291
     1
 45
0.0
1001
ACAD
1000
AcDbSavedByObjectVersion
1070
     0
  0
VISUALSTYLE
  5
34
102
{ACAD_REACTORS
330
2A
102
}
102
{ACAD_XDICTIONARY
360
33D
102
}
330
2A
100
AcDbVisualStyle
  2
Conceptual
 70
     9
 71
     3
 72
     2
 73
     0
 90
        0
 40
0.6
 41
30.0
 62
     5
 63
     7
421
 16777215
 74
     2
 91
        2
 64
     7
 65
   257
 75
     1
175
     1
 42
179.0
 92
        8
 66
     7
 43
1.0
 76
     1
 77
     6
 78
     2
 67
     7
 79
     3
170
     0
171
     0
290
     0
174
     0
 93
        1
 44
0.0
173
     0
291
     0
 45
0.0
1001
ACAD
1000
AcDbSavedByObjectVersion
1070
     0
  0
VISUALSTYLE
  5
35
102
{ACAD_REACTORS
330
2A
102
}
102
{ACAD_XDICTIONARY
360
33F
102
}
330
2A
100
AcDbVisualStyle
  2
Dim
 70
    11
 71
     2
 72
     2
 73
     0
 90
        0
 40
0.6
 41
30.0
 62
     5
 63
     7
421
 16777215
 74
     1
 91
        4
 64
     7
 65
   257
 75
     1
175
     1
 42
1.0
 92
        8
 66
     7
 43
1.0
 76
     1
 77
     6
 78
     2
 67
     7
 79
     5
170
     0
171
     0
290
     0
174
     0
 93
        1
 44
-50.0
173
     0
291
     1
 45
0.0
1001
ACAD
1000
AcDbSavedByObjectVersion
1070
     0
  0
VISUALSTYLE
  5
3D
102
{ACAD_REACTORS
330
2A
102
}
102
{ACAD_XDICTIONARY
360
34F
102
}
330
2A
100
AcDbVisualStyle
  2
EdgeColorOff
 70
    22
 71
     2
 72
     2
 73
     0
 90
        0
 40
0.6
 41
30.0
 62
     5
 63
     7
421
 16777215
 74
     1
 91
        4
 64
     7
 65
   257
 75
     1
175
     1
 42
1.0
 92
        8
 66
     7
 43
1.0
 76
     1
 77
     6
 78
     2
 67
     7
 79
     5
170
     0
171
     0
290
     0
174
     0
 93
        1
 44
0.0
173
     0
291
     1
 45
0.0
1001
ACAD
1000
AcDbSavedByObjectVersion
1070
     0
  0
VISUALSTYLE
  5
39
102
{ACAD_REACTORS
330
2A
102
}
102
{ACAD_XDICTIONARY
360
347
102
}
330
2A
100
AcDbVisualStyle
  2
Facepattern
 70
    15
 71
     2
 72
     2
 73
     0
 90
        0
 40
0.6
 41
30.0
 62
     5
 63
     7
421
 16777215
 74
     1
 91
        4
 64
     7
 65
   257
 75
     1
175
     1
 42
1.0
 92
        8
 66
     7
 43
1.0
 76
     1
 77
     6
 78
     2
 67
     7
 79
     5
170
     0
171
     0
290
     0
174
     0
 93
        1
 44
0.0
173
     0
291
     1
 45
0.0
1001
ACAD
1000
AcDbSavedByObjectVersion
1070
     0
  0
VISUALSTYLE
  5
2B
102
{ACAD_REACTORS
330
2A
102
}
102
{ACAD_XDICTIONARY
360
32B
102
}
330
2A
100
AcDbVisualStyle
  2
Flat
 70
     0
 71
     2
 72
     1
 73
     1
 90
        2
 40
0.6
 41
30.0
 62
     5
 63
     7
421
 16777215
 74
     0
 91
        0
 64
     7
 65
   257
 75
     1
175
     1
 42
1.0
 92
        8
 66
     7
 43
1.0
 76
     1
 77
     6
 78
     2
 67
     7
 79
     5
170
     0
171
     0
290
     0
174
     0
 93
       13
 44
0.0
173
     0
291
     1
 45
0.0
1001
ACAD
1000
AcDbSavedByObjectVersion
1070
     0
  0
VISUALSTYLE
  5
2C
102
{ACAD_REACTORS
330
2A
102
}
102
{ACAD_XDICTIONARY
360
32D
102
}
330
2A
100
AcDbVisualStyle
  2
FlatWithEdges
 70
     1
 71
     2
 72
     1
 73
     1
 90
        2
 40
0.6
 41
30.0
 62
     5
 63
     7
421
 16777215
 74
     1
 91
        0
 64
     7
 65
   257
 75
     1
175
     1
 42
1.0
 92
        0
 66
   257
 43
1.0
 76
     1
 77
     6
 78
     2
 67
     7
 79
     5
170
     0
171
     0
290
     0
174
     0
 93
       13
 44
0.0
173
     0
291
     1
 45
0.0
1001
ACAD
1000
AcDbSavedByObjectVersion
1070
     0
  0
VISUALSTYLE
  5
2D
102
{ACAD_REACTORS
330
2A
102
}
102
{ACAD_XDICTIONARY
360
32F
102
}
330
2A
100
AcDbVisualStyle
  2
Gouraud
 70
     2
 71
     2
 72
     2
 73
     1
 90
        2
 40
0.6
 41
30.0
 62
     5
 63
     7
421
 16777215
 74
     0
 91
        0
 64
     7
 65
   257
 75
     1
175
     1
 42
1.0
 92
        0
 66
     7
 43
1.0
 76
     1
 77
     6
 78
     2
 67
     7
 79
     5
170
     0
171
     0
290
     0
174
     0
 93
       13
 44
0.0
173
     0
291
     1
 45
0.0
1001
ACAD
1000
AcDbSavedByObjectVersion
1070
     0
  0
VISUALSTYLE
  5
2E
102
{ACAD_REACTORS
330
2A
102
}
102
{ACAD_XDICTIONARY
360
331
102
}
330
2A
100
AcDbVisualStyle
  2
GouraudWithEdges
 70
     3
 71
     2
 72
     2
 73
     1
 90
        2
 40
0.6
 41
30.0
 62
     5
 63
     7
421
 16777215
 74
     1
 91
        0
 64
     7
 65
   257
 75
     1
175
     1
 42
1.0
 92
        0
 66
   257
 43
1.0
 76
     1
 77
     6
 78
     2
 67
     7
 79
     5
170
     0
171
     0
290
     0
174
     0
 93
       13
 44
0.0
173
     0
291
     1
 45
0.0
1001
ACAD
1000
AcDbSavedByObjectVersion
1070
     0
  0
VISUALSTYLE
  5
31
102
{ACAD_REACTORS
330
2A
102
}
102
{ACAD_XDICTIONARY
360
337
102
}
330
2A
100
AcDbVisualStyle
  2
Hidden
 70
     6
 71
     1
 72
     2
 73
     2
 90
        0
 40
0.6
 41
30.0
 62
     5
 63
     7
421
 16777215
 74
     2
 91
        2
 64
     7
 65
   257
 75
     2
175
     1
 42
40.0
 92
        0
 66
   257
 43
1.0
 76
     1
 77
     6
 78
     2
 67
     7
 79
     3
170
     0
171
     0
290
     0
174
     0
 93
        1
 44
0.0
173
     0
291
     0
 45
0.0
1001
ACAD
1000
AcDbSavedByObjectVersion
1070
     0
  0
VISUALSTYLE
  5
3B
102
{ACAD_REACTORS
330
2A
102
}
102
{ACAD_XDICTIONARY
360
34B
102
}
330
2A
100
AcDbVisualStyle
  2
JitterOff
 70
    20
 71
     2
 72
     2
 73
     0
 90
        0
 40
0.6
 41
30.0
 62
     5
 63
     7
421
 16777215
 74
     1
 91
        4
 64
     7
 65
   257
 75
     1
175
     1
 42
1.0
 92
       10
 66
     7
 43
1.0
 76
     1
 77
     6
 78
     2
 67
     7
 79
     5
170
     0
171
     0
290
     0
174
     0
 93
        1
 44
0.0
173
     0
291
     1
 45
0.0
1001
ACAD
1000
AcDbSavedByObjectVersion
1070
     0
  0
VISUALSTYLE
  5
38
102
{ACAD_REACTORS
330
2A
102
}
102
{ACAD_XDICTIONARY
360
345
102
}
330
2A
100
AcDbVisualStyle
  2
Linepattern
 70
    14
 71
     2
 72
     2
 73
     0
 90
        0
 40
0.6
 41
30.0
 62
     5
 63
     7
421
 16777215
 74
     1
 91
        4
 64
     7
 65
   257
 75
     7
175
     7
 42
1.0
 92
        8
 66
     7
 43
1.0
 76
     1
 77
     6
 78
     2
 67
     7
 79
     5
170
     0
171
     0
290
     0
174
     0
 93
        1
 44
0.0
173
     0
291
     1
 45
0.0
1001
ACAD
1000
AcDbSavedByObjectVersion
1070
     0
  0
VISUALSTYLE
  5
3C
102
{ACAD_REACTORS
330
2A
102
}
102
{ACAD_XDICTIONARY
360
34D
102
}
330
2A
100
AcDbVisualStyle
  2
OverhangOff
 70
    21
 71
     2
 72
     2
 73
     0
 90
        0
 40
0.6
 41
30.0
 62
     5
 63
     7
421
 16777215
 74
     1
 91
        4
 64
     7
 65
   257
 75
     1
175
     1
 42
1.0
 92
        9
 66
     7
 43
1.0
 76
     1
 77
     6
 78
     2
 67
     7
 79
     5
170
     0
171
     0
290
     0
174
     0
 93
        1
 44
0.0
173
     0
291
     1
 45
0.0
1001
ACAD
1000
AcDbSavedByObjectVersion
1070
     0
  0
VISUALSTYLE
  5
33
102
{ACAD_REACTORS
330
2A
102
}
102
{ACAD_XDICTIONARY
360
33B
102
}
330
2A
100
AcDbVisualStyle
  2
Realistic
 70
     8
 71
     2
 72
     3
 73
     0
 90
        2
 40
0.6
 41
30.0
 62
     5
 63
     7
421
 16777215
 74
     0
 91
        0
 64
     7
 65
   257
 75
     1
175
     1
 42
1.0
 92
        8
 66
   257
 43
1.0
 76
     1
 77
     6
 78
     2
 67
     7
 79
     3
170
     0
171
     0
290
     0
174
     0
 93
       13
 44
0.0
173
     0
291
     0
 45
0.0
1001
ACAD
1000
AcDbSavedByObjectVersion
1070
     0
  0
VISUALSTYLE
  5
42
102
{ACAD_REACTORS
330
2A
102
}
102
{ACAD_XDICTIONARY
360
359
102
}
330
2A
100
AcDbVisualStyle
  2
Shaded
 70
    27
 71
     2
 72
     2
 73
     1
 90
        2
 40
0.6
 41
30.0
 62
     5
 63
     7
421
 16777215
 74
     0
 91
        4
 64
     7
 65
   257
 75
     1
175
     1
 42
1.0
 92
        8
 66
   257
 43
1.0
 76
     1
 77
     6
 78
     2
 67
     8
425
  7895160
 79
     3
170
     0
171
     0
290
     0
174
     0
 93
        5
 44
0.0
173
     0
291
     0
 45
0.0
1001
ACAD
1000
AcDbSavedByObjectVersion
1070
     0
  0
VISUALSTYLE
  5
41
102
{ACAD_REACTORS
330
2A
102
}
102
{ACAD_XDICTIONARY
360
357
102
}
330
2A
100
AcDbVisualStyle
  2
Shaded with edges
 70
    26
 71
     2
 72
     2
 73
     1
 90
        2
 40
0.6
 41
30.0
 62
     5
 63
     7
421
 16777215
 74
     1
 91
       10
 64
     7
 65
   257
 75
     2
175
     1
 42
1.0
 92
        8
 66
   257
 43
1.0
 76
     1
 77
     6
 78
     2
 67
     7
 79
     3
170
     0
171
     0
290
     0
174
     0
 93
        5
 44
0.0
173
     0
291
     0
 45
0.0
1001
ACAD
1000
AcDbSavedByObjectVersion
1070
     0
  0
VISUALSTYLE
  5
3E
102
{ACAD_REACTORS
330
2A
102
}
102
{ACAD_XDICTIONARY
360
351
102
}
330
2A
100
AcDbVisualStyle
  2
Shades of Gray
 70
    23
 71
     2
 72
     2
 73
     3
 90
        0
 40
0.6
 41
30.0
 62
     5
 63
     7
421
 16777215
 74
     2
 91
        2
 64
     7
 65
     7
 75
     1
175
     1
 42
40.0
 92
        8
 66
     7
 43
1.0
 76
     1
 77
     6
 78
     2
 67
     7
 79
     3
170
     0
171
     0
290
     0
174
     0
 93
        1
 44
0.0
173
     0
291
     0
 45
0.0
1001
ACAD
1000
AcDbSavedByObjectVersion
1070
     0
  0
VISUALSTYLE
  5
3F
102
{ACAD_REACTORS
330
2A
102
}
102
{ACAD_XDICTIONARY
360
353
102
}
330
2A
100
AcDbVisualStyle
  2
Sketchy
 70
    24
 71
     1
 72
     2
 73
     2
 90
        0
 40
0.6
 41
30.0
 62
     5
 63
     7
421
 16777215
 74
     2
 91
        2
 64
     7
 65
     7
 75
     1
175
     1
 42
40.0
 92
       11
 66
     7
 43
1.0
 76
     1
 77
     6
 78
     2
 67
     7
 79
     6
170
     0
171
     0
290
     0
174
     0
 93
        1
 44
0.0
173
     0
291
     0
 45
0.0
1001
ACAD
1000
AcDbSavedByObjectVersion
1070
     0
  0
VISUALSTYLE
  5
37
102
{ACAD_REACTORS
330
2A
102
}
102
{ACAD_XDICTIONARY
360
343
102
}
330
2A
100
AcDbVisualStyle
  2
Thicken
 70
    13
 71
     2
 72
     2
 73
     0
 90
        0
 40
0.6
 41
30.0
 62
     5
 63
     7
421
 16777215
 74
     1
 91
        4
 64
     7
 65
   257
 75
     1
175
     1
 42
1.0
 92
       12
 66
     7
 43
1.0
 76
     1
 77
     6
 78
     2
 67
     7
 79
     5
170
     0
171
     0
290
     0
174
     0
 93
        1
 44
0.0
173
     0
291
     1
 45
0.0
1001
ACAD
1000
AcDbSavedByObjectVersion
1070
     0
  0
VISUALSTYLE
  5
30
102
{ACAD_REACTORS
330
2A
102
}
102
{ACAD_XDICTIONARY
360
335
102
}
330
2A
100
AcDbVisualStyle
  2
Wireframe
 70
     5
 71
     0
 72
     2
 73
     0
 90
        0
 40
0.6
 41
30.0
 62
     5
 63
     7
421
 16777215
 74
     1
 91
        4
 64
     7
 65
   257
 75
     1
175
     1
 42
1.0
 92
        0
 66
   257
 43
1.0
 76
     1
 77
     6
 78
     2
 67
     7
 79
     3
170
     0
171
     0
290
     0
174
     0
 93
        1
 44
0.0
173
     0
291
     0
 45
0.0
1001
ACAD
1000
AcDbSavedByObjectVersion
1070
     0
  0
VISUALSTYLE
  5
40
102
{ACAD_REACTORS
330
2A
102
}
102
{ACAD_XDICTIONARY
360
355
102
}
330
2A
100
AcDbVisualStyle
  2
X-Ray
 70
    25
 71
     2
 72
     2
 73
     1
 90
        1
 40
0.5
 41
30.0
 62
     5
 63
     7
421
 16777215
 74
     1
 91
        0
 64
     7
 65
   257
 75
     1
175
     1
 42
1.0
 92
        8
 66
     7
 43
1.0
 76
     1
 77
     6
 78
     2
 67
     7
 79
     3
170
     0
171
     0
290
     0
174
     0
 93
       13
 44
0.0
173
     0
291
     0
 45
0.0
1001
ACAD
1000
AcDbSavedByObjectVersion
1070
     0
  0
DICTIONARYVAR
  5
328
102
{ACAD_REACTORS
330
327
102
}
330
327
100
DictionaryVariables
280
     0
  1
1:1
  0
DICTIONARYVAR
  5
36C
102
{ACAD_REACTORS
330
327
102
}
330
327
100
DictionaryVariables
280
     0
  1
3.500000
  0
DICTIONARYVAR
  5
36D
102
{ACAD_REACTORS
330
327
102
}
330
327
100
DictionaryVariables
280
     0
  1
acadiso.lin
  0
DICTIONARYVAR
  5
369
102
{ACAD_REACTORS
330
327
102
}
330
327
100
DictionaryVariables
280
     0
  1
Standard
  0
DICTIONARYVAR
  5
368
102
{ACAD_REACTORS
330
327
102
}
330
327
100
DictionaryVariables
280
     0
  1
Standard
  0
DICTIONARYVAR
  5
329
102
{ACAD_REACTORS
330
327
102
}
330
327
100
DictionaryVariables
280
     0
  1
1
  0
DICTIONARYVAR
  5
32A
102
{ACAD_REACTORS
330
327
102
}
330
327
100
DictionaryVariables
280
     0
  1
2
  0
DICTIONARY
  5
35D
330
45
100
AcDbDictionary
280
     1
281
     1
  3
ACAD_XREC_ROUNDTRIP
360
35E
  0
DICTIONARY
  5
35B
330
44
100
AcDbDictionary
280
     1
281
     1
  3
ACAD_XREC_ROUNDTRIP
360
35C
  0
DICTIONARY
  5
35F
330
46
100
AcDbDictionary
280
     1
281
     1
  3
ACAD_XREC_ROUNDTRIP
360
360
  0
DICTIONARY
  5
365
330
6C
100
AcDbDictionary
280
     1
281
     1
  3
ACAD_XREC_ROUNDTRIP
360
366
  0
DICTIONARY
  5
361
330
6A
100
AcDbDictionary
280
     1
281
     1
  3
ACAD_ROUNDTRIP_2008_TABLESTYLE_CELLSTYLEMAP
360
363
  3
ACAD_XREC_ROUNDTRIP
360
362
  0
DICTIONARY
  5
333
330
2F
100
AcDbDictionary
280
     1
281
     1
  3
ACAD_XREC_ROUNDTRIP
360
334
  0
DICTIONARY
  5
339
330
32
100
AcDbDictionary
280
     1
281
     1
  3
ACAD_XREC_ROUNDTRIP
360
33A
  0
DICTIONARY
  5
341
330
36
100
AcDbDictionary
280
     1
281
     1
  3
ACAD_XREC_ROUNDTRIP
360
342
  0
DICTIONARY
  5
349
330
3A
100
AcDbDictionary
280
     1
281
     1
  3
ACAD_XREC_ROUNDTRIP
360
34A
  0
DICTIONARY
  5
33D
330
34
100
AcDbDictionary
280
     1
281
     1
  3
ACAD_XREC_ROUNDTRIP
360
33E
  0
DICTIONARY
  5
33F
330
35
100
AcDbDictionary
280
     1
281
     1
  3
ACAD_XREC_ROUNDTRIP
360
340
  0
DICTIONARY
  5
34F
330
3D
100
AcDbDictionary
280
     1
281
     1
  3
ACAD_XREC_ROUNDTRIP
360
350
  0
DICTIONARY
  5
347
330
39
100
AcDbDictionary
280
     1
281
     1
  3
ACAD_XREC_ROUNDTRIP
360
348
  0
DICTIONARY
  5
32B
330
2B
100
AcDbDictionary
280
     1
281
     1
  3
ACAD_XREC_ROUNDTRIP
360
32C
  0
DICTIONARY
  5
32D
330
2C
100
AcDbDictionary
280
     1
281
     1
  3
ACAD_XREC_ROUNDTRIP
360
32E
  0
DICTIONARY
  5
32F
330
2D
100
AcDbDictionary
280
     1
281
     1
  3
ACAD_XREC_ROUNDTRIP
360
330
  0
DICTIONARY
  5
331
330
2E
100
AcDbDictionary
280
     1
281
     1
  3
ACAD_XREC_ROUNDTRIP
360
332
  0
DICTIONARY
  5
337
330
31
100
AcDbDictionary
280
     1
281
     1
  3
ACAD_XREC_ROUNDTRIP
360
338
  0
DICTIONARY
  5
34B
330
3B
100
AcDbDictionary
280
     1
281
     1
  3
ACAD_XREC_ROUNDTRIP
360
34C
  0
DICTIONARY
  5
345
330
38
100
AcDbDictionary
280
     1
281
     1
  3
ACAD_XREC_ROUNDTRIP
360
346
  0
DICTIONARY
  5
34D
330
3C
100
AcDbDictionary
280
     1
281
     1
  3
ACAD_XREC_ROUNDTRIP
360
34E
  0
DICTIONARY
  5
33B
330
33
100
AcDbDictionary
280
     1
281
     1
  3
ACAD_XREC_ROUNDTRIP
360
33C
  0
DICTIONARY
  5
359
330
42
100
AcDbDictionary
280
     1
281
     1
  3
ACAD_XREC_ROUNDTRIP
360
35A
  0
DICTIONARY
  5
357
330
41
100
AcDbDictionary
280
     1
281
     1
  3
ACAD_XREC_ROUNDTRIP
360
358
  0
DICTIONARY
  5
351
330
3E
100
AcDbDictionary
280
     1
281
     1
  3
ACAD_XREC_ROUNDTRIP
360
352
  0
DICTIONARY
  5
353
330
3F
100
AcDbDictionary
280
     1
281
     1
  3
ACAD_XREC_ROUNDTRIP
360
354
  0
DICTIONARY
  5
343
330
37
100
AcDbDictionary
280
     1
281
     1
  3
ACAD_XREC_ROUNDTRIP
360
344
  0
DICTIONARY
  5
335
330
30
100
AcDbDictionary
280
     1
281
     1
  3
ACAD_XREC_ROUNDTRIP
360
336
  0
DICTIONARY
  5
355
330
40
100
AcDbDictionary
280
     1
281
     1
  3
ACAD_XREC_ROUNDTRIP
360
356
  0
XRECORD
  5
35E
102
{ACAD_REACTORS
330
35D
102
}
330
35D
100
AcDbXrecord
280
     1
102
MATERIAL
148
0.0
149
0.0
149
0.0
 93
        0
 94
      127
282
     0
 72
     1
 77
     1
171
     1
175
     1
179
     1
273
     0
  0
XRECORD
  5
35C
102
{ACAD_REACTORS
330
35B
102
}
330
35B
100
AcDbXrecord
280
     1
102
MATERIAL
148
0.0
149
0.0
149
0.0
 93
        0
 94
      127
282
     0
 72
     1
 77
     1
171
     1
175
     1
179
     1
273
     0
  0
XRECORD
  5
360
102
{ACAD_REACTORS
330
35F
102
}
330
35F
100
AcDbXrecord
280
     1
102
MATERIAL
148
0.0
149
0.0
149
0.0
 93
        0
 94
      127
282
     0
 72
     1
 77
     1
171
     1
175
     1
179
     1
273
     0
  0
XRECORD
  5
366
102
{ACAD_REACTORS
330
365
102
}
330
365
100
AcDbXrecord
280
     1
102
ACAD_ROUNDTRIP_2010_MLEADER_STYLE
  0
CELLSTYLEMAP
  5
363
102
{ACAD_REACTORS
330
361
102
}
330
361
100
AcDbCellStyleMap
 90
        3
300
CELLSTYLE
  1
TABLEFORMAT_BEGIN
 90
        5
170
     1
 91
        0
 92
    32768
 62
   257
 93
        1
300
CONTENTFORMAT
  1
CONTENTFORMAT_BEGIN
 90
        0
 91
        0
 92
        4
 93
        0
300

 40
0.0
140
1.0
 94
        5
 62
     0
340
11
144
6.0
309
CONTENTFORMAT_END
171
     1
301
MARGIN
  1
CELLMARGIN_BEGIN
 40
1.5
 40
1.5
 40
1.5
 40
1.5
 40
1.5
 40
1.5
309
CELLMARGIN_END
 94
        6
 95
        1
302
GRIDFORMAT
  1
GRIDFORMAT_BEGIN
 90
        0
 91
        1
 62
     0
 92
       -2
340
14
 93
        0
 40
0.045
309
GRIDFORMAT_END
 95
        2
302
GRIDFORMAT
  1
GRIDFORMAT_BEGIN
 90
        0
 91
        1
 62
     0
 92
       -2
340
14
 93
        0
 40
0.045
309
GRIDFORMAT_END
 95
        4
302
GRIDFORMAT
  1
GRIDFORMAT_BEGIN
 90
        0
 91
        1
 62
     0
 92
       -2
340
14
 93
        0
 40
0.045
309
GRIDFORMAT_END
 95
        8
302
GRIDFORMAT
  1
GRIDFORMAT_BEGIN
 90
        0
 91
        1
 62
     0
 92
       -2
340
14
 93
        0
 40
0.045
309
GRIDFORMAT_END
 95
       16
302
GRIDFORMAT
  1
GRIDFORMAT_BEGIN
 90
        0
 91
        1
 62
     0
 92
       -2
340
14
 93
        0
 40
0.045
309
GRIDFORMAT_END
 95
       32
302
GRIDFORMAT
  1
GRIDFORMAT_BEGIN
 90
        0
 91
        1
 62
     0
 92
       -2
340
14
 93
        0
 40
0.045
309
GRIDFORMAT_END
309
TABLEFORMAT_END
  1
CELLSTYLE_BEGIN
 90
        1
 91
        1
300
_TITLE
309
CELLSTYLE_END
300
CELLSTYLE
  1
TABLEFORMAT_BEGIN
 90
        5
170
     1
 91
        0
 92
        0
 62
   257
 93
        1
300
CONTENTFORMAT
  1
CONTENTFORMAT_BEGIN
 90
        0
 91
        0
 92
        4
 93
        0
300

 40
0.0
140
1.0
 94
        5
 62
     0
340
11
144
4.5
309
CONTENTFORMAT_END
171
     1
301
MARGIN
  1
CELLMARGIN_BEGIN
 40
1.5
 40
1.5
 40
1.5
 40
1.5
 40
1.5
 40
1.5
309
CELLMARGIN_END
 94
        6
 95
        1
302
GRIDFORMAT
  1
GRIDFORMAT_BEGIN
 90
        0
 91
        1
 62
     0
 92
       -2
340
14
 93
        0
 40
0.045
309
GRIDFORMAT_END
 95
        2
302
GRIDFORMAT
  1
GRIDFORMAT_BEGIN
 90
        0
 91
        1
 62
     0
 92
       -2
340
14
 93
        0
 40
0.045
309
GRIDFORMAT_END
 95
        4
302
GRIDFORMAT
  1
GRIDFORMAT_BEGIN
 90
        0
 91
        1
 62
     0
 92
       -2
340
14
 93
        0
 40
0.045
309
GRIDFORMAT_END
 95
        8
302
GRIDFORMAT
  1
GRIDFORMAT_BEGIN
 90
        0
 91
        1
 62
     0
 92
       -2
340
14
 93
        0
 40
0.045
309
GRIDFORMAT_END
 95
       16
302
GRIDFORMAT
  1
GRIDFORMAT_BEGIN
 90
        0
 91
        1
 62
     0
 92
       -2
340
14
 93
        0
 40
0.045
309
GRIDFORMAT_END
 95
       32
302
GRIDFORMAT
  1
GRIDFORMAT_BEGIN
 90
        0
 91
        1
 62
     0
 92
       -2
340
14
 93
        0
 40
0.045
309
GRIDFORMAT_END
309
TABLEFORMAT_END
  1
CELLSTYLE_BEGIN
 90
        2
 91
        1
300
_HEADER
309
CELLSTYLE_END
300
CELLSTYLE
  1
TABLEFORMAT_BEGIN
 90
        5
170
     1
 91
        0
 92
        0
 62
   257
 93
        1
300
CONTENTFORMAT
  1
CONTENTFORMAT_BEGIN
 90
        0
 91
        0
 92
        4
 93
        0
300

 40
0.0
140
1.0
 94
        2
 62
     0
340
11
144
4.5
309
CONTENTFORMAT_END
171
     1
301
MARGIN
  1
CELLMARGIN_BEGIN
 40
1.5
 40
1.5
 40
1.5
 40
1.5
 40
1.5
 40
1.5
309
CELLMARGIN_END
 94
        6
 95
        1
302
GRIDFORMAT
  1
GRIDFORMAT_BEGIN
 90
        0
 91
        1
 62
     0
 92
       -2
340
14
 93
        0
 40
0.045
309
GRIDFORMAT_END
 95
        2
302
GRIDFORMAT
  1
GRIDFORMAT_BEGIN
 90
        0
 91
        1
 62
     0
 92
       -2
340
14
 93
        0
 40
0.045
309
GRIDFORMAT_END
 95
        4
302
GRIDFORMAT
  1
GRIDFORMAT_BEGIN
 90
        0
 91
        1
 62
     0
 92
       -2
340
14
 93
        0
 40
0.045
309
GRIDFORMAT_END
 95
        8
302
GRIDFORMAT
  1
GRIDFORMAT_BEGIN
 90
        0
 91
        1
 62
     0
 92
       -2
340
14
 93
        0
 40
0.045
309
GRIDFORMAT_END
 95
       16
302
GRIDFORMAT
  1
GRIDFORMAT_BEGIN
 90
        0
 91
        1
 62
     0
 92
       -2
340
14
 93
        0
 40
0.045
309
GRIDFORMAT_END
 95
       32
302
GRIDFORMAT
  1
GRIDFORMAT_BEGIN
 90
        0
 91
        1
 62
     0
 92
       -2
340
14
 93
        0
 40
0.045
309
GRIDFORMAT_END
309
TABLEFORMAT_END
  1
CELLSTYLE_BEGIN
 90
        3
 91
        2
300
_DATA
309
CELLSTYLE_END
  0
XRECORD
  5
362
102
{ACAD_REACTORS
330
361
102
}
330
361
100
AcDbXrecord
280
     1
102
ACAD_ROUNDTRIP_PRE2007_TABLESTYLE
 90
        4
 91
        0
  1

 92
        4
 93
        0
  2

 94
        4
 95
        0
  3

  0
XRECORD
  5
334
102
{ACAD_REACTORS
330
333
102
}
330
333
100
AcDbXrecord
280
     1
102
RTVSPropertyOp0
 70
     1
102
RTVSPropertyOp1
 70
     1
102
RTVSPropertyOp2
 70
     1
102
RTVSPropertyOp3
 70
     1
102
RTVSPropertyOp4
 70
     1
102
RTVSPropertyOp5
 70
     1
102
RTVSPropertyOp6
 70
     1
102
RTVSPropertyOp7
 70
     1
102
RTVSPropertyOp8
 70
     1
102
RTVSPropertyOp9
 70
     1
102
RTVSPropertyOp10
 70
     1
102
RTVSPropertyOp11
 70
     1
102
RTVSPropertyOp12
 70
     1
102
RTVSPropertyOp13
 70
     1
102
RTVSPropertyOp14
 70
     1
102
RTVSPropertyOp15
 70
     1
102
RTVSPropertyOp16
 70
     1
102
RTVSPropertyOp17
 70
     1
102
RTVSPropertyOp18
 70
     1
102
RTVSPropertyOp19
 70
     1
102
RTVSPropertyOp20
 70
     1
102
RTVSPropertyOp21
 70
     1
102
RTVSPropertyOp22
 70
     1
102
RTVSPropertyOp23
 70
     1
102
RTVSPropertyOp24
 70
     1
102
RTVSPropertyOp25
 70
     1
102
RTVSPropertyOp26
 70
     1
102
RTVSPropertyOp27
 70
     1
102
RTVSPropertyOp28
 70
     1
102
RTVSPropertyOp29
 70
     1
102
RTVSPropertyOp30
 70
     1
102
RTVSPropertyOp31
 70
     1
102
RTVSPropertyOp32
 70
     1
102
RTVSPropertyOp33
 70
     1
102
RTVSPropertyOp34
 70
     1
102
RTVSPropertyOp35
 70
     1
102
RTVSPropertyOp36
 70
     1
102
RTVSPropertyOp37
 70
     1
102
RTVSPropertyOp38
 70
     1
102
RTVSPropertyOp39
 70
     1
102
RTVSPropertyOp40
 70
     1
102
RTVSPropertyOp41
 70
     1
102
RTVSPropertyOp42
 70
     1
102
RTVSPropertyOp43
 70
     1
102
RTVSPropertyOp44
 70
     1
102
RTVSPropertyOp45
 70
     1
102
RTVSPropertyOp46
 70
     1
102
RTVSPropertyOp47
 70
     1
102
RTVSPropertyOp48
 70
     1
102
RTVSPropertyOp49
 70
     1
102
RTVSPropertyOp50
 70
     1
102
RTVSPropertyOp51
 70
     0
102
RTVSPropertyOp52
 70
     0
102
RTVSPropertyOp53
 70
     1
102
RTVSPropertyOp54
 70
     1
102
RTVSPropertyOp55
 70
     1
102
RTVSPropertyOp56
 70
     1
102
RTVSPropertyOp57
 70
     1
102
RTVSPost2010Prop28
280
     1
102
RTVSPost2010PropOp28
 70
     1
102
RTVSPost2010Prop29
280
     1
102
RTVSPost2010PropOp29
 70
     1
102
RTVSPost2010Prop30
280
     0
102
RTVSPost2010PropOp30
 70
     1
102
RTVSPost2010Prop31
280
     0
102
RTVSPost2010PropOp31
 70
     1
102
RTVSPost2010Prop32
280
     0
102
RTVSPost2010PropOp32
 70
     1
102
RTVSPost2010Prop33
280
     0
102
RTVSPost2010PropOp33
 70
     1
102
RTVSPost2010Prop34
280
     0
102
RTVSPost2010PropOp34
 70
     1
102
RTVSPost2010Prop35
280
     0
102
RTVSPost2010PropOp35
 70
     1
102
RTVSPost2010Prop36
280
     0
102
RTVSPost2010PropOp36
 70
     1
102
RTVSPost2010Prop37
 90
       50
102
RTVSPost2010PropOp37
 70
     1
102
RTVSPost2010Prop38
140
0.0
102
RTVSPost2010PropOp38
 70
     1
102
RTVSPost2010Prop39
140
1.0
102
RTVSPost2010PropOp39
 70
     1
102
RTVSPost2010Prop40
 90
        0
102
RTVSPost2010PropOp40
 70
     1
102
RTVSPost2010Prop41ColorIndex
 90
       18
102
RTVSPost2010Prop41ColorRGB
 90
        0
102
RTVSPost2010PropOp41
 70
     1
102
RTVSPost2010Prop42
 90
       50
102
RTVSPost2010PropOp42
 70
     1
102
RTVSPost2010Prop43
 90
        3
102
RTVSPost2010PropOp43
 70
     1
102
RTVSPost2010Prop44ColorIndex
 90
        5
102
RTVSPost2010Prop44ColorRGB
 90
      255
102
RTVSPost2010PropOp44
 70
     1
102
RTVSPost2010Prop45
280
     0
102
RTVSPost2010PropOp45
 70
     1
102
RTVSPost2010Prop46
 90
       50
102
RTVSPost2010PropOp46
 70
     1
102
RTVSPost2010Prop47
 90
       50
102
RTVSPost2010PropOp47
 70
     1
102
RTVSPost2010Prop48
 90
       50
102
RTVSPost2010PropOp48
 70
     1
102
RTVSPost2010Prop49
280
     0
102
RTVSPost2010PropOp49
 70
     1
102
RTVSPost2010Prop50
 90
       50
102
RTVSPost2010PropOp50
 70
     1
102
RTVSPost2010Prop51ColorIndex
 90
      256
102
RTVSPost2010Prop51ColorRGB
 90
-16777216
102
RTVSPost2010PropOp51
 70
     0
102
RTVSPost2010Prop52
140
1.0
102
RTVSPost2010PropOp52
 70
     0
102
RTVSPost2010Prop53
 90
        2
102
RTVSPost2010PropOp53
 70
     1
102
RTVSPost2010Prop54
  1
strokes_ogs.tif
102
RTVSPost2010PropOp54
 70
     1
102
RTVSPost2010Prop55
280
     0
102
RTVSPost2010PropOp55
 70
     1
102
RTVSPost2010Prop56
140
1.0
102
RTVSPost2010PropOp56
 70
     1
102
RTVSPost2010Prop57
140
1.0
102
RTVSPost2010PropOp57
 70
     1
  0
XRECORD
  5
33A
102
{ACAD_REACTORS
330
339
102
}
330
339
100
AcDbXrecord
280
     1
102
RTVSPropertyOp0
 70
     1
102
RTVSPropertyOp1
 70
     1
102
RTVSPropertyOp2
 70
     1
102
RTVSPropertyOp3
 70
     1
102
RTVSPropertyOp4
 70
     1
102
RTVSPropertyOp5
 70
     1
102
RTVSPropertyOp6
 70
     1
102
RTVSPropertyOp7
 70
     1
102
RTVSPropertyOp8
 70
     1
102
RTVSPropertyOp9
 70
     1
102
RTVSPropertyOp10
 70
     1
102
RTVSPropertyOp11
 70
     1
102
RTVSPropertyOp12
 70
     1
102
RTVSPropertyOp13
 70
     1
102
RTVSPropertyOp14
 70
     1
102
RTVSPropertyOp15
 70
     1
102
RTVSPropertyOp16
 70
     1
102
RTVSPropertyOp17
 70
     1
102
RTVSPropertyOp18
 70
     1
102
RTVSPropertyOp19
 70
     1
102
RTVSPropertyOp20
 70
     1
102
RTVSPropertyOp21
 70
     1
102
RTVSPropertyOp22
 70
     1
102
RTVSPropertyOp23
 70
     1
102
RTVSPropertyOp24
 70
     1
102
RTVSPropertyOp25
 70
     1
102
RTVSPropertyOp26
 70
     1
102
RTVSPropertyOp27
 70
     1
102
RTVSPropertyOp28
 70
     1
102
RTVSPropertyOp29
 70
     1
102
RTVSPropertyOp30
 70
     1
102
RTVSPropertyOp31
 70
     1
102
RTVSPropertyOp32
 70
     1
102
RTVSPropertyOp33
 70
     1
102
RTVSPropertyOp34
 70
     1
102
RTVSPropertyOp35
 70
     1
102
RTVSPropertyOp36
 70
     1
102
RTVSPropertyOp37
 70
     1
102
RTVSPropertyOp38
 70
     1
102
RTVSPropertyOp39
 70
     1
102
RTVSPropertyOp40
 70
     1
102
RTVSPropertyOp41
 70
     1
102
RTVSPropertyOp42
 70
     1
102
RTVSPropertyOp43
 70
     1
102
RTVSPropertyOp44
 70
     1
102
RTVSPropertyOp45
 70
     1
102
RTVSPropertyOp46
 70
     1
102
RTVSPropertyOp47
 70
     1
102
RTVSPropertyOp48
 70
     1
102
RTVSPropertyOp49
 70
     1
102
RTVSPropertyOp50
 70
     1
102
RTVSPropertyOp51
 70
     0
102
RTVSPropertyOp52
 70
     0
102
RTVSPropertyOp53
 70
     1
102
RTVSPropertyOp54
 70
     1
102
RTVSPropertyOp55
 70
     1
102
RTVSPropertyOp56
 70
     1
102
RTVSPropertyOp57
 70
     1
102
RTVSPost2010Prop28
280
     0
102
RTVSPost2010PropOp28
 70
     1
102
RTVSPost2010Prop29
280
     1
102
RTVSPost2010PropOp29
 70
     1
102
RTVSPost2010Prop30
280
     1
102
RTVSPost2010PropOp30
 70
     1
102
RTVSPost2010Prop31
280
     0
102
RTVSPost2010PropOp31
 70
     1
102
RTVSPost2010Prop32
280
     0
102
RTVSPost2010PropOp32
 70
     1
102
RTVSPost2010Prop33
280
     0
102
RTVSPost2010PropOp33
 70
     1
102
RTVSPost2010Prop34
280
     0
102
RTVSPost2010PropOp34
 70
     1
102
RTVSPost2010Prop35
280
     0
102
RTVSPost2010PropOp35
 70
     1
102
RTVSPost2010Prop36
280
     0
102
RTVSPost2010PropOp36
 70
     1
102
RTVSPost2010Prop37
 90
       50
102
RTVSPost2010PropOp37
 70
     1
102
RTVSPost2010Prop38
140
0.0
102
RTVSPost2010PropOp38
 70
     1
102
RTVSPost2010Prop39
140
1.0
102
RTVSPost2010PropOp39
 70
     1
102
RTVSPost2010Prop40
 90
        0
102
RTVSPost2010PropOp40
 70
     1
102
RTVSPost2010Prop41ColorIndex
 90
       18
102
RTVSPost2010Prop41ColorRGB
 90
        0
102
RTVSPost2010PropOp41
 70
     1
102
RTVSPost2010Prop42
 90
       50
102
RTVSPost2010PropOp42
 70
     1
102
RTVSPost2010Prop43
 90
        3
102
RTVSPost2010PropOp43
 70
     1
102
RTVSPost2010Prop44ColorIndex
 90
        5
102
RTVSPost2010Prop44ColorRGB
 90
      255
102
RTVSPost2010PropOp44
 70
     1
102
RTVSPost2010Prop45
280
     0
102
RTVSPost2010PropOp45
 70
     1
102
RTVSPost2010Prop46
 90
       50
102
RTVSPost2010PropOp46
 70
     1
102
RTVSPost2010Prop47
 90
       50
102
RTVSPost2010PropOp47
 70
     1
102
RTVSPost2010Prop48
 90
       50
102
RTVSPost2010PropOp48
 70
     1
102
RTVSPost2010Prop49
280
     0
102
RTVSPost2010PropOp49
 70
     1
102
RTVSPost2010Prop50
 90
       50
102
RTVSPost2010PropOp50
 70
     1
102
RTVSPost2010Prop51ColorIndex
 90
      256
102
RTVSPost2010Prop51ColorRGB
 90
-16777216
102
RTVSPost2010PropOp51
 70
     0
102
RTVSPost2010Prop52
140
1.0
102
RTVSPost2010PropOp52
 70
     0
102
RTVSPost2010Prop53
 90
        2
102
RTVSPost2010PropOp53
 70
     1
102
RTVSPost2010Prop54
  1
strokes_ogs.tif
102
RTVSPost2010PropOp54
 70
     1
102
RTVSPost2010Prop55
280
     0
102
RTVSPost2010PropOp55
 70
     1
102
RTVSPost2010Prop56
140
1.0
102
RTVSPost2010PropOp56
 70
     1
102
RTVSPost2010Prop57
140
1.0
102
RTVSPost2010PropOp57
 70
     1
  0
XRECORD
  5
342
102
{ACAD_REACTORS
330
341
102
}
330
341
100
AcDbXrecord
280
     1
102
RTVSPropertyOp0
 70
     1
102
RTVSPropertyOp1
 70
     1
102
RTVSPropertyOp2
 70
     1
102
RTVSPropertyOp3
 70
     1
102
RTVSPropertyOp4
 70
     1
102
RTVSPropertyOp5
 70
     1
102
RTVSPropertyOp6
 70
     1
102
RTVSPropertyOp7
 70
     1
102
RTVSPropertyOp8
 70
     1
102
RTVSPropertyOp9
 70
     1
102
RTVSPropertyOp10
 70
     1
102
RTVSPropertyOp11
 70
     1
102
RTVSPropertyOp12
 70
     1
102
RTVSPropertyOp13
 70
     1
102
RTVSPropertyOp14
 70
     1
102
RTVSPropertyOp15
 70
     1
102
RTVSPropertyOp16
 70
     1
102
RTVSPropertyOp17
 70
     1
102
RTVSPropertyOp18
 70
     1
102
RTVSPropertyOp19
 70
     1
102
RTVSPropertyOp20
 70
     1
102
RTVSPropertyOp21
 70
     1
102
RTVSPropertyOp22
 70
     1
102
RTVSPropertyOp23
 70
     1
102
RTVSPropertyOp24
 70
     1
102
RTVSPropertyOp25
 70
     1
102
RTVSPropertyOp26
 70
     1
102
RTVSPropertyOp27
 70
     1
102
RTVSPropertyOp28
 70
     1
102
RTVSPropertyOp29
 70
     1
102
RTVSPropertyOp30
 70
     1
102
RTVSPropertyOp31
 70
     1
102
RTVSPropertyOp32
 70
     1
102
RTVSPropertyOp33
 70
     1
102
RTVSPropertyOp34
 70
     1
102
RTVSPropertyOp35
 70
     1
102
RTVSPropertyOp36
 70
     1
102
RTVSPropertyOp37
 70
     1
102
RTVSPropertyOp38
 70
     1
102
RTVSPropertyOp39
 70
     1
102
RTVSPropertyOp40
 70
     1
102
RTVSPropertyOp41
 70
     1
102
RTVSPropertyOp42
 70
     1
102
RTVSPropertyOp43
 70
     1
102
RTVSPropertyOp44
 70
     1
102
RTVSPropertyOp45
 70
     1
102
RTVSPropertyOp46
 70
     1
102
RTVSPropertyOp47
 70
     1
102
RTVSPropertyOp48
 70
     1
102
RTVSPropertyOp49
 70
     1
102
RTVSPropertyOp50
 70
     1
102
RTVSPropertyOp51
 70
     0
102
RTVSPropertyOp52
 70
     0
102
RTVSPropertyOp53
 70
     1
102
RTVSPropertyOp54
 70
     1
102
RTVSPropertyOp55
 70
     1
102
RTVSPropertyOp56
 70
     1
102
RTVSPropertyOp57
 70
     1
102
RTVSPost2010Prop28
280
     0
102
RTVSPost2010PropOp28
 70
     1
102
RTVSPost2010Prop29
280
     1
102
RTVSPost2010PropOp29
 70
     1
102
RTVSPost2010Prop30
280
     1
102
RTVSPost2010PropOp30
 70
     1
102
RTVSPost2010Prop31
280
     0
102
RTVSPost2010PropOp31
 70
     1
102
RTVSPost2010Prop32
280
     0
102
RTVSPost2010PropOp32
 70
     1
102
RTVSPost2010Prop33
280
     0
102
RTVSPost2010PropOp33
 70
     1
102
RTVSPost2010Prop34
280
     0
102
RTVSPost2010PropOp34
 70
     1
102
RTVSPost2010Prop35
280
     0
102
RTVSPost2010PropOp35
 70
     1
102
RTVSPost2010Prop36
280
     0
102
RTVSPost2010PropOp36
 70
     1
102
RTVSPost2010Prop37
 90
       50
102
RTVSPost2010PropOp37
 70
     1
102
RTVSPost2010Prop38
140
0.0
102
RTVSPost2010PropOp38
 70
     1
102
RTVSPost2010Prop39
140
1.0
102
RTVSPost2010PropOp39
 70
     1
102
RTVSPost2010Prop40
 90
        0
102
RTVSPost2010PropOp40
 70
     1
102
RTVSPost2010Prop41ColorIndex
 90
       18
102
RTVSPost2010Prop41ColorRGB
 90
        0
102
RTVSPost2010PropOp41
 70
     1
102
RTVSPost2010Prop42
 90
       50
102
RTVSPost2010PropOp42
 70
     1
102
RTVSPost2010Prop43
 90
        3
102
RTVSPost2010PropOp43
 70
     1
102
RTVSPost2010Prop44ColorIndex
 90
        5
102
RTVSPost2010Prop44ColorRGB
 90
      255
102
RTVSPost2010PropOp44
 70
     1
102
RTVSPost2010Prop45
280
     0
102
RTVSPost2010PropOp45
 70
     1
102
RTVSPost2010Prop46
 90
       50
102
RTVSPost2010PropOp46
 70
     1
102
RTVSPost2010Prop47
 90
       50
102
RTVSPost2010PropOp47
 70
     1
102
RTVSPost2010Prop48
 90
       50
102
RTVSPost2010PropOp48
 70
     1
102
RTVSPost2010Prop49
280
     0
102
RTVSPost2010PropOp49
 70
     1
102
RTVSPost2010Prop50
 90
       50
102
RTVSPost2010PropOp50
 70
     1
102
RTVSPost2010Prop51ColorIndex
 90
      256
102
RTVSPost2010Prop51ColorRGB
 90
-16777216
102
RTVSPost2010PropOp51
 70
     0
102
RTVSPost2010Prop52
140
1.0
102
RTVSPost2010PropOp52
 70
     0
102
RTVSPost2010Prop53
 90
        2
102
RTVSPost2010PropOp53
 70
     1
102
RTVSPost2010Prop54
  1
strokes_ogs.tif
102
RTVSPost2010PropOp54
 70
     1
102
RTVSPost2010Prop55
280
     0
102
RTVSPost2010PropOp55
 70
     1
102
RTVSPost2010Prop56
140
1.0
102
RTVSPost2010PropOp56
 70
     1
102
RTVSPost2010Prop57
140
1.0
102
RTVSPost2010PropOp57
 70
     1
  0
XRECORD
  5
34A
102
{ACAD_REACTORS
330
349
102
}
330
349
100
AcDbXrecord
280
     1
102
RTVSPropertyOp0
 70
     1
102
RTVSPropertyOp1
 70
     1
102
RTVSPropertyOp2
 70
     1
102
RTVSPropertyOp3
 70
     1
102
RTVSPropertyOp4
 70
     1
102
RTVSPropertyOp5
 70
     1
102
RTVSPropertyOp6
 70
     1
102
RTVSPropertyOp7
 70
     1
102
RTVSPropertyOp8
 70
     1
102
RTVSPropertyOp9
 70
     1
102
RTVSPropertyOp10
 70
     1
102
RTVSPropertyOp11
 70
     1
102
RTVSPropertyOp12
 70
     1
102
RTVSPropertyOp13
 70
     1
102
RTVSPropertyOp14
 70
     1
102
RTVSPropertyOp15
 70
     1
102
RTVSPropertyOp16
 70
     1
102
RTVSPropertyOp17
 70
     1
102
RTVSPropertyOp18
 70
     1
102
RTVSPropertyOp19
 70
     1
102
RTVSPropertyOp20
 70
     1
102
RTVSPropertyOp21
 70
     1
102
RTVSPropertyOp22
 70
     1
102
RTVSPropertyOp23
 70
     1
102
RTVSPropertyOp24
 70
     1
102
RTVSPropertyOp25
 70
     1
102
RTVSPropertyOp26
 70
     1
102
RTVSPropertyOp27
 70
     1
102
RTVSPropertyOp28
 70
     1
102
RTVSPropertyOp29
 70
     1
102
RTVSPropertyOp30
 70
     1
102
RTVSPropertyOp31
 70
     1
102
RTVSPropertyOp32
 70
     1
102
RTVSPropertyOp33
 70
     1
102
RTVSPropertyOp34
 70
     1
102
RTVSPropertyOp35
 70
     1
102
RTVSPropertyOp36
 70
     1
102
RTVSPropertyOp37
 70
     1
102
RTVSPropertyOp38
 70
     1
102
RTVSPropertyOp39
 70
     1
102
RTVSPropertyOp40
 70
     1
102
RTVSPropertyOp41
 70
     1
102
RTVSPropertyOp42
 70
     1
102
RTVSPropertyOp43
 70
     1
102
RTVSPropertyOp44
 70
     1
102
RTVSPropertyOp45
 70
     1
102
RTVSPropertyOp46
 70
     1
102
RTVSPropertyOp47
 70
     1
102
RTVSPropertyOp48
 70
     1
102
RTVSPropertyOp49
 70
     1
102
RTVSPropertyOp50
 70
     1
102
RTVSPropertyOp51
 70
     0
102
RTVSPropertyOp52
 70
     0
102
RTVSPropertyOp53
 70
     1
102
RTVSPropertyOp54
 70
     1
102
RTVSPropertyOp55
 70
     1
102
RTVSPropertyOp56
 70
     1
102
RTVSPropertyOp57
 70
     1
102
RTVSPost2010Prop28
280
     0
102
RTVSPost2010PropOp28
 70
     1
102
RTVSPost2010Prop29
280
     1
102
RTVSPost2010PropOp29
 70
     1
102
RTVSPost2010Prop30
280
     1
102
RTVSPost2010PropOp30
 70
     1
102
RTVSPost2010Prop31
280
     0
102
RTVSPost2010PropOp31
 70
     1
102
RTVSPost2010Prop32
280
     0
102
RTVSPost2010PropOp32
 70
     1
102
RTVSPost2010Prop33
280
     0
102
RTVSPost2010PropOp33
 70
     1
102
RTVSPost2010Prop34
280
     0
102
RTVSPost2010PropOp34
 70
     1
102
RTVSPost2010Prop35
280
     0
102
RTVSPost2010PropOp35
 70
     1
102
RTVSPost2010Prop36
280
     0
102
RTVSPost2010PropOp36
 70
     1
102
RTVSPost2010Prop37
 90
       50
102
RTVSPost2010PropOp37
 70
     1
102
RTVSPost2010Prop38
140
0.0
102
RTVSPost2010PropOp38
 70
     1
102
RTVSPost2010Prop39
140
1.0
102
RTVSPost2010PropOp39
 70
     1
102
RTVSPost2010Prop40
 90
        0
102
RTVSPost2010PropOp40
 70
     1
102
RTVSPost2010Prop41ColorIndex
 90
       18
102
RTVSPost2010Prop41ColorRGB
 90
        0
102
RTVSPost2010PropOp41
 70
     1
102
RTVSPost2010Prop42
 90
       50
102
RTVSPost2010PropOp42
 70
     1
102
RTVSPost2010Prop43
 90
        3
102
RTVSPost2010PropOp43
 70
     1
102
RTVSPost2010Prop44ColorIndex
 90
        5
102
RTVSPost2010Prop44ColorRGB
 90
      255
102
RTVSPost2010PropOp44
 70
     1
102
RTVSPost2010Prop45
280
     0
102
RTVSPost2010PropOp45
 70
     1
102
RTVSPost2010Prop46
 90
       50
102
RTVSPost2010PropOp46
 70
     1
102
RTVSPost2010Prop47
 90
       50
102
RTVSPost2010PropOp47
 70
     1
102
RTVSPost2010Prop48
 90
       50
102
RTVSPost2010PropOp48
 70
     1
102
RTVSPost2010Prop49
280
     0
102
RTVSPost2010PropOp49
 70
     1
102
RTVSPost2010Prop50
 90
       50
102
RTVSPost2010PropOp50
 70
     1
102
RTVSPost2010Prop51ColorIndex
 90
      256
102
RTVSPost2010Prop51ColorRGB
 90
-16777216
102
RTVSPost2010PropOp51
 70
     0
102
RTVSPost2010Prop52
140
1.0
102
RTVSPost2010PropOp52
 70
     0
102
RTVSPost2010Prop53
 90
        2
102
RTVSPost2010PropOp53
 70
     1
102
RTVSPost2010Prop54
  1
strokes_ogs.tif
102
RTVSPost2010PropOp54
 70
     1
102
RTVSPost2010Prop55
280
     0
102
RTVSPost2010PropOp55
 70
     1
102
RTVSPost2010Prop56
140
1.0
102
RTVSPost2010PropOp56
 70
     1
102
RTVSPost2010Prop57
140
1.0
102
RTVSPost2010PropOp57
 70
     1
  0
XRECORD
  5
33E
102
{ACAD_REACTORS
330
33D
102
}
330
33D
100
AcDbXrecord
280
     1
102
RTVSPropertyOp0
 70
     1
102
RTVSPropertyOp1
 70
     1
102
RTVSPropertyOp2
 70
     1
102
RTVSPropertyOp3
 70
     1
102
RTVSPropertyOp4
 70
     1
102
RTVSPropertyOp5
 70
     1
102
RTVSPropertyOp6
 70
     1
102
RTVSPropertyOp7
 70
     1
102
RTVSPropertyOp8
 70
     1
102
RTVSPropertyOp9
 70
     1
102
RTVSPropertyOp10
 70
     1
102
RTVSPropertyOp11
 70
     1
102
RTVSPropertyOp12
 70
     1
102
RTVSPropertyOp13
 70
     1
102
RTVSPropertyOp14
 70
     1
102
RTVSPropertyOp15
 70
     1
102
RTVSPropertyOp16
 70
     1
102
RTVSPropertyOp17
 70
     1
102
RTVSPropertyOp18
 70
     1
102
RTVSPropertyOp19
 70
     1
102
RTVSPropertyOp20
 70
     1
102
RTVSPropertyOp21
 70
     1
102
RTVSPropertyOp22
 70
     1
102
RTVSPropertyOp23
 70
     1
102
RTVSPropertyOp24
 70
     1
102
RTVSPropertyOp25
 70
     1
102
RTVSPropertyOp26
 70
     1
102
RTVSPropertyOp27
 70
     1
102
RTVSPropertyOp28
 70
     1
102
RTVSPropertyOp29
 70
     1
102
RTVSPropertyOp30
 70
     1
102
RTVSPropertyOp31
 70
     1
102
RTVSPropertyOp32
 70
     1
102
RTVSPropertyOp33
 70
     1
102
RTVSPropertyOp34
 70
     1
102
RTVSPropertyOp35
 70
     1
102
RTVSPropertyOp36
 70
     1
102
RTVSPropertyOp37
 70
     1
102
RTVSPropertyOp38
 70
     1
102
RTVSPropertyOp39
 70
     1
102
RTVSPropertyOp40
 70
     1
102
RTVSPropertyOp41
 70
     1
102
RTVSPropertyOp42
 70
     1
102
RTVSPropertyOp43
 70
     1
102
RTVSPropertyOp44
 70
     1
102
RTVSPropertyOp45
 70
     1
102
RTVSPropertyOp46
 70
     1
102
RTVSPropertyOp47
 70
     1
102
RTVSPropertyOp48
 70
     1
102
RTVSPropertyOp49
 70
     1
102
RTVSPropertyOp50
 70
     1
102
RTVSPropertyOp51
 70
     0
102
RTVSPropertyOp52
 70
     0
102
RTVSPropertyOp53
 70
     1
102
RTVSPropertyOp54
 70
     1
102
RTVSPropertyOp55
 70
     1
102
RTVSPropertyOp56
 70
     1
102
RTVSPropertyOp57
 70
     1
102
RTVSPost2010Prop28
280
     0
102
RTVSPost2010PropOp28
 70
     1
102
RTVSPost2010Prop29
280
     1
102
RTVSPost2010PropOp29
 70
     1
102
RTVSPost2010Prop30
280
     1
102
RTVSPost2010PropOp30
 70
     1
102
RTVSPost2010Prop31
280
     0
102
RTVSPost2010PropOp31
 70
     1
102
RTVSPost2010Prop32
280
     0
102
RTVSPost2010PropOp32
 70
     1
102
RTVSPost2010Prop33
280
     0
102
RTVSPost2010PropOp33
 70
     1
102
RTVSPost2010Prop34
280
     0
102
RTVSPost2010PropOp34
 70
     1
102
RTVSPost2010Prop35
280
     0
102
RTVSPost2010PropOp35
 70
     1
102
RTVSPost2010Prop36
280
     0
102
RTVSPost2010PropOp36
 70
     1
102
RTVSPost2010Prop37
 90
       50
102
RTVSPost2010PropOp37
 70
     1
102
RTVSPost2010Prop38
140
0.0
102
RTVSPost2010PropOp38
 70
     1
102
RTVSPost2010Prop39
140
1.0
102
RTVSPost2010PropOp39
 70
     1
102
RTVSPost2010Prop40
 90
        0
102
RTVSPost2010PropOp40
 70
     1
102
RTVSPost2010Prop41ColorIndex
 90
       18
102
RTVSPost2010Prop41ColorRGB
 90
        0
102
RTVSPost2010PropOp41
 70
     1
102
RTVSPost2010Prop42
 90
       50
102
RTVSPost2010PropOp42
 70
     1
102
RTVSPost2010Prop43
 90
        3
102
RTVSPost2010PropOp43
 70
     1
102
RTVSPost2010Prop44ColorIndex
 90
        5
102
RTVSPost2010Prop44ColorRGB
 90
      255
102
RTVSPost2010PropOp44
 70
     1
102
RTVSPost2010Prop45
280
     0
102
RTVSPost2010PropOp45
 70
     1
102
RTVSPost2010Prop46
 90
       50
102
RTVSPost2010PropOp46
 70
     1
102
RTVSPost2010Prop47
 90
       50
102
RTVSPost2010PropOp47
 70
     1
102
RTVSPost2010Prop48
 90
       50
102
RTVSPost2010PropOp48
 70
     1
102
RTVSPost2010Prop49
280
     0
102
RTVSPost2010PropOp49
 70
     1
102
RTVSPost2010Prop50
 90
       50
102
RTVSPost2010PropOp50
 70
     1
102
RTVSPost2010Prop51ColorIndex
 90
      256
102
RTVSPost2010Prop51ColorRGB
 90
-16777216
102
RTVSPost2010PropOp51
 70
     0
102
RTVSPost2010Prop52
140
1.0
102
RTVSPost2010PropOp52
 70
     0
102
RTVSPost2010Prop53
 90
        2
102
RTVSPost2010PropOp53
 70
     1
102
RTVSPost2010Prop54
  1
strokes_ogs.tif
102
RTVSPost2010PropOp54
 70
     1
102
RTVSPost2010Prop55
280
     0
102
RTVSPost2010PropOp55
 70
     1
102
RTVSPost2010Prop56
140
1.0
102
RTVSPost2010PropOp56
 70
     1
102
RTVSPost2010Prop57
140
1.0
102
RTVSPost2010PropOp57
 70
     1
  0
XRECORD
  5
340
102
{ACAD_REACTORS
330
33F
102
}
330
33F
100
AcDbXrecord
280
     1
102
RTVSPropertyOp0
 70
     1
102
RTVSPropertyOp1
 70
     1
102
RTVSPropertyOp2
 70
     1
102
RTVSPropertyOp3
 70
     1
102
RTVSPropertyOp4
 70
     1
102
RTVSPropertyOp5
 70
     1
102
RTVSPropertyOp6
 70
     1
102
RTVSPropertyOp7
 70
     1
102
RTVSPropertyOp8
 70
     1
102
RTVSPropertyOp9
 70
     1
102
RTVSPropertyOp10
 70
     1
102
RTVSPropertyOp11
 70
     1
102
RTVSPropertyOp12
 70
     1
102
RTVSPropertyOp13
 70
     1
102
RTVSPropertyOp14
 70
     1
102
RTVSPropertyOp15
 70
     1
102
RTVSPropertyOp16
 70
     1
102
RTVSPropertyOp17
 70
     1
102
RTVSPropertyOp18
 70
     1
102
RTVSPropertyOp19
 70
     1
102
RTVSPropertyOp20
 70
     1
102
RTVSPropertyOp21
 70
     1
102
RTVSPropertyOp22
 70
     1
102
RTVSPropertyOp23
 70
     1
102
RTVSPropertyOp24
 70
     1
102
RTVSPropertyOp25
 70
     1
102
RTVSPropertyOp26
 70
     1
102
RTVSPropertyOp27
 70
     1
102
RTVSPropertyOp28
 70
     1
102
RTVSPropertyOp29
 70
     1
102
RTVSPropertyOp30
 70
     1
102
RTVSPropertyOp31
 70
     1
102
RTVSPropertyOp32
 70
     1
102
RTVSPropertyOp33
 70
     1
102
RTVSPropertyOp34
 70
     1
102
RTVSPropertyOp35
 70
     1
102
RTVSPropertyOp36
 70
     1
102
RTVSPropertyOp37
 70
     1
102
RTVSPropertyOp38
 70
     1
102
RTVSPropertyOp39
 70
     1
102
RTVSPropertyOp40
 70
     1
102
RTVSPropertyOp41
 70
     1
102
RTVSPropertyOp42
 70
     1
102
RTVSPropertyOp43
 70
     1
102
RTVSPropertyOp44
 70
     1
102
RTVSPropertyOp45
 70
     1
102
RTVSPropertyOp46
 70
     1
102
RTVSPropertyOp47
 70
     1
102
RTVSPropertyOp48
 70
     1
102
RTVSPropertyOp49
 70
     1
102
RTVSPropertyOp50
 70
     1
102
RTVSPropertyOp51
 70
     0
102
RTVSPropertyOp52
 70
     0
102
RTVSPropertyOp53
 70
     1
102
RTVSPropertyOp54
 70
     1
102
RTVSPropertyOp55
 70
     1
102
RTVSPropertyOp56
 70
     1
102
RTVSPropertyOp57
 70
     1
102
RTVSPost2010Prop28
280
     0
102
RTVSPost2010PropOp28
 70
     1
102
RTVSPost2010Prop29
280
     1
102
RTVSPost2010PropOp29
 70
     1
102
RTVSPost2010Prop30
280
     1
102
RTVSPost2010PropOp30
 70
     1
102
RTVSPost2010Prop31
280
     0
102
RTVSPost2010PropOp31
 70
     1
102
RTVSPost2010Prop32
280
     0
102
RTVSPost2010PropOp32
 70
     1
102
RTVSPost2010Prop33
280
     0
102
RTVSPost2010PropOp33
 70
     1
102
RTVSPost2010Prop34
280
     0
102
RTVSPost2010PropOp34
 70
     1
102
RTVSPost2010Prop35
280
     0
102
RTVSPost2010PropOp35
 70
     1
102
RTVSPost2010Prop36
280
     0
102
RTVSPost2010PropOp36
 70
     1
102
RTVSPost2010Prop37
 90
       50
102
RTVSPost2010PropOp37
 70
     1
102
RTVSPost2010Prop38
140
0.0
102
RTVSPost2010PropOp38
 70
     1
102
RTVSPost2010Prop39
140
1.0
102
RTVSPost2010PropOp39
 70
     1
102
RTVSPost2010Prop40
 90
        0
102
RTVSPost2010PropOp40
 70
     1
102
RTVSPost2010Prop41ColorIndex
 90
       18
102
RTVSPost2010Prop41ColorRGB
 90
        0
102
RTVSPost2010PropOp41
 70
     1
102
RTVSPost2010Prop42
 90
       50
102
RTVSPost2010PropOp42
 70
     1
102
RTVSPost2010Prop43
 90
        3
102
RTVSPost2010PropOp43
 70
     1
102
RTVSPost2010Prop44ColorIndex
 90
        5
102
RTVSPost2010Prop44ColorRGB
 90
      255
102
RTVSPost2010PropOp44
 70
     1
102
RTVSPost2010Prop45
280
     0
102
RTVSPost2010PropOp45
 70
     1
102
RTVSPost2010Prop46
 90
       50
102
RTVSPost2010PropOp46
 70
     1
102
RTVSPost2010Prop47
 90
       50
102
RTVSPost2010PropOp47
 70
     1
102
RTVSPost2010Prop48
 90
       50
102
RTVSPost2010PropOp48
 70
     1
102
RTVSPost2010Prop49
280
     0
102
RTVSPost2010PropOp49
 70
     1
102
RTVSPost2010Prop50
 90
       50
102
RTVSPost2010PropOp50
 70
     1
102
RTVSPost2010Prop51ColorIndex
 90
      256
102
RTVSPost2010Prop51ColorRGB
 90
-16777216
102
RTVSPost2010PropOp51
 70
     0
102
RTVSPost2010Prop52
140
1.0
102
RTVSPost2010PropOp52
 70
     0
102
RTVSPost2010Prop53
 90
        2
102
RTVSPost2010PropOp53
 70
     1
102
RTVSPost2010Prop54
  1
strokes_ogs.tif
102
RTVSPost2010PropOp54
 70
     1
102
RTVSPost2010Prop55
280
     0
102
RTVSPost2010PropOp55
 70
     1
102
RTVSPost2010Prop56
140
1.0
102
RTVSPost2010PropOp56
 70
     1
102
RTVSPost2010Prop57
140
1.0
102
RTVSPost2010PropOp57
 70
     1
  0
XRECORD
  5
350
102
{ACAD_REACTORS
330
34F
102
}
330
34F
100
AcDbXrecord
280
     1
102
RTVSPropertyOp0
 70
     0
102
RTVSPropertyOp1
 70
     0
102
RTVSPropertyOp2
 70
     0
102
RTVSPropertyOp3
 70
     0
102
RTVSPropertyOp4
 70
     0
102
RTVSPropertyOp5
 70
     0
102
RTVSPropertyOp6
 70
     0
102
RTVSPropertyOp7
 70
     0
102
RTVSPropertyOp8
 70
     0
102
RTVSPropertyOp9
 70
     0
102
RTVSPropertyOp10
 70
     0
102
RTVSPropertyOp11
 70
     0
102
RTVSPropertyOp12
 70
     0
102
RTVSPropertyOp13
 70
     0
102
RTVSPropertyOp14
 70
     2
102
RTVSPropertyOp15
 70
     0
102
RTVSPropertyOp16
 70
     0
102
RTVSPropertyOp17
 70
     0
102
RTVSPropertyOp18
 70
     0
102
RTVSPropertyOp19
 70
     0
102
RTVSPropertyOp20
 70
     0
102
RTVSPropertyOp21
 70
     0
102
RTVSPropertyOp22
 70
     0
102
RTVSPropertyOp23
 70
     0
102
RTVSPropertyOp24
 70
     0
102
RTVSPropertyOp25
 70
     0
102
RTVSPropertyOp26
 70
     0
102
RTVSPropertyOp27
 70
     0
102
RTVSPropertyOp28
 70
     0
102
RTVSPropertyOp29
 70
     0
102
RTVSPropertyOp30
 70
     0
102
RTVSPropertyOp31
 70
     0
102
RTVSPropertyOp32
 70
     0
102
RTVSPropertyOp33
 70
     0
102
RTVSPropertyOp34
 70
     0
102
RTVSPropertyOp35
 70
     0
102
RTVSPropertyOp36
 70
     0
102
RTVSPropertyOp37
 70
     0
102
RTVSPropertyOp38
 70
     0
102
RTVSPropertyOp39
 70
     0
102
RTVSPropertyOp40
 70
     0
102
RTVSPropertyOp41
 70
     0
102
RTVSPropertyOp42
 70
     0
102
RTVSPropertyOp43
 70
     0
102
RTVSPropertyOp44
 70
     0
102
RTVSPropertyOp45
 70
     0
102
RTVSPropertyOp46
 70
     0
102
RTVSPropertyOp47
 70
     0
102
RTVSPropertyOp48
 70
     0
102
RTVSPropertyOp49
 70
     0
102
RTVSPropertyOp50
 70
     0
102
RTVSPropertyOp51
 70
     0
102
RTVSPropertyOp52
 70
     0
102
RTVSPropertyOp53
 70
     0
102
RTVSPropertyOp54
 70
     0
102
RTVSPropertyOp55
 70
     0
102
RTVSPropertyOp56
 70
     0
102
RTVSPropertyOp57
 70
     0
102
RTVSPost2010Prop28
280
     0
102
RTVSPost2010PropOp28
 70
     0
102
RTVSPost2010Prop29
280
     1
102
RTVSPost2010PropOp29
 70
     0
102
RTVSPost2010Prop30
280
     1
102
RTVSPost2010PropOp30
 70
     0
102
RTVSPost2010Prop31
280
     0
102
RTVSPost2010PropOp31
 70
     0
102
RTVSPost2010Prop32
280
     0
102
RTVSPost2010PropOp32
 70
     0
102
RTVSPost2010Prop33
280
     0
102
RTVSPost2010PropOp33
 70
     0
102
RTVSPost2010Prop34
280
     0
102
RTVSPost2010PropOp34
 70
     0
102
RTVSPost2010Prop35
280
     0
102
RTVSPost2010PropOp35
 70
     0
102
RTVSPost2010Prop36
280
     0
102
RTVSPost2010PropOp36
 70
     0
102
RTVSPost2010Prop37
 90
       50
102
RTVSPost2010PropOp37
 70
     0
102
RTVSPost2010Prop38
140
0.0
102
RTVSPost2010PropOp38
 70
     0
102
RTVSPost2010Prop39
140
1.0
102
RTVSPost2010PropOp39
 70
     0
102
RTVSPost2010Prop40
 90
        0
102
RTVSPost2010PropOp40
 70
     0
102
RTVSPost2010Prop41ColorIndex
 90
       18
102
RTVSPost2010Prop41ColorRGB
 90
        0
102
RTVSPost2010PropOp41
 70
     0
102
RTVSPost2010Prop42
 90
       50
102
RTVSPost2010PropOp42
 70
     0
102
RTVSPost2010Prop43
 90
        3
102
RTVSPost2010PropOp43
 70
     0
102
RTVSPost2010Prop44ColorIndex
 90
        5
102
RTVSPost2010Prop44ColorRGB
 90
      255
102
RTVSPost2010PropOp44
 70
     0
102
RTVSPost2010Prop45
280
     0
102
RTVSPost2010PropOp45
 70
     0
102
RTVSPost2010Prop46
 90
       50
102
RTVSPost2010PropOp46
 70
     0
102
RTVSPost2010Prop47
 90
       50
102
RTVSPost2010PropOp47
 70
     0
102
RTVSPost2010Prop48
 90
       50
102
RTVSPost2010PropOp48
 70
     0
102
RTVSPost2010Prop49
280
     0
102
RTVSPost2010PropOp49
 70
     0
102
RTVSPost2010Prop50
 90
       50
102
RTVSPost2010PropOp50
 70
     0
102
RTVSPost2010Prop51ColorIndex
 90
      256
102
RTVSPost2010Prop51ColorRGB
 90
-16777216
102
RTVSPost2010PropOp51
 70
     0
102
RTVSPost2010Prop52
140
1.0
102
RTVSPost2010PropOp52
 70
     0
102
RTVSPost2010Prop53
 90
        2
102
RTVSPost2010PropOp53
 70
     0
102
RTVSPost2010Prop54
  1
strokes_ogs.tif
102
RTVSPost2010PropOp54
 70
     0
102
RTVSPost2010Prop55
280
     0
102
RTVSPost2010PropOp55
 70
     0
102
RTVSPost2010Prop56
140
1.0
102
RTVSPost2010PropOp56
 70
     0
102
RTVSPost2010Prop57
140
1.0
102
RTVSPost2010PropOp57
 70
     0
  0
XRECORD
  5
348
102
{ACAD_REACTORS
330
347
102
}
330
347
100
AcDbXrecord
280
     1
102
RTVSPropertyOp0
 70
     1
102
RTVSPropertyOp1
 70
     1
102
RTVSPropertyOp2
 70
     1
102
RTVSPropertyOp3
 70
     1
102
RTVSPropertyOp4
 70
     1
102
RTVSPropertyOp5
 70
     1
102
RTVSPropertyOp6
 70
     1
102
RTVSPropertyOp7
 70
     1
102
RTVSPropertyOp8
 70
     1
102
RTVSPropertyOp9
 70
     1
102
RTVSPropertyOp10
 70
     1
102
RTVSPropertyOp11
 70
     1
102
RTVSPropertyOp12
 70
     1
102
RTVSPropertyOp13
 70
     1
102
RTVSPropertyOp14
 70
     1
102
RTVSPropertyOp15
 70
     1
102
RTVSPropertyOp16
 70
     1
102
RTVSPropertyOp17
 70
     1
102
RTVSPropertyOp18
 70
     1
102
RTVSPropertyOp19
 70
     1
102
RTVSPropertyOp20
 70
     1
102
RTVSPropertyOp21
 70
     1
102
RTVSPropertyOp22
 70
     1
102
RTVSPropertyOp23
 70
     1
102
RTVSPropertyOp24
 70
     1
102
RTVSPropertyOp25
 70
     1
102
RTVSPropertyOp26
 70
     1
102
RTVSPropertyOp27
 70
     1
102
RTVSPropertyOp28
 70
     1
102
RTVSPropertyOp29
 70
     1
102
RTVSPropertyOp30
 70
     1
102
RTVSPropertyOp31
 70
     1
102
RTVSPropertyOp32
 70
     1
102
RTVSPropertyOp33
 70
     1
102
RTVSPropertyOp34
 70
     1
102
RTVSPropertyOp35
 70
     1
102
RTVSPropertyOp36
 70
     1
102
RTVSPropertyOp37
 70
     1
102
RTVSPropertyOp38
 70
     1
102
RTVSPropertyOp39
 70
     1
102
RTVSPropertyOp40
 70
     1
102
RTVSPropertyOp41
 70
     1
102
RTVSPropertyOp42
 70
     1
102
RTVSPropertyOp43
 70
     1
102
RTVSPropertyOp44
 70
     1
102
RTVSPropertyOp45
 70
     1
102
RTVSPropertyOp46
 70
     1
102
RTVSPropertyOp47
 70
     1
102
RTVSPropertyOp48
 70
     1
102
RTVSPropertyOp49
 70
     1
102
RTVSPropertyOp50
 70
     1
102
RTVSPropertyOp51
 70
     0
102
RTVSPropertyOp52
 70
     0
102
RTVSPropertyOp53
 70
     1
102
RTVSPropertyOp54
 70
     1
102
RTVSPropertyOp55
 70
     1
102
RTVSPropertyOp56
 70
     1
102
RTVSPropertyOp57
 70
     1
102
RTVSPost2010Prop28
280
     0
102
RTVSPost2010PropOp28
 70
     1
102
RTVSPost2010Prop29
280
     1
102
RTVSPost2010PropOp29
 70
     1
102
RTVSPost2010Prop30
280
     1
102
RTVSPost2010PropOp30
 70
     1
102
RTVSPost2010Prop31
280
     0
102
RTVSPost2010PropOp31
 70
     1
102
RTVSPost2010Prop32
280
     0
102
RTVSPost2010PropOp32
 70
     1
102
RTVSPost2010Prop33
280
     0
102
RTVSPost2010PropOp33
 70
     1
102
RTVSPost2010Prop34
280
     0
102
RTVSPost2010PropOp34
 70
     1
102
RTVSPost2010Prop35
280
     0
102
RTVSPost2010PropOp35
 70
     1
102
RTVSPost2010Prop36
280
     0
102
RTVSPost2010PropOp36
 70
     1
102
RTVSPost2010Prop37
 90
       50
102
RTVSPost2010PropOp37
 70
     1
102
RTVSPost2010Prop38
140
0.0
102
RTVSPost2010PropOp38
 70
     1
102
RTVSPost2010Prop39
140
1.0
102
RTVSPost2010PropOp39
 70
     1
102
RTVSPost2010Prop40
 90
        0
102
RTVSPost2010PropOp40
 70
     1
102
RTVSPost2010Prop41ColorIndex
 90
       18
102
RTVSPost2010Prop41ColorRGB
 90
        0
102
RTVSPost2010PropOp41
 70
     1
102
RTVSPost2010Prop42
 90
       50
102
RTVSPost2010PropOp42
 70
     1
102
RTVSPost2010Prop43
 90
        3
102
RTVSPost2010PropOp43
 70
     1
102
RTVSPost2010Prop44ColorIndex
 90
        5
102
RTVSPost2010Prop44ColorRGB
 90
      255
102
RTVSPost2010PropOp44
 70
     1
102
RTVSPost2010Prop45
280
     0
102
RTVSPost2010PropOp45
 70
     1
102
RTVSPost2010Prop46
 90
       50
102
RTVSPost2010PropOp46
 70
     1
102
RTVSPost2010Prop47
 90
       50
102
RTVSPost2010PropOp47
 70
     1
102
RTVSPost2010Prop48
 90
       50
102
RTVSPost2010PropOp48
 70
     1
102
RTVSPost2010Prop49
280
     0
102
RTVSPost2010PropOp49
 70
     1
102
RTVSPost2010Prop50
 90
       50
102
RTVSPost2010PropOp50
 70
     1
102
RTVSPost2010Prop51ColorIndex
 90
      256
102
RTVSPost2010Prop51ColorRGB
 90
-16777216
102
RTVSPost2010PropOp51
 70
     0
102
RTVSPost2010Prop52
140
1.0
102
RTVSPost2010PropOp52
 70
     0
102
RTVSPost2010Prop53
 90
        2
102
RTVSPost2010PropOp53
 70
     1
102
RTVSPost2010Prop54
  1
strokes_ogs.tif
102
RTVSPost2010PropOp54
 70
     1
102
RTVSPost2010Prop55
280
     0
102
RTVSPost2010PropOp55
 70
     1
102
RTVSPost2010Prop56
140
1.0
102
RTVSPost2010PropOp56
 70
     1
102
RTVSPost2010Prop57
140
1.0
102
RTVSPost2010PropOp57
 70
     1
  0
XRECORD
  5
32C
102
{ACAD_REACTORS
330
32B
102
}
330
32B
100
AcDbXrecord
280
     1
102
RTVSPropertyOp0
 70
     1
102
RTVSPropertyOp1
 70
     1
102
RTVSPropertyOp2
 70
     1
102
RTVSPropertyOp3
 70
     1
102
RTVSPropertyOp4
 70
     1
102
RTVSPropertyOp5
 70
     1
102
RTVSPropertyOp6
 70
     1
102
RTVSPropertyOp7
 70
     1
102
RTVSPropertyOp8
 70
     1
102
RTVSPropertyOp9
 70
     1
102
RTVSPropertyOp10
 70
     1
102
RTVSPropertyOp11
 70
     1
102
RTVSPropertyOp12
 70
     1
102
RTVSPropertyOp13
 70
     1
102
RTVSPropertyOp14
 70
     1
102
RTVSPropertyOp15
 70
     1
102
RTVSPropertyOp16
 70
     1
102
RTVSPropertyOp17
 70
     1
102
RTVSPropertyOp18
 70
     1
102
RTVSPropertyOp19
 70
     1
102
RTVSPropertyOp20
 70
     1
102
RTVSPropertyOp21
 70
     1
102
RTVSPropertyOp22
 70
     1
102
RTVSPropertyOp23
 70
     1
102
RTVSPropertyOp24
 70
     1
102
RTVSPropertyOp25
 70
     1
102
RTVSPropertyOp26
 70
     1
102
RTVSPropertyOp27
 70
     1
102
RTVSPropertyOp28
 70
     1
102
RTVSPropertyOp29
 70
     1
102
RTVSPropertyOp30
 70
     1
102
RTVSPropertyOp31
 70
     1
102
RTVSPropertyOp32
 70
     1
102
RTVSPropertyOp33
 70
     1
102
RTVSPropertyOp34
 70
     1
102
RTVSPropertyOp35
 70
     1
102
RTVSPropertyOp36
 70
     1
102
RTVSPropertyOp37
 70
     1
102
RTVSPropertyOp38
 70
     1
102
RTVSPropertyOp39
 70
     1
102
RTVSPropertyOp40
 70
     1
102
RTVSPropertyOp41
 70
     1
102
RTVSPropertyOp42
 70
     1
102
RTVSPropertyOp43
 70
     1
102
RTVSPropertyOp44
 70
     1
102
RTVSPropertyOp45
 70
     1
102
RTVSPropertyOp46
 70
     1
102
RTVSPropertyOp47
 70
     1
102
RTVSPropertyOp48
 70
     1
102
RTVSPropertyOp49
 70
     1
102
RTVSPropertyOp50
 70
     1
102
RTVSPropertyOp51
 70
     0
102
RTVSPropertyOp52
 70
     0
102
RTVSPropertyOp53
 70
     1
102
RTVSPropertyOp54
 70
     1
102
RTVSPropertyOp55
 70
     1
102
RTVSPropertyOp56
 70
     1
102
RTVSPropertyOp57
 70
     1
102
RTVSPost2010Prop28
280
     0
102
RTVSPost2010PropOp28
 70
     1
102
RTVSPost2010Prop29
280
     1
102
RTVSPost2010PropOp29
 70
     1
102
RTVSPost2010Prop30
280
     1
102
RTVSPost2010PropOp30
 70
     1
102
RTVSPost2010Prop31
280
     0
102
RTVSPost2010PropOp31
 70
     1
102
RTVSPost2010Prop32
280
     0
102
RTVSPost2010PropOp32
 70
     1
102
RTVSPost2010Prop33
280
     0
102
RTVSPost2010PropOp33
 70
     1
102
RTVSPost2010Prop34
280
     0
102
RTVSPost2010PropOp34
 70
     1
102
RTVSPost2010Prop35
280
     0
102
RTVSPost2010PropOp35
 70
     1
102
RTVSPost2010Prop36
280
     0
102
RTVSPost2010PropOp36
 70
     1
102
RTVSPost2010Prop37
 90
       50
102
RTVSPost2010PropOp37
 70
     1
102
RTVSPost2010Prop38
140
0.0
102
RTVSPost2010PropOp38
 70
     1
102
RTVSPost2010Prop39
140
1.0
102
RTVSPost2010PropOp39
 70
     1
102
RTVSPost2010Prop40
 90
        0
102
RTVSPost2010PropOp40
 70
     1
102
RTVSPost2010Prop41ColorIndex
 90
       18
102
RTVSPost2010Prop41ColorRGB
 90
        0
102
RTVSPost2010PropOp41
 70
     1
102
RTVSPost2010Prop42
 90
       50
102
RTVSPost2010PropOp42
 70
     1
102
RTVSPost2010Prop43
 90
        3
102
RTVSPost2010PropOp43
 70
     1
102
RTVSPost2010Prop44ColorIndex
 90
        5
102
RTVSPost2010Prop44ColorRGB
 90
      255
102
RTVSPost2010PropOp44
 70
     1
102
RTVSPost2010Prop45
280
     0
102
RTVSPost2010PropOp45
 70
     1
102
RTVSPost2010Prop46
 90
       50
102
RTVSPost2010PropOp46
 70
     1
102
RTVSPost2010Prop47
 90
       50
102
RTVSPost2010PropOp47
 70
     1
102
RTVSPost2010Prop48
 90
       50
102
RTVSPost2010PropOp48
 70
     1
102
RTVSPost2010Prop49
280
     0
102
RTVSPost2010PropOp49
 70
     1
102
RTVSPost2010Prop50
 90
       50
102
RTVSPost2010PropOp50
 70
     1
102
RTVSPost2010Prop51ColorIndex
 90
      256
102
RTVSPost2010Prop51ColorRGB
 90
-16777216
102
RTVSPost2010PropOp51
 70
     0
102
RTVSPost2010Prop52
140
1.0
102
RTVSPost2010PropOp52
 70
     0
102
RTVSPost2010Prop53
 90
        2
102
RTVSPost2010PropOp53
 70
     1
102
RTVSPost2010Prop54
  1
strokes_ogs.tif
102
RTVSPost2010PropOp54
 70
     1
102
RTVSPost2010Prop55
280
     0
102
RTVSPost2010PropOp55
 70
     1
102
RTVSPost2010Prop56
140
1.0
102
RTVSPost2010PropOp56
 70
     1
102
RTVSPost2010Prop57
140
1.0
102
RTVSPost2010PropOp57
 70
     1
  0
XRECORD
  5
32E
102
{ACAD_REACTORS
330
32D
102
}
330
32D
100
AcDbXrecord
280
     1
102
RTVSPropertyOp0
 70
     1
102
RTVSPropertyOp1
 70
     1
102
RTVSPropertyOp2
 70
     1
102
RTVSPropertyOp3
 70
     1
102
RTVSPropertyOp4
 70
     1
102
RTVSPropertyOp5
 70
     1
102
RTVSPropertyOp6
 70
     1
102
RTVSPropertyOp7
 70
     1
102
RTVSPropertyOp8
 70
     1
102
RTVSPropertyOp9
 70
     1
102
RTVSPropertyOp10
 70
     1
102
RTVSPropertyOp11
 70
     1
102
RTVSPropertyOp12
 70
     1
102
RTVSPropertyOp13
 70
     1
102
RTVSPropertyOp14
 70
     1
102
RTVSPropertyOp15
 70
     1
102
RTVSPropertyOp16
 70
     1
102
RTVSPropertyOp17
 70
     1
102
RTVSPropertyOp18
 70
     1
102
RTVSPropertyOp19
 70
     1
102
RTVSPropertyOp20
 70
     1
102
RTVSPropertyOp21
 70
     1
102
RTVSPropertyOp22
 70
     1
102
RTVSPropertyOp23
 70
     1
102
RTVSPropertyOp24
 70
     1
102
RTVSPropertyOp25
 70
     1
102
RTVSPropertyOp26
 70
     1
102
RTVSPropertyOp27
 70
     1
102
RTVSPropertyOp28
 70
     1
102
RTVSPropertyOp29
 70
     1
102
RTVSPropertyOp30
 70
     1
102
RTVSPropertyOp31
 70
     1
102
RTVSPropertyOp32
 70
     1
102
RTVSPropertyOp33
 70
     1
102
RTVSPropertyOp34
 70
     1
102
RTVSPropertyOp35
 70
     1
102
RTVSPropertyOp36
 70
     1
102
RTVSPropertyOp37
 70
     1
102
RTVSPropertyOp38
 70
     1
102
RTVSPropertyOp39
 70
     1
102
RTVSPropertyOp40
 70
     1
102
RTVSPropertyOp41
 70
     1
102
RTVSPropertyOp42
 70
     1
102
RTVSPropertyOp43
 70
     1
102
RTVSPropertyOp44
 70
     1
102
RTVSPropertyOp45
 70
     1
102
RTVSPropertyOp46
 70
     1
102
RTVSPropertyOp47
 70
     1
102
RTVSPropertyOp48
 70
     1
102
RTVSPropertyOp49
 70
     1
102
RTVSPropertyOp50
 70
     1
102
RTVSPropertyOp51
 70
     0
102
RTVSPropertyOp52
 70
     0
102
RTVSPropertyOp53
 70
     1
102
RTVSPropertyOp54
 70
     1
102
RTVSPropertyOp55
 70
     1
102
RTVSPropertyOp56
 70
     1
102
RTVSPropertyOp57
 70
     1
102
RTVSPost2010Prop28
280
     0
102
RTVSPost2010PropOp28
 70
     1
102
RTVSPost2010Prop29
280
     1
102
RTVSPost2010PropOp29
 70
     1
102
RTVSPost2010Prop30
280
     1
102
RTVSPost2010PropOp30
 70
     1
102
RTVSPost2010Prop31
280
     0
102
RTVSPost2010PropOp31
 70
     1
102
RTVSPost2010Prop32
280
     0
102
RTVSPost2010PropOp32
 70
     1
102
RTVSPost2010Prop33
280
     0
102
RTVSPost2010PropOp33
 70
     1
102
RTVSPost2010Prop34
280
     0
102
RTVSPost2010PropOp34
 70
     1
102
RTVSPost2010Prop35
280
     0
102
RTVSPost2010PropOp35
 70
     1
102
RTVSPost2010Prop36
280
     0
102
RTVSPost2010PropOp36
 70
     1
102
RTVSPost2010Prop37
 90
       50
102
RTVSPost2010PropOp37
 70
     1
102
RTVSPost2010Prop38
140
0.0
102
RTVSPost2010PropOp38
 70
     1
102
RTVSPost2010Prop39
140
1.0
102
RTVSPost2010PropOp39
 70
     1
102
RTVSPost2010Prop40
 90
        0
102
RTVSPost2010PropOp40
 70
     1
102
RTVSPost2010Prop41ColorIndex
 90
       18
102
RTVSPost2010Prop41ColorRGB
 90
        0
102
RTVSPost2010PropOp41
 70
     1
102
RTVSPost2010Prop42
 90
       50
102
RTVSPost2010PropOp42
 70
     1
102
RTVSPost2010Prop43
 90
        3
102
RTVSPost2010PropOp43
 70
     1
102
RTVSPost2010Prop44ColorIndex
 90
        5
102
RTVSPost2010Prop44ColorRGB
 90
      255
102
RTVSPost2010PropOp44
 70
     1
102
RTVSPost2010Prop45
280
     0
102
RTVSPost2010PropOp45
 70
     1
102
RTVSPost2010Prop46
 90
       50
102
RTVSPost2010PropOp46
 70
     1
102
RTVSPost2010Prop47
 90
       50
102
RTVSPost2010PropOp47
 70
     1
102
RTVSPost2010Prop48
 90
       50
102
RTVSPost2010PropOp48
 70
     1
102
RTVSPost2010Prop49
280
     0
102
RTVSPost2010PropOp49
 70
     1
102
RTVSPost2010Prop50
 90
       50
102
RTVSPost2010PropOp50
 70
     1
102
RTVSPost2010Prop51ColorIndex
 90
      256
102
RTVSPost2010Prop51ColorRGB
 90
-16777216
102
RTVSPost2010PropOp51
 70
     0
102
RTVSPost2010Prop52
140
1.0
102
RTVSPost2010PropOp52
 70
     0
102
RTVSPost2010Prop53
 90
        2
102
RTVSPost2010PropOp53
 70
     1
102
RTVSPost2010Prop54
  1
strokes_ogs.tif
102
RTVSPost2010PropOp54
 70
     1
102
RTVSPost2010Prop55
280
     0
102
RTVSPost2010PropOp55
 70
     1
102
RTVSPost2010Prop56
140
1.0
102
RTVSPost2010PropOp56
 70
     1
102
RTVSPost2010Prop57
140
1.0
102
RTVSPost2010PropOp57
 70
     1
  0
XRECORD
  5
330
102
{ACAD_REACTORS
330
32F
102
}
330
32F
100
AcDbXrecord
280
     1
102
RTVSPropertyOp0
 70
     1
102
RTVSPropertyOp1
 70
     1
102
RTVSPropertyOp2
 70
     1
102
RTVSPropertyOp3
 70
     1
102
RTVSPropertyOp4
 70
     1
102
RTVSPropertyOp5
 70
     1
102
RTVSPropertyOp6
 70
     1
102
RTVSPropertyOp7
 70
     1
102
RTVSPropertyOp8
 70
     1
102
RTVSPropertyOp9
 70
     1
102
RTVSPropertyOp10
 70
     1
102
RTVSPropertyOp11
 70
     1
102
RTVSPropertyOp12
 70
     1
102
RTVSPropertyOp13
 70
     1
102
RTVSPropertyOp14
 70
     1
102
RTVSPropertyOp15
 70
     1
102
RTVSPropertyOp16
 70
     1
102
RTVSPropertyOp17
 70
     1
102
RTVSPropertyOp18
 70
     1
102
RTVSPropertyOp19
 70
     1
102
RTVSPropertyOp20
 70
     1
102
RTVSPropertyOp21
 70
     1
102
RTVSPropertyOp22
 70
     1
102
RTVSPropertyOp23
 70
     1
102
RTVSPropertyOp24
 70
     1
102
RTVSPropertyOp25
 70
     1
102
RTVSPropertyOp26
 70
     1
102
RTVSPropertyOp27
 70
     1
102
RTVSPropertyOp28
 70
     1
102
RTVSPropertyOp29
 70
     1
102
RTVSPropertyOp30
 70
     1
102
RTVSPropertyOp31
 70
     1
102
RTVSPropertyOp32
 70
     1
102
RTVSPropertyOp33
 70
     1
102
RTVSPropertyOp34
 70
     1
102
RTVSPropertyOp35
 70
     1
102
RTVSPropertyOp36
 70
     1
102
RTVSPropertyOp37
 70
     1
102
RTVSPropertyOp38
 70
     1
102
RTVSPropertyOp39
 70
     1
102
RTVSPropertyOp40
 70
     1
102
RTVSPropertyOp41
 70
     1
102
RTVSPropertyOp42
 70
     1
102
RTVSPropertyOp43
 70
     1
102
RTVSPropertyOp44
 70
     1
102
RTVSPropertyOp45
 70
     1
102
RTVSPropertyOp46
 70
     1
102
RTVSPropertyOp47
 70
     1
102
RTVSPropertyOp48
 70
     1
102
RTVSPropertyOp49
 70
     1
102
RTVSPropertyOp50
 70
     1
102
RTVSPropertyOp51
 70
     0
102
RTVSPropertyOp52
 70
     0
102
RTVSPropertyOp53
 70
     1
102
RTVSPropertyOp54
 70
     1
102
RTVSPropertyOp55
 70
     1
102
RTVSPropertyOp56
 70
     1
102
RTVSPropertyOp57
 70
     1
102
RTVSPost2010Prop28
280
     0
102
RTVSPost2010PropOp28
 70
     1
102
RTVSPost2010Prop29
280
     1
102
RTVSPost2010PropOp29
 70
     1
102
RTVSPost2010Prop30
280
     1
102
RTVSPost2010PropOp30
 70
     1
102
RTVSPost2010Prop31
280
     0
102
RTVSPost2010PropOp31
 70
     1
102
RTVSPost2010Prop32
280
     0
102
RTVSPost2010PropOp32
 70
     1
102
RTVSPost2010Prop33
280
     0
102
RTVSPost2010PropOp33
 70
     1
102
RTVSPost2010Prop34
280
     0
102
RTVSPost2010PropOp34
 70
     1
102
RTVSPost2010Prop35
280
     0
102
RTVSPost2010PropOp35
 70
     1
102
RTVSPost2010Prop36
280
     0
102
RTVSPost2010PropOp36
 70
     1
102
RTVSPost2010Prop37
 90
       50
102
RTVSPost2010PropOp37
 70
     1
102
RTVSPost2010Prop38
140
0.0
102
RTVSPost2010PropOp38
 70
     1
102
RTVSPost2010Prop39
140
1.0
102
RTVSPost2010PropOp39
 70
     1
102
RTVSPost2010Prop40
 90
        0
102
RTVSPost2010PropOp40
 70
     1
102
RTVSPost2010Prop41ColorIndex
 90
       18
102
RTVSPost2010Prop41ColorRGB
 90
        0
102
RTVSPost2010PropOp41
 70
     1
102
RTVSPost2010Prop42
 90
       50
102
RTVSPost2010PropOp42
 70
     1
102
RTVSPost2010Prop43
 90
        3
102
RTVSPost2010PropOp43
 70
     1
102
RTVSPost2010Prop44ColorIndex
 90
        5
102
RTVSPost2010Prop44ColorRGB
 90
      255
102
RTVSPost2010PropOp44
 70
     1
102
RTVSPost2010Prop45
280
     0
102
RTVSPost2010PropOp45
 70
     1
102
RTVSPost2010Prop46
 90
       50
102
RTVSPost2010PropOp46
 70
     1
102
RTVSPost2010Prop47
 90
       50
102
RTVSPost2010PropOp47
 70
     1
102
RTVSPost2010Prop48
 90
       50
102
RTVSPost2010PropOp48
 70
     1
102
RTVSPost2010Prop49
280
     0
102
RTVSPost2010PropOp49
 70
     1
102
RTVSPost2010Prop50
 90
       50
102
RTVSPost2010PropOp50
 70
     1
102
RTVSPost2010Prop51ColorIndex
 90
      256
102
RTVSPost2010Prop51ColorRGB
 90
-16777216
102
RTVSPost2010PropOp51
 70
     0
102
RTVSPost2010Prop52
140
1.0
102
RTVSPost2010PropOp52
 70
     0
102
RTVSPost2010Prop53
 90
        2
102
RTVSPost2010PropOp53
 70
     1
102
RTVSPost2010Prop54
  1
strokes_ogs.tif
102
RTVSPost2010PropOp54
 70
     1
102
RTVSPost2010Prop55
280
     0
102
RTVSPost2010PropOp55
 70
     1
102
RTVSPost2010Prop56
140
1.0
102
RTVSPost2010PropOp56
 70
     1
102
RTVSPost2010Prop57
140
1.0
102
RTVSPost2010PropOp57
 70
     1
  0
XRECORD
  5
332
102
{ACAD_REACTORS
330
331
102
}
330
331
100
AcDbXrecord
280
     1
102
RTVSPropertyOp0
 70
     1
102
RTVSPropertyOp1
 70
     1
102
RTVSPropertyOp2
 70
     1
102
RTVSPropertyOp3
 70
     1
102
RTVSPropertyOp4
 70
     1
102
RTVSPropertyOp5
 70
     1
102
RTVSPropertyOp6
 70
     1
102
RTVSPropertyOp7
 70
     1
102
RTVSPropertyOp8
 70
     1
102
RTVSPropertyOp9
 70
     1
102
RTVSPropertyOp10
 70
     1
102
RTVSPropertyOp11
 70
     1
102
RTVSPropertyOp12
 70
     1
102
RTVSPropertyOp13
 70
     1
102
RTVSPropertyOp14
 70
     1
102
RTVSPropertyOp15
 70
     1
102
RTVSPropertyOp16
 70
     1
102
RTVSPropertyOp17
 70
     1
102
RTVSPropertyOp18
 70
     1
102
RTVSPropertyOp19
 70
     1
102
RTVSPropertyOp20
 70
     1
102
RTVSPropertyOp21
 70
     1
102
RTVSPropertyOp22
 70
     1
102
RTVSPropertyOp23
 70
     1
102
RTVSPropertyOp24
 70
     1
102
RTVSPropertyOp25
 70
     1
102
RTVSPropertyOp26
 70
     1
102
RTVSPropertyOp27
 70
     1
102
RTVSPropertyOp28
 70
     1
102
RTVSPropertyOp29
 70
     1
102
RTVSPropertyOp30
 70
     1
102
RTVSPropertyOp31
 70
     1
102
RTVSPropertyOp32
 70
     1
102
RTVSPropertyOp33
 70
     1
102
RTVSPropertyOp34
 70
     1
102
RTVSPropertyOp35
 70
     1
102
RTVSPropertyOp36
 70
     1
102
RTVSPropertyOp37
 70
     1
102
RTVSPropertyOp38
 70
     1
102
RTVSPropertyOp39
 70
     1
102
RTVSPropertyOp40
 70
     1
102
RTVSPropertyOp41
 70
     1
102
RTVSPropertyOp42
 70
     1
102
RTVSPropertyOp43
 70
     1
102
RTVSPropertyOp44
 70
     1
102
RTVSPropertyOp45
 70
     1
102
RTVSPropertyOp46
 70
     1
102
RTVSPropertyOp47
 70
     1
102
RTVSPropertyOp48
 70
     1
102
RTVSPropertyOp49
 70
     1
102
RTVSPropertyOp50
 70
     1
102
RTVSPropertyOp51
 70
     0
102
RTVSPropertyOp52
 70
     0
102
RTVSPropertyOp53
 70
     1
102
RTVSPropertyOp54
 70
     1
102
RTVSPropertyOp55
 70
     1
102
RTVSPropertyOp56
 70
     1
102
RTVSPropertyOp57
 70
     1
102
RTVSPost2010Prop28
280
     0
102
RTVSPost2010PropOp28
 70
     1
102
RTVSPost2010Prop29
280
     1
102
RTVSPost2010PropOp29
 70
     1
102
RTVSPost2010Prop30
280
     1
102
RTVSPost2010PropOp30
 70
     1
102
RTVSPost2010Prop31
280
     0
102
RTVSPost2010PropOp31
 70
     1
102
RTVSPost2010Prop32
280
     0
102
RTVSPost2010PropOp32
 70
     1
102
RTVSPost2010Prop33
280
     0
102
RTVSPost2010PropOp33
 70
     1
102
RTVSPost2010Prop34
280
     0
102
RTVSPost2010PropOp34
 70
     1
102
RTVSPost2010Prop35
280
     0
102
RTVSPost2010PropOp35
 70
     1
102
RTVSPost2010Prop36
280
     0
102
RTVSPost2010PropOp36
 70
     1
102
RTVSPost2010Prop37
 90
       50
102
RTVSPost2010PropOp37
 70
     1
102
RTVSPost2010Prop38
140
0.0
102
RTVSPost2010PropOp38
 70
     1
102
RTVSPost2010Prop39
140
1.0
102
RTVSPost2010PropOp39
 70
     1
102
RTVSPost2010Prop40
 90
        0
102
RTVSPost2010PropOp40
 70
     1
102
RTVSPost2010Prop41ColorIndex
 90
       18
102
RTVSPost2010Prop41ColorRGB
 90
        0
102
RTVSPost2010PropOp41
 70
     1
102
RTVSPost2010Prop42
 90
       50
102
RTVSPost2010PropOp42
 70
     1
102
RTVSPost2010Prop43
 90
        3
102
RTVSPost2010PropOp43
 70
     1
102
RTVSPost2010Prop44ColorIndex
 90
        5
102
RTVSPost2010Prop44ColorRGB
 90
      255
102
RTVSPost2010PropOp44
 70
     1
102
RTVSPost2010Prop45
280
     0
102
RTVSPost2010PropOp45
 70
     1
102
RTVSPost2010Prop46
 90
       50
102
RTVSPost2010PropOp46
 70
     1
102
RTVSPost2010Prop47
 90
       50
102
RTVSPost2010PropOp47
 70
     1
102
RTVSPost2010Prop48
 90
       50
102
RTVSPost2010PropOp48
 70
     1
102
RTVSPost2010Prop49
280
     0
102
RTVSPost2010PropOp49
 70
     1
102
RTVSPost2010Prop50
 90
       50
102
RTVSPost2010PropOp50
 70
     1
102
RTVSPost2010Prop51ColorIndex
 90
      256
102
RTVSPost2010Prop51ColorRGB
 90
-16777216
102
RTVSPost2010PropOp51
 70
     0
102
RTVSPost2010Prop52
140
1.0
102
RTVSPost2010PropOp52
 70
     0
102
RTVSPost2010Prop53
 90
        2
102
RTVSPost2010PropOp53
 70
     1
102
RTVSPost2010Prop54
  1
strokes_ogs.tif
102
RTVSPost2010PropOp54
 70
     1
102
RTVSPost2010Prop55
280
     0
102
RTVSPost2010PropOp55
 70
     1
102
RTVSPost2010Prop56
140
1.0
102
RTVSPost2010PropOp56
 70
     1
102
RTVSPost2010Prop57
140
1.0
102
RTVSPost2010PropOp57
 70
     1
  0
XRECORD
  5
338
102
{ACAD_REACTORS
330
337
102
}
330
337
100
AcDbXrecord
280
     1
102
RTVSPropertyOp0
 70
     1
102
RTVSPropertyOp1
 70
     1
102
RTVSPropertyOp2
 70
     1
102
RTVSPropertyOp3
 70
     1
102
RTVSPropertyOp4
 70
     1
102
RTVSPropertyOp5
 70
     1
102
RTVSPropertyOp6
 70
     1
102
RTVSPropertyOp7
 70
     1
102
RTVSPropertyOp8
 70
     1
102
RTVSPropertyOp9
 70
     1
102
RTVSPropertyOp10
 70
     1
102
RTVSPropertyOp11
 70
     1
102
RTVSPropertyOp12
 70
     1
102
RTVSPropertyOp13
 70
     1
102
RTVSPropertyOp14
 70
     1
102
RTVSPropertyOp15
 70
     1
102
RTVSPropertyOp16
 70
     1
102
RTVSPropertyOp17
 70
     1
102
RTVSPropertyOp18
 70
     1
102
RTVSPropertyOp19
 70
     1
102
RTVSPropertyOp20
 70
     1
102
RTVSPropertyOp21
 70
     1
102
RTVSPropertyOp22
 70
     1
102
RTVSPropertyOp23
 70
     1
102
RTVSPropertyOp24
 70
     1
102
RTVSPropertyOp25
 70
     1
102
RTVSPropertyOp26
 70
     1
102
RTVSPropertyOp27
 70
     1
102
RTVSPropertyOp28
 70
     1
102
RTVSPropertyOp29
 70
     1
102
RTVSPropertyOp30
 70
     1
102
RTVSPropertyOp31
 70
     1
102
RTVSPropertyOp32
 70
     1
102
RTVSPropertyOp33
 70
     1
102
RTVSPropertyOp34
 70
     1
102
RTVSPropertyOp35
 70
     1
102
RTVSPropertyOp36
 70
     1
102
RTVSPropertyOp37
 70
     1
102
RTVSPropertyOp38
 70
     1
102
RTVSPropertyOp39
 70
     1
102
RTVSPropertyOp40
 70
     1
102
RTVSPropertyOp41
 70
     1
102
RTVSPropertyOp42
 70
     1
102
RTVSPropertyOp43
 70
     1
102
RTVSPropertyOp44
 70
     1
102
RTVSPropertyOp45
 70
     1
102
RTVSPropertyOp46
 70
     1
102
RTVSPropertyOp47
 70
     1
102
RTVSPropertyOp48
 70
     1
102
RTVSPropertyOp49
 70
     1
102
RTVSPropertyOp50
 70
     1
102
RTVSPropertyOp51
 70
     0
102
RTVSPropertyOp52
 70
     0
102
RTVSPropertyOp53
 70
     1
102
RTVSPropertyOp54
 70
     1
102
RTVSPropertyOp55
 70
     1
102
RTVSPropertyOp56
 70
     1
102
RTVSPropertyOp57
 70
     1
102
RTVSPost2010Prop28
280
     0
102
RTVSPost2010PropOp28
 70
     1
102
RTVSPost2010Prop29
280
     1
102
RTVSPost2010PropOp29
 70
     1
102
RTVSPost2010Prop30
280
     1
102
RTVSPost2010PropOp30
 70
     1
102
RTVSPost2010Prop31
280
     0
102
RTVSPost2010PropOp31
 70
     1
102
RTVSPost2010Prop32
280
     0
102
RTVSPost2010PropOp32
 70
     1
102
RTVSPost2010Prop33
280
     0
102
RTVSPost2010PropOp33
 70
     1
102
RTVSPost2010Prop34
280
     0
102
RTVSPost2010PropOp34
 70
     1
102
RTVSPost2010Prop35
280
     0
102
RTVSPost2010PropOp35
 70
     1
102
RTVSPost2010Prop36
280
     0
102
RTVSPost2010PropOp36
 70
     1
102
RTVSPost2010Prop37
 90
       50
102
RTVSPost2010PropOp37
 70
     1
102
RTVSPost2010Prop38
140
0.0
102
RTVSPost2010PropOp38
 70
     1
102
RTVSPost2010Prop39
140
1.0
102
RTVSPost2010PropOp39
 70
     1
102
RTVSPost2010Prop40
 90
        0
102
RTVSPost2010PropOp40
 70
     1
102
RTVSPost2010Prop41ColorIndex
 90
       18
102
RTVSPost2010Prop41ColorRGB
 90
        0
102
RTVSPost2010PropOp41
 70
     1
102
RTVSPost2010Prop42
 90
       50
102
RTVSPost2010PropOp42
 70
     1
102
RTVSPost2010Prop43
 90
        3
102
RTVSPost2010PropOp43
 70
     1
102
RTVSPost2010Prop44ColorIndex
 90
        5
102
RTVSPost2010Prop44ColorRGB
 90
      255
102
RTVSPost2010PropOp44
 70
     1
102
RTVSPost2010Prop45
280
     0
102
RTVSPost2010PropOp45
 70
     1
102
RTVSPost2010Prop46
 90
       50
102
RTVSPost2010PropOp46
 70
     1
102
RTVSPost2010Prop47
 90
       50
102
RTVSPost2010PropOp47
 70
     1
102
RTVSPost2010Prop48
 90
       50
102
RTVSPost2010PropOp48
 70
     1
102
RTVSPost2010Prop49
280
     0
102
RTVSPost2010PropOp49
 70
     1
102
RTVSPost2010Prop50
 90
       50
102
RTVSPost2010PropOp50
 70
     1
102
RTVSPost2010Prop51ColorIndex
 90
      256
102
RTVSPost2010Prop51ColorRGB
 90
-16777216
102
RTVSPost2010PropOp51
 70
     0
102
RTVSPost2010Prop52
140
1.0
102
RTVSPost2010PropOp52
 70
     0
102
RTVSPost2010Prop53
 90
        2
102
RTVSPost2010PropOp53
 70
     1
102
RTVSPost2010Prop54
  1
strokes_ogs.tif
102
RTVSPost2010PropOp54
 70
     1
102
RTVSPost2010Prop55
280
     0
102
RTVSPost2010PropOp55
 70
     1
102
RTVSPost2010Prop56
140
1.0
102
RTVSPost2010PropOp56
 70
     1
102
RTVSPost2010Prop57
140
1.0
102
RTVSPost2010PropOp57
 70
     1
  0
XRECORD
  5
34C
102
{ACAD_REACTORS
330
34B
102
}
330
34B
100
AcDbXrecord
280
     1
102
RTVSPropertyOp0
 70
     0
102
RTVSPropertyOp1
 70
     0
102
RTVSPropertyOp2
 70
     0
102
RTVSPropertyOp3
 70
     0
102
RTVSPropertyOp4
 70
     0
102
RTVSPropertyOp5
 70
     0
102
RTVSPropertyOp6
 70
     0
102
RTVSPropertyOp7
 70
     0
102
RTVSPropertyOp8
 70
     0
102
RTVSPropertyOp9
 70
     0
102
RTVSPropertyOp10
 70
     0
102
RTVSPropertyOp11
 70
     0
102
RTVSPropertyOp12
 70
     0
102
RTVSPropertyOp13
 70
     0
102
RTVSPropertyOp14
 70
     2
102
RTVSPropertyOp15
 70
     0
102
RTVSPropertyOp16
 70
     0
102
RTVSPropertyOp17
 70
     0
102
RTVSPropertyOp18
 70
     0
102
RTVSPropertyOp19
 70
     0
102
RTVSPropertyOp20
 70
     0
102
RTVSPropertyOp21
 70
     0
102
RTVSPropertyOp22
 70
     0
102
RTVSPropertyOp23
 70
     0
102
RTVSPropertyOp24
 70
     0
102
RTVSPropertyOp25
 70
     0
102
RTVSPropertyOp26
 70
     0
102
RTVSPropertyOp27
 70
     0
102
RTVSPropertyOp28
 70
     0
102
RTVSPropertyOp29
 70
     0
102
RTVSPropertyOp30
 70
     0
102
RTVSPropertyOp31
 70
     0
102
RTVSPropertyOp32
 70
     0
102
RTVSPropertyOp33
 70
     0
102
RTVSPropertyOp34
 70
     0
102
RTVSPropertyOp35
 70
     0
102
RTVSPropertyOp36
 70
     0
102
RTVSPropertyOp37
 70
     0
102
RTVSPropertyOp38
 70
     0
102
RTVSPropertyOp39
 70
     0
102
RTVSPropertyOp40
 70
     0
102
RTVSPropertyOp41
 70
     0
102
RTVSPropertyOp42
 70
     0
102
RTVSPropertyOp43
 70
     0
102
RTVSPropertyOp44
 70
     0
102
RTVSPropertyOp45
 70
     0
102
RTVSPropertyOp46
 70
     0
102
RTVSPropertyOp47
 70
     0
102
RTVSPropertyOp48
 70
     0
102
RTVSPropertyOp49
 70
     0
102
RTVSPropertyOp50
 70
     0
102
RTVSPropertyOp51
 70
     0
102
RTVSPropertyOp52
 70
     0
102
RTVSPropertyOp53
 70
     0
102
RTVSPropertyOp54
 70
     0
102
RTVSPropertyOp55
 70
     0
102
RTVSPropertyOp56
 70
     0
102
RTVSPropertyOp57
 70
     0
102
RTVSPost2010Prop28
280
     0
102
RTVSPost2010PropOp28
 70
     0
102
RTVSPost2010Prop29
280
     1
102
RTVSPost2010PropOp29
 70
     0
102
RTVSPost2010Prop30
280
     1
102
RTVSPost2010PropOp30
 70
     0
102
RTVSPost2010Prop31
280
     0
102
RTVSPost2010PropOp31
 70
     0
102
RTVSPost2010Prop32
280
     0
102
RTVSPost2010PropOp32
 70
     0
102
RTVSPost2010Prop33
280
     0
102
RTVSPost2010PropOp33
 70
     0
102
RTVSPost2010Prop34
280
     0
102
RTVSPost2010PropOp34
 70
     0
102
RTVSPost2010Prop35
280
     0
102
RTVSPost2010PropOp35
 70
     0
102
RTVSPost2010Prop36
280
     0
102
RTVSPost2010PropOp36
 70
     0
102
RTVSPost2010Prop37
 90
       50
102
RTVSPost2010PropOp37
 70
     0
102
RTVSPost2010Prop38
140
0.0
102
RTVSPost2010PropOp38
 70
     0
102
RTVSPost2010Prop39
140
1.0
102
RTVSPost2010PropOp39
 70
     0
102
RTVSPost2010Prop40
 90
        0
102
RTVSPost2010PropOp40
 70
     0
102
RTVSPost2010Prop41ColorIndex
 90
       18
102
RTVSPost2010Prop41ColorRGB
 90
        0
102
RTVSPost2010PropOp41
 70
     0
102
RTVSPost2010Prop42
 90
       50
102
RTVSPost2010PropOp42
 70
     0
102
RTVSPost2010Prop43
 90
        3
102
RTVSPost2010PropOp43
 70
     0
102
RTVSPost2010Prop44ColorIndex
 90
        5
102
RTVSPost2010Prop44ColorRGB
 90
      255
102
RTVSPost2010PropOp44
 70
     0
102
RTVSPost2010Prop45
280
     0
102
RTVSPost2010PropOp45
 70
     0
102
RTVSPost2010Prop46
 90
       50
102
RTVSPost2010PropOp46
 70
     0
102
RTVSPost2010Prop47
 90
       50
102
RTVSPost2010PropOp47
 70
     0
102
RTVSPost2010Prop48
 90
       50
102
RTVSPost2010PropOp48
 70
     0
102
RTVSPost2010Prop49
280
     0
102
RTVSPost2010PropOp49
 70
     0
102
RTVSPost2010Prop50
 90
       50
102
RTVSPost2010PropOp50
 70
     0
102
RTVSPost2010Prop51ColorIndex
 90
      256
102
RTVSPost2010Prop51ColorRGB
 90
-16777216
102
RTVSPost2010PropOp51
 70
     0
102
RTVSPost2010Prop52
140
1.0
102
RTVSPost2010PropOp52
 70
     0
102
RTVSPost2010Prop53
 90
        2
102
RTVSPost2010PropOp53
 70
     0
102
RTVSPost2010Prop54
  1
strokes_ogs.tif
102
RTVSPost2010PropOp54
 70
     0
102
RTVSPost2010Prop55
280
     0
102
RTVSPost2010PropOp55
 70
     0
102
RTVSPost2010Prop56
140
1.0
102
RTVSPost2010PropOp56
 70
     0
102
RTVSPost2010Prop57
140
1.0
102
RTVSPost2010PropOp57
 70
     0
  0
XRECORD
  5
346
102
{ACAD_REACTORS
330
345
102
}
330
345
100
AcDbXrecord
280
     1
102
RTVSPropertyOp0
 70
     1
102
RTVSPropertyOp1
 70
     1
102
RTVSPropertyOp2
 70
     1
102
RTVSPropertyOp3
 70
     1
102
RTVSPropertyOp4
 70
     1
102
RTVSPropertyOp5
 70
     1
102
RTVSPropertyOp6
 70
     1
102
RTVSPropertyOp7
 70
     1
102
RTVSPropertyOp8
 70
     1
102
RTVSPropertyOp9
 70
     1
102
RTVSPropertyOp10
 70
     1
102
RTVSPropertyOp11
 70
     1
102
RTVSPropertyOp12
 70
     1
102
RTVSPropertyOp13
 70
     1
102
RTVSPropertyOp14
 70
     1
102
RTVSPropertyOp15
 70
     1
102
RTVSPropertyOp16
 70
     1
102
RTVSPropertyOp17
 70
     1
102
RTVSPropertyOp18
 70
     1
102
RTVSPropertyOp19
 70
     1
102
RTVSPropertyOp20
 70
     1
102
RTVSPropertyOp21
 70
     1
102
RTVSPropertyOp22
 70
     1
102
RTVSPropertyOp23
 70
     1
102
RTVSPropertyOp24
 70
     1
102
RTVSPropertyOp25
 70
     1
102
RTVSPropertyOp26
 70
     1
102
RTVSPropertyOp27
 70
     1
102
RTVSPropertyOp28
 70
     1
102
RTVSPropertyOp29
 70
     1
102
RTVSPropertyOp30
 70
     1
102
RTVSPropertyOp31
 70
     1
102
RTVSPropertyOp32
 70
     1
102
RTVSPropertyOp33
 70
     1
102
RTVSPropertyOp34
 70
     1
102
RTVSPropertyOp35
 70
     1
102
RTVSPropertyOp36
 70
     1
102
RTVSPropertyOp37
 70
     1
102
RTVSPropertyOp38
 70
     1
102
RTVSPropertyOp39
 70
     1
102
RTVSPropertyOp40
 70
     1
102
RTVSPropertyOp41
 70
     1
102
RTVSPropertyOp42
 70
     1
102
RTVSPropertyOp43
 70
     1
102
RTVSPropertyOp44
 70
     1
102
RTVSPropertyOp45
 70
     1
102
RTVSPropertyOp46
 70
     1
102
RTVSPropertyOp47
 70
     1
102
RTVSPropertyOp48
 70
     1
102
RTVSPropertyOp49
 70
     1
102
RTVSPropertyOp50
 70
     1
102
RTVSPropertyOp51
 70
     0
102
RTVSPropertyOp52
 70
     0
102
RTVSPropertyOp53
 70
     1
102
RTVSPropertyOp54
 70
     1
102
RTVSPropertyOp55
 70
     1
102
RTVSPropertyOp56
 70
     1
102
RTVSPropertyOp57
 70
     1
102
RTVSPost2010Prop28
280
     0
102
RTVSPost2010PropOp28
 70
     1
102
RTVSPost2010Prop29
280
     1
102
RTVSPost2010PropOp29
 70
     1
102
RTVSPost2010Prop30
280
     1
102
RTVSPost2010PropOp30
 70
     1
102
RTVSPost2010Prop31
280
     0
102
RTVSPost2010PropOp31
 70
     1
102
RTVSPost2010Prop32
280
     0
102
RTVSPost2010PropOp32
 70
     1
102
RTVSPost2010Prop33
280
     0
102
RTVSPost2010PropOp33
 70
     1
102
RTVSPost2010Prop34
280
     0
102
RTVSPost2010PropOp34
 70
     1
102
RTVSPost2010Prop35
280
     0
102
RTVSPost2010PropOp35
 70
     1
102
RTVSPost2010Prop36
280
     0
102
RTVSPost2010PropOp36
 70
     1
102
RTVSPost2010Prop37
 90
       50
102
RTVSPost2010PropOp37
 70
     1
102
RTVSPost2010Prop38
140
0.0
102
RTVSPost2010PropOp38
 70
     1
102
RTVSPost2010Prop39
140
1.0
102
RTVSPost2010PropOp39
 70
     1
102
RTVSPost2010Prop40
 90
        0
102
RTVSPost2010PropOp40
 70
     1
102
RTVSPost2010Prop41ColorIndex
 90
       18
102
RTVSPost2010Prop41ColorRGB
 90
        0
102
RTVSPost2010PropOp41
 70
     1
102
RTVSPost2010Prop42
 90
       50
102
RTVSPost2010PropOp42
 70
     1
102
RTVSPost2010Prop43
 90
        3
102
RTVSPost2010PropOp43
 70
     1
102
RTVSPost2010Prop44ColorIndex
 90
        5
102
RTVSPost2010Prop44ColorRGB
 90
      255
102
RTVSPost2010PropOp44
 70
     1
102
RTVSPost2010Prop45
280
     0
102
RTVSPost2010PropOp45
 70
     1
102
RTVSPost2010Prop46
 90
       50
102
RTVSPost2010PropOp46
 70
     1
102
RTVSPost2010Prop47
 90
       50
102
RTVSPost2010PropOp47
 70
     1
102
RTVSPost2010Prop48
 90
       50
102
RTVSPost2010PropOp48
 70
     1
102
RTVSPost2010Prop49
280
     0
102
RTVSPost2010PropOp49
 70
     1
102
RTVSPost2010Prop50
 90
       50
102
RTVSPost2010PropOp50
 70
     1
102
RTVSPost2010Prop51ColorIndex
 90
      256
102
RTVSPost2010Prop51ColorRGB
 90
-16777216
102
RTVSPost2010PropOp51
 70
     0
102
RTVSPost2010Prop52
140
1.0
102
RTVSPost2010PropOp52
 70
     0
102
RTVSPost2010Prop53
 90
        2
102
RTVSPost2010PropOp53
 70
     1
102
RTVSPost2010Prop54
  1
strokes_ogs.tif
102
RTVSPost2010PropOp54
 70
     1
102
RTVSPost2010Prop55
280
     0
102
RTVSPost2010PropOp55
 70
     1
102
RTVSPost2010Prop56
140
1.0
102
RTVSPost2010PropOp56
 70
     1
102
RTVSPost2010Prop57
140
1.0
102
RTVSPost2010PropOp57
 70
     1
  0
XRECORD
  5
34E
102
{ACAD_REACTORS
330
34D
102
}
330
34D
100
AcDbXrecord
280
     1
102
RTVSPropertyOp0
 70
     0
102
RTVSPropertyOp1
 70
     0
102
RTVSPropertyOp2
 70
     0
102
RTVSPropertyOp3
 70
     0
102
RTVSPropertyOp4
 70
     0
102
RTVSPropertyOp5
 70
     0
102
RTVSPropertyOp6
 70
     0
102
RTVSPropertyOp7
 70
     0
102
RTVSPropertyOp8
 70
     0
102
RTVSPropertyOp9
 70
     0
102
RTVSPropertyOp10
 70
     0
102
RTVSPropertyOp11
 70
     0
102
RTVSPropertyOp12
 70
     0
102
RTVSPropertyOp13
 70
     0
102
RTVSPropertyOp14
 70
     2
102
RTVSPropertyOp15
 70
     0
102
RTVSPropertyOp16
 70
     0
102
RTVSPropertyOp17
 70
     0
102
RTVSPropertyOp18
 70
     0
102
RTVSPropertyOp19
 70
     0
102
RTVSPropertyOp20
 70
     0
102
RTVSPropertyOp21
 70
     0
102
RTVSPropertyOp22
 70
     0
102
RTVSPropertyOp23
 70
     0
102
RTVSPropertyOp24
 70
     0
102
RTVSPropertyOp25
 70
     0
102
RTVSPropertyOp26
 70
     0
102
RTVSPropertyOp27
 70
     0
102
RTVSPropertyOp28
 70
     0
102
RTVSPropertyOp29
 70
     0
102
RTVSPropertyOp30
 70
     0
102
RTVSPropertyOp31
 70
     0
102
RTVSPropertyOp32
 70
     0
102
RTVSPropertyOp33
 70
     0
102
RTVSPropertyOp34
 70
     0
102
RTVSPropertyOp35
 70
     0
102
RTVSPropertyOp36
 70
     0
102
RTVSPropertyOp37
 70
     0
102
RTVSPropertyOp38
 70
     0
102
RTVSPropertyOp39
 70
     0
102
RTVSPropertyOp40
 70
     0
102
RTVSPropertyOp41
 70
     0
102
RTVSPropertyOp42
 70
     0
102
RTVSPropertyOp43
 70
     0
102
RTVSPropertyOp44
 70
     0
102
RTVSPropertyOp45
 70
     0
102
RTVSPropertyOp46
 70
     0
102
RTVSPropertyOp47
 70
     0
102
RTVSPropertyOp48
 70
     0
102
RTVSPropertyOp49
 70
     0
102
RTVSPropertyOp50
 70
     0
102
RTVSPropertyOp51
 70
     0
102
RTVSPropertyOp52
 70
     0
102
RTVSPropertyOp53
 70
     0
102
RTVSPropertyOp54
 70
     0
102
RTVSPropertyOp55
 70
     0
102
RTVSPropertyOp56
 70
     0
102
RTVSPropertyOp57
 70
     0
102
RTVSPost2010Prop28
280
     0
102
RTVSPost2010PropOp28
 70
     0
102
RTVSPost2010Prop29
280
     1
102
RTVSPost2010PropOp29
 70
     0
102
RTVSPost2010Prop30
280
     1
102
RTVSPost2010PropOp30
 70
     0
102
RTVSPost2010Prop31
280
     0
102
RTVSPost2010PropOp31
 70
     0
102
RTVSPost2010Prop32
280
     0
102
RTVSPost2010PropOp32
 70
     0
102
RTVSPost2010Prop33
280
     0
102
RTVSPost2010PropOp33
 70
     0
102
RTVSPost2010Prop34
280
     0
102
RTVSPost2010PropOp34
 70
     0
102
RTVSPost2010Prop35
280
     0
102
RTVSPost2010PropOp35
 70
     0
102
RTVSPost2010Prop36
280
     0
102
RTVSPost2010PropOp36
 70
     0
102
RTVSPost2010Prop37
 90
       50
102
RTVSPost2010PropOp37
 70
     0
102
RTVSPost2010Prop38
140
0.0
102
RTVSPost2010PropOp38
 70
     0
102
RTVSPost2010Prop39
140
1.0
102
RTVSPost2010PropOp39
 70
     0
102
RTVSPost2010Prop40
 90
        0
102
RTVSPost2010PropOp40
 70
     0
102
RTVSPost2010Prop41ColorIndex
 90
       18
102
RTVSPost2010Prop41ColorRGB
 90
        0
102
RTVSPost2010PropOp41
 70
     0
102
RTVSPost2010Prop42
 90
       50
102
RTVSPost2010PropOp42
 70
     0
102
RTVSPost2010Prop43
 90
        3
102
RTVSPost2010PropOp43
 70
     0
102
RTVSPost2010Prop44ColorIndex
 90
        5
102
RTVSPost2010Prop44ColorRGB
 90
      255
102
RTVSPost2010PropOp44
 70
     0
102
RTVSPost2010Prop45
280
     0
102
RTVSPost2010PropOp45
 70
     0
102
RTVSPost2010Prop46
 90
       50
102
RTVSPost2010PropOp46
 70
     0
102
RTVSPost2010Prop47
 90
       50
102
RTVSPost2010PropOp47
 70
     0
102
RTVSPost2010Prop48
 90
       50
102
RTVSPost2010PropOp48
 70
     0
102
RTVSPost2010Prop49
280
     0
102
RTVSPost2010PropOp49
 70
     0
102
RTVSPost2010Prop50
 90
       50
102
RTVSPost2010PropOp50
 70
     0
102
RTVSPost2010Prop51ColorIndex
 90
      256
102
RTVSPost2010Prop51ColorRGB
 90
-16777216
102
RTVSPost2010PropOp51
 70
     0
102
RTVSPost2010Prop52
140
1.0
102
RTVSPost2010PropOp52
 70
     0
102
RTVSPost2010Prop53
 90
        2
102
RTVSPost2010PropOp53
 70
     0
102
RTVSPost2010Prop54
  1
strokes_ogs.tif
102
RTVSPost2010PropOp54
 70
     0
102
RTVSPost2010Prop55
280
     0
102
RTVSPost2010PropOp55
 70
     0
102
RTVSPost2010Prop56
140
1.0
102
RTVSPost2010PropOp56
 70
     0
102
RTVSPost2010Prop57
140
1.0
102
RTVSPost2010PropOp57
 70
     0
  0
XRECORD
  5
33C
102
{ACAD_REACTORS
330
33B
102
}
330
33B
100
AcDbXrecord
280
     1
102
RTVSPropertyOp0
 70
     1
102
RTVSPropertyOp1
 70
     1
102
RTVSPropertyOp2
 70
     1
102
RTVSPropertyOp3
 70
     1
102
RTVSPropertyOp4
 70
     1
102
RTVSPropertyOp5
 70
     1
102
RTVSPropertyOp6
 70
     1
102
RTVSPropertyOp7
 70
     1
102
RTVSPropertyOp8
 70
     1
102
RTVSPropertyOp9
 70
     1
102
RTVSPropertyOp10
 70
     1
102
RTVSPropertyOp11
 70
     1
102
RTVSPropertyOp12
 70
     1
102
RTVSPropertyOp13
 70
     1
102
RTVSPropertyOp14
 70
     1
102
RTVSPropertyOp15
 70
     1
102
RTVSPropertyOp16
 70
     1
102
RTVSPropertyOp17
 70
     1
102
RTVSPropertyOp18
 70
     1
102
RTVSPropertyOp19
 70
     1
102
RTVSPropertyOp20
 70
     1
102
RTVSPropertyOp21
 70
     1
102
RTVSPropertyOp22
 70
     1
102
RTVSPropertyOp23
 70
     1
102
RTVSPropertyOp24
 70
     1
102
RTVSPropertyOp25
 70
     1
102
RTVSPropertyOp26
 70
     1
102
RTVSPropertyOp27
 70
     1
102
RTVSPropertyOp28
 70
     1
102
RTVSPropertyOp29
 70
     1
102
RTVSPropertyOp30
 70
     1
102
RTVSPropertyOp31
 70
     1
102
RTVSPropertyOp32
 70
     1
102
RTVSPropertyOp33
 70
     1
102
RTVSPropertyOp34
 70
     1
102
RTVSPropertyOp35
 70
     1
102
RTVSPropertyOp36
 70
     1
102
RTVSPropertyOp37
 70
     1
102
RTVSPropertyOp38
 70
     1
102
RTVSPropertyOp39
 70
     1
102
RTVSPropertyOp40
 70
     1
102
RTVSPropertyOp41
 70
     1
102
RTVSPropertyOp42
 70
     1
102
RTVSPropertyOp43
 70
     1
102
RTVSPropertyOp44
 70
     1
102
RTVSPropertyOp45
 70
     1
102
RTVSPropertyOp46
 70
     1
102
RTVSPropertyOp47
 70
     1
102
RTVSPropertyOp48
 70
     1
102
RTVSPropertyOp49
 70
     1
102
RTVSPropertyOp50
 70
     1
102
RTVSPropertyOp51
 70
     0
102
RTVSPropertyOp52
 70
     0
102
RTVSPropertyOp53
 70
     1
102
RTVSPropertyOp54
 70
     1
102
RTVSPropertyOp55
 70
     1
102
RTVSPropertyOp56
 70
     1
102
RTVSPropertyOp57
 70
     1
102
RTVSPost2010Prop28
280
     0
102
RTVSPost2010PropOp28
 70
     1
102
RTVSPost2010Prop29
280
     1
102
RTVSPost2010PropOp29
 70
     1
102
RTVSPost2010Prop30
280
     1
102
RTVSPost2010PropOp30
 70
     1
102
RTVSPost2010Prop31
280
     0
102
RTVSPost2010PropOp31
 70
     1
102
RTVSPost2010Prop32
280
     0
102
RTVSPost2010PropOp32
 70
     1
102
RTVSPost2010Prop33
280
     0
102
RTVSPost2010PropOp33
 70
     1
102
RTVSPost2010Prop34
280
     0
102
RTVSPost2010PropOp34
 70
     1
102
RTVSPost2010Prop35
280
     0
102
RTVSPost2010PropOp35
 70
     1
102
RTVSPost2010Prop36
280
     0
102
RTVSPost2010PropOp36
 70
     1
102
RTVSPost2010Prop37
 90
       50
102
RTVSPost2010PropOp37
 70
     1
102
RTVSPost2010Prop38
140
0.0
102
RTVSPost2010PropOp38
 70
     1
102
RTVSPost2010Prop39
140
1.0
102
RTVSPost2010PropOp39
 70
     1
102
RTVSPost2010Prop40
 90
        0
102
RTVSPost2010PropOp40
 70
     1
102
RTVSPost2010Prop41ColorIndex
 90
       18
102
RTVSPost2010Prop41ColorRGB
 90
        0
102
RTVSPost2010PropOp41
 70
     1
102
RTVSPost2010Prop42
 90
       50
102
RTVSPost2010PropOp42
 70
     1
102
RTVSPost2010Prop43
 90
        3
102
RTVSPost2010PropOp43
 70
     1
102
RTVSPost2010Prop44ColorIndex
 90
        5
102
RTVSPost2010Prop44ColorRGB
 90
      255
102
RTVSPost2010PropOp44
 70
     1
102
RTVSPost2010Prop45
280
     0
102
RTVSPost2010PropOp45
 70
     1
102
RTVSPost2010Prop46
 90
       50
102
RTVSPost2010PropOp46
 70
     1
102
RTVSPost2010Prop47
 90
       50
102
RTVSPost2010PropOp47
 70
     1
102
RTVSPost2010Prop48
 90
       50
102
RTVSPost2010PropOp48
 70
     1
102
RTVSPost2010Prop49
280
     0
102
RTVSPost2010PropOp49
 70
     1
102
RTVSPost2010Prop50
 90
       50
102
RTVSPost2010PropOp50
 70
     1
102
RTVSPost2010Prop51ColorIndex
 90
      256
102
RTVSPost2010Prop51ColorRGB
 90
-16777216
102
RTVSPost2010PropOp51
 70
     0
102
RTVSPost2010Prop52
140
1.0
102
RTVSPost2010PropOp52
 70
     0
102
RTVSPost2010Prop53
 90
        2
102
RTVSPost2010PropOp53
 70
     1
102
RTVSPost2010Prop54
  1
strokes_ogs.tif
102
RTVSPost2010PropOp54
 70
     1
102
RTVSPost2010Prop55
280
     0
102
RTVSPost2010PropOp55
 70
     1
102
RTVSPost2010Prop56
140
1.0
102
RTVSPost2010PropOp56
 70
     1
102
RTVSPost2010Prop57
140
1.0
102
RTVSPost2010PropOp57
 70
     1
  0
XRECORD
  5
35A
102
{ACAD_REACTORS
330
359
102
}
330
359
100
AcDbXrecord
280
     1
102
RTVSPropertyOp0
 70
     1
102
RTVSPropertyOp1
 70
     1
102
RTVSPropertyOp2
 70
     1
102
RTVSPropertyOp3
 70
     1
102
RTVSPropertyOp4
 70
     1
102
RTVSPropertyOp5
 70
     1
102
RTVSPropertyOp6
 70
     1
102
RTVSPropertyOp7
 70
     1
102
RTVSPropertyOp8
 70
     1
102
RTVSPropertyOp9
 70
     1
102
RTVSPropertyOp10
 70
     1
102
RTVSPropertyOp11
 70
     1
102
RTVSPropertyOp12
 70
     1
102
RTVSPropertyOp13
 70
     1
102
RTVSPropertyOp14
 70
     1
102
RTVSPropertyOp15
 70
     1
102
RTVSPropertyOp16
 70
     1
102
RTVSPropertyOp17
 70
     1
102
RTVSPropertyOp18
 70
     1
102
RTVSPropertyOp19
 70
     1
102
RTVSPropertyOp20
 70
     1
102
RTVSPropertyOp21
 70
     1
102
RTVSPropertyOp22
 70
     1
102
RTVSPropertyOp23
 70
     1
102
RTVSPropertyOp24
 70
     1
102
RTVSPropertyOp25
 70
     1
102
RTVSPropertyOp26
 70
     1
102
RTVSPropertyOp27
 70
     1
102
RTVSPropertyOp28
 70
     1
102
RTVSPropertyOp29
 70
     1
102
RTVSPropertyOp30
 70
     1
102
RTVSPropertyOp31
 70
     1
102
RTVSPropertyOp32
 70
     1
102
RTVSPropertyOp33
 70
     1
102
RTVSPropertyOp34
 70
     1
102
RTVSPropertyOp35
 70
     1
102
RTVSPropertyOp36
 70
     1
102
RTVSPropertyOp37
 70
     1
102
RTVSPropertyOp38
 70
     1
102
RTVSPropertyOp39
 70
     1
102
RTVSPropertyOp40
 70
     1
102
RTVSPropertyOp41
 70
     1
102
RTVSPropertyOp42
 70
     1
102
RTVSPropertyOp43
 70
     1
102
RTVSPropertyOp44
 70
     1
102
RTVSPropertyOp45
 70
     1
102
RTVSPropertyOp46
 70
     1
102
RTVSPropertyOp47
 70
     1
102
RTVSPropertyOp48
 70
     1
102
RTVSPropertyOp49
 70
     1
102
RTVSPropertyOp50
 70
     1
102
RTVSPropertyOp51
 70
     0
102
RTVSPropertyOp52
 70
     0
102
RTVSPropertyOp53
 70
     1
102
RTVSPropertyOp54
 70
     1
102
RTVSPropertyOp55
 70
     1
102
RTVSPropertyOp56
 70
     1
102
RTVSPropertyOp57
 70
     1
102
RTVSPost2010Prop28
280
     0
102
RTVSPost2010PropOp28
 70
     1
102
RTVSPost2010Prop29
280
     1
102
RTVSPost2010PropOp29
 70
     1
102
RTVSPost2010Prop30
280
     1
102
RTVSPost2010PropOp30
 70
     1
102
RTVSPost2010Prop31
280
     0
102
RTVSPost2010PropOp31
 70
     1
102
RTVSPost2010Prop32
280
     0
102
RTVSPost2010PropOp32
 70
     1
102
RTVSPost2010Prop33
280
     0
102
RTVSPost2010PropOp33
 70
     1
102
RTVSPost2010Prop34
280
     0
102
RTVSPost2010PropOp34
 70
     1
102
RTVSPost2010Prop35
280
     0
102
RTVSPost2010PropOp35
 70
     1
102
RTVSPost2010Prop36
280
     0
102
RTVSPost2010PropOp36
 70
     1
102
RTVSPost2010Prop37
 90
       50
102
RTVSPost2010PropOp37
 70
     1
102
RTVSPost2010Prop38
140
0.0
102
RTVSPost2010PropOp38
 70
     1
102
RTVSPost2010Prop39
140
1.0
102
RTVSPost2010PropOp39
 70
     1
102
RTVSPost2010Prop40
 90
        0
102
RTVSPost2010PropOp40
 70
     1
102
RTVSPost2010Prop41ColorIndex
 90
       18
102
RTVSPost2010Prop41ColorRGB
 90
        0
102
RTVSPost2010PropOp41
 70
     1
102
RTVSPost2010Prop42
 90
       50
102
RTVSPost2010PropOp42
 70
     1
102
RTVSPost2010Prop43
 90
        3
102
RTVSPost2010PropOp43
 70
     1
102
RTVSPost2010Prop44ColorIndex
 90
        5
102
RTVSPost2010Prop44ColorRGB
 90
      255
102
RTVSPost2010PropOp44
 70
     1
102
RTVSPost2010Prop45
280
     0
102
RTVSPost2010PropOp45
 70
     1
102
RTVSPost2010Prop46
 90
       50
102
RTVSPost2010PropOp46
 70
     1
102
RTVSPost2010Prop47
 90
       50
102
RTVSPost2010PropOp47
 70
     1
102
RTVSPost2010Prop48
 90
       50
102
RTVSPost2010PropOp48
 70
     1
102
RTVSPost2010Prop49
280
     0
102
RTVSPost2010PropOp49
 70
     1
102
RTVSPost2010Prop50
 90
       50
102
RTVSPost2010PropOp50
 70
     1
102
RTVSPost2010Prop51ColorIndex
 90
      256
102
RTVSPost2010Prop51ColorRGB
 90
-16777216
102
RTVSPost2010PropOp51
 70
     0
102
RTVSPost2010Prop52
140
1.0
102
RTVSPost2010PropOp52
 70
     0
102
RTVSPost2010Prop53
 90
        2
102
RTVSPost2010PropOp53
 70
     1
102
RTVSPost2010Prop54
  1
strokes_ogs.tif
102
RTVSPost2010PropOp54
 70
     1
102
RTVSPost2010Prop55
280
     0
102
RTVSPost2010PropOp55
 70
     1
102
RTVSPost2010Prop56
140
1.0
102
RTVSPost2010PropOp56
 70
     1
102
RTVSPost2010Prop57
140
1.0
102
RTVSPost2010PropOp57
 70
     1
  0
XRECORD
  5
358
102
{ACAD_REACTORS
330
357
102
}
330
357
100
AcDbXrecord
280
     1
102
RTVSPropertyOp0
 70
     1
102
RTVSPropertyOp1
 70
     1
102
RTVSPropertyOp2
 70
     1
102
RTVSPropertyOp3
 70
     1
102
RTVSPropertyOp4
 70
     1
102
RTVSPropertyOp5
 70
     1
102
RTVSPropertyOp6
 70
     1
102
RTVSPropertyOp7
 70
     1
102
RTVSPropertyOp8
 70
     1
102
RTVSPropertyOp9
 70
     1
102
RTVSPropertyOp10
 70
     1
102
RTVSPropertyOp11
 70
     1
102
RTVSPropertyOp12
 70
     1
102
RTVSPropertyOp13
 70
     1
102
RTVSPropertyOp14
 70
     1
102
RTVSPropertyOp15
 70
     1
102
RTVSPropertyOp16
 70
     1
102
RTVSPropertyOp17
 70
     1
102
RTVSPropertyOp18
 70
     1
102
RTVSPropertyOp19
 70
     1
102
RTVSPropertyOp20
 70
     1
102
RTVSPropertyOp21
 70
     1
102
RTVSPropertyOp22
 70
     1
102
RTVSPropertyOp23
 70
     1
102
RTVSPropertyOp24
 70
     1
102
RTVSPropertyOp25
 70
     1
102
RTVSPropertyOp26
 70
     1
102
RTVSPropertyOp27
 70
     1
102
RTVSPropertyOp28
 70
     1
102
RTVSPropertyOp29
 70
     1
102
RTVSPropertyOp30
 70
     1
102
RTVSPropertyOp31
 70
     1
102
RTVSPropertyOp32
 70
     1
102
RTVSPropertyOp33
 70
     1
102
RTVSPropertyOp34
 70
     1
102
RTVSPropertyOp35
 70
     1
102
RTVSPropertyOp36
 70
     1
102
RTVSPropertyOp37
 70
     1
102
RTVSPropertyOp38
 70
     1
102
RTVSPropertyOp39
 70
     1
102
RTVSPropertyOp40
 70
     1
102
RTVSPropertyOp41
 70
     1
102
RTVSPropertyOp42
 70
     1
102
RTVSPropertyOp43
 70
     1
102
RTVSPropertyOp44
 70
     1
102
RTVSPropertyOp45
 70
     1
102
RTVSPropertyOp46
 70
     1
102
RTVSPropertyOp47
 70
     1
102
RTVSPropertyOp48
 70
     1
102
RTVSPropertyOp49
 70
     1
102
RTVSPropertyOp50
 70
     1
102
RTVSPropertyOp51
 70
     0
102
RTVSPropertyOp52
 70
     0
102
RTVSPropertyOp53
 70
     1
102
RTVSPropertyOp54
 70
     1
102
RTVSPropertyOp55
 70
     1
102
RTVSPropertyOp56
 70
     1
102
RTVSPropertyOp57
 70
     1
102
RTVSPost2010Prop28
280
     0
102
RTVSPost2010PropOp28
 70
     1
102
RTVSPost2010Prop29
280
     1
102
RTVSPost2010PropOp29
 70
     1
102
RTVSPost2010Prop30
280
     1
102
RTVSPost2010PropOp30
 70
     1
102
RTVSPost2010Prop31
280
     0
102
RTVSPost2010PropOp31
 70
     1
102
RTVSPost2010Prop32
280
     0
102
RTVSPost2010PropOp32
 70
     1
102
RTVSPost2010Prop33
280
     0
102
RTVSPost2010PropOp33
 70
     1
102
RTVSPost2010Prop34
280
     0
102
RTVSPost2010PropOp34
 70
     1
102
RTVSPost2010Prop35
280
     0
102
RTVSPost2010PropOp35
 70
     1
102
RTVSPost2010Prop36
280
     0
102
RTVSPost2010PropOp36
 70
     1
102
RTVSPost2010Prop37
 90
       50
102
RTVSPost2010PropOp37
 70
     1
102
RTVSPost2010Prop38
140
0.0
102
RTVSPost2010PropOp38
 70
     1
102
RTVSPost2010Prop39
140
1.0
102
RTVSPost2010PropOp39
 70
     1
102
RTVSPost2010Prop40
 90
        0
102
RTVSPost2010PropOp40
 70
     1
102
RTVSPost2010Prop41ColorIndex
 90
       18
102
RTVSPost2010Prop41ColorRGB
 90
        0
102
RTVSPost2010PropOp41
 70
     1
102
RTVSPost2010Prop42
 90
       50
102
RTVSPost2010PropOp42
 70
     1
102
RTVSPost2010Prop43
 90
        3
102
RTVSPost2010PropOp43
 70
     1
102
RTVSPost2010Prop44ColorIndex
 90
        5
102
RTVSPost2010Prop44ColorRGB
 90
      255
102
RTVSPost2010PropOp44
 70
     1
102
RTVSPost2010Prop45
280
     0
102
RTVSPost2010PropOp45
 70
     1
102
RTVSPost2010Prop46
 90
       50
102
RTVSPost2010PropOp46
 70
     1
102
RTVSPost2010Prop47
 90
       50
102
RTVSPost2010PropOp47
 70
     1
102
RTVSPost2010Prop48
 90
       50
102
RTVSPost2010PropOp48
 70
     1
102
RTVSPost2010Prop49
280
     0
102
RTVSPost2010PropOp49
 70
     1
102
RTVSPost2010Prop50
 90
       50
102
RTVSPost2010PropOp50
 70
     1
102
RTVSPost2010Prop51ColorIndex
 90
      256
102
RTVSPost2010Prop51ColorRGB
 90
-16777216
102
RTVSPost2010PropOp51
 70
     0
102
RTVSPost2010Prop52
140
1.0
102
RTVSPost2010PropOp52
 70
     0
102
RTVSPost2010Prop53
 90
        2
102
RTVSPost2010PropOp53
 70
     1
102
RTVSPost2010Prop54
  1
strokes_ogs.tif
102
RTVSPost2010PropOp54
 70
     1
102
RTVSPost2010Prop55
280
     0
102
RTVSPost2010PropOp55
 70
     1
102
RTVSPost2010Prop56
140
1.0
102
RTVSPost2010PropOp56
 70
     1
102
RTVSPost2010Prop57
140
1.0
102
RTVSPost2010PropOp57
 70
     1
  0
XRECORD
  5
352
102
{ACAD_REACTORS
330
351
102
}
330
351
100
AcDbXrecord
280
     1
102
RTVSPropertyOp0
 70
     1
102
RTVSPropertyOp1
 70
     1
102
RTVSPropertyOp2
 70
     1
102
RTVSPropertyOp3
 70
     1
102
RTVSPropertyOp4
 70
     1
102
RTVSPropertyOp5
 70
     1
102
RTVSPropertyOp6
 70
     1
102
RTVSPropertyOp7
 70
     1
102
RTVSPropertyOp8
 70
     1
102
RTVSPropertyOp9
 70
     1
102
RTVSPropertyOp10
 70
     1
102
RTVSPropertyOp11
 70
     1
102
RTVSPropertyOp12
 70
     1
102
RTVSPropertyOp13
 70
     1
102
RTVSPropertyOp14
 70
     1
102
RTVSPropertyOp15
 70
     1
102
RTVSPropertyOp16
 70
     1
102
RTVSPropertyOp17
 70
     1
102
RTVSPropertyOp18
 70
     1
102
RTVSPropertyOp19
 70
     1
102
RTVSPropertyOp20
 70
     1
102
RTVSPropertyOp21
 70
     1
102
RTVSPropertyOp22
 70
     1
102
RTVSPropertyOp23
 70
     1
102
RTVSPropertyOp24
 70
     1
102
RTVSPropertyOp25
 70
     1
102
RTVSPropertyOp26
 70
     1
102
RTVSPropertyOp27
 70
     1
102
RTVSPropertyOp28
 70
     1
102
RTVSPropertyOp29
 70
     1
102
RTVSPropertyOp30
 70
     1
102
RTVSPropertyOp31
 70
     1
102
RTVSPropertyOp32
 70
     1
102
RTVSPropertyOp33
 70
     1
102
RTVSPropertyOp34
 70
     1
102
RTVSPropertyOp35
 70
     1
102
RTVSPropertyOp36
 70
     1
102
RTVSPropertyOp37
 70
     1
102
RTVSPropertyOp38
 70
     1
102
RTVSPropertyOp39
 70
     1
102
RTVSPropertyOp40
 70
     1
102
RTVSPropertyOp41
 70
     1
102
RTVSPropertyOp42
 70
     1
102
RTVSPropertyOp43
 70
     1
102
RTVSPropertyOp44
 70
     1
102
RTVSPropertyOp45
 70
     1
102
RTVSPropertyOp46
 70
     1
102
RTVSPropertyOp47
 70
     1
102
RTVSPropertyOp48
 70
     1
102
RTVSPropertyOp49
 70
     1
102
RTVSPropertyOp50
 70
     1
102
RTVSPropertyOp51
 70
     0
102
RTVSPropertyOp52
 70
     0
102
RTVSPropertyOp53
 70
     1
102
RTVSPropertyOp54
 70
     1
102
RTVSPropertyOp55
 70
     1
102
RTVSPropertyOp56
 70
     1
102
RTVSPropertyOp57
 70
     1
102
RTVSPost2010Prop28
280
     0
102
RTVSPost2010PropOp28
 70
     1
102
RTVSPost2010Prop29
280
     1
102
RTVSPost2010PropOp29
 70
     1
102
RTVSPost2010Prop30
280
     1
102
RTVSPost2010PropOp30
 70
     1
102
RTVSPost2010Prop31
280
     0
102
RTVSPost2010PropOp31
 70
     1
102
RTVSPost2010Prop32
280
     0
102
RTVSPost2010PropOp32
 70
     1
102
RTVSPost2010Prop33
280
     0
102
RTVSPost2010PropOp33
 70
     1
102
RTVSPost2010Prop34
280
     0
102
RTVSPost2010PropOp34
 70
     1
102
RTVSPost2010Prop35
280
     0
102
RTVSPost2010PropOp35
 70
     1
102
RTVSPost2010Prop36
280
     0
102
RTVSPost2010PropOp36
 70
     1
102
RTVSPost2010Prop37
 90
       50
102
RTVSPost2010PropOp37
 70
     1
102
RTVSPost2010Prop38
140
0.0
102
RTVSPost2010PropOp38
 70
     1
102
RTVSPost2010Prop39
140
1.0
102
RTVSPost2010PropOp39
 70
     1
102
RTVSPost2010Prop40
 90
        0
102
RTVSPost2010PropOp40
 70
     1
102
RTVSPost2010Prop41ColorIndex
 90
       18
102
RTVSPost2010Prop41ColorRGB
 90
        0
102
RTVSPost2010PropOp41
 70
     1
102
RTVSPost2010Prop42
 90
       50
102
RTVSPost2010PropOp42
 70
     1
102
RTVSPost2010Prop43
 90
        3
102
RTVSPost2010PropOp43
 70
     1
102
RTVSPost2010Prop44ColorIndex
 90
        5
102
RTVSPost2010Prop44ColorRGB
 90
      255
102
RTVSPost2010PropOp44
 70
     1
102
RTVSPost2010Prop45
280
     0
102
RTVSPost2010PropOp45
 70
     1
102
RTVSPost2010Prop46
 90
       50
102
RTVSPost2010PropOp46
 70
     1
102
RTVSPost2010Prop47
 90
       50
102
RTVSPost2010PropOp47
 70
     1
102
RTVSPost2010Prop48
 90
       50
102
RTVSPost2010PropOp48
 70
     1
102
RTVSPost2010Prop49
280
     0
102
RTVSPost2010PropOp49
 70
     1
102
RTVSPost2010Prop50
 90
       50
102
RTVSPost2010PropOp50
 70
     1
102
RTVSPost2010Prop51ColorIndex
 90
      256
102
RTVSPost2010Prop51ColorRGB
 90
-16777216
102
RTVSPost2010PropOp51
 70
     0
102
RTVSPost2010Prop52
140
1.0
102
RTVSPost2010PropOp52
 70
     0
102
RTVSPost2010Prop53
 90
        2
102
RTVSPost2010PropOp53
 70
     1
102
RTVSPost2010Prop54
  1
strokes_ogs.tif
102
RTVSPost2010PropOp54
 70
     1
102
RTVSPost2010Prop55
280
     0
102
RTVSPost2010PropOp55
 70
     1
102
RTVSPost2010Prop56
140
1.0
102
RTVSPost2010PropOp56
 70
     1
102
RTVSPost2010Prop57
140
1.0
102
RTVSPost2010PropOp57
 70
     1
  0
XRECORD
  5
354
102
{ACAD_REACTORS
330
353
102
}
330
353
100
AcDbXrecord
280
     1
102
RTVSPropertyOp0
 70
     1
102
RTVSPropertyOp1
 70
     1
102
RTVSPropertyOp2
 70
     1
102
RTVSPropertyOp3
 70
     1
102
RTVSPropertyOp4
 70
     1
102
RTVSPropertyOp5
 70
     1
102
RTVSPropertyOp6
 70
     1
102
RTVSPropertyOp7
 70
     1
102
RTVSPropertyOp8
 70
     1
102
RTVSPropertyOp9
 70
     1
102
RTVSPropertyOp10
 70
     1
102
RTVSPropertyOp11
 70
     1
102
RTVSPropertyOp12
 70
     1
102
RTVSPropertyOp13
 70
     1
102
RTVSPropertyOp14
 70
     1
102
RTVSPropertyOp15
 70
     1
102
RTVSPropertyOp16
 70
     1
102
RTVSPropertyOp17
 70
     1
102
RTVSPropertyOp18
 70
     1
102
RTVSPropertyOp19
 70
     1
102
RTVSPropertyOp20
 70
     1
102
RTVSPropertyOp21
 70
     1
102
RTVSPropertyOp22
 70
     1
102
RTVSPropertyOp23
 70
     1
102
RTVSPropertyOp24
 70
     1
102
RTVSPropertyOp25
 70
     1
102
RTVSPropertyOp26
 70
     1
102
RTVSPropertyOp27
 70
     1
102
RTVSPropertyOp28
 70
     1
102
RTVSPropertyOp29
 70
     1
102
RTVSPropertyOp30
 70
     1
102
RTVSPropertyOp31
 70
     1
102
RTVSPropertyOp32
 70
     1
102
RTVSPropertyOp33
 70
     1
102
RTVSPropertyOp34
 70
     1
102
RTVSPropertyOp35
 70
     1
102
RTVSPropertyOp36
 70
     1
102
RTVSPropertyOp37
 70
     1
102
RTVSPropertyOp38
 70
     1
102
RTVSPropertyOp39
 70
     1
102
RTVSPropertyOp40
 70
     1
102
RTVSPropertyOp41
 70
     1
102
RTVSPropertyOp42
 70
     1
102
RTVSPropertyOp43
 70
     1
102
RTVSPropertyOp44
 70
     1
102
RTVSPropertyOp45
 70
     1
102
RTVSPropertyOp46
 70
     1
102
RTVSPropertyOp47
 70
     1
102
RTVSPropertyOp48
 70
     1
102
RTVSPropertyOp49
 70
     1
102
RTVSPropertyOp50
 70
     1
102
RTVSPropertyOp51
 70
     0
102
RTVSPropertyOp52
 70
     0
102
RTVSPropertyOp53
 70
     1
102
RTVSPropertyOp54
 70
     1
102
RTVSPropertyOp55
 70
     1
102
RTVSPropertyOp56
 70
     1
102
RTVSPropertyOp57
 70
     1
102
RTVSPost2010Prop28
280
     0
102
RTVSPost2010PropOp28
 70
     1
102
RTVSPost2010Prop29
280
     1
102
RTVSPost2010PropOp29
 70
     1
102
RTVSPost2010Prop30
280
     1
102
RTVSPost2010PropOp30
 70
     1
102
RTVSPost2010Prop31
280
     0
102
RTVSPost2010PropOp31
 70
     1
102
RTVSPost2010Prop32
280
     0
102
RTVSPost2010PropOp32
 70
     1
102
RTVSPost2010Prop33
280
     0
102
RTVSPost2010PropOp33
 70
     1
102
RTVSPost2010Prop34
280
     0
102
RTVSPost2010PropOp34
 70
     1
102
RTVSPost2010Prop35
280
     0
102
RTVSPost2010PropOp35
 70
     1
102
RTVSPost2010Prop36
280
     0
102
RTVSPost2010PropOp36
 70
     1
102
RTVSPost2010Prop37
 90
       50
102
RTVSPost2010PropOp37
 70
     1
102
RTVSPost2010Prop38
140
0.0
102
RTVSPost2010PropOp38
 70
     1
102
RTVSPost2010Prop39
140
1.0
102
RTVSPost2010PropOp39
 70
     1
102
RTVSPost2010Prop40
 90
        0
102
RTVSPost2010PropOp40
 70
     1
102
RTVSPost2010Prop41ColorIndex
 90
       18
102
RTVSPost2010Prop41ColorRGB
 90
        0
102
RTVSPost2010PropOp41
 70
     1
102
RTVSPost2010Prop42
 90
       50
102
RTVSPost2010PropOp42
 70
     1
102
RTVSPost2010Prop43
 90
        3
102
RTVSPost2010PropOp43
 70
     1
102
RTVSPost2010Prop44ColorIndex
 90
        5
102
RTVSPost2010Prop44ColorRGB
 90
      255
102
RTVSPost2010PropOp44
 70
     1
102
RTVSPost2010Prop45
280
     0
102
RTVSPost2010PropOp45
 70
     1
102
RTVSPost2010Prop46
 90
       50
102
RTVSPost2010PropOp46
 70
     1
102
RTVSPost2010Prop47
 90
       50
102
RTVSPost2010PropOp47
 70
     1
102
RTVSPost2010Prop48
 90
       50
102
RTVSPost2010PropOp48
 70
     1
102
RTVSPost2010Prop49
280
     0
102
RTVSPost2010PropOp49
 70
     1
102
RTVSPost2010Prop50
 90
       50
102
RTVSPost2010PropOp50
 70
     1
102
RTVSPost2010Prop51ColorIndex
 90
      256
102
RTVSPost2010Prop51ColorRGB
 90
-16777216
102
RTVSPost2010PropOp51
 70
     0
102
RTVSPost2010Prop52
140
1.0
102
RTVSPost2010PropOp52
 70
     0
102
RTVSPost2010Prop53
 90
        2
102
RTVSPost2010PropOp53
 70
     1
102
RTVSPost2010Prop54
  1
strokes_ogs.tif
102
RTVSPost2010PropOp54
 70
     1
102
RTVSPost2010Prop55
280
     0
102
RTVSPost2010PropOp55
 70
     1
102
RTVSPost2010Prop56
140
1.0
102
RTVSPost2010PropOp56
 70
     1
102
RTVSPost2010Prop57
140
1.0
102
RTVSPost2010PropOp57
 70
     1
  0
XRECORD
  5
344
102
{ACAD_REACTORS
330
343
102
}
330
343
100
AcDbXrecord
280
     1
102
RTVSPropertyOp0
 70
     1
102
RTVSPropertyOp1
 70
     1
102
RTVSPropertyOp2
 70
     1
102
RTVSPropertyOp3
 70
     1
102
RTVSPropertyOp4
 70
     1
102
RTVSPropertyOp5
 70
     1
102
RTVSPropertyOp6
 70
     1
102
RTVSPropertyOp7
 70
     1
102
RTVSPropertyOp8
 70
     1
102
RTVSPropertyOp9
 70
     1
102
RTVSPropertyOp10
 70
     1
102
RTVSPropertyOp11
 70
     1
102
RTVSPropertyOp12
 70
     1
102
RTVSPropertyOp13
 70
     1
102
RTVSPropertyOp14
 70
     1
102
RTVSPropertyOp15
 70
     1
102
RTVSPropertyOp16
 70
     1
102
RTVSPropertyOp17
 70
     1
102
RTVSPropertyOp18
 70
     1
102
RTVSPropertyOp19
 70
     1
102
RTVSPropertyOp20
 70
     1
102
RTVSPropertyOp21
 70
     1
102
RTVSPropertyOp22
 70
     1
102
RTVSPropertyOp23
 70
     1
102
RTVSPropertyOp24
 70
     1
102
RTVSPropertyOp25
 70
     1
102
RTVSPropertyOp26
 70
     1
102
RTVSPropertyOp27
 70
     1
102
RTVSPropertyOp28
 70
     1
102
RTVSPropertyOp29
 70
     1
102
RTVSPropertyOp30
 70
     1
102
RTVSPropertyOp31
 70
     1
102
RTVSPropertyOp32
 70
     1
102
RTVSPropertyOp33
 70
     1
102
RTVSPropertyOp34
 70
     1
102
RTVSPropertyOp35
 70
     1
102
RTVSPropertyOp36
 70
     1
102
RTVSPropertyOp37
 70
     1
102
RTVSPropertyOp38
 70
     1
102
RTVSPropertyOp39
 70
     1
102
RTVSPropertyOp40
 70
     1
102
RTVSPropertyOp41
 70
     1
102
RTVSPropertyOp42
 70
     1
102
RTVSPropertyOp43
 70
     1
102
RTVSPropertyOp44
 70
     1
102
RTVSPropertyOp45
 70
     1
102
RTVSPropertyOp46
 70
     1
102
RTVSPropertyOp47
 70
     1
102
RTVSPropertyOp48
 70
     1
102
RTVSPropertyOp49
 70
     1
102
RTVSPropertyOp50
 70
     1
102
RTVSPropertyOp51
 70
     0
102
RTVSPropertyOp52
 70
     0
102
RTVSPropertyOp53
 70
     1
102
RTVSPropertyOp54
 70
     1
102
RTVSPropertyOp55
 70
     1
102
RTVSPropertyOp56
 70
     1
102
RTVSPropertyOp57
 70
     1
102
RTVSPost2010Prop28
280
     0
102
RTVSPost2010PropOp28
 70
     1
102
RTVSPost2010Prop29
280
     1
102
RTVSPost2010PropOp29
 70
     1
102
RTVSPost2010Prop30
280
     1
102
RTVSPost2010PropOp30
 70
     1
102
RTVSPost2010Prop31
280
     0
102
RTVSPost2010PropOp31
 70
     1
102
RTVSPost2010Prop32
280
     0
102
RTVSPost2010PropOp32
 70
     1
102
RTVSPost2010Prop33
280
     0
102
RTVSPost2010PropOp33
 70
     1
102
RTVSPost2010Prop34
280
     0
102
RTVSPost2010PropOp34
 70
     1
102
RTVSPost2010Prop35
280
     0
102
RTVSPost2010PropOp35
 70
     1
102
RTVSPost2010Prop36
280
     0
102
RTVSPost2010PropOp36
 70
     1
102
RTVSPost2010Prop37
 90
       50
102
RTVSPost2010PropOp37
 70
     1
102
RTVSPost2010Prop38
140
0.0
102
RTVSPost2010PropOp38
 70
     1
102
RTVSPost2010Prop39
140
1.0
102
RTVSPost2010PropOp39
 70
     1
102
RTVSPost2010Prop40
 90
        0
102
RTVSPost2010PropOp40
 70
     1
102
RTVSPost2010Prop41ColorIndex
 90
       18
102
RTVSPost2010Prop41ColorRGB
 90
        0
102
RTVSPost2010PropOp41
 70
     1
102
RTVSPost2010Prop42
 90
       50
102
RTVSPost2010PropOp42
 70
     1
102
RTVSPost2010Prop43
 90
        3
102
RTVSPost2010PropOp43
 70
     1
102
RTVSPost2010Prop44ColorIndex
 90
        5
102
RTVSPost2010Prop44ColorRGB
 90
      255
102
RTVSPost2010PropOp44
 70
     1
102
RTVSPost2010Prop45
280
     0
102
RTVSPost2010PropOp45
 70
     1
102
RTVSPost2010Prop46
 90
       50
102
RTVSPost2010PropOp46
 70
     1
102
RTVSPost2010Prop47
 90
       50
102
RTVSPost2010PropOp47
 70
     1
102
RTVSPost2010Prop48
 90
       50
102
RTVSPost2010PropOp48
 70
     1
102
RTVSPost2010Prop49
280
     0
102
RTVSPost2010PropOp49
 70
     1
102
RTVSPost2010Prop50
 90
       50
102
RTVSPost2010PropOp50
 70
     1
102
RTVSPost2010Prop51ColorIndex
 90
      256
102
RTVSPost2010Prop51ColorRGB
 90
-16777216
102
RTVSPost2010PropOp51
 70
     0
102
RTVSPost2010Prop52
140
1.0
102
RTVSPost2010PropOp52
 70
     0
102
RTVSPost2010Prop53
 90
        2
102
RTVSPost2010PropOp53
 70
     1
102
RTVSPost2010Prop54
  1
strokes_ogs.tif
102
RTVSPost2010PropOp54
 70
     1
102
RTVSPost2010Prop55
280
     0
102
RTVSPost2010PropOp55
 70
     1
102
RTVSPost2010Prop56
140
1.0
102
RTVSPost2010PropOp56
 70
     1
102
RTVSPost2010Prop57
140
1.0
102
RTVSPost2010PropOp57
 70
     1
  0
XRECORD
  5
336
102
{ACAD_REACTORS
330
335
102
}
330
335
100
AcDbXrecord
280
     1
102
RTVSPropertyOp0
 70
     1
102
RTVSPropertyOp1
 70
     1
102
RTVSPropertyOp2
 70
     1
102
RTVSPropertyOp3
 70
     1
102
RTVSPropertyOp4
 70
     1
102
RTVSPropertyOp5
 70
     1
102
RTVSPropertyOp6
 70
     1
102
RTVSPropertyOp7
 70
     1
102
RTVSPropertyOp8
 70
     1
102
RTVSPropertyOp9
 70
     1
102
RTVSPropertyOp10
 70
     1
102
RTVSPropertyOp11
 70
     1
102
RTVSPropertyOp12
 70
     1
102
RTVSPropertyOp13
 70
     1
102
RTVSPropertyOp14
 70
     1
102
RTVSPropertyOp15
 70
     1
102
RTVSPropertyOp16
 70
     1
102
RTVSPropertyOp17
 70
     1
102
RTVSPropertyOp18
 70
     1
102
RTVSPropertyOp19
 70
     1
102
RTVSPropertyOp20
 70
     1
102
RTVSPropertyOp21
 70
     1
102
RTVSPropertyOp22
 70
     1
102
RTVSPropertyOp23
 70
     1
102
RTVSPropertyOp24
 70
     1
102
RTVSPropertyOp25
 70
     1
102
RTVSPropertyOp26
 70
     1
102
RTVSPropertyOp27
 70
     1
102
RTVSPropertyOp28
 70
     1
102
RTVSPropertyOp29
 70
     1
102
RTVSPropertyOp30
 70
     1
102
RTVSPropertyOp31
 70
     1
102
RTVSPropertyOp32
 70
     1
102
RTVSPropertyOp33
 70
     1
102
RTVSPropertyOp34
 70
     1
102
RTVSPropertyOp35
 70
     1
102
RTVSPropertyOp36
 70
     1
102
RTVSPropertyOp37
 70
     1
102
RTVSPropertyOp38
 70
     1
102
RTVSPropertyOp39
 70
     1
102
RTVSPropertyOp40
 70
     1
102
RTVSPropertyOp41
 70
     1
102
RTVSPropertyOp42
 70
     1
102
RTVSPropertyOp43
 70
     1
102
RTVSPropertyOp44
 70
     1
102
RTVSPropertyOp45
 70
     1
102
RTVSPropertyOp46
 70
     1
102
RTVSPropertyOp47
 70
     1
102
RTVSPropertyOp48
 70
     1
102
RTVSPropertyOp49
 70
     1
102
RTVSPropertyOp50
 70
     1
102
RTVSPropertyOp51
 70
     0
102
RTVSPropertyOp52
 70
     0
102
RTVSPropertyOp53
 70
     1
102
RTVSPropertyOp54
 70
     1
102
RTVSPropertyOp55
 70
     1
102
RTVSPropertyOp56
 70
     1
102
RTVSPropertyOp57
 70
     1
102
RTVSPost2010Prop28
280
     0
102
RTVSPost2010PropOp28
 70
     1
102
RTVSPost2010Prop29
280
     1
102
RTVSPost2010PropOp29
 70
     1
102
RTVSPost2010Prop30
280
     1
102
RTVSPost2010PropOp30
 70
     1
102
RTVSPost2010Prop31
280
     0
102
RTVSPost2010PropOp31
 70
     1
102
RTVSPost2010Prop32
280
     0
102
RTVSPost2010PropOp32
 70
     1
102
RTVSPost2010Prop33
280
     0
102
RTVSPost2010PropOp33
 70
     1
102
RTVSPost2010Prop34
280
     0
102
RTVSPost2010PropOp34
 70
     1
102
RTVSPost2010Prop35
280
     0
102
RTVSPost2010PropOp35
 70
     1
102
RTVSPost2010Prop36
280
     0
102
RTVSPost2010PropOp36
 70
     1
102
RTVSPost2010Prop37
 90
       50
102
RTVSPost2010PropOp37
 70
     1
102
RTVSPost2010Prop38
140
0.0
102
RTVSPost2010PropOp38
 70
     1
102
RTVSPost2010Prop39
140
1.0
102
RTVSPost2010PropOp39
 70
     1
102
RTVSPost2010Prop40
 90
        0
102
RTVSPost2010PropOp40
 70
     1
102
RTVSPost2010Prop41ColorIndex
 90
       18
102
RTVSPost2010Prop41ColorRGB
 90
        0
102
RTVSPost2010PropOp41
 70
     1
102
RTVSPost2010Prop42
 90
       50
102
RTVSPost2010PropOp42
 70
     1
102
RTVSPost2010Prop43
 90
        3
102
RTVSPost2010PropOp43
 70
     1
102
RTVSPost2010Prop44ColorIndex
 90
        5
102
RTVSPost2010Prop44ColorRGB
 90
      255
102
RTVSPost2010PropOp44
 70
     1
102
RTVSPost2010Prop45
280
     0
102
RTVSPost2010PropOp45
 70
     1
102
RTVSPost2010Prop46
 90
       50
102
RTVSPost2010PropOp46
 70
     1
102
RTVSPost2010Prop47
 90
       50
102
RTVSPost2010PropOp47
 70
     1
102
RTVSPost2010Prop48
 90
       50
102
RTVSPost2010PropOp48
 70
     1
102
RTVSPost2010Prop49
280
     0
102
RTVSPost2010PropOp49
 70
     1
102
RTVSPost2010Prop50
 90
       50
102
RTVSPost2010PropOp50
 70
     1
102
RTVSPost2010Prop51ColorIndex
 90
      256
102
RTVSPost2010Prop51ColorRGB
 90
-16777216
102
RTVSPost2010PropOp51
 70
     0
102
RTVSPost2010Prop52
140
1.0
102
RTVSPost2010PropOp52
 70
     0
102
RTVSPost2010Prop53
 90
        2
102
RTVSPost2010PropOp53
 70
     1
102
RTVSPost2010Prop54
  1
strokes_ogs.tif
102
RTVSPost2010PropOp54
 70
     1
102
RTVSPost2010Prop55
280
     0
102
RTVSPost2010PropOp55
 70
     1
102
RTVSPost2010Prop56
140
1.0
102
RTVSPost2010PropOp56
 70
     1
102
RTVSPost2010Prop57
140
1.0
102
RTVSPost2010PropOp57
 70
     1
  0
XRECORD
  5
356
102
{ACAD_REACTORS
330
355
102
}
330
355
100
AcDbXrecord
280
     1
102
RTVSPropertyOp0
 70
     1
102
RTVSPropertyOp1
 70
     1
102
RTVSPropertyOp2
 70
     1
102
RTVSPropertyOp3
 70
     1
102
RTVSPropertyOp4
 70
     1
102
RTVSPropertyOp5
 70
     1
102
RTVSPropertyOp6
 70
     1
102
RTVSPropertyOp7
 70
     1
102
RTVSPropertyOp8
 70
     1
102
RTVSPropertyOp9
 70
     1
102
RTVSPropertyOp10
 70
     1
102
RTVSPropertyOp11
 70
     1
102
RTVSPropertyOp12
 70
     1
102
RTVSPropertyOp13
 70
     1
102
RTVSPropertyOp14
 70
     1
102
RTVSPropertyOp15
 70
     1
102
RTVSPropertyOp16
 70
     1
102
RTVSPropertyOp17
 70
     1
102
RTVSPropertyOp18
 70
     1
102
RTVSPropertyOp19
 70
     1
102
RTVSPropertyOp20
 70
     1
102
RTVSPropertyOp21
 70
     1
102
RTVSPropertyOp22
 70
     1
102
RTVSPropertyOp23
 70
     1
102
RTVSPropertyOp24
 70
     1
102
RTVSPropertyOp25
 70
     1
102
RTVSPropertyOp26
 70
     1
102
RTVSPropertyOp27
 70
     1
102
RTVSPropertyOp28
 70
     1
102
RTVSPropertyOp29
 70
     1
102
RTVSPropertyOp30
 70
     1
102
RTVSPropertyOp31
 70
     1
102
RTVSPropertyOp32
 70
     1
102
RTVSPropertyOp33
 70
     1
102
RTVSPropertyOp34
 70
     1
102
RTVSPropertyOp35
 70
     1
102
RTVSPropertyOp36
 70
     1
102
RTVSPropertyOp37
 70
     1
102
RTVSPropertyOp38
 70
     1
102
RTVSPropertyOp39
 70
     1
102
RTVSPropertyOp40
 70
     1
102
RTVSPropertyOp41
 70
     1
102
RTVSPropertyOp42
 70
     1
102
RTVSPropertyOp43
 70
     1
102
RTVSPropertyOp44
 70
     1
102
RTVSPropertyOp45
 70
     1
102
RTVSPropertyOp46
 70
     1
102
RTVSPropertyOp47
 70
     1
102
RTVSPropertyOp48
 70
     1
102
RTVSPropertyOp49
 70
     1
102
RTVSPropertyOp50
 70
     1
102
RTVSPropertyOp51
 70
     0
102
RTVSPropertyOp52
 70
     0
102
RTVSPropertyOp53
 70
     1
102
RTVSPropertyOp54
 70
     1
102
RTVSPropertyOp55
 70
     1
102
RTVSPropertyOp56
 70
     1
102
RTVSPropertyOp57
 70
     1
102
RTVSPost2010Prop28
280
     0
102
RTVSPost2010PropOp28
 70
     1
102
RTVSPost2010Prop29
280
     1
102
RTVSPost2010PropOp29
 70
     1
102
RTVSPost2010Prop30
280
     1
102
RTVSPost2010PropOp30
 70
     1
102
RTVSPost2010Prop31
280
     0
102
RTVSPost2010PropOp31
 70
     1
102
RTVSPost2010Prop32
280
     0
102
RTVSPost2010PropOp32
 70
     1
102
RTVSPost2010Prop33
280
     0
102
RTVSPost2010PropOp33
 70
     1
102
RTVSPost2010Prop34
280
     0
102
RTVSPost2010PropOp34
 70
     1
102
RTVSPost2010Prop35
280
     0
102
RTVSPost2010PropOp35
 70
     1
102
RTVSPost2010Prop36
280
     0
102
RTVSPost2010PropOp36
 70
     1
102
RTVSPost2010Prop37
 90
       50
102
RTVSPost2010PropOp37
 70
     1
102
RTVSPost2010Prop38
140
0.0
102
RTVSPost2010PropOp38
 70
     1
102
RTVSPost2010Prop39
140
1.0
102
RTVSPost2010PropOp39
 70
     1
102
RTVSPost2010Prop40
 90
        0
102
RTVSPost2010PropOp40
 70
     1
102
RTVSPost2010Prop41ColorIndex
 90
       18
102
RTVSPost2010Prop41ColorRGB
 90
        0
102
RTVSPost2010PropOp41
 70
     1
102
RTVSPost2010Prop42
 90
       50
102
RTVSPost2010PropOp42
 70
     1
102
RTVSPost2010Prop43
 90
        3
102
RTVSPost2010PropOp43
 70
     1
102
RTVSPost2010Prop44ColorIndex
 90
        5
102
RTVSPost2010Prop44ColorRGB
 90
      255
102
RTVSPost2010PropOp44
 70
     1
102
RTVSPost2010Prop45
280
     0
102
RTVSPost2010PropOp45
 70
     1
102
RTVSPost2010Prop46
 90
       50
102
RTVSPost2010PropOp46
 70
     1
102
RTVSPost2010Prop47
 90
       50
102
RTVSPost2010PropOp47
 70
     1
102
RTVSPost2010Prop48
 90
       50
102
RTVSPost2010PropOp48
 70
     1
102
RTVSPost2010Prop49
280
     0
102
RTVSPost2010PropOp49
 70
     1
102
RTVSPost2010Prop50
 90
       50
102
RTVSPost2010PropOp50
 70
     1
102
RTVSPost2010Prop51ColorIndex
 90
      256
102
RTVSPost2010Prop51ColorRGB
 90
-16777216
102
RTVSPost2010PropOp51
 70
     0
102
RTVSPost2010Prop52
140
1.0
102
RTVSPost2010PropOp52
 70
     0
102
RTVSPost2010Prop53
 90
        2
102
RTVSPost2010PropOp53
 70
     1
102
RTVSPost2010Prop54
  1
strokes_ogs.tif
102
RTVSPost2010PropOp54
 70
     1
102
RTVSPost2010Prop55
280
     0
102
RTVSPost2010PropOp55
 70
     1
102
RTVSPost2010Prop56
140
1.0
102
RTVSPost2010PropOp56
 70
     1
102
RTVSPost2010Prop57
140
1.0
102
RTVSPost2010PropOp57
 70
     1
  0
ENDSEC
  0
EOF
