  0
SECTION
  2
HEADER
  9
$ACADVER
  1
AC1018
  9
$ACADMAINTVER
 70
     0
  9
$DWGCODEPAGE
  3
ANSI_932
  9
$INSBASE
 10
0.0
 20
0.0
 30
0.0
  9
$EXTMIN
 10
-2100.0
 20
-1485.0
 30
0.0
  9
$EXTMAX
 10
2100.0
 20
1485.0
 30
0.0
  9
$LIMMIN
 10
-2100.0
 20
-1485.0
  9
$LIMMAX
 10
2100.0
 20
1485.0
  9
$ORTHOMODE
 70
     0
  9
$REGENMODE
 70
     1
  9
$FILLMODE
 70
     1
  9
$QTEXTMODE
 70
     0
  9
$MIRRTEXT
 70
     1
  9
$LTSCALE
 40
10.0
  9
$ATTMODE
 70
     1
  9
$TEXTSIZE
 40
2.5
  9
$TRACEWID
 40
1.0
  9
$TEXTSTYLE
  7
Standard
  9
$CLAYER
  8
0
  9
$CELTYPE
  6
ByLayer
  9
$CECOLOR
 62
   256
  9
$CELTSCALE
 40
1.0
  9
$DISPSILH
 70
     0
  9
$DIMSCALE
 40
1.0
  9
$DIMASZ
 40
2.5
  9
$DIMEXO
 40
0.625
  9
$DIMDLI
 40
3.75
  9
$DIMRND
 40
0.0
  9
$DIMDLE
 40
0.0
  9
$DIMEXE
 40
1.25
  9
$DIMTP
 40
0.0
  9
$DIMTM
 40
0.0
  9
$DIMTXT
 40
2.5
  9
$DIMCEN
 40
2.5
  9
$DIMTSZ
 40
0.0
  9
$DIMTOL
 70
     0
  9
$DIMLIM
 70
     0
  9
$DIMTIH
 70
     0
  9
$DIMTOH
 70
     0
  9
$DIMSE1
 70
     0
  9
$DIMSE2
 70
     0
  9
$DIMTAD
 70
     1
  9
$DIMZIN
 70
     8
  9
$DIMBLK
  1

  9
$DIMASO
 70
     1
  9
$DIMSHO
 70
     1
  9
$DIMPOST
  1

  9
$DIMAPOST
  1

  9
$DIMALT
 70
     0
  9
$DIMALTD
 70
     3
  9
$DIMALTF
 40
0.03937007874016
  9
$DIMLFAC
 40
1.0
  9
$DIMTOFL
 70
     1
  9
$DIMTVP
 40
0.0
  9
$DIMTIX
 70
     0
  9
$DIMSOXD
 70
     0
  9
$DIMSAH
 70
     0
  9
$DIMBLK1
  1

  9
$DIMBLK2
  1

  9
$DIMSTYLE
  2
ISO-25
  9
$DIMCLRD
 70
     0
  9
$DIMCLRE
 70
     0
  9
$DIMCLRT
 70
     0
  9
$DIMTFAC
 40
1.0
  9
$DIMGAP
 40
0.625
  9
$DIMJUST
 70
     0
  9
$DIMSD1
 70
     0
  9
$DIMSD2
 70
     0
  9
$DIMTOLJ
 70
     0
  9
$DIMTZIN
 70
     8
  9
$DIMALTZ
 70
     0
  9
$DIMALTTZ
 70
     0
  9
$DIMUPT
 70
     0
  9
$DIMDEC
 70
     2
  9
$DIMTDEC
 70
     2
  9
$DIMALTU
 70
     2
  9
$DIMALTTD
 70
     3
  9
$DIMTXSTY
  7
Standard
  9
$DIMAUNIT
 70
     0
  9
$DIMADEC
 70
     0
  9
$DIMALTRND
 40
0.0
  9
$DIMAZIN
 70
     0
  9
$DIMDSEP
 70
    44
  9
$DIMATFIT
 70
     3
  9
$DIMFRAC
 70
     0
  9
$DIMLDRBLK
  1

  9
$DIMLUNIT
 70
     2
  9
$DIMLWD
 70
    -2
  9
$DIMLWE
 70
    -2
  9
$DIMTMOVE
 70
     0
  9
$LUNITS
 70
     2
  9
$LUPREC
 70
     4
  9
$SKETCHINC
 40
1.0
  9
$FILLETRAD
 40
10.0
  9
$AUNITS
 70
     0
  9
$AUPREC
 70
     0
  9
$MENU
  1
.
  9
$ELEVATION
 40
0.0
  9
$PELEVATION
 40
0.0
  9
$THICKNESS
 40
0.0
  9
$LIMCHECK
 70
     0
  9
$CHAMFERA
 40
0.0
  9
$CHAMFERB
 40
0.0
  9
$CHAMFERC
 40
0.0
  9
$CHAMFERD
 40
0.0
  9
$SKPOLY
 70
     0
  9
$TDCREATE
 40
2460418.432061481
  9
$TDUCREATE
 40
2460418.057061481
  9
$TDUPDATE
 40
2460418.432061632
  9
$TDUUPDATE
 40
2460418.057061632
  9
$TDINDWG
 40
0.0000000116
  9
$TDUSRTIMER
 40
0.0000000116
  9
$USRTIMER
 70
     1
  9
$ANGBASE
 50
0.0
  9
$ANGDIR
 70
     0
  9
$PDMODE
 70
     0
  9
$PDSIZE
 40
0.0
  9
$PLINEWID
 40
0.0
  9
$SPLFRAME
 70
     0
  9
$SPLINETYPE
 70
     6
  9
$SPLINESEGS
 70
     8
  9
$HANDSEED
  5
43C
  9
$SURFTAB1
 70
     6
  9
$SURFTAB2
 70
     6
  9
$SURFTYPE
 70
     6
  9
$SURFU
 70
     6
  9
$SURFV
 70
     6
  9
$UCSBASE
  2

  9
$UCSNAME
  2

  9
$UCSORG
 10
0.0
 20
0.0
 30
0.0
  9
$UCSXDIR
 10
1.0
 20
0.0
 30
0.0
  9
$UCSYDIR
 10
0.0
 20
1.0
 30
0.0
  9
$UCSORTHOREF
  2

  9
$UCSORTHOVIEW
 70
     0
  9
$UCSORGTOP
 10
0.0
 20
0.0
 30
0.0
  9
$UCSORGBOTTOM
 10
0.0
 20
0.0
 30
0.0
  9
$UCSORGLEFT
 10
0.0
 20
0.0
 30
0.0
  9
$UCSORGRIGHT
 10
0.0
 20
0.0
 30
0.0
  9
$UCSORGFRONT
 10
0.0
 20
0.0
 30
0.0
  9
$UCSORGBACK
 10
0.0
 20
0.0
 30
0.0
  9
$PUCSBASE
  2

  9
$PUCSNAME
  2

  9
$PUCSORG
 10
0.0
 20
0.0
 30
0.0
  9
$PUCSXDIR
 10
1.0
 20
0.0
 30
0.0
  9
$PUCSYDIR
 10
0.0
 20
1.0
 30
0.0
  9
$PUCSORTHOREF
  2

  9
$PUCSORTHOVIEW
 70
     0
  9
$PUCSORGTOP
 10
0.0
 20
0.0
 30
0.0
  9
$PUCSORGBOTTOM
 10
0.0
 20
0.0
 30
0.0
  9
$PUCSORGLEFT
 10
0.0
 20
0.0
 30
0.0
  9
$PUCSORGRIGHT
 10
0.0
 20
0.0
 30
0.0
  9
$PUCSORGFRONT
 10
0.0
 20
0.0
 30
0.0
  9
$PUCSORGBACK
 10
0.0
 20
0.0
 30
0.0
  9
$USERI1
 70
     0
  9
$USERI2
 70
     0
  9
$USERI3
 70
     0
  9
$USERI4
 70
     0
  9
$USERI5
 70
     0
  9
$USERR1
 40
0.0
  9
$USERR2
 40
0.0
  9
$USERR3
 40
0.0
  9
$USERR4
 40
0.0
  9
$USERR5
 40
0.0
  9
$WORLDVIEW
 70
     1
  9
$SHADEDGE
 70
     3
  9
$SHADEDIF
 70
    70
  9
$TILEMODE
 70
     1
  9
$MAXACTVP
 70
    64
  9
$PINSBASE
 10
0.0
 20
0.0
 30
0.0
  9
$PLIMCHECK
 70
     0
  9
$PEXTMIN
 10
1.000000000000000E+20
 20
1.000000000000000E+20
 30
1.000000000000000E+20
  9
$PEXTMAX
 10
-1.000000000000000E+20
 20
-1.000000000000000E+20
 30
-1.000000000000000E+20
  9
$PLIMMIN
 10
0.0
 20
0.0
  9
$PLIMMAX
 10
420.0
 20
297.0
  9
$UNITMODE
 70
     0
  9
$VISRETAIN
 70
     1
  9
$PLINEGEN
 70
     0
  9
$PSLTSCALE
 70
     1
  9
$TREEDEPTH
 70
  3020
  9
$CMLSTYLE
  2
Standard
  9
$CMLJUST
 70
     0
  9
$CMLSCALE
 40
20.0
  9
$PROXYGRAPHICS
 70
     1
  9
$MEASUREMENT
 70
     1
  9
$CELWEIGHT
370
    -1
  9
$ENDCAPS
280
     0
  9
$JOINSTYLE
280
     0
  9
$LWDISPLAY
290
     0
  9
$INSUNITS
 70
     4
  9
$HYPERLINKBASE
  1

  9
$STYLESHEET
  1

  9
$XEDIT
290
     1
  9
$CEPSNTYPE
380
     0
  9
$PSTYLEMODE
290
     1
  9
$FINGERPRINTGUID
  2
{67A635B2-AB67-48EA-A43B-D717DADA59B8}
  9
$VERSIONGUID
  2
{FAEB1C32-E019-11D5-929B-00C0DF256EC4}
  9
$EXTNAMES
290
     1
  9
$PSVPSCALE
 40
0.0
  9
$OLESTARTUP
290
     0
  9
$SORTENTS
280
   127
  9
$INDEXCTL
280
     0
  9
$HIDETEXT
280
     1
  9
$XCLIPFRAME
290
     0
  9
$HALOGAP
280
     0
  9
$OBSCOLOR
 70
   257
  9
$OBSLTYPE
280
     0
  9
$INTERSECTIONDISPLAY
280
     0
  9
$INTERSECTIONCOLOR
 70
   257
  9
$DIMASSOC
280
     2
  9
$PROJECTNAME
  1

  0
ENDSEC
  0
SECTION
  2
CLASSES
  0
CLASS
  1
ACDBDICTIONARYWDFLT
  2
AcDbDictionaryWithDefault
  3
ObjectDBX Classes
 90
        0
 91
        4
280
     0
281
     0
  0
CLASS
  1
VISUALSTYLE
  2
AcDbVisualStyle
  3
ObjectDBX Classes
 90
     4095
 91
        4
280
     0
281
     0
  0
CLASS
  1
MATERIAL
  2
AcDbMaterial
  3
ObjectDBX Classes
 90
     1153
 91
        4
280
     0
281
     0
  0
CLASS
  1
SCALE
  2
AcDbScale
  3
ObjectDBX Classes
 90
     1153
 91
        4
280
     0
281
     0
  0
CLASS
  1
TABLESTYLE
  2
AcDbTableStyle
  3
ObjectDBX Classes
 90
     4095
 91
        4
280
     0
281
     0
  0
CLASS
  1
MLEADERSTYLE
  2
AcDbMLeaderStyle
  3
ACDB_MLEADERSTYLE_CLASS
 90
     4095
 91
        4
280
     0
281
     0
  0
CLASS
  1
SUN
  2
AcDbSun
  3
SCENEOE
 90
     1153
 91
        4
280
     0
281
     0
  0
CLASS
  1
DICTIONARYVAR
  2
AcDbDictionaryVar
  3
ObjectDBX Classes
 90
        0
 91
        4
280
     0
281
     0
  0
CLASS
  1
CELLSTYLEMAP
  2
AcDbCellStyleMap
  3
ObjectDBX Classes
 90
     1152
 91
        4
280
     0
281
     0
  0
ENDSEC
  0
SECTION
  2
TABLES
  0
TABLE
  2
VPORT
  5
8
102
{ACAD_XDICTIONARY
360
3F3
102
}
330
0
100
AcDbSymbolTable
 70
     1
  0
VPORT
  5
29
330
8
100
AcDbSymbolTableRecord
100
AcDbViewportTableRecord
  2
*Active
 70
     0
 10
0.0
 20
0.0
 11
1.0
 21
1.0
 12
0.0
 22
0.0
 13
0.0
 23
0.0
 14
10.0
 24
10.0
 15
10.0
 25
10.0
 16
0.0
 26
0.0
 36
1.0
 17
0.0
 27
0.0
 37
0.0
 40
3267.0
 41
1.414141414141414
 42
50.0
 43
0.0
 44
0.0
 50
0.0
 51
0.0
 71
     0
 72
 10000
 73
     1
 74
     3
 75
     0
 76
     0
 77
     0
 78
     0
281
     0
 65
     1
110
0.0
120
0.0
130
0.0
111
1.0
121
0.0
131
0.0
112
0.0
122
1.0
132
0.0
 79
     0
146
0.0
  0
ENDTAB
  0
TABLE
  2
LTYPE
  5
5
330
0
100
AcDbSymbolTable
 70
     3
  0
LTYPE
  5
14
330
5
100
AcDbSymbolTableRecord
100
AcDbLinetypeTableRecord
  2
ByBlock
 70
     0
  3

 72
    65
 73
     0
 40
0.0
  0
LTYPE
  5
15
330
5
100
AcDbSymbolTableRecord
100
AcDbLinetypeTableRecord
  2
ByLayer
 70
     0
  3

 72
    65
 73
     0
 40
0.0
  0
LTYPE
  5
16
330
5
100
AcDbSymbolTableRecord
100
AcDbLinetypeTableRecord
  2
Continuous
 70
     0
  3
Solid line
 72
    65
 73
     0
 40
0.0
  0
LTYPE
  5
6F
330
5
100
AcDbSymbolTableRecord
100
AcDbLinetypeTableRecord
  2
JWW_DASHED3
 70
     0
  3
---  ------  ------  ------  ---
 72
    65
 73
     2
 40
3.386666666666667
 49
2.54
 74
     0
 49
-0.8466666666666667
 74
     0
  0
LTYPE
  5
70
330
5
100
AcDbSymbolTableRecord
100
AcDbLinetypeTableRecord
  2
JWW_PHANTOM1
 70
     0
  3
----  -  -  --------  -  -  ----
 72
    65
 73
     6
 40
6.773333333333333
 49
3.386666666666667
 74
     0
 49
-0.8466666666666667
 74
     0
 49
0.4233333333333333
 74
     0
 49
-0.8466666666666667
 74
     0
 49
0.4233333333333333
 74
     0
 49
-0.8466666666666667
 74
     0
  0
ENDTAB
  0
TABLE
  2
LAYER
  5
2
330
0
100
AcDbSymbolTable
 70
    12
  0
LAYER
  5
10
330
2
100
AcDbSymbolTableRecord
100
AcDbLayerTableRecord
  2
0
 70
     0
 62
     7
  6
Continuous
370
    -3
390
F
  0
LAYER
  5
71
330
2
100
AcDbSymbolTableRecord
100
AcDbLayerTableRecord
  2
F-5
 70
     0
 62
     7
  6
Continuous
370
    -3
390
F
  0
LAYER
  5
72
330
2
100
AcDbSymbolTableRecord
100
AcDbLayerTableRecord
  2
C-2
 70
     0
 62
     7
  6
Continuous
370
    -3
390
F
  0
LAYER
  5
73
330
2
100
AcDbSymbolTableRecord
100
AcDbLayerTableRecord
  2
C-1
 70
     0
 62
     7
  6
Continuous
370
    -3
390
F
  0
LAYER
  5
74
330
2
100
AcDbSymbolTableRecord
100
AcDbLayerTableRecord
  2
C-4
 70
     0
 62
     7
  6
Continuous
370
    -3
390
F
  0
LAYER
  5
75
330
2
100
AcDbSymbolTableRecord
100
AcDbLayerTableRecord
  2
C-5
 70
     0
 62
     7
  6
Continuous
370
    -3
390
F
  0
LAYER
  5
76
330
2
100
AcDbSymbolTableRecord
100
AcDbLayerTableRecord
  2
C-9
 70
     0
 62
     7
  6
Continuous
370
    -3
390
F
  0
LAYER
  5
77
330
2
100
AcDbSymbolTableRecord
100
AcDbLayerTableRecord
  2
A-6
 70
     0
 62
     7
  6
Continuous
370
    -3
390
F
  0
LAYER
  5
78
330
2
100
AcDbSymbolTableRecord
100
AcDbLayerTableRecord
  2
A-2
 70
     0
 62
     7
  6
Continuous
370
    -3
390
F
  0
LAYER
  5
79
330
2
100
AcDbSymbolTableRecord
100
AcDbLayerTableRecord
  2
A-0
 70
     0
 62
     7
  6
Continuous
370
    -3
390
F
  0
LAYER
  5
7A
330
2
100
AcDbSymbolTableRecord
100
AcDbLayerTableRecord
  2
A-5
 70
     0
 62
     7
  6
Continuous
370
    -3
390
F
  0
LAYER
  5
7B
330
2
100
AcDbSymbolTableRecord
100
AcDbLayerTableRecord
  2
A-4
 70
     0
 62
     7
  6
Continuous
370
    -3
390
F
  0
ENDTAB
  0
TABLE
  2
STYLE
  5
3
330
0
100
AcDbSymbolTable
 70
     2
  0
STYLE
  5
11
330
3
100
AcDbSymbolTableRecord
100
AcDbTextStyleTableRecord
  2
Standard
 70
     0
 40
0.0
 41
1.0
 50
0.0
 71
     0
 42
2.5
  3
txt
  4

  0
STYLE
  5
6E
330
3
100
AcDbSymbolTableRecord
100
AcDbTextStyleTableRecord
  2
ＭＳ ゴシック
 70
     0
 40
1.0
 41
1.0
 50
0.0
 71
     0
 42
2.5
  3

  4

1001
ACAD
1000
MS Gothic
1071
    32817
  0
ENDTAB
  0
TABLE
  2
VIEW
  5
6
330
0
100
AcDbSymbolTable
 70
     0
  0
ENDTAB
  0
TABLE
  2
UCS
  5
7
330
0
100
AcDbSymbolTable
 70
     0
  0
ENDTAB
  0
TABLE
  2
APPID
  5
9
330
0
100
AcDbSymbolTable
 70
     2
  0
APPID
  5
12
330
9
100
AcDbSymbolTableRecord
100
AcDbRegAppTableRecord
  2
ACAD
 70
     0
  0
APPID
  5
432
330
9
100
AcDbSymbolTableRecord
100
AcDbRegAppTableRecord
  2
ACAD_MLEADERVER
 70
     0
  0
ENDTAB
  0
TABLE
  2
DIMSTYLE
  5
A
330
0
100
AcDbSymbolTable
 70
     1
100
AcDbDimStyleTable
  0
DIMSTYLE
105
27
330
A
100
AcDbSymbolTableRecord
100
AcDbDimStyleTableRecord
  2
ISO-25
 70
     0
 41
2.5
 42
0.625
 43
3.75
 44
1.25
 73
     0
 74
     0
 77
     1
 78
     8
140
2.5
141
2.5
143
0.03937007874016
147
0.625
171
     3
172
     1
178
     0
271
     2
272
     2
274
     3
278
    44
283
     0
284
     8
340
11
  0
ENDTAB
  0
TABLE
  2
BLOCK_RECORD
  5
1
330
0
100
AcDbSymbolTable
 70
     1
  0
BLOCK_RECORD
  5
1F
330
1
100
AcDbSymbolTableRecord
100
AcDbBlockTableRecord
  2
*Model_Space
340
22
  0
BLOCK_RECORD
  5
1B
330
1
100
AcDbSymbolTableRecord
100
AcDbBlockTableRecord
  2
*Paper_Space
340
1E
  0
BLOCK_RECORD
  5
23
330
1
100
AcDbSymbolTableRecord
100
AcDbBlockTableRecord
  2
*Paper_Space0
340
26
  0
ENDTAB
  0
ENDSEC
  0
SECTION
  2
BLOCKS
  0
BLOCK
  5
20
330
1F
100
AcDbEntity
  8
0
100
AcDbBlockBegin
  2
*Model_Space
 70
     0
 10
0.0
 20
0.0
 30
0.0
  3
*Model_Space
  1

  0
ENDBLK
  5
21
330
1F
100
AcDbEntity
  8
0
100
AcDbBlockEnd
  0
BLOCK
  5
1C
330
1B
100
AcDbEntity
 67
     1
  8
0
100
AcDbBlockBegin
  2
*Paper_Space
 70
     0
 10
0.0
 20
0.0
 30
0.0
  3
*Paper_Space
  1

  0
ENDBLK
  5
1D
330
1B
100
AcDbEntity
 67
     1
  8
0
100
AcDbBlockEnd
  0
BLOCK
  5
24
330
23
100
AcDbEntity
  8
0
100
AcDbBlockBegin
  2
*Paper_Space0
 70
     0
 10
0.0
 20
0.0
 30
0.0
  3
*Paper_Space0
  1

  0
ENDBLK
  5
25
330
23
100
AcDbEntity
  8
0
100
AcDbBlockEnd
  0
ENDSEC
  0
SECTION
  2
ENTITIES
  0
TEXT
  5
7C
330
1F
100
AcDbEntity
  8
F-5
  6
Continuous
 62
     2
370
     9
100
AcDbText
 10
-849.5525494276795
 20
-1322.868498092265
 30
0.0
 40
30.48
  1
滑り止め模様付　歩道Ｕ字溝用　ステンレス製グレーチング
 41
0.899074074074074
  7
ＭＳ ゴシック
100
AcDbText
  0
LINE
  5
7D
330
1F
100
AcDbEntity
  8
C-2
  6
Continuous
 62
     3
370
     9
100
AcDbLine
 10
-1517.33973244529
 20
947.1246470152867
 30
0.0
 11
-1517.33973244529
 21
813.1251200377477
 31
0.0
  0
LINE
  5
7E
330
1F
100
AcDbEntity
  8
C-2
  6
Continuous
 62
     3
370
     9
100
AcDbLine
 10
-1502.33990029197
 20
947.1246470152867
 30
0.0
 11
-1502.33990029197
 21
813.1251200377477
 31
0.0
  0
LINE
  5
7F
330
1F
100
AcDbEntity
  8
C-2
  6
Continuous
 62
     3
370
     9
100
AcDbLine
 10
-1506.339823998025
 20
947.1246470152867
 30
0.0
 11
-1506.339823998025
 21
813.1251200377477
 31
0.0
  0
LINE
  5
80
330
1F
100
AcDbEntity
  8
C-2
  6
Continuous
 62
     3
370
     9
100
AcDbLine
 10
-1517.33973244529
 20
881.6246775328648
 30
0.0
 11
-1506.339823998025
 21
881.6246775328648
 31
0.0
  0
LINE
  5
81
330
1F
100
AcDbEntity
  8
C-2
  6
Continuous
 62
     3
370
     9
100
AcDbLine
 10
-1517.33973244529
 20
878.6251047789585
 30
0.0
 11
-1506.339823998025
 21
878.6251047789585
 31
0.0
  0
LINE
  5
82
330
1F
100
AcDbEntity
  8
C-2
  6
Continuous
 62
     3
370
     9
100
AcDbLine
 10
-1487.3395798574
 20
947.1246470152867
 30
0.0
 11
-1487.3395798574
 21
813.1251200377477
 31
0.0
  0
LINE
  5
83
330
1F
100
AcDbEntity
  8
C-2
  6
Continuous
 62
     3
370
     9
100
AcDbLine
 10
-1491.339503563454
 20
947.1246470152867
 30
0.0
 11
-1491.339503563454
 21
813.1251200377477
 31
0.0
  0
LINE
  5
84
330
1F
100
AcDbEntity
  8
C-2
  6
Continuous
 62
     3
370
     9
100
AcDbLine
 10
-1502.33990029197
 20
881.6246775328648
 30
0.0
 11
-1491.339503563454
 21
881.6246775328648
 31
0.0
  0
LINE
  5
85
330
1F
100
AcDbEntity
  8
C-2
  6
Continuous
 62
     3
370
     9
100
AcDbLine
 10
-1502.33990029197
 20
878.6251047789585
 30
0.0
 11
-1491.339503563454
 21
878.6251047789585
 31
0.0
  0
LINE
  5
86
330
1F
100
AcDbEntity
  8
C-2
  6
Continuous
 62
     3
370
     9
100
AcDbLine
 10
-1472.339762962868
 20
947.1246470152867
 30
0.0
 11
-1472.339762962868
 21
813.1251200377477
 31
0.0
  0
LINE
  5
87
330
1F
100
AcDbEntity
  8
C-2
  6
Continuous
 62
     3
370
     9
100
AcDbLine
 10
-1476.339686668923
 20
947.1246470152867
 30
0.0
 11
-1476.339686668923
 21
813.1251200377477
 31
0.0
  0
LINE
  5
88
330
1F
100
AcDbEntity
  8
C-2
  6
Continuous
 62
     3
370
     9
100
AcDbLine
 10
-1487.3395798574
 20
881.6246775328648
 30
0.0
 11
-1476.339686668923
 21
881.6246775328648
 31
0.0
  0
LINE
  5
89
330
1F
100
AcDbEntity
  8
C-2
  6
Continuous
 62
     3
370
     9
100
AcDbLine
 10
-1487.3395798574
 20
878.6251047789585
 30
0.0
 11
-1476.339686668923
 21
878.6251047789585
 31
0.0
  0
LINE
  5
8A
330
1F
100
AcDbEntity
  8
C-2
  6
Continuous
 62
     3
370
     9
100
AcDbLine
 10
-1457.339442528298
 20
947.1246470152867
 30
0.0
 11
-1457.339442528298
 21
813.1251200377477
 31
0.0
  0
LINE
  5
8B
330
1F
100
AcDbEntity
  8
C-2
  6
Continuous
 62
     3
370
     9
100
AcDbLine
 10
-1461.339854515603
 20
947.1246470152867
 30
0.0
 11
-1461.339854515603
 21
813.1251200377477
 31
0.0
  0
LINE
  5
8C
330
1F
100
AcDbEntity
  8
C-2
  6
Continuous
 62
     3
370
     9
100
AcDbLine
 10
-1472.339762962868
 20
881.6246775328648
 30
0.0
 11
-1461.339854515603
 21
881.6246775328648
 31
0.0
  0
LINE
  5
8D
330
1F
100
AcDbEntity
  8
C-2
  6
Continuous
 62
     3
370
     9
100
AcDbLine
 10
-1472.339762962868
 20
878.6251047789585
 30
0.0
 11
-1461.339854515603
 21
878.6251047789585
 31
0.0
  0
LINE
  5
8E
330
1F
100
AcDbEntity
  8
C-2
  6
Continuous
 62
     3
370
     9
100
AcDbLine
 10
-1442.339625633767
 20
947.1246470152867
 30
0.0
 11
-1442.339625633767
 21
813.1251200377477
 31
0.0
  0
LINE
  5
8F
330
1F
100
AcDbEntity
  8
C-2
  6
Continuous
 62
     3
370
     9
100
AcDbLine
 10
-1446.339549339822
 20
947.1246470152867
 30
0.0
 11
-1446.339549339822
 21
813.1251200377477
 31
0.0
  0
LINE
  5
90
330
1F
100
AcDbEntity
  8
C-2
  6
Continuous
 62
     3
370
     9
100
AcDbLine
 10
-1457.339442528298
 20
881.6246775328648
 30
0.0
 11
-1446.339549339822
 21
881.6246775328648
 31
0.0
  0
LINE
  5
91
330
1F
100
AcDbEntity
  8
C-2
  6
Continuous
 62
     3
370
     9
100
AcDbLine
 10
-1457.339442528298
 20
878.6251047789585
 30
0.0
 11
-1446.339549339822
 21
878.6251047789585
 31
0.0
  0
LINE
  5
92
330
1F
100
AcDbEntity
  8
C-2
  6
Continuous
 62
     3
370
     9
100
AcDbLine
 10
-1427.339801109841
 20
947.1246470152867
 30
0.0
 11
-1427.339801109841
 21
813.1251200377477
 31
0.0
  0
LINE
  5
93
330
1F
100
AcDbEntity
  8
C-2
  6
Continuous
 62
     3
370
     9
100
AcDbLine
 10
-1431.339724815896
 20
947.1246470152867
 30
0.0
 11
-1431.339724815896
 21
813.1251200377477
 31
0.0
  0
LINE
  5
94
330
1F
100
AcDbEntity
  8
C-2
  6
Continuous
 62
     3
370
     9
100
AcDbLine
 10
-1442.339625633767
 20
881.6246775328648
 30
0.0
 11
-1431.339724815896
 21
881.6246775328648
 31
0.0
  0
LINE
  5
95
330
1F
100
AcDbEntity
  8
C-2
  6
Continuous
 62
     3
370
     9
100
AcDbLine
 10
-1442.339625633767
 20
878.6251047789585
 30
0.0
 11
-1431.339724815896
 21
878.6251047789585
 31
0.0
  0
LINE
  5
96
330
1F
100
AcDbEntity
  8
C-2
  6
Continuous
 62
     3
370
     9
100
AcDbLine
 10
-1412.339488304665
 20
947.1246470152867
 30
0.0
 11
-1412.339488304665
 21
813.1251200377477
 31
0.0
  0
LINE
  5
97
330
1F
100
AcDbEntity
  8
C-2
  6
Continuous
 62
     3
370
     9
100
AcDbLine
 10
-1416.33990029197
 20
947.1246470152867
 30
0.0
 11
-1416.33990029197
 21
813.1251200377477
 31
0.0
  0
LINE
  5
98
330
1F
100
AcDbEntity
  8
C-2
  6
Continuous
 62
     3
370
     9
100
AcDbLine
 10
-1427.339801109841
 20
881.6246775328648
 30
0.0
 11
-1416.33990029197
 21
881.6246775328648
 31
0.0
  0
LINE
  5
99
330
1F
100
AcDbEntity
  8
C-2
  6
Continuous
 62
     3
370
     9
100
AcDbLine
 10
-1427.339801109841
 20
878.6251047789585
 30
0.0
 11
-1416.33990029197
 21
878.6251047789585
 31
0.0
  0
LINE
  5
9A
330
1F
100
AcDbEntity
  8
C-2
  6
Continuous
 62
     3
370
     9
100
AcDbLine
 10
-1397.33966378074
 20
947.1246470152867
 30
0.0
 11
-1397.33966378074
 21
813.1251200377477
 31
0.0
  0
LINE
  5
9B
330
1F
100
AcDbEntity
  8
C-2
  6
Continuous
 62
     3
370
     9
100
AcDbLine
 10
-1401.3395798574
 20
947.1246470152867
 30
0.0
 11
-1401.3395798574
 21
813.1251200377477
 31
0.0
  0
LINE
  5
9C
330
1F
100
AcDbEntity
  8
C-2
  6
Continuous
 62
     3
370
     9
100
AcDbLine
 10
-1412.339488304665
 20
881.6246775328648
 30
0.0
 11
-1401.3395798574
 21
881.6246775328648
 31
0.0
  0
LINE
  5
9D
330
1F
100
AcDbEntity
  8
C-2
  6
Continuous
 62
     3
370
     9
100
AcDbLine
 10
-1412.339488304665
 20
878.6251047789585
 30
0.0
 11
-1401.3395798574
 21
878.6251047789585
 31
0.0
  0
LINE
  5
9E
330
1F
100
AcDbEntity
  8
C-2
  6
Continuous
 62
     3
370
     9
100
AcDbLine
 10
-1382.339343346169
 20
947.1246470152867
 30
0.0
 11
-1382.339343346169
 21
813.1251200377477
 31
0.0
  0
LINE
  5
9F
330
1F
100
AcDbEntity
  8
C-2
  6
Continuous
 62
     3
370
     9
100
AcDbLine
 10
-1386.339762962868
 20
947.1246470152867
 30
0.0
 11
-1386.339762962868
 21
813.1251200377477
 31
0.0
  0
LINE
  5
A0
330
1F
100
AcDbEntity
  8
C-2
  6
Continuous
 62
     3
370
     9
100
AcDbLine
 10
-1397.33966378074
 20
881.6246775328648
 30
0.0
 11
-1386.339762962868
 21
881.6246775328648
 31
0.0
  0
LINE
  5
A1
330
1F
100
AcDbEntity
  8
C-2
  6
Continuous
 62
     3
370
     9
100
AcDbLine
 10
-1397.33966378074
 20
878.6251047789585
 30
0.0
 11
-1386.339762962868
 21
878.6251047789585
 31
0.0
  0
LINE
  5
A2
330
1F
100
AcDbEntity
  8
C-2
  6
Continuous
 62
     3
370
     9
100
AcDbLine
 10
-1367.339522636941
 20
947.1246470152867
 30
0.0
 11
-1367.339522636941
 21
813.1251200377477
 31
0.0
  0
LINE
  5
A3
330
1F
100
AcDbEntity
  8
C-2
  6
Continuous
 62
     3
370
     9
100
AcDbLine
 10
-1371.339938438943
 20
947.1246470152867
 30
0.0
 11
-1371.339938438943
 21
813.1251200377477
 31
0.0
  0
LINE
  5
A4
330
1F
100
AcDbEntity
  8
C-2
  6
Continuous
 62
     3
370
     9
100
AcDbLine
 10
-1382.339343346169
 20
881.6246775328648
 30
0.0
 11
-1371.339938438943
 21
881.6246775328648
 31
0.0
  0
LINE
  5
A5
330
1F
100
AcDbEntity
  8
C-2
  6
Continuous
 62
     3
370
     9
100
AcDbLine
 10
-1382.339343346169
 20
878.6251047789585
 30
0.0
 11
-1371.339938438943
 21
878.6251047789585
 31
0.0
  0
LINE
  5
A6
330
1F
100
AcDbEntity
  8
C-2
  6
Continuous
 62
     3
370
     9
100
AcDbLine
 10
-1352.339701927712
 20
947.1246470152867
 30
0.0
 11
-1352.339701927712
 21
813.1251200377477
 31
0.0
  0
LINE
  5
A7
330
1F
100
AcDbEntity
  8
C-2
  6
Continuous
 62
     3
370
     9
100
AcDbLine
 10
-1356.33962181907
 20
947.1246470152867
 30
0.0
 11
-1356.33962181907
 21
813.1251200377477
 31
0.0
  0
LINE
  5
A8
330
1F
100
AcDbEntity
  8
C-2
  6
Continuous
 62
     3
370
     9
100
AcDbLine
 10
-1367.339522636941
 20
881.6246775328648
 30
0.0
 11
-1356.33962181907
 21
881.6246775328648
 31
0.0
  0
LINE
  5
A9
330
1F
100
AcDbEntity
  8
C-2
  6
Continuous
 62
     3
370
     9
100
AcDbLine
 10
-1367.339522636941
 20
878.6251047789585
 30
0.0
 11
-1356.33962181907
 21
878.6251047789585
 31
0.0
  0
LINE
  5
AA
330
1F
100
AcDbEntity
  8
C-2
  6
Continuous
 62
     3
370
     9
100
AcDbLine
 10
-1337.339879311135
 20
947.1246470152867
 30
0.0
 11
-1337.339879311135
 21
813.1251200377477
 31
0.0
  0
LINE
  5
AB
330
1F
100
AcDbEntity
  8
C-2
  6
Continuous
 62
     3
370
     9
100
AcDbLine
 10
-1341.339799202492
 20
947.1246470152867
 30
0.0
 11
-1341.339799202492
 21
813.1251200377477
 31
0.0
  0
LINE
  5
AC
330
1F
100
AcDbEntity
  8
C-2
  6
Continuous
 62
     3
370
     9
100
AcDbLine
 10
-1352.339701927712
 20
881.6246775328648
 30
0.0
 11
-1341.339799202492
 21
881.6246775328648
 31
0.0
  0
LINE
  5
AD
330
1F
100
AcDbEntity
  8
C-2
  6
Continuous
 62
     3
370
     9
100
AcDbLine
 10
-1352.339701927712
 20
878.6251047789585
 30
0.0
 11
-1341.339799202492
 21
878.6251047789585
 31
0.0
  0
LINE
  5
AE
330
1F
100
AcDbEntity
  8
C-2
  6
Continuous
 62
     3
370
     9
100
AcDbLine
 10
-1322.339560783913
 20
947.1246470152867
 30
0.0
 11
-1322.339560783913
 21
813.1251200377477
 31
0.0
  0
LINE
  5
AF
330
1F
100
AcDbEntity
  8
C-2
  6
Continuous
 62
     3
370
     9
100
AcDbLine
 10
-1326.339480675271
 20
947.1246470152867
 30
0.0
 11
-1326.339480675271
 21
813.1251200377477
 31
0.0
  0
LINE
  5
B0
330
1F
100
AcDbEntity
  8
C-2
  6
Continuous
 62
     3
370
     9
100
AcDbLine
 10
-1337.339879311135
 20
881.6246775328648
 30
0.0
 11
-1326.339480675271
 21
881.6246775328648
 31
0.0
  0
LINE
  5
B1
330
1F
100
AcDbEntity
  8
C-2
  6
Continuous
 62
     3
370
     9
100
AcDbLine
 10
-1337.339879311135
 20
878.6251047789585
 30
0.0
 11
-1326.339480675271
 21
878.6251047789585
 31
0.0
  0
LINE
  5
B2
330
1F
100
AcDbEntity
  8
C-2
  6
Continuous
 62
     3
370
     9
100
AcDbLine
 10
-1307.339739121011
 20
947.1246470152867
 30
0.0
 11
-1307.339739121011
 21
813.1251200377477
 31
0.0
  0
LINE
  5
B3
330
1F
100
AcDbEntity
  8
C-2
  6
Continuous
 62
     3
370
     9
100
AcDbLine
 10
-1311.339658535531
 20
947.1246470152867
 30
0.0
 11
-1311.339658535531
 21
813.1251200377477
 31
0.0
  0
LINE
  5
B4
330
1F
100
AcDbEntity
  8
C-2
  6
Continuous
 62
     3
370
     9
100
AcDbLine
 10
-1322.339560783913
 20
881.6246775328648
 30
0.0
 11
-1311.339658535531
 21
881.6246775328648
 31
0.0
  0
LINE
  5
B5
330
1F
100
AcDbEntity
  8
C-2
  6
Continuous
 62
     3
370
     9
100
AcDbLine
 10
-1322.339560783913
 20
878.6251047789585
 30
0.0
 11
-1311.339658535531
 21
878.6251047789585
 31
0.0
  0
LINE
  5
B6
330
1F
100
AcDbEntity
  8
C-2
  6
Continuous
 62
     3
370
     9
100
AcDbLine
 10
-1292.339421547463
 20
947.1246470152867
 30
0.0
 11
-1292.339421547463
 21
813.1251200377477
 31
0.0
  0
LINE
  5
B7
330
1F
100
AcDbEntity
  8
C-2
  6
Continuous
 62
     3
370
     9
100
AcDbLine
 10
-1296.339835442117
 20
947.1246470152867
 30
0.0
 11
-1296.339835442117
 21
813.1251200377477
 31
0.0
  0
LINE
  5
B8
330
1F
100
AcDbEntity
  8
C-2
  6
Continuous
 62
     3
370
     9
100
AcDbLine
 10
-1307.339243687203
 20
881.6246775328648
 30
0.0
 11
-1296.339835442117
 21
881.6246775328648
 31
0.0
  0
LINE
  5
B9
330
1F
100
AcDbEntity
  8
C-2
  6
Continuous
 62
     3
370
     9
100
AcDbLine
 10
-1307.339243687203
 20
878.6251047789585
 30
0.0
 11
-1296.339835442117
 21
878.6251047789585
 31
0.0
  0
LINE
  5
BA
330
1F
100
AcDbEntity
  8
C-2
  6
Continuous
 62
     3
370
     9
100
AcDbLine
 10
-1277.339598930886
 20
947.1246470152867
 30
0.0
 11
-1277.339598930886
 21
813.1251200377477
 31
0.0
  0
LINE
  5
BB
330
1F
100
AcDbEntity
  8
C-2
  6
Continuous
 62
     3
370
     9
100
AcDbLine
 10
-1281.339518822243
 20
947.1246470152867
 30
0.0
 11
-1281.339518822243
 21
813.1251200377477
 31
0.0
  0
LINE
  5
BC
330
1F
100
AcDbEntity
  8
C-2
  6
Continuous
 62
     3
370
     9
100
AcDbLine
 10
-1292.339421547463
 20
881.6246775328648
 30
0.0
 11
-1281.339518822243
 21
881.6246775328648
 31
0.0
  0
LINE
  5
BD
330
1F
100
AcDbEntity
  8
C-2
  6
Continuous
 62
     3
370
     9
100
AcDbLine
 10
-1292.339421547463
 20
878.6251047789585
 30
0.0
 11
-1281.339518822243
 21
878.6251047789585
 31
0.0
  0
LINE
  5
BE
330
1F
100
AcDbEntity
  8
C-2
  6
Continuous
 62
     3
370
     9
100
AcDbLine
 10
-1262.339778221658
 20
947.1246470152867
 30
0.0
 11
-1262.339778221658
 21
813.1251200377477
 31
0.0
  0
LINE
  5
BF
330
1F
100
AcDbEntity
  8
C-2
  6
Continuous
 62
     3
370
     9
100
AcDbLine
 10
-1266.339698113015
 20
947.1246470152867
 30
0.0
 11
-1266.339698113015
 21
813.1251200377477
 31
0.0
  0
LINE
  5
C0
330
1F
100
AcDbEntity
  8
C-2
  6
Continuous
 62
     3
370
     9
100
AcDbLine
 10
-1277.339598930886
 20
881.6246775328648
 30
0.0
 11
-1266.339698113015
 21
881.6246775328648
 31
0.0
  0
LINE
  5
C1
330
1F
100
AcDbEntity
  8
C-2
  6
Continuous
 62
     3
370
     9
100
AcDbLine
 10
-1277.339598930886
 20
878.6251047789585
 30
0.0
 11
-1266.339698113015
 21
878.6251047789585
 31
0.0
  0
LINE
  5
C2
330
1F
100
AcDbEntity
  8
C-2
  6
Continuous
 62
     3
370
     9
100
AcDbLine
 10
-1247.339457787087
 20
947.1246470152867
 30
0.0
 11
-1247.339457787087
 21
813.1251200377477
 31
0.0
  0
LINE
  5
C3
330
1F
100
AcDbEntity
  8
C-2
  6
Continuous
 62
     3
370
     9
100
AcDbLine
 10
-1251.339377678445
 20
947.1246470152867
 30
0.0
 11
-1251.339377678445
 21
813.1251200377477
 31
0.0
  0
LINE
  5
C4
330
1F
100
AcDbEntity
  8
C-2
  6
Continuous
 62
     3
370
     9
100
AcDbLine
 10
-1262.339778221658
 20
881.6246775328648
 30
0.0
 11
-1251.339377678445
 21
881.6246775328648
 31
0.0
  0
LINE
  5
C5
330
1F
100
AcDbEntity
  8
C-2
  6
Continuous
 62
     3
370
     9
100
AcDbLine
 10
-1262.339778221658
 20
878.6251047789585
 30
0.0
 11
-1251.339377678445
 21
878.6251047789585
 31
0.0
  0
LINE
  5
C6
330
1F
100
AcDbEntity
  8
C-2
  6
Continuous
 62
     3
370
     9
100
AcDbLine
 10
-1232.339640892556
 20
947.1246470152867
 30
0.0
 11
-1232.339640892556
 21
813.1251200377477
 31
0.0
  0
LINE
  5
C7
330
1F
100
AcDbEntity
  8
C-2
  6
Continuous
 62
     3
370
     9
100
AcDbLine
 10
-1236.339556969216
 20
947.1246470152867
 30
0.0
 11
-1236.339556969216
 21
813.1251200377477
 31
0.0
  0
LINE
  5
C8
330
1F
100
AcDbEntity
  8
C-2
  6
Continuous
 62
     3
370
     9
100
AcDbLine
 10
-1247.339457787087
 20
881.6246775328648
 30
0.0
 11
-1236.339556969216
 21
881.6246775328648
 31
0.0
  0
LINE
  5
C9
330
1F
100
AcDbEntity
  8
C-2
  6
Continuous
 62
     3
370
     9
100
AcDbLine
 10
-1247.339457787087
 20
878.6251047789585
 30
0.0
 11
-1236.339556969216
 21
878.6251047789585
 31
0.0
  0
LINE
  5
CA
330
1F
100
AcDbEntity
  8
C-2
  6
Continuous
 62
     3
370
     9
100
AcDbLine
 10
-1217.339320457986
 20
947.1246470152867
 30
0.0
 11
-1217.339320457986
 21
813.1251200377477
 31
0.0
  0
LINE
  5
CB
330
1F
100
AcDbEntity
  8
C-2
  6
Continuous
 62
     3
370
     9
100
AcDbLine
 10
-1221.33973244529
 20
947.1246470152867
 30
0.0
 11
-1221.33973244529
 21
813.1251200377477
 31
0.0
  0
LINE
  5
CC
330
1F
100
AcDbEntity
  8
C-2
  6
Continuous
 62
     3
370
     9
100
AcDbLine
 10
-1232.339640892556
 20
881.6246775328648
 30
0.0
 11
-1221.33973244529
 21
881.6246775328648
 31
0.0
  0
LINE
  5
CD
330
1F
100
AcDbEntity
  8
C-2
  6
Continuous
 62
     3
370
     9
100
AcDbLine
 10
-1232.339640892556
 20
878.6251047789585
 30
0.0
 11
-1221.33973244529
 21
878.6251047789585
 31
0.0
  0
LINE
  5
CE
330
1F
100
AcDbEntity
  8
C-2
  6
Continuous
 62
     3
370
     9
100
AcDbLine
 10
-1202.33949593406
 20
947.1246470152867
 30
0.0
 11
-1202.33949593406
 21
813.1251200377477
 31
0.0
  0
LINE
  5
CF
330
1F
100
AcDbEntity
  8
C-2
  6
Continuous
 62
     3
370
     9
100
AcDbLine
 10
-1206.339419640115
 20
947.1246470152867
 30
0.0
 11
-1206.339419640115
 21
813.1251200377477
 31
0.0
  0
LINE
  5
D0
330
1F
100
AcDbEntity
  8
C-2
  6
Continuous
 62
     3
370
     9
100
AcDbLine
 10
-1217.339320457986
 20
881.6246775328648
 30
0.0
 11
-1206.339419640115
 21
881.6246775328648
 31
0.0
  0
LINE
  5
D1
330
1F
100
AcDbEntity
  8
C-2
  6
Continuous
 62
     3
370
     9
100
AcDbLine
 10
-1217.339320457986
 20
878.6251047789585
 30
0.0
 11
-1206.339419640115
 21
878.6251047789585
 31
0.0
  0
LINE
  5
D2
330
1F
100
AcDbEntity
  8
C-2
  6
Continuous
 62
     3
370
     9
100
AcDbLine
 10
-1202.33949593406
 20
881.6246775328648
 30
0.0
 11
-1191.339595116189
 21
881.6246775328648
 31
0.0
  0
LINE
  5
D3
330
1F
100
AcDbEntity
  8
C-2
  6
Continuous
 62
     3
370
     9
100
AcDbLine
 10
-1202.33949593406
 20
878.6251047789585
 30
0.0
 11
-1191.339595116189
 21
878.6251047789585
 31
0.0
  0
LINE
  5
D4
330
1F
100
AcDbEntity
  8
C-2
  6
Continuous
 62
     3
370
     9
100
AcDbLine
 10
-527.3395645986107
 20
947.1246470152867
 30
0.0
 11
-527.3395645986107
 21
813.1251200377477
 31
0.0
  0
LINE
  5
D5
330
1F
100
AcDbEntity
  8
C-1
  6
Continuous
 62
     2
370
     9
100
AcDbLine
 10
-1521.339640892556
 20
813.1251200377477
 30
0.0
 11
-527.3395645986107
 21
813.1251200377477
 31
0.0
  0
LINE
  5
D6
330
1F
100
AcDbEntity
  8
C-2
  6
Continuous
 62
     3
370
     9
100
AcDbLine
 10
-1521.339640892556
 20
947.1246470152867
 30
0.0
 11
-1521.339640892556
 21
813.1251200377477
 31
0.0
  0
LINE
  5
D7
330
1F
100
AcDbEntity
  8
C-1
  6
Continuous
 62
     2
370
     9
100
AcDbLine
 10
-527.3395645986107
 20
977.1243113219273
 30
0.0
 11
-1521.339640892556
 21
977.1243113219273
 31
0.0
  0
LINE
  5
D8
330
1F
100
AcDbEntity
  8
C-1
  6
Continuous
 62
     2
370
     9
100
AcDbLine
 10
-1521.339640892556
 20
783.1244791686071
 30
0.0
 11
-527.3395645986107
 21
783.1244791686071
 31
0.0
  0
LINE
  5
D9
330
1F
100
AcDbEntity
  8
C-1
  6
Continuous
 62
     2
370
     9
100
AcDbLine
 10
-1521.339640892556
 20
947.1246470152867
 30
0.0
 11
-1521.339640892556
 21
977.1243113219273
 31
0.0
  0
LINE
  5
DA
330
1F
100
AcDbEntity
  8
C-1
  6
Continuous
 62
     2
370
     9
100
AcDbLine
 10
-1521.339640892556
 20
783.1244791686071
 30
0.0
 11
-1521.339640892556
 21
813.1251200377477
 31
0.0
  0
LINE
  5
DB
330
1F
100
AcDbEntity
  8
C-1
  6
Continuous
 62
     2
370
     9
100
AcDbLine
 10
-527.3395645986107
 20
977.1243113219273
 30
0.0
 11
-527.3395645986107
 21
947.1246470152867
 31
0.0
  0
LINE
  5
DC
330
1F
100
AcDbEntity
  8
C-1
  6
Continuous
 62
     2
370
     9
100
AcDbLine
 10
-527.3395645986107
 20
813.1251200377477
 30
0.0
 11
-527.3395645986107
 21
783.1244791686071
 31
0.0
  0
LINE
  5
DD
330
1F
100
AcDbEntity
  8
C-1
  6
JWW_DASHED3
 62
     2
370
     9
100
AcDbLine
 10
-1521.339640892556
 20
810.1245554625524
 30
0.0
 11
-527.3395645986107
 21
810.1245554625524
 31
0.0
  0
LINE
  5
DE
330
1F
100
AcDbEntity
  8
C-2
  6
Continuous
 62
     3
370
     9
100
AcDbLine
 10
-1187.339679039529
 20
947.1246470152867
 30
0.0
 11
-1187.339679039529
 21
813.1251200377477
 31
0.0
  0
LINE
  5
DF
330
1F
100
AcDbEntity
  8
C-2
  6
Continuous
 62
     3
370
     9
100
AcDbLine
 10
-1191.339595116189
 20
947.1246470152867
 30
0.0
 11
-1191.339595116189
 21
813.1251200377477
 31
0.0
  0
LINE
  5
E0
330
1F
100
AcDbEntity
  8
C-2
  6
Continuous
 62
     3
370
     9
100
AcDbLine
 10
-1187.339679039529
 20
881.6246775328648
 30
0.0
 11
-1176.339778221658
 21
881.6246775328648
 31
0.0
  0
LINE
  5
E1
330
1F
100
AcDbEntity
  8
C-2
  6
Continuous
 62
     3
370
     9
100
AcDbLine
 10
-1187.339679039529
 20
878.6251047789585
 30
0.0
 11
-1176.339778221658
 21
878.6251047789585
 31
0.0
  0
LINE
  5
E2
330
1F
100
AcDbEntity
  8
C-2
  6
Continuous
 62
     3
370
     9
100
AcDbLine
 10
-1172.339350975564
 20
947.1246470152867
 30
0.0
 11
-1172.339350975564
 21
813.1251200377477
 31
0.0
  0
LINE
  5
E3
330
1F
100
AcDbEntity
  8
C-2
  6
Continuous
 62
     3
370
     9
100
AcDbLine
 10
-1176.339778221658
 20
947.1246470152867
 30
0.0
 11
-1176.339778221658
 21
813.1251200377477
 31
0.0
  0
LINE
  5
E4
330
1F
100
AcDbEntity
  8
C-2
  6
Continuous
 62
     3
370
     9
100
AcDbLine
 10
-1172.339350975564
 20
881.6246775328648
 30
0.0
 11
-1161.339457787087
 21
881.6246775328648
 31
0.0
  0
LINE
  5
E5
330
1F
100
AcDbEntity
  8
C-2
  6
Continuous
 62
     3
370
     9
100
AcDbLine
 10
-1172.339350975564
 20
878.6251047789585
 30
0.0
 11
-1161.339457787087
 21
878.6251047789585
 31
0.0
  0
LINE
  5
E6
330
1F
100
AcDbEntity
  8
C-2
  6
Continuous
 62
     3
370
     9
100
AcDbLine
 10
-1157.339534081033
 20
947.1246470152867
 30
0.0
 11
-1157.339534081033
 21
813.1251200377477
 31
0.0
  0
LINE
  5
E7
330
1F
100
AcDbEntity
  8
C-2
  6
Continuous
 62
     3
370
     9
100
AcDbLine
 10
-1161.339457787087
 20
947.1246470152867
 30
0.0
 11
-1161.339457787087
 21
813.1251200377477
 31
0.0
  0
LINE
  5
E8
330
1F
100
AcDbEntity
  8
C-2
  6
Continuous
 62
     3
370
     9
100
AcDbLine
 10
-1157.339534081033
 20
881.6246775328648
 30
0.0
 11
-1146.339625633767
 21
881.6246775328648
 31
0.0
  0
LINE
  5
E9
330
1F
100
AcDbEntity
  8
C-2
  6
Continuous
 62
     3
370
     9
100
AcDbLine
 10
-1157.339534081033
 20
878.6251047789585
 30
0.0
 11
-1146.339625633767
 21
878.6251047789585
 31
0.0
  0
LINE
  5
EA
330
1F
100
AcDbEntity
  8
C-2
  6
Continuous
 62
     3
370
     9
100
AcDbLine
 10
-1142.339213646462
 20
947.1246470152867
 30
0.0
 11
-1142.339213646462
 21
813.1251200377477
 31
0.0
  0
LINE
  5
EB
330
1F
100
AcDbEntity
  8
C-2
  6
Continuous
 62
     3
370
     9
100
AcDbLine
 10
-1146.339625633767
 20
947.1246470152867
 30
0.0
 11
-1146.339625633767
 21
813.1251200377477
 31
0.0
  0
LINE
  5
EC
330
1F
100
AcDbEntity
  8
C-2
  6
Continuous
 62
     3
370
     9
100
AcDbLine
 10
-1142.339213646462
 20
881.6246775328648
 30
0.0
 11
-1131.339320457986
 21
881.6246775328648
 31
0.0
  0
LINE
  5
ED
330
1F
100
AcDbEntity
  8
C-2
  6
Continuous
 62
     3
370
     9
100
AcDbLine
 10
-1142.339213646462
 20
878.6251047789585
 30
0.0
 11
-1131.339320457986
 21
878.6251047789585
 31
0.0
  0
LINE
  5
EE
330
1F
100
AcDbEntity
  8
C-2
  6
Continuous
 62
     3
370
     9
100
AcDbLine
 10
-1127.339396751931
 20
947.1246470152867
 30
0.0
 11
-1127.339396751931
 21
813.1251200377477
 31
0.0
  0
LINE
  5
EF
330
1F
100
AcDbEntity
  8
C-2
  6
Continuous
 62
     3
370
     9
100
AcDbLine
 10
-1131.339808739236
 20
947.1246470152867
 30
0.0
 11
-1131.339808739236
 21
813.1251200377477
 31
0.0
  0
LINE
  5
F0
330
1F
100
AcDbEntity
  8
C-2
  6
Continuous
 62
     3
370
     9
100
AcDbLine
 10
-1127.339396751931
 20
881.6246775328648
 30
0.0
 11
-1116.339488304665
 21
881.6246775328648
 31
0.0
  0
LINE
  5
F1
330
1F
100
AcDbEntity
  8
C-2
  6
Continuous
 62
     3
370
     9
100
AcDbLine
 10
-1127.339396751931
 20
878.6251047789585
 30
0.0
 11
-1116.339488304665
 21
878.6251047789585
 31
0.0
  0
LINE
  5
F2
330
1F
100
AcDbEntity
  8
C-2
  6
Continuous
 62
     3
370
     9
100
AcDbLine
 10
-1112.3395798574
 20
947.1246470152867
 30
0.0
 11
-1112.3395798574
 21
813.1251200377477
 31
0.0
  0
LINE
  5
F3
330
1F
100
AcDbEntity
  8
C-2
  6
Continuous
 62
     3
370
     9
100
AcDbLine
 10
-1116.339488304665
 20
947.1246470152867
 30
0.0
 11
-1116.339488304665
 21
813.1251200377477
 31
0.0
  0
LINE
  5
F4
330
1F
100
AcDbEntity
  8
C-2
  6
Continuous
 62
     3
370
     9
100
AcDbLine
 10
-1112.3395798574
 20
881.6246775328648
 30
0.0
 11
-1101.339671410134
 21
881.6246775328648
 31
0.0
  0
LINE
  5
F5
330
1F
100
AcDbEntity
  8
C-2
  6
Continuous
 62
     3
370
     9
100
AcDbLine
 10
-1112.3395798574
 20
878.6251047789585
 30
0.0
 11
-1101.339671410134
 21
878.6251047789585
 31
0.0
  0
LINE
  5
F6
330
1F
100
AcDbEntity
  8
C-2
  6
Continuous
 62
     3
370
     9
100
AcDbLine
 10
-1097.339747704079
 20
947.1246470152867
 30
0.0
 11
-1097.339747704079
 21
813.1251200377477
 31
0.0
  0
LINE
  5
F7
330
1F
100
AcDbEntity
  8
C-2
  6
Continuous
 62
     3
370
     9
100
AcDbLine
 10
-1101.339671410134
 20
947.1246470152867
 30
0.0
 11
-1101.339671410134
 21
813.1251200377477
 31
0.0
  0
LINE
  5
F8
330
1F
100
AcDbEntity
  8
C-2
  6
Continuous
 62
     3
370
     9
100
AcDbLine
 10
-1097.339747704079
 20
881.6246775328648
 30
0.0
 11
-1086.339350975564
 21
881.6246775328648
 31
0.0
  0
LINE
  5
F9
330
1F
100
AcDbEntity
  8
C-2
  6
Continuous
 62
     3
370
     9
100
AcDbLine
 10
-1097.339747704079
 20
878.6251047789585
 30
0.0
 11
-1086.339350975564
 21
878.6251047789585
 31
0.0
  0
LINE
  5
FA
330
1F
100
AcDbEntity
  8
C-2
  6
Continuous
 62
     3
370
     9
100
AcDbLine
 10
-1082.339427269509
 20
947.1246470152867
 30
0.0
 11
-1082.339427269509
 21
813.1251200377477
 31
0.0
  0
LINE
  5
FB
330
1F
100
AcDbEntity
  8
C-2
  6
Continuous
 62
     3
370
     9
100
AcDbLine
 10
-1086.339350975564
 20
947.1246470152867
 30
0.0
 11
-1086.339350975564
 21
813.1251200377477
 31
0.0
  0
LINE
  5
FC
330
1F
100
AcDbEntity
  8
C-2
  6
Continuous
 62
     3
370
     9
100
AcDbLine
 10
-1082.339427269509
 20
881.6246775328648
 30
0.0
 11
-1071.339534081033
 21
881.6246775328648
 31
0.0
  0
LINE
  5
FD
330
1F
100
AcDbEntity
  8
C-2
  6
Continuous
 62
     3
370
     9
100
AcDbLine
 10
-1082.339427269509
 20
878.6251047789585
 30
0.0
 11
-1071.339534081033
 21
878.6251047789585
 31
0.0
  0
LINE
  5
FE
330
1F
100
AcDbEntity
  8
C-2
  6
Continuous
 62
     3
370
     9
100
AcDbLine
 10
-1067.339610374978
 20
947.1246470152867
 30
0.0
 11
-1067.339610374978
 21
813.1251200377477
 31
0.0
  0
LINE
  5
FF
330
1F
100
AcDbEntity
  8
C-2
  6
Continuous
 62
     3
370
     9
100
AcDbLine
 10
-1071.339534081033
 20
947.1246470152867
 30
0.0
 11
-1071.339534081033
 21
813.1251200377477
 31
0.0
  0
LINE
  5
100
330
1F
100
AcDbEntity
  8
C-2
  6
Continuous
 62
     3
370
     9
100
AcDbLine
 10
-1067.339610374978
 20
881.6246775328648
 30
0.0
 11
-1056.339717186501
 21
881.6246775328648
 31
0.0
  0
LINE
  5
101
330
1F
100
AcDbEntity
  8
C-2
  6
Continuous
 62
     3
370
     9
100
AcDbLine
 10
-1067.339610374978
 20
878.6251047789585
 30
0.0
 11
-1056.339717186501
 21
878.6251047789585
 31
0.0
  0
LINE
  5
102
330
1F
100
AcDbEntity
  8
C-2
  6
Continuous
 62
     3
370
     9
100
AcDbLine
 10
-1052.339289940408
 20
947.1246470152867
 30
0.0
 11
-1052.339289940408
 21
813.1251200377477
 31
0.0
  0
LINE
  5
103
330
1F
100
AcDbEntity
  8
C-2
  6
Continuous
 62
     3
370
     9
100
AcDbLine
 10
-1056.339717186501
 20
947.1246470152867
 30
0.0
 11
-1056.339717186501
 21
813.1251200377477
 31
0.0
  0
LINE
  5
104
330
1F
100
AcDbEntity
  8
C-2
  6
Continuous
 62
     3
370
     9
100
AcDbLine
 10
-1052.339289940408
 20
881.6246775328648
 30
0.0
 11
-1041.33990029197
 21
881.6246775328648
 31
0.0
  0
LINE
  5
105
330
1F
100
AcDbEntity
  8
C-2
  6
Continuous
 62
     3
370
     9
100
AcDbLine
 10
-1052.339289940408
 20
878.6251047789585
 30
0.0
 11
-1041.33990029197
 21
878.6251047789585
 31
0.0
  0
LINE
  5
106
330
1F
100
AcDbEntity
  8
C-2
  6
Continuous
 62
     3
370
     9
100
AcDbLine
 10
-1037.339473045876
 20
947.1246470152867
 30
0.0
 11
-1037.339473045876
 21
813.1251200377477
 31
0.0
  0
LINE
  5
107
330
1F
100
AcDbEntity
  8
C-2
  6
Continuous
 62
     3
370
     9
100
AcDbLine
 10
-1041.33990029197
 20
947.1246470152867
 30
0.0
 11
-1041.33990029197
 21
813.1251200377477
 31
0.0
  0
LINE
  5
108
330
1F
100
AcDbEntity
  8
C-2
  6
Continuous
 62
     3
370
     9
100
AcDbLine
 10
-1037.339473045876
 20
881.6246775328648
 30
0.0
 11
-1026.339564598611
 21
881.6246775328648
 31
0.0
  0
LINE
  5
109
330
1F
100
AcDbEntity
  8
C-2
  6
Continuous
 62
     3
370
     9
100
AcDbLine
 10
-1037.339473045876
 20
878.6251047789585
 30
0.0
 11
-1026.339564598611
 21
878.6251047789585
 31
0.0
  0
LINE
  5
10A
330
1F
100
AcDbEntity
  8
C-2
  6
Continuous
 62
     3
370
     9
100
AcDbLine
 10
-1022.339167870095
 20
947.1246470152867
 30
0.0
 11
-1022.339167870095
 21
813.1251200377477
 31
0.0
  0
LINE
  5
10B
330
1F
100
AcDbEntity
  8
C-2
  6
Continuous
 62
     3
370
     9
100
AcDbLine
 10
-1026.339564598611
 20
947.1246470152867
 30
0.0
 11
-1026.339564598611
 21
813.1251200377477
 31
0.0
  0
LINE
  5
10C
330
1F
100
AcDbEntity
  8
C-2
  6
Continuous
 62
     3
370
     9
100
AcDbLine
 10
-1022.339167870095
 20
881.6246775328648
 30
0.0
 11
-1011.339259422829
 21
881.6246775328648
 31
0.0
  0
LINE
  5
10D
330
1F
100
AcDbEntity
  8
C-2
  6
Continuous
 62
     3
370
     9
100
AcDbLine
 10
-1022.339167870095
 20
878.6251047789585
 30
0.0
 11
-1011.339259422829
 21
878.6251047789585
 31
0.0
  0
LINE
  5
10E
330
1F
100
AcDbEntity
  8
C-2
  6
Continuous
 62
     3
370
     9
100
AcDbLine
 10
-1007.339320457986
 20
947.1246470152867
 30
0.0
 11
-1007.339320457986
 21
813.1251200377477
 31
0.0
  0
LINE
  5
10F
330
1F
100
AcDbEntity
  8
C-2
  6
Continuous
 62
     3
370
     9
100
AcDbLine
 10
-1011.339747704079
 20
947.1246470152867
 30
0.0
 11
-1011.339747704079
 21
813.1251200377477
 31
0.0
  0
LINE
  5
110
330
1F
100
AcDbEntity
  8
C-2
  6
Continuous
 62
     3
370
     9
100
AcDbLine
 10
-1007.339320457986
 20
881.6246775328648
 30
0.0
 11
-996.339442528298
 21
881.6246775328648
 31
0.0
  0
LINE
  5
111
330
1F
100
AcDbEntity
  8
C-2
  6
Continuous
 62
     3
370
     9
100
AcDbLine
 10
-1007.339320457986
 20
878.6251047789585
 30
0.0
 11
-996.339442528298
 21
878.6251047789585
 31
0.0
  0
LINE
  5
112
330
1F
100
AcDbEntity
  8
C-2
  6
Continuous
 62
     3
370
     9
100
AcDbLine
 10
-992.3395035634544
 20
947.1246470152867
 30
0.0
 11
-992.3395035634544
 21
813.1251200377477
 31
0.0
  0
LINE
  5
113
330
1F
100
AcDbEntity
  8
C-2
  6
Continuous
 62
     3
370
     9
100
AcDbLine
 10
-996.339442528298
 20
947.1246470152867
 30
0.0
 11
-996.339442528298
 21
813.1251200377477
 31
0.0
  0
LINE
  5
114
330
1F
100
AcDbEntity
  8
C-2
  6
Continuous
 62
     3
370
     9
100
AcDbLine
 10
-992.3395035634544
 20
881.6246775328648
 30
0.0
 11
-981.3395951161888
 21
881.6246775328648
 31
0.0
  0
LINE
  5
115
330
1F
100
AcDbEntity
  8
C-2
  6
Continuous
 62
     3
370
     9
100
AcDbLine
 10
-992.3395035634544
 20
878.6251047789585
 30
0.0
 11
-981.3395951161888
 21
878.6251047789585
 31
0.0
  0
LINE
  5
116
330
1F
100
AcDbEntity
  8
C-2
  6
Continuous
 62
     3
370
     9
100
AcDbLine
 10
-977.3391983876732
 20
947.1246470152867
 30
0.0
 11
-977.3391983876732
 21
813.1251200377477
 31
0.0
  0
LINE
  5
117
330
1F
100
AcDbEntity
  8
C-2
  6
Continuous
 62
     3
370
     9
100
AcDbLine
 10
-981.3395951161888
 20
947.1246470152867
 30
0.0
 11
-981.3395951161888
 21
813.1251200377477
 31
0.0
  0
LINE
  5
118
330
1F
100
AcDbEntity
  8
C-2
  6
Continuous
 62
     3
370
     9
100
AcDbLine
 10
-977.3391983876732
 20
881.6246775328648
 30
0.0
 11
-966.3397782216575
 21
881.6246775328648
 31
0.0
  0
LINE
  5
119
330
1F
100
AcDbEntity
  8
C-2
  6
Continuous
 62
     3
370
     9
100
AcDbLine
 10
-977.3391983876732
 20
878.6251047789585
 30
0.0
 11
-966.3397782216575
 21
878.6251047789585
 31
0.0
  0
LINE
  5
11A
330
1F
100
AcDbEntity
  8
C-2
  6
Continuous
 62
     3
370
     9
100
AcDbLine
 10
-962.3393814931419
 20
947.1246470152867
 30
0.0
 11
-962.3393814931419
 21
813.1251200377477
 31
0.0
  0
LINE
  5
11B
330
1F
100
AcDbEntity
  8
C-2
  6
Continuous
 62
     3
370
     9
100
AcDbLine
 10
-966.3397782216575
 20
947.1246470152867
 30
0.0
 11
-966.3397782216575
 21
813.1251200377477
 31
0.0
  0
LINE
  5
11C
330
1F
100
AcDbEntity
  8
C-2
  6
Continuous
 62
     3
370
     9
100
AcDbLine
 10
-962.3393814931419
 20
881.6246775328648
 30
0.0
 11
-951.3394730458763
 21
881.6246775328648
 31
0.0
  0
LINE
  5
11D
330
1F
100
AcDbEntity
  8
C-2
  6
Continuous
 62
     3
370
     9
100
AcDbLine
 10
-962.3393814931419
 20
878.6251047789585
 30
0.0
 11
-951.3394730458763
 21
878.6251047789585
 31
0.0
  0
LINE
  5
11E
330
1F
100
AcDbEntity
  8
C-2
  6
Continuous
 62
     3
370
     9
100
AcDbLine
 10
-947.3395340810325
 20
947.1246470152867
 30
0.0
 11
-947.3395340810325
 21
813.1251200377477
 31
0.0
  0
LINE
  5
11F
330
1F
100
AcDbEntity
  8
C-2
  6
Continuous
 62
     3
370
     9
100
AcDbLine
 10
-951.3394730458763
 20
947.1246470152867
 30
0.0
 11
-951.3394730458763
 21
813.1251200377477
 31
0.0
  0
LINE
  5
120
330
1F
100
AcDbEntity
  8
C-2
  6
Continuous
 62
     3
370
     9
100
AcDbLine
 10
-947.3395340810325
 20
881.6246775328648
 30
0.0
 11
-936.339656151345
 21
881.6246775328648
 31
0.0
  0
LINE
  5
121
330
1F
100
AcDbEntity
  8
C-2
  6
Continuous
 62
     3
370
     9
100
AcDbLine
 10
-947.3395340810325
 20
878.6251047789585
 30
0.0
 11
-936.339656151345
 21
878.6251047789585
 31
0.0
  0
LINE
  5
122
330
1F
100
AcDbEntity
  8
C-2
  6
Continuous
 62
     3
370
     9
100
AcDbLine
 10
-932.3397171865013
 20
947.1246470152867
 30
0.0
 11
-932.3397171865013
 21
813.1251200377477
 31
0.0
  0
LINE
  5
123
330
1F
100
AcDbEntity
  8
C-2
  6
Continuous
 62
     3
370
     9
100
AcDbLine
 10
-936.339656151345
 20
947.1246470152867
 30
0.0
 11
-936.339656151345
 21
813.1251200377477
 31
0.0
  0
LINE
  5
124
330
1F
100
AcDbEntity
  8
C-2
  6
Continuous
 62
     3
370
     9
100
AcDbLine
 10
-932.3397171865013
 20
881.6246775328648
 30
0.0
 11
-921.3393204579857
 21
881.6246775328648
 31
0.0
  0
LINE
  5
125
330
1F
100
AcDbEntity
  8
C-2
  6
Continuous
 62
     3
370
     9
100
AcDbLine
 10
-932.3397171865013
 20
878.6251047789585
 30
0.0
 11
-921.3393204579857
 21
878.6251047789585
 31
0.0
  0
LINE
  5
126
330
1F
100
AcDbEntity
  8
C-2
  6
Continuous
 62
     3
370
     9
100
AcDbLine
 10
-917.33941201072
 20
947.1246470152867
 30
0.0
 11
-917.33941201072
 21
813.1251200377477
 31
0.0
  0
LINE
  5
127
330
1F
100
AcDbEntity
  8
C-2
  6
Continuous
 62
     3
370
     9
100
AcDbLine
 10
-921.3393204579857
 20
947.1246470152867
 30
0.0
 11
-921.3393204579857
 21
813.1251200377477
 31
0.0
  0
LINE
  5
128
330
1F
100
AcDbEntity
  8
C-2
  6
Continuous
 62
     3
370
     9
100
AcDbLine
 10
-917.33941201072
 20
881.6246775328648
 30
0.0
 11
-906.3395035634544
 21
881.6246775328648
 31
0.0
  0
LINE
  5
129
330
1F
100
AcDbEntity
  8
C-2
  6
Continuous
 62
     3
370
     9
100
AcDbLine
 10
-917.33941201072
 20
878.6251047789585
 30
0.0
 11
-906.3395035634544
 21
878.6251047789585
 31
0.0
  0
LINE
  5
12A
330
1F
100
AcDbEntity
  8
C-2
  6
Continuous
 62
     3
370
     9
100
AcDbLine
 10
-902.3390763173607
 20
947.1246470152867
 30
0.0
 11
-902.3390763173607
 21
813.1251200377477
 31
0.0
  0
LINE
  5
12B
330
1F
100
AcDbEntity
  8
C-2
  6
Continuous
 62
     3
370
     9
100
AcDbLine
 10
-906.3395035634544
 20
947.1246470152867
 30
0.0
 11
-906.3395035634544
 21
813.1251200377477
 31
0.0
  0
LINE
  5
12C
330
1F
100
AcDbEntity
  8
C-2
  6
Continuous
 62
     3
370
     9
100
AcDbLine
 10
-902.3390763173607
 20
881.6246775328648
 30
0.0
 11
-891.3396866689232
 21
881.6246775328648
 31
0.0
  0
LINE
  5
12D
330
1F
100
AcDbEntity
  8
C-2
  6
Continuous
 62
     3
370
     9
100
AcDbLine
 10
-902.3390763173607
 20
878.6251047789585
 30
0.0
 11
-891.3396866689232
 21
878.6251047789585
 31
0.0
  0
LINE
  5
12E
330
1F
100
AcDbEntity
  8
C-2
  6
Continuous
 62
     3
370
     9
100
AcDbLine
 10
-887.3392594228294
 20
947.1246470152867
 30
0.0
 11
-887.3392594228294
 21
813.1251200377477
 31
0.0
  0
LINE
  5
12F
330
1F
100
AcDbEntity
  8
C-2
  6
Continuous
 62
     3
370
     9
100
AcDbLine
 10
-891.3396866689232
 20
947.1246470152867
 30
0.0
 11
-891.3396866689232
 21
813.1251200377477
 31
0.0
  0
LINE
  5
130
330
1F
100
AcDbEntity
  8
C-2
  6
Continuous
 62
     3
370
     9
100
AcDbLine
 10
-887.3392594228294
 20
881.6246775328648
 30
0.0
 11
-876.3393509755638
 21
881.6246775328648
 31
0.0
  0
LINE
  5
131
330
1F
100
AcDbEntity
  8
C-2
  6
Continuous
 62
     3
370
     9
100
AcDbLine
 10
-887.3392594228294
 20
878.6251047789585
 30
0.0
 11
-876.3393509755638
 21
878.6251047789585
 31
0.0
  0
LINE
  5
132
330
1F
100
AcDbEntity
  8
C-2
  6
Continuous
 62
     3
370
     9
100
AcDbLine
 10
-872.3394425282982
 20
947.1246470152867
 30
0.0
 11
-872.3394425282982
 21
813.1251200377477
 31
0.0
  0
LINE
  5
133
330
1F
100
AcDbEntity
  8
C-2
  6
Continuous
 62
     3
370
     9
100
AcDbLine
 10
-876.3393509755638
 20
947.1246470152867
 30
0.0
 11
-876.3393509755638
 21
813.1251200377477
 31
0.0
  0
LINE
  5
134
330
1F
100
AcDbEntity
  8
C-2
  6
Continuous
 62
     3
370
     9
100
AcDbLine
 10
-872.3394425282982
 20
881.6246775328648
 30
0.0
 11
-861.3395340810325
 21
881.6246775328648
 31
0.0
  0
LINE
  5
135
330
1F
100
AcDbEntity
  8
C-2
  6
Continuous
 62
     3
370
     9
100
AcDbLine
 10
-872.3394425282982
 20
878.6251047789585
 30
0.0
 11
-861.3395340810325
 21
878.6251047789585
 31
0.0
  0
LINE
  5
136
330
1F
100
AcDbEntity
  8
C-2
  6
Continuous
 62
     3
370
     9
100
AcDbLine
 10
-857.3396256337668
 20
947.1246470152867
 30
0.0
 11
-857.3396256337668
 21
813.1251200377477
 31
0.0
  0
LINE
  5
137
330
1F
100
AcDbEntity
  8
C-2
  6
Continuous
 62
     3
370
     9
100
AcDbLine
 10
-861.3395340810325
 20
947.1246470152867
 30
0.0
 11
-861.3395340810325
 21
813.1251200377477
 31
0.0
  0
LINE
  5
138
330
1F
100
AcDbEntity
  8
C-2
  6
Continuous
 62
     3
370
     9
100
AcDbLine
 10
-857.3396256337668
 20
881.6246775328648
 30
0.0
 11
-846.3392289052513
 21
881.6246775328648
 31
0.0
  0
LINE
  5
139
330
1F
100
AcDbEntity
  8
C-2
  6
Continuous
 62
     3
370
     9
100
AcDbLine
 10
-857.3396256337668
 20
878.6251047789585
 30
0.0
 11
-846.3392289052513
 21
878.6251047789585
 31
0.0
  0
LINE
  5
13A
330
1F
100
AcDbEntity
  8
C-2
  6
Continuous
 62
     3
370
     9
100
AcDbLine
 10
-842.3393204579855
 20
947.1246470152867
 30
0.0
 11
-842.3393204579855
 21
813.1251200377477
 31
0.0
  0
LINE
  5
13B
330
1F
100
AcDbEntity
  8
C-2
  6
Continuous
 62
     3
370
     9
100
AcDbLine
 10
-846.3392289052513
 20
947.1246470152867
 30
0.0
 11
-846.3392289052513
 21
813.1251200377477
 31
0.0
  0
LINE
  5
13C
330
1F
100
AcDbEntity
  8
C-2
  6
Continuous
 62
     3
370
     9
100
AcDbLine
 10
-842.3393204579855
 20
881.6246775328648
 30
0.0
 11
-831.3394120107199
 21
881.6246775328648
 31
0.0
  0
LINE
  5
13D
330
1F
100
AcDbEntity
  8
C-2
  6
Continuous
 62
     3
370
     9
100
AcDbLine
 10
-842.3393204579855
 20
878.6251047789585
 30
0.0
 11
-831.3394120107199
 21
878.6251047789585
 31
0.0
  0
LINE
  5
13E
330
1F
100
AcDbEntity
  8
C-2
  6
Continuous
 62
     3
370
     9
100
AcDbLine
 10
-827.3394730458762
 20
947.1246470152867
 30
0.0
 11
-827.3394730458762
 21
813.1251200377477
 31
0.0
  0
LINE
  5
13F
330
1F
100
AcDbEntity
  8
C-2
  6
Continuous
 62
     3
370
     9
100
AcDbLine
 10
-831.3394120107199
 20
947.1246470152867
 30
0.0
 11
-831.3394120107199
 21
813.1251200377477
 31
0.0
  0
LINE
  5
140
330
1F
100
AcDbEntity
  8
C-2
  6
Continuous
 62
     3
370
     9
100
AcDbLine
 10
-827.3394730458762
 20
881.6246775328648
 30
0.0
 11
-816.3395951161887
 21
881.6246775328648
 31
0.0
  0
LINE
  5
141
330
1F
100
AcDbEntity
  8
C-2
  6
Continuous
 62
     3
370
     9
100
AcDbLine
 10
-827.3394730458762
 20
878.6251047789585
 30
0.0
 11
-816.3395951161887
 21
878.6251047789585
 31
0.0
  0
LINE
  5
142
330
1F
100
AcDbEntity
  8
C-2
  6
Continuous
 62
     3
370
     9
100
AcDbLine
 10
-812.3391678700949
 20
947.1246470152867
 30
0.0
 11
-812.3391678700949
 21
813.1251200377477
 31
0.0
  0
LINE
  5
143
330
1F
100
AcDbEntity
  8
C-2
  6
Continuous
 62
     3
370
     9
100
AcDbLine
 10
-816.3395951161887
 20
947.1246470152867
 30
0.0
 11
-816.3395951161887
 21
813.1251200377477
 31
0.0
  0
LINE
  5
144
330
1F
100
AcDbEntity
  8
C-2
  6
Continuous
 62
     3
370
     9
100
AcDbLine
 10
-812.3391678700949
 20
881.6246775328648
 30
0.0
 11
-801.3397477040793
 21
881.6246775328648
 31
0.0
  0
LINE
  5
145
330
1F
100
AcDbEntity
  8
C-2
  6
Continuous
 62
     3
370
     9
100
AcDbLine
 10
-812.3391678700949
 20
878.6251047789585
 30
0.0
 11
-801.3397477040793
 21
878.6251047789585
 31
0.0
  0
LINE
  5
146
330
1F
100
AcDbEntity
  8
C-2
  6
Continuous
 62
     3
370
     9
100
AcDbLine
 10
-797.3393204579855
 20
947.1246470152867
 30
0.0
 11
-797.3393204579855
 21
813.1251200377477
 31
0.0
  0
LINE
  5
147
330
1F
100
AcDbEntity
  8
C-2
  6
Continuous
 62
     3
370
     9
100
AcDbLine
 10
-801.3397477040793
 20
947.1246470152867
 30
0.0
 11
-801.3397477040793
 21
813.1251200377477
 31
0.0
  0
LINE
  5
148
330
1F
100
AcDbEntity
  8
C-2
  6
Continuous
 62
     3
370
     9
100
AcDbLine
 10
-797.3393204579855
 20
881.6246775328648
 30
0.0
 11
-786.339442528298
 21
881.6246775328648
 31
0.0
  0
LINE
  5
149
330
1F
100
AcDbEntity
  8
C-2
  6
Continuous
 62
     3
370
     9
100
AcDbLine
 10
-797.3393204579855
 20
878.6251047789585
 30
0.0
 11
-786.339442528298
 21
878.6251047789585
 31
0.0
  0
LINE
  5
14A
330
1F
100
AcDbEntity
  8
C-2
  6
Continuous
 62
     3
370
     9
100
AcDbLine
 10
-782.3395035634543
 20
947.1246470152867
 30
0.0
 11
-782.3395035634543
 21
813.1251200377477
 31
0.0
  0
LINE
  5
14B
330
1F
100
AcDbEntity
  8
C-2
  6
Continuous
 62
     3
370
     9
100
AcDbLine
 10
-786.339442528298
 20
947.1246470152867
 30
0.0
 11
-786.339442528298
 21
813.1251200377477
 31
0.0
  0
LINE
  5
14C
330
1F
100
AcDbEntity
  8
C-2
  6
Continuous
 62
     3
370
     9
100
AcDbLine
 10
-782.3395035634543
 20
881.6246775328648
 30
0.0
 11
-771.3391373525168
 21
881.6246775328648
 31
0.0
  0
LINE
  5
14D
330
1F
100
AcDbEntity
  8
C-2
  6
Continuous
 62
     3
370
     9
100
AcDbLine
 10
-782.3395035634543
 20
878.6251047789585
 30
0.0
 11
-771.3391373525168
 21
878.6251047789585
 31
0.0
  0
LINE
  5
14E
330
1F
100
AcDbEntity
  8
C-2
  6
Continuous
 62
     3
370
     9
100
AcDbLine
 10
-767.339198387673
 20
947.1246470152867
 30
0.0
 11
-767.339198387673
 21
813.1251200377477
 31
0.0
  0
LINE
  5
14F
330
1F
100
AcDbEntity
  8
C-2
  6
Continuous
 62
     3
370
     9
100
AcDbLine
 10
-771.3396256337669
 20
947.1246470152867
 30
0.0
 11
-771.3396256337669
 21
813.1251200377477
 31
0.0
  0
LINE
  5
150
330
1F
100
AcDbEntity
  8
C-2
  6
Continuous
 62
     3
370
     9
100
AcDbLine
 10
-767.339198387673
 20
881.6246775328648
 30
0.0
 11
-756.3393204579857
 21
881.6246775328648
 31
0.0
  0
LINE
  5
151
330
1F
100
AcDbEntity
  8
C-2
  6
Continuous
 62
     3
370
     9
100
AcDbLine
 10
-767.339198387673
 20
878.6251047789585
 30
0.0
 11
-756.3393204579857
 21
878.6251047789585
 31
0.0
  0
LINE
  5
152
330
1F
100
AcDbEntity
  8
C-2
  6
Continuous
 62
     3
370
     9
100
AcDbLine
 10
-752.3393814931419
 20
947.1246470152867
 30
0.0
 11
-752.3393814931419
 21
813.1251200377477
 31
0.0
  0
LINE
  5
153
330
1F
100
AcDbEntity
  8
C-2
  6
Continuous
 62
     3
370
     9
100
AcDbLine
 10
-756.3393204579857
 20
947.1246470152867
 30
0.0
 11
-756.3393204579857
 21
813.1251200377477
 31
0.0
  0
LINE
  5
154
330
1F
100
AcDbEntity
  8
C-2
  6
Continuous
 62
     3
370
     9
100
AcDbLine
 10
-752.3393814931419
 20
881.6246775328648
 30
0.0
 11
-741.3395035634544
 21
881.6246775328648
 31
0.0
  0
LINE
  5
155
330
1F
100
AcDbEntity
  8
C-2
  6
Continuous
 62
     3
370
     9
100
AcDbLine
 10
-752.3393814931419
 20
878.6251047789585
 30
0.0
 11
-741.3395035634544
 21
878.6251047789585
 31
0.0
  0
LINE
  5
156
330
1F
100
AcDbEntity
  8
C-2
  6
Continuous
 62
     3
370
     9
100
AcDbLine
 10
-737.3390763173607
 20
947.1246470152867
 30
0.0
 11
-737.3390763173607
 21
813.1251200377477
 31
0.0
  0
LINE
  5
157
330
1F
100
AcDbEntity
  8
C-2
  6
Continuous
 62
     3
370
     9
100
AcDbLine
 10
-741.3395035634544
 20
947.1246470152867
 30
0.0
 11
-741.3395035634544
 21
813.1251200377477
 31
0.0
  0
LINE
  5
158
330
1F
100
AcDbEntity
  8
C-2
  6
Continuous
 62
     3
370
     9
100
AcDbLine
 10
-737.3390763173607
 20
881.6246775328648
 30
0.0
 11
-726.3396866689232
 21
881.6246775328648
 31
0.0
  0
LINE
  5
159
330
1F
100
AcDbEntity
  8
C-2
  6
Continuous
 62
     3
370
     9
100
AcDbLine
 10
-737.3390763173607
 20
878.6251047789585
 30
0.0
 11
-726.3396866689232
 21
878.6251047789585
 31
0.0
  0
LINE
  5
15A
330
1F
100
AcDbEntity
  8
C-2
  6
Continuous
 62
     3
370
     9
100
AcDbLine
 10
-722.3392594228294
 20
947.1246470152867
 30
0.0
 11
-722.3392594228294
 21
813.1251200377477
 31
0.0
  0
LINE
  5
15B
330
1F
100
AcDbEntity
  8
C-2
  6
Continuous
 62
     3
370
     9
100
AcDbLine
 10
-726.3396866689232
 20
947.1246470152867
 30
0.0
 11
-726.3396866689232
 21
813.1251200377477
 31
0.0
  0
LINE
  5
15C
330
1F
100
AcDbEntity
  8
C-2
  6
Continuous
 62
     3
370
     9
100
AcDbLine
 10
-722.3392594228294
 20
881.6246775328648
 30
0.0
 11
-711.3393204579857
 21
881.6246775328648
 31
0.0
  0
LINE
  5
15D
330
1F
100
AcDbEntity
  8
C-2
  6
Continuous
 62
     3
370
     9
100
AcDbLine
 10
-722.3392594228294
 20
878.6251047789585
 30
0.0
 11
-711.3393204579857
 21
878.6251047789585
 31
0.0
  0
LINE
  5
15E
330
1F
100
AcDbEntity
  8
C-2
  6
Continuous
 62
     3
370
     9
100
AcDbLine
 10
-707.3394425282982
 20
947.1246470152867
 30
0.0
 11
-707.3394425282982
 21
813.1251200377477
 31
0.0
  0
LINE
  5
15F
330
1F
100
AcDbEntity
  8
C-2
  6
Continuous
 62
     3
370
     9
100
AcDbLine
 10
-711.3393204579857
 20
947.1246470152867
 30
0.0
 11
-711.3393204579857
 21
813.1251200377477
 31
0.0
  0
LINE
  5
160
330
1F
100
AcDbEntity
  8
C-2
  6
Continuous
 62
     3
370
     9
100
AcDbLine
 10
-707.3394425282982
 20
881.6246775328648
 30
0.0
 11
-696.3395035634544
 21
881.6246775328648
 31
0.0
  0
LINE
  5
161
330
1F
100
AcDbEntity
  8
C-2
  6
Continuous
 62
     3
370
     9
100
AcDbLine
 10
-707.3394425282982
 20
878.6251047789585
 30
0.0
 11
-696.3395035634544
 21
878.6251047789585
 31
0.0
  0
LINE
  5
162
330
1F
100
AcDbEntity
  8
C-2
  6
Continuous
 62
     3
370
     9
100
AcDbLine
 10
-692.3396256337668
 20
947.1246470152867
 30
0.0
 11
-692.3396256337668
 21
813.1251200377477
 31
0.0
  0
LINE
  5
163
330
1F
100
AcDbEntity
  8
C-2
  6
Continuous
 62
     3
370
     9
100
AcDbLine
 10
-696.3395035634544
 20
947.1246470152867
 30
0.0
 11
-696.3395035634544
 21
813.1251200377477
 31
0.0
  0
LINE
  5
164
330
1F
100
AcDbEntity
  8
C-2
  6
Continuous
 62
     3
370
     9
100
AcDbLine
 10
-692.3396256337668
 20
881.6246775328648
 30
0.0
 11
-681.3391983876732
 21
881.6246775328648
 31
0.0
  0
LINE
  5
165
330
1F
100
AcDbEntity
  8
C-2
  6
Continuous
 62
     3
370
     9
100
AcDbLine
 10
-692.3396256337668
 20
878.6251047789585
 30
0.0
 11
-681.3391983876732
 21
878.6251047789585
 31
0.0
  0
LINE
  5
166
330
1F
100
AcDbEntity
  8
C-2
  6
Continuous
 62
     3
370
     9
100
AcDbLine
 10
-677.3392594228294
 20
947.1246470152867
 30
0.0
 11
-677.3392594228294
 21
813.1251200377477
 31
0.0
  0
LINE
  5
167
330
1F
100
AcDbEntity
  8
C-2
  6
Continuous
 62
     3
370
     9
100
AcDbLine
 10
-681.3391983876732
 20
947.1246470152867
 30
0.0
 11
-681.3391983876732
 21
813.1251200377477
 31
0.0
  0
LINE
  5
168
330
1F
100
AcDbEntity
  8
C-2
  6
Continuous
 62
     3
370
     9
100
AcDbLine
 10
-677.3392594228294
 20
881.6246775328648
 30
0.0
 11
-666.3393814931419
 21
881.6246775328648
 31
0.0
  0
LINE
  5
169
330
1F
100
AcDbEntity
  8
C-2
  6
Continuous
 62
     3
370
     9
100
AcDbLine
 10
-677.3392594228294
 20
878.6251047789585
 30
0.0
 11
-666.3393814931419
 21
878.6251047789585
 31
0.0
  0
LINE
  5
16A
330
1F
100
AcDbEntity
  8
C-2
  6
Continuous
 62
     3
370
     9
100
AcDbLine
 10
-662.3389542470482
 20
947.1246470152867
 30
0.0
 11
-662.3389542470482
 21
813.1251200377477
 31
0.0
  0
LINE
  5
16B
330
1F
100
AcDbEntity
  8
C-2
  6
Continuous
 62
     3
370
     9
100
AcDbLine
 10
-666.3393814931419
 20
947.1246470152867
 30
0.0
 11
-666.3393814931419
 21
813.1251200377477
 31
0.0
  0
LINE
  5
16C
330
1F
100
AcDbEntity
  8
C-2
  6
Continuous
 62
     3
370
     9
100
AcDbLine
 10
-662.3389542470482
 20
881.6246775328648
 30
0.0
 11
-651.3395645986105
 21
881.6246775328648
 31
0.0
  0
LINE
  5
16D
330
1F
100
AcDbEntity
  8
C-2
  6
Continuous
 62
     3
370
     9
100
AcDbLine
 10
-662.3389542470482
 20
878.6251047789585
 30
0.0
 11
-651.3395645986105
 21
878.6251047789585
 31
0.0
  0
LINE
  5
16E
330
1F
100
AcDbEntity
  8
C-2
  6
Continuous
 62
     3
370
     9
100
AcDbLine
 10
-647.3391373525169
 20
947.1246470152867
 30
0.0
 11
-647.3391373525169
 21
813.1251200377477
 31
0.0
  0
LINE
  5
16F
330
1F
100
AcDbEntity
  8
C-2
  6
Continuous
 62
     3
370
     9
100
AcDbLine
 10
-651.3395645986105
 20
947.1246470152867
 30
0.0
 11
-651.3395645986105
 21
813.1251200377477
 31
0.0
  0
LINE
  5
170
330
1F
100
AcDbEntity
  8
C-2
  6
Continuous
 62
     3
370
     9
100
AcDbLine
 10
-647.3391373525169
 20
881.6246775328648
 30
0.0
 11
-636.3392594228293
 21
881.6246775328648
 31
0.0
  0
LINE
  5
171
330
1F
100
AcDbEntity
  8
C-2
  6
Continuous
 62
     3
370
     9
100
AcDbLine
 10
-647.3391373525169
 20
878.6251047789585
 30
0.0
 11
-636.3392594228293
 21
878.6251047789585
 31
0.0
  0
LINE
  5
172
330
1F
100
AcDbEntity
  8
C-2
  6
Continuous
 62
     3
370
     9
100
AcDbLine
 10
-632.3393204579855
 20
947.1246470152867
 30
0.0
 11
-632.3393204579855
 21
813.1251200377477
 31
0.0
  0
LINE
  5
173
330
1F
100
AcDbEntity
  8
C-2
  6
Continuous
 62
     3
370
     9
100
AcDbLine
 10
-636.3397477040793
 20
947.1246470152867
 30
0.0
 11
-636.3397477040793
 21
813.1251200377477
 31
0.0
  0
LINE
  5
174
330
1F
100
AcDbEntity
  8
C-2
  6
Continuous
 62
     3
370
     9
100
AcDbLine
 10
-632.3393204579855
 20
881.6246775328648
 30
0.0
 11
-621.339442528298
 21
881.6246775328648
 31
0.0
  0
LINE
  5
175
330
1F
100
AcDbEntity
  8
C-2
  6
Continuous
 62
     3
370
     9
100
AcDbLine
 10
-632.3393204579855
 20
878.6251047789585
 30
0.0
 11
-621.339442528298
 21
878.6251047789585
 31
0.0
  0
LINE
  5
176
330
1F
100
AcDbEntity
  8
C-2
  6
Continuous
 62
     3
370
     9
100
AcDbLine
 10
-617.3390152822043
 20
947.1246470152867
 30
0.0
 11
-617.3390152822043
 21
813.1251200377477
 31
0.0
  0
LINE
  5
177
330
1F
100
AcDbEntity
  8
C-2
  6
Continuous
 62
     3
370
     9
100
AcDbLine
 10
-621.339442528298
 20
947.1246470152867
 30
0.0
 11
-621.339442528298
 21
813.1251200377477
 31
0.0
  0
LINE
  5
178
330
1F
100
AcDbEntity
  8
C-2
  6
Continuous
 62
     3
370
     9
100
AcDbLine
 10
-617.3390152822043
 20
881.6246775328648
 30
0.0
 11
-606.3390763173607
 21
881.6246775328648
 31
0.0
  0
LINE
  5
179
330
1F
100
AcDbEntity
  8
C-2
  6
Continuous
 62
     3
370
     9
100
AcDbLine
 10
-617.3390152822043
 20
878.6251047789585
 30
0.0
 11
-606.3390763173607
 21
878.6251047789585
 31
0.0
  0
LINE
  5
17A
330
1F
100
AcDbEntity
  8
C-2
  6
Continuous
 62
     3
370
     9
100
AcDbLine
 10
-602.339198387673
 20
947.1246470152867
 30
0.0
 11
-602.339198387673
 21
813.1251200377477
 31
0.0
  0
LINE
  5
17B
330
1F
100
AcDbEntity
  8
C-2
  6
Continuous
 62
     3
370
     9
100
AcDbLine
 10
-606.3390763173607
 20
947.1246470152867
 30
0.0
 11
-606.3390763173607
 21
813.1251200377477
 31
0.0
  0
LINE
  5
17C
330
1F
100
AcDbEntity
  8
C-2
  6
Continuous
 62
     3
370
     9
100
AcDbLine
 10
-602.339198387673
 20
881.6246775328648
 30
0.0
 11
-591.3392594228293
 21
881.6246775328648
 31
0.0
  0
LINE
  5
17D
330
1F
100
AcDbEntity
  8
C-2
  6
Continuous
 62
     3
370
     9
100
AcDbLine
 10
-602.339198387673
 20
878.6251047789585
 30
0.0
 11
-591.3392594228293
 21
878.6251047789585
 31
0.0
  0
LINE
  5
17E
330
1F
100
AcDbEntity
  8
C-2
  6
Continuous
 62
     3
370
     9
100
AcDbLine
 10
-587.3393814931419
 20
947.1246470152867
 30
0.0
 11
-587.3393814931419
 21
813.1251200377477
 31
0.0
  0
LINE
  5
17F
330
1F
100
AcDbEntity
  8
C-2
  6
Continuous
 62
     3
370
     9
100
AcDbLine
 10
-591.3392594228293
 20
947.1246470152867
 30
0.0
 11
-591.3392594228293
 21
813.1251200377477
 31
0.0
  0
LINE
  5
180
330
1F
100
AcDbEntity
  8
C-2
  6
Continuous
 62
     3
370
     9
100
AcDbLine
 10
-587.3393814931419
 20
881.6246775328648
 30
0.0
 11
-576.339442528298
 21
881.6246775328648
 31
0.0
  0
LINE
  5
181
330
1F
100
AcDbEntity
  8
C-2
  6
Continuous
 62
     3
370
     9
100
AcDbLine
 10
-587.3393814931419
 20
878.6251047789585
 30
0.0
 11
-576.339442528298
 21
878.6251047789585
 31
0.0
  0
LINE
  5
182
330
1F
100
AcDbEntity
  8
C-2
  6
Continuous
 62
     3
370
     9
100
AcDbLine
 10
-572.3390152822043
 20
947.1246470152867
 30
0.0
 11
-572.3390152822043
 21
813.1251200377477
 31
0.0
  0
LINE
  5
183
330
1F
100
AcDbEntity
  8
C-2
  6
Continuous
 62
     3
370
     9
100
AcDbLine
 10
-576.339442528298
 20
947.1246470152867
 30
0.0
 11
-576.339442528298
 21
813.1251200377477
 31
0.0
  0
LINE
  5
184
330
1F
100
AcDbEntity
  8
C-2
  6
Continuous
 62
     3
370
     9
100
AcDbLine
 10
-572.3390152822043
 20
881.6246775328648
 30
0.0
 11
-561.3391373525168
 21
881.6246775328648
 31
0.0
  0
LINE
  5
185
330
1F
100
AcDbEntity
  8
C-2
  6
Continuous
 62
     3
370
     9
100
AcDbLine
 10
-572.3390152822043
 20
878.6251047789585
 30
0.0
 11
-561.3391373525168
 21
878.6251047789585
 31
0.0
  0
LINE
  5
186
330
1F
100
AcDbEntity
  8
C-2
  6
Continuous
 62
     3
370
     9
100
AcDbLine
 10
-557.339198387673
 20
947.1246470152867
 30
0.0
 11
-557.339198387673
 21
813.1251200377477
 31
0.0
  0
LINE
  5
187
330
1F
100
AcDbEntity
  8
C-2
  6
Continuous
 62
     3
370
     9
100
AcDbLine
 10
-561.3391373525168
 20
947.1246470152867
 30
0.0
 11
-561.3391373525168
 21
813.1251200377477
 31
0.0
  0
LINE
  5
188
330
1F
100
AcDbEntity
  8
C-2
  6
Continuous
 62
     3
370
     9
100
AcDbLine
 10
-557.339198387673
 20
881.6246775328648
 30
0.0
 11
-546.3393204579857
 21
881.6246775328648
 31
0.0
  0
LINE
  5
189
330
1F
100
AcDbEntity
  8
C-2
  6
Continuous
 62
     3
370
     9
100
AcDbLine
 10
-557.339198387673
 20
878.6251047789585
 30
0.0
 11
-546.3393204579857
 21
878.6251047789585
 31
0.0
  0
LINE
  5
18A
330
1F
100
AcDbEntity
  8
C-2
  6
Continuous
 62
     3
370
     9
100
AcDbLine
 10
-542.3393814931419
 20
947.1246470152867
 30
0.0
 11
-542.3393814931419
 21
813.1251200377477
 31
0.0
  0
LINE
  5
18B
330
1F
100
AcDbEntity
  8
C-2
  6
Continuous
 62
     3
370
     9
100
AcDbLine
 10
-546.3393204579857
 20
947.1246470152867
 30
0.0
 11
-546.3393204579857
 21
813.1251200377477
 31
0.0
  0
LINE
  5
18C
330
1F
100
AcDbEntity
  8
C-2
  6
Continuous
 62
     3
370
     9
100
AcDbLine
 10
-542.3393814931419
 20
881.6246775328648
 30
0.0
 11
-531.3390152822044
 21
881.6246775328648
 31
0.0
  0
LINE
  5
18D
330
1F
100
AcDbEntity
  8
C-2
  6
Continuous
 62
     3
370
     9
100
AcDbLine
 10
-542.3393814931419
 20
878.6251047789585
 30
0.0
 11
-531.3390152822044
 21
878.6251047789585
 31
0.0
  0
LINE
  5
18E
330
1F
100
AcDbEntity
  8
C-2
  6
Continuous
 62
     3
370
     9
100
AcDbLine
 10
-531.3399918447043
 20
947.1246470152867
 30
0.0
 11
-531.3399918447043
 21
813.1251200377477
 31
0.0
  0
LINE
  5
18F
330
1F
100
AcDbEntity
  8
C-1
  6
Continuous
 62
     2
370
     9
100
AcDbLine
 10
-527.3395645986107
 20
947.1246470152867
 30
0.0
 11
-1521.339640892556
 21
947.1246470152867
 31
0.0
  0
LINE
  5
190
330
1F
100
AcDbEntity
  8
C-1
  6
JWW_DASHED3
 62
     2
370
     9
100
AcDbLine
 10
-527.3395645986107
 20
950.1251963316929
 30
0.0
 11
-1521.339640892556
 21
950.1251963316929
 31
0.0
  0
LINE
  5
191
330
1F
100
AcDbEntity
  8
C-1
  6
JWW_PHANTOM1
 62
     2
370
     9
100
AcDbLine
 10
-1523.340342796853
 20
977.1243113219273
 30
0.0
 11
-1673.340052879861
 21
977.1243113219273
 31
0.0
  0
LINE
  5
192
330
1F
100
AcDbEntity
  8
C-1
  6
JWW_PHANTOM1
 62
     2
370
     9
100
AcDbLine
 10
-1523.340342796853
 20
783.1244791686071
 30
0.0
 11
-1523.340342796853
 21
977.1243113219273
 31
0.0
  0
LINE
  5
193
330
1F
100
AcDbEntity
  8
C-1
  6
JWW_PHANTOM1
 62
     2
370
     9
100
AcDbLine
 10
-1523.340342796853
 20
783.1244791686071
 30
0.0
 11
-1673.340052879861
 21
783.1244791686071
 31
0.0
  0
LINE
  5
194
330
1F
100
AcDbEntity
  8
C-1
  6
JWW_PHANTOM1
 62
     2
370
     9
100
AcDbLine
 10
-1523.340342796853
 20
947.1246470152867
 30
0.0
 11
-1673.340052879861
 21
947.1246470152867
 31
0.0
  0
LINE
  5
195
330
1F
100
AcDbEntity
  8
C-1
  6
JWW_PHANTOM1
 62
     2
370
     9
100
AcDbLine
 10
-1523.340342796853
 20
813.1251200377477
 30
0.0
 11
-1673.340052879861
 21
813.1251200377477
 31
0.0
  0
LINE
  5
196
330
1F
100
AcDbEntity
  8
C-1
  6
JWW_PHANTOM1
 62
     2
370
     9
100
AcDbLine
 10
-525.3403580556419
 20
977.1243113219273
 30
0.0
 11
-375.3406632314232
 21
977.1243113219273
 31
0.0
  0
LINE
  5
197
330
1F
100
AcDbEntity
  8
C-1
  6
JWW_PHANTOM1
 62
     2
370
     9
100
AcDbLine
 10
-525.3403580556419
 20
783.1244791686071
 30
0.0
 11
-525.3403580556419
 21
977.1243113219273
 31
0.0
  0
LINE
  5
198
330
1F
100
AcDbEntity
  8
C-1
  6
JWW_PHANTOM1
 62
     2
370
     9
100
AcDbLine
 10
-525.3403580556419
 20
783.1244791686071
 30
0.0
 11
-375.3406632314232
 21
783.1244791686071
 31
0.0
  0
LINE
  5
199
330
1F
100
AcDbEntity
  8
C-1
  6
JWW_PHANTOM1
 62
     2
370
     9
100
AcDbLine
 10
-525.3403580556419
 20
947.1246470152867
 30
0.0
 11
-375.3406632314232
 21
947.1246470152867
 31
0.0
  0
LINE
  5
19A
330
1F
100
AcDbEntity
  8
C-1
  6
JWW_PHANTOM1
 62
     2
370
     9
100
AcDbLine
 10
-525.3403580556419
 20
813.1251200377477
 30
0.0
 11
-375.3406632314232
 21
813.1251200377477
 31
0.0
  0
LINE
  5
19B
330
1F
100
AcDbEntity
  8
C-1
  6
Continuous
 62
     2
370
     9
100
AcDbLine
 10
-1690.660151756814
 20
870.1248453795445
 30
0.0
 11
-1656.019465721657
 21
890.1249216734898
 31
0.0
  0
LINE
  5
19C
330
1F
100
AcDbEntity
  8
C-1
  6
Continuous
 62
     2
370
     9
100
AcDbLine
 10
-1673.340052879861
 20
997.1248911559117
 30
0.0
 11
-1673.340052879861
 21
890.1249216734898
 31
0.0
  0
LINE
  5
19D
330
1F
100
AcDbEntity
  8
C-1
  6
Continuous
 62
     2
370
     9
100
AcDbLine
 10
-1673.340052879861
 20
890.1249216734898
 30
0.0
 11
-1656.019465721657
 21
890.1249216734898
 31
0.0
  0
LINE
  5
19E
330
1F
100
AcDbEntity
  8
C-1
  6
Continuous
 62
     2
370
     9
100
AcDbLine
 10
-1690.660151756814
 20
870.1248453795445
 30
0.0
 11
-1673.340052879861
 21
870.1248453795445
 31
0.0
  0
LINE
  5
19F
330
1F
100
AcDbEntity
  8
C-1
  6
Continuous
 62
     2
370
     9
100
AcDbLine
 10
-1673.340052879861
 20
870.1248453795445
 30
0.0
 11
-1673.340052879861
 21
763.1243876158726
 31
0.0
  0
LINE
  5
1A0
330
1F
100
AcDbEntity
  8
C-1
  6
Continuous
 62
     2
370
     9
100
AcDbLine
 10
-392.6612198720482
 20
870.1248453795445
 30
0.0
 11
-358.0205338368918
 21
890.1249216734898
 31
0.0
  0
LINE
  5
1A1
330
1F
100
AcDbEntity
  8
C-1
  6
Continuous
 62
     2
370
     9
100
AcDbLine
 10
-375.3406632314232
 20
997.1248911559117
 30
0.0
 11
-375.3406632314232
 21
890.1249216734898
 31
0.0
  0
LINE
  5
1A2
330
1F
100
AcDbEntity
  8
C-1
  6
Continuous
 62
     2
370
     9
100
AcDbLine
 10
-375.3406632314232
 20
890.1249216734898
 30
0.0
 11
-358.0205338368918
 21
890.1249216734898
 31
0.0
  0
LINE
  5
1A3
330
1F
100
AcDbEntity
  8
C-1
  6
Continuous
 62
     2
370
     9
100
AcDbLine
 10
-392.6612198720482
 20
870.1248453795445
 30
0.0
 11
-375.3406632314232
 21
870.1248453795445
 31
0.0
  0
LINE
  5
1A4
330
1F
100
AcDbEntity
  8
C-1
  6
Continuous
 62
     2
370
     9
100
AcDbLine
 10
-375.3406632314232
 20
870.1248453795445
 30
0.0
 11
-375.3406632314232
 21
763.1243876158726
 31
0.0
  0
LINE
  5
1A5
330
1F
100
AcDbEntity
  8
C-4
  6
Continuous
 62
     7
370
     9
100
AcDbLine
 10
-1523.340342796853
 20
989.1235483824742
 30
0.0
 11
-1523.340342796853
 21
1072.123487347318
 31
0.0
  0
LINE
  5
1A6
330
1F
100
AcDbEntity
  8
C-4
  6
Continuous
 62
     7
370
     9
100
AcDbLine
 10
-1521.339640892556
 20
989.1235483824742
 30
0.0
 11
-1521.339640892556
 21
1152.123853558255
 31
0.0
  0
LINE
  5
1A7
330
1F
100
AcDbEntity
  8
C-4
  6
Continuous
 62
     7
370
     9
100
AcDbLine
 10
-527.3400528798605
 20
989.1235483824742
 30
0.0
 11
-527.3400528798605
 21
1072.123487347318
 31
0.0
  0
LINE
  5
1A8
330
1F
100
AcDbEntity
  8
C-4
  6
Continuous
 62
     7
370
     9
100
AcDbLine
 10
-525.3403580556419
 20
989.1235483824742
 30
0.0
 11
-525.3403580556419
 21
1152.123853558255
 31
0.0
  0
LINE
  5
1A9
330
1F
100
AcDbEntity
  8
C-4
  6
Continuous
 62
     7
370
     9
100
AcDbLine
 10
-1673.340052879861
 20
1149.123304241849
 30
0.0
 11
-375.3406632314232
 21
1149.123304241849
 31
0.0
  0
LINE
  5
1AA
330
1F
100
AcDbEntity
  8
C-4
  6
Continuous
 62
     7
370
     9
100
AcDbLine
 10
-1673.340052879861
 20
1069.12394511099
 30
0.0
 11
-375.3406632314232
 21
1069.12394511099
 31
0.0
  0
LINE
  5
1AB
330
1F
100
AcDbEntity
  8
C-5
  6
Continuous
 62
     7
370
     9
100
AcDbLine
 10
-1312.839442528298
 20
618.1249521910679
 30
0.0
 11
-1312.839442528298
 21
683.1245096861852
 31
0.0
  0
LINE
  5
1AC
330
1F
100
AcDbEntity
  8
C-5
  6
Continuous
 62
     7
370
     9
100
AcDbLine
 10
-1312.839442528298
 20
683.1245096861852
 30
0.0
 11
-737.8395035634543
 21
683.1245096861852
 31
0.0
  0
LINE
  5
1AD
330
1F
100
AcDbEntity
  8
C-5
  6
Continuous
 62
     7
370
     9
100
AcDbLine
 10
-737.8395035634543
 20
683.1245096861852
 30
0.0
 11
-737.8395035634543
 21
618.1249521910679
 31
0.0
  0
LINE
  5
1AE
330
1F
100
AcDbEntity
  8
C-5
  6
Continuous
 62
     7
370
     9
100
AcDbLine
 10
-737.8395035634543
 20
618.1249521910679
 30
0.0
 11
-1312.839442528298
 21
618.1249521910679
 31
0.0
  0
LINE
  5
1AF
330
1F
100
AcDbEntity
  8
C-9
  6
Continuous
 62
     6
370
     5
100
AcDbLine
 10
-1521.339640892556
 20
841.2340525328648
 30
0.0
 11
-1520.826091087868
 21
840.7207468688023
 31
0.0
  0
LINE
  5
1B0
330
1F
100
AcDbEntity
  8
C-9
  6
Continuous
 62
     6
370
     5
100
AcDbLine
 10
-1521.339640892556
 20
844.0626810729038
 30
0.0
 11
-1519.237864769509
 21
841.960904949857
 31
0.0
  0
LINE
  5
1B1
330
1F
100
AcDbEntity
  8
C-9
  6
Continuous
 62
     6
370
     5
100
AcDbLine
 10
-1521.339640892556
 20
846.8908213316929
 30
0.0
 11
-1517.64963845115
 21
843.2010630309117
 31
0.0
  0
LINE
  5
1B2
330
1F
100
AcDbEntity
  8
C-9
  6
Continuous
 62
     6
370
     5
100
AcDbLine
 10
-1521.339640892556
 20
849.719449871732
 30
0.0
 11
-1517.339473045876
 21
845.7195261656773
 31
0.0
  0
LINE
  5
1B3
330
1F
100
AcDbEntity
  8
C-9
  6
Continuous
 62
     6
370
     5
100
AcDbLine
 10
-1521.339640892556
 20
852.547590130521
 30
0.0
 11
-1517.339473045876
 21
848.5476664244663
 31
0.0
  0
LINE
  5
1B4
330
1F
100
AcDbEntity
  8
C-9
  6
Continuous
 62
     6
370
     5
100
AcDbLine
 10
-1521.339640892556
 20
855.3762186705602
 30
0.0
 11
-1517.339473045876
 21
851.3762949645054
 31
0.0
  0
LINE
  5
1B5
330
1F
100
AcDbEntity
  8
C-9
  6
Continuous
 62
     6
370
     5
100
AcDbLine
 10
-1521.339640892556
 20
858.2043589293493
 30
0.0
 11
-1517.339473045876
 21
854.2044352232945
 31
0.0
  0
LINE
  5
1B6
330
1F
100
AcDbEntity
  8
C-9
  6
Continuous
 62
     6
370
     5
100
AcDbLine
 10
-1521.339640892556
 20
861.0329874693883
 30
0.0
 11
-1517.339473045876
 21
857.0330637633335
 31
0.0
  0
LINE
  5
1B7
330
1F
100
AcDbEntity
  8
C-9
  6
Continuous
 62
     6
370
     5
100
AcDbLine
 10
-1521.339640892556
 20
863.8616160094273
 30
0.0
 11
-1517.339473045876
 21
859.8616923033727
 31
0.0
  0
LINE
  5
1B8
330
1F
100
AcDbEntity
  8
C-9
  6
Continuous
 62
     6
370
     5
100
AcDbLine
 10
-1521.339640892556
 20
866.6897562682163
 30
0.0
 11
-1517.339473045876
 21
862.6898325621618
 31
0.0
  0
LINE
  5
1B9
330
1F
100
AcDbEntity
  8
C-9
  6
Continuous
 62
     6
370
     5
100
AcDbLine
 10
-1521.339640892556
 20
869.5183848082554
 30
0.0
 11
-1517.339473045876
 21
865.5184611022008
 31
0.0
  0
LINE
  5
1BA
330
1F
100
AcDbEntity
  8
C-9
  6
Continuous
 62
     6
370
     5
100
AcDbLine
 10
-1521.339640892556
 20
872.3465250670445
 30
0.0
 11
-1517.339473045876
 21
868.3466013609899
 31
0.0
  0
LINE
  5
1BB
330
1F
100
AcDbEntity
  8
C-9
  6
Continuous
 62
     6
370
     5
100
AcDbLine
 10
-1521.339640892556
 20
875.1751536070835
 30
0.0
 11
-1517.339473045876
 21
871.1752299010288
 31
0.0
  0
LINE
  5
1BC
330
1F
100
AcDbEntity
  8
C-9
  6
Continuous
 62
     6
370
     5
100
AcDbLine
 10
-1521.339640892556
 20
878.0032786070836
 30
0.0
 11
-1517.339473045876
 21
874.0033701598179
 31
0.0
  0
LINE
  5
1BD
330
1F
100
AcDbEntity
  8
C-9
  6
Continuous
 62
     6
370
     5
100
AcDbLine
 10
-1521.339640892556
 20
880.8319224059118
 30
0.0
 11
-1517.339473045876
 21
876.8320139586461
 31
0.0
  0
LINE
  5
1BE
330
1F
100
AcDbEntity
  8
C-9
  6
Continuous
 62
     6
370
     5
100
AcDbLine
 10
-1521.339640892556
 20
883.6605356871617
 30
0.0
 11
-1517.339473045876
 21
879.660138958646
 31
0.0
  0
LINE
  5
1BF
330
1F
100
AcDbEntity
  8
C-9
  6
Continuous
 62
     6
370
     5
100
AcDbLine
 10
-1521.339640892556
 20
886.4886912047399
 30
0.0
 11
-1517.339473045876
 21
882.4887522398961
 31
0.0
  0
LINE
  5
1C0
330
1F
100
AcDbEntity
  8
C-9
  6
Continuous
 62
     6
370
     5
100
AcDbLine
 10
-1521.339640892556
 20
889.3173044859898
 30
0.0
 11
-1517.339473045876
 21
885.3173960387243
 31
0.0
  0
LINE
  5
1C1
330
1F
100
AcDbEntity
  8
C-9
  6
Continuous
 62
     6
370
     5
100
AcDbLine
 10
-1521.339640892556
 20
892.1454600035679
 30
0.0
 11
-1517.339473045876
 21
888.1455210387242
 31
0.0
  0
LINE
  5
1C2
330
1F
100
AcDbEntity
  8
C-9
  6
Continuous
 62
     6
370
     5
100
AcDbLine
 10
-1521.339640892556
 20
894.974073284818
 30
0.0
 11
-1517.339473045876
 21
890.9741648375524
 31
0.0
  0
LINE
  5
1C3
330
1F
100
AcDbEntity
  8
C-9
  6
Continuous
 62
     6
370
     5
100
AcDbLine
 10
-1521.339640892556
 20
897.802717083646
 30
0.0
 11
-1517.339473045876
 21
893.8022898375523
 31
0.0
  0
LINE
  5
1C4
330
1F
100
AcDbEntity
  8
C-9
  6
Continuous
 62
     6
370
     5
100
AcDbLine
 10
-1521.339640892556
 20
900.6308420836461
 30
0.0
 11
-1517.339473045876
 21
896.6309336363804
 31
0.0
  0
LINE
  5
1C5
330
1F
100
AcDbEntity
  8
C-9
  6
Continuous
 62
     6
370
     5
100
AcDbLine
 10
-1521.339640892556
 20
903.4594858824743
 30
0.0
 11
-1517.339473045876
 21
899.4590586363804
 31
0.0
  0
LINE
  5
1C6
330
1F
100
AcDbEntity
  8
C-9
  6
Continuous
 62
     6
370
     5
100
AcDbLine
 10
-1521.339640892556
 20
906.2876108824742
 30
0.0
 11
-1517.339473045876
 21
902.2877024352085
 31
0.0
  0
LINE
  5
1C7
330
1F
100
AcDbEntity
  8
C-9
  6
Continuous
 62
     6
370
     5
100
AcDbLine
 10
-1521.339640892556
 20
909.1162546813024
 30
0.0
 11
-1517.339473045876
 21
905.1163157164586
 31
0.0
  0
LINE
  5
1C8
330
1F
100
AcDbEntity
  8
C-9
  6
Continuous
 62
     6
370
     5
100
AcDbLine
 10
-1521.339640892556
 20
911.9443796813023
 30
0.0
 11
-1517.339473045876
 21
907.9444712340367
 31
0.0
  0
LINE
  5
1C9
330
1F
100
AcDbEntity
  8
C-9
  6
Continuous
 62
     6
370
     5
100
AcDbLine
 10
-1521.339640892556
 20
914.7730234801304
 30
0.0
 11
-1517.339473045876
 21
910.7730845152867
 31
0.0
  0
LINE
  5
1CA
330
1F
100
AcDbEntity
  8
C-9
  6
Continuous
 62
     6
370
     5
100
AcDbLine
 10
-1521.339640892556
 20
917.6016367613805
 30
0.0
 11
-1517.339473045876
 21
913.6012400328649
 31
0.0
  0
LINE
  5
1CB
330
1F
100
AcDbEntity
  8
C-9
  6
Continuous
 62
     6
370
     5
100
AcDbLine
 10
-1521.339640892556
 20
920.4297922789585
 30
0.0
 11
-1517.339473045876
 21
916.4298533141148
 31
0.0
  0
LINE
  5
1CC
330
1F
100
AcDbEntity
  8
C-9
  6
Continuous
 62
     6
370
     5
100
AcDbLine
 10
-1521.339640892556
 20
923.2579172789586
 30
0.0
 11
-1517.339473045876
 21
919.258008831693
 31
0.0
  0
LINE
  5
1CD
330
1F
100
AcDbEntity
  8
C-9
  6
Continuous
 62
     6
370
     5
100
AcDbLine
 10
-1521.339640892556
 20
926.0865610777867
 30
0.0
 11
-1517.339473045876
 21
922.0866221129429
 31
0.0
  0
LINE
  5
1CE
330
1F
100
AcDbEntity
  8
C-9
  6
Continuous
 62
     6
370
     5
100
AcDbLine
 10
-1521.339640892556
 20
928.9151743590367
 30
0.0
 11
-1517.339473045876
 21
924.915265911771
 31
0.0
  0
LINE
  5
1CF
330
1F
100
AcDbEntity
  8
C-9
  6
Continuous
 62
     6
370
     5
100
AcDbLine
 10
-1521.339640892556
 20
931.7433298766149
 30
0.0
 11
-1517.339473045876
 21
927.7433909117711
 31
0.0
  0
LINE
  5
1D0
330
1F
100
AcDbEntity
  8
C-9
  6
Continuous
 62
     6
370
     5
100
AcDbLine
 10
-1521.339640892556
 20
934.5719431578648
 30
0.0
 11
-1517.339473045876
 21
930.5720347105992
 31
0.0
  0
LINE
  5
1D1
330
1F
100
AcDbEntity
  8
C-9
  6
Continuous
 62
     6
370
     5
100
AcDbLine
 10
-1521.339640892556
 20
937.4005869566929
 30
0.0
 11
-1517.339473045876
 21
933.4001597105993
 31
0.0
  0
LINE
  5
1D2
330
1F
100
AcDbEntity
  8
C-9
  6
Continuous
 62
     6
370
     5
100
AcDbLine
 10
-1521.339640892556
 20
940.2287119566929
 30
0.0
 11
-1517.339473045876
 21
936.2288035094274
 31
0.0
  0
LINE
  5
1D3
330
1F
100
AcDbEntity
  8
C-9
  6
Continuous
 62
     6
370
     5
100
AcDbLine
 10
-1521.339640892556
 20
943.056867474271
 30
0.0
 11
-1517.339473045876
 21
939.0569285094273
 31
0.0
  0
LINE
  5
1D4
330
1F
100
AcDbEntity
  8
C-9
  6
Continuous
 62
     6
370
     5
100
AcDbLine
 10
-1521.339640892556
 20
945.885480755521
 30
0.0
 11
-1517.339473045876
 21
941.8855723082555
 31
0.0
  0
LINE
  5
1D5
330
1F
100
AcDbEntity
  8
C-9
  6
Continuous
 62
     6
370
     5
100
AcDbLine
 10
-1519.750178612283
 20
947.1246470152867
 30
0.0
 11
-1517.339473045876
 21
944.7141855895054
 31
0.0
  0
LINE
  5
1D6
330
1F
100
AcDbEntity
  8
C-9
  6
Continuous
 62
     6
370
     5
100
AcDbLine
 10
-1521.339640892556
 20
841.5110148131383
 30
0.0
 11
-1517.339473045876
 21
845.5109385191929
 31
0.0
  0
LINE
  5
1D7
330
1F
100
AcDbEntity
  8
C-9
  6
Continuous
 62
     6
370
     5
100
AcDbLine
 10
-1521.339640892556
 20
844.3396586119663
 30
0.0
 11
-1517.339473045876
 21
848.339567059232
 31
0.0
  0
LINE
  5
1D8
330
1F
100
AcDbEntity
  8
C-9
  6
Continuous
 62
     6
370
     5
100
AcDbLine
 10
-1521.339640892556
 20
847.1677836119665
 30
0.0
 11
-1517.339473045876
 21
851.167707318021
 31
0.0
  0
LINE
  5
1D9
330
1F
100
AcDbEntity
  8
C-9
  6
Continuous
 62
     6
370
     5
100
AcDbLine
 10
-1521.339640892556
 20
849.9964121520054
 30
0.0
 11
-1517.339473045876
 21
853.9963358580601
 31
0.0
  0
LINE
  5
1DA
330
1F
100
AcDbEntity
  8
C-9
  6
Continuous
 62
     6
370
     5
100
AcDbLine
 10
-1521.339640892556
 20
852.8245524107945
 30
0.0
 11
-1517.339473045876
 21
856.8249643980993
 31
0.0
  0
LINE
  5
1DB
330
1F
100
AcDbEntity
  8
C-9
  6
Continuous
 62
     6
370
     5
100
AcDbLine
 10
-1521.339640892556
 20
855.6531809508335
 30
0.0
 11
-1517.339473045876
 21
859.6531046568883
 31
0.0
  0
LINE
  5
1DC
330
1F
100
AcDbEntity
  8
C-9
  6
Continuous
 62
     6
370
     5
100
AcDbLine
 10
-1521.339640892556
 20
858.4813212096226
 30
0.0
 11
-1517.339473045876
 21
862.4817331969274
 31
0.0
  0
LINE
  5
1DD
330
1F
100
AcDbEntity
  8
C-9
  6
Continuous
 62
     6
370
     5
100
AcDbLine
 10
-1521.339640892556
 20
861.3099497496617
 30
0.0
 11
-1517.339473045876
 21
865.3098734557165
 31
0.0
  0
LINE
  5
1DE
330
1F
100
AcDbEntity
  8
C-9
  6
Continuous
 62
     6
370
     5
100
AcDbLine
 10
-1521.339640892556
 20
864.1385782897008
 30
0.0
 11
-1517.339473045876
 21
868.1385019957554
 31
0.0
  0
LINE
  5
1DF
330
1F
100
AcDbEntity
  8
C-9
  6
Continuous
 62
     6
370
     5
100
AcDbLine
 10
-1521.339640892556
 20
866.9667185484899
 30
0.0
 11
-1517.339473045876
 21
870.9666422545445
 31
0.0
  0
LINE
  5
1E0
330
1F
100
AcDbEntity
  8
C-9
  6
Continuous
 62
     6
370
     5
100
AcDbLine
 10
-1521.339640892556
 20
869.795347088529
 30
0.0
 11
-1517.339473045876
 21
873.7952707945835
 31
0.0
  0
LINE
  5
1E1
330
1F
100
AcDbEntity
  8
C-9
  6
Continuous
 62
     6
370
     5
100
AcDbLine
 10
-1521.339640892556
 20
872.623487347318
 30
0.0
 11
-1517.339473045876
 21
876.6239145934117
 31
0.0
  0
LINE
  5
1E2
330
1F
100
AcDbEntity
  8
C-9
  6
Continuous
 62
     6
370
     5
100
AcDbLine
 10
-1521.339640892556
 20
875.4521311461461
 30
0.0
 11
-1517.339473045876
 21
879.4520395934117
 31
0.0
  0
LINE
  5
1E3
330
1F
100
AcDbEntity
  8
C-9
  6
Continuous
 62
     6
370
     5
100
AcDbLine
 10
-1521.339640892556
 20
878.280256146146
 30
0.0
 11
-1517.339473045876
 21
882.2806833922398
 31
0.0
  0
LINE
  5
1E4
330
1F
100
AcDbEntity
  8
C-9
  6
Continuous
 62
     6
370
     5
100
AcDbLine
 10
-1521.339640892556
 20
881.1088999449743
 30
0.0
 11
-1517.339473045876
 21
885.1088083922399
 31
0.0
  0
LINE
  5
1E5
330
1F
100
AcDbEntity
  8
C-9
  6
Continuous
 62
     6
370
     5
100
AcDbLine
 10
-1521.339640892556
 20
883.9375132262242
 30
0.0
 11
-1517.339473045876
 21
887.9374216734898
 31
0.0
  0
LINE
  5
1E6
330
1F
100
AcDbEntity
  8
C-9
  6
Continuous
 62
     6
370
     5
100
AcDbLine
 10
-1521.339640892556
 20
886.7656382262243
 30
0.0
 11
-1517.339473045876
 21
890.765577191068
 31
0.0
  0
LINE
  5
1E7
330
1F
100
AcDbEntity
  8
C-9
  6
Continuous
 62
     6
370
     5
100
AcDbLine
 10
-1521.339640892556
 20
889.5942820250524
 30
0.0
 11
-1517.339473045876
 21
893.5941904723179
 31
0.0
  0
LINE
  5
1E8
330
1F
100
AcDbEntity
  8
C-9
  6
Continuous
 62
     6
370
     5
100
AcDbLine
 10
-1521.339640892556
 20
892.4224070250523
 30
0.0
 11
-1517.339473045876
 21
896.422834271146
 31
0.0
  0
LINE
  5
1E9
330
1F
100
AcDbEntity
  8
C-9
  6
Continuous
 62
     6
370
     5
100
AcDbLine
 10
-1521.339640892556
 20
895.2510508238805
 30
0.0
 11
-1517.339473045876
 21
899.2509592711461
 31
0.0
  0
LINE
  5
1EA
330
1F
100
AcDbEntity
  8
C-9
  6
Continuous
 62
     6
370
     5
100
AcDbLine
 10
-1521.339640892556
 20
898.0791758238804
 30
0.0
 11
-1517.339473045876
 21
902.0796030699742
 31
0.0
  0
LINE
  5
1EB
330
1F
100
AcDbEntity
  8
C-9
  6
Continuous
 62
     6
370
     5
100
AcDbLine
 10
-1521.339640892556
 20
900.9078196227085
 30
0.0
 11
-1517.339473045876
 21
904.9077280699743
 31
0.0
  0
LINE
  5
1EC
330
1F
100
AcDbEntity
  8
C-9
  6
Continuous
 62
     6
370
     5
100
AcDbLine
 10
-1521.339640892556
 20
903.7364634215368
 30
0.0
 11
-1517.339473045876
 21
907.7363718688024
 31
0.0
  0
LINE
  5
1ED
330
1F
100
AcDbEntity
  8
C-9
  6
Continuous
 62
     6
370
     5
100
AcDbLine
 10
-1521.339640892556
 20
906.5645884215367
 30
0.0
 11
-1517.339473045876
 21
910.5644968688023
 31
0.0
  0
LINE
  5
1EE
330
1F
100
AcDbEntity
  8
C-9
  6
Continuous
 62
     6
370
     5
100
AcDbLine
 10
-1521.339640892556
 20
909.3932322203648
 30
0.0
 11
-1517.339473045876
 21
913.3931406676305
 31
0.0
  0
LINE
  5
1EF
330
1F
100
AcDbEntity
  8
C-9
  6
Continuous
 62
     6
370
     5
100
AcDbLine
 10
-1521.339640892556
 20
912.2213572203648
 30
0.0
 11
-1517.339473045876
 21
916.2212656676304
 31
0.0
  0
LINE
  5
1F0
330
1F
100
AcDbEntity
  8
C-9
  6
Continuous
 62
     6
370
     5
100
AcDbLine
 10
-1521.339640892556
 20
915.0499705016148
 30
0.0
 11
-1517.339473045876
 21
919.0499094664585
 31
0.0
  0
LINE
  5
1F1
330
1F
100
AcDbEntity
  8
C-9
  6
Continuous
 62
     6
370
     5
100
AcDbLine
 10
-1521.339640892556
 20
917.878614300443
 30
0.0
 11
-1517.339473045876
 21
921.8785227477086
 31
0.0
  0
LINE
  5
1F2
330
1F
100
AcDbEntity
  8
C-9
  6
Continuous
 62
     6
370
     5
100
AcDbLine
 10
-1521.339640892556
 20
920.7067393004429
 30
0.0
 11
-1517.339473045876
 21
924.7066782652867
 31
0.0
  0
LINE
  5
1F3
330
1F
100
AcDbEntity
  8
C-9
  6
Continuous
 62
     6
370
     5
100
AcDbLine
 10
-1521.339640892556
 20
923.535383099271
 30
0.0
 11
-1517.339473045876
 21
927.5352915465368
 31
0.0
  0
LINE
  5
1F4
330
1F
100
AcDbEntity
  8
C-9
  6
Continuous
 62
     6
370
     5
100
AcDbLine
 10
-1521.339640892556
 20
926.363508099271
 30
0.0
 11
-1517.339473045876
 21
930.3634470641148
 31
0.0
  0
LINE
  5
1F5
330
1F
100
AcDbEntity
  8
C-9
  6
Continuous
 62
     6
370
     5
100
AcDbLine
 10
-1521.339640892556
 20
929.1921518980992
 30
0.0
 11
-1517.339473045876
 21
933.1920603453648
 31
0.0
  0
LINE
  5
1F6
330
1F
100
AcDbEntity
  8
C-9
  6
Continuous
 62
     6
370
     5
100
AcDbLine
 10
-1521.339640892556
 20
932.0202768980993
 30
0.0
 11
-1517.339473045876
 21
936.020704144193
 31
0.0
  0
LINE
  5
1F7
330
1F
100
AcDbEntity
  8
C-9
  6
Continuous
 62
     6
370
     5
100
AcDbLine
 10
-1521.339640892556
 20
934.8489206969273
 30
0.0
 11
-1517.339473045876
 21
938.8488291441929
 31
0.0
  0
LINE
  5
1F8
330
1F
100
AcDbEntity
  8
C-9
  6
Continuous
 62
     6
370
     5
100
AcDbLine
 10
-1521.339640892556
 20
937.6775339781773
 30
0.0
 11
-1517.339473045876
 21
941.677472943021
 31
0.0
  0
LINE
  5
1F9
330
1F
100
AcDbEntity
  8
C-9
  6
Continuous
 62
     6
370
     5
100
AcDbLine
 10
-1521.339640892556
 20
940.5056894957554
 30
0.0
 11
-1517.339473045876
 21
944.505597943021
 31
0.0
  0
LINE
  5
1FA
330
1F
100
AcDbEntity
  8
C-9
  6
Continuous
 62
     6
370
     5
100
AcDbLine
 10
-1521.339640892556
 20
943.3338144957554
 30
0.0
 11
-1517.549067772439
 21
947.1246470152867
 31
0.0
  0
LINE
  5
1FB
330
1F
100
AcDbEntity
  8
C-9
  6
Continuous
 62
     6
370
     5
100
AcDbLine
 10
-1521.339640892556
 20
946.1624582945836
 30
0.0
 11
-1520.377696312478
 21
947.1246470152867
 31
0.0
  0
LINE
  5
1FC
330
1F
100
AcDbEntity
  8
C-9
  6
Continuous
 62
     6
370
     5
100
AcDbLine
 10
-1506.339823998025
 20
853.6827067076695
 30
0.0
 11
-1502.33990029197
 21
857.6826304137242
 31
0.0
  0
LINE
  5
1FD
330
1F
100
AcDbEntity
  8
C-9
  6
Continuous
 62
     6
370
     5
100
AcDbLine
 10
-1506.339823998025
 20
856.5108469664585
 30
0.0
 11
-1502.33990029197
 21
860.5112589537633
 31
0.0
  0
LINE
  5
1FE
330
1F
100
AcDbEntity
  8
C-9
  6
Continuous
 62
     6
370
     5
100
AcDbLine
 10
-1506.339823998025
 20
859.3394755064976
 30
0.0
 11
-1502.33990029197
 21
863.3393992125524
 31
0.0
  0
LINE
  5
1FF
330
1F
100
AcDbEntity
  8
C-9
  6
Continuous
 62
     6
370
     5
100
AcDbLine
 10
-1506.339823998025
 20
862.1681040465367
 30
0.0
 11
-1502.33990029197
 21
866.1680277525915
 31
0.0
  0
LINE
  5
200
330
1F
100
AcDbEntity
  8
C-9
  6
Continuous
 62
     6
370
     5
100
AcDbLine
 10
-1506.339823998025
 20
864.9962443053257
 30
0.0
 11
-1502.33990029197
 21
868.9961527525913
 31
0.0
  0
LINE
  5
201
330
1F
100
AcDbEntity
  8
C-9
  6
Continuous
 62
     6
370
     5
100
AcDbLine
 10
-1506.339823998025
 20
867.8248728453649
 30
0.0
 11
-1502.33990029197
 21
871.8247965514195
 31
0.0
  0
LINE
  5
202
330
1F
100
AcDbEntity
  8
C-9
  6
Continuous
 62
     6
370
     5
100
AcDbLine
 10
-1506.339823998025
 20
870.653013104154
 30
0.0
 11
-1502.33990029197
 21
874.6534250914585
 31
0.0
  0
LINE
  5
203
330
1F
100
AcDbEntity
  8
C-9
  6
Continuous
 62
     6
370
     5
100
AcDbLine
 10
-1506.339823998025
 20
873.481641644193
 30
0.0
 11
-1502.33990029197
 21
877.4815500914586
 31
0.0
  0
LINE
  5
204
330
1F
100
AcDbEntity
  8
C-9
  6
Continuous
 62
     6
370
     5
100
AcDbLine
 10
-1506.339823998025
 20
876.3102854430211
 30
0.0
 11
-1502.33990029197
 21
880.3101938902867
 31
0.0
  0
LINE
  5
205
330
1F
100
AcDbEntity
  8
C-9
  6
Continuous
 62
     6
370
     5
100
AcDbLine
 10
-1506.339823998025
 20
879.138410443021
 30
0.0
 11
-1502.33990029197
 21
883.1383188902868
 31
0.0
  0
LINE
  5
206
330
1F
100
AcDbEntity
  8
C-9
  6
Continuous
 62
     6
370
     5
100
AcDbLine
 10
-1506.339823998025
 20
881.9670237242711
 30
0.0
 11
-1502.33990029197
 21
885.9669626891149
 31
0.0
  0
LINE
  5
207
330
1F
100
AcDbEntity
  8
C-9
  6
Continuous
 62
     6
370
     5
100
AcDbLine
 10
-1506.339823998025
 20
884.7951792418492
 30
0.0
 11
-1502.33990029197
 21
888.7950876891148
 31
0.0
  0
LINE
  5
208
330
1F
100
AcDbEntity
  8
C-9
  6
Continuous
 62
     6
370
     5
100
AcDbLine
 10
-1506.339823998025
 20
887.6237925230993
 30
0.0
 11
-1502.33990029197
 21
891.623731487943
 31
0.0
  0
LINE
  5
209
330
1F
100
AcDbEntity
  8
C-9
  6
Continuous
 62
     6
370
     5
100
AcDbLine
 10
-1506.339823998025
 20
890.4519480406773
 30
0.0
 11
-1502.33990029197
 21
894.4523447691929
 31
0.0
  0
LINE
  5
20A
330
1F
100
AcDbEntity
  8
C-9
  6
Continuous
 62
     6
370
     5
100
AcDbLine
 10
-1506.339823998025
 20
893.2805613219273
 30
0.0
 11
-1502.33990029197
 21
897.280500286771
 31
0.0
  0
LINE
  5
20B
330
1F
100
AcDbEntity
  8
C-9
  6
Continuous
 62
     6
370
     5
100
AcDbLine
 10
-1506.339823998025
 20
896.1087168395055
 30
0.0
 11
-1502.33990029197
 21
900.1091135680211
 31
0.0
  0
LINE
  5
20C
330
1F
100
AcDbEntity
  8
C-9
  6
Continuous
 62
     6
370
     5
100
AcDbLine
 10
-1506.339823998025
 20
898.9373301207554
 30
0.0
 11
-1502.33990029197
 21
902.9372690855992
 31
0.0
  0
LINE
  5
20D
330
1F
100
AcDbEntity
  8
C-9
  6
Continuous
 62
     6
370
     5
100
AcDbLine
 10
-1506.339823998025
 20
901.7659739195835
 30
0.0
 11
-1502.33990029197
 21
905.7658823668493
 31
0.0
  0
LINE
  5
20E
330
1F
100
AcDbEntity
  8
C-9
  6
Continuous
 62
     6
370
     5
100
AcDbLine
 10
-1506.339823998025
 20
904.5940989195835
 30
0.0
 11
-1502.33990029197
 21
908.5940378844273
 31
0.0
  0
LINE
  5
20F
330
1F
100
AcDbEntity
  8
C-9
  6
Continuous
 62
     6
370
     5
100
AcDbLine
 10
-1506.339823998025
 20
907.4227427184117
 30
0.0
 11
-1502.33990029197
 21
911.4226511656773
 31
0.0
  0
LINE
  5
210
330
1F
100
AcDbEntity
  8
C-9
  6
Continuous
 62
     6
370
     5
100
AcDbLine
 10
-1506.339823998025
 20
910.2508677184118
 30
0.0
 11
-1502.33990029197
 21
914.2512949645055
 31
0.0
  0
LINE
  5
211
330
1F
100
AcDbEntity
  8
C-9
  6
Continuous
 62
     6
370
     5
100
AcDbLine
 10
-1506.339823998025
 20
913.0795115172398
 30
0.0
 11
-1502.33990029197
 21
917.0794199645054
 31
0.0
  0
LINE
  5
212
330
1F
100
AcDbEntity
  8
C-9
  6
Continuous
 62
     6
370
     5
100
AcDbLine
 10
-1506.339823998025
 20
915.9076365172399
 30
0.0
 11
-1502.33990029197
 21
919.9080637633335
 31
0.0
  0
LINE
  5
213
330
1F
100
AcDbEntity
  8
C-9
  6
Continuous
 62
     6
370
     5
100
AcDbLine
 10
-1506.339823998025
 20
918.736280316068
 30
0.0
 11
-1502.33990029197
 21
922.7361887633335
 31
0.0
  0
LINE
  5
214
330
1F
100
AcDbEntity
  8
C-9
  6
Continuous
 62
     6
370
     5
100
AcDbLine
 10
-1506.339823998025
 20
921.5648935973179
 30
0.0
 11
-1502.33990029197
 21
925.5648325621617
 31
0.0
  0
LINE
  5
215
330
1F
100
AcDbEntity
  8
C-9
  6
Continuous
 62
     6
370
     5
100
AcDbLine
 10
-1506.339823998025
 20
924.3930491148961
 30
0.0
 11
-1502.33990029197
 21
928.3929575621618
 31
0.0
  0
LINE
  5
216
330
1F
100
AcDbEntity
  8
C-9
  6
Continuous
 62
     6
370
     5
100
AcDbLine
 10
-1506.339823998025
 20
927.221662396146
 30
0.0
 11
-1502.33990029197
 21
931.2216013609898
 31
0.0
  0
LINE
  5
217
330
1F
100
AcDbEntity
  8
C-9
  6
Continuous
 62
     6
370
     5
100
AcDbLine
 10
-1506.339823998025
 20
930.0498179137242
 30
0.0
 11
-1502.33990029197
 21
934.0502146422398
 31
0.0
  0
LINE
  5
218
330
1F
100
AcDbEntity
  8
C-9
  6
Continuous
 62
     6
370
     5
100
AcDbLine
 10
-1506.339823998025
 20
932.8784311949743
 30
0.0
 11
-1502.33990029197
 21
936.878370159818
 31
0.0
  0
LINE
  5
219
330
1F
100
AcDbEntity
  8
C-9
  6
Continuous
 62
     6
370
     5
100
AcDbLine
 10
-1506.339823998025
 20
935.7065867125523
 30
0.0
 11
-1502.33990029197
 21
939.7064951598179
 31
0.0
  0
LINE
  5
21A
330
1F
100
AcDbEntity
  8
C-9
  6
Continuous
 62
     6
370
     5
100
AcDbLine
 10
-1506.339823998025
 20
938.5351999938024
 30
0.0
 11
-1502.33990029197
 21
942.5351389586461
 31
0.0
  0
LINE
  5
21B
330
1F
100
AcDbEntity
  8
C-9
  6
Continuous
 62
     6
370
     5
100
AcDbLine
 10
-1506.339823998025
 20
941.3638437926304
 30
0.0
 11
-1502.33990029197
 21
945.363752239896
 31
0.0
  0
LINE
  5
21C
330
1F
100
AcDbEntity
  8
C-9
  6
Continuous
 62
     6
370
     5
100
AcDbLine
 10
-1506.339823998025
 20
944.1919687926304
 30
0.0
 11
-1503.407389915993
 21
947.1246470152867
 31
0.0
  0
LINE
  5
21D
330
1F
100
AcDbEntity
  8
C-9
  6
Continuous
 62
     6
370
     5
100
AcDbLine
 10
-1506.339823998025
 20
947.0206125914586
 30
0.0
 11
-1506.235774315408
 21
947.1246470152867
 31
0.0
  0
LINE
  5
21E
330
1F
100
AcDbEntity
  8
C-9
  6
Continuous
 62
     6
370
     5
100
AcDbLine
 10
-1506.339823998025
 20
854.5185679137242
 30
0.0
 11
-1504.943599022439
 21
853.1223276793492
 31
0.0
  0
LINE
  5
21F
330
1F
100
AcDbEntity
  8
C-9
  6
Continuous
 62
     6
370
     5
100
AcDbLine
 10
-1506.339823998025
 20
857.3466929137243
 30
0.0
 11
-1503.355372704079
 21
854.3624857604038
 31
0.0
  0
LINE
  5
220
330
1F
100
AcDbEntity
  8
C-9
  6
Continuous
 62
     6
370
     5
100
AcDbLine
 10
-1506.339823998025
 20
860.1753367125524
 30
0.0
 11
-1502.33990029197
 21
856.1754130064976
 31
0.0
  0
LINE
  5
221
330
1F
100
AcDbEntity
  8
C-9
  6
Continuous
 62
     6
370
     5
100
AcDbLine
 10
-1506.339823998025
 20
863.0034617125523
 30
0.0
 11
-1502.33990029197
 21
859.0035380064977
 31
0.0
  0
LINE
  5
222
330
1F
100
AcDbEntity
  8
C-9
  6
Continuous
 62
     6
370
     5
100
AcDbLine
 10
-1506.339823998025
 20
865.8320902525913
 30
0.0
 11
-1502.33990029197
 21
861.8321818053257
 31
0.0
  0
LINE
  5
223
330
1F
100
AcDbEntity
  8
C-9
  6
Continuous
 62
     6
370
     5
100
AcDbLine
 10
-1506.339823998025
 20
868.6602305113804
 30
0.0
 11
-1502.33990029197
 21
864.6603068053258
 31
0.0
  0
LINE
  5
224
330
1F
100
AcDbEntity
  8
C-9
  6
Continuous
 62
     6
370
     5
100
AcDbLine
 10
-1506.339823998025
 20
871.4888590514195
 30
0.0
 11
-1502.33990029197
 21
867.488950604154
 31
0.0
  0
LINE
  5
225
330
1F
100
AcDbEntity
  8
C-9
  6
Continuous
 62
     6
370
     5
100
AcDbLine
 10
-1506.339823998025
 20
874.3169993102085
 30
0.0
 11
-1502.33990029197
 21
870.3170756041538
 31
0.0
  0
LINE
  5
226
330
1F
100
AcDbEntity
  8
C-9
  6
Continuous
 62
     6
370
     5
100
AcDbLine
 10
-1506.339823998025
 20
877.1456431090367
 30
0.0
 11
-1502.33990029197
 21
873.1457041441929
 31
0.0
  0
LINE
  5
227
330
1F
100
AcDbEntity
  8
C-9
  6
Continuous
 62
     6
370
     5
100
AcDbLine
 10
-1506.339823998025
 20
879.9742563902868
 30
0.0
 11
-1502.33990029197
 21
875.974347943021
 31
0.0
  0
LINE
  5
228
330
1F
100
AcDbEntity
  8
C-9
  6
Continuous
 62
     6
370
     5
100
AcDbLine
 10
-1506.339823998025
 20
882.8024119078648
 30
0.0
 11
-1502.33990029197
 21
878.802472943021
 31
0.0
  0
LINE
  5
229
330
1F
100
AcDbEntity
  8
C-9
  6
Continuous
 62
     6
370
     5
100
AcDbLine
 10
-1506.339823998025
 20
885.6310251891148
 30
0.0
 11
-1502.33990029197
 21
881.6311167418492
 31
0.0
  0
LINE
  5
22A
330
1F
100
AcDbEntity
  8
C-9
  6
Continuous
 62
     6
370
     5
100
AcDbLine
 10
-1506.339823998025
 20
888.4591501891148
 30
0.0
 11
-1502.33990029197
 21
884.4592417418493
 31
0.0
  0
LINE
  5
22B
330
1F
100
AcDbEntity
  8
C-9
  6
Continuous
 62
     6
370
     5
100
AcDbLine
 10
-1506.339823998025
 20
891.2877939879429
 30
0.0
 11
-1502.33990029197
 21
887.2878855406773
 31
0.0
  0
LINE
  5
22C
330
1F
100
AcDbEntity
  8
C-9
  6
Continuous
 62
     6
370
     5
100
AcDbLine
 10
-1506.339823998025
 20
894.115918987943
 30
0.0
 11
-1502.33990029197
 21
890.1160105406774
 31
0.0
  0
LINE
  5
22D
330
1F
100
AcDbEntity
  8
C-9
  6
Continuous
 62
     6
370
     5
100
AcDbLine
 10
-1506.339823998025
 20
896.944562786771
 30
0.0
 11
-1502.33990029197
 21
892.9446543395055
 31
0.0
  0
LINE
  5
22E
330
1F
100
AcDbEntity
  8
C-9
  6
Continuous
 62
     6
370
     5
100
AcDbLine
 10
-1506.339823998025
 20
899.7732065855992
 30
0.0
 11
-1502.33990029197
 21
895.7732676207554
 31
0.0
  0
LINE
  5
22F
330
1F
100
AcDbEntity
  8
C-9
  6
Continuous
 62
     6
370
     5
100
AcDbLine
 10
-1506.339823998025
 20
902.6013315855993
 30
0.0
 11
-1502.33990029197
 21
898.6014231383336
 31
0.0
  0
LINE
  5
230
330
1F
100
AcDbEntity
  8
C-9
  6
Continuous
 62
     6
370
     5
100
AcDbLine
 10
-1506.339823998025
 20
905.4299753844273
 30
0.0
 11
-1502.33990029197
 21
901.4300364195835
 31
0.0
  0
LINE
  5
231
330
1F
100
AcDbEntity
  8
C-9
  6
Continuous
 62
     6
370
     5
100
AcDbLine
 10
-1506.339823998025
 20
908.2585886656773
 30
0.0
 11
-1502.33990029197
 21
904.2581919371617
 31
0.0
  0
LINE
  5
232
330
1F
100
AcDbEntity
  8
C-9
  6
Continuous
 62
     6
370
     5
100
AcDbLine
 10
-1506.339823998025
 20
911.0867441832555
 30
0.0
 11
-1502.33990029197
 21
907.0868052184118
 31
0.0
  0
LINE
  5
233
330
1F
100
AcDbEntity
  8
C-9
  6
Continuous
 62
     6
370
     5
100
AcDbLine
 10
-1506.339823998025
 20
913.9148691832554
 30
0.0
 11
-1502.33990029197
 21
909.9149607359898
 31
0.0
  0
LINE
  5
234
330
1F
100
AcDbEntity
  8
C-9
  6
Continuous
 62
     6
370
     5
100
AcDbLine
 10
-1506.339823998025
 20
916.7434824645055
 30
0.0
 11
-1502.33990029197
 21
912.7435740172399
 31
0.0
  0
LINE
  5
235
330
1F
100
AcDbEntity
  8
C-9
  6
Continuous
 62
     6
370
     5
100
AcDbLine
 10
-1506.339823998025
 20
919.5721262633335
 30
0.0
 11
-1502.33990029197
 21
915.5716990172398
 31
0.0
  0
LINE
  5
236
330
1F
100
AcDbEntity
  8
C-9
  6
Continuous
 62
     6
370
     5
100
AcDbLine
 10
-1506.339823998025
 20
922.4002512633336
 30
0.0
 11
-1502.33990029197
 21
918.4003428160679
 31
0.0
  0
LINE
  5
237
330
1F
100
AcDbEntity
  8
C-9
  6
Continuous
 62
     6
370
     5
100
AcDbLine
 10
-1506.339823998025
 20
925.2288950621618
 30
0.0
 11
-1502.33990029197
 21
921.2289866148961
 31
0.0
  0
LINE
  5
238
330
1F
100
AcDbEntity
  8
C-9
  6
Continuous
 62
     6
370
     5
100
AcDbLine
 10
-1506.339823998025
 20
928.0570200621617
 30
0.0
 11
-1502.33990029197
 21
924.057111614896
 31
0.0
  0
LINE
  5
239
330
1F
100
AcDbEntity
  8
C-9
  6
Continuous
 62
     6
370
     5
100
AcDbLine
 10
-1506.339823998025
 20
930.8856638609899
 30
0.0
 11
-1502.33990029197
 21
926.8857554137242
 31
0.0
  0
LINE
  5
23A
330
1F
100
AcDbEntity
  8
C-9
  6
Continuous
 62
     6
370
     5
100
AcDbLine
 10
-1506.339823998025
 20
933.714307659818
 30
0.0
 11
-1502.33990029197
 21
929.7138804137242
 31
0.0
  0
LINE
  5
23B
330
1F
100
AcDbEntity
  8
C-9
  6
Continuous
 62
     6
370
     5
100
AcDbLine
 10
-1506.339823998025
 20
936.5424326598179
 30
0.0
 11
-1502.33990029197
 21
932.5425242125523
 31
0.0
  0
LINE
  5
23C
330
1F
100
AcDbEntity
  8
C-9
  6
Continuous
 62
     6
370
     5
100
AcDbLine
 10
-1506.339823998025
 20
939.3710459410679
 30
0.0
 11
-1502.33990029197
 21
935.3711374938024
 31
0.0
  0
LINE
  5
23D
330
1F
100
AcDbEntity
  8
C-9
  6
Continuous
 62
     6
370
     5
100
AcDbLine
 10
-1506.339823998025
 20
942.199201458646
 30
0.0
 11
-1502.33990029197
 21
938.1992624938023
 31
0.0
  0
LINE
  5
23E
330
1F
100
AcDbEntity
  8
C-9
  6
Continuous
 62
     6
370
     5
100
AcDbLine
 10
-1506.339823998025
 20
945.0278147398961
 30
0.0
 11
-1502.33990029197
 21
941.0279062926304
 31
0.0
  0
LINE
  5
23F
330
1F
100
AcDbEntity
  8
C-9
  6
Continuous
 62
     6
370
     5
100
AcDbLine
 10
-1505.608256615212
 20
947.1246470152867
 30
0.0
 11
-1502.33990029197
 21
943.8560312926304
 31
0.0
  0
LINE
  5
240
330
1F
100
AcDbEntity
  8
C-9
  6
Continuous
 62
     6
370
     5
100
AcDbLine
 10
-1502.779887474587
 20
947.1246470152867
 30
0.0
 11
-1502.33990029197
 21
946.6846750914585
 31
0.0
  0
LINE
  5
241
330
1F
100
AcDbEntity
  8
C-9
  6
Continuous
 62
     6
370
     5
100
AcDbLine
 10
-1491.339503563454
 20
864.9744394957554
 30
0.0
 11
-1490.648829735329
 21
864.2837504088413
 31
0.0
  0
LINE
  5
242
330
1F
100
AcDbEntity
  8
C-9
  6
Continuous
 62
     6
370
     5
100
AcDbLine
 10
-1491.339503563454
 20
867.8025797545445
 30
0.0
 11
-1489.06060341697
 21
865.523908489896
 31
0.0
  0
LINE
  5
243
330
1F
100
AcDbEntity
  8
C-9
  6
Continuous
 62
     6
370
     5
100
AcDbLine
 10
-1491.339503563454
 20
870.6312082945835
 30
0.0
 11
-1487.472377098611
 21
866.7635782897008
 31
0.0
  0
LINE
  5
244
330
1F
100
AcDbEntity
  8
C-9
  6
Continuous
 62
     6
370
     5
100
AcDbLine
 10
-1491.339503563454
 20
873.4593485533726
 30
0.0
 11
-1487.3395798574
 21
869.459424847318
 31
0.0
  0
LINE
  5
245
330
1F
100
AcDbEntity
  8
C-9
  6
Continuous
 62
     6
370
     5
100
AcDbLine
 10
-1491.339503563454
 20
876.2879770934117
 30
0.0
 11
-1487.3395798574
 21
872.288053387357
 31
0.0
  0
LINE
  5
246
330
1F
100
AcDbEntity
  8
C-9
  6
Continuous
 62
     6
370
     5
100
AcDbLine
 10
-1491.339503563454
 20
879.1161020934118
 30
0.0
 11
-1487.3395798574
 21
875.116193646146
 31
0.0
  0
LINE
  5
247
330
1F
100
AcDbEntity
  8
C-9
  6
Continuous
 62
     6
370
     5
100
AcDbLine
 10
-1491.339503563454
 20
881.9447458922399
 30
0.0
 11
-1487.3395798574
 21
877.9448069273961
 31
0.0
  0
LINE
  5
248
330
1F
100
AcDbEntity
  8
C-9
  6
Continuous
 62
     6
370
     5
100
AcDbLine
 10
-1491.339503563454
 20
884.7733591734898
 30
0.0
 11
-1487.3395798574
 21
880.7729624449742
 31
0.0
  0
LINE
  5
249
330
1F
100
AcDbEntity
  8
C-9
  6
Continuous
 62
     6
370
     5
100
AcDbLine
 10
-1491.339503563454
 20
887.601514691068
 30
0.0
 11
-1487.3395798574
 21
883.6015757262243
 31
0.0
  0
LINE
  5
24A
330
1F
100
AcDbEntity
  8
C-9
  6
Continuous
 62
     6
370
     5
100
AcDbLine
 10
-1491.339503563454
 20
890.4301279723179
 30
0.0
 11
-1487.3395798574
 21
886.4297312438023
 31
0.0
  0
LINE
  5
24B
330
1F
100
AcDbEntity
  8
C-9
  6
Continuous
 62
     6
370
     5
100
AcDbLine
 10
-1491.339503563454
 20
893.258283489896
 30
0.0
 11
-1487.3395798574
 21
889.2583445250523
 31
0.0
  0
LINE
  5
24C
330
1F
100
AcDbEntity
  8
C-9
  6
Continuous
 62
     6
370
     5
100
AcDbLine
 10
-1491.339503563454
 20
896.0868967711461
 30
0.0
 11
-1487.3395798574
 21
892.0869883238805
 31
0.0
  0
LINE
  5
24D
330
1F
100
AcDbEntity
  8
C-9
  6
Continuous
 62
     6
370
     5
100
AcDbLine
 10
-1491.339503563454
 20
898.9150522887242
 30
0.0
 11
-1487.3395798574
 21
894.9151133238804
 31
0.0
  0
LINE
  5
24E
330
1F
100
AcDbEntity
  8
C-9
  6
Continuous
 62
     6
370
     5
100
AcDbLine
 10
-1491.339503563454
 20
901.7436655699743
 30
0.0
 11
-1487.3395798574
 21
897.7437571227085
 31
0.0
  0
LINE
  5
24F
330
1F
100
AcDbEntity
  8
C-9
  6
Continuous
 62
     6
370
     5
100
AcDbLine
 10
-1491.339503563454
 20
904.5723093688024
 30
0.0
 11
-1487.3395798574
 21
900.5718821227085
 31
0.0
  0
LINE
  5
250
330
1F
100
AcDbEntity
  8
C-9
  6
Continuous
 62
     6
370
     5
100
AcDbLine
 10
-1491.339503563454
 20
907.4004343688023
 30
0.0
 11
-1487.3395798574
 21
903.4005259215367
 31
0.0
  0
LINE
  5
251
330
1F
100
AcDbEntity
  8
C-9
  6
Continuous
 62
     6
370
     5
100
AcDbLine
 10
-1491.339503563454
 20
910.2290781676305
 30
0.0
 11
-1487.3395798574
 21
906.2291392027868
 31
0.0
  0
LINE
  5
252
330
1F
100
AcDbEntity
  8
C-9
  6
Continuous
 62
     6
370
     5
100
AcDbLine
 10
-1491.339503563454
 20
913.0572031676304
 30
0.0
 11
-1487.3395798574
 21
909.0572947203648
 31
0.0
  0
LINE
  5
253
330
1F
100
AcDbEntity
  8
C-9
  6
Continuous
 62
     6
370
     5
100
AcDbLine
 10
-1491.339503563454
 20
915.8858469664585
 30
0.0
 11
-1487.3395798574
 21
911.8859080016148
 31
0.0
  0
LINE
  5
254
330
1F
100
AcDbEntity
  8
C-9
  6
Continuous
 62
     6
370
     5
100
AcDbLine
 10
-1491.339503563454
 20
918.7139719664585
 30
0.0
 11
-1487.3395798574
 21
914.714063519193
 31
0.0
  0
LINE
  5
255
330
1F
100
AcDbEntity
  8
C-9
  6
Continuous
 62
     6
370
     5
100
AcDbLine
 10
-1491.339503563454
 20
921.5426157652867
 30
0.0
 11
-1487.3395798574
 21
917.5426768004429
 31
0.0
  0
LINE
  5
256
330
1F
100
AcDbEntity
  8
C-9
  6
Continuous
 62
     6
370
     5
100
AcDbLine
 10
-1491.339503563454
 20
924.3712290465368
 30
0.0
 11
-1487.3395798574
 21
920.3708323180211
 31
0.0
  0
LINE
  5
257
330
1F
100
AcDbEntity
  8
C-9
  6
Continuous
 62
     6
370
     5
100
AcDbLine
 10
-1491.339503563454
 20
927.1993845641148
 30
0.0
 11
-1487.3395798574
 21
923.199445599271
 31
0.0
  0
LINE
  5
258
330
1F
100
AcDbEntity
  8
C-9
  6
Continuous
 62
     6
370
     5
100
AcDbLine
 10
-1491.339503563454
 20
930.0279978453648
 30
0.0
 11
-1487.3395798574
 21
926.0280893980992
 31
0.0
  0
LINE
  5
259
330
1F
100
AcDbEntity
  8
C-9
  6
Continuous
 62
     6
370
     5
100
AcDbLine
 10
-1491.339503563454
 20
932.856153362943
 30
0.0
 11
-1487.3395798574
 21
928.8562143980993
 31
0.0
  0
LINE
  5
25A
330
1F
100
AcDbEntity
  8
C-9
  6
Continuous
 62
     6
370
     5
100
AcDbLine
 10
-1491.339503563454
 20
935.6847666441929
 30
0.0
 11
-1487.3395798574
 21
931.6843699156773
 31
0.0
  0
LINE
  5
25B
330
1F
100
AcDbEntity
  8
C-9
  6
Continuous
 62
     6
370
     5
100
AcDbLine
 10
-1491.339503563454
 20
938.5129221617711
 30
0.0
 11
-1487.3395798574
 21
934.5129831969274
 31
0.0
  0
LINE
  5
25C
330
1F
100
AcDbEntity
  8
C-9
  6
Continuous
 62
     6
370
     5
100
AcDbLine
 10
-1491.339503563454
 20
941.341535443021
 30
0.0
 11
-1487.3395798574
 21
937.3416269957555
 31
0.0
  0
LINE
  5
25D
330
1F
100
AcDbEntity
  8
C-9
  6
Continuous
 62
     6
370
     5
100
AcDbLine
 10
-1491.339503563454
 20
944.1696909605992
 30
0.0
 11
-1487.3395798574
 21
940.1697519957554
 31
0.0
  0
LINE
  5
25E
330
1F
100
AcDbEntity
  8
C-9
  6
Continuous
 62
     6
370
     5
100
AcDbLine
 10
-1491.339503563454
 20
946.9983042418492
 30
0.0
 11
-1487.3395798574
 21
942.9983957945836
 31
0.0
  0
LINE
  5
25F
330
1F
100
AcDbEntity
  8
C-9
  6
Continuous
 62
     6
370
     5
100
AcDbLine
 10
-1488.637217796853
 20
947.1246470152867
 30
0.0
 11
-1487.3395798574
 21
945.8270090758335
 31
0.0
  0
LINE
  5
260
330
1F
100
AcDbEntity
  8
C-9
  6
Continuous
 62
     6
370
     5
100
AcDbLine
 10
-1488.061488426736
 20
866.3037851988804
 30
0.0
 11
-1487.3395798574
 21
867.0256785094273
 31
0.0
  0
LINE
  5
261
330
1F
100
AcDbEntity
  8
C-9
  6
Continuous
 62
     6
370
     5
100
AcDbLine
 10
-1491.339503563454
 20
865.8543986022007
 30
0.0
 11
-1487.3395798574
 21
869.8543070494663
 31
0.0
  0
LINE
  5
262
330
1F
100
AcDbEntity
  8
C-9
  6
Continuous
 62
     6
370
     5
100
AcDbLine
 10
-1491.339503563454
 20
868.6825236022008
 30
0.0
 11
-1487.3395798574
 21
872.6824473082554
 31
0.0
  0
LINE
  5
263
330
1F
100
AcDbEntity
  8
C-9
  6
Continuous
 62
     6
370
     5
100
AcDbLine
 10
-1491.339503563454
 20
871.5111521422398
 30
0.0
 11
-1487.3395798574
 21
875.5110911070835
 31
0.0
  0
LINE
  5
264
330
1F
100
AcDbEntity
  8
C-9
  6
Continuous
 62
     6
370
     5
100
AcDbLine
 10
-1491.339503563454
 20
874.339307659818
 30
0.0
 11
-1487.3395798574
 21
878.3397043883336
 31
0.0
  0
LINE
  5
265
330
1F
100
AcDbEntity
  8
C-9
  6
Continuous
 62
     6
370
     5
100
AcDbLine
 10
-1491.339503563454
 20
877.1679209410679
 30
0.0
 11
-1487.3395798574
 21
881.1678599059117
 31
0.0
  0
LINE
  5
266
330
1F
100
AcDbEntity
  8
C-9
  6
Continuous
 62
     6
370
     5
100
AcDbLine
 10
-1491.339503563454
 20
879.9960764586461
 30
0.0
 11
-1487.3395798574
 21
883.9964731871618
 31
0.0
  0
LINE
  5
267
330
1F
100
AcDbEntity
  8
C-9
  6
Continuous
 62
     6
370
     5
100
AcDbLine
 10
-1491.339503563454
 20
882.824689739896
 30
0.0
 11
-1487.3395798574
 21
886.8246287047398
 31
0.0
  0
LINE
  5
268
330
1F
100
AcDbEntity
  8
C-9
  6
Continuous
 62
     6
370
     5
100
AcDbLine
 10
-1491.339503563454
 20
885.6533335387242
 30
0.0
 11
-1487.3395798574
 21
889.6532419859898
 31
0.0
  0
LINE
  5
269
330
1F
100
AcDbEntity
  8
C-9
  6
Continuous
 62
     6
370
     5
100
AcDbLine
 10
-1491.339503563454
 20
888.4814585387243
 30
0.0
 11
-1487.3395798574
 21
892.4813669859898
 31
0.0
  0
LINE
  5
26A
330
1F
100
AcDbEntity
  8
C-9
  6
Continuous
 62
     6
370
     5
100
AcDbLine
 10
-1491.339503563454
 20
891.3101023375523
 30
0.0
 11
-1487.3395798574
 21
895.3100107848179
 31
0.0
  0
LINE
  5
26B
330
1F
100
AcDbEntity
  8
C-9
  6
Continuous
 62
     6
370
     5
100
AcDbLine
 10
-1491.339503563454
 20
894.1382273375524
 30
0.0
 11
-1487.3395798574
 21
898.138135784818
 31
0.0
  0
LINE
  5
26C
330
1F
100
AcDbEntity
  8
C-9
  6
Continuous
 62
     6
370
     5
100
AcDbLine
 10
-1491.339503563454
 20
896.9668711363805
 30
0.0
 11
-1487.3395798574
 21
900.966779583646
 31
0.0
  0
LINE
  5
26D
330
1F
100
AcDbEntity
  8
C-9
  6
Continuous
 62
     6
370
     5
100
AcDbLine
 10
-1491.339503563454
 20
899.7954844176304
 30
0.0
 11
-1487.3395798574
 21
903.7954233824742
 31
0.0
  0
LINE
  5
26E
330
1F
100
AcDbEntity
  8
C-9
  6
Continuous
 62
     6
370
     5
100
AcDbLine
 10
-1491.339503563454
 20
902.6236399352086
 30
0.0
 11
-1487.3395798574
 21
906.6235483824743
 31
0.0
  0
LINE
  5
26F
330
1F
100
AcDbEntity
  8
C-9
  6
Continuous
 62
     6
370
     5
100
AcDbLine
 10
-1491.339503563454
 20
905.4522532164585
 30
0.0
 11
-1487.3395798574
 21
909.4521921813023
 31
0.0
  0
LINE
  5
270
330
1F
100
AcDbEntity
  8
C-9
  6
Continuous
 62
     6
370
     5
100
AcDbLine
 10
-1491.339503563454
 20
908.2804087340367
 30
0.0
 11
-1487.3395798574
 21
912.2803171813024
 31
0.0
  0
LINE
  5
271
330
1F
100
AcDbEntity
  8
C-9
  6
Continuous
 62
     6
370
     5
100
AcDbLine
 10
-1491.339503563454
 20
911.1090220152868
 30
0.0
 11
-1487.3395798574
 21
915.1089304625523
 31
0.0
  0
LINE
  5
272
330
1F
100
AcDbEntity
  8
C-9
  6
Continuous
 62
     6
370
     5
100
AcDbLine
 10
-1491.339503563454
 20
913.9371470152867
 30
0.0
 11
-1487.3395798574
 21
917.9375742613804
 31
0.0
  0
LINE
  5
273
330
1F
100
AcDbEntity
  8
C-9
  6
Continuous
 62
     6
370
     5
100
AcDbLine
 10
-1491.339503563454
 20
916.7657908141149
 30
0.0
 11
-1487.3395798574
 21
920.7656992613805
 31
0.0
  0
LINE
  5
274
330
1F
100
AcDbEntity
  8
C-9
  6
Continuous
 62
     6
370
     5
100
AcDbLine
 10
-1491.339503563454
 20
919.594434612943
 30
0.0
 11
-1487.3395798574
 21
923.5943430602085
 31
0.0
  0
LINE
  5
275
330
1F
100
AcDbEntity
  8
C-9
  6
Continuous
 62
     6
370
     5
100
AcDbLine
 10
-1491.339503563454
 20
922.4225596129429
 30
0.0
 11
-1487.3395798574
 21
926.4224680602086
 31
0.0
  0
LINE
  5
276
330
1F
100
AcDbEntity
  8
C-9
  6
Continuous
 62
     6
370
     5
100
AcDbLine
 10
-1491.339503563454
 20
925.2512034117711
 30
0.0
 11
-1487.3395798574
 21
929.2511118590368
 31
0.0
  0
LINE
  5
277
330
1F
100
AcDbEntity
  8
C-9
  6
Continuous
 62
     6
370
     5
100
AcDbLine
 10
-1491.339503563454
 20
928.079328411771
 30
0.0
 11
-1487.3395798574
 21
932.0792368590367
 31
0.0
  0
LINE
  5
278
330
1F
100
AcDbEntity
  8
C-9
  6
Continuous
 62
     6
370
     5
100
AcDbLine
 10
-1491.339503563454
 20
930.9079722105992
 30
0.0
 11
-1487.3395798574
 21
934.9078806578649
 31
0.0
  0
LINE
  5
279
330
1F
100
AcDbEntity
  8
C-9
  6
Continuous
 62
     6
370
     5
100
AcDbLine
 10
-1491.339503563454
 20
933.7365854918493
 30
0.0
 11
-1487.3395798574
 21
937.736524456693
 31
0.0
  0
LINE
  5
27A
330
1F
100
AcDbEntity
  8
C-9
  6
Continuous
 62
     6
370
     5
100
AcDbLine
 10
-1491.339503563454
 20
936.5647104918492
 30
0.0
 11
-1487.3395798574
 21
940.5646494566929
 31
0.0
  0
LINE
  5
27B
330
1F
100
AcDbEntity
  8
C-9
  6
Continuous
 62
     6
370
     5
100
AcDbLine
 10
-1491.339503563454
 20
939.3928660094273
 30
0.0
 11
-1487.3395798574
 21
943.3932627379429
 31
0.0
  0
LINE
  5
27C
330
1F
100
AcDbEntity
  8
C-9
  6
Continuous
 62
     6
370
     5
100
AcDbLine
 10
-1491.339503563454
 20
942.2214792906773
 30
0.0
 11
-1487.3395798574
 21
946.221418255521
 31
0.0
  0
LINE
  5
27D
330
1F
100
AcDbEntity
  8
C-9
  6
Continuous
 62
     6
370
     5
100
AcDbLine
 10
-1491.339503563454
 20
945.0501230895054
 30
0.0
 11
-1489.264979637673
 21
947.1246470152867
 31
0.0
  0
LINE
  5
27E
330
1F
100
AcDbEntity
  8
C-9
  6
Continuous
 62
     6
370
     5
100
AcDbLine
 10
-1475.156749046853
 20
876.3801401793492
 30
0.0
 11
-1472.339762962868
 21
879.1973704039585
 31
0.0
  0
LINE
  5
27F
330
1F
100
AcDbEntity
  8
C-9
  6
Continuous
 62
     6
370
     5
100
AcDbLine
 10
-1476.339686668923
 20
878.0255869566929
 30
0.0
 11
-1472.339762962868
 21
882.0259836852085
 31
0.0
  0
LINE
  5
280
330
1F
100
AcDbEntity
  8
C-9
  6
Continuous
 62
     6
370
     5
100
AcDbLine
 10
-1476.339686668923
 20
880.854200237943
 30
0.0
 11
-1472.339762962868
 21
884.8541392027868
 31
0.0
  0
LINE
  5
281
330
1F
100
AcDbEntity
  8
C-9
  6
Continuous
 62
     6
370
     5
100
AcDbLine
 10
-1476.339686668923
 20
883.682844036771
 30
0.0
 11
-1472.339762962868
 21
887.6827524840367
 31
0.0
  0
LINE
  5
282
330
1F
100
AcDbEntity
  8
C-9
  6
Continuous
 62
     6
370
     5
100
AcDbLine
 10
-1476.339686668923
 20
886.5109690367711
 30
0.0
 11
-1472.339762962868
 21
890.5109080016149
 31
0.0
  0
LINE
  5
283
330
1F
100
AcDbEntity
  8
C-9
  6
Continuous
 62
     6
370
     5
100
AcDbLine
 10
-1476.339686668923
 20
889.3396128355993
 30
0.0
 11
-1472.339762962868
 21
893.3395212828648
 31
0.0
  0
LINE
  5
284
330
1F
100
AcDbEntity
  8
C-9
  6
Continuous
 62
     6
370
     5
100
AcDbLine
 10
-1476.339686668923
 20
892.1677378355992
 30
0.0
 11
-1472.339762962868
 21
896.1676768004429
 31
0.0
  0
LINE
  5
285
330
1F
100
AcDbEntity
  8
C-9
  6
Continuous
 62
     6
370
     5
100
AcDbLine
 10
-1476.339686668923
 20
894.9963816344274
 30
0.0
 11
-1472.339762962868
 21
898.996290081693
 31
0.0
  0
LINE
  5
286
330
1F
100
AcDbEntity
  8
C-9
  6
Continuous
 62
     6
370
     5
100
AcDbLine
 10
-1476.339686668923
 20
897.8245066344273
 30
0.0
 11
-1472.339762962868
 21
901.824445599271
 31
0.0
  0
LINE
  5
287
330
1F
100
AcDbEntity
  8
C-9
  6
Continuous
 62
     6
370
     5
100
AcDbLine
 10
-1476.339686668923
 20
900.6531504332554
 30
0.0
 11
-1472.339762962868
 21
904.6530588805211
 31
0.0
  0
LINE
  5
288
330
1F
100
AcDbEntity
  8
C-9
  6
Continuous
 62
     6
370
     5
100
AcDbLine
 10
-1476.339686668923
 20
903.4812754332554
 30
0.0
 11
-1472.339762962868
 21
907.4817026793493
 31
0.0
  0
LINE
  5
289
330
1F
100
AcDbEntity
  8
C-9
  6
Continuous
 62
     6
370
     5
100
AcDbLine
 10
-1476.339686668923
 20
906.3099192320835
 30
0.0
 11
-1472.339762962868
 21
910.3098276793492
 31
0.0
  0
LINE
  5
28A
330
1F
100
AcDbEntity
  8
C-9
  6
Continuous
 62
     6
370
     5
100
AcDbLine
 10
-1476.339686668923
 20
909.1385325133336
 30
0.0
 11
-1472.339762962868
 21
913.1384714781774
 31
0.0
  0
LINE
  5
28B
330
1F
100
AcDbEntity
  8
C-9
  6
Continuous
 62
     6
370
     5
100
AcDbLine
 10
-1476.339686668923
 20
911.9666880309117
 30
0.0
 11
-1472.339762962868
 21
915.9665964781773
 31
0.0
  0
LINE
  5
28C
330
1F
100
AcDbEntity
  8
C-9
  6
Continuous
 62
     6
370
     5
100
AcDbLine
 10
-1476.339686668923
 20
914.7953013121617
 30
0.0
 11
-1472.339762962868
 21
918.7952402770054
 31
0.0
  0
LINE
  5
28D
330
1F
100
AcDbEntity
  8
C-9
  6
Continuous
 62
     6
370
     5
100
AcDbLine
 10
-1476.339686668923
 20
917.6239451109899
 30
0.0
 11
-1472.339762962868
 21
921.6238535582555
 31
0.0
  0
LINE
  5
28E
330
1F
100
AcDbEntity
  8
C-9
  6
Continuous
 62
     6
370
     5
100
AcDbLine
 10
-1476.339686668923
 20
920.4520701109898
 30
0.0
 11
-1472.339762962868
 21
924.4520090758335
 31
0.0
  0
LINE
  5
28F
330
1F
100
AcDbEntity
  8
C-9
  6
Continuous
 62
     6
370
     5
100
AcDbLine
 10
-1476.339686668923
 20
923.2807139098179
 30
0.0
 11
-1472.339762962868
 21
927.2806223570836
 31
0.0
  0
LINE
  5
290
330
1F
100
AcDbEntity
  8
C-9
  6
Continuous
 62
     6
370
     5
100
AcDbLine
 10
-1476.339686668923
 20
926.1088389098179
 30
0.0
 11
-1472.339762962868
 21
930.1087778746617
 31
0.0
  0
LINE
  5
291
330
1F
100
AcDbEntity
  8
C-9
  6
Continuous
 62
     6
370
     5
100
AcDbLine
 10
-1476.339686668923
 20
928.937482708646
 30
0.0
 11
-1472.339762962868
 21
932.9373911559117
 31
0.0
  0
LINE
  5
292
330
1F
100
AcDbEntity
  8
C-9
  6
Continuous
 62
     6
370
     5
100
AcDbLine
 10
-1476.339686668923
 20
931.7656077086461
 30
0.0
 11
-1472.339762962868
 21
935.7655466734899
 31
0.0
  0
LINE
  5
293
330
1F
100
AcDbEntity
  8
C-9
  6
Continuous
 62
     6
370
     5
100
AcDbLine
 10
-1476.339686668923
 20
934.5942515074742
 30
0.0
 11
-1472.339762962868
 21
938.5941599547398
 31
0.0
  0
LINE
  5
294
330
1F
100
AcDbEntity
  8
C-9
  6
Continuous
 62
     6
370
     5
100
AcDbLine
 10
-1476.339686668923
 20
937.4223765074743
 30
0.0
 11
-1472.339762962868
 21
941.4228037535679
 31
0.0
  0
LINE
  5
295
330
1F
100
AcDbEntity
  8
C-9
  6
Continuous
 62
     6
370
     5
100
AcDbLine
 10
-1476.339686668923
 20
940.2510203063023
 30
0.0
 11
-1472.339762962868
 21
944.2509287535679
 31
0.0
  0
LINE
  5
296
330
1F
100
AcDbEntity
  8
C-9
  6
Continuous
 62
     6
370
     5
100
AcDbLine
 10
-1476.339686668923
 20
943.0796335875523
 30
0.0
 11
-1472.339762962868
 21
947.079572552396
 31
0.0
  0
LINE
  5
297
330
1F
100
AcDbEntity
  8
C-9
  6
Continuous
 62
     6
370
     5
100
AcDbLine
 10
-1476.339686668923
 20
945.9077891051305
 30
0.0
 11
-1475.123057640603
 21
947.1246470152867
 31
0.0
  0
LINE
  5
298
330
1F
100
AcDbEntity
  8
C-9
  6
Continuous
 62
     6
370
     5
100
AcDbLine
 10
-1476.339686668923
 20
878.2584665953648
 30
0.0
 11
-1474.766566551736
 21
876.6853464781774
 31
0.0
  0
LINE
  5
299
330
1F
100
AcDbEntity
  8
C-9
  6
Continuous
 62
     6
370
     5
100
AcDbLine
 10
-1476.339686668923
 20
881.0870798766149
 30
0.0
 11
-1473.178096092751
 21
877.9254893004429
 31
0.0
  0
LINE
  5
29A
330
1F
100
AcDbEntity
  8
C-9
  6
Continuous
 62
     6
370
     5
100
AcDbLine
 10
-1476.339686668923
 20
883.9152353941929
 30
0.0
 11
-1472.339762962868
 21
879.9152964293492
 31
0.0
  0
LINE
  5
29B
330
1F
100
AcDbEntity
  8
C-9
  6
Continuous
 62
     6
370
     5
100
AcDbLine
 10
-1476.339686668923
 20
886.7438486754429
 30
0.0
 11
-1472.339762962868
 21
882.7439402281773
 31
0.0
  0
LINE
  5
29C
330
1F
100
AcDbEntity
  8
C-9
  6
Continuous
 62
     6
370
     5
100
AcDbLine
 10
-1476.339686668923
 20
889.5719736754429
 30
0.0
 11
-1472.339762962868
 21
885.5720652281774
 31
0.0
  0
LINE
  5
29D
330
1F
100
AcDbEntity
  8
C-9
  6
Continuous
 62
     6
370
     5
100
AcDbLine
 10
-1476.339686668923
 20
892.400617474271
 30
0.0
 11
-1472.339762962868
 21
888.4007090270054
 31
0.0
  0
LINE
  5
29E
330
1F
100
AcDbEntity
  8
C-9
  6
Continuous
 62
     6
370
     5
100
AcDbLine
 10
-1476.339686668923
 20
895.2287424742711
 30
0.0
 11
-1472.339762962868
 21
891.2288340270055
 31
0.0
  0
LINE
  5
29F
330
1F
100
AcDbEntity
  8
C-9
  6
Continuous
 62
     6
370
     5
100
AcDbLine
 10
-1476.339686668923
 20
898.0573862730992
 30
0.0
 11
-1472.339762962868
 21
894.0574778258336
 31
0.0
  0
LINE
  5
2A0
330
1F
100
AcDbEntity
  8
C-9
  6
Continuous
 62
     6
370
     5
100
AcDbLine
 10
-1476.339686668923
 20
900.8855112730993
 30
0.0
 11
-1472.339762962868
 21
896.8856028258335
 31
0.0
  0
LINE
  5
2A1
330
1F
100
AcDbEntity
  8
C-9
  6
Continuous
 62
     6
370
     5
100
AcDbLine
 10
-1476.339686668923
 20
903.7141550719274
 30
0.0
 11
-1472.339762962868
 21
899.7142466246618
 31
0.0
  0
LINE
  5
2A2
330
1F
100
AcDbEntity
  8
C-9
  6
Continuous
 62
     6
370
     5
100
AcDbLine
 10
-1476.339686668923
 20
906.5427988707554
 30
0.0
 11
-1472.339762962868
 21
902.5428599059117
 31
0.0
  0
LINE
  5
2A3
330
1F
100
AcDbEntity
  8
C-9
  6
Continuous
 62
     6
370
     5
100
AcDbLine
 10
-1476.339686668923
 20
909.3709238707555
 30
0.0
 11
-1472.339762962868
 21
905.3710154234898
 31
0.0
  0
LINE
  5
2A4
330
1F
100
AcDbEntity
  8
C-9
  6
Continuous
 62
     6
370
     5
100
AcDbLine
 10
-1476.339686668923
 20
912.1995371520054
 30
0.0
 11
-1472.339762962868
 21
908.1996287047399
 31
0.0
  0
LINE
  5
2A5
330
1F
100
AcDbEntity
  8
C-9
  6
Continuous
 62
     6
370
     5
100
AcDbLine
 10
-1476.339686668923
 20
915.0281809508335
 30
0.0
 11
-1472.339762962868
 21
911.0277537047398
 31
0.0
  0
LINE
  5
2A6
330
1F
100
AcDbEntity
  8
C-9
  6
Continuous
 62
     6
370
     5
100
AcDbLine
 10
-1476.339686668923
 20
917.8563059508336
 30
0.0
 11
-1472.339762962868
 21
913.856397503568
 31
0.0
  0
LINE
  5
2A7
330
1F
100
AcDbEntity
  8
C-9
  6
Continuous
 62
     6
370
     5
100
AcDbLine
 10
-1476.339686668923
 20
920.6849497496617
 30
0.0
 11
-1472.339762962868
 21
916.6850413023961
 31
0.0
  0
LINE
  5
2A8
330
1F
100
AcDbEntity
  8
C-9
  6
Continuous
 62
     6
370
     5
100
AcDbLine
 10
-1476.339686668923
 20
923.5130747496618
 30
0.0
 11
-1472.339762962868
 21
919.513166302396
 31
0.0
  0
LINE
  5
2A9
330
1F
100
AcDbEntity
  8
C-9
  6
Continuous
 62
     6
370
     5
100
AcDbLine
 10
-1476.339686668923
 20
926.3417185484899
 30
0.0
 11
-1472.339762962868
 21
922.3418101012243
 31
0.0
  0
LINE
  5
2AA
330
1F
100
AcDbEntity
  8
C-9
  6
Continuous
 62
     6
370
     5
100
AcDbLine
 10
-1476.339686668923
 20
929.1698435484898
 30
0.0
 11
-1472.339762962868
 21
925.1699351012242
 31
0.0
  0
LINE
  5
2AB
330
1F
100
AcDbEntity
  8
C-9
  6
Continuous
 62
     6
370
     5
100
AcDbLine
 10
-1476.339686668923
 20
931.998487347318
 30
0.0
 11
-1472.339762962868
 21
927.9985789000523
 31
0.0
  0
LINE
  5
2AC
330
1F
100
AcDbEntity
  8
C-9
  6
Continuous
 62
     6
370
     5
100
AcDbLine
 10
-1476.339686668923
 20
934.8266123473179
 30
0.0
 11
-1472.339762962868
 21
930.8267039000523
 31
0.0
  0
LINE
  5
2AD
330
1F
100
AcDbEntity
  8
C-9
  6
Continuous
 62
     6
370
     5
100
AcDbLine
 10
-1476.339686668923
 20
937.655256146146
 30
0.0
 11
-1472.339762962868
 21
933.6553476988804
 31
0.0
  0
LINE
  5
2AE
330
1F
100
AcDbEntity
  8
C-9
  6
Continuous
 62
     6
370
     5
100
AcDbLine
 10
-1476.339686668923
 20
940.483869427396
 30
0.0
 11
-1472.339762962868
 21
936.4834726988805
 31
0.0
  0
LINE
  5
2AF
330
1F
100
AcDbEntity
  8
C-9
  6
Continuous
 62
     6
370
     5
100
AcDbLine
 10
-1476.339686668923
 20
943.3120249449742
 30
0.0
 11
-1472.339762962868
 21
939.3120859801304
 31
0.0
  0
LINE
  5
2B0
330
1F
100
AcDbEntity
  8
C-9
  6
Continuous
 62
     6
370
     5
100
AcDbLine
 10
-1476.339686668923
 20
946.1406382262243
 30
0.0
 11
-1472.339762962868
 21
942.1407297789585
 31
0.0
  0
LINE
  5
2B1
330
1F
100
AcDbEntity
  8
C-9
  6
Continuous
 62
     6
370
     5
100
AcDbLine
 10
-1474.495555199197
 20
947.1246470152867
 30
0.0
 11
-1472.339762962868
 21
944.9688547789585
 31
0.0
  0
LINE
  5
2B2
330
1F
100
AcDbEntity
  8
C-9
  6
Continuous
 62
     6
370
     5
100
AcDbLine
 10
-1461.339854515603
 20
888.7143381773961
 30
0.0
 11
-1460.472041405251
 21
887.8467539488804
 31
0.0
  0
LINE
  5
2B3
330
1F
100
AcDbEntity
  8
C-9
  6
Continuous
 62
     6
370
     5
100
AcDbLine
 10
-1461.339854515603
 20
891.542951458646
 30
0.0
 11
-1458.883830345681
 21
889.0869272887243
 31
0.0
  0
LINE
  5
2B4
330
1F
100
AcDbEntity
  8
C-9
  6
Continuous
 62
     6
370
     5
100
AcDbLine
 10
-1461.339854515603
 20
894.3711069762242
 30
0.0
 11
-1457.339946068337
 21
890.3711680113804
 31
0.0
  0
LINE
  5
2B5
330
1F
100
AcDbEntity
  8
C-9
  6
Continuous
 62
     6
370
     5
100
AcDbLine
 10
-1461.339854515603
 20
897.1997202574743
 30
0.0
 11
-1457.339946068337
 21
893.1998118102086
 31
0.0
  0
LINE
  5
2B6
330
1F
100
AcDbEntity
  8
C-9
  6
Continuous
 62
     6
370
     5
100
AcDbLine
 10
-1461.339854515603
 20
900.0278757750523
 30
0.0
 11
-1457.339946068337
 21
896.0279368102085
 31
0.0
  0
LINE
  5
2B7
330
1F
100
AcDbEntity
  8
C-9
  6
Continuous
 62
     6
370
     5
100
AcDbLine
 10
-1461.339854515603
 20
902.8564890563024
 30
0.0
 11
-1457.339946068337
 21
898.8565806090367
 31
0.0
  0
LINE
  5
2B8
330
1F
100
AcDbEntity
  8
C-9
  6
Continuous
 62
     6
370
     5
100
AcDbLine
 10
-1461.339854515603
 20
905.6846445738804
 30
0.0
 11
-1457.339946068337
 21
901.6847056090367
 31
0.0
  0
LINE
  5
2B9
330
1F
100
AcDbEntity
  8
C-9
  6
Continuous
 62
     6
370
     5
100
AcDbLine
 10
-1461.339854515603
 20
908.5132578551304
 30
0.0
 11
-1457.339946068337
 21
904.5133494078648
 31
0.0
  0
LINE
  5
2BA
330
1F
100
AcDbEntity
  8
C-9
  6
Continuous
 62
     6
370
     5
100
AcDbLine
 10
-1461.339854515603
 20
911.3419016539586
 30
0.0
 11
-1457.339946068337
 21
907.3414744078649
 31
0.0
  0
LINE
  5
2BB
330
1F
100
AcDbEntity
  8
C-9
  6
Continuous
 62
     6
370
     5
100
AcDbLine
 10
-1461.339854515603
 20
914.1700266539585
 30
0.0
 11
-1457.339946068337
 21
910.1701182066929
 31
0.0
  0
LINE
  5
2BC
330
1F
100
AcDbEntity
  8
C-9
  6
Continuous
 62
     6
370
     5
100
AcDbLine
 10
-1461.339854515603
 20
916.9986704527867
 30
0.0
 11
-1457.339946068337
 21
912.9987314879429
 31
0.0
  0
LINE
  5
2BD
330
1F
100
AcDbEntity
  8
C-9
  6
Continuous
 62
     6
370
     5
100
AcDbLine
 10
-1461.339854515603
 20
919.8267954527867
 30
0.0
 11
-1457.339946068337
 21
915.8268870055211
 31
0.0
  0
LINE
  5
2BE
330
1F
100
AcDbEntity
  8
C-9
  6
Continuous
 62
     6
370
     5
100
AcDbLine
 10
-1461.339854515603
 20
922.6554392516148
 30
0.0
 11
-1457.339946068337
 21
918.655500286771
 31
0.0
  0
LINE
  5
2BF
330
1F
100
AcDbEntity
  8
C-9
  6
Continuous
 62
     6
370
     5
100
AcDbLine
 10
-1461.339854515603
 20
925.4835642516149
 30
0.0
 11
-1457.339946068337
 21
921.4836558043493
 31
0.0
  0
LINE
  5
2C0
330
1F
100
AcDbEntity
  8
C-9
  6
Continuous
 62
     6
370
     5
100
AcDbLine
 10
-1461.339854515603
 20
928.3122080504429
 30
0.0
 11
-1457.339946068337
 21
924.3122690855992
 31
0.0
  0
LINE
  5
2C1
330
1F
100
AcDbEntity
  8
C-9
  6
Continuous
 62
     6
370
     5
100
AcDbLine
 10
-1461.339854515603
 20
931.1408213316929
 30
0.0
 11
-1457.339946068337
 21
927.1404246031773
 31
0.0
  0
LINE
  5
2C2
330
1F
100
AcDbEntity
  8
C-9
  6
Continuous
 62
     6
370
     5
100
AcDbLine
 10
-1461.339854515603
 20
933.9689768492711
 30
0.0
 11
-1457.339946068337
 21
929.9690378844274
 31
0.0
  0
LINE
  5
2C3
330
1F
100
AcDbEntity
  8
C-9
  6
Continuous
 62
     6
370
     5
100
AcDbLine
 10
-1461.339854515603
 20
936.797590130521
 30
0.0
 11
-1457.339946068337
 21
932.7976816832554
 31
0.0
  0
LINE
  5
2C4
330
1F
100
AcDbEntity
  8
C-9
  6
Continuous
 62
     6
370
     5
100
AcDbLine
 10
-1461.339854515603
 20
939.6257456480993
 30
0.0
 11
-1457.339946068337
 21
935.6258066832555
 31
0.0
  0
LINE
  5
2C5
330
1F
100
AcDbEntity
  8
C-9
  6
Continuous
 62
     6
370
     5
100
AcDbLine
 10
-1461.339854515603
 20
942.4543589293492
 30
0.0
 11
-1457.339946068337
 21
938.4544504820835
 31
0.0
  0
LINE
  5
2C6
330
1F
100
AcDbEntity
  8
C-9
  6
Continuous
 62
     6
370
     5
100
AcDbLine
 10
-1461.339854515603
 20
945.2830027281773
 30
0.0
 11
-1457.339946068337
 21
941.2825754820835
 31
0.0
  0
LINE
  5
2C7
330
1F
100
AcDbEntity
  8
C-9
  6
Continuous
 62
     6
370
     5
100
AcDbLine
 10
-1460.353389061501
 20
947.1246470152867
 30
0.0
 11
-1457.339946068337
 21
944.1112192809118
 31
0.0
  0
LINE
  5
2C8
330
1F
100
AcDbEntity
  8
C-9
  6
Continuous
 62
     6
370
     5
100
AcDbLine
 10
-1457.525004662087
 20
947.1246470152867
 30
0.0
 11
-1457.339946068337
 21
946.9393442809117
 31
0.0
  0
LINE
  5
2C9
330
1F
100
AcDbEntity
  8
C-9
  6
Continuous
 62
     6
370
     5
100
AcDbLine
 10
-1461.339854515603
 20
887.3691233336461
 30
0.0
 11
-1457.339946068337
 21
891.3690622984899
 31
0.0
  0
LINE
  5
2CA
330
1F
100
AcDbEntity
  8
C-9
  6
Continuous
 62
     6
370
     5
100
AcDbLine
 10
-1461.339854515603
 20
890.1972788512242
 30
0.0
 11
-1457.339946068337
 21
894.1971872984898
 31
0.0
  0
LINE
  5
2CB
330
1F
100
AcDbEntity
  8
C-9
  6
Continuous
 62
     6
370
     5
100
AcDbLine
 10
-1461.339854515603
 20
893.0258921324742
 30
0.0
 11
-1457.339946068337
 21
897.0258310973179
 31
0.0
  0
LINE
  5
2CC
330
1F
100
AcDbEntity
  8
C-9
  6
Continuous
 62
     6
370
     5
100
AcDbLine
 10
-1461.339854515603
 20
895.8540476500524
 30
0.0
 11
-1457.339946068337
 21
899.8539560973179
 31
0.0
  0
LINE
  5
2CD
330
1F
100
AcDbEntity
  8
C-9
  6
Continuous
 62
     6
370
     5
100
AcDbLine
 10
-1461.339854515603
 20
898.6826609313023
 30
0.0
 11
-1457.339946068337
 21
902.682599896146
 31
0.0
  0
LINE
  5
2CE
330
1F
100
AcDbEntity
  8
C-9
  6
Continuous
 62
     6
370
     5
100
AcDbLine
 10
-1461.339854515603
 20
901.5108164488805
 30
0.0
 11
-1457.339946068337
 21
905.5112131773961
 31
0.0
  0
LINE
  5
2CF
330
1F
100
AcDbEntity
  8
C-9
  6
Continuous
 62
     6
370
     5
100
AcDbLine
 10
-1461.339854515603
 20
904.3394297301304
 30
0.0
 11
-1457.339946068337
 21
908.3393686949742
 31
0.0
  0
LINE
  5
2D0
330
1F
100
AcDbEntity
  8
C-9
  6
Continuous
 62
     6
370
     5
100
AcDbLine
 10
-1461.339854515603
 20
907.1680735289585
 30
0.0
 11
-1457.339946068337
 21
911.1679819762242
 31
0.0
  0
LINE
  5
2D1
330
1F
100
AcDbEntity
  8
C-9
  6
Continuous
 62
     6
370
     5
100
AcDbLine
 10
-1461.339854515603
 20
909.9961985289586
 30
0.0
 11
-1457.339946068337
 21
913.9961069762242
 31
0.0
  0
LINE
  5
2D2
330
1F
100
AcDbEntity
  8
C-9
  6
Continuous
 62
     6
370
     5
100
AcDbLine
 10
-1461.339854515603
 20
912.8248423277867
 30
0.0
 11
-1457.339946068337
 21
916.8247507750523
 31
0.0
  0
LINE
  5
2D3
330
1F
100
AcDbEntity
  8
C-9
  6
Continuous
 62
     6
370
     5
100
AcDbLine
 10
-1461.339854515603
 20
915.6529673277868
 30
0.0
 11
-1457.339946068337
 21
919.6528757750524
 31
0.0
  0
LINE
  5
2D4
330
1F
100
AcDbEntity
  8
C-9
  6
Continuous
 62
     6
370
     5
100
AcDbLine
 10
-1461.339854515603
 20
918.4816111266149
 30
0.0
 11
-1457.339946068337
 21
922.4815195738804
 31
0.0
  0
LINE
  5
2D5
330
1F
100
AcDbEntity
  8
C-9
  6
Continuous
 62
     6
370
     5
100
AcDbLine
 10
-1461.339854515603
 20
921.3097361266148
 30
0.0
 11
-1457.339946068337
 21
925.3101633727085
 31
0.0
  0
LINE
  5
2D6
330
1F
100
AcDbEntity
  8
C-9
  6
Continuous
 62
     6
370
     5
100
AcDbLine
 10
-1461.339854515603
 20
924.138379925443
 30
0.0
 11
-1457.339946068337
 21
928.1382883727086
 31
0.0
  0
LINE
  5
2D7
330
1F
100
AcDbEntity
  8
C-9
  6
Continuous
 62
     6
370
     5
100
AcDbLine
 10
-1461.339854515603
 20
926.9669932066929
 30
0.0
 11
-1457.339946068337
 21
930.9669321715367
 31
0.0
  0
LINE
  5
2D8
330
1F
100
AcDbEntity
  8
C-9
  6
Continuous
 62
     6
370
     5
100
AcDbLine
 10
-1461.339854515603
 20
929.795148724271
 30
0.0
 11
-1457.339946068337
 21
933.7950571715368
 31
0.0
  0
LINE
  5
2D9
330
1F
100
AcDbEntity
  8
C-9
  6
Continuous
 62
     6
370
     5
100
AcDbLine
 10
-1461.339854515603
 20
932.6237620055211
 30
0.0
 11
-1457.339946068337
 21
936.6237009703649
 31
0.0
  0
LINE
  5
2DA
330
1F
100
AcDbEntity
  8
C-9
  6
Continuous
 62
     6
370
     5
100
AcDbLine
 10
-1461.339854515603
 20
935.4519175230992
 30
0.0
 11
-1457.339946068337
 21
939.4523142516148
 31
0.0
  0
LINE
  5
2DB
330
1F
100
AcDbEntity
  8
C-9
  6
Continuous
 62
     6
370
     5
100
AcDbLine
 10
-1461.339854515603
 20
938.2805308043493
 30
0.0
 11
-1457.339946068337
 21
942.2804392516148
 31
0.0
  0
LINE
  5
2DC
330
1F
100
AcDbEntity
  8
C-9
  6
Continuous
 62
     6
370
     5
100
AcDbLine
 10
-1461.339854515603
 20
941.1091746031773
 30
0.0
 11
-1457.339946068337
 21
945.1090830504429
 31
0.0
  0
LINE
  5
2DD
330
1F
100
AcDbEntity
  8
C-9
  6
Continuous
 62
     6
370
     5
100
AcDbLine
 10
-1461.339854515603
 20
943.9372996031773
 30
0.0
 11
-1458.152766502908
 21
947.1246470152867
 31
0.0
  0
LINE
  5
2DE
330
1F
100
AcDbEntity
  8
C-9
  6
Continuous
 62
     6
370
     5
100
AcDbLine
 10
-1461.339854515603
 20
946.7659434020055
 30
0.0
 11
-1460.981135643533
 21
947.1246470152867
 31
0.0
  0
LINE
  5
2DF
330
1F
100
AcDbEntity
  8
C-4
  6
Continuous
 62
     7
370
     9
100
AcDbLine
 10
-649.3383438954857
 20
997.1244028746617
 30
0.0
 11
-634.3387711415794
 21
997.1244028746617
 31
0.0
  0
LINE
  5
2E0
330
1F
100
AcDbEntity
  8
C-4
  6
Continuous
 62
     7
370
     9
100
AcDbLine
 10
-634.3387711415794
 20
937.1246164977085
 30
0.0
 11
-634.3387711415794
 21
1000.124463909818
 31
0.0
  0
LINE
  5
2E1
330
1F
100
AcDbEntity
  8
C-4
  6
Continuous
 62
     7
370
     9
100
AcDbLine
 10
-649.3383438954857
 20
937.1246164977085
 30
0.0
 11
-649.3383438954857
 21
1000.124463909818
 31
0.0
  0
LWPOLYLINE
  5
2E2
330
1F
100
AcDbEntity
  8
C-4
  6
Continuous
 62
     7
370
     9
100
AcDbPolyline
 90
        4
 70
     1
 43
2.0
 10
-1522.340342796853
 20
1069.12394511099
 42
0.4142135623731
 10
-1523.340342796853
 20
1070.12394511099
 42
0.4142135623731
 10
-1524.340342796853
 20
1069.12394511099
 42
0.4142135623731
 10
-1523.340342796853
 20
1068.12394511099
 42
0.4142135623731
  0
LWPOLYLINE
  5
2E3
330
1F
100
AcDbEntity
  8
C-4
  6
Continuous
 62
     7
370
     9
100
AcDbPolyline
 90
        4
 70
     1
 43
2.0
 10
-1520.339640892556
 20
1069.12394511099
 42
0.4142135623731
 10
-1521.339640892556
 20
1070.12394511099
 42
0.4142135623731
 10
-1522.339640892556
 20
1069.12394511099
 42
0.4142135623731
 10
-1521.339640892556
 20
1068.12394511099
 42
0.4142135623731
  0
LWPOLYLINE
  5
2E4
330
1F
100
AcDbEntity
  8
C-4
  6
Continuous
 62
     7
370
     9
100
AcDbPolyline
 90
        4
 70
     1
 43
2.0
 10
-526.3400528798605
 20
1069.12394511099
 42
0.4142135623731
 10
-527.3400528798605
 20
1070.12394511099
 42
0.4142135623731
 10
-528.3400528798605
 20
1069.12394511099
 42
0.4142135623731
 10
-527.3400528798605
 20
1068.12394511099
 42
0.4142135623731
  0
LWPOLYLINE
  5
2E5
330
1F
100
AcDbEntity
  8
C-4
  6
Continuous
 62
     7
370
     9
100
AcDbPolyline
 90
        4
 70
     1
 43
2.0
 10
-524.3403580556419
 20
1069.12394511099
 42
0.4142135623731
 10
-525.3403580556419
 20
1070.12394511099
 42
0.4142135623731
 10
-526.3403580556419
 20
1069.12394511099
 42
0.4142135623731
 10
-525.3403580556419
 20
1068.12394511099
 42
0.4142135623731
  0
LWPOLYLINE
  5
2E6
330
1F
100
AcDbEntity
  8
C-4
  6
Continuous
 62
     7
370
     9
100
AcDbPolyline
 90
        4
 70
     1
 43
2.0
 10
-1520.339640892556
 20
1149.123304241849
 42
0.4142135623731
 10
-1521.339640892556
 20
1150.123304241849
 42
0.4142135623731
 10
-1522.339640892556
 20
1149.123304241849
 42
0.4142135623731
 10
-1521.339640892556
 20
1148.123304241849
 42
0.4142135623731
  0
LWPOLYLINE
  5
2E7
330
1F
100
AcDbEntity
  8
C-4
  6
Continuous
 62
     7
370
     9
100
AcDbPolyline
 90
        4
 70
     1
 43
2.0
 10
-524.3403580556419
 20
1149.123304241849
 42
0.4142135623731
 10
-525.3403580556419
 20
1150.123304241849
 42
0.4142135623731
 10
-526.3403580556419
 20
1149.123304241849
 42
0.4142135623731
 10
-525.3403580556419
 20
1148.123304241849
 42
0.4142135623731
  0
LWPOLYLINE
  5
2E8
330
1F
100
AcDbEntity
  8
C-4
  6
Continuous
 62
     7
370
     9
100
AcDbPolyline
 90
        4
 70
     1
 43
2.0
 10
-648.3383438954857
 20
997.1244028746617
 42
0.4142135623731
 10
-649.3383438954857
 20
998.1244028746617
 42
0.4142135623731
 10
-650.3383438954857
 20
997.1244028746617
 42
0.4142135623731
 10
-649.3383438954857
 20
996.1244028746617
 42
0.4142135623731
  0
LWPOLYLINE
  5
2E9
330
1F
100
AcDbEntity
  8
C-4
  6
Continuous
 62
     7
370
     9
100
AcDbPolyline
 90
        4
 70
     1
 43
2.0
 10
-633.3387711415794
 20
997.1244028746617
 42
0.4142135623731
 10
-634.3387711415794
 20
998.1244028746617
 42
0.4142135623731
 10
-635.3387711415794
 20
997.1244028746617
 42
0.4142135623731
 10
-634.3387711415794
 20
996.1244028746617
 42
0.4142135623731
  0
TEXT
  5
2EA
330
1F
100
AcDbEntity
  8
C-4
  6
Continuous
 62
     2
370
     9
100
AcDbText
 10
-1549.301432884743
 20
1079.763212689115
 30
0.0
 40
30.48
  1
2
 41
0.9999999999999998
  7
ＭＳ ゴシック
100
AcDbText
  0
TEXT
  5
2EB
330
1F
100
AcDbEntity
  8
C-4
  6
Continuous
 62
     2
370
     9
100
AcDbText
 10
-1056.839640892556
 20
1079.763212689115
 30
0.0
 40
30.48
  1
994
 41
1.083333333333333
  7
ＭＳ ゴシック
100
AcDbText
  0
TEXT
  5
2EC
330
1F
100
AcDbEntity
  8
C-4
  6
Continuous
 62
     2
370
     9
100
AcDbText
 10
-553.3011734853294
 20
1079.763212689115
 30
0.0
 40
30.48
  1
2
 41
0.9999999999999998
  7
ＭＳ ゴシック
100
AcDbText
  0
TEXT
  5
2ED
330
1F
100
AcDbEntity
  8
C-4
  6
Continuous
 62
     2
370
     9
100
AcDbText
 10
-1055.839778221658
 20
1159.763609417631
 30
0.0
 40
30.48
  1
996
 41
1.083333333333333
  7
ＭＳ ゴシック
100
AcDbText
  0
TEXT
  5
2EE
330
1F
100
AcDbEntity
  8
C-5
  6
Continuous
 62
     2
370
     9
100
AcDbText
 10
-1292.839349068215
 20
636.2646384322178
 30
0.0
 40
30.48
  1
平面詳細図　Ｓ＝１：１０
 41
1.114583333333333
  7
ＭＳ ゴシック
100
AcDbText
  0
TEXT
  5
2EF
330
1F
100
AcDbEntity
  8
C-4
  6
Continuous
 62
     2
370
     9
100
AcDbText
 10
-663.0885880361107
 20
1007.764647015287
 30
0.0
 40
30.48
  1
15
 41
1.0625
  7
ＭＳ ゴシック
100
AcDbText
  0
LINE
  5
2F0
330
1F
100
AcDbEntity
  8
C-2
  6
Continuous
 62
     3
370
     9
100
AcDbLine
 10
525.7059632349733
 20
719.5132207108669
 30
0.0
 11
525.7059632349733
 21
949.5123242570095
 31
0.0
  0
LINE
  5
2F1
330
1F
100
AcDbEntity
  8
C-2
  6
Continuous
 62
     3
370
     9
100
AcDbLine
 10
485.7066956568482
 20
736.721346778982
 30
0.0
 11
485.7066956568482
 21
966.721430702322
 31
0.0
  0
LINE
  5
2F2
330
1F
100
AcDbEntity
  8
C-5
  6
Continuous
 62
     7
370
     9
100
AcDbLine
 10
614.0232239771608
 20
938.6199292374782
 30
0.0
 11
522.0493470240358
 21
855.4891766740016
 31
0.0
  0
LINE
  5
2F3
330
1F
100
AcDbEntity
  8
C-5
  6
Continuous
 62
     7
370
     9
100
AcDbLine
 10
522.0493470240358
 20
855.4891766740016
 30
0.0
 11
538.2481995630983
 21
874.530039711111
 31
0.0
  0
LINE
  5
2F4
330
1F
100
AcDbEntity
  8
C-5
  6
Continuous
 62
     7
370
     9
100
AcDbLine
 10
522.0493470240358
 20
855.4891766740016
 30
0.0
 11
542.6252747584107
 21
869.6883191300562
 31
0.0
  0
LINE
  5
2F5
330
1F
100
AcDbEntity
  8
C-5
  6
Continuous
 62
     7
370
     9
100
AcDbLine
 10
288.0801087427857
 20
658.5532178116969
 30
0.0
 11
726.1141663599732
 21
658.5532178116969
 31
0.0
  0
LINE
  5
2F6
330
1F
100
AcDbEntity
  8
C-9
  6
Continuous
 62
     6
370
     5
100
AcDbLine
 10
490.8962708521607
 20
736.112414283865
 30
0.0
 11
485.7066956568482
 21
740.4670895768336
 31
0.0
  0
LINE
  5
2F7
330
1F
100
AcDbEntity
  8
C-9
  6
Continuous
 62
     6
370
     5
100
AcDbLine
 10
524.3265687037233
 20
720.0612096024684
 30
0.0
 11
485.7066956568482
 21
752.4673413468532
 31
0.0
  0
LINE
  5
2F8
330
1F
100
AcDbEntity
  8
C-9
  6
Continuous
 62
     6
370
     5
100
AcDbLine
 10
490.2392884302857
 20
966.2621411515407
 30
0.0
 11
485.7066956568482
 21
963.6450757218531
 31
0.0
  0
LINE
  5
2F9
330
1F
100
AcDbEntity
  8
C-9
  6
Continuous
 62
     6
370
     5
100
AcDbLine
 10
502.4852601099732
 20
961.3322095109157
 30
0.0
 11
485.7066956568482
 21
951.64480106365
 31
0.0
  0
LINE
  5
2FA
330
1F
100
AcDbEntity
  8
C-9
  6
Continuous
 62
     6
370
     5
100
AcDbLine
 10
511.8763733912232
 20
954.7538708878689
 30
0.0
 11
485.7066956568482
 21
939.6450452042751
 31
0.0
  0
LINE
  5
2FB
330
1F
100
AcDbEntity
  8
C-9
  6
Continuous
 62
     6
370
     5
100
AcDbLine
 10
524.4811097193483
 20
950.0315503312282
 30
0.0
 11
485.7066956568482
 21
927.6448010636501
 31
0.0
  0
LINE
  5
2FC
330
1F
100
AcDbEntity
  8
C-9
  6
Continuous
 62
     6
370
     5
100
AcDbLine
 10
525.7059632349733
 20
946.9036816788845
 30
0.0
 11
520.9890442896607
 21
950.8619641495876
 31
0.0
  0
LINE
  5
2FD
330
1F
100
AcDbEntity
  8
C-9
  6
Continuous
 62
     6
370
     5
100
AcDbLine
 10
525.7059632349733
 20
934.9034070206814
 30
0.0
 11
487.7906800318482
 21
966.7189587784937
 31
0.0
  0
LINE
  5
2FE
330
1F
100
AcDbEntity
  8
C-9
  6
Continuous
 62
     6
370
     5
100
AcDbLine
 10
525.7059632349733
 20
722.7392148209743
 30
0.0
 11
521.9850159693482
 21
720.5908650590113
 31
0.0
  0
LINE
  5
2FF
330
1F
100
AcDbEntity
  8
C-9
  6
Continuous
 62
     6
370
     5
100
AcDbLine
 10
525.7059632349733
 20
734.7389783097437
 30
0.0
 11
510.2027894068482
 21
725.7883328629664
 31
0.0
  0
LINE
  5
300
330
1F
100
AcDbEntity
  8
C-9
  6
Continuous
 62
     6
370
     5
100
AcDbLine
 10
525.7059632349733
 20
746.7387341691189
 30
0.0
 11
500.7551575709107
 21
732.3334759904078
 31
0.0
  0
LINE
  5
301
330
1F
100
AcDbEntity
  8
C-9
  6
Continuous
 62
     6
370
     5
100
AcDbLine
 10
525.7059632349733
 20
758.7389859391384
 30
0.0
 11
487.6123353052857
 21
736.7456235123805
 31
0.0
  0
LINE
  5
302
330
1F
100
AcDbEntity
  8
C-9
  6
Continuous
 62
     6
370
     5
100
AcDbLine
 10
525.7059632349733
 20
730.9035519791773
 30
0.0
 11
485.7066956568482
 21
764.4671048356226
 31
0.0
  0
LINE
  5
303
330
1F
100
AcDbEntity
  8
C-9
  6
Continuous
 62
     6
370
     5
100
AcDbLine
 10
525.7059632349733
 20
742.9038037491969
 30
0.0
 11
485.7066956568482
 21
776.4673566056423
 31
0.0
  0
LINE
  5
304
330
1F
100
AcDbEntity
  8
C-9
  6
Continuous
 62
     6
370
     5
100
AcDbLine
 10
525.7059632349733
 20
754.9035672379664
 30
0.0
 11
485.7066956568482
 21
788.4671124650173
 31
0.0
  0
LINE
  5
305
330
1F
100
AcDbEntity
  8
C-9
  6
Continuous
 62
     6
370
     5
100
AcDbLine
 10
525.7059632349733
 20
766.9038190079859
 30
0.0
 11
485.7066956568482
 21
800.4673718644314
 31
0.0
  0
LINE
  5
306
330
1F
100
AcDbEntity
  8
C-9
  6
Continuous
 62
     6
370
     5
100
AcDbLine
 10
525.7059632349733
 20
922.9036511613062
 30
0.0
 11
485.7066956568482
 21
956.4672192765407
 31
0.0
  0
LINE
  5
307
330
1F
100
AcDbEntity
  8
C-9
  6
Continuous
 62
     6
370
     5
100
AcDbLine
 10
525.7059632349733
 20
910.9034070206814
 30
0.0
 11
485.7066956568482
 21
944.4674328995876
 31
0.0
  0
LINE
  5
308
330
1F
100
AcDbEntity
  8
C-9
  6
Continuous
 62
     6
370
     5
100
AcDbLine
 10
525.7059632349733
 20
898.9036359025172
 30
0.0
 11
485.7066956568482
 21
932.4671887589626
 31
0.0
  0
LINE
  5
309
330
1F
100
AcDbEntity
  8
C-9
  6
Continuous
 62
     6
370
     5
100
AcDbLine
 10
525.7059632349733
 20
886.9038800431423
 30
0.0
 11
485.7066956568482
 21
920.4674328995875
 31
0.0
  0
LINE
  5
30A
330
1F
100
AcDbEntity
  8
C-9
  6
Continuous
 62
     6
370
     5
100
AcDbLine
 10
525.7059632349733
 20
874.9036359025173
 30
0.0
 11
485.7066956568482
 21
908.4671735001735
 31
0.0
  0
LINE
  5
30B
330
1F
100
AcDbEntity
  8
C-9
  6
Continuous
 62
     6
370
     5
100
AcDbLine
 10
525.7059632349733
 20
862.9038647843532
 30
0.0
 11
485.7066956568482
 21
896.4674176407984
 31
0.0
  0
LINE
  5
30C
330
1F
100
AcDbEntity
  8
C-9
  6
Continuous
 62
     6
370
     5
100
AcDbLine
 10
525.7059632349733
 20
850.9036206437282
 30
0.0
 11
485.7066956568482
 21
884.4671735001735
 31
0.0
  0
LINE
  5
30D
330
1F
100
AcDbEntity
  8
C-9
  6
Continuous
 62
     6
370
     5
100
AcDbLine
 10
525.7059632349733
 20
838.9038647843531
 30
0.0
 11
485.7066956568482
 21
872.4674023820094
 31
0.0
  0
LINE
  5
30E
330
1F
100
AcDbEntity
  8
C-9
  6
Continuous
 62
     6
370
     5
100
AcDbLine
 10
525.7059632349733
 20
826.9036053849392
 30
0.0
 11
485.7066956568482
 21
860.4671582413845
 31
0.0
  0
LINE
  5
30F
330
1F
100
AcDbEntity
  8
C-9
  6
Continuous
 62
     6
370
     5
100
AcDbLine
 10
525.7059632349733
 20
814.9033459855251
 30
0.0
 11
485.7066956568482
 21
848.4668988419703
 31
0.0
  0
LINE
  5
310
330
1F
100
AcDbEntity
  8
C-9
  6
Continuous
 62
     6
370
     5
100
AcDbLine
 10
525.7059632349733
 20
802.9035901261501
 30
0.0
 11
485.7066956568482
 21
836.4671429825954
 31
0.0
  0
LINE
  5
311
330
1F
100
AcDbEntity
  8
C-9
  6
Continuous
 62
     6
370
     5
100
AcDbLine
 10
525.7059632349733
 20
790.903834266775
 30
0.0
 11
485.7066956568482
 21
824.4673871232204
 31
0.0
  0
LINE
  5
312
330
1F
100
AcDbEntity
  8
C-9
  6
Continuous
 62
     6
370
     5
100
AcDbLine
 10
525.7059632349733
 20
778.903574867361
 30
0.0
 11
485.7066956568482
 21
812.4671277238064
 31
0.0
  0
LINE
  5
313
330
1F
100
AcDbEntity
  8
C-9
  6
Continuous
 62
     6
370
     5
100
AcDbLine
 10
525.7059632349733
 20
770.7387494279079
 30
0.0
 11
485.7066956568482
 21
747.6449460221461
 31
0.0
  0
LINE
  5
314
330
1F
100
AcDbEntity
  8
C-9
  6
Continuous
 62
     6
370
     5
100
AcDbLine
 10
525.7059632349733
 20
782.7390011979275
 30
0.0
 11
485.7066956568482
 21
759.6451977921656
 31
0.0
  0
LINE
  5
315
330
1F
100
AcDbEntity
  8
C-9
  6
Continuous
 62
     6
370
     5
100
AcDbLine
 10
525.7059632349733
 20
794.738764686697
 30
0.0
 11
485.7066956568482
 21
771.6454571915797
 31
0.0
  0
LINE
  5
316
330
1F
100
AcDbEntity
  8
C-9
  6
Continuous
 62
     6
370
     5
100
AcDbLine
 10
525.7059632349733
 20
806.738520546072
 30
0.0
 11
485.7066956568482
 21
783.6447171403103
 31
0.0
  0
LINE
  5
317
330
1F
100
AcDbEntity
  8
C-9
  6
Continuous
 62
     6
370
     5
100
AcDbLine
 10
525.7059632349733
 20
938.7388257218532
 30
0.0
 11
485.7066956568482
 21
915.645045204275
 31
0.0
  0
LINE
  5
318
330
1F
100
AcDbEntity
  8
C-9
  6
Continuous
 62
     6
370
     5
100
AcDbLine
 10
525.7059632349733
 20
818.738779945486
 30
0.0
 11
485.7066956568482
 21
795.6449689103297
 31
0.0
  0
LINE
  5
319
330
1F
100
AcDbEntity
  8
C-9
  6
Continuous
 62
     6
370
     5
100
AcDbLine
 10
525.7059632349733
 20
830.739024086111
 30
0.0
 11
485.7066956568482
 21
807.6452283097439
 31
0.0
  0
LINE
  5
31A
330
1F
100
AcDbEntity
  8
C-9
  6
Continuous
 62
     6
370
     5
100
AcDbLine
 10
525.7059632349733
 20
842.7387799454859
 30
0.0
 11
485.7066956568482
 21
819.6449841691187
 31
0.0
  0
LINE
  5
31B
330
1F
100
AcDbEntity
  8
C-9
  6
Continuous
 62
     6
370
     5
100
AcDbLine
 10
525.7059632349733
 20
854.7385510636501
 30
0.0
 11
485.7066956568482
 21
831.6447400284939
 31
0.0
  0
LINE
  5
31C
330
1F
100
AcDbEntity
  8
C-9
  6
Continuous
 62
     6
370
     5
100
AcDbLine
 10
525.7059632349733
 20
866.738795204275
 30
0.0
 11
485.7066956568482
 21
843.6449994279078
 31
0.0
  0
LINE
  5
31D
330
1F
100
AcDbEntity
  8
C-9
  6
Continuous
 62
     6
370
     5
100
AcDbLine
 10
525.7059632349733
 20
878.7385510636501
 30
0.0
 11
485.7066956568482
 21
855.645258827322
 31
0.0
  0
LINE
  5
31E
330
1F
100
AcDbEntity
  8
C-9
  6
Continuous
 62
     6
370
     5
100
AcDbLine
 10
525.7059632349733
 20
890.738322181814
 30
0.0
 11
485.7066956568482
 21
867.6450146866969
 31
0.0
  0
LINE
  5
31F
330
1F
100
AcDbEntity
  8
C-9
  6
Continuous
 62
     6
370
     5
100
AcDbLine
 10
525.7059632349733
 20
902.7385663224392
 30
0.0
 11
485.7066956568482
 21
879.644770546072
 31
0.0
  0
LINE
  5
320
330
1F
100
AcDbEntity
  8
C-9
  6
Continuous
 62
     6
370
     5
100
AcDbLine
 10
525.7059632349733
 20
914.7388257218531
 30
0.0
 11
485.7066956568482
 21
891.6450299454859
 31
0.0
  0
LINE
  5
321
330
1F
100
AcDbEntity
  8
C-9
  6
Continuous
 62
     6
370
     5
100
AcDbLine
 10
525.7059632349733
 20
926.7385815812282
 30
0.0
 11
485.7066956568482
 21
903.6452740861109
 31
0.0
  0
LINE
  5
322
330
1F
100
AcDbEntity
  8
C-4
  6
Continuous
 62
     7
370
     9
100
AcDbLine
 10
485.7066956568482
 20
1006.950526161306
 30
0.0
 11
525.7059632349733
 21
1006.950526161306
 31
0.0
  0
LINE
  5
323
330
1F
100
AcDbEntity
  8
C-4
  6
Continuous
 62
     7
370
     9
100
AcDbLine
 10
485.7066956568482
 20
981.7217358781032
 30
0.0
 11
485.7066956568482
 21
1009.950587196462
 31
0.0
  0
LINE
  5
324
330
1F
100
AcDbEntity
  8
C-4
  6
Continuous
 62
     7
370
     9
100
AcDbLine
 10
525.7059632349733
 20
964.5121411515407
 30
0.0
 11
525.7059632349733
 21
1009.950587196462
 31
0.0
  0
ARC
  5
325
330
1F
100
AcDbEntity
  8
C-2
  6
Continuous
 62
     3
370
     9
100
AcDbCircle
 10
481.7390442896607
 20
697.4703091813258
 30
0.0
 40
39.71226119995117
100
AcDbArc
 50
50.82627868652344
 51
129.1737060546875
  0
ARC
  5
326
330
1F
100
AcDbEntity
  8
C-2
  6
Continuous
 62
     3
370
     9
100
AcDbCircle
 10
531.9101868677858
 20
759.0427121354275
 30
0.0
 40
39.71226119995117
100
AcDbArc
 50
230.8262786865234
 51
309.1737060546875
  0
ARC
  5
327
330
1F
100
AcDbEntity
  8
C-2
  6
Continuous
 62
     3
370
     9
100
AcDbCircle
 10
531.9101868677858
 20
989.0427807999781
 30
0.0
 40
39.71226119995117
100
AcDbArc
 50
230.8262786865234
 51
309.1737060546875
  0
ARC
  5
328
330
1F
100
AcDbEntity
  8
C-2
  6
Continuous
 62
     3
370
     9
100
AcDbCircle
 10
481.7390442896607
 20
927.4699048234157
 30
0.0
 40
39.71226119995117
100
AcDbArc
 50
50.82627868652344
 51
129.1737060546875
  0
LWPOLYLINE
  5
329
330
1F
100
AcDbEntity
  8
C-4
  6
Continuous
 62
     7
370
     9
100
AcDbPolyline
 90
        4
 70
     1
 43
2.0
 10
486.7066956568482
 20
1006.950526161306
 42
0.4142135623731
 10
485.7066956568482
 20
1007.950526161306
 42
0.4142135623731
 10
484.7066956568482
 20
1006.950526161306
 42
0.4142135623731
 10
485.7066956568482
 20
1005.950526161306
 42
0.4142135623731
  0
LWPOLYLINE
  5
32A
330
1F
100
AcDbEntity
  8
C-4
  6
Continuous
 62
     7
370
     9
100
AcDbPolyline
 90
        4
 70
     1
 43
2.0
 10
526.7059632349733
 20
1006.950526161306
 42
0.4142135623731
 10
525.7059632349733
 20
1007.950526161306
 42
0.4142135623731
 10
524.7059632349733
 20
1006.950526161306
 42
0.4142135623731
 10
525.7059632349733
 20
1005.950526161306
 42
0.4142135623731
  0
TEXT
  5
32B
330
1F
100
AcDbEntity
  8
C-5
  6
Continuous
 62
     7
370
     9
100
AcDbText
 10
621.0975647974733
 20
949.9252161027125
 30
0.0
 40
22.86
  1
ローレット模様
 41
1.142857142857143
  7
ＭＳ ゴシック
100
AcDbText
  0
TEXT
  5
32C
330
1F
100
AcDbEntity
  8
C-5
  6
Continuous
 62
     7
370
     9
100
AcDbText
 10
284.5187073755982
 20
669.483937645071
 30
0.0
 40
22.86
  1
メインバー表面　Ｓ＝１：１
 41
1.153846153846154
  7
ＭＳ ゴシック
100
AcDbText
  0
TEXT
  5
32D
330
1F
100
AcDbEntity
  8
C-4
  6
Continuous
 62
     2
370
     9
100
AcDbText
 10
495.7063294459107
 20
1017.590282020681
 30
0.0
 40
30.48
  1
4
 41
0.9999999999999998
  7
ＭＳ ゴシック
100
AcDbText
  0
LINE
  5
32E
330
1F
100
AcDbEntity
  8
A-6
  6
Continuous
 62
     6
370
     5
100
AcDbLine
 10
-1286.977408906552
 20
-558.4592422619662
 30
0.0
 11
-1287.839473045875
 21
-157.5973180822425
 31
0.0
  0
LINE
  5
32F
330
1F
100
AcDbEntity
  8
A-6
  6
Continuous
 62
     6
370
     5
100
AcDbLine
 10
-1202.756185970293
 20
-460.0959303496924
 30
0.0
 11
-1212.839473045875
 21
-157.5973180822379
 31
0.0
  0
ARC
  5
330
330
1F
100
AcDbEntity
  8
A-6
  6
Continuous
 62
     6
370
     5
100
AcDbCircle
 10
-1127.797817946859
 20
-457.5973180822425
 30
0.0
 40
75.0
100
AcDbArc
 50
181.9091524329965
 51
270.0000000000007
  0
LINE
  5
331
330
1F
100
AcDbEntity
  8
A-6
  6
Continuous
 62
     6
370
     5
100
AcDbLine
 10
-1225.339410545875
 20
-620.0973180822423
 30
0.0
 11
-1286.977408906552
 21
-558.4592422619662
 31
0.0
  0
LINE
  5
332
330
1F
100
AcDbEntity
  8
A-6
  6
Continuous
 62
     6
370
     5
100
AcDbLine
 10
-1225.339410545875
 20
-620.0973180822423
 30
0.0
 11
-825.3395355458792
 21
-620.0973180822423
 31
0.0
  0
LINE
  5
333
330
1F
100
AcDbEntity
  8
A-6
  6
Continuous
 62
     6
370
     5
100
AcDbLine
 10
-1127.797817946859
 20
-532.5973180822425
 30
0.0
 11
-922.8811281448941
 21
-532.5973180822403
 31
0.0
  0
ARC
  5
334
330
1F
100
AcDbEntity
  8
A-6
  6
Continuous
 62
     6
370
     5
100
AcDbCircle
 10
-922.8811281448941
 20
-457.5973180822379
 30
0.0
 40
75.0
100
AcDbArc
 50
270.0000000000007
 51
358.0908475670038
  0
LINE
  5
335
330
1F
100
AcDbEntity
  8
A-6
  6
Continuous
 62
     6
370
     5
100
AcDbLine
 10
-825.3395355458792
 20
-620.0973180822423
 30
0.0
 11
-763.7015425272324
 21
-558.4594025230024
 31
0.0
  0
LINE
  5
336
330
1F
100
AcDbEntity
  8
A-6
  6
Continuous
 62
     6
370
     5
100
AcDbLine
 10
-763.7015425272324
 20
-558.4594025230024
 30
0.0
 11
-762.839473045878
 21
-157.5973180822425
 31
0.0
  0
LINE
  5
337
330
1F
100
AcDbEntity
  8
A-6
  6
Continuous
 62
     6
370
     5
100
AcDbLine
 10
-837.839473045878
 20
-157.5973180822425
 30
0.0
 11
-762.839473045878
 21
-157.5973180822425
 31
0.0
  0
LINE
  5
338
330
1F
100
AcDbEntity
  8
A-6
  6
Continuous
 62
     6
370
     5
100
AcDbLine
 10
-847.9227601214586
 20
-460.095930349688
 30
0.0
 11
-837.839473045878
 21
-157.5973180822425
 31
0.0
  0
LINE
  5
339
330
1F
100
AcDbEntity
  8
A-6
  6
Continuous
 62
     6
370
     5
100
AcDbLine
 10
-512.8393905659374
 20
-257.5972768422721
 30
0.0
 11
-762.839473045878
 21
-257.5972768422721
 31
0.0
  0
LINE
  5
33A
330
1F
100
AcDbEntity
  8
A-6
  6
Continuous
 62
     6
370
     5
100
AcDbLine
 10
-512.8393905659374
 20
-357.5972356023017
 30
0.0
 11
-762.839473045878
 21
-357.5972356023017
 31
0.0
  0
LINE
  5
33B
330
1F
100
AcDbEntity
  8
A-6
  6
Continuous
 62
     6
370
     5
100
AcDbLine
 10
-762.839473045878
 20
-482.5973387022277
 30
0.0
 11
-512.8393905659374
 21
-482.5973387022277
 31
0.0
  0
LINE
  5
33C
330
1F
100
AcDbEntity
  8
A-6
  6
Continuous
 62
     6
370
     5
100
AcDbLine
 10
-747.3759069101624
 20
-357.5972356023017
 30
0.0
 11
-736.3415754595707
 21
-376.7092709927947
 31
0.0
  0
LINE
  5
33D
330
1F
100
AcDbEntity
  8
A-6
  6
Continuous
 62
     6
370
     5
100
AcDbLine
 10
-627.188384640578
 20
-357.5972356023017
 30
0.0
 11
-616.1540531899868
 21
-376.7092709927947
 31
0.0
  0
LINE
  5
33E
330
1F
100
AcDbEntity
  8
A-6
  6
Continuous
 62
     6
370
     5
100
AcDbLine
 10
-655.2199761075332
 20
-482.5973387022277
 30
0.0
 11
-666.2543075581249
 21
-463.4853033117348
 31
0.0
  0
LINE
  5
33F
330
1F
100
AcDbEntity
  8
A-6
  6
Continuous
 62
     6
370
     5
100
AcDbLine
 10
-535.0323919779936
 20
-482.5973387022277
 30
0.0
 11
-546.0667234285847
 21
-463.4853033117348
 31
0.0
  0
LINE
  5
340
330
1F
100
AcDbEntity
  8
A-6
  6
Continuous
 62
     6
370
     5
100
AcDbLine
 10
-725.3072440089795
 20
-357.5972356023017
 30
0.0
 11
-762.839473045878
 21
-422.6049660347604
 31
0.0
  0
LINE
  5
341
330
1F
100
AcDbEntity
  8
A-6
  6
Continuous
 62
     6
370
     5
100
AcDbLine
 10
-512.8393905659374
 20
-482.5973387022277
 30
0.0
 11
-762.839473045878
 21
-482.5973387022277
 31
0.0
  0
LINE
  5
342
330
1F
100
AcDbEntity
  8
A-6
  6
Continuous
 62
     6
370
     5
100
AcDbLine
 10
-605.1197217393957
 20
-357.5972356023017
 30
0.0
 11
-677.288515288804
 21
-482.5973387022277
 31
0.0
  0
LINE
  5
343
330
1F
100
AcDbEntity
  8
A-6
  6
Continuous
 62
     6
370
     5
100
AcDbLine
 10
-512.8393905659374
 20
-405.9340172844965
 30
0.0
 11
-557.1010548791759
 21
-482.5973387022277
 31
0.0
  0
LINE
  5
344
330
1F
100
AcDbEntity
  8
A-6
  6
Continuous
 62
     6
370
     5
100
AcDbLine
 10
-665.1768308504597
 20
-357.5972356023017
 30
0.0
 11
-762.839473045878
 21
-259.9349645666176
 31
0.0
  0
LINE
  5
345
330
1F
100
AcDbEntity
  8
A-6
  6
Continuous
 62
     6
370
     5
100
AcDbLine
 10
-672.2479805218597
 20
-357.5972356023017
 30
0.0
 11
-762.839473045878
 21
-267.0056812183278
 31
0.0
  0
LINE
  5
346
330
1F
100
AcDbEntity
  8
A-6
  6
Continuous
 62
     6
370
     5
100
AcDbLine
 10
-679.3190064733483
 20
-357.5972356023017
 30
0.0
 11
-762.839473045878
 21
-274.0768308897277
 31
0.0
  0
LINE
  5
347
330
1F
100
AcDbEntity
  8
A-6
  6
Continuous
 62
     6
370
     5
100
AcDbLine
 10
-519.2287816660217
 20
-357.5972356023017
 30
0.0
 11
-619.2289260059181
 21
-257.5972768422721
 31
0.0
  0
LINE
  5
348
330
1F
100
AcDbEntity
  8
A-6
  6
Continuous
 62
     6
370
     5
100
AcDbLine
 10
-533.3710810088212
 20
-357.5972356023017
 30
0.0
 11
-633.370792329028
 21
-257.5972768422721
 31
0.0
  0
LINE
  5
349
330
1F
100
AcDbEntity
  8
A-6
  6
Continuous
 62
     6
370
     5
100
AcDbLine
 10
-526.2998694774654
 20
-357.5972356023017
 30
0.0
 11
-626.2998900974509
 21
-257.5972768422721
 31
0.0
  0
LINE
  5
34A
330
1F
100
AcDbEntity
  8
A-6
  6
Continuous
 62
     6
370
     5
100
AcDbLine
 10
-512.8393905659374
 20
-157.5973180822425
 30
0.0
 11
-762.839473045878
 21
-157.5973180822425
 31
0.0
  0
LINE
  5
34B
330
1F
100
AcDbEntity
  8
A-6
  6
Continuous
 62
     6
370
     5
100
AcDbLine
 10
-1287.839473045875
 20
-257.5972768422721
 30
0.0
 11
-1537.839555525816
 21
-257.5972768422721
 31
0.0
  0
LINE
  5
34C
330
1F
100
AcDbEntity
  8
A-6
  6
Continuous
 62
     6
370
     5
100
AcDbLine
 10
-1287.839473045875
 20
-357.5972356023017
 30
0.0
 11
-1537.839555525816
 21
-357.5972356023017
 31
0.0
  0
LINE
  5
34D
330
1F
100
AcDbEntity
  8
A-6
  6
Continuous
 62
     6
370
     5
100
AcDbLine
 10
-1537.839555525816
 20
-482.5973387022277
 30
0.0
 11
-1287.839473045875
 21
-482.5973387022277
 31
0.0
  0
LINE
  5
34E
330
1F
100
AcDbEntity
  8
A-6
  6
Continuous
 62
     6
370
     5
100
AcDbLine
 10
-1522.3759893901
 20
-357.5972356023017
 30
0.0
 11
-1511.341657939509
 21
-376.7092709927947
 31
0.0
  0
LINE
  5
34F
330
1F
100
AcDbEntity
  8
A-6
  6
Continuous
 62
     6
370
     5
100
AcDbLine
 10
-1402.188467120516
 20
-357.5972356023017
 30
0.0
 11
-1391.154135669925
 21
-376.7092709927947
 31
0.0
  0
LINE
  5
350
330
1F
100
AcDbEntity
  8
A-6
  6
Continuous
 62
     6
370
     5
100
AcDbLine
 10
-1430.220058587472
 20
-482.5973387022277
 30
0.0
 11
-1441.254390038063
 21
-463.4853033117348
 31
0.0
  0
LINE
  5
351
330
1F
100
AcDbEntity
  8
A-6
  6
Continuous
 62
     6
370
     5
100
AcDbLine
 10
-1310.032474457932
 20
-482.5973387022277
 30
0.0
 11
-1321.066805908523
 21
-463.4853033117348
 31
0.0
  0
LINE
  5
352
330
1F
100
AcDbEntity
  8
A-6
  6
Continuous
 62
     6
370
     5
100
AcDbLine
 10
-1500.307326488918
 20
-357.5972356023017
 30
0.0
 11
-1537.839555525816
 21
-422.6049660347604
 31
0.0
  0
LINE
  5
353
330
1F
100
AcDbEntity
  8
A-6
  6
Continuous
 62
     6
370
     5
100
AcDbLine
 10
-1287.839473045875
 20
-482.5973387022277
 30
0.0
 11
-1537.839555525816
 21
-482.5973387022277
 31
0.0
  0
LINE
  5
354
330
1F
100
AcDbEntity
  8
A-6
  6
Continuous
 62
     6
370
     5
100
AcDbLine
 10
-1380.119804219334
 20
-357.5972356023017
 30
0.0
 11
-1452.288597768742
 21
-482.5973387022277
 31
0.0
  0
LINE
  5
355
330
1F
100
AcDbEntity
  8
A-6
  6
Continuous
 62
     6
370
     5
100
AcDbLine
 10
-1287.839473045875
 20
-405.9340172844965
 30
0.0
 11
-1332.101137359114
 21
-482.5973387022277
 31
0.0
  0
LINE
  5
356
330
1F
100
AcDbEntity
  8
A-6
  6
Continuous
 62
     6
370
     5
100
AcDbLine
 10
-1440.176913330398
 20
-357.5972356023017
 30
0.0
 11
-1537.839555525816
 21
-259.9349645666176
 31
0.0
  0
LINE
  5
357
330
1F
100
AcDbEntity
  8
A-6
  6
Continuous
 62
     6
370
     5
100
AcDbLine
 10
-1447.248063001798
 20
-357.5972356023017
 30
0.0
 11
-1537.839555525816
 21
-267.0056812183278
 31
0.0
  0
LINE
  5
358
330
1F
100
AcDbEntity
  8
A-6
  6
Continuous
 62
     6
370
     5
100
AcDbLine
 10
-1454.319088953287
 20
-357.5972356023017
 30
0.0
 11
-1537.839555525816
 21
-274.0768308897277
 31
0.0
  0
LINE
  5
359
330
1F
100
AcDbEntity
  8
A-6
  6
Continuous
 62
     6
370
     5
100
AcDbLine
 10
-1294.22886414596
 20
-357.5972356023017
 30
0.0
 11
-1394.229008485856
 21
-257.5972768422721
 31
0.0
  0
LINE
  5
35A
330
1F
100
AcDbEntity
  8
A-6
  6
Continuous
 62
     6
370
     5
100
AcDbLine
 10
-1308.37116348876
 20
-357.5972356023017
 30
0.0
 11
-1408.370874808966
 21
-257.5972768422721
 31
0.0
  0
LINE
  5
35B
330
1F
100
AcDbEntity
  8
A-6
  6
Continuous
 62
     6
370
     5
100
AcDbLine
 10
-1301.299951957404
 20
-357.5972356023017
 30
0.0
 11
-1401.299972577389
 21
-257.5972768422721
 31
0.0
  0
LINE
  5
35C
330
1F
100
AcDbEntity
  8
A-6
  6
Continuous
 62
     6
370
     5
100
AcDbLine
 10
-1287.839473045875
 20
-157.5973180822425
 30
0.0
 11
-1537.839555525816
 21
-157.5973180822425
 31
0.0
  0
LINE
  5
35D
330
1F
100
AcDbEntity
  8
A-2
  6
Continuous
 62
     3
370
     9
100
AcDbLine
 10
-857.8393534499639
 20
-150.097169618349
 30
0.0
 11
-857.8393534499639
 21
-225.0972314783045
 31
0.0
  0
LINE
  5
35E
330
1F
100
AcDbEntity
  8
A-2
  6
Continuous
 62
     3
370
     9
100
AcDbLine
 10
-857.8393534499639
 20
-150.097169618349
 30
0.0
 11
-782.8397246096978
 21
-150.097169618349
 31
0.0
  0
LINE
  5
35F
330
1F
100
AcDbEntity
  8
A-2
  6
Continuous
 62
     3
370
     9
100
AcDbLine
 10
-782.8397246096978
 20
-152.5972397262987
 30
0.0
 11
-782.8397246096978
 21
-150.097169618349
 31
0.0
  0
LINE
  5
360
330
1F
100
AcDbEntity
  8
A-2
  6
Continuous
 62
     3
370
     9
100
AcDbLine
 10
-787.8397411056858
 20
-157.5973180822425
 30
0.0
 11
-840.3394194339165
 21
-157.5973180822425
 31
0.0
  0
LINE
  5
361
330
1F
100
AcDbEntity
  8
A-2
  6
Continuous
 62
     3
370
     9
100
AcDbLine
 10
-850.3394524258931
 20
-220.0970912624051
 30
0.0
 11
-850.3394524258931
 21
-167.5971654943518
 31
0.0
  0
LINE
  5
362
330
1F
100
AcDbEntity
  8
A-2
  6
Continuous
 62
     3
370
     9
100
AcDbLine
 10
-855.3394689218811
 20
-225.0972314783045
 30
0.0
 11
-857.8393534499639
 21
-225.0972314783045
 31
0.0
  0
ARC
  5
363
330
1F
100
AcDbEntity
  8
A-2
  6
Continuous
 62
     3
370
     9
100
AcDbCircle
 10
-840.3394194339165
 20
-167.5971654943518
 30
0.0
 40
10.00000012887491
100
AcDbArc
 50
90.0
 51
180.0
  0
ARC
  5
364
330
1F
100
AcDbEntity
  8
A-2
  6
Continuous
 62
     3
370
     9
100
AcDbCircle
 10
-787.8397411056858
 20
-152.5972397262987
 30
0.0
 40
5.000000064437454
100
AcDbArc
 50
270.0
 51
0.0
  0
ARC
  5
365
330
1F
100
AcDbEntity
  8
A-2
  6
Continuous
 62
     3
370
     9
100
AcDbCircle
 10
-855.3394689218811
 20
-220.0970912624051
 30
0.0
 40
5.000000064437454
100
AcDbArc
 50
270.0
 51
0.0
  0
LINE
  5
366
330
1F
100
AcDbEntity
  8
A-6
  6
Continuous
 62
     6
370
     5
100
AcDbLine
 10
-1212.839976173517
 20
-157.5973180822425
 30
0.0
 11
-1287.839976173517
 21
-157.5973180822425
 31
0.0
  0
LINE
  5
367
330
1F
100
AcDbEntity
  8
A-2
  6
Continuous
 62
     3
370
     9
100
AcDbLine
 10
-1192.840095769432
 20
-150.097169618349
 30
0.0
 11
-1192.840095769432
 21
-225.0972314783045
 31
0.0
  0
LINE
  5
368
330
1F
100
AcDbEntity
  8
A-2
  6
Continuous
 62
     3
370
     9
100
AcDbLine
 10
-1192.840095769432
 20
-150.097169618349
 30
0.0
 11
-1267.839724609698
 21
-150.097169618349
 31
0.0
  0
LINE
  5
369
330
1F
100
AcDbEntity
  8
A-2
  6
Continuous
 62
     3
370
     9
100
AcDbLine
 10
-1267.839724609698
 20
-152.5972397262987
 30
0.0
 11
-1267.839724609698
 21
-150.097169618349
 31
0.0
  0
LINE
  5
36A
330
1F
100
AcDbEntity
  8
A-2
  6
Continuous
 62
     3
370
     9
100
AcDbLine
 10
-1262.839708113709
 20
-157.5973180822425
 30
0.0
 11
-1210.340029785479
 21
-157.5973180822425
 31
0.0
  0
LINE
  5
36B
330
1F
100
AcDbEntity
  8
A-2
  6
Continuous
 62
     3
370
     9
100
AcDbLine
 10
-1200.339996793502
 20
-220.0970912624051
 30
0.0
 11
-1200.339996793502
 21
-167.5971654943518
 31
0.0
  0
LINE
  5
36C
330
1F
100
AcDbEntity
  8
A-2
  6
Continuous
 62
     3
370
     9
100
AcDbLine
 10
-1195.339980297515
 20
-225.0972314783045
 30
0.0
 11
-1192.840095769432
 21
-225.0972314783045
 31
0.0
  0
ARC
  5
36D
330
1F
100
AcDbEntity
  8
A-2
  6
Continuous
 62
     3
370
     9
100
AcDbCircle
 10
-1210.340029785479
 20
-167.5971654943518
 30
0.0
 40
10.00000012887491
100
AcDbArc
 50
0.0
 51
90.0
  0
ARC
  5
36E
330
1F
100
AcDbEntity
  8
A-2
  6
Continuous
 62
     3
370
     9
100
AcDbCircle
 10
-1262.839708113709
 20
-152.5972397262987
 30
0.0
 40
5.000000064437454
100
AcDbArc
 50
180.0
 51
270.0
  0
ARC
  5
36F
330
1F
100
AcDbEntity
  8
A-2
  6
Continuous
 62
     3
370
     9
100
AcDbCircle
 10
-1195.339980297515
 20
-220.0970912624051
 30
0.0
 40
5.000000064437454
100
AcDbArc
 50
180.0
 51
270.0
  0
LINE
  5
370
330
1F
100
AcDbEntity
  8
A-2
  6
Continuous
 62
     3
370
     9
100
AcDbLine
 10
-1192.840095769432
 20
-187.597087138408
 30
0.0
 11
-857.8393534499639
 21
-187.597087138408
 31
0.0
  0
LINE
  5
371
330
1F
100
AcDbEntity
  8
A-2
  6
Continuous
 62
     3
370
     9
100
AcDbLine
 10
-857.8393534499639
 20
-150.097169618349
 30
0.0
 11
-1192.840095769432
 21
-150.097169618349
 31
0.0
  0
LINE
  5
372
330
1F
100
AcDbEntity
  8
A-2
  6
Continuous
 62
     3
370
     9
100
AcDbLine
 10
-1019.089707791522
 20
-171.9720859483289
 30
0.0
 11
-1012.839631497577
 21
-171.9720859483289
 31
0.0
  0
LINE
  5
373
330
1F
100
AcDbEntity
  8
A-2
  6
Continuous
 62
     3
370
     9
100
AcDbLine
 10
-1020.339898526386
 20
-173.8476819947766
 30
0.0
 11
-1020.339898526386
 21
-173.222894187312
 31
0.0
  0
LINE
  5
374
330
1F
100
AcDbEntity
  8
A-2
  6
Continuous
 62
     3
370
     9
100
AcDbLine
 10
-1021.589726865009
 20
-175.0972528413342
 30
0.0
 11
-1030.33982223244
 21
-175.0972528413342
 31
0.0
  0
LINE
  5
375
330
1F
100
AcDbEntity
  8
A-2
  6
Continuous
 62
     3
370
     9
100
AcDbLine
 10
-1030.33982223244
 20
-159.4726641133832
 30
0.0
 11
-1030.33982223244
 21
-158.8478786901044
 31
0.0
  0
LINE
  5
376
330
1F
100
AcDbEntity
  8
A-2
  6
Continuous
 62
     3
370
     9
100
AcDbLine
 10
-1037.839707791522
 20
-160.7222349599408
 30
0.0
 11
-1031.589765011981
 21
-160.7222349599408
 31
0.0
  0
LINE
  5
377
330
1F
100
AcDbEntity
  8
A-2
  6
Continuous
 62
     3
370
     9
100
AcDbLine
 10
-1039.089898526386
 20
-171.0912008241223
 30
0.0
 11
-1039.089898526386
 21
-161.972301717143
 31
0.0
  0
LINE
  5
378
330
1F
100
AcDbEntity
  8
A-2
  6
Continuous
 62
     3
370
     9
100
AcDbLine
 10
-1038.260106503681
 20
-172.2690148309277
 30
0.0
 11
-1030.33982223244
 21
-175.0972528413342
 31
0.0
  0
LINE
  5
379
330
1F
100
AcDbEntity
  8
A-2
  6
Continuous
 62
     3
370
     9
100
AcDbLine
 10
-1012.419347226337
 20
-160.4265446618604
 30
0.0
 11
-1020.339898526386
 21
-157.5975657657193
 31
0.0
  0
LINE
  5
37A
330
1F
100
AcDbEntity
  8
A-2
  6
Continuous
 62
     3
370
     9
100
AcDbLine
 10
-1011.58982223244
 20
-161.6031212762402
 30
0.0
 11
-1011.58982223244
 21
-170.7225151017713
 31
0.0
  0
LINE
  5
37B
330
1F
100
AcDbEntity
  8
A-2
  6
Continuous
 62
     3
370
     9
100
AcDbLine
 10
-1029.089631497577
 20
-150.097169618349
 30
0.0
 11
-1029.089631497577
 21
-175.0972528413342
 31
0.0
  0
LINE
  5
37C
330
1F
100
AcDbEntity
  8
A-2
  6
Continuous
 62
     3
370
     9
100
AcDbLine
 10
-1021.589726865009
 20
-150.097169618349
 30
0.0
 11
-1029.089631497577
 21
-150.097169618349
 31
0.0
  0
LINE
  5
37D
330
1F
100
AcDbEntity
  8
A-2
  6
Continuous
 62
     3
370
     9
100
AcDbLine
 10
-1020.339898526386
 20
-157.5975657657193
 30
0.0
 11
-1021.589726865009
 21
-157.5975657657193
 31
0.0
  0
LINE
  5
37E
330
1F
100
AcDbEntity
  8
A-2
  6
Continuous
 62
     3
370
     9
100
AcDbLine
 10
-1021.589726865009
 20
-150.097169618349
 30
0.0
 11
-1021.589726865009
 21
-175.0972528413342
 31
0.0
  0
ARC
  5
37F
330
1F
100
AcDbEntity
  8
A-2
  6
Continuous
 62
     3
370
     9
100
AcDbCircle
 10
-1029.089631497577
 20
-158.8478786901044
 30
0.0
 40
1.25
100
AcDbArc
 50
90.0
 51
180.0
  0
ARC
  5
380
330
1F
100
AcDbEntity
  8
A-2
  6
Continuous
 62
     3
370
     9
100
AcDbCircle
 10
-1012.839631497577
 20
-170.7225151017713
 30
0.0
 40
1.25
100
AcDbArc
 50
270.0
 51
0.0
  0
ARC
  5
381
330
1F
100
AcDbEntity
  8
A-2
  6
Continuous
 62
     3
370
     9
100
AcDbCircle
 10
-1019.089707791522
 20
-173.222894187312
 30
0.0
 40
1.25
100
AcDbArc
 50
90.0
 51
180.0
  0
ARC
  5
382
330
1F
100
AcDbEntity
  8
A-2
  6
Continuous
 62
     3
370
     9
100
AcDbCircle
 10
-1021.589726865009
 20
-173.8476819947766
 30
0.0
 40
1.25
100
AcDbArc
 50
270.0
 51
0.0
  0
ARC
  5
383
330
1F
100
AcDbEntity
  8
A-2
  6
Continuous
 62
     3
370
     9
100
AcDbCircle
 10
-1031.589765011981
 20
-159.4726641133832
 30
0.0
 40
1.25
100
AcDbArc
 50
270.0
 51
0.0
  0
ARC
  5
384
330
1F
100
AcDbEntity
  8
A-2
  6
Continuous
 62
     3
370
     9
100
AcDbCircle
 10
-1037.839707791522
 20
-161.972301717143
 30
0.0
 40
1.25
100
AcDbArc
 50
90.0
 51
180.0
  0
ARC
  5
385
330
1F
100
AcDbEntity
  8
A-2
  6
Continuous
 62
     3
370
     9
100
AcDbCircle
 10
-1037.839707791522
 20
-171.0912008241223
 30
0.0
 40
1.25
100
AcDbArc
 50
180.0
 51
250.3461608886719
  0
ARC
  5
386
330
1F
100
AcDbEntity
  8
A-2
  6
Continuous
 62
     3
370
     9
100
AcDbCircle
 10
-1012.839631497577
 20
-161.6031212762402
 30
0.0
 40
1.25
100
AcDbArc
 50
0.0
 51
70.34616088867189
  0
LINE
  5
387
330
1F
100
AcDbEntity
  8
A-6
  6
Continuous
 62
     6
370
     5
100
AcDbLine
 10
-849.1212626507769
 20
-620.0973180822423
 30
0.0
 11
-762.721472848437
 21
-533.6974025472207
 31
0.0
  0
LINE
  5
388
330
1F
100
AcDbEntity
  8
A-6
  6
Continuous
 62
     6
370
     5
100
AcDbLine
 10
-842.050357985571
 20
-620.0973180822423
 30
0.0
 11
-762.721472848437
 21
-540.7684903586651
 31
0.0
  0
LINE
  5
389
330
1F
100
AcDbEntity
  8
A-6
  6
Continuous
 62
     6
370
     5
100
AcDbLine
 10
-834.9793934398411
 20
-620.0973180822423
 30
0.0
 11
-762.721472848437
 21
-547.839268870331
 31
0.0
  0
LINE
  5
38A
330
1F
100
AcDbEntity
  8
A-6
  6
Continuous
 62
     6
370
     5
100
AcDbLine
 10
-1287.630141538747
 20
-254.9369786839932
 30
0.0
 11
-1212.112080515201
 21
-179.4190940024721
 31
0.0
  0
LINE
  5
38B
330
1F
100
AcDbEntity
  8
A-6
  6
Continuous
 62
     6
370
     5
100
AcDbLine
 10
-1287.614968122048
 20
-261.9926544010617
 30
0.0
 11
-1211.883996191792
 21
-186.2616237047209
 31
0.0
  0
LINE
  5
38C
330
1F
100
AcDbEntity
  8
A-6
  6
Continuous
 62
     6
370
     5
100
AcDbLine
 10
-1287.599794237289
 20
-269.0485477673067
 30
0.0
 11
-1211.65589250971
 21
-193.1047341671926
 31
0.0
  0
LINE
  5
38D
330
1F
100
AcDbEntity
  8
A-6
  6
Continuous
 62
     6
370
     5
100
AcDbLine
 10
-1287.285220704645
 20
-415.3260065311585
 30
0.0
 11
-1206.927114064128
 21
-334.968087534645
 31
0.0
  0
LINE
  5
38E
330
1F
100
AcDbEntity
  8
A-6
  6
Continuous
 62
     6
370
     5
100
AcDbLine
 10
-1287.270046217169
 20
-422.3821801620629
 30
0.0
 11
-1206.699014130177
 21
-341.8110855531728
 31
0.0
  0
LINE
  5
38F
330
1F
100
AcDbEntity
  8
A-6
  6
Continuous
 62
     6
370
     5
100
AcDbLine
 10
-1287.254872998887
 20
-429.4377636146174
 30
0.0
 11
-1206.470920164476
 21
-348.6539045242043
 31
0.0
  0
LINE
  5
390
330
1F
100
AcDbEntity
  8
A-6
  6
Continuous
 62
     6
370
     5
100
AcDbLine
 10
-1278.330953711476
 20
-567.1057083229191
 30
0.0
 11
-1197.215580858275
 21
-485.9905248820115
 31
0.0
  0
LINE
  5
391
330
1F
100
AcDbEntity
  8
A-6
  6
Continuous
 62
     6
370
     5
100
AcDbLine
 10
-1274.79504713995
 20
-570.6416193379691
 30
0.0
 11
-1195.016711499577
 21
-490.8632217908188
 31
0.0
  0
LINE
  5
392
330
1F
100
AcDbEntity
  8
A-6
  6
Continuous
 62
     6
370
     5
100
AcDbLine
 10
-1271.259812529144
 20
-574.1768583914542
 30
0.0
 11
-1192.540409145213
 21
-495.4575463557591
 31
0.0
  0
LINE
  5
393
330
1F
100
AcDbEntity
  8
A-6
  6
Continuous
 62
     6
370
     5
100
AcDbLine
 10
-1156.446002301263
 20
-620.0973180822423
 30
0.0
 11
-1068.945900763655
 21
-532.5973180822418
 31
0.0
  0
LINE
  5
394
330
1F
100
AcDbEntity
  8
A-6
  6
Continuous
 62
     6
370
     5
100
AcDbLine
 10
-1163.516384301243
 20
-620.0973180822423
 30
0.0
 11
-1076.016452199862
 21
-532.597318082242
 31
0.0
  0
LINE
  5
395
330
1F
100
AcDbEntity
  8
A-6
  6
Continuous
 62
     6
370
     5
100
AcDbLine
 10
-1170.588364005518
 20
-620.0973180822423
 30
0.0
 11
-1083.08815968402
 21
-532.597318082242
 31
0.0
  0
LINE
  5
396
330
1F
100
AcDbEntity
  8
A-6
  6
Continuous
 62
     6
370
     5
100
AcDbLine
 10
-1009.854040799379
 20
-620.0973180822423
 30
0.0
 11
-922.3541681329465
 21
-532.5973180822403
 31
0.0
  0
LINE
  5
397
330
1F
100
AcDbEntity
  8
A-6
  6
Continuous
 62
     6
370
     5
100
AcDbLine
 10
-995.7121194246173
 20
-620.0973180822423
 30
0.0
 11
-906.3729163978348
 21
-530.7579560299366
 31
0.0
  0
LINE
  5
398
330
1F
100
AcDbEntity
  8
A-6
  6
Continuous
 62
     6
370
     5
100
AcDbLine
 10
-1002.783486111422
 20
-620.0973180822423
 30
0.0
 11
-914.8524534625182
 21
-532.1663490726202
 31
0.0
  0
LINE
  5
399
330
1F
100
AcDbEntity
  8
A-6
  6
Continuous
 62
     6
370
     5
100
AcDbLine
 10
-849.7204608123985
 20
-474.1053996020253
 30
0.0
 11
-762.839473045878
 21
-387.2242571856526
 31
0.0
  0
LINE
  5
39A
330
1F
100
AcDbEntity
  8
A-6
  6
Continuous
 62
     6
370
     5
100
AcDbLine
 10
-848.3121029652136
 20
-465.6260467332867
 30
0.0
 11
-762.839473045878
 21
-380.1534786739866
 31
0.0
  0
LINE
  5
39B
330
1F
100
AcDbEntity
  8
A-6
  6
Continuous
 62
     6
370
     5
100
AcDbLine
 10
-847.8829917668912
 20
-458.1260333425334
 30
0.0
 11
-762.839473045878
 21
-373.0823908625423
 31
0.0
  0
LINE
  5
39C
330
1F
100
AcDbEntity
  8
A-6
  6
Continuous
 62
     6
370
     5
100
AcDbLine
 10
-842.8013294150782
 20
-306.4530091582616
 30
0.0
 11
-762.839473045878
 21
-226.4912455790752
 31
0.0
  0
LINE
  5
39D
330
1F
100
AcDbEntity
  8
A-6
  6
Continuous
 62
     6
370
     5
100
AcDbLine
 10
-842.5575020005471
 20
-299.1381867223249
 30
0.0
 11
-762.839473045878
 21
-219.4200959076754
 31
0.0
  0
LINE
  5
39E
330
1F
100
AcDbEntity
  8
A-6
  6
Continuous
 62
     6
370
     5
100
AcDbLine
 10
-842.3136756525577
 20
-291.8233962826431
 30
0.0
 11
-762.839473045878
 21
-212.3493792559651
 31
0.0
  0
LINE
  5
39F
330
1F
100
AcDbEntity
  8
A-0
  6
Continuous
 62
     7
370
     9
100
AcDbLine
 10
-1267.839724609698
 20
200.2705671980573
 30
0.0
 11
-782.8397246096978
 21
200.2705671980573
 31
0.0
  0
LWPOLYLINE
  5
3A0
330
1F
100
AcDbEntity
  8
A-0
  6
Continuous
 62
     7
370
     9
100
AcDbPolyline
 90
        4
 70
     1
 43
2.0
 10
-1266.839724609698
 20
200.2705671980573
 42
0.4142135623731
 10
-1267.839724609698
 20
201.2705671980573
 42
0.4142135623731
 10
-1268.839724609698
 20
200.2705671980573
 42
0.4142135623731
 10
-1267.839724609698
 20
199.2705671980572
 42
0.4142135623731
  0
LWPOLYLINE
  5
3A1
330
1F
100
AcDbEntity
  8
A-0
  6
Continuous
 62
     7
370
     9
100
AcDbPolyline
 90
        4
 70
     1
 43
2.0
 10
-781.8397246096979
 20
200.2705671980573
 42
0.4142135623731
 10
-782.8397246096978
 20
201.2705671980573
 42
0.4142135623731
 10
-783.8397246096977
 20
200.2705671980573
 42
0.4142135623731
 10
-782.8397246096978
 20
199.2705671980572
 42
0.4142135623731
  0
LINE
  5
3A2
330
1F
100
AcDbEntity
  8
A-0
  6
Continuous
 62
     7
370
     9
100
AcDbLine
 10
-1267.839724609698
 20
203.2705671980572
 30
0.0
 11
-1267.839724609698
 21
-130.097169618349
 31
0.0
  0
LINE
  5
3A3
330
1F
100
AcDbEntity
  8
A-0
  6
Continuous
 62
     7
370
     9
100
AcDbLine
 10
-782.8397246096978
 20
203.2705671980572
 30
0.0
 11
-782.8397246096978
 21
-130.097169618349
 31
0.0
  0
TEXT
  5
3A4
330
1F
100
AcDbEntity
  8
A-0
  6
Continuous
 62
     2
370
   211
100
AcDbText
 10
-1057.839724609698
 20
211.9105671980573
 30
0.0
 40
30.48
  1
194
 41
1.083333333333333
  7
ＭＳ ゴシック
100
AcDbText
  0
LINE
  5
3A5
330
1F
100
AcDbEntity
  8
A-0
  6
Continuous
 62
     7
370
     9
100
AcDbLine
 10
-782.8397246096978
 20
89.57489838471272
 30
0.0
 11
-837.839473045878
 21
89.57489838471272
 31
0.0
  0
LWPOLYLINE
  5
3A6
330
1F
100
AcDbEntity
  8
A-0
  6
Continuous
 62
     7
370
     9
100
AcDbPolyline
 90
        4
 70
     1
 43
2.0
 10
-781.8397246096979
 20
89.57489838471272
 42
0.4142135623731
 10
-782.8397246096978
 20
90.57489838471271
 42
0.4142135623731
 10
-783.8397246096977
 20
89.57489838471272
 42
0.4142135623731
 10
-782.8397246096978
 20
88.57489838471272
 42
0.4142135623731
  0
LWPOLYLINE
  5
3A7
330
1F
100
AcDbEntity
  8
A-0
  6
Continuous
 62
     7
370
     9
100
AcDbPolyline
 90
        4
 70
     1
 43
2.0
 10
-836.8394730458781
 20
89.57489838471272
 42
0.4142135623731
 10
-837.839473045878
 20
90.57489838471271
 42
0.4142135623731
 10
-838.8394730458779
 20
89.57489838471272
 42
0.4142135623731
 10
-837.839473045878
 20
88.57489838471272
 42
0.4142135623731
  0
TEXT
  5
3A8
330
1F
100
AcDbEntity
  8
A-0
  6
Continuous
 62
     2
370
   211
100
AcDbText
 10
-1261.589598827787
 20
101.2148983847128
 30
0.0
 40
30.48
  1
22
 41
1.0625
  7
ＭＳ ゴシック
100
AcDbText
  0
LINE
  5
3A9
330
1F
100
AcDbEntity
  8
A-0
  6
Continuous
 62
     7
370
     9
100
AcDbLine
 10
-837.839473045878
 20
89.57489838471272
 30
0.0
 11
-1212.839473045875
 21
89.57489838471272
 31
0.0
  0
LWPOLYLINE
  5
3AA
330
1F
100
AcDbEntity
  8
A-0
  6
Continuous
 62
     7
370
     9
100
AcDbPolyline
 90
        4
 70
     1
 43
2.0
 10
-1211.839473045875
 20
89.57489838471272
 42
0.4142135623731
 10
-1212.839473045875
 20
90.57489838471271
 42
0.4142135623731
 10
-1213.839473045875
 20
89.57489838471272
 42
0.4142135623731
 10
-1212.839473045875
 20
88.57489838471272
 42
0.4142135623731
  0
TEXT
  5
3AB
330
1F
100
AcDbEntity
  8
A-0
  6
Continuous
 62
     2
370
   211
100
AcDbText
 10
-1057.839473045877
 20
101.2148983847128
 30
0.0
 40
30.48
  1
150
 41
1.083333333333333
  7
ＭＳ ゴシック
100
AcDbText
  0
LINE
  5
3AC
330
1F
100
AcDbEntity
  8
A-0
  6
Continuous
 62
     7
370
     9
100
AcDbLine
 10
-1212.839473045875
 20
89.57489838471272
 30
0.0
 11
-1267.839724609698
 21
89.57489838471272
 31
0.0
  0
LWPOLYLINE
  5
3AD
330
1F
100
AcDbEntity
  8
A-0
  6
Continuous
 62
     7
370
     9
100
AcDbPolyline
 90
        4
 70
     1
 43
2.0
 10
-1211.839473045875
 20
89.57489838471272
 42
0.4142135623731
 10
-1212.839473045875
 20
90.57489838471271
 42
0.4142135623731
 10
-1213.839473045875
 20
89.57489838471272
 42
0.4142135623731
 10
-1212.839473045875
 20
88.57489838471272
 42
0.4142135623731
  0
LWPOLYLINE
  5
3AE
330
1F
100
AcDbEntity
  8
A-0
  6
Continuous
 62
     7
370
     9
100
AcDbPolyline
 90
        4
 70
     1
 43
2.0
 10
-1266.839724609698
 20
89.57489838471272
 42
0.4142135623731
 10
-1267.839724609698
 20
90.57489838471271
 42
0.4142135623731
 10
-1268.839724609698
 20
89.57489838471272
 42
0.4142135623731
 10
-1267.839724609698
 20
88.57489838471272
 42
0.4142135623731
  0
TEXT
  5
3AF
330
1F
100
AcDbEntity
  8
A-0
  6
Continuous
 62
     2
370
   211
100
AcDbText
 10
-831.5895988277879
 20
101.2148983847128
 30
0.0
 40
30.48
  1
22
 41
1.0625
  7
ＭＳ ゴシック
100
AcDbText
  0
LINE
  5
3B0
330
1F
100
AcDbEntity
  8
A-0
  6
Continuous
 62
     7
370
     9
100
AcDbLine
 10
-837.839473045878
 20
-19.17675946209897
 30
0.0
 11
-850.3394195627914
 21
-19.17675946209897
 31
0.0
  0
LWPOLYLINE
  5
3B1
330
1F
100
AcDbEntity
  8
A-0
  6
Continuous
 62
     7
370
     9
100
AcDbPolyline
 90
        4
 70
     1
 43
2.0
 10
-836.8394730458781
 20
-19.17675946209897
 42
0.4142135623731
 10
-837.839473045878
 20
-18.17675946209897
 42
0.4142135623731
 10
-838.8394730458779
 20
-19.17675946209897
 42
0.4142135623731
 10
-837.839473045878
 20
-20.17675946209897
 42
0.4142135623731
  0
LWPOLYLINE
  5
3B2
330
1F
100
AcDbEntity
  8
A-0
  6
Continuous
 62
     7
370
     9
100
AcDbPolyline
 90
        4
 70
     1
 43
2.0
 10
-849.3394195627914
 20
-19.17675946209897
 42
0.4142135623731
 10
-850.3394195627914
 20
-18.17675946209897
 42
0.4142135623731
 10
-851.3394195627914
 20
-19.17675946209897
 42
0.4142135623731
 10
-850.3394195627914
 20
-20.17675946209897
 42
0.4142135623731
  0
LINE
  5
3B3
330
1F
100
AcDbEntity
  8
A-0
  6
Continuous
 62
     7
370
     9
100
AcDbLine
 10
-850.3394195627914
 20
-19.17675946209897
 30
0.0
 11
-1200.339996793502
 21
-19.17675946209897
 31
0.0
  0
LWPOLYLINE
  5
3B4
330
1F
100
AcDbEntity
  8
A-0
  6
Continuous
 62
     7
370
     9
100
AcDbPolyline
 90
        4
 70
     1
 43
2.0
 10
-1199.339996793502
 20
-19.17675946209897
 42
0.4142135623731
 10
-1200.339996793502
 20
-18.17675946209897
 42
0.4142135623731
 10
-1201.339996793502
 20
-19.17675946209897
 42
0.4142135623731
 10
-1200.339996793502
 20
-20.17675946209897
 42
0.4142135623731
  0
TEXT
  5
3B5
330
1F
100
AcDbEntity
  8
A-0
  6
Continuous
 62
     2
370
   211
100
AcDbText
 10
-1206.394569538178
 20
-7.536759462098992
 30
0.0
 40
30.48
  1
5
 41
0.9999999999999998
  7
ＭＳ ゴシック
100
AcDbText
  0
LINE
  5
3B6
330
1F
100
AcDbEntity
  8
A-0
  6
Continuous
 62
     7
370
     9
100
AcDbLine
 10
-1200.339996793502
 20
-19.17675946209897
 30
0.0
 11
-1212.839473045875
 21
-19.17675946209897
 31
0.0
  0
LWPOLYLINE
  5
3B7
330
1F
100
AcDbEntity
  8
A-0
  6
Continuous
 62
     7
370
     9
100
AcDbPolyline
 90
        4
 70
     1
 43
2.0
 10
-1211.839473045875
 20
-19.17675946209897
 42
0.4142135623731
 10
-1212.839473045875
 20
-18.17675946209897
 42
0.4142135623731
 10
-1213.839473045875
 20
-19.17675946209897
 42
0.4142135623731
 10
-1212.839473045875
 20
-20.17675946209897
 42
0.4142135623731
  0
TEXT
  5
3B8
330
1F
100
AcDbEntity
  8
A-0
  6
Continuous
 62
     2
370
   211
100
AcDbText
 10
-1057.839708178147
 20
-7.536759462098992
 30
0.0
 40
30.48
  1
140
 41
1.083333333333333
  7
ＭＳ ゴシック
100
AcDbText
  0
TEXT
  5
3B9
330
1F
100
AcDbEntity
  8
A-0
  6
Continuous
 62
     2
370
   211
100
AcDbText
 10
-864.3411799643434
 20
-7.536759462098992
 30
0.0
 40
30.48
  1
5
 41
0.9999999999999998
  7
ＭＳ ゴシック
100
AcDbText
  0
LINE
  5
3BA
330
1F
100
AcDbEntity
  8
A-0
  6
Continuous
 62
     7
370
     9
100
AcDbLine
 10
-850.3394195627914
 20
-16.17675946209896
 30
0.0
 11
-850.3394195627914
 21
-130.097169618349
 31
0.0
  0
LINE
  5
3BB
330
1F
100
AcDbEntity
  8
A-0
  6
Continuous
 62
     7
370
     9
100
AcDbLine
 10
-837.839473045878
 20
92.57489838471275
 30
0.0
 11
-837.839473045878
 21
-130.097169618349
 31
0.0
  0
LINE
  5
3BC
330
1F
100
AcDbEntity
  8
A-0
  6
Continuous
 62
     7
370
     9
100
AcDbLine
 10
-1212.839473045875
 20
92.57489838471275
 30
0.0
 11
-1212.839473045875
 21
-130.097169618349
 31
0.0
  0
LINE
  5
3BD
330
1F
100
AcDbEntity
  8
A-0
  6
Continuous
 62
     7
370
     9
100
AcDbLine
 10
-1200.339996793502
 20
-16.17675946209896
 30
0.0
 11
-1200.339996793502
 21
-130.097169618349
 31
0.0
  0
LINE
  5
3BE
330
1F
100
AcDbEntity
  8
A-0
  6
Continuous
 62
     7
370
     9
100
AcDbLine
 10
-1077.521213475236
 20
-150.097169618349
 30
0.0
 11
-1077.521213475236
 21
-187.597087138408
 31
0.0
  0
LWPOLYLINE
  5
3BF
330
1F
100
AcDbEntity
  8
A-0
  6
Continuous
 62
     7
370
     9
100
AcDbPolyline
 90
        4
 70
     1
 43
2.0
 10
-1076.521213475236
 20
-150.097169618349
 42
0.4142135623731
 10
-1077.521213475236
 20
-149.097169618349
 42
0.4142135623731
 10
-1078.521213475235
 20
-150.097169618349
 42
0.4142135623731
 10
-1077.521213475236
 20
-151.097169618349
 42
0.4142135623731
  0
LWPOLYLINE
  5
3C0
330
1F
100
AcDbEntity
  8
A-0
  6
Continuous
 62
     7
370
     9
100
AcDbPolyline
 90
        4
 70
     1
 43
2.0
 10
-1076.521213475236
 20
-187.597087138408
 42
0.4142135623731
 10
-1077.521213475236
 20
-186.597087138408
 42
0.4142135623731
 10
-1078.521213475235
 20
-187.597087138408
 42
0.4142135623731
 10
-1077.521213475236
 20
-188.597087138408
 42
0.4142135623731
  0
TEXT
  5
3C1
330
1F
100
AcDbEntity
  8
A-0
  6
Continuous
 62
     2
370
   211
100
AcDbText
 10
-1089.161213475236
 20
-140.8991957831868
 30
0.0
 40
30.48
  1
15
 50
90.0
 41
1.0625
  7
ＭＳ ゴシック
100
AcDbText
  0
LINE
  5
3C2
330
1F
100
AcDbEntity
  8
A-0
  6
Continuous
 62
     7
370
     9
100
AcDbLine
 10
-1077.521213475236
 20
-150.097169618349
 30
0.0
 11
-1077.521213475236
 21
-95.0011851797407
 31
0.0
  0
LINE
  5
3C3
330
1F
100
AcDbEntity
  8
A-5
  6
Continuous
 62
     7
370
     9
100
AcDbLine
 10
-1312.839431805906
 20
-761.5524103243193
 30
0.0
 11
-1312.839431805906
 21
-696.5528144760298
 31
0.0
  0
LINE
  5
3C4
330
1F
100
AcDbEntity
  8
A-5
  6
Continuous
 62
     7
370
     9
100
AcDbLine
 10
-1312.839431805906
 20
-696.5528144760298
 30
0.0
 11
-737.8395142858471
 21
-696.5528144760298
 31
0.0
  0
LINE
  5
3C5
330
1F
100
AcDbEntity
  8
A-5
  6
Continuous
 62
     7
370
     9
100
AcDbLine
 10
-737.8395142858471
 20
-696.5528144760298
 30
0.0
 11
-737.8395142858471
 21
-761.5524103243193
 31
0.0
  0
LINE
  5
3C6
330
1F
100
AcDbEntity
  8
A-5
  6
Continuous
 62
     7
370
     9
100
AcDbLine
 10
-737.8395142858471
 20
-761.5524103243193
 30
0.0
 11
-1312.839431805906
 21
-761.5524103243193
 31
0.0
  0
LINE
  5
3C7
330
1F
100
AcDbEntity
  8
A-5
  6
Continuous
 62
     7
370
     9
100
AcDbLine
 10
-837.8392874660113
 20
-150.097169618349
 30
0.0
 11
-663.3721903640264
 21
24.36992748363593
 31
0.0
  0
LINE
  5
3C8
330
1F
100
AcDbEntity
  8
A-5
  6
Continuous
 62
     7
370
     9
100
AcDbLine
 10
-837.8392874660113
 20
-150.097169618349
 30
0.0
 11
-822.620253735015
 21
-130.263383195207
 31
0.0
  0
LINE
  5
3C9
330
1F
100
AcDbEntity
  8
A-5
  6
Continuous
 62
     7
370
     9
100
AcDbLine
 10
-837.8392874660113
 20
-150.097169618349
 30
0.0
 11
-818.0052536030468
 21
-134.8781358873524
 31
0.0
  0
TEXT
  5
3CA
330
1F
100
AcDbEntity
  8
A-5
  6
Continuous
 62
     7
370
     9
100
AcDbText
 10
-660.9659618088114
 20
106.2263774809966
 30
0.0
 40
22.86
  1
滑り止め模様付歩道Ｕ字溝用
 41
1.153846153846154
  7
ＭＳ ゴシック
100
AcDbText
  0
TEXT
  5
3CB
330
1F
100
AcDbEntity
  8
A-5
  6
Continuous
 62
     7
370
     9
100
AcDbText
 10
-660.9652267140377
 20
68.75854465793505
 30
0.0
 40
22.86
  1
ステンレス製グレーチング
 50
0.0001537292953488
 41
1.152777777777778
  7
ＭＳ ゴシック
100
AcDbText
  0
LINE
  5
3CC
330
1F
100
AcDbEntity
  8
A-5
  6
Continuous
 62
     7
370
     9
100
AcDbLine
 10
-663.3721903640264
 20
24.36992748363593
 30
0.0
 11
-176.630254842334
 21
24.36992748363593
 31
0.0
  0
TEXT
  5
3CD
330
1F
100
AcDbEntity
  8
A-5
  6
Continuous
 62
     2
370
     9
100
AcDbText
 10
-1274.070246971658
 20
-743.4127402440829
 30
0.0
 40
30.48
  1
断面詳細図　Ｓ＝１：４
 41
1.113636363636364
  7
ＭＳ ゴシック
100
AcDbText
  0
TEXT
  5
3CE
330
1F
100
AcDbEntity
  8
A-5
  6
Continuous
 62
     7
370
     9
100
AcDbText
 10
-660.9652287925364
 20
32.12087243981274
 30
0.0
 40
22.86
  1
ＳＭＱＨＵ(h=15)ピッチ＝１５
 50
0.0001260200668
 41
1.154761904761904
  7
ＭＳ ゴシック
100
AcDbText
  0
LINE
  5
3CF
330
1F
100
AcDbEntity
  8
A-5
  6
Continuous
 62
     7
370
     9
100
AcDbLine
 10
371.3501506541977
 20
-77.90527808385825
 30
0.0
 11
371.3501506541977
 21
-27.90498940406529
 31
0.0
  0
LINE
  5
3D0
330
1F
100
AcDbEntity
  8
A-5
  6
Continuous
 62
     7
370
     9
100
AcDbLine
 10
371.3501506541977
 20
-27.90498940406529
 30
0.0
 11
596.3501506541977
 21
-27.90498940406529
 31
0.0
  0
LINE
  5
3D1
330
1F
100
AcDbEntity
  8
A-5
  6
Continuous
 62
     7
370
     9
100
AcDbLine
 10
596.3501506541977
 20
-27.90498940406529
 30
0.0
 11
596.3501506541977
 21
-77.90527808385825
 31
0.0
  0
LINE
  5
3D2
330
1F
100
AcDbEntity
  8
A-5
  6
Continuous
 62
     7
370
     9
100
AcDbLine
 10
596.3501506541977
 20
-77.90527808385825
 30
0.0
 11
371.3501506541977
 21
-77.90527808385825
 31
0.0
  0
TEXT
  5
3D3
330
1F
100
AcDbEntity
  8
A-5
  6
Continuous
 62
     2
370
     9
100
AcDbText
 10
413.8939310068159
 20
-69.83096510877374
 30
0.0
 40
30.48
  1
仕　様
 41
1.083333333333333
  7
ＭＳ ゴシック
100
AcDbText
  0
TEXT
  5
3D4
330
1F
100
AcDbEntity
  8
A-5
  6
Continuous
 62
     2
370
     9
100
AcDbText
 10
533.1525270662545
 20
-350.1865938698591
 30
0.0
 40
30.48
  1
　　　受けつば　　Ｌ３０×３０×３（ＳＵＳ３０４）
 41
1.12
  7
ＭＳ ゴシック
100
AcDbText
  0
TEXT
  5
3D5
330
1F
100
AcDbEntity
  8
A-5
  6
Continuous
 62
     2
370
     9
100
AcDbText
 10
533.1525023222722
 20
-240.1862309581192
 30
0.0
 40
30.48
  1
材質：メインバー　ＦＢ４×１５（ＳＵＳ３０４）
 41
1.119565217391304
  7
ＭＳ ゴシック
100
AcDbText
  0
TEXT
  5
3D6
330
1F
100
AcDbEntity
  8
A-5
  6
Continuous
 62
     2
370
     9
100
AcDbText
 10
533.1525023222722
 20
-295.1870310135458
 30
0.0
 40
30.48
  1
　　　クロスバー　ＦＢ３×１０（ＳＵＳ３０４）
 41
1.119565217391304
  7
ＭＳ ゴシック
100
AcDbText
  0
TEXT
  5
3D7
330
1F
100
AcDbEntity
  8
A-5
  6
Continuous
 62
     2
370
     9
100
AcDbText
 10
533.1518589787332
 20
-405.186960905596
 30
0.0
 40
30.48
  1
定尺：９９４
 41
1.104166666666667
  7
ＭＳ ゴシック
100
AcDbText
  0
TEXT
  5
3D8
330
1F
100
AcDbEntity
  8
A-5
  6
Continuous
 62
     2
370
     9
100
AcDbText
 10
473.4398294443159
 20
-130.1856206065567
 30
0.0
 40
30.48
  1
滑り止め模様付　歩道Ｕ字溝用ステンレス製グレーチング
 41
1.120192307692307
  7
ＭＳ ゴシック
100
AcDbText
  0
TEXT
  5
3D9
330
1F
100
AcDbEntity
  8
A-5
  6
Continuous
 62
     7
370
     9
100
AcDbText
 10
428.8501506541977
 20
-589.7128555230331
 30
0.0
 40
30.48
  1
強　度
 41
0.8749999999999999
  7
ＭＳ ゴシック
100
AcDbText
  0
TEXT
  5
3DA
330
1F
100
AcDbEntity
  8
A-5
  6
Continuous
 62
     7
370
     9
100
AcDbText
 10
638.8501506541977
 20
-589.7128555230331
 30
0.0
 40
30.48
  1
歩行用
 41
0.8749999999999993
  7
ＭＳ ゴシック
100
AcDbText
  0
TEXT
  5
3DB
330
1F
100
AcDbEntity
  8
A-5
  6
Continuous
 62
     7
370
     9
100
AcDbText
 10
393.8501506541977
 20
-639.7128555230332
 30
0.0
 40
30.48
  1
等分布荷重
 41
0.8749999999999999
  7
ＭＳ ゴシック
100
AcDbText
  0
TEXT
  5
3DC
330
1F
100
AcDbEntity
  8
A-5
  6
Continuous
 62
     7
370
     9
100
AcDbText
 10
621.3501506541977
 20
-639.7128555230332
 30
0.0
 40
30.48
  1
5.0kN/㎡
 41
0.8749999999999994
  7
ＭＳ ゴシック
100
AcDbText
  0
TEXT
  5
3DD
330
1F
100
AcDbEntity
  8
A-5
  6
Continuous
 62
     7
370
     9
100
AcDbText
 10
411.3501506541977
 20
-689.7128555230332
 30
0.0
 40
30.48
  1
衝撃係数
 41
0.8749999999999999
  7
ＭＳ ゴシック
100
AcDbText
  0
TEXT
  5
3DE
330
1F
100
AcDbEntity
  8
A-5
  6
Continuous
 62
     7
370
     9
100
AcDbText
 10
682.6001506541977
 20
-689.7128555230332
 30
0.0
 40
30.48
  1
0
 41
0.8749999999999999
  7
ＭＳ ゴシック
100
AcDbText
  0
LINE
  5
3DF
330
1F
100
AcDbEntity
  8
A-4
  6
Continuous
 62
     2
370
     9
100
AcDbLine
 10
371.3501506541977
 20
-1087.955419625597
 30
0.0
 11
371.3501506541977
 21
-788.2894657920832
 31
0.0
  0
TEXT
  5
3E0
330
1F
100
AcDbEntity
  8
A-5
  6
Continuous
 62
     7
370
     9
100
AcDbText
 10
370.4674975929732
 20
-770.5176630709948
 30
0.0
 40
30.48
  1
適用Ｕ形側溝および、設置場所について
 41
0.8750000000000003
  7
ＭＳ ゴシック
100
AcDbText
  0
TEXT
  5
3E1
330
1F
100
AcDbEntity
  8
A-5
  6
Continuous
 62
     7
370
     9
100
AcDbText
 10
404.2991302460351
 20
-852.0729351798385
 30
0.0
 40
30.48
  1
・適用Ｕ形側溝
 41
0.8749999999999997
  7
ＭＳ ゴシック
100
AcDbText
  0
TEXT
  5
3E2
330
1F
100
AcDbEntity
  8
A-5
  6
Continuous
 62
     7
370
     9
100
AcDbText
 10
404.2991302460351
 20
-901.0117106900426
 30
0.0
 40
30.48
  1
　JIS A 5372 推奨仕様E-1 U形側溝、推奨仕様E-2 上ぶた式U形側溝の本体に適用します。
 41
0.8749999999999998
  7
ＭＳ ゴシック
100
AcDbText
  0
TEXT
  5
3E3
330
1F
100
AcDbEntity
  8
A-5
  6
Continuous
 62
     7
370
     9
100
AcDbText
 10
404.2991302460351
 20
-998.8892617104506
 30
0.0
 40
30.48
  1
・設置場所
 41
0.8749999999999999
  7
ＭＳ ゴシック
100
AcDbText
  0
LINE
  5
3E4
330
1F
100
AcDbEntity
  8
A-4
  6
Continuous
 62
     2
370
     9
100
AcDbLine
 10
371.3501506541977
 20
-551.3528555230332
 30
0.0
 11
791.3501506541977
 21
-551.3528555230332
 31
0.0
  0
LINE
  5
3E5
330
1F
100
AcDbEntity
  8
A-4
  6
Continuous
 62
     2
370
     9
100
AcDbLine
 10
371.3501506541977
 20
-651.3528555230332
 30
0.0
 11
791.3501506541977
 21
-651.3528555230332
 31
0.0
  0
LINE
  5
3E6
330
1F
100
AcDbEntity
  8
A-4
  6
Continuous
 62
     2
370
     9
100
AcDbLine
 10
371.3501506541977
 20
-601.3528555230332
 30
0.0
 11
791.3501506541977
 21
-601.3528555230332
 31
0.0
  0
LINE
  5
3E7
330
1F
100
AcDbEntity
  8
A-4
  6
Continuous
 62
     2
370
     9
100
AcDbLine
 10
791.3501506541977
 20
-551.3528555230332
 30
0.0
 11
791.3501506541977
 21
-701.3528555230332
 31
0.0
  0
LINE
  5
3E8
330
1F
100
AcDbEntity
  8
A-4
  6
Continuous
 62
     2
370
     9
100
AcDbLine
 10
371.3501506541977
 20
-701.3528555230332
 30
0.0
 11
791.3501506541977
 21
-701.3528555230332
 31
0.0
  0
LINE
  5
3E9
330
1F
100
AcDbEntity
  8
A-4
  6
Continuous
 62
     2
370
     9
100
AcDbLine
 10
371.3501506541977
 20
-551.3528555230332
 30
0.0
 11
371.3501506541977
 21
-701.3528555230332
 31
0.0
  0
LINE
  5
3EA
330
1F
100
AcDbEntity
  8
A-4
  6
Continuous
 62
     2
370
     9
100
AcDbLine
 10
591.3501506541977
 20
-551.3528555230332
 30
0.0
 11
591.3501506541977
 21
-701.3528555230332
 31
0.0
  0
LINE
  5
3EB
330
1F
100
AcDbEntity
  8
A-4
  6
Continuous
 62
     2
370
     9
100
AcDbLine
 10
371.3501506541977
 20
-788.2894657920832
 30
0.0
 11
1834.787712273049
 21
-788.2894657920832
 31
0.0
  0
LINE
  5
3EC
330
1F
100
AcDbEntity
  8
A-4
  6
Continuous
 62
     2
370
     9
100
AcDbLine
 10
1834.787712273049
 20
-788.2894657920832
 30
0.0
 11
1834.787712273049
 21
-1087.955419625597
 31
0.0
  0
LINE
  5
3ED
330
1F
100
AcDbEntity
  8
A-4
  6
Continuous
 62
     2
370
     9
100
AcDbLine
 10
1834.787712273049
 20
-1087.955419625597
 30
0.0
 11
371.3501506541977
 21
-1087.955419625597
 31
0.0
  0
TEXT
  5
3EE
330
1F
100
AcDbEntity
  8
A-5
  6
Continuous
 62
     2
370
     9
100
AcDbText
 10
533.1518589787332
 20
-460.1877609610226
 30
0.0
 40
30.48
  1
質量：７．１ｋｇ／枚
 41
1.1125
  7
ＭＳ ゴシック
100
AcDbText
  0
TEXT
  5
3EF
330
1F
100
AcDbEntity
  8
A-5
  6
Continuous
 62
     7
370
     9
100
AcDbText
 10
404.2991302460351
 20
-1047.828037220654
 30
0.0
 40
30.48
  1
　建物内、建物敷地内などで、車の乗り入れの無い場所でお使いいただけます。
 41
0.875
  7
ＭＳ ゴシック
100
AcDbText
  0
TEXT
  5
3F0
330
1F
100
AcDbEntity
  8
A-5
  6
Continuous
 62
     2
370
     9
100
AcDbText
 10
473.4398294443159
 20
-185.1862969420719
 30
0.0
 40
30.48
  1
ＳＭＱＨＵ　１５１５　Ｐ＝１５（すきま１１mm）
 41
1.119565217391304
  7
ＭＳ ゴシック
100
AcDbText
  0
TEXT
  5
3F1
330
1F
100
AcDbEntity
  8
F-5
  6
Continuous
 62
     2
370
     9
100
AcDbText
 10
-164.5140478668054
 20
-1370.86711064863
 30
0.0
 40
30.48
  1
ＳＭＱＨＵ　１５１５　Ｐ＝１５
 41
0.8983333333333332
  7
ＭＳ ゴシック
100
AcDbText
  0
LINE
  5
3F2
330
1F
100
AcDbEntity
  8
C-5
  6
Continuous
 62
     7
370
     9
100
AcDbLine
 10
614.0232239771608
 20
938.6199292374782
 30
0.0
 11
861.0975647974733
 21
938.6199292374782
 31
0.0
  0
ENDSEC
  0
SECTION
  2
OBJECTS
  0
DICTIONARY
  5
C
330
0
100
AcDbDictionary
281
     1
  3
ACAD_DETAILVIEWSTYLE
350
438
  3
ACAD_GROUP
350
D
  3
ACAD_LAYOUT
350
1A
  3
ACAD_MATERIAL
350
43
  3
ACAD_MLEADERSTYLE
350
6B
  3
ACAD_MLINESTYLE
350
17
  3
ACAD_PLOTSETTINGS
350
19
  3
ACAD_PLOTSTYLENAME
350
E
  3
ACAD_SCALELIST
350
47
  3
ACAD_SECTIONVIEWSTYLE
350
439
  3
ACAD_TABLESTYLE
350
69
  3
ACAD_VISUALSTYLE
350
2A
  3
ACDB_RECOMPOSE_DATA
350
435
  3
AcDbVariableDictionary
350
3F5
  0
DICTIONARY
  5
3F3
330
8
100
AcDbDictionary
280
     1
281
     1
  3
ACAD_XREC_ROUNDTRIP
360
3F4
  0
DICTIONARY
  5
438
102
{ACAD_REACTORS
330
C
102
}
330
C
100
AcDbDictionary
281
     1
  0
DICTIONARY
  5
D
102
{ACAD_REACTORS
330
C
102
}
330
C
100
AcDbDictionary
281
     1
  0
DICTIONARY
  5
1A
102
{ACAD_REACTORS
330
C
102
}
330
C
100
AcDbDictionary
281
     1
  3
Layout1
350
1E
  3
Layout2
350
26
  3
Model
350
22
  0
DICTIONARY
  5
43
102
{ACAD_REACTORS
330
C
102
}
330
C
100
AcDbDictionary
281
     1
  3
ByBlock
350
45
  3
ByLayer
350
44
  3
Global
350
46
  0
DICTIONARY
  5
6B
102
{ACAD_REACTORS
330
C
102
}
330
C
100
AcDbDictionary
281
     1
  3
Standard
350
6C
  0
DICTIONARY
  5
17
102
{ACAD_REACTORS
330
C
102
}
330
C
100
AcDbDictionary
281
     1
  3
Standard
350
18
  0
DICTIONARY
  5
19
102
{ACAD_REACTORS
330
C
102
}
330
C
100
AcDbDictionary
281
     1
  0
ACDBDICTIONARYWDFLT
  5
E
102
{ACAD_REACTORS
330
C
102
}
330
C
100
AcDbDictionary
281
     1
  3
Normal
350
F
100
AcDbDictionaryWithDefault
340
F
  0
DICTIONARY
  5
47
102
{ACAD_REACTORS
330
C
102
}
330
C
100
AcDbDictionary
281
     1
  3
A0
350
48
  3
A1
350
49
  3
A2
350
4A
  3
A3
350
4B
  3
A4
350
4C
  3
A5
350
4D
  3
A6
350
4E
  3
A7
350
4F
  3
A8
350
50
  3
A9
350
51
  3
B0
350
52
  3
B1
350
53
  3
B2
350
54
  3
B3
350
55
  3
B4
350
56
  3
B5
350
57
  3
B6
350
58
  3
B7
350
59
  3
B8
350
5A
  3
B9
350
5B
  3
C0
350
5C
  3
C1
350
5D
  3
C2
350
5E
  3
C3
350
5F
  3
C4
350
60
  3
C5
350
61
  3
C6
350
62
  3
C7
350
63
  3
C8
350
64
  3
C9
350
65
  3
D0
350
66
  3
D1
350
67
  3
D2
350
68
  0
DICTIONARY
  5
439
102
{ACAD_REACTORS
330
C
102
}
330
C
100
AcDbDictionary
281
     1
  0
DICTIONARY
  5
69
102
{ACAD_REACTORS
330
C
102
}
330
C
100
AcDbDictionary
281
     1
  3
Standard
350
6A
  0
DICTIONARY
  5
2A
102
{ACAD_REACTORS
330
C
102
}
330
C
100
AcDbDictionary
281
     1
  3
2dWireframe
350
2F
  3
Basic
350
32
  3
Brighten
350
36
  3
ColorChange
350
3A
  3
Conceptual
350
34
  3
Dim
350
35
  3
EdgeColorOff
350
3D
  3
Facepattern
350
39
  3
Flat
350
2B
  3
FlatWithEdges
350
2C
  3
Gouraud
350
2D
  3
GouraudWithEdges
350
2E
  3
Hidden
350
31
  3
JitterOff
350
3B
  3
Linepattern
350
38
  3
OverhangOff
350
3C
  3
Realistic
350
33
  3
Shaded
350
42
  3
Shaded with edges
350
41
  3
Shades of Gray
350
3E
  3
Sketchy
350
3F
  3
Thicken
350
37
  3
Wireframe
350
30
  3
X-Ray
350
40
  0
XRECORD
  5
435
102
{ACAD_REACTORS
330
C
102
}
330
C
100
AcDbXrecord
280
     1
 90
        1
330
6A
  0
DICTIONARY
  5
3F5
102
{ACAD_REACTORS
330
C
102
}
330
C
100
AcDbDictionary
281
     1
  3
CANNOSCALE
350
3F6
  3
CENTEREXE
350
43A
  3
CENTERLTYPEFILE
350
43B
  3
CMLEADERSTYLE
350
437
  3
CTABLESTYLE
350
436
  3
MSLTSCALE
350
3F7
  3
XCLIPFRAME
350
3F8
  0
XRECORD
  5
3F4
102
{ACAD_REACTORS
330
3F3
102
}
330
3F3
100
AcDbXrecord
280
     1
102
VTR_0.000_0.000_1.000_1.000_VISUALSTYLE
340
2F
102
VTR_0.000_0.000_1.000_1.000_GRIDDISPLAY
 70
     3
102
VTR_0.000_0.000_1.000_1.000_GRIDMAJOR
 70
     5
102
VTR_0.000_0.000_1.000_1.000_DEFAULTLIGHTING
280
     1
102
VTR_0.000_0.000_1.000_1.000_DEFAULTLIGHTINGTYPE
 70
     1
102
VTR_0.000_0.000_1.000_1.000_BRIGHTNESS
141
0.0
102
VTR_0.000_0.000_1.000_1.000_CONTRAST
142
0.0
  0
LAYOUT
  5
1E
102
{ACAD_REACTORS
330
1A
102
}
330
1A
100
AcDbPlotSettings
  1

  2
none_device
  4

  6

 40
0.0
 41
0.0
 42
0.0
 43
0.0
 44
0.0
 45
0.0
 46
0.0
 47
0.0
 48
0.0
 49
0.0
140
0.0
141
0.0
142
1.0
143
1.0
 70
   688
 72
     1
 73
     0
 74
     5
  7

 75
    16
 76
     0
 77
     5
 78
   300
147
1.0
148
0.0
149
0.0
100
AcDbLayout
  1
Layout1
 70
     1
 71
     1
 10
0.0
 20
0.0
 11
420.0
 21
297.0
 12
0.0
 22
0.0
 32
0.0
 14
1.000000000000000E+20
 24
1.000000000000000E+20
 34
1.000000000000000E+20
 15
-1.000000000000000E+20
 25
-1.000000000000000E+20
 35
-1.000000000000000E+20
146
0.0
 13
0.0
 23
0.0
 33
0.0
 16
1.0
 26
0.0
 36
0.0
 17
0.0
 27
1.0
 37
0.0
 76
     0
330
1B
  0
LAYOUT
  5
26
102
{ACAD_REACTORS
330
1A
102
}
330
1A
100
AcDbPlotSettings
  1

  2
none_device
  4

  6

 40
0.0
 41
0.0
 42
0.0
 43
0.0
 44
0.0
 45
0.0
 46
0.0
 47
0.0
 48
0.0
 49
0.0
140
0.0
141
0.0
142
1.0
143
1.0
 70
   688
 72
     1
 73
     0
 74
     5
  7

 75
    16
 76
     0
 77
     5
 78
   300
147
1.0
148
0.0
149
0.0
100
AcDbLayout
  1
Layout2
 70
     1
 71
     2
 10
0.0
 20
0.0
 11
0.0
 21
0.0
 12
0.0
 22
0.0
 32
0.0
 14
0.0
 24
0.0
 34
0.0
 15
0.0
 25
0.0
 35
0.0
146
0.0
 13
0.0
 23
0.0
 33
0.0
 16
1.0
 26
0.0
 36
0.0
 17
0.0
 27
1.0
 37
0.0
 76
     0
330
23
  0
LAYOUT
  5
22
102
{ACAD_REACTORS
330
1A
102
}
330
1A
100
AcDbPlotSettings
  1

  2
none_device
  4
Letter_(8.50_x_11.00_Inches)
  6

 40
6.35
 41
6.35
 42
6.35000508
 43
6.35000508
 44
215.9
 45
279.4
 46
0.0
 47
0.0
 48
0.0
 49
0.0
140
0.0
141
0.0
142
1.0
143
1.0
 70
  1712
 72
     1
 73
     0
 74
     0
  7

 75
     0
 76
     0
 77
     5
 78
   300
147
1.0
148
0.0
149
0.0
100
AcDbLayout
  1
Model
 70
     1
 71
     0
 10
-2100.0
 20
-1485.0
 11
2100.0
 21
1485.0
 12
0.0
 22
0.0
 32
0.0
 14
-2100.0
 24
-1485.0
 34
0.0
 15
2100.0
 25
1485.0
 35
0.0
146
0.0
 13
0.0
 23
0.0
 33
0.0
 16
1.0
 26
0.0
 36
0.0
 17
0.0
 27
1.0
 37
0.0
 76
     0
330
1F
331
29
  0
MATERIAL
  5
45
102
{ACAD_REACTORS
330
43
102
}
102
{ACAD_XDICTIONARY
360
42B
102
}
330
43
100
AcDbMaterial
  1
ByBlock
  0
MATERIAL
  5
44
102
{ACAD_REACTORS
330
43
102
}
102
{ACAD_XDICTIONARY
360
429
102
}
330
43
100
AcDbMaterial
  1
ByLayer
  0
MATERIAL
  5
46
102
{ACAD_REACTORS
330
43
102
}
102
{ACAD_XDICTIONARY
360
42D
102
}
330
43
100
AcDbMaterial
  1
Global
  0
MLEADERSTYLE
  5
6C
102
{ACAD_REACTORS
330
6B
102
}
102
{ACAD_XDICTIONARY
360
433
102
}
330
6B
100
AcDbMLeaderStyle
170
     2
171
     1
172
     0
 90
        2
 40
0.0
 41
0.0
173
     1
 91
-1056964608
340
14
 92
       -2
290
     1
 42
2.0
291
     1
 43
8.0
  3
Standard
341
0
 44
4.0
300

342
11
174
     1
178
     6
175
     1
176
     0
 93
-1056964608
 45
4.0
292
     0
297
     0
 46
4.0
343
0
 94
-1056964608
 47
1.0
 49
1.0
140
1.0
293
     1
141
0.0
294
     1
177
     0
142
1.0
295
     0
296
     0
143
3.75
1001
ACAD_MLEADERVER
1070
     2
  0
MLINESTYLE
  5
18
102
{ACAD_REACTORS
330
17
102
}
330
17
100
AcDbMlineStyle
  2
Standard
 70
     0
  3

 62
   256
 51
90.0
 52
90.0
 71
     2
 49
0.5
 62
   256
  6
BYLAYER
 49
-0.5
 62
   256
  6
BYLAYER
  0
ACDBPLACEHOLDER
  5
F
102
{ACAD_REACTORS
330
E
102
}
330
E
  0
SCALE
  5
48
102
{ACAD_REACTORS
330
47
102
}
330
47
100
AcDbScale
 70
     0
300
1:1
140
1.0
141
1.0
290
     1
  0
SCALE
  5
49
102
{ACAD_REACTORS
330
47
102
}
330
47
100
AcDbScale
 70
     0
300
1:2
140
1.0
141
2.0
290
     0
  0
SCALE
  5
4A
102
{ACAD_REACTORS
330
47
102
}
330
47
100
AcDbScale
 70
     0
300
1:4
140
1.0
141
4.0
290
     0
  0
SCALE
  5
4B
102
{ACAD_REACTORS
330
47
102
}
330
47
100
AcDbScale
 70
     0
300
1:5
140
1.0
141
5.0
290
     0
  0
SCALE
  5
4C
102
{ACAD_REACTORS
330
47
102
}
330
47
100
AcDbScale
 70
     0
300
1:8
140
1.0
141
8.0
290
     0
  0
SCALE
  5
4D
102
{ACAD_REACTORS
330
47
102
}
330
47
100
AcDbScale
 70
     0
300
1:10
140
1.0
141
10.0
290
     0
  0
SCALE
  5
4E
102
{ACAD_REACTORS
330
47
102
}
330
47
100
AcDbScale
 70
     0
300
1:16
140
1.0
141
16.0
290
     0
  0
SCALE
  5
4F
102
{ACAD_REACTORS
330
47
102
}
330
47
100
AcDbScale
 70
     0
300
1:20
140
1.0
141
20.0
290
     0
  0
SCALE
  5
50
102
{ACAD_REACTORS
330
47
102
}
330
47
100
AcDbScale
 70
     0
300
1:30
140
1.0
141
30.0
290
     0
  0
SCALE
  5
51
102
{ACAD_REACTORS
330
47
102
}
330
47
100
AcDbScale
 70
     0
300
1:40
140
1.0
141
40.0
290
     0
  0
SCALE
  5
52
102
{ACAD_REACTORS
330
47
102
}
330
47
100
AcDbScale
 70
     0
300
1:50
140
1.0
141
50.0
290
     0
  0
SCALE
  5
53
102
{ACAD_REACTORS
330
47
102
}
330
47
100
AcDbScale
 70
     0
300
1:100
140
1.0
141
100.0
290
     0
  0
SCALE
  5
54
102
{ACAD_REACTORS
330
47
102
}
330
47
100
AcDbScale
 70
     0
300
2:1
140
2.0
141
1.0
290
     0
  0
SCALE
  5
55
102
{ACAD_REACTORS
330
47
102
}
330
47
100
AcDbScale
 70
     0
300
4:1
140
4.0
141
1.0
290
     0
  0
SCALE
  5
56
102
{ACAD_REACTORS
330
47
102
}
330
47
100
AcDbScale
 70
     0
300
8:1
140
8.0
141
1.0
290
     0
  0
SCALE
  5
57
102
{ACAD_REACTORS
330
47
102
}
330
47
100
AcDbScale
 70
     0
300
10:1
140
10.0
141
1.0
290
     0
  0
SCALE
  5
58
102
{ACAD_REACTORS
330
47
102
}
330
47
100
AcDbScale
 70
     0
300
100:1
140
100.0
141
1.0
290
     0
  0
SCALE
  5
59
102
{ACAD_REACTORS
330
47
102
}
330
47
100
AcDbScale
 70
     0
300
1/128" = 1'-0"
140
0.0078125
141
12.0
290
     0
  0
SCALE
  5
5A
102
{ACAD_REACTORS
330
47
102
}
330
47
100
AcDbScale
 70
     0
300
1/64" = 1'-0"
140
0.015625
141
12.0
290
     0
  0
SCALE
  5
5B
102
{ACAD_REACTORS
330
47
102
}
330
47
100
AcDbScale
 70
     0
300
1/32" = 1'-0"
140
0.03125
141
12.0
290
     0
  0
SCALE
  5
5C
102
{ACAD_REACTORS
330
47
102
}
330
47
100
AcDbScale
 70
     0
300
1/16" = 1'-0"
140
0.0625
141
12.0
290
     0
  0
SCALE
  5
5D
102
{ACAD_REACTORS
330
47
102
}
330
47
100
AcDbScale
 70
     0
300
3/32" = 1'-0"
140
0.09375
141
12.0
290
     0
  0
SCALE
  5
5E
102
{ACAD_REACTORS
330
47
102
}
330
47
100
AcDbScale
 70
     0
300
1/8" = 1'-0"
140
0.125
141
12.0
290
     0
  0
SCALE
  5
5F
102
{ACAD_REACTORS
330
47
102
}
330
47
100
AcDbScale
 70
     0
300
3/16" = 1'-0"
140
0.1875
141
12.0
290
     0
  0
SCALE
  5
60
102
{ACAD_REACTORS
330
47
102
}
330
47
100
AcDbScale
 70
     0
300
1/4" = 1'-0"
140
0.25
141
12.0
290
     0
  0
SCALE
  5
61
102
{ACAD_REACTORS
330
47
102
}
330
47
100
AcDbScale
 70
     0
300
3/8" = 1'-0"
140
0.375
141
12.0
290
     0
  0
SCALE
  5
62
102
{ACAD_REACTORS
330
47
102
}
330
47
100
AcDbScale
 70
     0
300
1/2" = 1'-0"
140
0.5
141
12.0
290
     0
  0
SCALE
  5
63
102
{ACAD_REACTORS
330
47
102
}
330
47
100
AcDbScale
 70
     0
300
3/4" = 1'-0"
140
0.75
141
12.0
290
     0
  0
SCALE
  5
64
102
{ACAD_REACTORS
330
47
102
}
330
47
100
AcDbScale
 70
     0
300
1" = 1'-0"
140
1.0
141
12.0
290
     0
  0
SCALE
  5
65
102
{ACAD_REACTORS
330
47
102
}
330
47
100
AcDbScale
 70
     0
300
1-1/2" = 1'-0"
140
1.5
141
12.0
290
     0
  0
SCALE
  5
66
102
{ACAD_REACTORS
330
47
102
}
330
47
100
AcDbScale
 70
     0
300
3" = 1'-0"
140
3.0
141
12.0
290
     0
  0
SCALE
  5
67
102
{ACAD_REACTORS
330
47
102
}
330
47
100
AcDbScale
 70
     0
300
6" = 1'-0"
140
6.0
141
12.0
290
     0
  0
SCALE
  5
68
102
{ACAD_REACTORS
330
47
102
}
330
47
100
AcDbScale
 70
     0
300
1'-0" = 1'-0"
140
12.0
141
12.0
290
     0
  0
TABLESTYLE
  5
6A
102
{ACAD_REACTORS
330
69
102
}
102
{ACAD_XDICTIONARY
360
42F
102
}
330
69
100
AcDbTableStyle
  3
Standard
 70
     0
 71
     0
 40
0.06
 41
0.06
280
     0
281
     0
  7
Standard
140
4.5
170
     2
 62
     0
 63
   257
283
     0
274
    -2
284
     1
 64
     0
275
    -2
285
     1
 65
     0
276
    -2
286
     1
 66
     0
277
    -2
287
     1
 67
     0
278
    -2
288
     1
 68
     0
279
    -2
289
     1
 69
     0
  7
Standard
140
6.0
170
     5
 62
     0
 63
   257
283
     0
274
    -2
284
     1
 64
     0
275
    -2
285
     1
 65
     0
276
    -2
286
     1
 66
     0
277
    -2
287
     1
 67
     0
278
    -2
288
     1
 68
     0
279
    -2
289
     1
 69
     0
  7
Standard
140
4.5
170
     5
 62
     0
 63
   257
283
     0
274
    -2
284
     1
 64
     0
275
    -2
285
     1
 65
     0
276
    -2
286
     1
 66
     0
277
    -2
287
     1
 67
     0
278
    -2
288
     1
 68
     0
279
    -2
289
     1
 69
     0
  0
VISUALSTYLE
  5
2F
102
{ACAD_REACTORS
330
2A
102
}
102
{ACAD_XDICTIONARY
360
401
102
}
330
2A
100
AcDbVisualStyle
  2
2dWireframe
 70
     4
 71
     0
 72
     2
 73
     0
 90
        0
 40
0.6
 41
30.0
 62
     5
 63
     7
421
 16777215
 74
     1
 91
        4
 64
     7
 65
   257
 75
     1
175
     1
 42
1.0
 92
        0
 66
   257
 43
1.0
 76
     1
 77
     6
 78
     2
 67
     7
 79
     5
170
     0
171
     0
290
     0
174
     0
 93
        1
 44
0.0
173
     0
291
     0
 45
0.0
1001
ACAD
1000
AcDbSavedByObjectVersion
1070
     0
  0
VISUALSTYLE
  5
32
102
{ACAD_REACTORS
330
2A
102
}
102
{ACAD_XDICTIONARY
360
407
102
}
330
2A
100
AcDbVisualStyle
  2
Basic
 70
     7
 71
     1
 72
     0
 73
     1
 90
        0
 40
0.6
 41
30.0
 62
     5
 63
     7
421
 16777215
 74
     0
 91
        4
 64
     7
 65
   257
 75
     1
175
     1
 42
1.0
 92
        8
 66
     7
 43
1.0
 76
     1
 77
     6
 78
     2
 67
     7
 79
     5
170
     0
171
     0
290
     0
174
     0
 93
        1
 44
0.0
173
     0
291
     1
 45
0.0
1001
ACAD
1000
AcDbSavedByObjectVersion
1070
     0
  0
VISUALSTYLE
  5
36
102
{ACAD_REACTORS
330
2A
102
}
102
{ACAD_XDICTIONARY
360
40F
102
}
330
2A
100
AcDbVisualStyle
  2
Brighten
 70
    12
 71
     2
 72
     2
 73
     0
 90
        0
 40
0.6
 41
30.0
 62
     5
 63
     7
421
 16777215
 74
     1
 91
        4
 64
     7
 65
   257
 75
     1
175
     1
 42
1.0
 92
        8
 66
     7
 43
1.0
 76
     1
 77
     6
 78
     2
 67
     7
 79
     5
170
     0
171
     0
290
     0
174
     0
 93
        1
 44
50.0
173
     0
291
     1
 45
0.0
1001
ACAD
1000
AcDbSavedByObjectVersion
1070
     0
  0
VISUALSTYLE
  5
3A
102
{ACAD_REACTORS
330
2A
102
}
102
{ACAD_XDICTIONARY
360
417
102
}
330
2A
100
AcDbVisualStyle
  2
ColorChange
 70
    16
 71
     2
 72
     2
 73
     3
 90
        0
 40
0.6
 41
30.0
 62
     5
 63
     8
421
  8421504
 74
     1
 91
        4
 64
     7
 65
   257
 75
     1
175
     1
 42
1.0
 92
        8
 66
     8
424
  8421504
 43
1.0
 76
     1
 77
     6
 78
     2
 67
     7
 79
     5
170
     0
171
     0
290
     0
174
     0
 93
        1
 44
0.0
173
     0
291
     1
 45
0.0
1001
ACAD
1000
AcDbSavedByObjectVersion
1070
     0
  0
VISUALSTYLE
  5
34
102
{ACAD_REACTORS
330
2A
102
}
102
{ACAD_XDICTIONARY
360
40B
102
}
330
2A
100
AcDbVisualStyle
  2
Conceptual
 70
     9
 71
     3
 72
     2
 73
     0
 90
        0
 40
0.6
 41
30.0
 62
     5
 63
     7
421
 16777215
 74
     2
 91
        2
 64
     7
 65
   257
 75
     1
175
     1
 42
179.0
 92
        8
 66
     7
 43
1.0
 76
     1
 77
     6
 78
     2
 67
     7
 79
     3
170
     0
171
     0
290
     0
174
     0
 93
        1
 44
0.0
173
     0
291
     0
 45
0.0
1001
ACAD
1000
AcDbSavedByObjectVersion
1070
     0
  0
VISUALSTYLE
  5
35
102
{ACAD_REACTORS
330
2A
102
}
102
{ACAD_XDICTIONARY
360
40D
102
}
330
2A
100
AcDbVisualStyle
  2
Dim
 70
    11
 71
     2
 72
     2
 73
     0
 90
        0
 40
0.6
 41
30.0
 62
     5
 63
     7
421
 16777215
 74
     1
 91
        4
 64
     7
 65
   257
 75
     1
175
     1
 42
1.0
 92
        8
 66
     7
 43
1.0
 76
     1
 77
     6
 78
     2
 67
     7
 79
     5
170
     0
171
     0
290
     0
174
     0
 93
        1
 44
-50.0
173
     0
291
     1
 45
0.0
1001
ACAD
1000
AcDbSavedByObjectVersion
1070
     0
  0
VISUALSTYLE
  5
3D
102
{ACAD_REACTORS
330
2A
102
}
102
{ACAD_XDICTIONARY
360
41D
102
}
330
2A
100
AcDbVisualStyle
  2
EdgeColorOff
 70
    22
 71
     2
 72
     2
 73
     0
 90
        0
 40
0.6
 41
30.0
 62
     5
 63
     7
421
 16777215
 74
     1
 91
        4
 64
     7
 65
   257
 75
     1
175
     1
 42
1.0
 92
        8
 66
     7
 43
1.0
 76
     1
 77
     6
 78
     2
 67
     7
 79
     5
170
     0
171
     0
290
     0
174
     0
 93
        1
 44
0.0
173
     0
291
     1
 45
0.0
1001
ACAD
1000
AcDbSavedByObjectVersion
1070
     0
  0
VISUALSTYLE
  5
39
102
{ACAD_REACTORS
330
2A
102
}
102
{ACAD_XDICTIONARY
360
415
102
}
330
2A
100
AcDbVisualStyle
  2
Facepattern
 70
    15
 71
     2
 72
     2
 73
     0
 90
        0
 40
0.6
 41
30.0
 62
     5
 63
     7
421
 16777215
 74
     1
 91
        4
 64
     7
 65
   257
 75
     1
175
     1
 42
1.0
 92
        8
 66
     7
 43
1.0
 76
     1
 77
     6
 78
     2
 67
     7
 79
     5
170
     0
171
     0
290
     0
174
     0
 93
        1
 44
0.0
173
     0
291
     1
 45
0.0
1001
ACAD
1000
AcDbSavedByObjectVersion
1070
     0
  0
VISUALSTYLE
  5
2B
102
{ACAD_REACTORS
330
2A
102
}
102
{ACAD_XDICTIONARY
360
3F9
102
}
330
2A
100
AcDbVisualStyle
  2
Flat
 70
     0
 71
     2
 72
     1
 73
     1
 90
        2
 40
0.6
 41
30.0
 62
     5
 63
     7
421
 16777215
 74
     0
 91
        0
 64
     7
 65
   257
 75
     1
175
     1
 42
1.0
 92
        8
 66
     7
 43
1.0
 76
     1
 77
     6
 78
     2
 67
     7
 79
     5
170
     0
171
     0
290
     0
174
     0
 93
       13
 44
0.0
173
     0
291
     1
 45
0.0
1001
ACAD
1000
AcDbSavedByObjectVersion
1070
     0
  0
VISUALSTYLE
  5
2C
102
{ACAD_REACTORS
330
2A
102
}
102
{ACAD_XDICTIONARY
360
3FB
102
}
330
2A
100
AcDbVisualStyle
  2
FlatWithEdges
 70
     1
 71
     2
 72
     1
 73
     1
 90
        2
 40
0.6
 41
30.0
 62
     5
 63
     7
421
 16777215
 74
     1
 91
        0
 64
     7
 65
   257
 75
     1
175
     1
 42
1.0
 92
        0
 66
   257
 43
1.0
 76
     1
 77
     6
 78
     2
 67
     7
 79
     5
170
     0
171
     0
290
     0
174
     0
 93
       13
 44
0.0
173
     0
291
     1
 45
0.0
1001
ACAD
1000
AcDbSavedByObjectVersion
1070
     0
  0
VISUALSTYLE
  5
2D
102
{ACAD_REACTORS
330
2A
102
}
102
{ACAD_XDICTIONARY
360
3FD
102
}
330
2A
100
AcDbVisualStyle
  2
Gouraud
 70
     2
 71
     2
 72
     2
 73
     1
 90
        2
 40
0.6
 41
30.0
 62
     5
 63
     7
421
 16777215
 74
     0
 91
        0
 64
     7
 65
   257
 75
     1
175
     1
 42
1.0
 92
        0
 66
     7
 43
1.0
 76
     1
 77
     6
 78
     2
 67
     7
 79
     5
170
     0
171
     0
290
     0
174
     0
 93
       13
 44
0.0
173
     0
291
     1
 45
0.0
1001
ACAD
1000
AcDbSavedByObjectVersion
1070
     0
  0
VISUALSTYLE
  5
2E
102
{ACAD_REACTORS
330
2A
102
}
102
{ACAD_XDICTIONARY
360
3FF
102
}
330
2A
100
AcDbVisualStyle
  2
GouraudWithEdges
 70
     3
 71
     2
 72
     2
 73
     1
 90
        2
 40
0.6
 41
30.0
 62
     5
 63
     7
421
 16777215
 74
     1
 91
        0
 64
     7
 65
   257
 75
     1
175
     1
 42
1.0
 92
        0
 66
   257
 43
1.0
 76
     1
 77
     6
 78
     2
 67
     7
 79
     5
170
     0
171
     0
290
     0
174
     0
 93
       13
 44
0.0
173
     0
291
     1
 45
0.0
1001
ACAD
1000
AcDbSavedByObjectVersion
1070
     0
  0
VISUALSTYLE
  5
31
102
{ACAD_REACTORS
330
2A
102
}
102
{ACAD_XDICTIONARY
360
405
102
}
330
2A
100
AcDbVisualStyle
  2
Hidden
 70
     6
 71
     1
 72
     2
 73
     2
 90
        0
 40
0.6
 41
30.0
 62
     5
 63
     7
421
 16777215
 74
     2
 91
        2
 64
     7
 65
   257
 75
     2
175
     1
 42
40.0
 92
        0
 66
   257
 43
1.0
 76
     1
 77
     6
 78
     2
 67
     7
 79
     3
170
     0
171
     0
290
     0
174
     0
 93
        1
 44
0.0
173
     0
291
     0
 45
0.0
1001
ACAD
1000
AcDbSavedByObjectVersion
1070
     0
  0
VISUALSTYLE
  5
3B
102
{ACAD_REACTORS
330
2A
102
}
102
{ACAD_XDICTIONARY
360
419
102
}
330
2A
100
AcDbVisualStyle
  2
JitterOff
 70
    20
 71
     2
 72
     2
 73
     0
 90
        0
 40
0.6
 41
30.0
 62
     5
 63
     7
421
 16777215
 74
     1
 91
        4
 64
     7
 65
   257
 75
     1
175
     1
 42
1.0
 92
       10
 66
     7
 43
1.0
 76
     1
 77
     6
 78
     2
 67
     7
 79
     5
170
     0
171
     0
290
     0
174
     0
 93
        1
 44
0.0
173
     0
291
     1
 45
0.0
1001
ACAD
1000
AcDbSavedByObjectVersion
1070
     0
  0
VISUALSTYLE
  5
38
102
{ACAD_REACTORS
330
2A
102
}
102
{ACAD_XDICTIONARY
360
413
102
}
330
2A
100
AcDbVisualStyle
  2
Linepattern
 70
    14
 71
     2
 72
     2
 73
     0
 90
        0
 40
0.6
 41
30.0
 62
     5
 63
     7
421
 16777215
 74
     1
 91
        4
 64
     7
 65
   257
 75
     7
175
     7
 42
1.0
 92
        8
 66
     7
 43
1.0
 76
     1
 77
     6
 78
     2
 67
     7
 79
     5
170
     0
171
     0
290
     0
174
     0
 93
        1
 44
0.0
173
     0
291
     1
 45
0.0
1001
ACAD
1000
AcDbSavedByObjectVersion
1070
     0
  0
VISUALSTYLE
  5
3C
102
{ACAD_REACTORS
330
2A
102
}
102
{ACAD_XDICTIONARY
360
41B
102
}
330
2A
100
AcDbVisualStyle
  2
OverhangOff
 70
    21
 71
     2
 72
     2
 73
     0
 90
        0
 40
0.6
 41
30.0
 62
     5
 63
     7
421
 16777215
 74
     1
 91
        4
 64
     7
 65
   257
 75
     1
175
     1
 42
1.0
 92
        9
 66
     7
 43
1.0
 76
     1
 77
     6
 78
     2
 67
     7
 79
     5
170
     0
171
     0
290
     0
174
     0
 93
        1
 44
0.0
173
     0
291
     1
 45
0.0
1001
ACAD
1000
AcDbSavedByObjectVersion
1070
     0
  0
VISUALSTYLE
  5
33
102
{ACAD_REACTORS
330
2A
102
}
102
{ACAD_XDICTIONARY
360
409
102
}
330
2A
100
AcDbVisualStyle
  2
Realistic
 70
     8
 71
     2
 72
     3
 73
     0
 90
        2
 40
0.6
 41
30.0
 62
     5
 63
     7
421
 16777215
 74
     0
 91
        0
 64
     7
 65
   257
 75
     1
175
     1
 42
1.0
 92
        8
 66
   257
 43
1.0
 76
     1
 77
     6
 78
     2
 67
     7
 79
     3
170
     0
171
     0
290
     0
174
     0
 93
       13
 44
0.0
173
     0
291
     0
 45
0.0
1001
ACAD
1000
AcDbSavedByObjectVersion
1070
     0
  0
VISUALSTYLE
  5
42
102
{ACAD_REACTORS
330
2A
102
}
102
{ACAD_XDICTIONARY
360
427
102
}
330
2A
100
AcDbVisualStyle
  2
Shaded
 70
    27
 71
     2
 72
     2
 73
     1
 90
        2
 40
0.6
 41
30.0
 62
     5
 63
     7
421
 16777215
 74
     0
 91
        4
 64
     7
 65
   257
 75
     1
175
     1
 42
1.0
 92
        8
 66
   257
 43
1.0
 76
     1
 77
     6
 78
     2
 67
     8
425
  7895160
 79
     3
170
     0
171
     0
290
     0
174
     0
 93
        5
 44
0.0
173
     0
291
     0
 45
0.0
1001
ACAD
1000
AcDbSavedByObjectVersion
1070
     0
  0
VISUALSTYLE
  5
41
102
{ACAD_REACTORS
330
2A
102
}
102
{ACAD_XDICTIONARY
360
425
102
}
330
2A
100
AcDbVisualStyle
  2
Shaded with edges
 70
    26
 71
     2
 72
     2
 73
     1
 90
        2
 40
0.6
 41
30.0
 62
     5
 63
     7
421
 16777215
 74
     1
 91
       10
 64
     7
 65
   257
 75
     2
175
     1
 42
1.0
 92
        8
 66
   257
 43
1.0
 76
     1
 77
     6
 78
     2
 67
     7
 79
     3
170
     0
171
     0
290
     0
174
     0
 93
        5
 44
0.0
173
     0
291
     0
 45
0.0
1001
ACAD
1000
AcDbSavedByObjectVersion
1070
     0
  0
VISUALSTYLE
  5
3E
102
{ACAD_REACTORS
330
2A
102
}
102
{ACAD_XDICTIONARY
360
41F
102
}
330
2A
100
AcDbVisualStyle
  2
Shades of Gray
 70
    23
 71
     2
 72
     2
 73
     3
 90
        0
 40
0.6
 41
30.0
 62
     5
 63
     7
421
 16777215
 74
     2
 91
        2
 64
     7
 65
     7
 75
     1
175
     1
 42
40.0
 92
        8
 66
     7
 43
1.0
 76
     1
 77
     6
 78
     2
 67
     7
 79
     3
170
     0
171
     0
290
     0
174
     0
 93
        1
 44
0.0
173
     0
291
     0
 45
0.0
1001
ACAD
1000
AcDbSavedByObjectVersion
1070
     0
  0
VISUALSTYLE
  5
3F
102
{ACAD_REACTORS
330
2A
102
}
102
{ACAD_XDICTIONARY
360
421
102
}
330
2A
100
AcDbVisualStyle
  2
Sketchy
 70
    24
 71
     1
 72
     2
 73
     2
 90
        0
 40
0.6
 41
30.0
 62
     5
 63
     7
421
 16777215
 74
     2
 91
        2
 64
     7
 65
     7
 75
     1
175
     1
 42
40.0
 92
       11
 66
     7
 43
1.0
 76
     1
 77
     6
 78
     2
 67
     7
 79
     6
170
     0
171
     0
290
     0
174
     0
 93
        1
 44
0.0
173
     0
291
     0
 45
0.0
1001
ACAD
1000
AcDbSavedByObjectVersion
1070
     0
  0
VISUALSTYLE
  5
37
102
{ACAD_REACTORS
330
2A
102
}
102
{ACAD_XDICTIONARY
360
411
102
}
330
2A
100
AcDbVisualStyle
  2
Thicken
 70
    13
 71
     2
 72
     2
 73
     0
 90
        0
 40
0.6
 41
30.0
 62
     5
 63
     7
421
 16777215
 74
     1
 91
        4
 64
     7
 65
   257
 75
     1
175
     1
 42
1.0
 92
       12
 66
     7
 43
1.0
 76
     1
 77
     6
 78
     2
 67
     7
 79
     5
170
     0
171
     0
290
     0
174
     0
 93
        1
 44
0.0
173
     0
291
     1
 45
0.0
1001
ACAD
1000
AcDbSavedByObjectVersion
1070
     0
  0
VISUALSTYLE
  5
30
102
{ACAD_REACTORS
330
2A
102
}
102
{ACAD_XDICTIONARY
360
403
102
}
330
2A
100
AcDbVisualStyle
  2
Wireframe
 70
     5
 71
     0
 72
     2
 73
     0
 90
        0
 40
0.6
 41
30.0
 62
     5
 63
     7
421
 16777215
 74
     1
 91
        4
 64
     7
 65
   257
 75
     1
175
     1
 42
1.0
 92
        0
 66
   257
 43
1.0
 76
     1
 77
     6
 78
     2
 67
     7
 79
     3
170
     0
171
     0
290
     0
174
     0
 93
        1
 44
0.0
173
     0
291
     0
 45
0.0
1001
ACAD
1000
AcDbSavedByObjectVersion
1070
     0
  0
VISUALSTYLE
  5
40
102
{ACAD_REACTORS
330
2A
102
}
102
{ACAD_XDICTIONARY
360
423
102
}
330
2A
100
AcDbVisualStyle
  2
X-Ray
 70
    25
 71
     2
 72
     2
 73
     1
 90
        1
 40
0.5
 41
30.0
 62
     5
 63
     7
421
 16777215
 74
     1
 91
        0
 64
     7
 65
   257
 75
     1
175
     1
 42
1.0
 92
        8
 66
     7
 43
1.0
 76
     1
 77
     6
 78
     2
 67
     7
 79
     3
170
     0
171
     0
290
     0
174
     0
 93
       13
 44
0.0
173
     0
291
     0
 45
0.0
1001
ACAD
1000
AcDbSavedByObjectVersion
1070
     0
  0
DICTIONARYVAR
  5
3F6
102
{ACAD_REACTORS
330
3F5
102
}
330
3F5
100
DictionaryVariables
280
     0
  1
1:1
  0
DICTIONARYVAR
  5
43A
102
{ACAD_REACTORS
330
3F5
102
}
330
3F5
100
DictionaryVariables
280
     0
  1
3.500000
  0
DICTIONARYVAR
  5
43B
102
{ACAD_REACTORS
330
3F5
102
}
330
3F5
100
DictionaryVariables
280
     0
  1
acadiso.lin
  0
DICTIONARYVAR
  5
437
102
{ACAD_REACTORS
330
3F5
102
}
330
3F5
100
DictionaryVariables
280
     0
  1
Standard
  0
DICTIONARYVAR
  5
436
102
{ACAD_REACTORS
330
3F5
102
}
330
3F5
100
DictionaryVariables
280
     0
  1
Standard
  0
DICTIONARYVAR
  5
3F7
102
{ACAD_REACTORS
330
3F5
102
}
330
3F5
100
DictionaryVariables
280
     0
  1
1
  0
DICTIONARYVAR
  5
3F8
102
{ACAD_REACTORS
330
3F5
102
}
330
3F5
100
DictionaryVariables
280
     0
  1
2
  0
DICTIONARY
  5
42B
330
45
100
AcDbDictionary
280
     1
281
     1
  3
ACAD_XREC_ROUNDTRIP
360
42C
  0
DICTIONARY
  5
429
330
44
100
AcDbDictionary
280
     1
281
     1
  3
ACAD_XREC_ROUNDTRIP
360
42A
  0
DICTIONARY
  5
42D
330
46
100
AcDbDictionary
280
     1
281
     1
  3
ACAD_XREC_ROUNDTRIP
360
42E
  0
DICTIONARY
  5
433
330
6C
100
AcDbDictionary
280
     1
281
     1
  3
ACAD_XREC_ROUNDTRIP
360
434
  0
DICTIONARY
  5
42F
330
6A
100
AcDbDictionary
280
     1
281
     1
  3
ACAD_ROUNDTRIP_2008_TABLESTYLE_CELLSTYLEMAP
360
431
  3
ACAD_XREC_ROUNDTRIP
360
430
  0
DICTIONARY
  5
401
330
2F
100
AcDbDictionary
280
     1
281
     1
  3
ACAD_XREC_ROUNDTRIP
360
402
  0
DICTIONARY
  5
407
330
32
100
AcDbDictionary
280
     1
281
     1
  3
ACAD_XREC_ROUNDTRIP
360
408
  0
DICTIONARY
  5
40F
330
36
100
AcDbDictionary
280
     1
281
     1
  3
ACAD_XREC_ROUNDTRIP
360
410
  0
DICTIONARY
  5
417
330
3A
100
AcDbDictionary
280
     1
281
     1
  3
ACAD_XREC_ROUNDTRIP
360
418
  0
DICTIONARY
  5
40B
330
34
100
AcDbDictionary
280
     1
281
     1
  3
ACAD_XREC_ROUNDTRIP
360
40C
  0
DICTIONARY
  5
40D
330
35
100
AcDbDictionary
280
     1
281
     1
  3
ACAD_XREC_ROUNDTRIP
360
40E
  0
DICTIONARY
  5
41D
330
3D
100
AcDbDictionary
280
     1
281
     1
  3
ACAD_XREC_ROUNDTRIP
360
41E
  0
DICTIONARY
  5
415
330
39
100
AcDbDictionary
280
     1
281
     1
  3
ACAD_XREC_ROUNDTRIP
360
416
  0
DICTIONARY
  5
3F9
330
2B
100
AcDbDictionary
280
     1
281
     1
  3
ACAD_XREC_ROUNDTRIP
360
3FA
  0
DICTIONARY
  5
3FB
330
2C
100
AcDbDictionary
280
     1
281
     1
  3
ACAD_XREC_ROUNDTRIP
360
3FC
  0
DICTIONARY
  5
3FD
330
2D
100
AcDbDictionary
280
     1
281
     1
  3
ACAD_XREC_ROUNDTRIP
360
3FE
  0
DICTIONARY
  5
3FF
330
2E
100
AcDbDictionary
280
     1
281
     1
  3
ACAD_XREC_ROUNDTRIP
360
400
  0
DICTIONARY
  5
405
330
31
100
AcDbDictionary
280
     1
281
     1
  3
ACAD_XREC_ROUNDTRIP
360
406
  0
DICTIONARY
  5
419
330
3B
100
AcDbDictionary
280
     1
281
     1
  3
ACAD_XREC_ROUNDTRIP
360
41A
  0
DICTIONARY
  5
413
330
38
100
AcDbDictionary
280
     1
281
     1
  3
ACAD_XREC_ROUNDTRIP
360
414
  0
DICTIONARY
  5
41B
330
3C
100
AcDbDictionary
280
     1
281
     1
  3
ACAD_XREC_ROUNDTRIP
360
41C
  0
DICTIONARY
  5
409
330
33
100
AcDbDictionary
280
     1
281
     1
  3
ACAD_XREC_ROUNDTRIP
360
40A
  0
DICTIONARY
  5
427
330
42
100
AcDbDictionary
280
     1
281
     1
  3
ACAD_XREC_ROUNDTRIP
360
428
  0
DICTIONARY
  5
425
330
41
100
AcDbDictionary
280
     1
281
     1
  3
ACAD_XREC_ROUNDTRIP
360
426
  0
DICTIONARY
  5
41F
330
3E
100
AcDbDictionary
280
     1
281
     1
  3
ACAD_XREC_ROUNDTRIP
360
420
  0
DICTIONARY
  5
421
330
3F
100
AcDbDictionary
280
     1
281
     1
  3
ACAD_XREC_ROUNDTRIP
360
422
  0
DICTIONARY
  5
411
330
37
100
AcDbDictionary
280
     1
281
     1
  3
ACAD_XREC_ROUNDTRIP
360
412
  0
DICTIONARY
  5
403
330
30
100
AcDbDictionary
280
     1
281
     1
  3
ACAD_XREC_ROUNDTRIP
360
404
  0
DICTIONARY
  5
423
330
40
100
AcDbDictionary
280
     1
281
     1
  3
ACAD_XREC_ROUNDTRIP
360
424
  0
XRECORD
  5
42C
102
{ACAD_REACTORS
330
42B
102
}
330
42B
100
AcDbXrecord
280
     1
102
MATERIAL
148
0.0
149
0.0
149
0.0
 93
        0
 94
      127
282
     0
 72
     1
 77
     1
171
     1
175
     1
179
     1
273
     0
  0
XRECORD
  5
42A
102
{ACAD_REACTORS
330
429
102
}
330
429
100
AcDbXrecord
280
     1
102
MATERIAL
148
0.0
149
0.0
149
0.0
 93
        0
 94
      127
282
     0
 72
     1
 77
     1
171
     1
175
     1
179
     1
273
     0
  0
XRECORD
  5
42E
102
{ACAD_REACTORS
330
42D
102
}
330
42D
100
AcDbXrecord
280
     1
102
MATERIAL
148
0.0
149
0.0
149
0.0
 93
        0
 94
      127
282
     0
 72
     1
 77
     1
171
     1
175
     1
179
     1
273
     0
  0
XRECORD
  5
434
102
{ACAD_REACTORS
330
433
102
}
330
433
100
AcDbXrecord
280
     1
102
ACAD_ROUNDTRIP_2010_MLEADER_STYLE
  0
CELLSTYLEMAP
  5
431
102
{ACAD_REACTORS
330
42F
102
}
330
42F
100
AcDbCellStyleMap
 90
        3
300
CELLSTYLE
  1
TABLEFORMAT_BEGIN
 90
        5
170
     1
 91
        0
 92
    32768
 62
   257
 93
        1
300
CONTENTFORMAT
  1
CONTENTFORMAT_BEGIN
 90
        0
 91
        0
 92
        4
 93
        0
300

 40
0.0
140
1.0
 94
        5
 62
     0
340
11
144
6.0
309
CONTENTFORMAT_END
171
     1
301
MARGIN
  1
CELLMARGIN_BEGIN
 40
1.5
 40
1.5
 40
1.5
 40
1.5
 40
1.5
 40
1.5
309
CELLMARGIN_END
 94
        6
 95
        1
302
GRIDFORMAT
  1
GRIDFORMAT_BEGIN
 90
        0
 91
        1
 62
     0
 92
       -2
340
14
 93
        0
 40
0.045
309
GRIDFORMAT_END
 95
        2
302
GRIDFORMAT
  1
GRIDFORMAT_BEGIN
 90
        0
 91
        1
 62
     0
 92
       -2
340
14
 93
        0
 40
0.045
309
GRIDFORMAT_END
 95
        4
302
GRIDFORMAT
  1
GRIDFORMAT_BEGIN
 90
        0
 91
        1
 62
     0
 92
       -2
340
14
 93
        0
 40
0.045
309
GRIDFORMAT_END
 95
        8
302
GRIDFORMAT
  1
GRIDFORMAT_BEGIN
 90
        0
 91
        1
 62
     0
 92
       -2
340
14
 93
        0
 40
0.045
309
GRIDFORMAT_END
 95
       16
302
GRIDFORMAT
  1
GRIDFORMAT_BEGIN
 90
        0
 91
        1
 62
     0
 92
       -2
340
14
 93
        0
 40
0.045
309
GRIDFORMAT_END
 95
       32
302
GRIDFORMAT
  1
GRIDFORMAT_BEGIN
 90
        0
 91
        1
 62
     0
 92
       -2
340
14
 93
        0
 40
0.045
309
GRIDFORMAT_END
309
TABLEFORMAT_END
  1
CELLSTYLE_BEGIN
 90
        1
 91
        1
300
_TITLE
309
CELLSTYLE_END
300
CELLSTYLE
  1
TABLEFORMAT_BEGIN
 90
        5
170
     1
 91
        0
 92
        0
 62
   257
 93
        1
300
CONTENTFORMAT
  1
CONTENTFORMAT_BEGIN
 90
        0
 91
        0
 92
        4
 93
        0
300

 40
0.0
140
1.0
 94
        5
 62
     0
340
11
144
4.5
309
CONTENTFORMAT_END
171
     1
301
MARGIN
  1
CELLMARGIN_BEGIN
 40
1.5
 40
1.5
 40
1.5
 40
1.5
 40
1.5
 40
1.5
309
CELLMARGIN_END
 94
        6
 95
        1
302
GRIDFORMAT
  1
GRIDFORMAT_BEGIN
 90
        0
 91
        1
 62
     0
 92
       -2
340
14
 93
        0
 40
0.045
309
GRIDFORMAT_END
 95
        2
302
GRIDFORMAT
  1
GRIDFORMAT_BEGIN
 90
        0
 91
        1
 62
     0
 92
       -2
340
14
 93
        0
 40
0.045
309
GRIDFORMAT_END
 95
        4
302
GRIDFORMAT
  1
GRIDFORMAT_BEGIN
 90
        0
 91
        1
 62
     0
 92
       -2
340
14
 93
        0
 40
0.045
309
GRIDFORMAT_END
 95
        8
302
GRIDFORMAT
  1
GRIDFORMAT_BEGIN
 90
        0
 91
        1
 62
     0
 92
       -2
340
14
 93
        0
 40
0.045
309
GRIDFORMAT_END
 95
       16
302
GRIDFORMAT
  1
GRIDFORMAT_BEGIN
 90
        0
 91
        1
 62
     0
 92
       -2
340
14
 93
        0
 40
0.045
309
GRIDFORMAT_END
 95
       32
302
GRIDFORMAT
  1
GRIDFORMAT_BEGIN
 90
        0
 91
        1
 62
     0
 92
       -2
340
14
 93
        0
 40
0.045
309
GRIDFORMAT_END
309
TABLEFORMAT_END
  1
CELLSTYLE_BEGIN
 90
        2
 91
        1
300
_HEADER
309
CELLSTYLE_END
300
CELLSTYLE
  1
TABLEFORMAT_BEGIN
 90
        5
170
     1
 91
        0
 92
        0
 62
   257
 93
        1
300
CONTENTFORMAT
  1
CONTENTFORMAT_BEGIN
 90
        0
 91
        0
 92
        4
 93
        0
300

 40
0.0
140
1.0
 94
        2
 62
     0
340
11
144
4.5
309
CONTENTFORMAT_END
171
     1
301
MARGIN
  1
CELLMARGIN_BEGIN
 40
1.5
 40
1.5
 40
1.5
 40
1.5
 40
1.5
 40
1.5
309
CELLMARGIN_END
 94
        6
 95
        1
302
GRIDFORMAT
  1
GRIDFORMAT_BEGIN
 90
        0
 91
        1
 62
     0
 92
       -2
340
14
 93
        0
 40
0.045
309
GRIDFORMAT_END
 95
        2
302
GRIDFORMAT
  1
GRIDFORMAT_BEGIN
 90
        0
 91
        1
 62
     0
 92
       -2
340
14
 93
        0
 40
0.045
309
GRIDFORMAT_END
 95
        4
302
GRIDFORMAT
  1
GRIDFORMAT_BEGIN
 90
        0
 91
        1
 62
     0
 92
       -2
340
14
 93
        0
 40
0.045
309
GRIDFORMAT_END
 95
        8
302
GRIDFORMAT
  1
GRIDFORMAT_BEGIN
 90
        0
 91
        1
 62
     0
 92
       -2
340
14
 93
        0
 40
0.045
309
GRIDFORMAT_END
 95
       16
302
GRIDFORMAT
  1
GRIDFORMAT_BEGIN
 90
        0
 91
        1
 62
     0
 92
       -2
340
14
 93
        0
 40
0.045
309
GRIDFORMAT_END
 95
       32
302
GRIDFORMAT
  1
GRIDFORMAT_BEGIN
 90
        0
 91
        1
 62
     0
 92
       -2
340
14
 93
        0
 40
0.045
309
GRIDFORMAT_END
309
TABLEFORMAT_END
  1
CELLSTYLE_BEGIN
 90
        3
 91
        2
300
_DATA
309
CELLSTYLE_END
  0
XRECORD
  5
430
102
{ACAD_REACTORS
330
42F
102
}
330
42F
100
AcDbXrecord
280
     1
102
ACAD_ROUNDTRIP_PRE2007_TABLESTYLE
 90
        4
 91
        0
  1

 92
        4
 93
        0
  2

 94
        4
 95
        0
  3

  0
XRECORD
  5
402
102
{ACAD_REACTORS
330
401
102
}
330
401
100
AcDbXrecord
280
     1
102
RTVSPropertyOp0
 70
     1
102
RTVSPropertyOp1
 70
     1
102
RTVSPropertyOp2
 70
     1
102
RTVSPropertyOp3
 70
     1
102
RTVSPropertyOp4
 70
     1
102
RTVSPropertyOp5
 70
     1
102
RTVSPropertyOp6
 70
     1
102
RTVSPropertyOp7
 70
     1
102
RTVSPropertyOp8
 70
     1
102
RTVSPropertyOp9
 70
     1
102
RTVSPropertyOp10
 70
     1
102
RTVSPropertyOp11
 70
     1
102
RTVSPropertyOp12
 70
     1
102
RTVSPropertyOp13
 70
     1
102
RTVSPropertyOp14
 70
     1
102
RTVSPropertyOp15
 70
     1
102
RTVSPropertyOp16
 70
     1
102
RTVSPropertyOp17
 70
     1
102
RTVSPropertyOp18
 70
     1
102
RTVSPropertyOp19
 70
     1
102
RTVSPropertyOp20
 70
     1
102
RTVSPropertyOp21
 70
     1
102
RTVSPropertyOp22
 70
     1
102
RTVSPropertyOp23
 70
     1
102
RTVSPropertyOp24
 70
     1
102
RTVSPropertyOp25
 70
     1
102
RTVSPropertyOp26
 70
     1
102
RTVSPropertyOp27
 70
     1
102
RTVSPropertyOp28
 70
     1
102
RTVSPropertyOp29
 70
     1
102
RTVSPropertyOp30
 70
     1
102
RTVSPropertyOp31
 70
     1
102
RTVSPropertyOp32
 70
     1
102
RTVSPropertyOp33
 70
     1
102
RTVSPropertyOp34
 70
     1
102
RTVSPropertyOp35
 70
     1
102
RTVSPropertyOp36
 70
     1
102
RTVSPropertyOp37
 70
     1
102
RTVSPropertyOp38
 70
     1
102
RTVSPropertyOp39
 70
     1
102
RTVSPropertyOp40
 70
     1
102
RTVSPropertyOp41
 70
     1
102
RTVSPropertyOp42
 70
     1
102
RTVSPropertyOp43
 70
     1
102
RTVSPropertyOp44
 70
     1
102
RTVSPropertyOp45
 70
     1
102
RTVSPropertyOp46
 70
     1
102
RTVSPropertyOp47
 70
     1
102
RTVSPropertyOp48
 70
     1
102
RTVSPropertyOp49
 70
     1
102
RTVSPropertyOp50
 70
     1
102
RTVSPropertyOp51
 70
     0
102
RTVSPropertyOp52
 70
     0
102
RTVSPropertyOp53
 70
     1
102
RTVSPropertyOp54
 70
     1
102
RTVSPropertyOp55
 70
     1
102
RTVSPropertyOp56
 70
     1
102
RTVSPropertyOp57
 70
     1
102
RTVSPost2010Prop28
280
     1
102
RTVSPost2010PropOp28
 70
     1
102
RTVSPost2010Prop29
280
     1
102
RTVSPost2010PropOp29
 70
     1
102
RTVSPost2010Prop30
280
     0
102
RTVSPost2010PropOp30
 70
     1
102
RTVSPost2010Prop31
280
     0
102
RTVSPost2010PropOp31
 70
     1
102
RTVSPost2010Prop32
280
     0
102
RTVSPost2010PropOp32
 70
     1
102
RTVSPost2010Prop33
280
     0
102
RTVSPost2010PropOp33
 70
     1
102
RTVSPost2010Prop34
280
     0
102
RTVSPost2010PropOp34
 70
     1
102
RTVSPost2010Prop35
280
     0
102
RTVSPost2010PropOp35
 70
     1
102
RTVSPost2010Prop36
280
     0
102
RTVSPost2010PropOp36
 70
     1
102
RTVSPost2010Prop37
 90
       50
102
RTVSPost2010PropOp37
 70
     1
102
RTVSPost2010Prop38
140
0.0
102
RTVSPost2010PropOp38
 70
     1
102
RTVSPost2010Prop39
140
1.0
102
RTVSPost2010PropOp39
 70
     1
102
RTVSPost2010Prop40
 90
        0
102
RTVSPost2010PropOp40
 70
     1
102
RTVSPost2010Prop41ColorIndex
 90
       18
102
RTVSPost2010Prop41ColorRGB
 90
        0
102
RTVSPost2010PropOp41
 70
     1
102
RTVSPost2010Prop42
 90
       50
102
RTVSPost2010PropOp42
 70
     1
102
RTVSPost2010Prop43
 90
        3
102
RTVSPost2010PropOp43
 70
     1
102
RTVSPost2010Prop44ColorIndex
 90
        5
102
RTVSPost2010Prop44ColorRGB
 90
      255
102
RTVSPost2010PropOp44
 70
     1
102
RTVSPost2010Prop45
280
     0
102
RTVSPost2010PropOp45
 70
     1
102
RTVSPost2010Prop46
 90
       50
102
RTVSPost2010PropOp46
 70
     1
102
RTVSPost2010Prop47
 90
       50
102
RTVSPost2010PropOp47
 70
     1
102
RTVSPost2010Prop48
 90
       50
102
RTVSPost2010PropOp48
 70
     1
102
RTVSPost2010Prop49
280
     0
102
RTVSPost2010PropOp49
 70
     1
102
RTVSPost2010Prop50
 90
       50
102
RTVSPost2010PropOp50
 70
     1
102
RTVSPost2010Prop51ColorIndex
 90
      256
102
RTVSPost2010Prop51ColorRGB
 90
-16777216
102
RTVSPost2010PropOp51
 70
     0
102
RTVSPost2010Prop52
140
1.0
102
RTVSPost2010PropOp52
 70
     0
102
RTVSPost2010Prop53
 90
        2
102
RTVSPost2010PropOp53
 70
     1
102
RTVSPost2010Prop54
  1
strokes_ogs.tif
102
RTVSPost2010PropOp54
 70
     1
102
RTVSPost2010Prop55
280
     0
102
RTVSPost2010PropOp55
 70
     1
102
RTVSPost2010Prop56
140
1.0
102
RTVSPost2010PropOp56
 70
     1
102
RTVSPost2010Prop57
140
1.0
102
RTVSPost2010PropOp57
 70
     1
  0
XRECORD
  5
408
102
{ACAD_REACTORS
330
407
102
}
330
407
100
AcDbXrecord
280
     1
102
RTVSPropertyOp0
 70
     1
102
RTVSPropertyOp1
 70
     1
102
RTVSPropertyOp2
 70
     1
102
RTVSPropertyOp3
 70
     1
102
RTVSPropertyOp4
 70
     1
102
RTVSPropertyOp5
 70
     1
102
RTVSPropertyOp6
 70
     1
102
RTVSPropertyOp7
 70
     1
102
RTVSPropertyOp8
 70
     1
102
RTVSPropertyOp9
 70
     1
102
RTVSPropertyOp10
 70
     1
102
RTVSPropertyOp11
 70
     1
102
RTVSPropertyOp12
 70
     1
102
RTVSPropertyOp13
 70
     1
102
RTVSPropertyOp14
 70
     1
102
RTVSPropertyOp15
 70
     1
102
RTVSPropertyOp16
 70
     1
102
RTVSPropertyOp17
 70
     1
102
RTVSPropertyOp18
 70
     1
102
RTVSPropertyOp19
 70
     1
102
RTVSPropertyOp20
 70
     1
102
RTVSPropertyOp21
 70
     1
102
RTVSPropertyOp22
 70
     1
102
RTVSPropertyOp23
 70
     1
102
RTVSPropertyOp24
 70
     1
102
RTVSPropertyOp25
 70
     1
102
RTVSPropertyOp26
 70
     1
102
RTVSPropertyOp27
 70
     1
102
RTVSPropertyOp28
 70
     1
102
RTVSPropertyOp29
 70
     1
102
RTVSPropertyOp30
 70
     1
102
RTVSPropertyOp31
 70
     1
102
RTVSPropertyOp32
 70
     1
102
RTVSPropertyOp33
 70
     1
102
RTVSPropertyOp34
 70
     1
102
RTVSPropertyOp35
 70
     1
102
RTVSPropertyOp36
 70
     1
102
RTVSPropertyOp37
 70
     1
102
RTVSPropertyOp38
 70
     1
102
RTVSPropertyOp39
 70
     1
102
RTVSPropertyOp40
 70
     1
102
RTVSPropertyOp41
 70
     1
102
RTVSPropertyOp42
 70
     1
102
RTVSPropertyOp43
 70
     1
102
RTVSPropertyOp44
 70
     1
102
RTVSPropertyOp45
 70
     1
102
RTVSPropertyOp46
 70
     1
102
RTVSPropertyOp47
 70
     1
102
RTVSPropertyOp48
 70
     1
102
RTVSPropertyOp49
 70
     1
102
RTVSPropertyOp50
 70
     1
102
RTVSPropertyOp51
 70
     0
102
RTVSPropertyOp52
 70
     0
102
RTVSPropertyOp53
 70
     1
102
RTVSPropertyOp54
 70
     1
102
RTVSPropertyOp55
 70
     1
102
RTVSPropertyOp56
 70
     1
102
RTVSPropertyOp57
 70
     1
102
RTVSPost2010Prop28
280
     0
102
RTVSPost2010PropOp28
 70
     1
102
RTVSPost2010Prop29
280
     1
102
RTVSPost2010PropOp29
 70
     1
102
RTVSPost2010Prop30
280
     1
102
RTVSPost2010PropOp30
 70
     1
102
RTVSPost2010Prop31
280
     0
102
RTVSPost2010PropOp31
 70
     1
102
RTVSPost2010Prop32
280
     0
102
RTVSPost2010PropOp32
 70
     1
102
RTVSPost2010Prop33
280
     0
102
RTVSPost2010PropOp33
 70
     1
102
RTVSPost2010Prop34
280
     0
102
RTVSPost2010PropOp34
 70
     1
102
RTVSPost2010Prop35
280
     0
102
RTVSPost2010PropOp35
 70
     1
102
RTVSPost2010Prop36
280
     0
102
RTVSPost2010PropOp36
 70
     1
102
RTVSPost2010Prop37
 90
       50
102
RTVSPost2010PropOp37
 70
     1
102
RTVSPost2010Prop38
140
0.0
102
RTVSPost2010PropOp38
 70
     1
102
RTVSPost2010Prop39
140
1.0
102
RTVSPost2010PropOp39
 70
     1
102
RTVSPost2010Prop40
 90
        0
102
RTVSPost2010PropOp40
 70
     1
102
RTVSPost2010Prop41ColorIndex
 90
       18
102
RTVSPost2010Prop41ColorRGB
 90
        0
102
RTVSPost2010PropOp41
 70
     1
102
RTVSPost2010Prop42
 90
       50
102
RTVSPost2010PropOp42
 70
     1
102
RTVSPost2010Prop43
 90
        3
102
RTVSPost2010PropOp43
 70
     1
102
RTVSPost2010Prop44ColorIndex
 90
        5
102
RTVSPost2010Prop44ColorRGB
 90
      255
102
RTVSPost2010PropOp44
 70
     1
102
RTVSPost2010Prop45
280
     0
102
RTVSPost2010PropOp45
 70
     1
102
RTVSPost2010Prop46
 90
       50
102
RTVSPost2010PropOp46
 70
     1
102
RTVSPost2010Prop47
 90
       50
102
RTVSPost2010PropOp47
 70
     1
102
RTVSPost2010Prop48
 90
       50
102
RTVSPost2010PropOp48
 70
     1
102
RTVSPost2010Prop49
280
     0
102
RTVSPost2010PropOp49
 70
     1
102
RTVSPost2010Prop50
 90
       50
102
RTVSPost2010PropOp50
 70
     1
102
RTVSPost2010Prop51ColorIndex
 90
      256
102
RTVSPost2010Prop51ColorRGB
 90
-16777216
102
RTVSPost2010PropOp51
 70
     0
102
RTVSPost2010Prop52
140
1.0
102
RTVSPost2010PropOp52
 70
     0
102
RTVSPost2010Prop53
 90
        2
102
RTVSPost2010PropOp53
 70
     1
102
RTVSPost2010Prop54
  1
strokes_ogs.tif
102
RTVSPost2010PropOp54
 70
     1
102
RTVSPost2010Prop55
280
     0
102
RTVSPost2010PropOp55
 70
     1
102
RTVSPost2010Prop56
140
1.0
102
RTVSPost2010PropOp56
 70
     1
102
RTVSPost2010Prop57
140
1.0
102
RTVSPost2010PropOp57
 70
     1
  0
XRECORD
  5
410
102
{ACAD_REACTORS
330
40F
102
}
330
40F
100
AcDbXrecord
280
     1
102
RTVSPropertyOp0
 70
     1
102
RTVSPropertyOp1
 70
     1
102
RTVSPropertyOp2
 70
     1
102
RTVSPropertyOp3
 70
     1
102
RTVSPropertyOp4
 70
     1
102
RTVSPropertyOp5
 70
     1
102
RTVSPropertyOp6
 70
     1
102
RTVSPropertyOp7
 70
     1
102
RTVSPropertyOp8
 70
     1
102
RTVSPropertyOp9
 70
     1
102
RTVSPropertyOp10
 70
     1
102
RTVSPropertyOp11
 70
     1
102
RTVSPropertyOp12
 70
     1
102
RTVSPropertyOp13
 70
     1
102
RTVSPropertyOp14
 70
     1
102
RTVSPropertyOp15
 70
     1
102
RTVSPropertyOp16
 70
     1
102
RTVSPropertyOp17
 70
     1
102
RTVSPropertyOp18
 70
     1
102
RTVSPropertyOp19
 70
     1
102
RTVSPropertyOp20
 70
     1
102
RTVSPropertyOp21
 70
     1
102
RTVSPropertyOp22
 70
     1
102
RTVSPropertyOp23
 70
     1
102
RTVSPropertyOp24
 70
     1
102
RTVSPropertyOp25
 70
     1
102
RTVSPropertyOp26
 70
     1
102
RTVSPropertyOp27
 70
     1
102
RTVSPropertyOp28
 70
     1
102
RTVSPropertyOp29
 70
     1
102
RTVSPropertyOp30
 70
     1
102
RTVSPropertyOp31
 70
     1
102
RTVSPropertyOp32
 70
     1
102
RTVSPropertyOp33
 70
     1
102
RTVSPropertyOp34
 70
     1
102
RTVSPropertyOp35
 70
     1
102
RTVSPropertyOp36
 70
     1
102
RTVSPropertyOp37
 70
     1
102
RTVSPropertyOp38
 70
     1
102
RTVSPropertyOp39
 70
     1
102
RTVSPropertyOp40
 70
     1
102
RTVSPropertyOp41
 70
     1
102
RTVSPropertyOp42
 70
     1
102
RTVSPropertyOp43
 70
     1
102
RTVSPropertyOp44
 70
     1
102
RTVSPropertyOp45
 70
     1
102
RTVSPropertyOp46
 70
     1
102
RTVSPropertyOp47
 70
     1
102
RTVSPropertyOp48
 70
     1
102
RTVSPropertyOp49
 70
     1
102
RTVSPropertyOp50
 70
     1
102
RTVSPropertyOp51
 70
     0
102
RTVSPropertyOp52
 70
     0
102
RTVSPropertyOp53
 70
     1
102
RTVSPropertyOp54
 70
     1
102
RTVSPropertyOp55
 70
     1
102
RTVSPropertyOp56
 70
     1
102
RTVSPropertyOp57
 70
     1
102
RTVSPost2010Prop28
280
     0
102
RTVSPost2010PropOp28
 70
     1
102
RTVSPost2010Prop29
280
     1
102
RTVSPost2010PropOp29
 70
     1
102
RTVSPost2010Prop30
280
     1
102
RTVSPost2010PropOp30
 70
     1
102
RTVSPost2010Prop31
280
     0
102
RTVSPost2010PropOp31
 70
     1
102
RTVSPost2010Prop32
280
     0
102
RTVSPost2010PropOp32
 70
     1
102
RTVSPost2010Prop33
280
     0
102
RTVSPost2010PropOp33
 70
     1
102
RTVSPost2010Prop34
280
     0
102
RTVSPost2010PropOp34
 70
     1
102
RTVSPost2010Prop35
280
     0
102
RTVSPost2010PropOp35
 70
     1
102
RTVSPost2010Prop36
280
     0
102
RTVSPost2010PropOp36
 70
     1
102
RTVSPost2010Prop37
 90
       50
102
RTVSPost2010PropOp37
 70
     1
102
RTVSPost2010Prop38
140
0.0
102
RTVSPost2010PropOp38
 70
     1
102
RTVSPost2010Prop39
140
1.0
102
RTVSPost2010PropOp39
 70
     1
102
RTVSPost2010Prop40
 90
        0
102
RTVSPost2010PropOp40
 70
     1
102
RTVSPost2010Prop41ColorIndex
 90
       18
102
RTVSPost2010Prop41ColorRGB
 90
        0
102
RTVSPost2010PropOp41
 70
     1
102
RTVSPost2010Prop42
 90
       50
102
RTVSPost2010PropOp42
 70
     1
102
RTVSPost2010Prop43
 90
        3
102
RTVSPost2010PropOp43
 70
     1
102
RTVSPost2010Prop44ColorIndex
 90
        5
102
RTVSPost2010Prop44ColorRGB
 90
      255
102
RTVSPost2010PropOp44
 70
     1
102
RTVSPost2010Prop45
280
     0
102
RTVSPost2010PropOp45
 70
     1
102
RTVSPost2010Prop46
 90
       50
102
RTVSPost2010PropOp46
 70
     1
102
RTVSPost2010Prop47
 90
       50
102
RTVSPost2010PropOp47
 70
     1
102
RTVSPost2010Prop48
 90
       50
102
RTVSPost2010PropOp48
 70
     1
102
RTVSPost2010Prop49
280
     0
102
RTVSPost2010PropOp49
 70
     1
102
RTVSPost2010Prop50
 90
       50
102
RTVSPost2010PropOp50
 70
     1
102
RTVSPost2010Prop51ColorIndex
 90
      256
102
RTVSPost2010Prop51ColorRGB
 90
-16777216
102
RTVSPost2010PropOp51
 70
     0
102
RTVSPost2010Prop52
140
1.0
102
RTVSPost2010PropOp52
 70
     0
102
RTVSPost2010Prop53
 90
        2
102
RTVSPost2010PropOp53
 70
     1
102
RTVSPost2010Prop54
  1
strokes_ogs.tif
102
RTVSPost2010PropOp54
 70
     1
102
RTVSPost2010Prop55
280
     0
102
RTVSPost2010PropOp55
 70
     1
102
RTVSPost2010Prop56
140
1.0
102
RTVSPost2010PropOp56
 70
     1
102
RTVSPost2010Prop57
140
1.0
102
RTVSPost2010PropOp57
 70
     1
  0
XRECORD
  5
418
102
{ACAD_REACTORS
330
417
102
}
330
417
100
AcDbXrecord
280
     1
102
RTVSPropertyOp0
 70
     1
102
RTVSPropertyOp1
 70
     1
102
RTVSPropertyOp2
 70
     1
102
RTVSPropertyOp3
 70
     1
102
RTVSPropertyOp4
 70
     1
102
RTVSPropertyOp5
 70
     1
102
RTVSPropertyOp6
 70
     1
102
RTVSPropertyOp7
 70
     1
102
RTVSPropertyOp8
 70
     1
102
RTVSPropertyOp9
 70
     1
102
RTVSPropertyOp10
 70
     1
102
RTVSPropertyOp11
 70
     1
102
RTVSPropertyOp12
 70
     1
102
RTVSPropertyOp13
 70
     1
102
RTVSPropertyOp14
 70
     1
102
RTVSPropertyOp15
 70
     1
102
RTVSPropertyOp16
 70
     1
102
RTVSPropertyOp17
 70
     1
102
RTVSPropertyOp18
 70
     1
102
RTVSPropertyOp19
 70
     1
102
RTVSPropertyOp20
 70
     1
102
RTVSPropertyOp21
 70
     1
102
RTVSPropertyOp22
 70
     1
102
RTVSPropertyOp23
 70
     1
102
RTVSPropertyOp24
 70
     1
102
RTVSPropertyOp25
 70
     1
102
RTVSPropertyOp26
 70
     1
102
RTVSPropertyOp27
 70
     1
102
RTVSPropertyOp28
 70
     1
102
RTVSPropertyOp29
 70
     1
102
RTVSPropertyOp30
 70
     1
102
RTVSPropertyOp31
 70
     1
102
RTVSPropertyOp32
 70
     1
102
RTVSPropertyOp33
 70
     1
102
RTVSPropertyOp34
 70
     1
102
RTVSPropertyOp35
 70
     1
102
RTVSPropertyOp36
 70
     1
102
RTVSPropertyOp37
 70
     1
102
RTVSPropertyOp38
 70
     1
102
RTVSPropertyOp39
 70
     1
102
RTVSPropertyOp40
 70
     1
102
RTVSPropertyOp41
 70
     1
102
RTVSPropertyOp42
 70
     1
102
RTVSPropertyOp43
 70
     1
102
RTVSPropertyOp44
 70
     1
102
RTVSPropertyOp45
 70
     1
102
RTVSPropertyOp46
 70
     1
102
RTVSPropertyOp47
 70
     1
102
RTVSPropertyOp48
 70
     1
102
RTVSPropertyOp49
 70
     1
102
RTVSPropertyOp50
 70
     1
102
RTVSPropertyOp51
 70
     0
102
RTVSPropertyOp52
 70
     0
102
RTVSPropertyOp53
 70
     1
102
RTVSPropertyOp54
 70
     1
102
RTVSPropertyOp55
 70
     1
102
RTVSPropertyOp56
 70
     1
102
RTVSPropertyOp57
 70
     1
102
RTVSPost2010Prop28
280
     0
102
RTVSPost2010PropOp28
 70
     1
102
RTVSPost2010Prop29
280
     1
102
RTVSPost2010PropOp29
 70
     1
102
RTVSPost2010Prop30
280
     1
102
RTVSPost2010PropOp30
 70
     1
102
RTVSPost2010Prop31
280
     0
102
RTVSPost2010PropOp31
 70
     1
102
RTVSPost2010Prop32
280
     0
102
RTVSPost2010PropOp32
 70
     1
102
RTVSPost2010Prop33
280
     0
102
RTVSPost2010PropOp33
 70
     1
102
RTVSPost2010Prop34
280
     0
102
RTVSPost2010PropOp34
 70
     1
102
RTVSPost2010Prop35
280
     0
102
RTVSPost2010PropOp35
 70
     1
102
RTVSPost2010Prop36
280
     0
102
RTVSPost2010PropOp36
 70
     1
102
RTVSPost2010Prop37
 90
       50
102
RTVSPost2010PropOp37
 70
     1
102
RTVSPost2010Prop38
140
0.0
102
RTVSPost2010PropOp38
 70
     1
102
RTVSPost2010Prop39
140
1.0
102
RTVSPost2010PropOp39
 70
     1
102
RTVSPost2010Prop40
 90
        0
102
RTVSPost2010PropOp40
 70
     1
102
RTVSPost2010Prop41ColorIndex
 90
       18
102
RTVSPost2010Prop41ColorRGB
 90
        0
102
RTVSPost2010PropOp41
 70
     1
102
RTVSPost2010Prop42
 90
       50
102
RTVSPost2010PropOp42
 70
     1
102
RTVSPost2010Prop43
 90
        3
102
RTVSPost2010PropOp43
 70
     1
102
RTVSPost2010Prop44ColorIndex
 90
        5
102
RTVSPost2010Prop44ColorRGB
 90
      255
102
RTVSPost2010PropOp44
 70
     1
102
RTVSPost2010Prop45
280
     0
102
RTVSPost2010PropOp45
 70
     1
102
RTVSPost2010Prop46
 90
       50
102
RTVSPost2010PropOp46
 70
     1
102
RTVSPost2010Prop47
 90
       50
102
RTVSPost2010PropOp47
 70
     1
102
RTVSPost2010Prop48
 90
       50
102
RTVSPost2010PropOp48
 70
     1
102
RTVSPost2010Prop49
280
     0
102
RTVSPost2010PropOp49
 70
     1
102
RTVSPost2010Prop50
 90
       50
102
RTVSPost2010PropOp50
 70
     1
102
RTVSPost2010Prop51ColorIndex
 90
      256
102
RTVSPost2010Prop51ColorRGB
 90
-16777216
102
RTVSPost2010PropOp51
 70
     0
102
RTVSPost2010Prop52
140
1.0
102
RTVSPost2010PropOp52
 70
     0
102
RTVSPost2010Prop53
 90
        2
102
RTVSPost2010PropOp53
 70
     1
102
RTVSPost2010Prop54
  1
strokes_ogs.tif
102
RTVSPost2010PropOp54
 70
     1
102
RTVSPost2010Prop55
280
     0
102
RTVSPost2010PropOp55
 70
     1
102
RTVSPost2010Prop56
140
1.0
102
RTVSPost2010PropOp56
 70
     1
102
RTVSPost2010Prop57
140
1.0
102
RTVSPost2010PropOp57
 70
     1
  0
XRECORD
  5
40C
102
{ACAD_REACTORS
330
40B
102
}
330
40B
100
AcDbXrecord
280
     1
102
RTVSPropertyOp0
 70
     1
102
RTVSPropertyOp1
 70
     1
102
RTVSPropertyOp2
 70
     1
102
RTVSPropertyOp3
 70
     1
102
RTVSPropertyOp4
 70
     1
102
RTVSPropertyOp5
 70
     1
102
RTVSPropertyOp6
 70
     1
102
RTVSPropertyOp7
 70
     1
102
RTVSPropertyOp8
 70
     1
102
RTVSPropertyOp9
 70
     1
102
RTVSPropertyOp10
 70
     1
102
RTVSPropertyOp11
 70
     1
102
RTVSPropertyOp12
 70
     1
102
RTVSPropertyOp13
 70
     1
102
RTVSPropertyOp14
 70
     1
102
RTVSPropertyOp15
 70
     1
102
RTVSPropertyOp16
 70
     1
102
RTVSPropertyOp17
 70
     1
102
RTVSPropertyOp18
 70
     1
102
RTVSPropertyOp19
 70
     1
102
RTVSPropertyOp20
 70
     1
102
RTVSPropertyOp21
 70
     1
102
RTVSPropertyOp22
 70
     1
102
RTVSPropertyOp23
 70
     1
102
RTVSPropertyOp24
 70
     1
102
RTVSPropertyOp25
 70
     1
102
RTVSPropertyOp26
 70
     1
102
RTVSPropertyOp27
 70
     1
102
RTVSPropertyOp28
 70
     1
102
RTVSPropertyOp29
 70
     1
102
RTVSPropertyOp30
 70
     1
102
RTVSPropertyOp31
 70
     1
102
RTVSPropertyOp32
 70
     1
102
RTVSPropertyOp33
 70
     1
102
RTVSPropertyOp34
 70
     1
102
RTVSPropertyOp35
 70
     1
102
RTVSPropertyOp36
 70
     1
102
RTVSPropertyOp37
 70
     1
102
RTVSPropertyOp38
 70
     1
102
RTVSPropertyOp39
 70
     1
102
RTVSPropertyOp40
 70
     1
102
RTVSPropertyOp41
 70
     1
102
RTVSPropertyOp42
 70
     1
102
RTVSPropertyOp43
 70
     1
102
RTVSPropertyOp44
 70
     1
102
RTVSPropertyOp45
 70
     1
102
RTVSPropertyOp46
 70
     1
102
RTVSPropertyOp47
 70
     1
102
RTVSPropertyOp48
 70
     1
102
RTVSPropertyOp49
 70
     1
102
RTVSPropertyOp50
 70
     1
102
RTVSPropertyOp51
 70
     0
102
RTVSPropertyOp52
 70
     0
102
RTVSPropertyOp53
 70
     1
102
RTVSPropertyOp54
 70
     1
102
RTVSPropertyOp55
 70
     1
102
RTVSPropertyOp56
 70
     1
102
RTVSPropertyOp57
 70
     1
102
RTVSPost2010Prop28
280
     0
102
RTVSPost2010PropOp28
 70
     1
102
RTVSPost2010Prop29
280
     1
102
RTVSPost2010PropOp29
 70
     1
102
RTVSPost2010Prop30
280
     1
102
RTVSPost2010PropOp30
 70
     1
102
RTVSPost2010Prop31
280
     0
102
RTVSPost2010PropOp31
 70
     1
102
RTVSPost2010Prop32
280
     0
102
RTVSPost2010PropOp32
 70
     1
102
RTVSPost2010Prop33
280
     0
102
RTVSPost2010PropOp33
 70
     1
102
RTVSPost2010Prop34
280
     0
102
RTVSPost2010PropOp34
 70
     1
102
RTVSPost2010Prop35
280
     0
102
RTVSPost2010PropOp35
 70
     1
102
RTVSPost2010Prop36
280
     0
102
RTVSPost2010PropOp36
 70
     1
102
RTVSPost2010Prop37
 90
       50
102
RTVSPost2010PropOp37
 70
     1
102
RTVSPost2010Prop38
140
0.0
102
RTVSPost2010PropOp38
 70
     1
102
RTVSPost2010Prop39
140
1.0
102
RTVSPost2010PropOp39
 70
     1
102
RTVSPost2010Prop40
 90
        0
102
RTVSPost2010PropOp40
 70
     1
102
RTVSPost2010Prop41ColorIndex
 90
       18
102
RTVSPost2010Prop41ColorRGB
 90
        0
102
RTVSPost2010PropOp41
 70
     1
102
RTVSPost2010Prop42
 90
       50
102
RTVSPost2010PropOp42
 70
     1
102
RTVSPost2010Prop43
 90
        3
102
RTVSPost2010PropOp43
 70
     1
102
RTVSPost2010Prop44ColorIndex
 90
        5
102
RTVSPost2010Prop44ColorRGB
 90
      255
102
RTVSPost2010PropOp44
 70
     1
102
RTVSPost2010Prop45
280
     0
102
RTVSPost2010PropOp45
 70
     1
102
RTVSPost2010Prop46
 90
       50
102
RTVSPost2010PropOp46
 70
     1
102
RTVSPost2010Prop47
 90
       50
102
RTVSPost2010PropOp47
 70
     1
102
RTVSPost2010Prop48
 90
       50
102
RTVSPost2010PropOp48
 70
     1
102
RTVSPost2010Prop49
280
     0
102
RTVSPost2010PropOp49
 70
     1
102
RTVSPost2010Prop50
 90
       50
102
RTVSPost2010PropOp50
 70
     1
102
RTVSPost2010Prop51ColorIndex
 90
      256
102
RTVSPost2010Prop51ColorRGB
 90
-16777216
102
RTVSPost2010PropOp51
 70
     0
102
RTVSPost2010Prop52
140
1.0
102
RTVSPost2010PropOp52
 70
     0
102
RTVSPost2010Prop53
 90
        2
102
RTVSPost2010PropOp53
 70
     1
102
RTVSPost2010Prop54
  1
strokes_ogs.tif
102
RTVSPost2010PropOp54
 70
     1
102
RTVSPost2010Prop55
280
     0
102
RTVSPost2010PropOp55
 70
     1
102
RTVSPost2010Prop56
140
1.0
102
RTVSPost2010PropOp56
 70
     1
102
RTVSPost2010Prop57
140
1.0
102
RTVSPost2010PropOp57
 70
     1
  0
XRECORD
  5
40E
102
{ACAD_REACTORS
330
40D
102
}
330
40D
100
AcDbXrecord
280
     1
102
RTVSPropertyOp0
 70
     1
102
RTVSPropertyOp1
 70
     1
102
RTVSPropertyOp2
 70
     1
102
RTVSPropertyOp3
 70
     1
102
RTVSPropertyOp4
 70
     1
102
RTVSPropertyOp5
 70
     1
102
RTVSPropertyOp6
 70
     1
102
RTVSPropertyOp7
 70
     1
102
RTVSPropertyOp8
 70
     1
102
RTVSPropertyOp9
 70
     1
102
RTVSPropertyOp10
 70
     1
102
RTVSPropertyOp11
 70
     1
102
RTVSPropertyOp12
 70
     1
102
RTVSPropertyOp13
 70
     1
102
RTVSPropertyOp14
 70
     1
102
RTVSPropertyOp15
 70
     1
102
RTVSPropertyOp16
 70
     1
102
RTVSPropertyOp17
 70
     1
102
RTVSPropertyOp18
 70
     1
102
RTVSPropertyOp19
 70
     1
102
RTVSPropertyOp20
 70
     1
102
RTVSPropertyOp21
 70
     1
102
RTVSPropertyOp22
 70
     1
102
RTVSPropertyOp23
 70
     1
102
RTVSPropertyOp24
 70
     1
102
RTVSPropertyOp25
 70
     1
102
RTVSPropertyOp26
 70
     1
102
RTVSPropertyOp27
 70
     1
102
RTVSPropertyOp28
 70
     1
102
RTVSPropertyOp29
 70
     1
102
RTVSPropertyOp30
 70
     1
102
RTVSPropertyOp31
 70
     1
102
RTVSPropertyOp32
 70
     1
102
RTVSPropertyOp33
 70
     1
102
RTVSPropertyOp34
 70
     1
102
RTVSPropertyOp35
 70
     1
102
RTVSPropertyOp36
 70
     1
102
RTVSPropertyOp37
 70
     1
102
RTVSPropertyOp38
 70
     1
102
RTVSPropertyOp39
 70
     1
102
RTVSPropertyOp40
 70
     1
102
RTVSPropertyOp41
 70
     1
102
RTVSPropertyOp42
 70
     1
102
RTVSPropertyOp43
 70
     1
102
RTVSPropertyOp44
 70
     1
102
RTVSPropertyOp45
 70
     1
102
RTVSPropertyOp46
 70
     1
102
RTVSPropertyOp47
 70
     1
102
RTVSPropertyOp48
 70
     1
102
RTVSPropertyOp49
 70
     1
102
RTVSPropertyOp50
 70
     1
102
RTVSPropertyOp51
 70
     0
102
RTVSPropertyOp52
 70
     0
102
RTVSPropertyOp53
 70
     1
102
RTVSPropertyOp54
 70
     1
102
RTVSPropertyOp55
 70
     1
102
RTVSPropertyOp56
 70
     1
102
RTVSPropertyOp57
 70
     1
102
RTVSPost2010Prop28
280
     0
102
RTVSPost2010PropOp28
 70
     1
102
RTVSPost2010Prop29
280
     1
102
RTVSPost2010PropOp29
 70
     1
102
RTVSPost2010Prop30
280
     1
102
RTVSPost2010PropOp30
 70
     1
102
RTVSPost2010Prop31
280
     0
102
RTVSPost2010PropOp31
 70
     1
102
RTVSPost2010Prop32
280
     0
102
RTVSPost2010PropOp32
 70
     1
102
RTVSPost2010Prop33
280
     0
102
RTVSPost2010PropOp33
 70
     1
102
RTVSPost2010Prop34
280
     0
102
RTVSPost2010PropOp34
 70
     1
102
RTVSPost2010Prop35
280
     0
102
RTVSPost2010PropOp35
 70
     1
102
RTVSPost2010Prop36
280
     0
102
RTVSPost2010PropOp36
 70
     1
102
RTVSPost2010Prop37
 90
       50
102
RTVSPost2010PropOp37
 70
     1
102
RTVSPost2010Prop38
140
0.0
102
RTVSPost2010PropOp38
 70
     1
102
RTVSPost2010Prop39
140
1.0
102
RTVSPost2010PropOp39
 70
     1
102
RTVSPost2010Prop40
 90
        0
102
RTVSPost2010PropOp40
 70
     1
102
RTVSPost2010Prop41ColorIndex
 90
       18
102
RTVSPost2010Prop41ColorRGB
 90
        0
102
RTVSPost2010PropOp41
 70
     1
102
RTVSPost2010Prop42
 90
       50
102
RTVSPost2010PropOp42
 70
     1
102
RTVSPost2010Prop43
 90
        3
102
RTVSPost2010PropOp43
 70
     1
102
RTVSPost2010Prop44ColorIndex
 90
        5
102
RTVSPost2010Prop44ColorRGB
 90
      255
102
RTVSPost2010PropOp44
 70
     1
102
RTVSPost2010Prop45
280
     0
102
RTVSPost2010PropOp45
 70
     1
102
RTVSPost2010Prop46
 90
       50
102
RTVSPost2010PropOp46
 70
     1
102
RTVSPost2010Prop47
 90
       50
102
RTVSPost2010PropOp47
 70
     1
102
RTVSPost2010Prop48
 90
       50
102
RTVSPost2010PropOp48
 70
     1
102
RTVSPost2010Prop49
280
     0
102
RTVSPost2010PropOp49
 70
     1
102
RTVSPost2010Prop50
 90
       50
102
RTVSPost2010PropOp50
 70
     1
102
RTVSPost2010Prop51ColorIndex
 90
      256
102
RTVSPost2010Prop51ColorRGB
 90
-16777216
102
RTVSPost2010PropOp51
 70
     0
102
RTVSPost2010Prop52
140
1.0
102
RTVSPost2010PropOp52
 70
     0
102
RTVSPost2010Prop53
 90
        2
102
RTVSPost2010PropOp53
 70
     1
102
RTVSPost2010Prop54
  1
strokes_ogs.tif
102
RTVSPost2010PropOp54
 70
     1
102
RTVSPost2010Prop55
280
     0
102
RTVSPost2010PropOp55
 70
     1
102
RTVSPost2010Prop56
140
1.0
102
RTVSPost2010PropOp56
 70
     1
102
RTVSPost2010Prop57
140
1.0
102
RTVSPost2010PropOp57
 70
     1
  0
XRECORD
  5
41E
102
{ACAD_REACTORS
330
41D
102
}
330
41D
100
AcDbXrecord
280
     1
102
RTVSPropertyOp0
 70
     0
102
RTVSPropertyOp1
 70
     0
102
RTVSPropertyOp2
 70
     0
102
RTVSPropertyOp3
 70
     0
102
RTVSPropertyOp4
 70
     0
102
RTVSPropertyOp5
 70
     0
102
RTVSPropertyOp6
 70
     0
102
RTVSPropertyOp7
 70
     0
102
RTVSPropertyOp8
 70
     0
102
RTVSPropertyOp9
 70
     0
102
RTVSPropertyOp10
 70
     0
102
RTVSPropertyOp11
 70
     0
102
RTVSPropertyOp12
 70
     0
102
RTVSPropertyOp13
 70
     0
102
RTVSPropertyOp14
 70
     2
102
RTVSPropertyOp15
 70
     0
102
RTVSPropertyOp16
 70
     0
102
RTVSPropertyOp17
 70
     0
102
RTVSPropertyOp18
 70
     0
102
RTVSPropertyOp19
 70
     0
102
RTVSPropertyOp20
 70
     0
102
RTVSPropertyOp21
 70
     0
102
RTVSPropertyOp22
 70
     0
102
RTVSPropertyOp23
 70
     0
102
RTVSPropertyOp24
 70
     0
102
RTVSPropertyOp25
 70
     0
102
RTVSPropertyOp26
 70
     0
102
RTVSPropertyOp27
 70
     0
102
RTVSPropertyOp28
 70
     0
102
RTVSPropertyOp29
 70
     0
102
RTVSPropertyOp30
 70
     0
102
RTVSPropertyOp31
 70
     0
102
RTVSPropertyOp32
 70
     0
102
RTVSPropertyOp33
 70
     0
102
RTVSPropertyOp34
 70
     0
102
RTVSPropertyOp35
 70
     0
102
RTVSPropertyOp36
 70
     0
102
RTVSPropertyOp37
 70
     0
102
RTVSPropertyOp38
 70
     0
102
RTVSPropertyOp39
 70
     0
102
RTVSPropertyOp40
 70
     0
102
RTVSPropertyOp41
 70
     0
102
RTVSPropertyOp42
 70
     0
102
RTVSPropertyOp43
 70
     0
102
RTVSPropertyOp44
 70
     0
102
RTVSPropertyOp45
 70
     0
102
RTVSPropertyOp46
 70
     0
102
RTVSPropertyOp47
 70
     0
102
RTVSPropertyOp48
 70
     0
102
RTVSPropertyOp49
 70
     0
102
RTVSPropertyOp50
 70
     0
102
RTVSPropertyOp51
 70
     0
102
RTVSPropertyOp52
 70
     0
102
RTVSPropertyOp53
 70
     0
102
RTVSPropertyOp54
 70
     0
102
RTVSPropertyOp55
 70
     0
102
RTVSPropertyOp56
 70
     0
102
RTVSPropertyOp57
 70
     0
102
RTVSPost2010Prop28
280
     0
102
RTVSPost2010PropOp28
 70
     0
102
RTVSPost2010Prop29
280
     1
102
RTVSPost2010PropOp29
 70
     0
102
RTVSPost2010Prop30
280
     1
102
RTVSPost2010PropOp30
 70
     0
102
RTVSPost2010Prop31
280
     0
102
RTVSPost2010PropOp31
 70
     0
102
RTVSPost2010Prop32
280
     0
102
RTVSPost2010PropOp32
 70
     0
102
RTVSPost2010Prop33
280
     0
102
RTVSPost2010PropOp33
 70
     0
102
RTVSPost2010Prop34
280
     0
102
RTVSPost2010PropOp34
 70
     0
102
RTVSPost2010Prop35
280
     0
102
RTVSPost2010PropOp35
 70
     0
102
RTVSPost2010Prop36
280
     0
102
RTVSPost2010PropOp36
 70
     0
102
RTVSPost2010Prop37
 90
       50
102
RTVSPost2010PropOp37
 70
     0
102
RTVSPost2010Prop38
140
0.0
102
RTVSPost2010PropOp38
 70
     0
102
RTVSPost2010Prop39
140
1.0
102
RTVSPost2010PropOp39
 70
     0
102
RTVSPost2010Prop40
 90
        0
102
RTVSPost2010PropOp40
 70
     0
102
RTVSPost2010Prop41ColorIndex
 90
       18
102
RTVSPost2010Prop41ColorRGB
 90
        0
102
RTVSPost2010PropOp41
 70
     0
102
RTVSPost2010Prop42
 90
       50
102
RTVSPost2010PropOp42
 70
     0
102
RTVSPost2010Prop43
 90
        3
102
RTVSPost2010PropOp43
 70
     0
102
RTVSPost2010Prop44ColorIndex
 90
        5
102
RTVSPost2010Prop44ColorRGB
 90
      255
102
RTVSPost2010PropOp44
 70
     0
102
RTVSPost2010Prop45
280
     0
102
RTVSPost2010PropOp45
 70
     0
102
RTVSPost2010Prop46
 90
       50
102
RTVSPost2010PropOp46
 70
     0
102
RTVSPost2010Prop47
 90
       50
102
RTVSPost2010PropOp47
 70
     0
102
RTVSPost2010Prop48
 90
       50
102
RTVSPost2010PropOp48
 70
     0
102
RTVSPost2010Prop49
280
     0
102
RTVSPost2010PropOp49
 70
     0
102
RTVSPost2010Prop50
 90
       50
102
RTVSPost2010PropOp50
 70
     0
102
RTVSPost2010Prop51ColorIndex
 90
      256
102
RTVSPost2010Prop51ColorRGB
 90
-16777216
102
RTVSPost2010PropOp51
 70
     0
102
RTVSPost2010Prop52
140
1.0
102
RTVSPost2010PropOp52
 70
     0
102
RTVSPost2010Prop53
 90
        2
102
RTVSPost2010PropOp53
 70
     0
102
RTVSPost2010Prop54
  1
strokes_ogs.tif
102
RTVSPost2010PropOp54
 70
     0
102
RTVSPost2010Prop55
280
     0
102
RTVSPost2010PropOp55
 70
     0
102
RTVSPost2010Prop56
140
1.0
102
RTVSPost2010PropOp56
 70
     0
102
RTVSPost2010Prop57
140
1.0
102
RTVSPost2010PropOp57
 70
     0
  0
XRECORD
  5
416
102
{ACAD_REACTORS
330
415
102
}
330
415
100
AcDbXrecord
280
     1
102
RTVSPropertyOp0
 70
     1
102
RTVSPropertyOp1
 70
     1
102
RTVSPropertyOp2
 70
     1
102
RTVSPropertyOp3
 70
     1
102
RTVSPropertyOp4
 70
     1
102
RTVSPropertyOp5
 70
     1
102
RTVSPropertyOp6
 70
     1
102
RTVSPropertyOp7
 70
     1
102
RTVSPropertyOp8
 70
     1
102
RTVSPropertyOp9
 70
     1
102
RTVSPropertyOp10
 70
     1
102
RTVSPropertyOp11
 70
     1
102
RTVSPropertyOp12
 70
     1
102
RTVSPropertyOp13
 70
     1
102
RTVSPropertyOp14
 70
     1
102
RTVSPropertyOp15
 70
     1
102
RTVSPropertyOp16
 70
     1
102
RTVSPropertyOp17
 70
     1
102
RTVSPropertyOp18
 70
     1
102
RTVSPropertyOp19
 70
     1
102
RTVSPropertyOp20
 70
     1
102
RTVSPropertyOp21
 70
     1
102
RTVSPropertyOp22
 70
     1
102
RTVSPropertyOp23
 70
     1
102
RTVSPropertyOp24
 70
     1
102
RTVSPropertyOp25
 70
     1
102
RTVSPropertyOp26
 70
     1
102
RTVSPropertyOp27
 70
     1
102
RTVSPropertyOp28
 70
     1
102
RTVSPropertyOp29
 70
     1
102
RTVSPropertyOp30
 70
     1
102
RTVSPropertyOp31
 70
     1
102
RTVSPropertyOp32
 70
     1
102
RTVSPropertyOp33
 70
     1
102
RTVSPropertyOp34
 70
     1
102
RTVSPropertyOp35
 70
     1
102
RTVSPropertyOp36
 70
     1
102
RTVSPropertyOp37
 70
     1
102
RTVSPropertyOp38
 70
     1
102
RTVSPropertyOp39
 70
     1
102
RTVSPropertyOp40
 70
     1
102
RTVSPropertyOp41
 70
     1
102
RTVSPropertyOp42
 70
     1
102
RTVSPropertyOp43
 70
     1
102
RTVSPropertyOp44
 70
     1
102
RTVSPropertyOp45
 70
     1
102
RTVSPropertyOp46
 70
     1
102
RTVSPropertyOp47
 70
     1
102
RTVSPropertyOp48
 70
     1
102
RTVSPropertyOp49
 70
     1
102
RTVSPropertyOp50
 70
     1
102
RTVSPropertyOp51
 70
     0
102
RTVSPropertyOp52
 70
     0
102
RTVSPropertyOp53
 70
     1
102
RTVSPropertyOp54
 70
     1
102
RTVSPropertyOp55
 70
     1
102
RTVSPropertyOp56
 70
     1
102
RTVSPropertyOp57
 70
     1
102
RTVSPost2010Prop28
280
     0
102
RTVSPost2010PropOp28
 70
     1
102
RTVSPost2010Prop29
280
     1
102
RTVSPost2010PropOp29
 70
     1
102
RTVSPost2010Prop30
280
     1
102
RTVSPost2010PropOp30
 70
     1
102
RTVSPost2010Prop31
280
     0
102
RTVSPost2010PropOp31
 70
     1
102
RTVSPost2010Prop32
280
     0
102
RTVSPost2010PropOp32
 70
     1
102
RTVSPost2010Prop33
280
     0
102
RTVSPost2010PropOp33
 70
     1
102
RTVSPost2010Prop34
280
     0
102
RTVSPost2010PropOp34
 70
     1
102
RTVSPost2010Prop35
280
     0
102
RTVSPost2010PropOp35
 70
     1
102
RTVSPost2010Prop36
280
     0
102
RTVSPost2010PropOp36
 70
     1
102
RTVSPost2010Prop37
 90
       50
102
RTVSPost2010PropOp37
 70
     1
102
RTVSPost2010Prop38
140
0.0
102
RTVSPost2010PropOp38
 70
     1
102
RTVSPost2010Prop39
140
1.0
102
RTVSPost2010PropOp39
 70
     1
102
RTVSPost2010Prop40
 90
        0
102
RTVSPost2010PropOp40
 70
     1
102
RTVSPost2010Prop41ColorIndex
 90
       18
102
RTVSPost2010Prop41ColorRGB
 90
        0
102
RTVSPost2010PropOp41
 70
     1
102
RTVSPost2010Prop42
 90
       50
102
RTVSPost2010PropOp42
 70
     1
102
RTVSPost2010Prop43
 90
        3
102
RTVSPost2010PropOp43
 70
     1
102
RTVSPost2010Prop44ColorIndex
 90
        5
102
RTVSPost2010Prop44ColorRGB
 90
      255
102
RTVSPost2010PropOp44
 70
     1
102
RTVSPost2010Prop45
280
     0
102
RTVSPost2010PropOp45
 70
     1
102
RTVSPost2010Prop46
 90
       50
102
RTVSPost2010PropOp46
 70
     1
102
RTVSPost2010Prop47
 90
       50
102
RTVSPost2010PropOp47
 70
     1
102
RTVSPost2010Prop48
 90
       50
102
RTVSPost2010PropOp48
 70
     1
102
RTVSPost2010Prop49
280
     0
102
RTVSPost2010PropOp49
 70
     1
102
RTVSPost2010Prop50
 90
       50
102
RTVSPost2010PropOp50
 70
     1
102
RTVSPost2010Prop51ColorIndex
 90
      256
102
RTVSPost2010Prop51ColorRGB
 90
-16777216
102
RTVSPost2010PropOp51
 70
     0
102
RTVSPost2010Prop52
140
1.0
102
RTVSPost2010PropOp52
 70
     0
102
RTVSPost2010Prop53
 90
        2
102
RTVSPost2010PropOp53
 70
     1
102
RTVSPost2010Prop54
  1
strokes_ogs.tif
102
RTVSPost2010PropOp54
 70
     1
102
RTVSPost2010Prop55
280
     0
102
RTVSPost2010PropOp55
 70
     1
102
RTVSPost2010Prop56
140
1.0
102
RTVSPost2010PropOp56
 70
     1
102
RTVSPost2010Prop57
140
1.0
102
RTVSPost2010PropOp57
 70
     1
  0
XRECORD
  5
3FA
102
{ACAD_REACTORS
330
3F9
102
}
330
3F9
100
AcDbXrecord
280
     1
102
RTVSPropertyOp0
 70
     1
102
RTVSPropertyOp1
 70
     1
102
RTVSPropertyOp2
 70
     1
102
RTVSPropertyOp3
 70
     1
102
RTVSPropertyOp4
 70
     1
102
RTVSPropertyOp5
 70
     1
102
RTVSPropertyOp6
 70
     1
102
RTVSPropertyOp7
 70
     1
102
RTVSPropertyOp8
 70
     1
102
RTVSPropertyOp9
 70
     1
102
RTVSPropertyOp10
 70
     1
102
RTVSPropertyOp11
 70
     1
102
RTVSPropertyOp12
 70
     1
102
RTVSPropertyOp13
 70
     1
102
RTVSPropertyOp14
 70
     1
102
RTVSPropertyOp15
 70
     1
102
RTVSPropertyOp16
 70
     1
102
RTVSPropertyOp17
 70
     1
102
RTVSPropertyOp18
 70
     1
102
RTVSPropertyOp19
 70
     1
102
RTVSPropertyOp20
 70
     1
102
RTVSPropertyOp21
 70
     1
102
RTVSPropertyOp22
 70
     1
102
RTVSPropertyOp23
 70
     1
102
RTVSPropertyOp24
 70
     1
102
RTVSPropertyOp25
 70
     1
102
RTVSPropertyOp26
 70
     1
102
RTVSPropertyOp27
 70
     1
102
RTVSPropertyOp28
 70
     1
102
RTVSPropertyOp29
 70
     1
102
RTVSPropertyOp30
 70
     1
102
RTVSPropertyOp31
 70
     1
102
RTVSPropertyOp32
 70
     1
102
RTVSPropertyOp33
 70
     1
102
RTVSPropertyOp34
 70
     1
102
RTVSPropertyOp35
 70
     1
102
RTVSPropertyOp36
 70
     1
102
RTVSPropertyOp37
 70
     1
102
RTVSPropertyOp38
 70
     1
102
RTVSPropertyOp39
 70
     1
102
RTVSPropertyOp40
 70
     1
102
RTVSPropertyOp41
 70
     1
102
RTVSPropertyOp42
 70
     1
102
RTVSPropertyOp43
 70
     1
102
RTVSPropertyOp44
 70
     1
102
RTVSPropertyOp45
 70
     1
102
RTVSPropertyOp46
 70
     1
102
RTVSPropertyOp47
 70
     1
102
RTVSPropertyOp48
 70
     1
102
RTVSPropertyOp49
 70
     1
102
RTVSPropertyOp50
 70
     1
102
RTVSPropertyOp51
 70
     0
102
RTVSPropertyOp52
 70
     0
102
RTVSPropertyOp53
 70
     1
102
RTVSPropertyOp54
 70
     1
102
RTVSPropertyOp55
 70
     1
102
RTVSPropertyOp56
 70
     1
102
RTVSPropertyOp57
 70
     1
102
RTVSPost2010Prop28
280
     0
102
RTVSPost2010PropOp28
 70
     1
102
RTVSPost2010Prop29
280
     1
102
RTVSPost2010PropOp29
 70
     1
102
RTVSPost2010Prop30
280
     1
102
RTVSPost2010PropOp30
 70
     1
102
RTVSPost2010Prop31
280
     0
102
RTVSPost2010PropOp31
 70
     1
102
RTVSPost2010Prop32
280
     0
102
RTVSPost2010PropOp32
 70
     1
102
RTVSPost2010Prop33
280
     0
102
RTVSPost2010PropOp33
 70
     1
102
RTVSPost2010Prop34
280
     0
102
RTVSPost2010PropOp34
 70
     1
102
RTVSPost2010Prop35
280
     0
102
RTVSPost2010PropOp35
 70
     1
102
RTVSPost2010Prop36
280
     0
102
RTVSPost2010PropOp36
 70
     1
102
RTVSPost2010Prop37
 90
       50
102
RTVSPost2010PropOp37
 70
     1
102
RTVSPost2010Prop38
140
0.0
102
RTVSPost2010PropOp38
 70
     1
102
RTVSPost2010Prop39
140
1.0
102
RTVSPost2010PropOp39
 70
     1
102
RTVSPost2010Prop40
 90
        0
102
RTVSPost2010PropOp40
 70
     1
102
RTVSPost2010Prop41ColorIndex
 90
       18
102
RTVSPost2010Prop41ColorRGB
 90
        0
102
RTVSPost2010PropOp41
 70
     1
102
RTVSPost2010Prop42
 90
       50
102
RTVSPost2010PropOp42
 70
     1
102
RTVSPost2010Prop43
 90
        3
102
RTVSPost2010PropOp43
 70
     1
102
RTVSPost2010Prop44ColorIndex
 90
        5
102
RTVSPost2010Prop44ColorRGB
 90
      255
102
RTVSPost2010PropOp44
 70
     1
102
RTVSPost2010Prop45
280
     0
102
RTVSPost2010PropOp45
 70
     1
102
RTVSPost2010Prop46
 90
       50
102
RTVSPost2010PropOp46
 70
     1
102
RTVSPost2010Prop47
 90
       50
102
RTVSPost2010PropOp47
 70
     1
102
RTVSPost2010Prop48
 90
       50
102
RTVSPost2010PropOp48
 70
     1
102
RTVSPost2010Prop49
280
     0
102
RTVSPost2010PropOp49
 70
     1
102
RTVSPost2010Prop50
 90
       50
102
RTVSPost2010PropOp50
 70
     1
102
RTVSPost2010Prop51ColorIndex
 90
      256
102
RTVSPost2010Prop51ColorRGB
 90
-16777216
102
RTVSPost2010PropOp51
 70
     0
102
RTVSPost2010Prop52
140
1.0
102
RTVSPost2010PropOp52
 70
     0
102
RTVSPost2010Prop53
 90
        2
102
RTVSPost2010PropOp53
 70
     1
102
RTVSPost2010Prop54
  1
strokes_ogs.tif
102
RTVSPost2010PropOp54
 70
     1
102
RTVSPost2010Prop55
280
     0
102
RTVSPost2010PropOp55
 70
     1
102
RTVSPost2010Prop56
140
1.0
102
RTVSPost2010PropOp56
 70
     1
102
RTVSPost2010Prop57
140
1.0
102
RTVSPost2010PropOp57
 70
     1
  0
XRECORD
  5
3FC
102
{ACAD_REACTORS
330
3FB
102
}
330
3FB
100
AcDbXrecord
280
     1
102
RTVSPropertyOp0
 70
     1
102
RTVSPropertyOp1
 70
     1
102
RTVSPropertyOp2
 70
     1
102
RTVSPropertyOp3
 70
     1
102
RTVSPropertyOp4
 70
     1
102
RTVSPropertyOp5
 70
     1
102
RTVSPropertyOp6
 70
     1
102
RTVSPropertyOp7
 70
     1
102
RTVSPropertyOp8
 70
     1
102
RTVSPropertyOp9
 70
     1
102
RTVSPropertyOp10
 70
     1
102
RTVSPropertyOp11
 70
     1
102
RTVSPropertyOp12
 70
     1
102
RTVSPropertyOp13
 70
     1
102
RTVSPropertyOp14
 70
     1
102
RTVSPropertyOp15
 70
     1
102
RTVSPropertyOp16
 70
     1
102
RTVSPropertyOp17
 70
     1
102
RTVSPropertyOp18
 70
     1
102
RTVSPropertyOp19
 70
     1
102
RTVSPropertyOp20
 70
     1
102
RTVSPropertyOp21
 70
     1
102
RTVSPropertyOp22
 70
     1
102
RTVSPropertyOp23
 70
     1
102
RTVSPropertyOp24
 70
     1
102
RTVSPropertyOp25
 70
     1
102
RTVSPropertyOp26
 70
     1
102
RTVSPropertyOp27
 70
     1
102
RTVSPropertyOp28
 70
     1
102
RTVSPropertyOp29
 70
     1
102
RTVSPropertyOp30
 70
     1
102
RTVSPropertyOp31
 70
     1
102
RTVSPropertyOp32
 70
     1
102
RTVSPropertyOp33
 70
     1
102
RTVSPropertyOp34
 70
     1
102
RTVSPropertyOp35
 70
     1
102
RTVSPropertyOp36
 70
     1
102
RTVSPropertyOp37
 70
     1
102
RTVSPropertyOp38
 70
     1
102
RTVSPropertyOp39
 70
     1
102
RTVSPropertyOp40
 70
     1
102
RTVSPropertyOp41
 70
     1
102
RTVSPropertyOp42
 70
     1
102
RTVSPropertyOp43
 70
     1
102
RTVSPropertyOp44
 70
     1
102
RTVSPropertyOp45
 70
     1
102
RTVSPropertyOp46
 70
     1
102
RTVSPropertyOp47
 70
     1
102
RTVSPropertyOp48
 70
     1
102
RTVSPropertyOp49
 70
     1
102
RTVSPropertyOp50
 70
     1
102
RTVSPropertyOp51
 70
     0
102
RTVSPropertyOp52
 70
     0
102
RTVSPropertyOp53
 70
     1
102
RTVSPropertyOp54
 70
     1
102
RTVSPropertyOp55
 70
     1
102
RTVSPropertyOp56
 70
     1
102
RTVSPropertyOp57
 70
     1
102
RTVSPost2010Prop28
280
     0
102
RTVSPost2010PropOp28
 70
     1
102
RTVSPost2010Prop29
280
     1
102
RTVSPost2010PropOp29
 70
     1
102
RTVSPost2010Prop30
280
     1
102
RTVSPost2010PropOp30
 70
     1
102
RTVSPost2010Prop31
280
     0
102
RTVSPost2010PropOp31
 70
     1
102
RTVSPost2010Prop32
280
     0
102
RTVSPost2010PropOp32
 70
     1
102
RTVSPost2010Prop33
280
     0
102
RTVSPost2010PropOp33
 70
     1
102
RTVSPost2010Prop34
280
     0
102
RTVSPost2010PropOp34
 70
     1
102
RTVSPost2010Prop35
280
     0
102
RTVSPost2010PropOp35
 70
     1
102
RTVSPost2010Prop36
280
     0
102
RTVSPost2010PropOp36
 70
     1
102
RTVSPost2010Prop37
 90
       50
102
RTVSPost2010PropOp37
 70
     1
102
RTVSPost2010Prop38
140
0.0
102
RTVSPost2010PropOp38
 70
     1
102
RTVSPost2010Prop39
140
1.0
102
RTVSPost2010PropOp39
 70
     1
102
RTVSPost2010Prop40
 90
        0
102
RTVSPost2010PropOp40
 70
     1
102
RTVSPost2010Prop41ColorIndex
 90
       18
102
RTVSPost2010Prop41ColorRGB
 90
        0
102
RTVSPost2010PropOp41
 70
     1
102
RTVSPost2010Prop42
 90
       50
102
RTVSPost2010PropOp42
 70
     1
102
RTVSPost2010Prop43
 90
        3
102
RTVSPost2010PropOp43
 70
     1
102
RTVSPost2010Prop44ColorIndex
 90
        5
102
RTVSPost2010Prop44ColorRGB
 90
      255
102
RTVSPost2010PropOp44
 70
     1
102
RTVSPost2010Prop45
280
     0
102
RTVSPost2010PropOp45
 70
     1
102
RTVSPost2010Prop46
 90
       50
102
RTVSPost2010PropOp46
 70
     1
102
RTVSPost2010Prop47
 90
       50
102
RTVSPost2010PropOp47
 70
     1
102
RTVSPost2010Prop48
 90
       50
102
RTVSPost2010PropOp48
 70
     1
102
RTVSPost2010Prop49
280
     0
102
RTVSPost2010PropOp49
 70
     1
102
RTVSPost2010Prop50
 90
       50
102
RTVSPost2010PropOp50
 70
     1
102
RTVSPost2010Prop51ColorIndex
 90
      256
102
RTVSPost2010Prop51ColorRGB
 90
-16777216
102
RTVSPost2010PropOp51
 70
     0
102
RTVSPost2010Prop52
140
1.0
102
RTVSPost2010PropOp52
 70
     0
102
RTVSPost2010Prop53
 90
        2
102
RTVSPost2010PropOp53
 70
     1
102
RTVSPost2010Prop54
  1
strokes_ogs.tif
102
RTVSPost2010PropOp54
 70
     1
102
RTVSPost2010Prop55
280
     0
102
RTVSPost2010PropOp55
 70
     1
102
RTVSPost2010Prop56
140
1.0
102
RTVSPost2010PropOp56
 70
     1
102
RTVSPost2010Prop57
140
1.0
102
RTVSPost2010PropOp57
 70
     1
  0
XRECORD
  5
3FE
102
{ACAD_REACTORS
330
3FD
102
}
330
3FD
100
AcDbXrecord
280
     1
102
RTVSPropertyOp0
 70
     1
102
RTVSPropertyOp1
 70
     1
102
RTVSPropertyOp2
 70
     1
102
RTVSPropertyOp3
 70
     1
102
RTVSPropertyOp4
 70
     1
102
RTVSPropertyOp5
 70
     1
102
RTVSPropertyOp6
 70
     1
102
RTVSPropertyOp7
 70
     1
102
RTVSPropertyOp8
 70
     1
102
RTVSPropertyOp9
 70
     1
102
RTVSPropertyOp10
 70
     1
102
RTVSPropertyOp11
 70
     1
102
RTVSPropertyOp12
 70
     1
102
RTVSPropertyOp13
 70
     1
102
RTVSPropertyOp14
 70
     1
102
RTVSPropertyOp15
 70
     1
102
RTVSPropertyOp16
 70
     1
102
RTVSPropertyOp17
 70
     1
102
RTVSPropertyOp18
 70
     1
102
RTVSPropertyOp19
 70
     1
102
RTVSPropertyOp20
 70
     1
102
RTVSPropertyOp21
 70
     1
102
RTVSPropertyOp22
 70
     1
102
RTVSPropertyOp23
 70
     1
102
RTVSPropertyOp24
 70
     1
102
RTVSPropertyOp25
 70
     1
102
RTVSPropertyOp26
 70
     1
102
RTVSPropertyOp27
 70
     1
102
RTVSPropertyOp28
 70
     1
102
RTVSPropertyOp29
 70
     1
102
RTVSPropertyOp30
 70
     1
102
RTVSPropertyOp31
 70
     1
102
RTVSPropertyOp32
 70
     1
102
RTVSPropertyOp33
 70
     1
102
RTVSPropertyOp34
 70
     1
102
RTVSPropertyOp35
 70
     1
102
RTVSPropertyOp36
 70
     1
102
RTVSPropertyOp37
 70
     1
102
RTVSPropertyOp38
 70
     1
102
RTVSPropertyOp39
 70
     1
102
RTVSPropertyOp40
 70
     1
102
RTVSPropertyOp41
 70
     1
102
RTVSPropertyOp42
 70
     1
102
RTVSPropertyOp43
 70
     1
102
RTVSPropertyOp44
 70
     1
102
RTVSPropertyOp45
 70
     1
102
RTVSPropertyOp46
 70
     1
102
RTVSPropertyOp47
 70
     1
102
RTVSPropertyOp48
 70
     1
102
RTVSPropertyOp49
 70
     1
102
RTVSPropertyOp50
 70
     1
102
RTVSPropertyOp51
 70
     0
102
RTVSPropertyOp52
 70
     0
102
RTVSPropertyOp53
 70
     1
102
RTVSPropertyOp54
 70
     1
102
RTVSPropertyOp55
 70
     1
102
RTVSPropertyOp56
 70
     1
102
RTVSPropertyOp57
 70
     1
102
RTVSPost2010Prop28
280
     0
102
RTVSPost2010PropOp28
 70
     1
102
RTVSPost2010Prop29
280
     1
102
RTVSPost2010PropOp29
 70
     1
102
RTVSPost2010Prop30
280
     1
102
RTVSPost2010PropOp30
 70
     1
102
RTVSPost2010Prop31
280
     0
102
RTVSPost2010PropOp31
 70
     1
102
RTVSPost2010Prop32
280
     0
102
RTVSPost2010PropOp32
 70
     1
102
RTVSPost2010Prop33
280
     0
102
RTVSPost2010PropOp33
 70
     1
102
RTVSPost2010Prop34
280
     0
102
RTVSPost2010PropOp34
 70
     1
102
RTVSPost2010Prop35
280
     0
102
RTVSPost2010PropOp35
 70
     1
102
RTVSPost2010Prop36
280
     0
102
RTVSPost2010PropOp36
 70
     1
102
RTVSPost2010Prop37
 90
       50
102
RTVSPost2010PropOp37
 70
     1
102
RTVSPost2010Prop38
140
0.0
102
RTVSPost2010PropOp38
 70
     1
102
RTVSPost2010Prop39
140
1.0
102
RTVSPost2010PropOp39
 70
     1
102
RTVSPost2010Prop40
 90
        0
102
RTVSPost2010PropOp40
 70
     1
102
RTVSPost2010Prop41ColorIndex
 90
       18
102
RTVSPost2010Prop41ColorRGB
 90
        0
102
RTVSPost2010PropOp41
 70
     1
102
RTVSPost2010Prop42
 90
       50
102
RTVSPost2010PropOp42
 70
     1
102
RTVSPost2010Prop43
 90
        3
102
RTVSPost2010PropOp43
 70
     1
102
RTVSPost2010Prop44ColorIndex
 90
        5
102
RTVSPost2010Prop44ColorRGB
 90
      255
102
RTVSPost2010PropOp44
 70
     1
102
RTVSPost2010Prop45
280
     0
102
RTVSPost2010PropOp45
 70
     1
102
RTVSPost2010Prop46
 90
       50
102
RTVSPost2010PropOp46
 70
     1
102
RTVSPost2010Prop47
 90
       50
102
RTVSPost2010PropOp47
 70
     1
102
RTVSPost2010Prop48
 90
       50
102
RTVSPost2010PropOp48
 70
     1
102
RTVSPost2010Prop49
280
     0
102
RTVSPost2010PropOp49
 70
     1
102
RTVSPost2010Prop50
 90
       50
102
RTVSPost2010PropOp50
 70
     1
102
RTVSPost2010Prop51ColorIndex
 90
      256
102
RTVSPost2010Prop51ColorRGB
 90
-16777216
102
RTVSPost2010PropOp51
 70
     0
102
RTVSPost2010Prop52
140
1.0
102
RTVSPost2010PropOp52
 70
     0
102
RTVSPost2010Prop53
 90
        2
102
RTVSPost2010PropOp53
 70
     1
102
RTVSPost2010Prop54
  1
strokes_ogs.tif
102
RTVSPost2010PropOp54
 70
     1
102
RTVSPost2010Prop55
280
     0
102
RTVSPost2010PropOp55
 70
     1
102
RTVSPost2010Prop56
140
1.0
102
RTVSPost2010PropOp56
 70
     1
102
RTVSPost2010Prop57
140
1.0
102
RTVSPost2010PropOp57
 70
     1
  0
XRECORD
  5
400
102
{ACAD_REACTORS
330
3FF
102
}
330
3FF
100
AcDbXrecord
280
     1
102
RTVSPropertyOp0
 70
     1
102
RTVSPropertyOp1
 70
     1
102
RTVSPropertyOp2
 70
     1
102
RTVSPropertyOp3
 70
     1
102
RTVSPropertyOp4
 70
     1
102
RTVSPropertyOp5
 70
     1
102
RTVSPropertyOp6
 70
     1
102
RTVSPropertyOp7
 70
     1
102
RTVSPropertyOp8
 70
     1
102
RTVSPropertyOp9
 70
     1
102
RTVSPropertyOp10
 70
     1
102
RTVSPropertyOp11
 70
     1
102
RTVSPropertyOp12
 70
     1
102
RTVSPropertyOp13
 70
     1
102
RTVSPropertyOp14
 70
     1
102
RTVSPropertyOp15
 70
     1
102
RTVSPropertyOp16
 70
     1
102
RTVSPropertyOp17
 70
     1
102
RTVSPropertyOp18
 70
     1
102
RTVSPropertyOp19
 70
     1
102
RTVSPropertyOp20
 70
     1
102
RTVSPropertyOp21
 70
     1
102
RTVSPropertyOp22
 70
     1
102
RTVSPropertyOp23
 70
     1
102
RTVSPropertyOp24
 70
     1
102
RTVSPropertyOp25
 70
     1
102
RTVSPropertyOp26
 70
     1
102
RTVSPropertyOp27
 70
     1
102
RTVSPropertyOp28
 70
     1
102
RTVSPropertyOp29
 70
     1
102
RTVSPropertyOp30
 70
     1
102
RTVSPropertyOp31
 70
     1
102
RTVSPropertyOp32
 70
     1
102
RTVSPropertyOp33
 70
     1
102
RTVSPropertyOp34
 70
     1
102
RTVSPropertyOp35
 70
     1
102
RTVSPropertyOp36
 70
     1
102
RTVSPropertyOp37
 70
     1
102
RTVSPropertyOp38
 70
     1
102
RTVSPropertyOp39
 70
     1
102
RTVSPropertyOp40
 70
     1
102
RTVSPropertyOp41
 70
     1
102
RTVSPropertyOp42
 70
     1
102
RTVSPropertyOp43
 70
     1
102
RTVSPropertyOp44
 70
     1
102
RTVSPropertyOp45
 70
     1
102
RTVSPropertyOp46
 70
     1
102
RTVSPropertyOp47
 70
     1
102
RTVSPropertyOp48
 70
     1
102
RTVSPropertyOp49
 70
     1
102
RTVSPropertyOp50
 70
     1
102
RTVSPropertyOp51
 70
     0
102
RTVSPropertyOp52
 70
     0
102
RTVSPropertyOp53
 70
     1
102
RTVSPropertyOp54
 70
     1
102
RTVSPropertyOp55
 70
     1
102
RTVSPropertyOp56
 70
     1
102
RTVSPropertyOp57
 70
     1
102
RTVSPost2010Prop28
280
     0
102
RTVSPost2010PropOp28
 70
     1
102
RTVSPost2010Prop29
280
     1
102
RTVSPost2010PropOp29
 70
     1
102
RTVSPost2010Prop30
280
     1
102
RTVSPost2010PropOp30
 70
     1
102
RTVSPost2010Prop31
280
     0
102
RTVSPost2010PropOp31
 70
     1
102
RTVSPost2010Prop32
280
     0
102
RTVSPost2010PropOp32
 70
     1
102
RTVSPost2010Prop33
280
     0
102
RTVSPost2010PropOp33
 70
     1
102
RTVSPost2010Prop34
280
     0
102
RTVSPost2010PropOp34
 70
     1
102
RTVSPost2010Prop35
280
     0
102
RTVSPost2010PropOp35
 70
     1
102
RTVSPost2010Prop36
280
     0
102
RTVSPost2010PropOp36
 70
     1
102
RTVSPost2010Prop37
 90
       50
102
RTVSPost2010PropOp37
 70
     1
102
RTVSPost2010Prop38
140
0.0
102
RTVSPost2010PropOp38
 70
     1
102
RTVSPost2010Prop39
140
1.0
102
RTVSPost2010PropOp39
 70
     1
102
RTVSPost2010Prop40
 90
        0
102
RTVSPost2010PropOp40
 70
     1
102
RTVSPost2010Prop41ColorIndex
 90
       18
102
RTVSPost2010Prop41ColorRGB
 90
        0
102
RTVSPost2010PropOp41
 70
     1
102
RTVSPost2010Prop42
 90
       50
102
RTVSPost2010PropOp42
 70
     1
102
RTVSPost2010Prop43
 90
        3
102
RTVSPost2010PropOp43
 70
     1
102
RTVSPost2010Prop44ColorIndex
 90
        5
102
RTVSPost2010Prop44ColorRGB
 90
      255
102
RTVSPost2010PropOp44
 70
     1
102
RTVSPost2010Prop45
280
     0
102
RTVSPost2010PropOp45
 70
     1
102
RTVSPost2010Prop46
 90
       50
102
RTVSPost2010PropOp46
 70
     1
102
RTVSPost2010Prop47
 90
       50
102
RTVSPost2010PropOp47
 70
     1
102
RTVSPost2010Prop48
 90
       50
102
RTVSPost2010PropOp48
 70
     1
102
RTVSPost2010Prop49
280
     0
102
RTVSPost2010PropOp49
 70
     1
102
RTVSPost2010Prop50
 90
       50
102
RTVSPost2010PropOp50
 70
     1
102
RTVSPost2010Prop51ColorIndex
 90
      256
102
RTVSPost2010Prop51ColorRGB
 90
-16777216
102
RTVSPost2010PropOp51
 70
     0
102
RTVSPost2010Prop52
140
1.0
102
RTVSPost2010PropOp52
 70
     0
102
RTVSPost2010Prop53
 90
        2
102
RTVSPost2010PropOp53
 70
     1
102
RTVSPost2010Prop54
  1
strokes_ogs.tif
102
RTVSPost2010PropOp54
 70
     1
102
RTVSPost2010Prop55
280
     0
102
RTVSPost2010PropOp55
 70
     1
102
RTVSPost2010Prop56
140
1.0
102
RTVSPost2010PropOp56
 70
     1
102
RTVSPost2010Prop57
140
1.0
102
RTVSPost2010PropOp57
 70
     1
  0
XRECORD
  5
406
102
{ACAD_REACTORS
330
405
102
}
330
405
100
AcDbXrecord
280
     1
102
RTVSPropertyOp0
 70
     1
102
RTVSPropertyOp1
 70
     1
102
RTVSPropertyOp2
 70
     1
102
RTVSPropertyOp3
 70
     1
102
RTVSPropertyOp4
 70
     1
102
RTVSPropertyOp5
 70
     1
102
RTVSPropertyOp6
 70
     1
102
RTVSPropertyOp7
 70
     1
102
RTVSPropertyOp8
 70
     1
102
RTVSPropertyOp9
 70
     1
102
RTVSPropertyOp10
 70
     1
102
RTVSPropertyOp11
 70
     1
102
RTVSPropertyOp12
 70
     1
102
RTVSPropertyOp13
 70
     1
102
RTVSPropertyOp14
 70
     1
102
RTVSPropertyOp15
 70
     1
102
RTVSPropertyOp16
 70
     1
102
RTVSPropertyOp17
 70
     1
102
RTVSPropertyOp18
 70
     1
102
RTVSPropertyOp19
 70
     1
102
RTVSPropertyOp20
 70
     1
102
RTVSPropertyOp21
 70
     1
102
RTVSPropertyOp22
 70
     1
102
RTVSPropertyOp23
 70
     1
102
RTVSPropertyOp24
 70
     1
102
RTVSPropertyOp25
 70
     1
102
RTVSPropertyOp26
 70
     1
102
RTVSPropertyOp27
 70
     1
102
RTVSPropertyOp28
 70
     1
102
RTVSPropertyOp29
 70
     1
102
RTVSPropertyOp30
 70
     1
102
RTVSPropertyOp31
 70
     1
102
RTVSPropertyOp32
 70
     1
102
RTVSPropertyOp33
 70
     1
102
RTVSPropertyOp34
 70
     1
102
RTVSPropertyOp35
 70
     1
102
RTVSPropertyOp36
 70
     1
102
RTVSPropertyOp37
 70
     1
102
RTVSPropertyOp38
 70
     1
102
RTVSPropertyOp39
 70
     1
102
RTVSPropertyOp40
 70
     1
102
RTVSPropertyOp41
 70
     1
102
RTVSPropertyOp42
 70
     1
102
RTVSPropertyOp43
 70
     1
102
RTVSPropertyOp44
 70
     1
102
RTVSPropertyOp45
 70
     1
102
RTVSPropertyOp46
 70
     1
102
RTVSPropertyOp47
 70
     1
102
RTVSPropertyOp48
 70
     1
102
RTVSPropertyOp49
 70
     1
102
RTVSPropertyOp50
 70
     1
102
RTVSPropertyOp51
 70
     0
102
RTVSPropertyOp52
 70
     0
102
RTVSPropertyOp53
 70
     1
102
RTVSPropertyOp54
 70
     1
102
RTVSPropertyOp55
 70
     1
102
RTVSPropertyOp56
 70
     1
102
RTVSPropertyOp57
 70
     1
102
RTVSPost2010Prop28
280
     0
102
RTVSPost2010PropOp28
 70
     1
102
RTVSPost2010Prop29
280
     1
102
RTVSPost2010PropOp29
 70
     1
102
RTVSPost2010Prop30
280
     1
102
RTVSPost2010PropOp30
 70
     1
102
RTVSPost2010Prop31
280
     0
102
RTVSPost2010PropOp31
 70
     1
102
RTVSPost2010Prop32
280
     0
102
RTVSPost2010PropOp32
 70
     1
102
RTVSPost2010Prop33
280
     0
102
RTVSPost2010PropOp33
 70
     1
102
RTVSPost2010Prop34
280
     0
102
RTVSPost2010PropOp34
 70
     1
102
RTVSPost2010Prop35
280
     0
102
RTVSPost2010PropOp35
 70
     1
102
RTVSPost2010Prop36
280
     0
102
RTVSPost2010PropOp36
 70
     1
102
RTVSPost2010Prop37
 90
       50
102
RTVSPost2010PropOp37
 70
     1
102
RTVSPost2010Prop38
140
0.0
102
RTVSPost2010PropOp38
 70
     1
102
RTVSPost2010Prop39
140
1.0
102
RTVSPost2010PropOp39
 70
     1
102
RTVSPost2010Prop40
 90
        0
102
RTVSPost2010PropOp40
 70
     1
102
RTVSPost2010Prop41ColorIndex
 90
       18
102
RTVSPost2010Prop41ColorRGB
 90
        0
102
RTVSPost2010PropOp41
 70
     1
102
RTVSPost2010Prop42
 90
       50
102
RTVSPost2010PropOp42
 70
     1
102
RTVSPost2010Prop43
 90
        3
102
RTVSPost2010PropOp43
 70
     1
102
RTVSPost2010Prop44ColorIndex
 90
        5
102
RTVSPost2010Prop44ColorRGB
 90
      255
102
RTVSPost2010PropOp44
 70
     1
102
RTVSPost2010Prop45
280
     0
102
RTVSPost2010PropOp45
 70
     1
102
RTVSPost2010Prop46
 90
       50
102
RTVSPost2010PropOp46
 70
     1
102
RTVSPost2010Prop47
 90
       50
102
RTVSPost2010PropOp47
 70
     1
102
RTVSPost2010Prop48
 90
       50
102
RTVSPost2010PropOp48
 70
     1
102
RTVSPost2010Prop49
280
     0
102
RTVSPost2010PropOp49
 70
     1
102
RTVSPost2010Prop50
 90
       50
102
RTVSPost2010PropOp50
 70
     1
102
RTVSPost2010Prop51ColorIndex
 90
      256
102
RTVSPost2010Prop51ColorRGB
 90
-16777216
102
RTVSPost2010PropOp51
 70
     0
102
RTVSPost2010Prop52
140
1.0
102
RTVSPost2010PropOp52
 70
     0
102
RTVSPost2010Prop53
 90
        2
102
RTVSPost2010PropOp53
 70
     1
102
RTVSPost2010Prop54
  1
strokes_ogs.tif
102
RTVSPost2010PropOp54
 70
     1
102
RTVSPost2010Prop55
280
     0
102
RTVSPost2010PropOp55
 70
     1
102
RTVSPost2010Prop56
140
1.0
102
RTVSPost2010PropOp56
 70
     1
102
RTVSPost2010Prop57
140
1.0
102
RTVSPost2010PropOp57
 70
     1
  0
XRECORD
  5
41A
102
{ACAD_REACTORS
330
419
102
}
330
419
100
AcDbXrecord
280
     1
102
RTVSPropertyOp0
 70
     0
102
RTVSPropertyOp1
 70
     0
102
RTVSPropertyOp2
 70
     0
102
RTVSPropertyOp3
 70
     0
102
RTVSPropertyOp4
 70
     0
102
RTVSPropertyOp5
 70
     0
102
RTVSPropertyOp6
 70
     0
102
RTVSPropertyOp7
 70
     0
102
RTVSPropertyOp8
 70
     0
102
RTVSPropertyOp9
 70
     0
102
RTVSPropertyOp10
 70
     0
102
RTVSPropertyOp11
 70
     0
102
RTVSPropertyOp12
 70
     0
102
RTVSPropertyOp13
 70
     0
102
RTVSPropertyOp14
 70
     2
102
RTVSPropertyOp15
 70
     0
102
RTVSPropertyOp16
 70
     0
102
RTVSPropertyOp17
 70
     0
102
RTVSPropertyOp18
 70
     0
102
RTVSPropertyOp19
 70
     0
102
RTVSPropertyOp20
 70
     0
102
RTVSPropertyOp21
 70
     0
102
RTVSPropertyOp22
 70
     0
102
RTVSPropertyOp23
 70
     0
102
RTVSPropertyOp24
 70
     0
102
RTVSPropertyOp25
 70
     0
102
RTVSPropertyOp26
 70
     0
102
RTVSPropertyOp27
 70
     0
102
RTVSPropertyOp28
 70
     0
102
RTVSPropertyOp29
 70
     0
102
RTVSPropertyOp30
 70
     0
102
RTVSPropertyOp31
 70
     0
102
RTVSPropertyOp32
 70
     0
102
RTVSPropertyOp33
 70
     0
102
RTVSPropertyOp34
 70
     0
102
RTVSPropertyOp35
 70
     0
102
RTVSPropertyOp36
 70
     0
102
RTVSPropertyOp37
 70
     0
102
RTVSPropertyOp38
 70
     0
102
RTVSPropertyOp39
 70
     0
102
RTVSPropertyOp40
 70
     0
102
RTVSPropertyOp41
 70
     0
102
RTVSPropertyOp42
 70
     0
102
RTVSPropertyOp43
 70
     0
102
RTVSPropertyOp44
 70
     0
102
RTVSPropertyOp45
 70
     0
102
RTVSPropertyOp46
 70
     0
102
RTVSPropertyOp47
 70
     0
102
RTVSPropertyOp48
 70
     0
102
RTVSPropertyOp49
 70
     0
102
RTVSPropertyOp50
 70
     0
102
RTVSPropertyOp51
 70
     0
102
RTVSPropertyOp52
 70
     0
102
RTVSPropertyOp53
 70
     0
102
RTVSPropertyOp54
 70
     0
102
RTVSPropertyOp55
 70
     0
102
RTVSPropertyOp56
 70
     0
102
RTVSPropertyOp57
 70
     0
102
RTVSPost2010Prop28
280
     0
102
RTVSPost2010PropOp28
 70
     0
102
RTVSPost2010Prop29
280
     1
102
RTVSPost2010PropOp29
 70
     0
102
RTVSPost2010Prop30
280
     1
102
RTVSPost2010PropOp30
 70
     0
102
RTVSPost2010Prop31
280
     0
102
RTVSPost2010PropOp31
 70
     0
102
RTVSPost2010Prop32
280
     0
102
RTVSPost2010PropOp32
 70
     0
102
RTVSPost2010Prop33
280
     0
102
RTVSPost2010PropOp33
 70
     0
102
RTVSPost2010Prop34
280
     0
102
RTVSPost2010PropOp34
 70
     0
102
RTVSPost2010Prop35
280
     0
102
RTVSPost2010PropOp35
 70
     0
102
RTVSPost2010Prop36
280
     0
102
RTVSPost2010PropOp36
 70
     0
102
RTVSPost2010Prop37
 90
       50
102
RTVSPost2010PropOp37
 70
     0
102
RTVSPost2010Prop38
140
0.0
102
RTVSPost2010PropOp38
 70
     0
102
RTVSPost2010Prop39
140
1.0
102
RTVSPost2010PropOp39
 70
     0
102
RTVSPost2010Prop40
 90
        0
102
RTVSPost2010PropOp40
 70
     0
102
RTVSPost2010Prop41ColorIndex
 90
       18
102
RTVSPost2010Prop41ColorRGB
 90
        0
102
RTVSPost2010PropOp41
 70
     0
102
RTVSPost2010Prop42
 90
       50
102
RTVSPost2010PropOp42
 70
     0
102
RTVSPost2010Prop43
 90
        3
102
RTVSPost2010PropOp43
 70
     0
102
RTVSPost2010Prop44ColorIndex
 90
        5
102
RTVSPost2010Prop44ColorRGB
 90
      255
102
RTVSPost2010PropOp44
 70
     0
102
RTVSPost2010Prop45
280
     0
102
RTVSPost2010PropOp45
 70
     0
102
RTVSPost2010Prop46
 90
       50
102
RTVSPost2010PropOp46
 70
     0
102
RTVSPost2010Prop47
 90
       50
102
RTVSPost2010PropOp47
 70
     0
102
RTVSPost2010Prop48
 90
       50
102
RTVSPost2010PropOp48
 70
     0
102
RTVSPost2010Prop49
280
     0
102
RTVSPost2010PropOp49
 70
     0
102
RTVSPost2010Prop50
 90
       50
102
RTVSPost2010PropOp50
 70
     0
102
RTVSPost2010Prop51ColorIndex
 90
      256
102
RTVSPost2010Prop51ColorRGB
 90
-16777216
102
RTVSPost2010PropOp51
 70
     0
102
RTVSPost2010Prop52
140
1.0
102
RTVSPost2010PropOp52
 70
     0
102
RTVSPost2010Prop53
 90
        2
102
RTVSPost2010PropOp53
 70
     0
102
RTVSPost2010Prop54
  1
strokes_ogs.tif
102
RTVSPost2010PropOp54
 70
     0
102
RTVSPost2010Prop55
280
     0
102
RTVSPost2010PropOp55
 70
     0
102
RTVSPost2010Prop56
140
1.0
102
RTVSPost2010PropOp56
 70
     0
102
RTVSPost2010Prop57
140
1.0
102
RTVSPost2010PropOp57
 70
     0
  0
XRECORD
  5
414
102
{ACAD_REACTORS
330
413
102
}
330
413
100
AcDbXrecord
280
     1
102
RTVSPropertyOp0
 70
     1
102
RTVSPropertyOp1
 70
     1
102
RTVSPropertyOp2
 70
     1
102
RTVSPropertyOp3
 70
     1
102
RTVSPropertyOp4
 70
     1
102
RTVSPropertyOp5
 70
     1
102
RTVSPropertyOp6
 70
     1
102
RTVSPropertyOp7
 70
     1
102
RTVSPropertyOp8
 70
     1
102
RTVSPropertyOp9
 70
     1
102
RTVSPropertyOp10
 70
     1
102
RTVSPropertyOp11
 70
     1
102
RTVSPropertyOp12
 70
     1
102
RTVSPropertyOp13
 70
     1
102
RTVSPropertyOp14
 70
     1
102
RTVSPropertyOp15
 70
     1
102
RTVSPropertyOp16
 70
     1
102
RTVSPropertyOp17
 70
     1
102
RTVSPropertyOp18
 70
     1
102
RTVSPropertyOp19
 70
     1
102
RTVSPropertyOp20
 70
     1
102
RTVSPropertyOp21
 70
     1
102
RTVSPropertyOp22
 70
     1
102
RTVSPropertyOp23
 70
     1
102
RTVSPropertyOp24
 70
     1
102
RTVSPropertyOp25
 70
     1
102
RTVSPropertyOp26
 70
     1
102
RTVSPropertyOp27
 70
     1
102
RTVSPropertyOp28
 70
     1
102
RTVSPropertyOp29
 70
     1
102
RTVSPropertyOp30
 70
     1
102
RTVSPropertyOp31
 70
     1
102
RTVSPropertyOp32
 70
     1
102
RTVSPropertyOp33
 70
     1
102
RTVSPropertyOp34
 70
     1
102
RTVSPropertyOp35
 70
     1
102
RTVSPropertyOp36
 70
     1
102
RTVSPropertyOp37
 70
     1
102
RTVSPropertyOp38
 70
     1
102
RTVSPropertyOp39
 70
     1
102
RTVSPropertyOp40
 70
     1
102
RTVSPropertyOp41
 70
     1
102
RTVSPropertyOp42
 70
     1
102
RTVSPropertyOp43
 70
     1
102
RTVSPropertyOp44
 70
     1
102
RTVSPropertyOp45
 70
     1
102
RTVSPropertyOp46
 70
     1
102
RTVSPropertyOp47
 70
     1
102
RTVSPropertyOp48
 70
     1
102
RTVSPropertyOp49
 70
     1
102
RTVSPropertyOp50
 70
     1
102
RTVSPropertyOp51
 70
     0
102
RTVSPropertyOp52
 70
     0
102
RTVSPropertyOp53
 70
     1
102
RTVSPropertyOp54
 70
     1
102
RTVSPropertyOp55
 70
     1
102
RTVSPropertyOp56
 70
     1
102
RTVSPropertyOp57
 70
     1
102
RTVSPost2010Prop28
280
     0
102
RTVSPost2010PropOp28
 70
     1
102
RTVSPost2010Prop29
280
     1
102
RTVSPost2010PropOp29
 70
     1
102
RTVSPost2010Prop30
280
     1
102
RTVSPost2010PropOp30
 70
     1
102
RTVSPost2010Prop31
280
     0
102
RTVSPost2010PropOp31
 70
     1
102
RTVSPost2010Prop32
280
     0
102
RTVSPost2010PropOp32
 70
     1
102
RTVSPost2010Prop33
280
     0
102
RTVSPost2010PropOp33
 70
     1
102
RTVSPost2010Prop34
280
     0
102
RTVSPost2010PropOp34
 70
     1
102
RTVSPost2010Prop35
280
     0
102
RTVSPost2010PropOp35
 70
     1
102
RTVSPost2010Prop36
280
     0
102
RTVSPost2010PropOp36
 70
     1
102
RTVSPost2010Prop37
 90
       50
102
RTVSPost2010PropOp37
 70
     1
102
RTVSPost2010Prop38
140
0.0
102
RTVSPost2010PropOp38
 70
     1
102
RTVSPost2010Prop39
140
1.0
102
RTVSPost2010PropOp39
 70
     1
102
RTVSPost2010Prop40
 90
        0
102
RTVSPost2010PropOp40
 70
     1
102
RTVSPost2010Prop41ColorIndex
 90
       18
102
RTVSPost2010Prop41ColorRGB
 90
        0
102
RTVSPost2010PropOp41
 70
     1
102
RTVSPost2010Prop42
 90
       50
102
RTVSPost2010PropOp42
 70
     1
102
RTVSPost2010Prop43
 90
        3
102
RTVSPost2010PropOp43
 70
     1
102
RTVSPost2010Prop44ColorIndex
 90
        5
102
RTVSPost2010Prop44ColorRGB
 90
      255
102
RTVSPost2010PropOp44
 70
     1
102
RTVSPost2010Prop45
280
     0
102
RTVSPost2010PropOp45
 70
     1
102
RTVSPost2010Prop46
 90
       50
102
RTVSPost2010PropOp46
 70
     1
102
RTVSPost2010Prop47
 90
       50
102
RTVSPost2010PropOp47
 70
     1
102
RTVSPost2010Prop48
 90
       50
102
RTVSPost2010PropOp48
 70
     1
102
RTVSPost2010Prop49
280
     0
102
RTVSPost2010PropOp49
 70
     1
102
RTVSPost2010Prop50
 90
       50
102
RTVSPost2010PropOp50
 70
     1
102
RTVSPost2010Prop51ColorIndex
 90
      256
102
RTVSPost2010Prop51ColorRGB
 90
-16777216
102
RTVSPost2010PropOp51
 70
     0
102
RTVSPost2010Prop52
140
1.0
102
RTVSPost2010PropOp52
 70
     0
102
RTVSPost2010Prop53
 90
        2
102
RTVSPost2010PropOp53
 70
     1
102
RTVSPost2010Prop54
  1
strokes_ogs.tif
102
RTVSPost2010PropOp54
 70
     1
102
RTVSPost2010Prop55
280
     0
102
RTVSPost2010PropOp55
 70
     1
102
RTVSPost2010Prop56
140
1.0
102
RTVSPost2010PropOp56
 70
     1
102
RTVSPost2010Prop57
140
1.0
102
RTVSPost2010PropOp57
 70
     1
  0
XRECORD
  5
41C
102
{ACAD_REACTORS
330
41B
102
}
330
41B
100
AcDbXrecord
280
     1
102
RTVSPropertyOp0
 70
     0
102
RTVSPropertyOp1
 70
     0
102
RTVSPropertyOp2
 70
     0
102
RTVSPropertyOp3
 70
     0
102
RTVSPropertyOp4
 70
     0
102
RTVSPropertyOp5
 70
     0
102
RTVSPropertyOp6
 70
     0
102
RTVSPropertyOp7
 70
     0
102
RTVSPropertyOp8
 70
     0
102
RTVSPropertyOp9
 70
     0
102
RTVSPropertyOp10
 70
     0
102
RTVSPropertyOp11
 70
     0
102
RTVSPropertyOp12
 70
     0
102
RTVSPropertyOp13
 70
     0
102
RTVSPropertyOp14
 70
     2
102
RTVSPropertyOp15
 70
     0
102
RTVSPropertyOp16
 70
     0
102
RTVSPropertyOp17
 70
     0
102
RTVSPropertyOp18
 70
     0
102
RTVSPropertyOp19
 70
     0
102
RTVSPropertyOp20
 70
     0
102
RTVSPropertyOp21
 70
     0
102
RTVSPropertyOp22
 70
     0
102
RTVSPropertyOp23
 70
     0
102
RTVSPropertyOp24
 70
     0
102
RTVSPropertyOp25
 70
     0
102
RTVSPropertyOp26
 70
     0
102
RTVSPropertyOp27
 70
     0
102
RTVSPropertyOp28
 70
     0
102
RTVSPropertyOp29
 70
     0
102
RTVSPropertyOp30
 70
     0
102
RTVSPropertyOp31
 70
     0
102
RTVSPropertyOp32
 70
     0
102
RTVSPropertyOp33
 70
     0
102
RTVSPropertyOp34
 70
     0
102
RTVSPropertyOp35
 70
     0
102
RTVSPropertyOp36
 70
     0
102
RTVSPropertyOp37
 70
     0
102
RTVSPropertyOp38
 70
     0
102
RTVSPropertyOp39
 70
     0
102
RTVSPropertyOp40
 70
     0
102
RTVSPropertyOp41
 70
     0
102
RTVSPropertyOp42
 70
     0
102
RTVSPropertyOp43
 70
     0
102
RTVSPropertyOp44
 70
     0
102
RTVSPropertyOp45
 70
     0
102
RTVSPropertyOp46
 70
     0
102
RTVSPropertyOp47
 70
     0
102
RTVSPropertyOp48
 70
     0
102
RTVSPropertyOp49
 70
     0
102
RTVSPropertyOp50
 70
     0
102
RTVSPropertyOp51
 70
     0
102
RTVSPropertyOp52
 70
     0
102
RTVSPropertyOp53
 70
     0
102
RTVSPropertyOp54
 70
     0
102
RTVSPropertyOp55
 70
     0
102
RTVSPropertyOp56
 70
     0
102
RTVSPropertyOp57
 70
     0
102
RTVSPost2010Prop28
280
     0
102
RTVSPost2010PropOp28
 70
     0
102
RTVSPost2010Prop29
280
     1
102
RTVSPost2010PropOp29
 70
     0
102
RTVSPost2010Prop30
280
     1
102
RTVSPost2010PropOp30
 70
     0
102
RTVSPost2010Prop31
280
     0
102
RTVSPost2010PropOp31
 70
     0
102
RTVSPost2010Prop32
280
     0
102
RTVSPost2010PropOp32
 70
     0
102
RTVSPost2010Prop33
280
     0
102
RTVSPost2010PropOp33
 70
     0
102
RTVSPost2010Prop34
280
     0
102
RTVSPost2010PropOp34
 70
     0
102
RTVSPost2010Prop35
280
     0
102
RTVSPost2010PropOp35
 70
     0
102
RTVSPost2010Prop36
280
     0
102
RTVSPost2010PropOp36
 70
     0
102
RTVSPost2010Prop37
 90
       50
102
RTVSPost2010PropOp37
 70
     0
102
RTVSPost2010Prop38
140
0.0
102
RTVSPost2010PropOp38
 70
     0
102
RTVSPost2010Prop39
140
1.0
102
RTVSPost2010PropOp39
 70
     0
102
RTVSPost2010Prop40
 90
        0
102
RTVSPost2010PropOp40
 70
     0
102
RTVSPost2010Prop41ColorIndex
 90
       18
102
RTVSPost2010Prop41ColorRGB
 90
        0
102
RTVSPost2010PropOp41
 70
     0
102
RTVSPost2010Prop42
 90
       50
102
RTVSPost2010PropOp42
 70
     0
102
RTVSPost2010Prop43
 90
        3
102
RTVSPost2010PropOp43
 70
     0
102
RTVSPost2010Prop44ColorIndex
 90
        5
102
RTVSPost2010Prop44ColorRGB
 90
      255
102
RTVSPost2010PropOp44
 70
     0
102
RTVSPost2010Prop45
280
     0
102
RTVSPost2010PropOp45
 70
     0
102
RTVSPost2010Prop46
 90
       50
102
RTVSPost2010PropOp46
 70
     0
102
RTVSPost2010Prop47
 90
       50
102
RTVSPost2010PropOp47
 70
     0
102
RTVSPost2010Prop48
 90
       50
102
RTVSPost2010PropOp48
 70
     0
102
RTVSPost2010Prop49
280
     0
102
RTVSPost2010PropOp49
 70
     0
102
RTVSPost2010Prop50
 90
       50
102
RTVSPost2010PropOp50
 70
     0
102
RTVSPost2010Prop51ColorIndex
 90
      256
102
RTVSPost2010Prop51ColorRGB
 90
-16777216
102
RTVSPost2010PropOp51
 70
     0
102
RTVSPost2010Prop52
140
1.0
102
RTVSPost2010PropOp52
 70
     0
102
RTVSPost2010Prop53
 90
        2
102
RTVSPost2010PropOp53
 70
     0
102
RTVSPost2010Prop54
  1
strokes_ogs.tif
102
RTVSPost2010PropOp54
 70
     0
102
RTVSPost2010Prop55
280
     0
102
RTVSPost2010PropOp55
 70
     0
102
RTVSPost2010Prop56
140
1.0
102
RTVSPost2010PropOp56
 70
     0
102
RTVSPost2010Prop57
140
1.0
102
RTVSPost2010PropOp57
 70
     0
  0
XRECORD
  5
40A
102
{ACAD_REACTORS
330
409
102
}
330
409
100
AcDbXrecord
280
     1
102
RTVSPropertyOp0
 70
     1
102
RTVSPropertyOp1
 70
     1
102
RTVSPropertyOp2
 70
     1
102
RTVSPropertyOp3
 70
     1
102
RTVSPropertyOp4
 70
     1
102
RTVSPropertyOp5
 70
     1
102
RTVSPropertyOp6
 70
     1
102
RTVSPropertyOp7
 70
     1
102
RTVSPropertyOp8
 70
     1
102
RTVSPropertyOp9
 70
     1
102
RTVSPropertyOp10
 70
     1
102
RTVSPropertyOp11
 70
     1
102
RTVSPropertyOp12
 70
     1
102
RTVSPropertyOp13
 70
     1
102
RTVSPropertyOp14
 70
     1
102
RTVSPropertyOp15
 70
     1
102
RTVSPropertyOp16
 70
     1
102
RTVSPropertyOp17
 70
     1
102
RTVSPropertyOp18
 70
     1
102
RTVSPropertyOp19
 70
     1
102
RTVSPropertyOp20
 70
     1
102
RTVSPropertyOp21
 70
     1
102
RTVSPropertyOp22
 70
     1
102
RTVSPropertyOp23
 70
     1
102
RTVSPropertyOp24
 70
     1
102
RTVSPropertyOp25
 70
     1
102
RTVSPropertyOp26
 70
     1
102
RTVSPropertyOp27
 70
     1
102
RTVSPropertyOp28
 70
     1
102
RTVSPropertyOp29
 70
     1
102
RTVSPropertyOp30
 70
     1
102
RTVSPropertyOp31
 70
     1
102
RTVSPropertyOp32
 70
     1
102
RTVSPropertyOp33
 70
     1
102
RTVSPropertyOp34
 70
     1
102
RTVSPropertyOp35
 70
     1
102
RTVSPropertyOp36
 70
     1
102
RTVSPropertyOp37
 70
     1
102
RTVSPropertyOp38
 70
     1
102
RTVSPropertyOp39
 70
     1
102
RTVSPropertyOp40
 70
     1
102
RTVSPropertyOp41
 70
     1
102
RTVSPropertyOp42
 70
     1
102
RTVSPropertyOp43
 70
     1
102
RTVSPropertyOp44
 70
     1
102
RTVSPropertyOp45
 70
     1
102
RTVSPropertyOp46
 70
     1
102
RTVSPropertyOp47
 70
     1
102
RTVSPropertyOp48
 70
     1
102
RTVSPropertyOp49
 70
     1
102
RTVSPropertyOp50
 70
     1
102
RTVSPropertyOp51
 70
     0
102
RTVSPropertyOp52
 70
     0
102
RTVSPropertyOp53
 70
     1
102
RTVSPropertyOp54
 70
     1
102
RTVSPropertyOp55
 70
     1
102
RTVSPropertyOp56
 70
     1
102
RTVSPropertyOp57
 70
     1
102
RTVSPost2010Prop28
280
     0
102
RTVSPost2010PropOp28
 70
     1
102
RTVSPost2010Prop29
280
     1
102
RTVSPost2010PropOp29
 70
     1
102
RTVSPost2010Prop30
280
     1
102
RTVSPost2010PropOp30
 70
     1
102
RTVSPost2010Prop31
280
     0
102
RTVSPost2010PropOp31
 70
     1
102
RTVSPost2010Prop32
280
     0
102
RTVSPost2010PropOp32
 70
     1
102
RTVSPost2010Prop33
280
     0
102
RTVSPost2010PropOp33
 70
     1
102
RTVSPost2010Prop34
280
     0
102
RTVSPost2010PropOp34
 70
     1
102
RTVSPost2010Prop35
280
     0
102
RTVSPost2010PropOp35
 70
     1
102
RTVSPost2010Prop36
280
     0
102
RTVSPost2010PropOp36
 70
     1
102
RTVSPost2010Prop37
 90
       50
102
RTVSPost2010PropOp37
 70
     1
102
RTVSPost2010Prop38
140
0.0
102
RTVSPost2010PropOp38
 70
     1
102
RTVSPost2010Prop39
140
1.0
102
RTVSPost2010PropOp39
 70
     1
102
RTVSPost2010Prop40
 90
        0
102
RTVSPost2010PropOp40
 70
     1
102
RTVSPost2010Prop41ColorIndex
 90
       18
102
RTVSPost2010Prop41ColorRGB
 90
        0
102
RTVSPost2010PropOp41
 70
     1
102
RTVSPost2010Prop42
 90
       50
102
RTVSPost2010PropOp42
 70
     1
102
RTVSPost2010Prop43
 90
        3
102
RTVSPost2010PropOp43
 70
     1
102
RTVSPost2010Prop44ColorIndex
 90
        5
102
RTVSPost2010Prop44ColorRGB
 90
      255
102
RTVSPost2010PropOp44
 70
     1
102
RTVSPost2010Prop45
280
     0
102
RTVSPost2010PropOp45
 70
     1
102
RTVSPost2010Prop46
 90
       50
102
RTVSPost2010PropOp46
 70
     1
102
RTVSPost2010Prop47
 90
       50
102
RTVSPost2010PropOp47
 70
     1
102
RTVSPost2010Prop48
 90
       50
102
RTVSPost2010PropOp48
 70
     1
102
RTVSPost2010Prop49
280
     0
102
RTVSPost2010PropOp49
 70
     1
102
RTVSPost2010Prop50
 90
       50
102
RTVSPost2010PropOp50
 70
     1
102
RTVSPost2010Prop51ColorIndex
 90
      256
102
RTVSPost2010Prop51ColorRGB
 90
-16777216
102
RTVSPost2010PropOp51
 70
     0
102
RTVSPost2010Prop52
140
1.0
102
RTVSPost2010PropOp52
 70
     0
102
RTVSPost2010Prop53
 90
        2
102
RTVSPost2010PropOp53
 70
     1
102
RTVSPost2010Prop54
  1
strokes_ogs.tif
102
RTVSPost2010PropOp54
 70
     1
102
RTVSPost2010Prop55
280
     0
102
RTVSPost2010PropOp55
 70
     1
102
RTVSPost2010Prop56
140
1.0
102
RTVSPost2010PropOp56
 70
     1
102
RTVSPost2010Prop57
140
1.0
102
RTVSPost2010PropOp57
 70
     1
  0
XRECORD
  5
428
102
{ACAD_REACTORS
330
427
102
}
330
427
100
AcDbXrecord
280
     1
102
RTVSPropertyOp0
 70
     1
102
RTVSPropertyOp1
 70
     1
102
RTVSPropertyOp2
 70
     1
102
RTVSPropertyOp3
 70
     1
102
RTVSPropertyOp4
 70
     1
102
RTVSPropertyOp5
 70
     1
102
RTVSPropertyOp6
 70
     1
102
RTVSPropertyOp7
 70
     1
102
RTVSPropertyOp8
 70
     1
102
RTVSPropertyOp9
 70
     1
102
RTVSPropertyOp10
 70
     1
102
RTVSPropertyOp11
 70
     1
102
RTVSPropertyOp12
 70
     1
102
RTVSPropertyOp13
 70
     1
102
RTVSPropertyOp14
 70
     1
102
RTVSPropertyOp15
 70
     1
102
RTVSPropertyOp16
 70
     1
102
RTVSPropertyOp17
 70
     1
102
RTVSPropertyOp18
 70
     1
102
RTVSPropertyOp19
 70
     1
102
RTVSPropertyOp20
 70
     1
102
RTVSPropertyOp21
 70
     1
102
RTVSPropertyOp22
 70
     1
102
RTVSPropertyOp23
 70
     1
102
RTVSPropertyOp24
 70
     1
102
RTVSPropertyOp25
 70
     1
102
RTVSPropertyOp26
 70
     1
102
RTVSPropertyOp27
 70
     1
102
RTVSPropertyOp28
 70
     1
102
RTVSPropertyOp29
 70
     1
102
RTVSPropertyOp30
 70
     1
102
RTVSPropertyOp31
 70
     1
102
RTVSPropertyOp32
 70
     1
102
RTVSPropertyOp33
 70
     1
102
RTVSPropertyOp34
 70
     1
102
RTVSPropertyOp35
 70
     1
102
RTVSPropertyOp36
 70
     1
102
RTVSPropertyOp37
 70
     1
102
RTVSPropertyOp38
 70
     1
102
RTVSPropertyOp39
 70
     1
102
RTVSPropertyOp40
 70
     1
102
RTVSPropertyOp41
 70
     1
102
RTVSPropertyOp42
 70
     1
102
RTVSPropertyOp43
 70
     1
102
RTVSPropertyOp44
 70
     1
102
RTVSPropertyOp45
 70
     1
102
RTVSPropertyOp46
 70
     1
102
RTVSPropertyOp47
 70
     1
102
RTVSPropertyOp48
 70
     1
102
RTVSPropertyOp49
 70
     1
102
RTVSPropertyOp50
 70
     1
102
RTVSPropertyOp51
 70
     0
102
RTVSPropertyOp52
 70
     0
102
RTVSPropertyOp53
 70
     1
102
RTVSPropertyOp54
 70
     1
102
RTVSPropertyOp55
 70
     1
102
RTVSPropertyOp56
 70
     1
102
RTVSPropertyOp57
 70
     1
102
RTVSPost2010Prop28
280
     0
102
RTVSPost2010PropOp28
 70
     1
102
RTVSPost2010Prop29
280
     1
102
RTVSPost2010PropOp29
 70
     1
102
RTVSPost2010Prop30
280
     1
102
RTVSPost2010PropOp30
 70
     1
102
RTVSPost2010Prop31
280
     0
102
RTVSPost2010PropOp31
 70
     1
102
RTVSPost2010Prop32
280
     0
102
RTVSPost2010PropOp32
 70
     1
102
RTVSPost2010Prop33
280
     0
102
RTVSPost2010PropOp33
 70
     1
102
RTVSPost2010Prop34
280
     0
102
RTVSPost2010PropOp34
 70
     1
102
RTVSPost2010Prop35
280
     0
102
RTVSPost2010PropOp35
 70
     1
102
RTVSPost2010Prop36
280
     0
102
RTVSPost2010PropOp36
 70
     1
102
RTVSPost2010Prop37
 90
       50
102
RTVSPost2010PropOp37
 70
     1
102
RTVSPost2010Prop38
140
0.0
102
RTVSPost2010PropOp38
 70
     1
102
RTVSPost2010Prop39
140
1.0
102
RTVSPost2010PropOp39
 70
     1
102
RTVSPost2010Prop40
 90
        0
102
RTVSPost2010PropOp40
 70
     1
102
RTVSPost2010Prop41ColorIndex
 90
       18
102
RTVSPost2010Prop41ColorRGB
 90
        0
102
RTVSPost2010PropOp41
 70
     1
102
RTVSPost2010Prop42
 90
       50
102
RTVSPost2010PropOp42
 70
     1
102
RTVSPost2010Prop43
 90
        3
102
RTVSPost2010PropOp43
 70
     1
102
RTVSPost2010Prop44ColorIndex
 90
        5
102
RTVSPost2010Prop44ColorRGB
 90
      255
102
RTVSPost2010PropOp44
 70
     1
102
RTVSPost2010Prop45
280
     0
102
RTVSPost2010PropOp45
 70
     1
102
RTVSPost2010Prop46
 90
       50
102
RTVSPost2010PropOp46
 70
     1
102
RTVSPost2010Prop47
 90
       50
102
RTVSPost2010PropOp47
 70
     1
102
RTVSPost2010Prop48
 90
       50
102
RTVSPost2010PropOp48
 70
     1
102
RTVSPost2010Prop49
280
     0
102
RTVSPost2010PropOp49
 70
     1
102
RTVSPost2010Prop50
 90
       50
102
RTVSPost2010PropOp50
 70
     1
102
RTVSPost2010Prop51ColorIndex
 90
      256
102
RTVSPost2010Prop51ColorRGB
 90
-16777216
102
RTVSPost2010PropOp51
 70
     0
102
RTVSPost2010Prop52
140
1.0
102
RTVSPost2010PropOp52
 70
     0
102
RTVSPost2010Prop53
 90
        2
102
RTVSPost2010PropOp53
 70
     1
102
RTVSPost2010Prop54
  1
strokes_ogs.tif
102
RTVSPost2010PropOp54
 70
     1
102
RTVSPost2010Prop55
280
     0
102
RTVSPost2010PropOp55
 70
     1
102
RTVSPost2010Prop56
140
1.0
102
RTVSPost2010PropOp56
 70
     1
102
RTVSPost2010Prop57
140
1.0
102
RTVSPost2010PropOp57
 70
     1
  0
XRECORD
  5
426
102
{ACAD_REACTORS
330
425
102
}
330
425
100
AcDbXrecord
280
     1
102
RTVSPropertyOp0
 70
     1
102
RTVSPropertyOp1
 70
     1
102
RTVSPropertyOp2
 70
     1
102
RTVSPropertyOp3
 70
     1
102
RTVSPropertyOp4
 70
     1
102
RTVSPropertyOp5
 70
     1
102
RTVSPropertyOp6
 70
     1
102
RTVSPropertyOp7
 70
     1
102
RTVSPropertyOp8
 70
     1
102
RTVSPropertyOp9
 70
     1
102
RTVSPropertyOp10
 70
     1
102
RTVSPropertyOp11
 70
     1
102
RTVSPropertyOp12
 70
     1
102
RTVSPropertyOp13
 70
     1
102
RTVSPropertyOp14
 70
     1
102
RTVSPropertyOp15
 70
     1
102
RTVSPropertyOp16
 70
     1
102
RTVSPropertyOp17
 70
     1
102
RTVSPropertyOp18
 70
     1
102
RTVSPropertyOp19
 70
     1
102
RTVSPropertyOp20
 70
     1
102
RTVSPropertyOp21
 70
     1
102
RTVSPropertyOp22
 70
     1
102
RTVSPropertyOp23
 70
     1
102
RTVSPropertyOp24
 70
     1
102
RTVSPropertyOp25
 70
     1
102
RTVSPropertyOp26
 70
     1
102
RTVSPropertyOp27
 70
     1
102
RTVSPropertyOp28
 70
     1
102
RTVSPropertyOp29
 70
     1
102
RTVSPropertyOp30
 70
     1
102
RTVSPropertyOp31
 70
     1
102
RTVSPropertyOp32
 70
     1
102
RTVSPropertyOp33
 70
     1
102
RTVSPropertyOp34
 70
     1
102
RTVSPropertyOp35
 70
     1
102
RTVSPropertyOp36
 70
     1
102
RTVSPropertyOp37
 70
     1
102
RTVSPropertyOp38
 70
     1
102
RTVSPropertyOp39
 70
     1
102
RTVSPropertyOp40
 70
     1
102
RTVSPropertyOp41
 70
     1
102
RTVSPropertyOp42
 70
     1
102
RTVSPropertyOp43
 70
     1
102
RTVSPropertyOp44
 70
     1
102
RTVSPropertyOp45
 70
     1
102
RTVSPropertyOp46
 70
     1
102
RTVSPropertyOp47
 70
     1
102
RTVSPropertyOp48
 70
     1
102
RTVSPropertyOp49
 70
     1
102
RTVSPropertyOp50
 70
     1
102
RTVSPropertyOp51
 70
     0
102
RTVSPropertyOp52
 70
     0
102
RTVSPropertyOp53
 70
     1
102
RTVSPropertyOp54
 70
     1
102
RTVSPropertyOp55
 70
     1
102
RTVSPropertyOp56
 70
     1
102
RTVSPropertyOp57
 70
     1
102
RTVSPost2010Prop28
280
     0
102
RTVSPost2010PropOp28
 70
     1
102
RTVSPost2010Prop29
280
     1
102
RTVSPost2010PropOp29
 70
     1
102
RTVSPost2010Prop30
280
     1
102
RTVSPost2010PropOp30
 70
     1
102
RTVSPost2010Prop31
280
     0
102
RTVSPost2010PropOp31
 70
     1
102
RTVSPost2010Prop32
280
     0
102
RTVSPost2010PropOp32
 70
     1
102
RTVSPost2010Prop33
280
     0
102
RTVSPost2010PropOp33
 70
     1
102
RTVSPost2010Prop34
280
     0
102
RTVSPost2010PropOp34
 70
     1
102
RTVSPost2010Prop35
280
     0
102
RTVSPost2010PropOp35
 70
     1
102
RTVSPost2010Prop36
280
     0
102
RTVSPost2010PropOp36
 70
     1
102
RTVSPost2010Prop37
 90
       50
102
RTVSPost2010PropOp37
 70
     1
102
RTVSPost2010Prop38
140
0.0
102
RTVSPost2010PropOp38
 70
     1
102
RTVSPost2010Prop39
140
1.0
102
RTVSPost2010PropOp39
 70
     1
102
RTVSPost2010Prop40
 90
        0
102
RTVSPost2010PropOp40
 70
     1
102
RTVSPost2010Prop41ColorIndex
 90
       18
102
RTVSPost2010Prop41ColorRGB
 90
        0
102
RTVSPost2010PropOp41
 70
     1
102
RTVSPost2010Prop42
 90
       50
102
RTVSPost2010PropOp42
 70
     1
102
RTVSPost2010Prop43
 90
        3
102
RTVSPost2010PropOp43
 70
     1
102
RTVSPost2010Prop44ColorIndex
 90
        5
102
RTVSPost2010Prop44ColorRGB
 90
      255
102
RTVSPost2010PropOp44
 70
     1
102
RTVSPost2010Prop45
280
     0
102
RTVSPost2010PropOp45
 70
     1
102
RTVSPost2010Prop46
 90
       50
102
RTVSPost2010PropOp46
 70
     1
102
RTVSPost2010Prop47
 90
       50
102
RTVSPost2010PropOp47
 70
     1
102
RTVSPost2010Prop48
 90
       50
102
RTVSPost2010PropOp48
 70
     1
102
RTVSPost2010Prop49
280
     0
102
RTVSPost2010PropOp49
 70
     1
102
RTVSPost2010Prop50
 90
       50
102
RTVSPost2010PropOp50
 70
     1
102
RTVSPost2010Prop51ColorIndex
 90
      256
102
RTVSPost2010Prop51ColorRGB
 90
-16777216
102
RTVSPost2010PropOp51
 70
     0
102
RTVSPost2010Prop52
140
1.0
102
RTVSPost2010PropOp52
 70
     0
102
RTVSPost2010Prop53
 90
        2
102
RTVSPost2010PropOp53
 70
     1
102
RTVSPost2010Prop54
  1
strokes_ogs.tif
102
RTVSPost2010PropOp54
 70
     1
102
RTVSPost2010Prop55
280
     0
102
RTVSPost2010PropOp55
 70
     1
102
RTVSPost2010Prop56
140
1.0
102
RTVSPost2010PropOp56
 70
     1
102
RTVSPost2010Prop57
140
1.0
102
RTVSPost2010PropOp57
 70
     1
  0
XRECORD
  5
420
102
{ACAD_REACTORS
330
41F
102
}
330
41F
100
AcDbXrecord
280
     1
102
RTVSPropertyOp0
 70
     1
102
RTVSPropertyOp1
 70
     1
102
RTVSPropertyOp2
 70
     1
102
RTVSPropertyOp3
 70
     1
102
RTVSPropertyOp4
 70
     1
102
RTVSPropertyOp5
 70
     1
102
RTVSPropertyOp6
 70
     1
102
RTVSPropertyOp7
 70
     1
102
RTVSPropertyOp8
 70
     1
102
RTVSPropertyOp9
 70
     1
102
RTVSPropertyOp10
 70
     1
102
RTVSPropertyOp11
 70
     1
102
RTVSPropertyOp12
 70
     1
102
RTVSPropertyOp13
 70
     1
102
RTVSPropertyOp14
 70
     1
102
RTVSPropertyOp15
 70
     1
102
RTVSPropertyOp16
 70
     1
102
RTVSPropertyOp17
 70
     1
102
RTVSPropertyOp18
 70
     1
102
RTVSPropertyOp19
 70
     1
102
RTVSPropertyOp20
 70
     1
102
RTVSPropertyOp21
 70
     1
102
RTVSPropertyOp22
 70
     1
102
RTVSPropertyOp23
 70
     1
102
RTVSPropertyOp24
 70
     1
102
RTVSPropertyOp25
 70
     1
102
RTVSPropertyOp26
 70
     1
102
RTVSPropertyOp27
 70
     1
102
RTVSPropertyOp28
 70
     1
102
RTVSPropertyOp29
 70
     1
102
RTVSPropertyOp30
 70
     1
102
RTVSPropertyOp31
 70
     1
102
RTVSPropertyOp32
 70
     1
102
RTVSPropertyOp33
 70
     1
102
RTVSPropertyOp34
 70
     1
102
RTVSPropertyOp35
 70
     1
102
RTVSPropertyOp36
 70
     1
102
RTVSPropertyOp37
 70
     1
102
RTVSPropertyOp38
 70
     1
102
RTVSPropertyOp39
 70
     1
102
RTVSPropertyOp40
 70
     1
102
RTVSPropertyOp41
 70
     1
102
RTVSPropertyOp42
 70
     1
102
RTVSPropertyOp43
 70
     1
102
RTVSPropertyOp44
 70
     1
102
RTVSPropertyOp45
 70
     1
102
RTVSPropertyOp46
 70
     1
102
RTVSPropertyOp47
 70
     1
102
RTVSPropertyOp48
 70
     1
102
RTVSPropertyOp49
 70
     1
102
RTVSPropertyOp50
 70
     1
102
RTVSPropertyOp51
 70
     0
102
RTVSPropertyOp52
 70
     0
102
RTVSPropertyOp53
 70
     1
102
RTVSPropertyOp54
 70
     1
102
RTVSPropertyOp55
 70
     1
102
RTVSPropertyOp56
 70
     1
102
RTVSPropertyOp57
 70
     1
102
RTVSPost2010Prop28
280
     0
102
RTVSPost2010PropOp28
 70
     1
102
RTVSPost2010Prop29
280
     1
102
RTVSPost2010PropOp29
 70
     1
102
RTVSPost2010Prop30
280
     1
102
RTVSPost2010PropOp30
 70
     1
102
RTVSPost2010Prop31
280
     0
102
RTVSPost2010PropOp31
 70
     1
102
RTVSPost2010Prop32
280
     0
102
RTVSPost2010PropOp32
 70
     1
102
RTVSPost2010Prop33
280
     0
102
RTVSPost2010PropOp33
 70
     1
102
RTVSPost2010Prop34
280
     0
102
RTVSPost2010PropOp34
 70
     1
102
RTVSPost2010Prop35
280
     0
102
RTVSPost2010PropOp35
 70
     1
102
RTVSPost2010Prop36
280
     0
102
RTVSPost2010PropOp36
 70
     1
102
RTVSPost2010Prop37
 90
       50
102
RTVSPost2010PropOp37
 70
     1
102
RTVSPost2010Prop38
140
0.0
102
RTVSPost2010PropOp38
 70
     1
102
RTVSPost2010Prop39
140
1.0
102
RTVSPost2010PropOp39
 70
     1
102
RTVSPost2010Prop40
 90
        0
102
RTVSPost2010PropOp40
 70
     1
102
RTVSPost2010Prop41ColorIndex
 90
       18
102
RTVSPost2010Prop41ColorRGB
 90
        0
102
RTVSPost2010PropOp41
 70
     1
102
RTVSPost2010Prop42
 90
       50
102
RTVSPost2010PropOp42
 70
     1
102
RTVSPost2010Prop43
 90
        3
102
RTVSPost2010PropOp43
 70
     1
102
RTVSPost2010Prop44ColorIndex
 90
        5
102
RTVSPost2010Prop44ColorRGB
 90
      255
102
RTVSPost2010PropOp44
 70
     1
102
RTVSPost2010Prop45
280
     0
102
RTVSPost2010PropOp45
 70
     1
102
RTVSPost2010Prop46
 90
       50
102
RTVSPost2010PropOp46
 70
     1
102
RTVSPost2010Prop47
 90
       50
102
RTVSPost2010PropOp47
 70
     1
102
RTVSPost2010Prop48
 90
       50
102
RTVSPost2010PropOp48
 70
     1
102
RTVSPost2010Prop49
280
     0
102
RTVSPost2010PropOp49
 70
     1
102
RTVSPost2010Prop50
 90
       50
102
RTVSPost2010PropOp50
 70
     1
102
RTVSPost2010Prop51ColorIndex
 90
      256
102
RTVSPost2010Prop51ColorRGB
 90
-16777216
102
RTVSPost2010PropOp51
 70
     0
102
RTVSPost2010Prop52
140
1.0
102
RTVSPost2010PropOp52
 70
     0
102
RTVSPost2010Prop53
 90
        2
102
RTVSPost2010PropOp53
 70
     1
102
RTVSPost2010Prop54
  1
strokes_ogs.tif
102
RTVSPost2010PropOp54
 70
     1
102
RTVSPost2010Prop55
280
     0
102
RTVSPost2010PropOp55
 70
     1
102
RTVSPost2010Prop56
140
1.0
102
RTVSPost2010PropOp56
 70
     1
102
RTVSPost2010Prop57
140
1.0
102
RTVSPost2010PropOp57
 70
     1
  0
XRECORD
  5
422
102
{ACAD_REACTORS
330
421
102
}
330
421
100
AcDbXrecord
280
     1
102
RTVSPropertyOp0
 70
     1
102
RTVSPropertyOp1
 70
     1
102
RTVSPropertyOp2
 70
     1
102
RTVSPropertyOp3
 70
     1
102
RTVSPropertyOp4
 70
     1
102
RTVSPropertyOp5
 70
     1
102
RTVSPropertyOp6
 70
     1
102
RTVSPropertyOp7
 70
     1
102
RTVSPropertyOp8
 70
     1
102
RTVSPropertyOp9
 70
     1
102
RTVSPropertyOp10
 70
     1
102
RTVSPropertyOp11
 70
     1
102
RTVSPropertyOp12
 70
     1
102
RTVSPropertyOp13
 70
     1
102
RTVSPropertyOp14
 70
     1
102
RTVSPropertyOp15
 70
     1
102
RTVSPropertyOp16
 70
     1
102
RTVSPropertyOp17
 70
     1
102
RTVSPropertyOp18
 70
     1
102
RTVSPropertyOp19
 70
     1
102
RTVSPropertyOp20
 70
     1
102
RTVSPropertyOp21
 70
     1
102
RTVSPropertyOp22
 70
     1
102
RTVSPropertyOp23
 70
     1
102
RTVSPropertyOp24
 70
     1
102
RTVSPropertyOp25
 70
     1
102
RTVSPropertyOp26
 70
     1
102
RTVSPropertyOp27
 70
     1
102
RTVSPropertyOp28
 70
     1
102
RTVSPropertyOp29
 70
     1
102
RTVSPropertyOp30
 70
     1
102
RTVSPropertyOp31
 70
     1
102
RTVSPropertyOp32
 70
     1
102
RTVSPropertyOp33
 70
     1
102
RTVSPropertyOp34
 70
     1
102
RTVSPropertyOp35
 70
     1
102
RTVSPropertyOp36
 70
     1
102
RTVSPropertyOp37
 70
     1
102
RTVSPropertyOp38
 70
     1
102
RTVSPropertyOp39
 70
     1
102
RTVSPropertyOp40
 70
     1
102
RTVSPropertyOp41
 70
     1
102
RTVSPropertyOp42
 70
     1
102
RTVSPropertyOp43
 70
     1
102
RTVSPropertyOp44
 70
     1
102
RTVSPropertyOp45
 70
     1
102
RTVSPropertyOp46
 70
     1
102
RTVSPropertyOp47
 70
     1
102
RTVSPropertyOp48
 70
     1
102
RTVSPropertyOp49
 70
     1
102
RTVSPropertyOp50
 70
     1
102
RTVSPropertyOp51
 70
     0
102
RTVSPropertyOp52
 70
     0
102
RTVSPropertyOp53
 70
     1
102
RTVSPropertyOp54
 70
     1
102
RTVSPropertyOp55
 70
     1
102
RTVSPropertyOp56
 70
     1
102
RTVSPropertyOp57
 70
     1
102
RTVSPost2010Prop28
280
     0
102
RTVSPost2010PropOp28
 70
     1
102
RTVSPost2010Prop29
280
     1
102
RTVSPost2010PropOp29
 70
     1
102
RTVSPost2010Prop30
280
     1
102
RTVSPost2010PropOp30
 70
     1
102
RTVSPost2010Prop31
280
     0
102
RTVSPost2010PropOp31
 70
     1
102
RTVSPost2010Prop32
280
     0
102
RTVSPost2010PropOp32
 70
     1
102
RTVSPost2010Prop33
280
     0
102
RTVSPost2010PropOp33
 70
     1
102
RTVSPost2010Prop34
280
     0
102
RTVSPost2010PropOp34
 70
     1
102
RTVSPost2010Prop35
280
     0
102
RTVSPost2010PropOp35
 70
     1
102
RTVSPost2010Prop36
280
     0
102
RTVSPost2010PropOp36
 70
     1
102
RTVSPost2010Prop37
 90
       50
102
RTVSPost2010PropOp37
 70
     1
102
RTVSPost2010Prop38
140
0.0
102
RTVSPost2010PropOp38
 70
     1
102
RTVSPost2010Prop39
140
1.0
102
RTVSPost2010PropOp39
 70
     1
102
RTVSPost2010Prop40
 90
        0
102
RTVSPost2010PropOp40
 70
     1
102
RTVSPost2010Prop41ColorIndex
 90
       18
102
RTVSPost2010Prop41ColorRGB
 90
        0
102
RTVSPost2010PropOp41
 70
     1
102
RTVSPost2010Prop42
 90
       50
102
RTVSPost2010PropOp42
 70
     1
102
RTVSPost2010Prop43
 90
        3
102
RTVSPost2010PropOp43
 70
     1
102
RTVSPost2010Prop44ColorIndex
 90
        5
102
RTVSPost2010Prop44ColorRGB
 90
      255
102
RTVSPost2010PropOp44
 70
     1
102
RTVSPost2010Prop45
280
     0
102
RTVSPost2010PropOp45
 70
     1
102
RTVSPost2010Prop46
 90
       50
102
RTVSPost2010PropOp46
 70
     1
102
RTVSPost2010Prop47
 90
       50
102
RTVSPost2010PropOp47
 70
     1
102
RTVSPost2010Prop48
 90
       50
102
RTVSPost2010PropOp48
 70
     1
102
RTVSPost2010Prop49
280
     0
102
RTVSPost2010PropOp49
 70
     1
102
RTVSPost2010Prop50
 90
       50
102
RTVSPost2010PropOp50
 70
     1
102
RTVSPost2010Prop51ColorIndex
 90
      256
102
RTVSPost2010Prop51ColorRGB
 90
-16777216
102
RTVSPost2010PropOp51
 70
     0
102
RTVSPost2010Prop52
140
1.0
102
RTVSPost2010PropOp52
 70
     0
102
RTVSPost2010Prop53
 90
        2
102
RTVSPost2010PropOp53
 70
     1
102
RTVSPost2010Prop54
  1
strokes_ogs.tif
102
RTVSPost2010PropOp54
 70
     1
102
RTVSPost2010Prop55
280
     0
102
RTVSPost2010PropOp55
 70
     1
102
RTVSPost2010Prop56
140
1.0
102
RTVSPost2010PropOp56
 70
     1
102
RTVSPost2010Prop57
140
1.0
102
RTVSPost2010PropOp57
 70
     1
  0
XRECORD
  5
412
102
{ACAD_REACTORS
330
411
102
}
330
411
100
AcDbXrecord
280
     1
102
RTVSPropertyOp0
 70
     1
102
RTVSPropertyOp1
 70
     1
102
RTVSPropertyOp2
 70
     1
102
RTVSPropertyOp3
 70
     1
102
RTVSPropertyOp4
 70
     1
102
RTVSPropertyOp5
 70
     1
102
RTVSPropertyOp6
 70
     1
102
RTVSPropertyOp7
 70
     1
102
RTVSPropertyOp8
 70
     1
102
RTVSPropertyOp9
 70
     1
102
RTVSPropertyOp10
 70
     1
102
RTVSPropertyOp11
 70
     1
102
RTVSPropertyOp12
 70
     1
102
RTVSPropertyOp13
 70
     1
102
RTVSPropertyOp14
 70
     1
102
RTVSPropertyOp15
 70
     1
102
RTVSPropertyOp16
 70
     1
102
RTVSPropertyOp17
 70
     1
102
RTVSPropertyOp18
 70
     1
102
RTVSPropertyOp19
 70
     1
102
RTVSPropertyOp20
 70
     1
102
RTVSPropertyOp21
 70
     1
102
RTVSPropertyOp22
 70
     1
102
RTVSPropertyOp23
 70
     1
102
RTVSPropertyOp24
 70
     1
102
RTVSPropertyOp25
 70
     1
102
RTVSPropertyOp26
 70
     1
102
RTVSPropertyOp27
 70
     1
102
RTVSPropertyOp28
 70
     1
102
RTVSPropertyOp29
 70
     1
102
RTVSPropertyOp30
 70
     1
102
RTVSPropertyOp31
 70
     1
102
RTVSPropertyOp32
 70
     1
102
RTVSPropertyOp33
 70
     1
102
RTVSPropertyOp34
 70
     1
102
RTVSPropertyOp35
 70
     1
102
RTVSPropertyOp36
 70
     1
102
RTVSPropertyOp37
 70
     1
102
RTVSPropertyOp38
 70
     1
102
RTVSPropertyOp39
 70
     1
102
RTVSPropertyOp40
 70
     1
102
RTVSPropertyOp41
 70
     1
102
RTVSPropertyOp42
 70
     1
102
RTVSPropertyOp43
 70
     1
102
RTVSPropertyOp44
 70
     1
102
RTVSPropertyOp45
 70
     1
102
RTVSPropertyOp46
 70
     1
102
RTVSPropertyOp47
 70
     1
102
RTVSPropertyOp48
 70
     1
102
RTVSPropertyOp49
 70
     1
102
RTVSPropertyOp50
 70
     1
102
RTVSPropertyOp51
 70
     0
102
RTVSPropertyOp52
 70
     0
102
RTVSPropertyOp53
 70
     1
102
RTVSPropertyOp54
 70
     1
102
RTVSPropertyOp55
 70
     1
102
RTVSPropertyOp56
 70
     1
102
RTVSPropertyOp57
 70
     1
102
RTVSPost2010Prop28
280
     0
102
RTVSPost2010PropOp28
 70
     1
102
RTVSPost2010Prop29
280
     1
102
RTVSPost2010PropOp29
 70
     1
102
RTVSPost2010Prop30
280
     1
102
RTVSPost2010PropOp30
 70
     1
102
RTVSPost2010Prop31
280
     0
102
RTVSPost2010PropOp31
 70
     1
102
RTVSPost2010Prop32
280
     0
102
RTVSPost2010PropOp32
 70
     1
102
RTVSPost2010Prop33
280
     0
102
RTVSPost2010PropOp33
 70
     1
102
RTVSPost2010Prop34
280
     0
102
RTVSPost2010PropOp34
 70
     1
102
RTVSPost2010Prop35
280
     0
102
RTVSPost2010PropOp35
 70
     1
102
RTVSPost2010Prop36
280
     0
102
RTVSPost2010PropOp36
 70
     1
102
RTVSPost2010Prop37
 90
       50
102
RTVSPost2010PropOp37
 70
     1
102
RTVSPost2010Prop38
140
0.0
102
RTVSPost2010PropOp38
 70
     1
102
RTVSPost2010Prop39
140
1.0
102
RTVSPost2010PropOp39
 70
     1
102
RTVSPost2010Prop40
 90
        0
102
RTVSPost2010PropOp40
 70
     1
102
RTVSPost2010Prop41ColorIndex
 90
       18
102
RTVSPost2010Prop41ColorRGB
 90
        0
102
RTVSPost2010PropOp41
 70
     1
102
RTVSPost2010Prop42
 90
       50
102
RTVSPost2010PropOp42
 70
     1
102
RTVSPost2010Prop43
 90
        3
102
RTVSPost2010PropOp43
 70
     1
102
RTVSPost2010Prop44ColorIndex
 90
        5
102
RTVSPost2010Prop44ColorRGB
 90
      255
102
RTVSPost2010PropOp44
 70
     1
102
RTVSPost2010Prop45
280
     0
102
RTVSPost2010PropOp45
 70
     1
102
RTVSPost2010Prop46
 90
       50
102
RTVSPost2010PropOp46
 70
     1
102
RTVSPost2010Prop47
 90
       50
102
RTVSPost2010PropOp47
 70
     1
102
RTVSPost2010Prop48
 90
       50
102
RTVSPost2010PropOp48
 70
     1
102
RTVSPost2010Prop49
280
     0
102
RTVSPost2010PropOp49
 70
     1
102
RTVSPost2010Prop50
 90
       50
102
RTVSPost2010PropOp50
 70
     1
102
RTVSPost2010Prop51ColorIndex
 90
      256
102
RTVSPost2010Prop51ColorRGB
 90
-16777216
102
RTVSPost2010PropOp51
 70
     0
102
RTVSPost2010Prop52
140
1.0
102
RTVSPost2010PropOp52
 70
     0
102
RTVSPost2010Prop53
 90
        2
102
RTVSPost2010PropOp53
 70
     1
102
RTVSPost2010Prop54
  1
strokes_ogs.tif
102
RTVSPost2010PropOp54
 70
     1
102
RTVSPost2010Prop55
280
     0
102
RTVSPost2010PropOp55
 70
     1
102
RTVSPost2010Prop56
140
1.0
102
RTVSPost2010PropOp56
 70
     1
102
RTVSPost2010Prop57
140
1.0
102
RTVSPost2010PropOp57
 70
     1
  0
XRECORD
  5
404
102
{ACAD_REACTORS
330
403
102
}
330
403
100
AcDbXrecord
280
     1
102
RTVSPropertyOp0
 70
     1
102
RTVSPropertyOp1
 70
     1
102
RTVSPropertyOp2
 70
     1
102
RTVSPropertyOp3
 70
     1
102
RTVSPropertyOp4
 70
     1
102
RTVSPropertyOp5
 70
     1
102
RTVSPropertyOp6
 70
     1
102
RTVSPropertyOp7
 70
     1
102
RTVSPropertyOp8
 70
     1
102
RTVSPropertyOp9
 70
     1
102
RTVSPropertyOp10
 70
     1
102
RTVSPropertyOp11
 70
     1
102
RTVSPropertyOp12
 70
     1
102
RTVSPropertyOp13
 70
     1
102
RTVSPropertyOp14
 70
     1
102
RTVSPropertyOp15
 70
     1
102
RTVSPropertyOp16
 70
     1
102
RTVSPropertyOp17
 70
     1
102
RTVSPropertyOp18
 70
     1
102
RTVSPropertyOp19
 70
     1
102
RTVSPropertyOp20
 70
     1
102
RTVSPropertyOp21
 70
     1
102
RTVSPropertyOp22
 70
     1
102
RTVSPropertyOp23
 70
     1
102
RTVSPropertyOp24
 70
     1
102
RTVSPropertyOp25
 70
     1
102
RTVSPropertyOp26
 70
     1
102
RTVSPropertyOp27
 70
     1
102
RTVSPropertyOp28
 70
     1
102
RTVSPropertyOp29
 70
     1
102
RTVSPropertyOp30
 70
     1
102
RTVSPropertyOp31
 70
     1
102
RTVSPropertyOp32
 70
     1
102
RTVSPropertyOp33
 70
     1
102
RTVSPropertyOp34
 70
     1
102
RTVSPropertyOp35
 70
     1
102
RTVSPropertyOp36
 70
     1
102
RTVSPropertyOp37
 70
     1
102
RTVSPropertyOp38
 70
     1
102
RTVSPropertyOp39
 70
     1
102
RTVSPropertyOp40
 70
     1
102
RTVSPropertyOp41
 70
     1
102
RTVSPropertyOp42
 70
     1
102
RTVSPropertyOp43
 70
     1
102
RTVSPropertyOp44
 70
     1
102
RTVSPropertyOp45
 70
     1
102
RTVSPropertyOp46
 70
     1
102
RTVSPropertyOp47
 70
     1
102
RTVSPropertyOp48
 70
     1
102
RTVSPropertyOp49
 70
     1
102
RTVSPropertyOp50
 70
     1
102
RTVSPropertyOp51
 70
     0
102
RTVSPropertyOp52
 70
     0
102
RTVSPropertyOp53
 70
     1
102
RTVSPropertyOp54
 70
     1
102
RTVSPropertyOp55
 70
     1
102
RTVSPropertyOp56
 70
     1
102
RTVSPropertyOp57
 70
     1
102
RTVSPost2010Prop28
280
     0
102
RTVSPost2010PropOp28
 70
     1
102
RTVSPost2010Prop29
280
     1
102
RTVSPost2010PropOp29
 70
     1
102
RTVSPost2010Prop30
280
     1
102
RTVSPost2010PropOp30
 70
     1
102
RTVSPost2010Prop31
280
     0
102
RTVSPost2010PropOp31
 70
     1
102
RTVSPost2010Prop32
280
     0
102
RTVSPost2010PropOp32
 70
     1
102
RTVSPost2010Prop33
280
     0
102
RTVSPost2010PropOp33
 70
     1
102
RTVSPost2010Prop34
280
     0
102
RTVSPost2010PropOp34
 70
     1
102
RTVSPost2010Prop35
280
     0
102
RTVSPost2010PropOp35
 70
     1
102
RTVSPost2010Prop36
280
     0
102
RTVSPost2010PropOp36
 70
     1
102
RTVSPost2010Prop37
 90
       50
102
RTVSPost2010PropOp37
 70
     1
102
RTVSPost2010Prop38
140
0.0
102
RTVSPost2010PropOp38
 70
     1
102
RTVSPost2010Prop39
140
1.0
102
RTVSPost2010PropOp39
 70
     1
102
RTVSPost2010Prop40
 90
        0
102
RTVSPost2010PropOp40
 70
     1
102
RTVSPost2010Prop41ColorIndex
 90
       18
102
RTVSPost2010Prop41ColorRGB
 90
        0
102
RTVSPost2010PropOp41
 70
     1
102
RTVSPost2010Prop42
 90
       50
102
RTVSPost2010PropOp42
 70
     1
102
RTVSPost2010Prop43
 90
        3
102
RTVSPost2010PropOp43
 70
     1
102
RTVSPost2010Prop44ColorIndex
 90
        5
102
RTVSPost2010Prop44ColorRGB
 90
      255
102
RTVSPost2010PropOp44
 70
     1
102
RTVSPost2010Prop45
280
     0
102
RTVSPost2010PropOp45
 70
     1
102
RTVSPost2010Prop46
 90
       50
102
RTVSPost2010PropOp46
 70
     1
102
RTVSPost2010Prop47
 90
       50
102
RTVSPost2010PropOp47
 70
     1
102
RTVSPost2010Prop48
 90
       50
102
RTVSPost2010PropOp48
 70
     1
102
RTVSPost2010Prop49
280
     0
102
RTVSPost2010PropOp49
 70
     1
102
RTVSPost2010Prop50
 90
       50
102
RTVSPost2010PropOp50
 70
     1
102
RTVSPost2010Prop51ColorIndex
 90
      256
102
RTVSPost2010Prop51ColorRGB
 90
-16777216
102
RTVSPost2010PropOp51
 70
     0
102
RTVSPost2010Prop52
140
1.0
102
RTVSPost2010PropOp52
 70
     0
102
RTVSPost2010Prop53
 90
        2
102
RTVSPost2010PropOp53
 70
     1
102
RTVSPost2010Prop54
  1
strokes_ogs.tif
102
RTVSPost2010PropOp54
 70
     1
102
RTVSPost2010Prop55
280
     0
102
RTVSPost2010PropOp55
 70
     1
102
RTVSPost2010Prop56
140
1.0
102
RTVSPost2010PropOp56
 70
     1
102
RTVSPost2010Prop57
140
1.0
102
RTVSPost2010PropOp57
 70
     1
  0
XRECORD
  5
424
102
{ACAD_REACTORS
330
423
102
}
330
423
100
AcDbXrecord
280
     1
102
RTVSPropertyOp0
 70
     1
102
RTVSPropertyOp1
 70
     1
102
RTVSPropertyOp2
 70
     1
102
RTVSPropertyOp3
 70
     1
102
RTVSPropertyOp4
 70
     1
102
RTVSPropertyOp5
 70
     1
102
RTVSPropertyOp6
 70
     1
102
RTVSPropertyOp7
 70
     1
102
RTVSPropertyOp8
 70
     1
102
RTVSPropertyOp9
 70
     1
102
RTVSPropertyOp10
 70
     1
102
RTVSPropertyOp11
 70
     1
102
RTVSPropertyOp12
 70
     1
102
RTVSPropertyOp13
 70
     1
102
RTVSPropertyOp14
 70
     1
102
RTVSPropertyOp15
 70
     1
102
RTVSPropertyOp16
 70
     1
102
RTVSPropertyOp17
 70
     1
102
RTVSPropertyOp18
 70
     1
102
RTVSPropertyOp19
 70
     1
102
RTVSPropertyOp20
 70
     1
102
RTVSPropertyOp21
 70
     1
102
RTVSPropertyOp22
 70
     1
102
RTVSPropertyOp23
 70
     1
102
RTVSPropertyOp24
 70
     1
102
RTVSPropertyOp25
 70
     1
102
RTVSPropertyOp26
 70
     1
102
RTVSPropertyOp27
 70
     1
102
RTVSPropertyOp28
 70
     1
102
RTVSPropertyOp29
 70
     1
102
RTVSPropertyOp30
 70
     1
102
RTVSPropertyOp31
 70
     1
102
RTVSPropertyOp32
 70
     1
102
RTVSPropertyOp33
 70
     1
102
RTVSPropertyOp34
 70
     1
102
RTVSPropertyOp35
 70
     1
102
RTVSPropertyOp36
 70
     1
102
RTVSPropertyOp37
 70
     1
102
RTVSPropertyOp38
 70
     1
102
RTVSPropertyOp39
 70
     1
102
RTVSPropertyOp40
 70
     1
102
RTVSPropertyOp41
 70
     1
102
RTVSPropertyOp42
 70
     1
102
RTVSPropertyOp43
 70
     1
102
RTVSPropertyOp44
 70
     1
102
RTVSPropertyOp45
 70
     1
102
RTVSPropertyOp46
 70
     1
102
RTVSPropertyOp47
 70
     1
102
RTVSPropertyOp48
 70
     1
102
RTVSPropertyOp49
 70
     1
102
RTVSPropertyOp50
 70
     1
102
RTVSPropertyOp51
 70
     0
102
RTVSPropertyOp52
 70
     0
102
RTVSPropertyOp53
 70
     1
102
RTVSPropertyOp54
 70
     1
102
RTVSPropertyOp55
 70
     1
102
RTVSPropertyOp56
 70
     1
102
RTVSPropertyOp57
 70
     1
102
RTVSPost2010Prop28
280
     0
102
RTVSPost2010PropOp28
 70
     1
102
RTVSPost2010Prop29
280
     1
102
RTVSPost2010PropOp29
 70
     1
102
RTVSPost2010Prop30
280
     1
102
RTVSPost2010PropOp30
 70
     1
102
RTVSPost2010Prop31
280
     0
102
RTVSPost2010PropOp31
 70
     1
102
RTVSPost2010Prop32
280
     0
102
RTVSPost2010PropOp32
 70
     1
102
RTVSPost2010Prop33
280
     0
102
RTVSPost2010PropOp33
 70
     1
102
RTVSPost2010Prop34
280
     0
102
RTVSPost2010PropOp34
 70
     1
102
RTVSPost2010Prop35
280
     0
102
RTVSPost2010PropOp35
 70
     1
102
RTVSPost2010Prop36
280
     0
102
RTVSPost2010PropOp36
 70
     1
102
RTVSPost2010Prop37
 90
       50
102
RTVSPost2010PropOp37
 70
     1
102
RTVSPost2010Prop38
140
0.0
102
RTVSPost2010PropOp38
 70
     1
102
RTVSPost2010Prop39
140
1.0
102
RTVSPost2010PropOp39
 70
     1
102
RTVSPost2010Prop40
 90
        0
102
RTVSPost2010PropOp40
 70
     1
102
RTVSPost2010Prop41ColorIndex
 90
       18
102
RTVSPost2010Prop41ColorRGB
 90
        0
102
RTVSPost2010PropOp41
 70
     1
102
RTVSPost2010Prop42
 90
       50
102
RTVSPost2010PropOp42
 70
     1
102
RTVSPost2010Prop43
 90
        3
102
RTVSPost2010PropOp43
 70
     1
102
RTVSPost2010Prop44ColorIndex
 90
        5
102
RTVSPost2010Prop44ColorRGB
 90
      255
102
RTVSPost2010PropOp44
 70
     1
102
RTVSPost2010Prop45
280
     0
102
RTVSPost2010PropOp45
 70
     1
102
RTVSPost2010Prop46
 90
       50
102
RTVSPost2010PropOp46
 70
     1
102
RTVSPost2010Prop47
 90
       50
102
RTVSPost2010PropOp47
 70
     1
102
RTVSPost2010Prop48
 90
       50
102
RTVSPost2010PropOp48
 70
     1
102
RTVSPost2010Prop49
280
     0
102
RTVSPost2010PropOp49
 70
     1
102
RTVSPost2010Prop50
 90
       50
102
RTVSPost2010PropOp50
 70
     1
102
RTVSPost2010Prop51ColorIndex
 90
      256
102
RTVSPost2010Prop51ColorRGB
 90
-16777216
102
RTVSPost2010PropOp51
 70
     0
102
RTVSPost2010Prop52
140
1.0
102
RTVSPost2010PropOp52
 70
     0
102
RTVSPost2010Prop53
 90
        2
102
RTVSPost2010PropOp53
 70
     1
102
RTVSPost2010Prop54
  1
strokes_ogs.tif
102
RTVSPost2010PropOp54
 70
     1
102
RTVSPost2010Prop55
280
     0
102
RTVSPost2010PropOp55
 70
     1
102
RTVSPost2010Prop56
140
1.0
102
RTVSPost2010PropOp56
 70
     1
102
RTVSPost2010Prop57
140
1.0
102
RTVSPost2010PropOp57
 70
     1
  0
ENDSEC
  0
EOF
