  0
SECTION
  2
HEADER
  9
$ACADVER
  1
AC1015
  9
$ACADMAINTVER
 70
     6
  9
$DWGCODEPAGE
  3
ANSI_932
  9
$INSBASE
 10
0.0
 20
0.0
 30
0.0
  9
$EXTMIN
 10
-2100.0
 20
-1485.0
 30
0.0
  9
$EXTMAX
 10
2100.0
 20
1485.0
 30
0.0
  9
$LIMMIN
 10
-2100.0
 20
-1485.0
  9
$LIMMAX
 10
2100.0
 20
1485.0
  9
$ORTHOMODE
 70
     0
  9
$REGENMODE
 70
     1
  9
$FILLMODE
 70
     1
  9
$QTEXTMODE
 70
     0
  9
$MIRRTEXT
 70
     1
  9
$LTSCALE
 40
10.0
  9
$ATTMODE
 70
     1
  9
$TEXTSIZE
 40
2.5
  9
$TRACEWID
 40
1.0
  9
$TEXTSTYLE
  7
Standard
  9
$CLAYER
  8
0
  9
$CELTYPE
  6
ByLayer
  9
$CECOLOR
 62
   256
  9
$CELTSCALE
 40
1.0
  9
$DISPSILH
 70
     0
  9
$DIMSCALE
 40
1.0
  9
$DIMASZ
 40
2.5
  9
$DIMEXO
 40
0.625
  9
$DIMDLI
 40
3.75
  9
$DIMRND
 40
0.0
  9
$DIMDLE
 40
0.0
  9
$DIMEXE
 40
1.25
  9
$DIMTP
 40
0.0
  9
$DIMTM
 40
0.0
  9
$DIMTXT
 40
2.5
  9
$DIMCEN
 40
2.5
  9
$DIMTSZ
 40
0.0
  9
$DIMTOL
 70
     0
  9
$DIMLIM
 70
     0
  9
$DIMTIH
 70
     0
  9
$DIMTOH
 70
     0
  9
$DIMSE1
 70
     0
  9
$DIMSE2
 70
     0
  9
$DIMTAD
 70
     1
  9
$DIMZIN
 70
     8
  9
$DIMBLK
  1

  9
$DIMASO
 70
     1
  9
$DIMSHO
 70
     1
  9
$DIMPOST
  1

  9
$DIMAPOST
  1

  9
$DIMALT
 70
     0
  9
$DIMALTD
 70
     3
  9
$DIMALTF
 40
0.03937007874016
  9
$DIMLFAC
 40
1.0
  9
$DIMTOFL
 70
     1
  9
$DIMTVP
 40
0.0
  9
$DIMTIX
 70
     0
  9
$DIMSOXD
 70
     0
  9
$DIMSAH
 70
     0
  9
$DIMBLK1
  1

  9
$DIMBLK2
  1

  9
$DIMSTYLE
  2
ISO-25
  9
$DIMCLRD
 70
     0
  9
$DIMCLRE
 70
     0
  9
$DIMCLRT
 70
     0
  9
$DIMTFAC
 40
1.0
  9
$DIMGAP
 40
0.625
  9
$DIMJUST
 70
     0
  9
$DIMSD1
 70
     0
  9
$DIMSD2
 70
     0
  9
$DIMTOLJ
 70
     0
  9
$DIMTZIN
 70
     8
  9
$DIMALTZ
 70
     0
  9
$DIMALTTZ
 70
     0
  9
$DIMUPT
 70
     0
  9
$DIMDEC
 70
     2
  9
$DIMTDEC
 70
     2
  9
$DIMALTU
 70
     2
  9
$DIMALTTD
 70
     3
  9
$DIMTXSTY
  7
Standard
  9
$DIMAUNIT
 70
     0
  9
$DIMADEC
 70
     0
  9
$DIMALTRND
 40
0.0
  9
$DIMAZIN
 70
     0
  9
$DIMDSEP
 70
    44
  9
$DIMATFIT
 70
     3
  9
$DIMFRAC
 70
     0
  9
$DIMLDRBLK
  1

  9
$DIMLUNIT
 70
     2
  9
$DIMLWD
 70
    -2
  9
$DIMLWE
 70
    -2
  9
$DIMTMOVE
 70
     0
  9
$LUNITS
 70
     2
  9
$LUPREC
 70
     4
  9
$SKETCHINC
 40
1.0
  9
$FILLETRAD
 40
10.0
  9
$AUNITS
 70
     0
  9
$AUPREC
 70
     0
  9
$MENU
  1
.
  9
$ELEVATION
 40
0.0
  9
$PELEVATION
 40
0.0
  9
$THICKNESS
 40
0.0
  9
$LIMCHECK
 70
     0
  9
$CHAMFERA
 40
10.0
  9
$CHAMFERB
 40
10.0
  9
$CHAMFERC
 40
20.0
  9
$CHAMFERD
 40
0.0
  9
$SKPOLY
 70
     0
  9
$TDCREATE
 40
2458681.580663252
  9
$TDUCREATE
 40
2458681.205663252
  9
$TDUPDATE
 40
2458681.580663264
  9
$TDUUPDATE
 40
2458681.205663264
  9
$TDINDWG
 40
0.0000000116
  9
$TDUSRTIMER
 40
0.0000000116
  9
$USRTIMER
 70
     1
  9
$ANGBASE
 50
0.0
  9
$ANGDIR
 70
     0
  9
$PDMODE
 70
     0
  9
$PDSIZE
 40
0.0
  9
$PLINEWID
 40
0.0
  9
$SPLFRAME
 70
     0
  9
$SPLINETYPE
 70
     6
  9
$SPLINESEGS
 70
     8
  9
$HANDSEED
  5
496
  9
$SURFTAB1
 70
     6
  9
$SURFTAB2
 70
     6
  9
$SURFTYPE
 70
     6
  9
$SURFU
 70
     6
  9
$SURFV
 70
     6
  9
$UCSBASE
  2

  9
$UCSNAME
  2

  9
$UCSORG
 10
0.0
 20
0.0
 30
0.0
  9
$UCSXDIR
 10
1.0
 20
0.0
 30
0.0
  9
$UCSYDIR
 10
0.0
 20
1.0
 30
0.0
  9
$UCSORTHOREF
  2

  9
$UCSORTHOVIEW
 70
     0
  9
$UCSORGTOP
 10
0.0
 20
0.0
 30
0.0
  9
$UCSORGBOTTOM
 10
0.0
 20
0.0
 30
0.0
  9
$UCSORGLEFT
 10
0.0
 20
0.0
 30
0.0
  9
$UCSORGRIGHT
 10
0.0
 20
0.0
 30
0.0
  9
$UCSORGFRONT
 10
0.0
 20
0.0
 30
0.0
  9
$UCSORGBACK
 10
0.0
 20
0.0
 30
0.0
  9
$PUCSBASE
  2

  9
$PUCSNAME
  2

  9
$PUCSORG
 10
0.0
 20
0.0
 30
0.0
  9
$PUCSXDIR
 10
1.0
 20
0.0
 30
0.0
  9
$PUCSYDIR
 10
0.0
 20
1.0
 30
0.0
  9
$PUCSORTHOREF
  2

  9
$PUCSORTHOVIEW
 70
     0
  9
$PUCSORGTOP
 10
0.0
 20
0.0
 30
0.0
  9
$PUCSORGBOTTOM
 10
0.0
 20
0.0
 30
0.0
  9
$PUCSORGLEFT
 10
0.0
 20
0.0
 30
0.0
  9
$PUCSORGRIGHT
 10
0.0
 20
0.0
 30
0.0
  9
$PUCSORGFRONT
 10
0.0
 20
0.0
 30
0.0
  9
$PUCSORGBACK
 10
0.0
 20
0.0
 30
0.0
  9
$USERI1
 70
     0
  9
$USERI2
 70
     0
  9
$USERI3
 70
     0
  9
$USERI4
 70
     0
  9
$USERI5
 70
     0
  9
$USERR1
 40
0.0
  9
$USERR2
 40
0.0
  9
$USERR3
 40
0.0
  9
$USERR4
 40
0.0
  9
$USERR5
 40
0.0
  9
$WORLDVIEW
 70
     1
  9
$SHADEDGE
 70
     3
  9
$SHADEDIF
 70
    70
  9
$TILEMODE
 70
     1
  9
$MAXACTVP
 70
    64
  9
$PINSBASE
 10
0.0
 20
0.0
 30
0.0
  9
$PLIMCHECK
 70
     0
  9
$PEXTMIN
 10
1.000000000000000E+20
 20
1.000000000000000E+20
 30
1.000000000000000E+20
  9
$PEXTMAX
 10
-1.000000000000000E+20
 20
-1.000000000000000E+20
 30
-1.000000000000000E+20
  9
$PLIMMIN
 10
0.0
 20
0.0
  9
$PLIMMAX
 10
420.0
 20
297.0
  9
$UNITMODE
 70
     0
  9
$VISRETAIN
 70
     1
  9
$PLINEGEN
 70
     0
  9
$PSLTSCALE
 70
     1
  9
$TREEDEPTH
 70
  3020
  9
$CMLSTYLE
  2
Standard
  9
$CMLJUST
 70
     0
  9
$CMLSCALE
 40
20.0
  9
$PROXYGRAPHICS
 70
     1
  9
$MEASUREMENT
 70
     1
  9
$CELWEIGHT
370
    -1
  9
$ENDCAPS
280
     0
  9
$JOINSTYLE
280
     0
  9
$LWDISPLAY
290
     0
  9
$INSUNITS
 70
     4
  9
$HYPERLINKBASE
  1

  9
$STYLESHEET
  1

  9
$XEDIT
290
     1
  9
$CEPSNTYPE
380
     0
  9
$PSTYLEMODE
290
     1
  9
$FINGERPRINTGUID
  2
{9491FB4F-639E-44E3-B446-B5CBECA21FEE}
  9
$VERSIONGUID
  2
{FAEB1C32-E019-11D5-929B-00C0DF256EC4}
  9
$EXTNAMES
290
     1
  9
$PSVPSCALE
 40
0.0
  9
$OLESTARTUP
290
     0
  0
ENDSEC
  0
SECTION
  2
CLASSES
  0
CLASS
  1
ACDBDICTIONARYWDFLT
  2
AcDbDictionaryWithDefault
  3
ObjectDBX Classes
 90
        0
280
     0
281
     0
  0
CLASS
  1
VISUALSTYLE
  2
AcDbVisualStyle
  3
ObjectDBX Classes
 90
     4095
280
     0
281
     0
  0
CLASS
  1
DICTIONARYVAR
  2
AcDbDictionaryVar
  3
ObjectDBX Classes
 90
        0
280
     0
281
     0
  0
CLASS
  1
ACDBPLACEHOLDER
  2
AcDbPlaceHolder
  3
ObjectDBX Classes
 90
        0
280
     0
281
     0
  0
CLASS
  1
LAYOUT
  2
AcDbLayout
  3
ObjectDBX Classes
 90
        0
280
     0
281
     0
  0
ENDSEC
  0
SECTION
  2
TABLES
  0
TABLE
  2
VPORT
  5
8
330
0
100
AcDbSymbolTable
 70
     1
  0
VPORT
  5
29
330
8
100
AcDbSymbolTableRecord
100
AcDbViewportTableRecord
  2
*Active
 70
     0
 10
0.0
 20
0.0
 11
1.0
 21
1.0
 12
0.0
 22
0.0
 13
0.0
 23
0.0
 14
10.0
 24
10.0
 15
10.0
 25
10.0
 16
0.0
 26
0.0
 36
1.0
 17
0.0
 27
0.0
 37
0.0
 40
3267.0
 41
1.414141414141414
 42
50.0
 43
0.0
 44
0.0
 50
0.0
 51
0.0
 71
     0
 72
 10000
 73
     1
 74
     3
 75
     0
 76
     0
 77
     0
 78
     0
281
     0
 65
     1
110
0.0
120
0.0
130
0.0
111
1.0
121
0.0
131
0.0
112
0.0
122
1.0
132
0.0
 79
     0
146
0.0
  0
ENDTAB
  0
TABLE
  2
LTYPE
  5
5
330
0
100
AcDbSymbolTable
 70
     3
  0
LTYPE
  5
14
330
5
100
AcDbSymbolTableRecord
100
AcDbLinetypeTableRecord
  2
ByBlock
 70
     0
  3

 72
    65
 73
     0
 40
0.0
  0
LTYPE
  5
15
330
5
100
AcDbSymbolTableRecord
100
AcDbLinetypeTableRecord
  2
ByLayer
 70
     0
  3

 72
    65
 73
     0
 40
0.0
  0
LTYPE
  5
16
330
5
100
AcDbSymbolTableRecord
100
AcDbLinetypeTableRecord
  2
Continuous
 70
     0
  3
Solid line
 72
    65
 73
     0
 40
0.0
  0
LTYPE
  5
3C
330
5
100
AcDbSymbolTableRecord
100
AcDbLinetypeTableRecord
  2
JWW_DASHED3
 70
     0
  3
---  ------  ------  ------  ---
 72
    65
 73
     2
 40
3.386666666666667
 49
2.54
 74
     0
 49
-0.8466666666666667
 74
     0
  0
LTYPE
  5
3D
330
5
100
AcDbSymbolTableRecord
100
AcDbLinetypeTableRecord
  2
JWW_PHANTOM1
 70
     0
  3
----  -  -  --------  -  -  ----
 72
    65
 73
     6
 40
6.773333333333333
 49
3.386666666666667
 74
     0
 49
-0.8466666666666667
 74
     0
 49
0.4233333333333333
 74
     0
 49
-0.8466666666666667
 74
     0
 49
0.4233333333333333
 74
     0
 49
-0.8466666666666667
 74
     0
  0
ENDTAB
  0
TABLE
  2
LAYER
  5
2
330
0
100
AcDbSymbolTable
 70
    10
  0
LAYER
  5
10
330
2
100
AcDbSymbolTableRecord
100
AcDbLayerTableRecord
  2
0
 70
     0
 62
     7
  6
Continuous
370
    -3
390
F
  0
LAYER
  5
3E
330
2
100
AcDbSymbolTableRecord
100
AcDbLayerTableRecord
  2
F-5
 70
     0
 62
     7
  6
Continuous
370
    -1
390
F
  0
LAYER
  5
3F
330
2
100
AcDbSymbolTableRecord
100
AcDbLayerTableRecord
  2
C-2
 70
     0
 62
     7
  6
Continuous
370
    -1
390
F
  0
LAYER
  5
40
330
2
100
AcDbSymbolTableRecord
100
AcDbLayerTableRecord
  2
C-1
 70
     0
 62
     7
  6
Continuous
370
    -1
390
F
  0
LAYER
  5
41
330
2
100
AcDbSymbolTableRecord
100
AcDbLayerTableRecord
  2
C-4
 70
     0
 62
     7
  6
Continuous
370
    -1
390
F
  0
LAYER
  5
42
330
2
100
AcDbSymbolTableRecord
100
AcDbLayerTableRecord
  2
C-5
 70
     0
 62
     7
  6
Continuous
370
    -1
390
F
  0
LAYER
  5
43
330
2
100
AcDbSymbolTableRecord
100
AcDbLayerTableRecord
  2
C-9
 70
     0
 62
     7
  6
Continuous
370
    -1
390
F
  0
LAYER
  5
44
330
2
100
AcDbSymbolTableRecord
100
AcDbLayerTableRecord
  2
A-5
 70
     0
 62
     7
  6
Continuous
370
    -1
390
F
  0
LAYER
  5
45
330
2
100
AcDbSymbolTableRecord
100
AcDbLayerTableRecord
  2
A-4
 70
     0
 62
     7
  6
Continuous
370
    -1
390
F
  0
LAYER
  5
46
330
2
100
AcDbSymbolTableRecord
100
AcDbLayerTableRecord
  2
A-0
 70
     0
 62
     7
  6
Continuous
370
    -1
390
F
  0
ENDTAB
  0
TABLE
  2
STYLE
  5
3
330
0
100
AcDbSymbolTable
 70
     2
  0
STYLE
  5
11
330
3
100
AcDbSymbolTableRecord
100
AcDbTextStyleTableRecord
  2
Standard
 70
     0
 40
0.0
 41
1.0
 50
0.0
 71
     0
 42
2.5
  3
txt
  4

1001
ACAD
1000

1071
        0
  0
STYLE
  5
3B
330
3
100
AcDbSymbolTableRecord
100
AcDbTextStyleTableRecord
  2
ＭＳ ゴシック
 70
     0
 40
1.0
 41
1.0
 50
0.0
 71
     0
 42
10.0
  3

  4

1001
ACAD
1000
MS Gothic
1071
    32817
  0
ENDTAB
  0
TABLE
  2
VIEW
  5
6
330
0
100
AcDbSymbolTable
 70
     0
  0
ENDTAB
  0
TABLE
  2
UCS
  5
7
330
0
100
AcDbSymbolTable
 70
     0
  0
ENDTAB
  0
TABLE
  2
APPID
  5
9
330
0
100
AcDbSymbolTable
 70
     1
  0
APPID
  5
12
330
9
100
AcDbSymbolTableRecord
100
AcDbRegAppTableRecord
  2
ACAD
 70
     0
  0
ENDTAB
  0
TABLE
  2
DIMSTYLE
  5
A
330
0
100
AcDbSymbolTable
 70
     1
100
AcDbDimStyleTable
  0
DIMSTYLE
105
27
330
A
100
AcDbSymbolTableRecord
100
AcDbDimStyleTableRecord
  2
ISO-25
 70
     0
 41
2.5
 42
0.625
 43
3.75
 44
1.25
 73
     0
 74
     0
 77
     1
 78
     8
140
2.5
141
2.5
143
0.03937007874016
147
0.625
171
     3
172
     1
271
     2
272
     2
274
     3
278
    44
283
     0
284
     8
340
11
  0
ENDTAB
  0
TABLE
  2
BLOCK_RECORD
  5
1
330
0
100
AcDbSymbolTable
 70
     1
  0
BLOCK_RECORD
  5
1F
330
1
100
AcDbSymbolTableRecord
100
AcDbBlockTableRecord
  2
*Model_Space
340
22
  0
BLOCK_RECORD
  5
1B
330
1
100
AcDbSymbolTableRecord
100
AcDbBlockTableRecord
  2
*Paper_Space
340
1E
  0
BLOCK_RECORD
  5
23
330
1
100
AcDbSymbolTableRecord
100
AcDbBlockTableRecord
  2
*Paper_Space0
340
26
  0
ENDTAB
  0
ENDSEC
  0
SECTION
  2
BLOCKS
  0
BLOCK
  5
20
330
1F
100
AcDbEntity
  8
0
100
AcDbBlockBegin
  2
*Model_Space
 70
     0
 10
0.0
 20
0.0
 30
0.0
  3
*Model_Space
  1

  0
ENDBLK
  5
21
330
1F
100
AcDbEntity
  8
0
100
AcDbBlockEnd
  0
BLOCK
  5
1C
330
1B
100
AcDbEntity
 67
     1
  8
0
100
AcDbBlockBegin
  2
*Paper_Space
 70
     0
 10
0.0
 20
0.0
 30
0.0
  3
*Paper_Space
  1

  0
ENDBLK
  5
1D
330
1B
100
AcDbEntity
 67
     1
  8
0
100
AcDbBlockEnd
  0
BLOCK
  5
24
330
23
100
AcDbEntity
  8
0
100
AcDbBlockBegin
  2
*Paper_Space0
 70
     0
 10
0.0
 20
0.0
 30
0.0
  3
*Paper_Space0
  1

  0
ENDBLK
  5
25
330
23
100
AcDbEntity
  8
0
100
AcDbBlockEnd
  0
ENDSEC
  0
SECTION
  2
ENTITIES
  0
TEXT
  5
47
330
1F
100
AcDbEntity
  8
F-5
  6
Continuous
 62
     2
370
     9
100
AcDbText
 10
-849.5525494276795
 20
-1322.868498092265
 30
0.0
 40
30.48
  1
滑り止め模様付　歩道Ｕ字溝用　ステンレス製グレーチング
 41
0.899074074074074
  7
ＭＳ ゴシック
100
AcDbText
  0
LINE
  5
48
330
1F
100
AcDbEntity
  8
C-2
  6
Continuous
 62
     3
370
     9
100
AcDbLine
 10
-1458.63586310006
 20
932.8717973251642
 30
0.0
 11
-1458.63586310006
 21
648.8725450058282
 31
0.0
  0
LINE
  5
49
330
1F
100
AcDbEntity
  8
C-2
  6
Continuous
 62
     3
370
     9
100
AcDbLine
 10
-1443.63603094674
 20
932.8717973251642
 30
0.0
 11
-1443.63603094674
 21
648.8725450058282
 31
0.0
  0
LINE
  5
4A
330
1F
100
AcDbEntity
  8
C-2
  6
Continuous
 62
     3
370
     9
100
AcDbLine
 10
-1447.635954652794
 20
932.8717973251642
 30
0.0
 11
-1447.635954652794
 21
648.8725450058282
 31
0.0
  0
LINE
  5
4B
330
1F
100
AcDbEntity
  8
C-2
  6
Continuous
 62
     3
370
     9
100
AcDbLine
 10
-1458.63586310006
 20
842.3719193954767
 30
0.0
 11
-1447.635954652794
 21
842.3719193954767
 31
0.0
  0
LINE
  5
4C
330
1F
100
AcDbEntity
  8
C-2
  6
Continuous
 62
     3
370
     9
100
AcDbLine
 10
-1458.63586310006
 20
839.3723771591488
 30
0.0
 11
-1447.635954652794
 21
839.3723771591488
 31
0.0
  0
LINE
  5
4D
330
1F
100
AcDbEntity
  8
C-2
  6
Continuous
 62
     3
370
     9
100
AcDbLine
 10
-1428.635710512169
 20
932.8717973251642
 30
0.0
 11
-1428.635710512169
 21
648.8725450058282
 31
0.0
  0
LINE
  5
4E
330
1F
100
AcDbEntity
  8
C-2
  6
Continuous
 62
     3
370
     9
100
AcDbLine
 10
-1432.635634218224
 20
932.8717973251642
 30
0.0
 11
-1432.635634218224
 21
648.8725450058282
 31
0.0
  0
LINE
  5
4F
330
1F
100
AcDbEntity
  8
C-2
  6
Continuous
 62
     3
370
     9
100
AcDbLine
 10
-1443.63603094674
 20
842.3719193954767
 30
0.0
 11
-1432.635634218224
 21
842.3719193954767
 31
0.0
  0
LINE
  5
50
330
1F
100
AcDbEntity
  8
C-2
  6
Continuous
 62
     3
370
     9
100
AcDbLine
 10
-1443.63603094674
 20
839.3723771591488
 30
0.0
 11
-1432.635634218224
 21
839.3723771591488
 31
0.0
  0
LINE
  5
51
330
1F
100
AcDbEntity
  8
C-2
  6
Continuous
 62
     3
370
     9
100
AcDbLine
 10
-1413.635893617638
 20
932.8717973251642
 30
0.0
 11
-1413.635893617638
 21
648.8725450058282
 31
0.0
  0
LINE
  5
52
330
1F
100
AcDbEntity
  8
C-2
  6
Continuous
 62
     3
370
     9
100
AcDbLine
 10
-1417.635817323693
 20
932.8717973251642
 30
0.0
 11
-1417.635817323693
 21
648.8725450058282
 31
0.0
  0
LINE
  5
53
330
1F
100
AcDbEntity
  8
C-2
  6
Continuous
 62
     3
370
     9
100
AcDbLine
 10
-1428.635710512169
 20
842.3719193954767
 30
0.0
 11
-1417.635817323693
 21
842.3719193954767
 31
0.0
  0
LINE
  5
54
330
1F
100
AcDbEntity
  8
C-2
  6
Continuous
 62
     3
370
     9
100
AcDbLine
 10
-1428.635710512169
 20
839.3723771591488
 30
0.0
 11
-1417.635817323693
 21
839.3723771591488
 31
0.0
  0
LINE
  5
55
330
1F
100
AcDbEntity
  8
C-2
  6
Continuous
 62
     3
370
     9
100
AcDbLine
 10
-1398.635573183068
 20
932.8717973251642
 30
0.0
 11
-1398.635573183068
 21
648.8725450058282
 31
0.0
  0
LINE
  5
56
330
1F
100
AcDbEntity
  8
C-2
  6
Continuous
 62
     3
370
     9
100
AcDbLine
 10
-1402.635985170373
 20
932.8717973251642
 30
0.0
 11
-1402.635985170373
 21
648.8725450058282
 31
0.0
  0
LINE
  5
57
330
1F
100
AcDbEntity
  8
C-2
  6
Continuous
 62
     3
370
     9
100
AcDbLine
 10
-1413.635893617638
 20
842.3719193954767
 30
0.0
 11
-1402.635985170373
 21
842.3719193954767
 31
0.0
  0
LINE
  5
58
330
1F
100
AcDbEntity
  8
C-2
  6
Continuous
 62
     3
370
     9
100
AcDbLine
 10
-1413.635893617638
 20
839.3723771591488
 30
0.0
 11
-1402.635985170373
 21
839.3723771591488
 31
0.0
  0
LINE
  5
59
330
1F
100
AcDbEntity
  8
C-2
  6
Continuous
 62
     3
370
     9
100
AcDbLine
 10
-1383.635756288536
 20
932.8717973251642
 30
0.0
 11
-1383.635756288536
 21
648.8725450058282
 31
0.0
  0
LINE
  5
5A
330
1F
100
AcDbEntity
  8
C-2
  6
Continuous
 62
     3
370
     9
100
AcDbLine
 10
-1387.635679994592
 20
932.8717973251642
 30
0.0
 11
-1387.635679994592
 21
648.8725450058282
 31
0.0
  0
LINE
  5
5B
330
1F
100
AcDbEntity
  8
C-2
  6
Continuous
 62
     3
370
     9
100
AcDbLine
 10
-1398.635573183068
 20
842.3719193954767
 30
0.0
 11
-1387.635679994592
 21
842.3719193954767
 31
0.0
  0
LINE
  5
5C
330
1F
100
AcDbEntity
  8
C-2
  6
Continuous
 62
     3
370
     9
100
AcDbLine
 10
-1398.635573183068
 20
839.3723771591488
 30
0.0
 11
-1387.635679994592
 21
839.3723771591488
 31
0.0
  0
LINE
  5
5D
330
1F
100
AcDbEntity
  8
C-2
  6
Continuous
 62
     3
370
     9
100
AcDbLine
 10
-1368.635931764611
 20
932.8717973251642
 30
0.0
 11
-1368.635931764611
 21
648.8725450058282
 31
0.0
  0
LINE
  5
5E
330
1F
100
AcDbEntity
  8
C-2
  6
Continuous
 62
     3
370
     9
100
AcDbLine
 10
-1372.635855470666
 20
932.8717973251642
 30
0.0
 11
-1372.635855470666
 21
648.8725450058282
 31
0.0
  0
LINE
  5
5F
330
1F
100
AcDbEntity
  8
C-2
  6
Continuous
 62
     3
370
     9
100
AcDbLine
 10
-1383.635756288536
 20
842.3719193954767
 30
0.0
 11
-1372.635855470666
 21
842.3719193954767
 31
0.0
  0
LINE
  5
60
330
1F
100
AcDbEntity
  8
C-2
  6
Continuous
 62
     3
370
     9
100
AcDbLine
 10
-1383.635756288536
 20
839.3723771591488
 30
0.0
 11
-1372.635855470666
 21
839.3723771591488
 31
0.0
  0
LINE
  5
61
330
1F
100
AcDbEntity
  8
C-2
  6
Continuous
 62
     3
370
     9
100
AcDbLine
 10
-1353.635618959435
 20
932.8717973251642
 30
0.0
 11
-1353.635618959435
 21
648.8725450058282
 31
0.0
  0
LINE
  5
62
330
1F
100
AcDbEntity
  8
C-2
  6
Continuous
 62
     3
370
     9
100
AcDbLine
 10
-1357.63603094674
 20
932.8717973251642
 30
0.0
 11
-1357.63603094674
 21
648.8725450058282
 31
0.0
  0
LINE
  5
63
330
1F
100
AcDbEntity
  8
C-2
  6
Continuous
 62
     3
370
     9
100
AcDbLine
 10
-1368.635931764611
 20
842.3719193954767
 30
0.0
 11
-1357.63603094674
 21
842.3719193954767
 31
0.0
  0
LINE
  5
64
330
1F
100
AcDbEntity
  8
C-2
  6
Continuous
 62
     3
370
     9
100
AcDbLine
 10
-1368.635931764611
 20
839.3723771591488
 30
0.0
 11
-1357.63603094674
 21
839.3723771591488
 31
0.0
  0
LINE
  5
65
330
1F
100
AcDbEntity
  8
C-2
  6
Continuous
 62
     3
370
     9
100
AcDbLine
 10
-1338.635794435509
 20
932.8717973251642
 30
0.0
 11
-1338.635794435509
 21
648.8725450058282
 31
0.0
  0
LINE
  5
66
330
1F
100
AcDbEntity
  8
C-2
  6
Continuous
 62
     3
370
     9
100
AcDbLine
 10
-1342.63571051217
 20
932.8717973251642
 30
0.0
 11
-1342.63571051217
 21
648.8725450058282
 31
0.0
  0
LINE
  5
67
330
1F
100
AcDbEntity
  8
C-2
  6
Continuous
 62
     3
370
     9
100
AcDbLine
 10
-1353.635618959435
 20
842.3719193954767
 30
0.0
 11
-1342.63571051217
 21
842.3719193954767
 31
0.0
  0
LINE
  5
68
330
1F
100
AcDbEntity
  8
C-2
  6
Continuous
 62
     3
370
     9
100
AcDbLine
 10
-1353.635618959435
 20
839.3723771591488
 30
0.0
 11
-1342.63571051217
 21
839.3723771591488
 31
0.0
  0
LINE
  5
69
330
1F
100
AcDbEntity
  8
C-2
  6
Continuous
 62
     3
370
     9
100
AcDbLine
 10
-1323.635474000939
 20
932.8717973251642
 30
0.0
 11
-1323.635474000939
 21
648.8725450058282
 31
0.0
  0
LINE
  5
6A
330
1F
100
AcDbEntity
  8
C-2
  6
Continuous
 62
     3
370
     9
100
AcDbLine
 10
-1327.635893617638
 20
932.8717973251642
 30
0.0
 11
-1327.635893617638
 21
648.8725450058282
 31
0.0
  0
LINE
  5
6B
330
1F
100
AcDbEntity
  8
C-2
  6
Continuous
 62
     3
370
     9
100
AcDbLine
 10
-1338.635794435509
 20
842.3719193954767
 30
0.0
 11
-1327.635893617638
 21
842.3719193954767
 31
0.0
  0
LINE
  5
6C
330
1F
100
AcDbEntity
  8
C-2
  6
Continuous
 62
     3
370
     9
100
AcDbLine
 10
-1338.635794435509
 20
839.3723771591488
 30
0.0
 11
-1327.635893617638
 21
839.3723771591488
 31
0.0
  0
LINE
  5
6D
330
1F
100
AcDbEntity
  8
C-2
  6
Continuous
 62
     3
370
     9
100
AcDbLine
 10
-1308.63565329171
 20
932.8717973251642
 30
0.0
 11
-1308.63565329171
 21
648.8725450058282
 31
0.0
  0
LINE
  5
6E
330
1F
100
AcDbEntity
  8
C-2
  6
Continuous
 62
     3
370
     9
100
AcDbLine
 10
-1312.636069093712
 20
932.8717973251642
 30
0.0
 11
-1312.636069093712
 21
648.8725450058282
 31
0.0
  0
LINE
  5
6F
330
1F
100
AcDbEntity
  8
C-2
  6
Continuous
 62
     3
370
     9
100
AcDbLine
 10
-1323.635474000939
 20
842.3719193954767
 30
0.0
 11
-1312.636069093712
 21
842.3719193954767
 31
0.0
  0
LINE
  5
70
330
1F
100
AcDbEntity
  8
C-2
  6
Continuous
 62
     3
370
     9
100
AcDbLine
 10
-1323.635474000939
 20
839.3723771591488
 30
0.0
 11
-1312.636069093712
 21
839.3723771591488
 31
0.0
  0
LINE
  5
71
330
1F
100
AcDbEntity
  8
C-2
  6
Continuous
 62
     3
370
     9
100
AcDbLine
 10
-1293.635832582482
 20
932.8717973251642
 30
0.0
 11
-1293.635832582482
 21
648.8725450058282
 31
0.0
  0
LINE
  5
72
330
1F
100
AcDbEntity
  8
C-2
  6
Continuous
 62
     3
370
     9
100
AcDbLine
 10
-1297.635752473839
 20
932.8717973251642
 30
0.0
 11
-1297.635752473839
 21
648.8725450058282
 31
0.0
  0
LINE
  5
73
330
1F
100
AcDbEntity
  8
C-2
  6
Continuous
 62
     3
370
     9
100
AcDbLine
 10
-1308.63565329171
 20
842.3719193954767
 30
0.0
 11
-1297.635752473839
 21
842.3719193954767
 31
0.0
  0
LINE
  5
74
330
1F
100
AcDbEntity
  8
C-2
  6
Continuous
 62
     3
370
     9
100
AcDbLine
 10
-1308.63565329171
 20
839.3723771591488
 30
0.0
 11
-1297.635752473839
 21
839.3723771591488
 31
0.0
  0
LINE
  5
75
330
1F
100
AcDbEntity
  8
C-2
  6
Continuous
 62
     3
370
     9
100
AcDbLine
 10
-1278.636009965905
 20
932.8717973251642
 30
0.0
 11
-1278.636009965905
 21
648.8725450058282
 31
0.0
  0
LINE
  5
76
330
1F
100
AcDbEntity
  8
C-2
  6
Continuous
 62
     3
370
     9
100
AcDbLine
 10
-1282.635929857262
 20
932.8717973251642
 30
0.0
 11
-1282.635929857262
 21
648.8725450058282
 31
0.0
  0
LINE
  5
77
330
1F
100
AcDbEntity
  8
C-2
  6
Continuous
 62
     3
370
     9
100
AcDbLine
 10
-1293.635832582482
 20
842.3719193954767
 30
0.0
 11
-1282.635929857262
 21
842.3719193954767
 31
0.0
  0
LINE
  5
78
330
1F
100
AcDbEntity
  8
C-2
  6
Continuous
 62
     3
370
     9
100
AcDbLine
 10
-1293.635832582482
 20
839.3723771591488
 30
0.0
 11
-1282.635929857262
 21
839.3723771591488
 31
0.0
  0
LINE
  5
79
330
1F
100
AcDbEntity
  8
C-2
  6
Continuous
 62
     3
370
     9
100
AcDbLine
 10
-1263.635691438683
 20
932.8717973251642
 30
0.0
 11
-1263.635691438683
 21
648.8725450058282
 31
0.0
  0
LINE
  5
7A
330
1F
100
AcDbEntity
  8
C-2
  6
Continuous
 62
     3
370
     9
100
AcDbLine
 10
-1267.635611330041
 20
932.8717973251642
 30
0.0
 11
-1267.635611330041
 21
648.8725450058282
 31
0.0
  0
LINE
  5
7B
330
1F
100
AcDbEntity
  8
C-2
  6
Continuous
 62
     3
370
     9
100
AcDbLine
 10
-1278.636009965905
 20
842.3719193954767
 30
0.0
 11
-1267.635611330041
 21
842.3719193954767
 31
0.0
  0
LINE
  5
7C
330
1F
100
AcDbEntity
  8
C-2
  6
Continuous
 62
     3
370
     9
100
AcDbLine
 10
-1278.636009965905
 20
839.3723771591488
 30
0.0
 11
-1267.635611330041
 21
839.3723771591488
 31
0.0
  0
LINE
  5
7D
330
1F
100
AcDbEntity
  8
C-2
  6
Continuous
 62
     3
370
     9
100
AcDbLine
 10
-1248.63586977578
 20
932.8717973251642
 30
0.0
 11
-1248.63586977578
 21
648.8725450058282
 31
0.0
  0
LINE
  5
7E
330
1F
100
AcDbEntity
  8
C-2
  6
Continuous
 62
     3
370
     9
100
AcDbLine
 10
-1252.635789190301
 20
932.8717973251642
 30
0.0
 11
-1252.635789190301
 21
648.8725450058282
 31
0.0
  0
LINE
  5
7F
330
1F
100
AcDbEntity
  8
C-2
  6
Continuous
 62
     3
370
     9
100
AcDbLine
 10
-1263.635691438683
 20
842.3719193954767
 30
0.0
 11
-1252.635789190301
 21
842.3719193954767
 31
0.0
  0
LINE
  5
80
330
1F
100
AcDbEntity
  8
C-2
  6
Continuous
 62
     3
370
     9
100
AcDbLine
 10
-1263.635691438683
 20
839.3723771591488
 30
0.0
 11
-1252.635789190301
 21
839.3723771591488
 31
0.0
  0
LINE
  5
81
330
1F
100
AcDbEntity
  8
C-2
  6
Continuous
 62
     3
370
     9
100
AcDbLine
 10
-1233.635552202233
 20
932.8717973251642
 30
0.0
 11
-1233.635552202233
 21
648.8725450058282
 31
0.0
  0
LINE
  5
82
330
1F
100
AcDbEntity
  8
C-2
  6
Continuous
 62
     3
370
     9
100
AcDbLine
 10
-1237.635966096886
 20
932.8717973251642
 30
0.0
 11
-1237.635966096886
 21
648.8725450058282
 31
0.0
  0
LINE
  5
83
330
1F
100
AcDbEntity
  8
C-2
  6
Continuous
 62
     3
370
     9
100
AcDbLine
 10
-1248.635374341973
 20
842.3719193954767
 30
0.0
 11
-1237.635966096886
 21
842.3719193954767
 31
0.0
  0
LINE
  5
84
330
1F
100
AcDbEntity
  8
C-2
  6
Continuous
 62
     3
370
     9
100
AcDbLine
 10
-1248.635374341973
 20
839.3723771591488
 30
0.0
 11
-1237.635966096886
 21
839.3723771591488
 31
0.0
  0
LINE
  5
85
330
1F
100
AcDbEntity
  8
C-2
  6
Continuous
 62
     3
370
     9
100
AcDbLine
 10
-1218.635729585656
 20
932.8717973251642
 30
0.0
 11
-1218.635729585656
 21
648.8725450058282
 31
0.0
  0
LINE
  5
86
330
1F
100
AcDbEntity
  8
C-2
  6
Continuous
 62
     3
370
     9
100
AcDbLine
 10
-1222.635649477013
 20
932.8717973251642
 30
0.0
 11
-1222.635649477013
 21
648.8725450058282
 31
0.0
  0
LINE
  5
87
330
1F
100
AcDbEntity
  8
C-2
  6
Continuous
 62
     3
370
     9
100
AcDbLine
 10
-1233.635552202233
 20
842.3719193954767
 30
0.0
 11
-1222.635649477013
 21
842.3719193954767
 31
0.0
  0
LINE
  5
88
330
1F
100
AcDbEntity
  8
C-2
  6
Continuous
 62
     3
370
     9
100
AcDbLine
 10
-1233.635552202233
 20
839.3723771591488
 30
0.0
 11
-1222.635649477013
 21
839.3723771591488
 31
0.0
  0
LINE
  5
89
330
1F
100
AcDbEntity
  8
C-2
  6
Continuous
 62
     3
370
     9
100
AcDbLine
 10
-1203.635908876427
 20
932.8717973251642
 30
0.0
 11
-1203.635908876427
 21
648.8725450058282
 31
0.0
  0
LINE
  5
8A
330
1F
100
AcDbEntity
  8
C-2
  6
Continuous
 62
     3
370
     9
100
AcDbLine
 10
-1207.635828767785
 20
932.8717973251642
 30
0.0
 11
-1207.635828767785
 21
648.8725450058282
 31
0.0
  0
LINE
  5
8B
330
1F
100
AcDbEntity
  8
C-2
  6
Continuous
 62
     3
370
     9
100
AcDbLine
 10
-1218.635729585656
 20
842.3719193954767
 30
0.0
 11
-1207.635828767785
 21
842.3719193954767
 31
0.0
  0
LINE
  5
8C
330
1F
100
AcDbEntity
  8
C-2
  6
Continuous
 62
     3
370
     9
100
AcDbLine
 10
-1218.635729585656
 20
839.3723771591488
 30
0.0
 11
-1207.635828767785
 21
839.3723771591488
 31
0.0
  0
LINE
  5
8D
330
1F
100
AcDbEntity
  8
C-2
  6
Continuous
 62
     3
370
     9
100
AcDbLine
 10
-1188.635588441857
 20
932.8717973251642
 30
0.0
 11
-1188.635588441857
 21
648.8725450058282
 31
0.0
  0
LINE
  5
8E
330
1F
100
AcDbEntity
  8
C-2
  6
Continuous
 62
     3
370
     9
100
AcDbLine
 10
-1192.635508333214
 20
932.8717973251642
 30
0.0
 11
-1192.635508333214
 21
648.8725450058282
 31
0.0
  0
LINE
  5
8F
330
1F
100
AcDbEntity
  8
C-2
  6
Continuous
 62
     3
370
     9
100
AcDbLine
 10
-1203.635908876427
 20
842.3719193954767
 30
0.0
 11
-1192.635508333214
 21
842.3719193954767
 31
0.0
  0
LINE
  5
90
330
1F
100
AcDbEntity
  8
C-2
  6
Continuous
 62
     3
370
     9
100
AcDbLine
 10
-1203.635908876427
 20
839.3723771591488
 30
0.0
 11
-1192.635508333214
 21
839.3723771591488
 31
0.0
  0
LINE
  5
91
330
1F
100
AcDbEntity
  8
C-2
  6
Continuous
 62
     3
370
     9
100
AcDbLine
 10
-1173.635771547326
 20
932.8717973251642
 30
0.0
 11
-1173.635771547326
 21
648.8725450058282
 31
0.0
  0
LINE
  5
92
330
1F
100
AcDbEntity
  8
C-2
  6
Continuous
 62
     3
370
     9
100
AcDbLine
 10
-1177.635687623986
 20
932.8717973251642
 30
0.0
 11
-1177.635687623986
 21
648.8725450058282
 31
0.0
  0
LINE
  5
93
330
1F
100
AcDbEntity
  8
C-2
  6
Continuous
 62
     3
370
     9
100
AcDbLine
 10
-1188.635588441857
 20
842.3719193954767
 30
0.0
 11
-1177.635687623986
 21
842.3719193954767
 31
0.0
  0
LINE
  5
94
330
1F
100
AcDbEntity
  8
C-2
  6
Continuous
 62
     3
370
     9
100
AcDbLine
 10
-1188.635588441857
 20
839.3723771591488
 30
0.0
 11
-1177.635687623986
 21
839.3723771591488
 31
0.0
  0
LINE
  5
95
330
1F
100
AcDbEntity
  8
C-2
  6
Continuous
 62
     3
370
     9
100
AcDbLine
 10
-1158.635451112755
 20
932.8717973251642
 30
0.0
 11
-1158.635451112755
 21
648.8725450058282
 31
0.0
  0
LINE
  5
96
330
1F
100
AcDbEntity
  8
C-2
  6
Continuous
 62
     3
370
     9
100
AcDbLine
 10
-1162.63586310006
 20
932.8717973251642
 30
0.0
 11
-1162.63586310006
 21
648.8725450058282
 31
0.0
  0
LINE
  5
97
330
1F
100
AcDbEntity
  8
C-2
  6
Continuous
 62
     3
370
     9
100
AcDbLine
 10
-1173.635771547326
 20
842.3719193954767
 30
0.0
 11
-1162.63586310006
 21
842.3719193954767
 31
0.0
  0
LINE
  5
98
330
1F
100
AcDbEntity
  8
C-2
  6
Continuous
 62
     3
370
     9
100
AcDbLine
 10
-1173.635771547326
 20
839.3723771591488
 30
0.0
 11
-1162.63586310006
 21
839.3723771591488
 31
0.0
  0
LINE
  5
99
330
1F
100
AcDbEntity
  8
C-2
  6
Continuous
 62
     3
370
     9
100
AcDbLine
 10
-1143.63562658883
 20
932.8717973251642
 30
0.0
 11
-1143.63562658883
 21
648.8725450058282
 31
0.0
  0
LINE
  5
9A
330
1F
100
AcDbEntity
  8
C-2
  6
Continuous
 62
     3
370
     9
100
AcDbLine
 10
-1147.635550294884
 20
932.8717973251642
 30
0.0
 11
-1147.635550294884
 21
648.8725450058282
 31
0.0
  0
LINE
  5
9B
330
1F
100
AcDbEntity
  8
C-2
  6
Continuous
 62
     3
370
     9
100
AcDbLine
 10
-1158.635451112755
 20
842.3719193954767
 30
0.0
 11
-1147.635550294884
 21
842.3719193954767
 31
0.0
  0
LINE
  5
9C
330
1F
100
AcDbEntity
  8
C-2
  6
Continuous
 62
     3
370
     9
100
AcDbLine
 10
-1158.635451112755
 20
839.3723771591488
 30
0.0
 11
-1147.635550294884
 21
839.3723771591488
 31
0.0
  0
LINE
  5
9D
330
1F
100
AcDbEntity
  8
C-2
  6
Continuous
 62
     3
370
     9
100
AcDbLine
 10
-1143.63562658883
 20
842.3719193954767
 30
0.0
 11
-1132.635725770959
 21
842.3719193954767
 31
0.0
  0
LINE
  5
9E
330
1F
100
AcDbEntity
  8
C-2
  6
Continuous
 62
     3
370
     9
100
AcDbLine
 10
-1143.63562658883
 20
839.3723771591488
 30
0.0
 11
-1132.635725770959
 21
839.3723771591488
 31
0.0
  0
LINE
  5
9F
330
1F
100
AcDbEntity
  8
C-2
  6
Continuous
 62
     3
370
     9
100
AcDbLine
 10
-468.6356952533804
 20
932.8717973251642
 30
0.0
 11
-468.6356952533804
 21
648.8725450058282
 31
0.0
  0
LINE
  5
A0
330
1F
100
AcDbEntity
  8
C-1
  6
Continuous
 62
     2
370
     9
100
AcDbLine
 10
-1462.635771547325
 20
648.8725450058282
 30
0.0
 11
-468.6356952533804
 21
648.8725450058282
 31
0.0
  0
LINE
  5
A1
330
1F
100
AcDbEntity
  8
C-2
  6
Continuous
 62
     3
370
     9
100
AcDbLine
 10
-1462.635771547325
 20
932.8717973251642
 30
0.0
 11
-1462.635771547325
 21
648.8725450058282
 31
0.0
  0
LINE
  5
A2
330
1F
100
AcDbEntity
  8
C-1
  6
Continuous
 62
     2
370
     9
100
AcDbLine
 10
-468.6356952533804
 20
962.8714311142268
 30
0.0
 11
-1462.635771547325
 21
962.8714311142268
 31
0.0
  0
LINE
  5
A3
330
1F
100
AcDbEntity
  8
C-1
  6
Continuous
 62
     2
370
     9
100
AcDbLine
 10
-1462.635771547325
 20
618.8719041366878
 30
0.0
 11
-468.6356952533804
 21
618.8719041366878
 31
0.0
  0
LINE
  5
A4
330
1F
100
AcDbEntity
  8
C-1
  6
Continuous
 62
     2
370
     9
100
AcDbLine
 10
-1462.635771547325
 20
932.8717973251642
 30
0.0
 11
-1462.635771547325
 21
962.8714311142268
 31
0.0
  0
LINE
  5
A5
330
1F
100
AcDbEntity
  8
C-1
  6
Continuous
 62
     2
370
     9
100
AcDbLine
 10
-1462.635771547325
 20
618.8719041366878
 30
0.0
 11
-1462.635771547325
 21
648.8725450058282
 31
0.0
  0
LINE
  5
A6
330
1F
100
AcDbEntity
  8
C-1
  6
Continuous
 62
     2
370
     9
100
AcDbLine
 10
-468.6356952533804
 20
962.8714311142268
 30
0.0
 11
-468.6356952533804
 21
932.8717973251642
 31
0.0
  0
LINE
  5
A7
330
1F
100
AcDbEntity
  8
C-1
  6
Continuous
 62
     2
370
     9
100
AcDbLine
 10
-468.6356952533804
 20
648.8725450058282
 30
0.0
 11
-468.6356952533804
 21
618.8719041366878
 31
0.0
  0
LINE
  5
A8
330
1F
100
AcDbEntity
  8
C-1
  6
JWW_DASHED3
 62
     2
370
     9
100
AcDbLine
 10
-1462.635771547325
 20
645.8719804306329
 30
0.0
 11
-468.6356952533804
 21
645.8719804306329
 31
0.0
  0
LINE
  5
A9
330
1F
100
AcDbEntity
  8
C-2
  6
Continuous
 62
     3
370
     9
100
AcDbLine
 10
-1128.635809694299
 20
932.8717973251642
 30
0.0
 11
-1128.635809694299
 21
648.8725450058282
 31
0.0
  0
LINE
  5
AA
330
1F
100
AcDbEntity
  8
C-2
  6
Continuous
 62
     3
370
     9
100
AcDbLine
 10
-1132.635725770959
 20
932.8717973251642
 30
0.0
 11
-1132.635725770959
 21
648.8725450058282
 31
0.0
  0
LINE
  5
AB
330
1F
100
AcDbEntity
  8
C-2
  6
Continuous
 62
     3
370
     9
100
AcDbLine
 10
-1128.635809694299
 20
842.3719193954767
 30
0.0
 11
-1117.635908876427
 21
842.3719193954767
 31
0.0
  0
LINE
  5
AC
330
1F
100
AcDbEntity
  8
C-2
  6
Continuous
 62
     3
370
     9
100
AcDbLine
 10
-1128.635809694299
 20
839.3723771591488
 30
0.0
 11
-1117.635908876427
 21
839.3723771591488
 31
0.0
  0
LINE
  5
AD
330
1F
100
AcDbEntity
  8
C-2
  6
Continuous
 62
     3
370
     9
100
AcDbLine
 10
-1113.635481630334
 20
932.8717973251642
 30
0.0
 11
-1113.635481630334
 21
648.8725450058282
 31
0.0
  0
LINE
  5
AE
330
1F
100
AcDbEntity
  8
C-2
  6
Continuous
 62
     3
370
     9
100
AcDbLine
 10
-1117.635908876427
 20
932.8717973251642
 30
0.0
 11
-1117.635908876427
 21
648.8725450058282
 31
0.0
  0
LINE
  5
AF
330
1F
100
AcDbEntity
  8
C-2
  6
Continuous
 62
     3
370
     9
100
AcDbLine
 10
-1113.635481630334
 20
842.3719193954767
 30
0.0
 11
-1102.635588441857
 21
842.3719193954767
 31
0.0
  0
LINE
  5
B0
330
1F
100
AcDbEntity
  8
C-2
  6
Continuous
 62
     3
370
     9
100
AcDbLine
 10
-1113.635481630334
 20
839.3723771591488
 30
0.0
 11
-1102.635588441857
 21
839.3723771591488
 31
0.0
  0
LINE
  5
B1
330
1F
100
AcDbEntity
  8
C-2
  6
Continuous
 62
     3
370
     9
100
AcDbLine
 10
-1098.635664735802
 20
932.8717973251642
 30
0.0
 11
-1098.635664735802
 21
648.8725450058282
 31
0.0
  0
LINE
  5
B2
330
1F
100
AcDbEntity
  8
C-2
  6
Continuous
 62
     3
370
     9
100
AcDbLine
 10
-1102.635588441857
 20
932.8717973251642
 30
0.0
 11
-1102.635588441857
 21
648.8725450058282
 31
0.0
  0
LINE
  5
B3
330
1F
100
AcDbEntity
  8
C-2
  6
Continuous
 62
     3
370
     9
100
AcDbLine
 10
-1098.635664735802
 20
842.3719193954767
 30
0.0
 11
-1087.635756288537
 21
842.3719193954767
 31
0.0
  0
LINE
  5
B4
330
1F
100
AcDbEntity
  8
C-2
  6
Continuous
 62
     3
370
     9
100
AcDbLine
 10
-1098.635664735802
 20
839.3723771591488
 30
0.0
 11
-1087.635756288537
 21
839.3723771591488
 31
0.0
  0
LINE
  5
B5
330
1F
100
AcDbEntity
  8
C-2
  6
Continuous
 62
     3
370
     9
100
AcDbLine
 10
-1083.635344301232
 20
932.8717973251642
 30
0.0
 11
-1083.635344301232
 21
648.8725450058282
 31
0.0
  0
LINE
  5
B6
330
1F
100
AcDbEntity
  8
C-2
  6
Continuous
 62
     3
370
     9
100
AcDbLine
 10
-1087.635756288537
 20
932.8717973251642
 30
0.0
 11
-1087.635756288537
 21
648.8725450058282
 31
0.0
  0
LINE
  5
B7
330
1F
100
AcDbEntity
  8
C-2
  6
Continuous
 62
     3
370
     9
100
AcDbLine
 10
-1083.635344301232
 20
842.3719193954767
 30
0.0
 11
-1072.635451112755
 21
842.3719193954767
 31
0.0
  0
LINE
  5
B8
330
1F
100
AcDbEntity
  8
C-2
  6
Continuous
 62
     3
370
     9
100
AcDbLine
 10
-1083.635344301232
 20
839.3723771591488
 30
0.0
 11
-1072.635451112755
 21
839.3723771591488
 31
0.0
  0
LINE
  5
B9
330
1F
100
AcDbEntity
  8
C-2
  6
Continuous
 62
     3
370
     9
100
AcDbLine
 10
-1068.635527406701
 20
932.8717973251642
 30
0.0
 11
-1068.635527406701
 21
648.8725450058282
 31
0.0
  0
LINE
  5
BA
330
1F
100
AcDbEntity
  8
C-2
  6
Continuous
 62
     3
370
     9
100
AcDbLine
 10
-1072.635939394006
 20
932.8717973251642
 30
0.0
 11
-1072.635939394006
 21
648.8725450058282
 31
0.0
  0
LINE
  5
BB
330
1F
100
AcDbEntity
  8
C-2
  6
Continuous
 62
     3
370
     9
100
AcDbLine
 10
-1068.635527406701
 20
842.3719193954767
 30
0.0
 11
-1057.635618959435
 21
842.3719193954767
 31
0.0
  0
LINE
  5
BC
330
1F
100
AcDbEntity
  8
C-2
  6
Continuous
 62
     3
370
     9
100
AcDbLine
 10
-1068.635527406701
 20
839.3723771591488
 30
0.0
 11
-1057.635618959435
 21
839.3723771591488
 31
0.0
  0
LINE
  5
BD
330
1F
100
AcDbEntity
  8
C-2
  6
Continuous
 62
     3
370
     9
100
AcDbLine
 10
-1053.635710512169
 20
932.8717973251642
 30
0.0
 11
-1053.635710512169
 21
648.8725450058282
 31
0.0
  0
LINE
  5
BE
330
1F
100
AcDbEntity
  8
C-2
  6
Continuous
 62
     3
370
     9
100
AcDbLine
 10
-1057.635618959435
 20
932.8717973251642
 30
0.0
 11
-1057.635618959435
 21
648.8725450058282
 31
0.0
  0
LINE
  5
BF
330
1F
100
AcDbEntity
  8
C-2
  6
Continuous
 62
     3
370
     9
100
AcDbLine
 10
-1053.635710512169
 20
842.3719193954767
 30
0.0
 11
-1042.635802064904
 21
842.3719193954767
 31
0.0
  0
LINE
  5
C0
330
1F
100
AcDbEntity
  8
C-2
  6
Continuous
 62
     3
370
     9
100
AcDbLine
 10
-1053.635710512169
 20
839.3723771591488
 30
0.0
 11
-1042.635802064904
 21
839.3723771591488
 31
0.0
  0
LINE
  5
C1
330
1F
100
AcDbEntity
  8
C-2
  6
Continuous
 62
     3
370
     9
100
AcDbLine
 10
-1038.635878358849
 20
932.8717973251642
 30
0.0
 11
-1038.635878358849
 21
648.8725450058282
 31
0.0
  0
LINE
  5
C2
330
1F
100
AcDbEntity
  8
C-2
  6
Continuous
 62
     3
370
     9
100
AcDbLine
 10
-1042.635802064904
 20
932.8717973251642
 30
0.0
 11
-1042.635802064904
 21
648.8725450058282
 31
0.0
  0
LINE
  5
C3
330
1F
100
AcDbEntity
  8
C-2
  6
Continuous
 62
     3
370
     9
100
AcDbLine
 10
-1038.635878358849
 20
842.3719193954767
 30
0.0
 11
-1027.635481630334
 21
842.3719193954767
 31
0.0
  0
LINE
  5
C4
330
1F
100
AcDbEntity
  8
C-2
  6
Continuous
 62
     3
370
     9
100
AcDbLine
 10
-1038.635878358849
 20
839.3723771591488
 30
0.0
 11
-1027.635481630334
 21
839.3723771591488
 31
0.0
  0
LINE
  5
C5
330
1F
100
AcDbEntity
  8
C-2
  6
Continuous
 62
     3
370
     9
100
AcDbLine
 10
-1023.635557924279
 20
932.8717973251642
 30
0.0
 11
-1023.635557924279
 21
648.8725450058282
 31
0.0
  0
LINE
  5
C6
330
1F
100
AcDbEntity
  8
C-2
  6
Continuous
 62
     3
370
     9
100
AcDbLine
 10
-1027.635481630334
 20
932.8717973251642
 30
0.0
 11
-1027.635481630334
 21
648.8725450058282
 31
0.0
  0
LINE
  5
C7
330
1F
100
AcDbEntity
  8
C-2
  6
Continuous
 62
     3
370
     9
100
AcDbLine
 10
-1023.635557924279
 20
842.3719193954767
 30
0.0
 11
-1012.635664735802
 21
842.3719193954767
 31
0.0
  0
LINE
  5
C8
330
1F
100
AcDbEntity
  8
C-2
  6
Continuous
 62
     3
370
     9
100
AcDbLine
 10
-1023.635557924279
 20
839.3723771591488
 30
0.0
 11
-1012.635664735802
 21
839.3723771591488
 31
0.0
  0
LINE
  5
C9
330
1F
100
AcDbEntity
  8
C-2
  6
Continuous
 62
     3
370
     9
100
AcDbLine
 10
-1008.635741029748
 20
932.8717973251642
 30
0.0
 11
-1008.635741029748
 21
648.8725450058282
 31
0.0
  0
LINE
  5
CA
330
1F
100
AcDbEntity
  8
C-2
  6
Continuous
 62
     3
370
     9
100
AcDbLine
 10
-1012.635664735802
 20
932.8717973251642
 30
0.0
 11
-1012.635664735802
 21
648.8725450058282
 31
0.0
  0
LINE
  5
CB
330
1F
100
AcDbEntity
  8
C-2
  6
Continuous
 62
     3
370
     9
100
AcDbLine
 10
-1008.635741029748
 20
842.3719193954767
 30
0.0
 11
-997.635847841271
 21
842.3719193954767
 31
0.0
  0
LINE
  5
CC
330
1F
100
AcDbEntity
  8
C-2
  6
Continuous
 62
     3
370
     9
100
AcDbLine
 10
-1008.635741029748
 20
839.3723771591488
 30
0.0
 11
-997.635847841271
 21
839.3723771591488
 31
0.0
  0
LINE
  5
CD
330
1F
100
AcDbEntity
  8
C-2
  6
Continuous
 62
     3
370
     9
100
AcDbLine
 10
-993.6354205951773
 20
932.8717973251642
 30
0.0
 11
-993.6354205951773
 21
648.8725450058282
 31
0.0
  0
LINE
  5
CE
330
1F
100
AcDbEntity
  8
C-2
  6
Continuous
 62
     3
370
     9
100
AcDbLine
 10
-997.635847841271
 20
932.8717973251642
 30
0.0
 11
-997.635847841271
 21
648.8725450058282
 31
0.0
  0
LINE
  5
CF
330
1F
100
AcDbEntity
  8
C-2
  6
Continuous
 62
     3
370
     9
100
AcDbLine
 10
-993.6354205951773
 20
842.3719193954767
 30
0.0
 11
-982.6360309467398
 21
842.3719193954767
 31
0.0
  0
LINE
  5
D0
330
1F
100
AcDbEntity
  8
C-2
  6
Continuous
 62
     3
370
     9
100
AcDbLine
 10
-993.6354205951773
 20
839.3723771591488
 30
0.0
 11
-982.6360309467398
 21
839.3723771591488
 31
0.0
  0
LINE
  5
D1
330
1F
100
AcDbEntity
  8
C-2
  6
Continuous
 62
     3
370
     9
100
AcDbLine
 10
-978.635603700646
 20
932.8717973251642
 30
0.0
 11
-978.635603700646
 21
648.8725450058282
 31
0.0
  0
LINE
  5
D2
330
1F
100
AcDbEntity
  8
C-2
  6
Continuous
 62
     3
370
     9
100
AcDbLine
 10
-982.6360309467398
 20
932.8717973251642
 30
0.0
 11
-982.6360309467398
 21
648.8725450058282
 31
0.0
  0
LINE
  5
D3
330
1F
100
AcDbEntity
  8
C-2
  6
Continuous
 62
     3
370
     9
100
AcDbLine
 10
-978.635603700646
 20
842.3719193954767
 30
0.0
 11
-967.6356952533804
 21
842.3719193954767
 31
0.0
  0
LINE
  5
D4
330
1F
100
AcDbEntity
  8
C-2
  6
Continuous
 62
     3
370
     9
100
AcDbLine
 10
-978.635603700646
 20
839.3723771591488
 30
0.0
 11
-967.6356952533804
 21
839.3723771591488
 31
0.0
  0
LINE
  5
D5
330
1F
100
AcDbEntity
  8
C-2
  6
Continuous
 62
     3
370
     9
100
AcDbLine
 10
-963.6352985248648
 20
932.8717973251642
 30
0.0
 11
-963.6352985248648
 21
648.8725450058282
 31
0.0
  0
LINE
  5
D6
330
1F
100
AcDbEntity
  8
C-2
  6
Continuous
 62
     3
370
     9
100
AcDbLine
 10
-967.6356952533804
 20
932.8717973251642
 30
0.0
 11
-967.6356952533804
 21
648.8725450058282
 31
0.0
  0
LINE
  5
D7
330
1F
100
AcDbEntity
  8
C-2
  6
Continuous
 62
     3
370
     9
100
AcDbLine
 10
-963.6352985248648
 20
842.3719193954767
 30
0.0
 11
-952.6353900775991
 21
842.3719193954767
 31
0.0
  0
LINE
  5
D8
330
1F
100
AcDbEntity
  8
C-2
  6
Continuous
 62
     3
370
     9
100
AcDbLine
 10
-963.6352985248648
 20
839.3723771591488
 30
0.0
 11
-952.6353900775991
 21
839.3723771591488
 31
0.0
  0
LINE
  5
D9
330
1F
100
AcDbEntity
  8
C-2
  6
Continuous
 62
     3
370
     9
100
AcDbLine
 10
-948.6354511127554
 20
932.8717973251642
 30
0.0
 11
-948.6354511127554
 21
648.8725450058282
 31
0.0
  0
LINE
  5
DA
330
1F
100
AcDbEntity
  8
C-2
  6
Continuous
 62
     3
370
     9
100
AcDbLine
 10
-952.6358783588491
 20
932.8717973251642
 30
0.0
 11
-952.6358783588491
 21
648.8725450058282
 31
0.0
  0
LINE
  5
DB
330
1F
100
AcDbEntity
  8
C-2
  6
Continuous
 62
     3
370
     9
100
AcDbLine
 10
-948.6354511127554
 20
842.3719193954767
 30
0.0
 11
-937.6355731830679
 21
842.3719193954767
 31
0.0
  0
LINE
  5
DC
330
1F
100
AcDbEntity
  8
C-2
  6
Continuous
 62
     3
370
     9
100
AcDbLine
 10
-948.6354511127554
 20
839.3723771591488
 30
0.0
 11
-937.6355731830679
 21
839.3723771591488
 31
0.0
  0
LINE
  5
DD
330
1F
100
AcDbEntity
  8
C-2
  6
Continuous
 62
     3
370
     9
100
AcDbLine
 10
-933.6356342182241
 20
932.8717973251642
 30
0.0
 11
-933.6356342182241
 21
648.8725450058282
 31
0.0
  0
LINE
  5
DE
330
1F
100
AcDbEntity
  8
C-2
  6
Continuous
 62
     3
370
     9
100
AcDbLine
 10
-937.6355731830679
 20
932.8717973251642
 30
0.0
 11
-937.6355731830679
 21
648.8725450058282
 31
0.0
  0
LINE
  5
DF
330
1F
100
AcDbEntity
  8
C-2
  6
Continuous
 62
     3
370
     9
100
AcDbLine
 10
-933.6356342182241
 20
842.3719193954767
 30
0.0
 11
-922.6357257709585
 21
842.3719193954767
 31
0.0
  0
LINE
  5
E0
330
1F
100
AcDbEntity
  8
C-2
  6
Continuous
 62
     3
370
     9
100
AcDbLine
 10
-933.6356342182241
 20
839.3723771591488
 30
0.0
 11
-922.6357257709585
 21
839.3723771591488
 31
0.0
  0
LINE
  5
E1
330
1F
100
AcDbEntity
  8
C-2
  6
Continuous
 62
     3
370
     9
100
AcDbLine
 10
-918.6353290424429
 20
932.8717973251642
 30
0.0
 11
-918.6353290424429
 21
648.8725450058282
 31
0.0
  0
LINE
  5
E2
330
1F
100
AcDbEntity
  8
C-2
  6
Continuous
 62
     3
370
     9
100
AcDbLine
 10
-922.6357257709585
 20
932.8717973251642
 30
0.0
 11
-922.6357257709585
 21
648.8725450058282
 31
0.0
  0
LINE
  5
E3
330
1F
100
AcDbEntity
  8
C-2
  6
Continuous
 62
     3
370
     9
100
AcDbLine
 10
-918.6353290424429
 20
842.3719193954767
 30
0.0
 11
-907.6359088764273
 21
842.3719193954767
 31
0.0
  0
LINE
  5
E4
330
1F
100
AcDbEntity
  8
C-2
  6
Continuous
 62
     3
370
     9
100
AcDbLine
 10
-918.6353290424429
 20
839.3723771591488
 30
0.0
 11
-907.6359088764273
 21
839.3723771591488
 31
0.0
  0
LINE
  5
E5
330
1F
100
AcDbEntity
  8
C-2
  6
Continuous
 62
     3
370
     9
100
AcDbLine
 10
-903.6355121479116
 20
932.8717973251642
 30
0.0
 11
-903.6355121479116
 21
648.8725450058282
 31
0.0
  0
LINE
  5
E6
330
1F
100
AcDbEntity
  8
C-2
  6
Continuous
 62
     3
370
     9
100
AcDbLine
 10
-907.6359088764273
 20
932.8717973251642
 30
0.0
 11
-907.6359088764273
 21
648.8725450058282
 31
0.0
  0
LINE
  5
E7
330
1F
100
AcDbEntity
  8
C-2
  6
Continuous
 62
     3
370
     9
100
AcDbLine
 10
-903.6355121479116
 20
842.3719193954767
 30
0.0
 11
-892.635603700646
 21
842.3719193954767
 31
0.0
  0
LINE
  5
E8
330
1F
100
AcDbEntity
  8
C-2
  6
Continuous
 62
     3
370
     9
100
AcDbLine
 10
-903.6355121479116
 20
839.3723771591488
 30
0.0
 11
-892.635603700646
 21
839.3723771591488
 31
0.0
  0
LINE
  5
E9
330
1F
100
AcDbEntity
  8
C-2
  6
Continuous
 62
     3
370
     9
100
AcDbLine
 10
-888.6356647358023
 20
932.8717973251642
 30
0.0
 11
-888.6356647358023
 21
648.8725450058282
 31
0.0
  0
LINE
  5
EA
330
1F
100
AcDbEntity
  8
C-2
  6
Continuous
 62
     3
370
     9
100
AcDbLine
 10
-892.635603700646
 20
932.8717973251642
 30
0.0
 11
-892.635603700646
 21
648.8725450058282
 31
0.0
  0
LINE
  5
EB
330
1F
100
AcDbEntity
  8
C-2
  6
Continuous
 62
     3
370
     9
100
AcDbLine
 10
-888.6356647358023
 20
842.3719193954767
 30
0.0
 11
-877.6357868061149
 21
842.3719193954767
 31
0.0
  0
LINE
  5
EC
330
1F
100
AcDbEntity
  8
C-2
  6
Continuous
 62
     3
370
     9
100
AcDbLine
 10
-888.6356647358023
 20
839.3723771591488
 30
0.0
 11
-877.6357868061149
 21
839.3723771591488
 31
0.0
  0
LINE
  5
ED
330
1F
100
AcDbEntity
  8
C-2
  6
Continuous
 62
     3
370
     9
100
AcDbLine
 10
-873.6358478412711
 20
932.8717973251642
 30
0.0
 11
-873.6358478412711
 21
648.8725450058282
 31
0.0
  0
LINE
  5
EE
330
1F
100
AcDbEntity
  8
C-2
  6
Continuous
 62
     3
370
     9
100
AcDbLine
 10
-877.6357868061149
 20
932.8717973251642
 30
0.0
 11
-877.6357868061149
 21
648.8725450058282
 31
0.0
  0
LINE
  5
EF
330
1F
100
AcDbEntity
  8
C-2
  6
Continuous
 62
     3
370
     9
100
AcDbLine
 10
-873.6358478412711
 20
842.3719193954767
 30
0.0
 11
-862.6354511127554
 21
842.3719193954767
 31
0.0
  0
LINE
  5
F0
330
1F
100
AcDbEntity
  8
C-2
  6
Continuous
 62
     3
370
     9
100
AcDbLine
 10
-873.6358478412711
 20
839.3723771591488
 30
0.0
 11
-862.6354511127554
 21
839.3723771591488
 31
0.0
  0
LINE
  5
F1
330
1F
100
AcDbEntity
  8
C-2
  6
Continuous
 62
     3
370
     9
100
AcDbLine
 10
-858.6355426654899
 20
932.8717973251642
 30
0.0
 11
-858.6355426654899
 21
648.8725450058282
 31
0.0
  0
LINE
  5
F2
330
1F
100
AcDbEntity
  8
C-2
  6
Continuous
 62
     3
370
     9
100
AcDbLine
 10
-862.6354511127554
 20
932.8717973251642
 30
0.0
 11
-862.6354511127554
 21
648.8725450058282
 31
0.0
  0
LINE
  5
F3
330
1F
100
AcDbEntity
  8
C-2
  6
Continuous
 62
     3
370
     9
100
AcDbLine
 10
-858.6355426654899
 20
842.3719193954767
 30
0.0
 11
-847.6356342182243
 21
842.3719193954767
 31
0.0
  0
LINE
  5
F4
330
1F
100
AcDbEntity
  8
C-2
  6
Continuous
 62
     3
370
     9
100
AcDbLine
 10
-858.6355426654899
 20
839.3723771591488
 30
0.0
 11
-847.6356342182243
 21
839.3723771591488
 31
0.0
  0
LINE
  5
F5
330
1F
100
AcDbEntity
  8
C-2
  6
Continuous
 62
     3
370
     9
100
AcDbLine
 10
-843.6352069721304
 20
932.8717973251642
 30
0.0
 11
-843.6352069721304
 21
648.8725450058282
 31
0.0
  0
LINE
  5
F6
330
1F
100
AcDbEntity
  8
C-2
  6
Continuous
 62
     3
370
     9
100
AcDbLine
 10
-847.6356342182243
 20
932.8717973251642
 30
0.0
 11
-847.6356342182243
 21
648.8725450058282
 31
0.0
  0
LINE
  5
F7
330
1F
100
AcDbEntity
  8
C-2
  6
Continuous
 62
     3
370
     9
100
AcDbLine
 10
-843.6352069721304
 20
842.3719193954767
 30
0.0
 11
-832.6358173236929
 21
842.3719193954767
 31
0.0
  0
LINE
  5
F8
330
1F
100
AcDbEntity
  8
C-2
  6
Continuous
 62
     3
370
     9
100
AcDbLine
 10
-843.6352069721304
 20
839.3723771591488
 30
0.0
 11
-832.6358173236929
 21
839.3723771591488
 31
0.0
  0
LINE
  5
F9
330
1F
100
AcDbEntity
  8
C-2
  6
Continuous
 62
     3
370
     9
100
AcDbLine
 10
-828.6353900775993
 20
932.8717973251642
 30
0.0
 11
-828.6353900775993
 21
648.8725450058282
 31
0.0
  0
LINE
  5
FA
330
1F
100
AcDbEntity
  8
C-2
  6
Continuous
 62
     3
370
     9
100
AcDbLine
 10
-832.6358173236929
 20
932.8717973251642
 30
0.0
 11
-832.6358173236929
 21
648.8725450058282
 31
0.0
  0
LINE
  5
FB
330
1F
100
AcDbEntity
  8
C-2
  6
Continuous
 62
     3
370
     9
100
AcDbLine
 10
-828.6353900775993
 20
842.3719193954767
 30
0.0
 11
-817.6354816303336
 21
842.3719193954767
 31
0.0
  0
LINE
  5
FC
330
1F
100
AcDbEntity
  8
C-2
  6
Continuous
 62
     3
370
     9
100
AcDbLine
 10
-828.6353900775993
 20
839.3723771591488
 30
0.0
 11
-817.6354816303336
 21
839.3723771591488
 31
0.0
  0
LINE
  5
FD
330
1F
100
AcDbEntity
  8
C-2
  6
Continuous
 62
     3
370
     9
100
AcDbLine
 10
-813.6355731830679
 20
932.8717973251642
 30
0.0
 11
-813.6355731830679
 21
648.8725450058282
 31
0.0
  0
LINE
  5
FE
330
1F
100
AcDbEntity
  8
C-2
  6
Continuous
 62
     3
370
     9
100
AcDbLine
 10
-817.6354816303336
 20
932.8717973251642
 30
0.0
 11
-817.6354816303336
 21
648.8725450058282
 31
0.0
  0
LINE
  5
FF
330
1F
100
AcDbEntity
  8
C-2
  6
Continuous
 62
     3
370
     9
100
AcDbLine
 10
-813.6355731830679
 20
842.3719193954767
 30
0.0
 11
-802.6356647358023
 21
842.3719193954767
 31
0.0
  0
LINE
  5
100
330
1F
100
AcDbEntity
  8
C-2
  6
Continuous
 62
     3
370
     9
100
AcDbLine
 10
-813.6355731830679
 20
839.3723771591488
 30
0.0
 11
-802.6356647358023
 21
839.3723771591488
 31
0.0
  0
LINE
  5
101
330
1F
100
AcDbEntity
  8
C-2
  6
Continuous
 62
     3
370
     9
100
AcDbLine
 10
-798.6357562885366
 20
932.8717973251642
 30
0.0
 11
-798.6357562885366
 21
648.8725450058282
 31
0.0
  0
LINE
  5
102
330
1F
100
AcDbEntity
  8
C-2
  6
Continuous
 62
     3
370
     9
100
AcDbLine
 10
-802.6356647358023
 20
932.8717973251642
 30
0.0
 11
-802.6356647358023
 21
648.8725450058282
 31
0.0
  0
LINE
  5
103
330
1F
100
AcDbEntity
  8
C-2
  6
Continuous
 62
     3
370
     9
100
AcDbLine
 10
-798.6357562885366
 20
842.3719193954767
 30
0.0
 11
-787.635359560021
 21
842.3719193954767
 31
0.0
  0
LINE
  5
104
330
1F
100
AcDbEntity
  8
C-2
  6
Continuous
 62
     3
370
     9
100
AcDbLine
 10
-798.6357562885366
 20
839.3723771591488
 30
0.0
 11
-787.635359560021
 21
839.3723771591488
 31
0.0
  0
LINE
  5
105
330
1F
100
AcDbEntity
  8
C-2
  6
Continuous
 62
     3
370
     9
100
AcDbLine
 10
-783.6354511127554
 20
932.8717973251642
 30
0.0
 11
-783.6354511127554
 21
648.8725450058282
 31
0.0
  0
LINE
  5
106
330
1F
100
AcDbEntity
  8
C-2
  6
Continuous
 62
     3
370
     9
100
AcDbLine
 10
-787.635359560021
 20
932.8717973251642
 30
0.0
 11
-787.635359560021
 21
648.8725450058282
 31
0.0
  0
LINE
  5
107
330
1F
100
AcDbEntity
  8
C-2
  6
Continuous
 62
     3
370
     9
100
AcDbLine
 10
-783.6354511127554
 20
842.3719193954767
 30
0.0
 11
-772.6355426654898
 21
842.3719193954767
 31
0.0
  0
LINE
  5
108
330
1F
100
AcDbEntity
  8
C-2
  6
Continuous
 62
     3
370
     9
100
AcDbLine
 10
-783.6354511127554
 20
839.3723771591488
 30
0.0
 11
-772.6355426654898
 21
839.3723771591488
 31
0.0
  0
LINE
  5
109
330
1F
100
AcDbEntity
  8
C-2
  6
Continuous
 62
     3
370
     9
100
AcDbLine
 10
-768.635603700646
 20
932.8717973251642
 30
0.0
 11
-768.635603700646
 21
648.8725450058282
 31
0.0
  0
LINE
  5
10A
330
1F
100
AcDbEntity
  8
C-2
  6
Continuous
 62
     3
370
     9
100
AcDbLine
 10
-772.6355426654898
 20
932.8717973251642
 30
0.0
 11
-772.6355426654898
 21
648.8725450058282
 31
0.0
  0
LINE
  5
10B
330
1F
100
AcDbEntity
  8
C-2
  6
Continuous
 62
     3
370
     9
100
AcDbLine
 10
-768.635603700646
 20
842.3719193954767
 30
0.0
 11
-757.6357257709585
 21
842.3719193954767
 31
0.0
  0
LINE
  5
10C
330
1F
100
AcDbEntity
  8
C-2
  6
Continuous
 62
     3
370
     9
100
AcDbLine
 10
-768.635603700646
 20
839.3723771591488
 30
0.0
 11
-757.6357257709585
 21
839.3723771591488
 31
0.0
  0
LINE
  5
10D
330
1F
100
AcDbEntity
  8
C-2
  6
Continuous
 62
     3
370
     9
100
AcDbLine
 10
-753.6352985248648
 20
932.8717973251642
 30
0.0
 11
-753.6352985248648
 21
648.8725450058282
 31
0.0
  0
LINE
  5
10E
330
1F
100
AcDbEntity
  8
C-2
  6
Continuous
 62
     3
370
     9
100
AcDbLine
 10
-757.6357257709585
 20
932.8717973251642
 30
0.0
 11
-757.6357257709585
 21
648.8725450058282
 31
0.0
  0
LINE
  5
10F
330
1F
100
AcDbEntity
  8
C-2
  6
Continuous
 62
     3
370
     9
100
AcDbLine
 10
-753.6352985248648
 20
842.3719193954767
 30
0.0
 11
-742.6358783588491
 21
842.3719193954767
 31
0.0
  0
LINE
  5
110
330
1F
100
AcDbEntity
  8
C-2
  6
Continuous
 62
     3
370
     9
100
AcDbLine
 10
-753.6352985248648
 20
839.3723771591488
 30
0.0
 11
-742.6358783588491
 21
839.3723771591488
 31
0.0
  0
LINE
  5
111
330
1F
100
AcDbEntity
  8
C-2
  6
Continuous
 62
     3
370
     9
100
AcDbLine
 10
-738.6354511127554
 20
932.8717973251642
 30
0.0
 11
-738.6354511127554
 21
648.8725450058282
 31
0.0
  0
LINE
  5
112
330
1F
100
AcDbEntity
  8
C-2
  6
Continuous
 62
     3
370
     9
100
AcDbLine
 10
-742.6358783588491
 20
932.8717973251642
 30
0.0
 11
-742.6358783588491
 21
648.8725450058282
 31
0.0
  0
LINE
  5
113
330
1F
100
AcDbEntity
  8
C-2
  6
Continuous
 62
     3
370
     9
100
AcDbLine
 10
-738.6354511127554
 20
842.3719193954767
 30
0.0
 11
-727.6355731830679
 21
842.3719193954767
 31
0.0
  0
LINE
  5
114
330
1F
100
AcDbEntity
  8
C-2
  6
Continuous
 62
     3
370
     9
100
AcDbLine
 10
-738.6354511127554
 20
839.3723771591488
 30
0.0
 11
-727.6355731830679
 21
839.3723771591488
 31
0.0
  0
LINE
  5
115
330
1F
100
AcDbEntity
  8
C-2
  6
Continuous
 62
     3
370
     9
100
AcDbLine
 10
-723.6356342182241
 20
932.8717973251642
 30
0.0
 11
-723.6356342182241
 21
648.8725450058282
 31
0.0
  0
LINE
  5
116
330
1F
100
AcDbEntity
  8
C-2
  6
Continuous
 62
     3
370
     9
100
AcDbLine
 10
-727.6355731830679
 20
932.8717973251642
 30
0.0
 11
-727.6355731830679
 21
648.8725450058282
 31
0.0
  0
LINE
  5
117
330
1F
100
AcDbEntity
  8
C-2
  6
Continuous
 62
     3
370
     9
100
AcDbLine
 10
-723.6356342182241
 20
842.3719193954767
 30
0.0
 11
-712.6352680072866
 21
842.3719193954767
 31
0.0
  0
LINE
  5
118
330
1F
100
AcDbEntity
  8
C-2
  6
Continuous
 62
     3
370
     9
100
AcDbLine
 10
-723.6356342182241
 20
839.3723771591488
 30
0.0
 11
-712.6352680072866
 21
839.3723771591488
 31
0.0
  0
LINE
  5
119
330
1F
100
AcDbEntity
  8
C-2
  6
Continuous
 62
     3
370
     9
100
AcDbLine
 10
-708.6353290424429
 20
932.8717973251642
 30
0.0
 11
-708.6353290424429
 21
648.8725450058282
 31
0.0
  0
LINE
  5
11A
330
1F
100
AcDbEntity
  8
C-2
  6
Continuous
 62
     3
370
     9
100
AcDbLine
 10
-712.6357562885366
 20
932.8717973251642
 30
0.0
 11
-712.6357562885366
 21
648.8725450058282
 31
0.0
  0
LINE
  5
11B
330
1F
100
AcDbEntity
  8
C-2
  6
Continuous
 62
     3
370
     9
100
AcDbLine
 10
-708.6353290424429
 20
842.3719193954767
 30
0.0
 11
-697.6354511127554
 21
842.3719193954767
 31
0.0
  0
LINE
  5
11C
330
1F
100
AcDbEntity
  8
C-2
  6
Continuous
 62
     3
370
     9
100
AcDbLine
 10
-708.6353290424429
 20
839.3723771591488
 30
0.0
 11
-697.6354511127554
 21
839.3723771591488
 31
0.0
  0
LINE
  5
11D
330
1F
100
AcDbEntity
  8
C-2
  6
Continuous
 62
     3
370
     9
100
AcDbLine
 10
-693.6355121479116
 20
932.8717973251642
 30
0.0
 11
-693.6355121479116
 21
648.8725450058282
 31
0.0
  0
LINE
  5
11E
330
1F
100
AcDbEntity
  8
C-2
  6
Continuous
 62
     3
370
     9
100
AcDbLine
 10
-697.6354511127554
 20
932.8717973251642
 30
0.0
 11
-697.6354511127554
 21
648.8725450058282
 31
0.0
  0
LINE
  5
11F
330
1F
100
AcDbEntity
  8
C-2
  6
Continuous
 62
     3
370
     9
100
AcDbLine
 10
-693.6355121479116
 20
842.3719193954767
 30
0.0
 11
-682.6356342182243
 21
842.3719193954767
 31
0.0
  0
LINE
  5
120
330
1F
100
AcDbEntity
  8
C-2
  6
Continuous
 62
     3
370
     9
100
AcDbLine
 10
-693.6355121479116
 20
839.3723771591488
 30
0.0
 11
-682.6356342182243
 21
839.3723771591488
 31
0.0
  0
LINE
  5
121
330
1F
100
AcDbEntity
  8
C-2
  6
Continuous
 62
     3
370
     9
100
AcDbLine
 10
-678.6352069721304
 20
932.8717973251642
 30
0.0
 11
-678.6352069721304
 21
648.8725450058282
 31
0.0
  0
LINE
  5
122
330
1F
100
AcDbEntity
  8
C-2
  6
Continuous
 62
     3
370
     9
100
AcDbLine
 10
-682.6356342182243
 20
932.8717973251642
 30
0.0
 11
-682.6356342182243
 21
648.8725450058282
 31
0.0
  0
LINE
  5
123
330
1F
100
AcDbEntity
  8
C-2
  6
Continuous
 62
     3
370
     9
100
AcDbLine
 10
-678.6352069721304
 20
842.3719193954767
 30
0.0
 11
-667.6358173236929
 21
842.3719193954767
 31
0.0
  0
LINE
  5
124
330
1F
100
AcDbEntity
  8
C-2
  6
Continuous
 62
     3
370
     9
100
AcDbLine
 10
-678.6352069721304
 20
839.3723771591488
 30
0.0
 11
-667.6358173236929
 21
839.3723771591488
 31
0.0
  0
LINE
  5
125
330
1F
100
AcDbEntity
  8
C-2
  6
Continuous
 62
     3
370
     9
100
AcDbLine
 10
-663.6353900775993
 20
932.8717973251642
 30
0.0
 11
-663.6353900775993
 21
648.8725450058282
 31
0.0
  0
LINE
  5
126
330
1F
100
AcDbEntity
  8
C-2
  6
Continuous
 62
     3
370
     9
100
AcDbLine
 10
-667.6358173236929
 20
932.8717973251642
 30
0.0
 11
-667.6358173236929
 21
648.8725450058282
 31
0.0
  0
LINE
  5
127
330
1F
100
AcDbEntity
  8
C-2
  6
Continuous
 62
     3
370
     9
100
AcDbLine
 10
-663.6353900775993
 20
842.3719193954767
 30
0.0
 11
-652.6354511127554
 21
842.3719193954767
 31
0.0
  0
LINE
  5
128
330
1F
100
AcDbEntity
  8
C-2
  6
Continuous
 62
     3
370
     9
100
AcDbLine
 10
-663.6353900775993
 20
839.3723771591488
 30
0.0
 11
-652.6354511127554
 21
839.3723771591488
 31
0.0
  0
LINE
  5
129
330
1F
100
AcDbEntity
  8
C-2
  6
Continuous
 62
     3
370
     9
100
AcDbLine
 10
-648.6355731830679
 20
932.8717973251642
 30
0.0
 11
-648.6355731830679
 21
648.8725450058282
 31
0.0
  0
LINE
  5
12A
330
1F
100
AcDbEntity
  8
C-2
  6
Continuous
 62
     3
370
     9
100
AcDbLine
 10
-652.6354511127554
 20
932.8717973251642
 30
0.0
 11
-652.6354511127554
 21
648.8725450058282
 31
0.0
  0
LINE
  5
12B
330
1F
100
AcDbEntity
  8
C-2
  6
Continuous
 62
     3
370
     9
100
AcDbLine
 10
-648.6355731830679
 20
842.3719193954767
 30
0.0
 11
-637.6356342182241
 21
842.3719193954767
 31
0.0
  0
LINE
  5
12C
330
1F
100
AcDbEntity
  8
C-2
  6
Continuous
 62
     3
370
     9
100
AcDbLine
 10
-648.6355731830679
 20
839.3723771591488
 30
0.0
 11
-637.6356342182241
 21
839.3723771591488
 31
0.0
  0
LINE
  5
12D
330
1F
100
AcDbEntity
  8
C-2
  6
Continuous
 62
     3
370
     9
100
AcDbLine
 10
-633.6357562885366
 20
932.8717973251642
 30
0.0
 11
-633.6357562885366
 21
648.8725450058282
 31
0.0
  0
LINE
  5
12E
330
1F
100
AcDbEntity
  8
C-2
  6
Continuous
 62
     3
370
     9
100
AcDbLine
 10
-637.6356342182241
 20
932.8717973251642
 30
0.0
 11
-637.6356342182241
 21
648.8725450058282
 31
0.0
  0
LINE
  5
12F
330
1F
100
AcDbEntity
  8
C-2
  6
Continuous
 62
     3
370
     9
100
AcDbLine
 10
-633.6357562885366
 20
842.3719193954767
 30
0.0
 11
-622.6353290424429
 21
842.3719193954767
 31
0.0
  0
LINE
  5
130
330
1F
100
AcDbEntity
  8
C-2
  6
Continuous
 62
     3
370
     9
100
AcDbLine
 10
-633.6357562885366
 20
839.3723771591488
 30
0.0
 11
-622.6353290424429
 21
839.3723771591488
 31
0.0
  0
LINE
  5
131
330
1F
100
AcDbEntity
  8
C-2
  6
Continuous
 62
     3
370
     9
100
AcDbLine
 10
-618.6353900775991
 20
932.8717973251642
 30
0.0
 11
-618.6353900775991
 21
648.8725450058282
 31
0.0
  0
LINE
  5
132
330
1F
100
AcDbEntity
  8
C-2
  6
Continuous
 62
     3
370
     9
100
AcDbLine
 10
-622.6353290424429
 20
932.8717973251642
 30
0.0
 11
-622.6353290424429
 21
648.8725450058282
 31
0.0
  0
LINE
  5
133
330
1F
100
AcDbEntity
  8
C-2
  6
Continuous
 62
     3
370
     9
100
AcDbLine
 10
-618.6353900775991
 20
842.3719193954767
 30
0.0
 11
-607.6355121479118
 21
842.3719193954767
 31
0.0
  0
LINE
  5
134
330
1F
100
AcDbEntity
  8
C-2
  6
Continuous
 62
     3
370
     9
100
AcDbLine
 10
-618.6353900775991
 20
839.3723771591488
 30
0.0
 11
-607.6355121479118
 21
839.3723771591488
 31
0.0
  0
LINE
  5
135
330
1F
100
AcDbEntity
  8
C-2
  6
Continuous
 62
     3
370
     9
100
AcDbLine
 10
-603.6350849018179
 20
932.8717973251642
 30
0.0
 11
-603.6350849018179
 21
648.8725450058282
 31
0.0
  0
LINE
  5
136
330
1F
100
AcDbEntity
  8
C-2
  6
Continuous
 62
     3
370
     9
100
AcDbLine
 10
-607.6355121479118
 20
932.8717973251642
 30
0.0
 11
-607.6355121479118
 21
648.8725450058282
 31
0.0
  0
LINE
  5
137
330
1F
100
AcDbEntity
  8
C-2
  6
Continuous
 62
     3
370
     9
100
AcDbLine
 10
-603.6350849018179
 20
842.3719193954767
 30
0.0
 11
-592.6356952533804
 21
842.3719193954767
 31
0.0
  0
LINE
  5
138
330
1F
100
AcDbEntity
  8
C-2
  6
Continuous
 62
     3
370
     9
100
AcDbLine
 10
-603.6350849018179
 20
839.3723771591488
 30
0.0
 11
-592.6356952533804
 21
839.3723771591488
 31
0.0
  0
LINE
  5
139
330
1F
100
AcDbEntity
  8
C-2
  6
Continuous
 62
     3
370
     9
100
AcDbLine
 10
-588.6352680072868
 20
932.8717973251642
 30
0.0
 11
-588.6352680072868
 21
648.8725450058282
 31
0.0
  0
LINE
  5
13A
330
1F
100
AcDbEntity
  8
C-2
  6
Continuous
 62
     3
370
     9
100
AcDbLine
 10
-592.6356952533804
 20
932.8717973251642
 30
0.0
 11
-592.6356952533804
 21
648.8725450058282
 31
0.0
  0
LINE
  5
13B
330
1F
100
AcDbEntity
  8
C-2
  6
Continuous
 62
     3
370
     9
100
AcDbLine
 10
-588.6352680072868
 20
842.3719193954767
 30
0.0
 11
-577.6353900775991
 21
842.3719193954767
 31
0.0
  0
LINE
  5
13C
330
1F
100
AcDbEntity
  8
C-2
  6
Continuous
 62
     3
370
     9
100
AcDbLine
 10
-588.6352680072868
 20
839.3723771591488
 30
0.0
 11
-577.6353900775991
 21
839.3723771591488
 31
0.0
  0
LINE
  5
13D
330
1F
100
AcDbEntity
  8
C-2
  6
Continuous
 62
     3
370
     9
100
AcDbLine
 10
-573.6354511127554
 20
932.8717973251642
 30
0.0
 11
-573.6354511127554
 21
648.8725450058282
 31
0.0
  0
LINE
  5
13E
330
1F
100
AcDbEntity
  8
C-2
  6
Continuous
 62
     3
370
     9
100
AcDbLine
 10
-577.6358783588491
 20
932.8717973251642
 30
0.0
 11
-577.6358783588491
 21
648.8725450058282
 31
0.0
  0
LINE
  5
13F
330
1F
100
AcDbEntity
  8
C-2
  6
Continuous
 62
     3
370
     9
100
AcDbLine
 10
-573.6354511127554
 20
842.3719193954767
 30
0.0
 11
-562.6355731830679
 21
842.3719193954767
 31
0.0
  0
LINE
  5
140
330
1F
100
AcDbEntity
  8
C-2
  6
Continuous
 62
     3
370
     9
100
AcDbLine
 10
-573.6354511127554
 20
839.3723771591488
 30
0.0
 11
-562.6355731830679
 21
839.3723771591488
 31
0.0
  0
LINE
  5
141
330
1F
100
AcDbEntity
  8
C-2
  6
Continuous
 62
     3
370
     9
100
AcDbLine
 10
-558.6351459369741
 20
932.8717973251642
 30
0.0
 11
-558.6351459369741
 21
648.8725450058282
 31
0.0
  0
LINE
  5
142
330
1F
100
AcDbEntity
  8
C-2
  6
Continuous
 62
     3
370
     9
100
AcDbLine
 10
-562.6355731830679
 20
932.8717973251642
 30
0.0
 11
-562.6355731830679
 21
648.8725450058282
 31
0.0
  0
LINE
  5
143
330
1F
100
AcDbEntity
  8
C-2
  6
Continuous
 62
     3
370
     9
100
AcDbLine
 10
-558.6351459369741
 20
842.3719193954767
 30
0.0
 11
-547.6352069721305
 21
842.3719193954767
 31
0.0
  0
LINE
  5
144
330
1F
100
AcDbEntity
  8
C-2
  6
Continuous
 62
     3
370
     9
100
AcDbLine
 10
-558.6351459369741
 20
839.3723771591488
 30
0.0
 11
-547.6352069721305
 21
839.3723771591488
 31
0.0
  0
LINE
  5
145
330
1F
100
AcDbEntity
  8
C-2
  6
Continuous
 62
     3
370
     9
100
AcDbLine
 10
-543.6353290424429
 20
932.8717973251642
 30
0.0
 11
-543.6353290424429
 21
648.8725450058282
 31
0.0
  0
LINE
  5
146
330
1F
100
AcDbEntity
  8
C-2
  6
Continuous
 62
     3
370
     9
100
AcDbLine
 10
-547.6352069721305
 20
932.8717973251642
 30
0.0
 11
-547.6352069721305
 21
648.8725450058282
 31
0.0
  0
LINE
  5
147
330
1F
100
AcDbEntity
  8
C-2
  6
Continuous
 62
     3
370
     9
100
AcDbLine
 10
-543.6353290424429
 20
842.3719193954767
 30
0.0
 11
-532.6353900775991
 21
842.3719193954767
 31
0.0
  0
LINE
  5
148
330
1F
100
AcDbEntity
  8
C-2
  6
Continuous
 62
     3
370
     9
100
AcDbLine
 10
-543.6353290424429
 20
839.3723771591488
 30
0.0
 11
-532.6353900775991
 21
839.3723771591488
 31
0.0
  0
LINE
  5
149
330
1F
100
AcDbEntity
  8
C-2
  6
Continuous
 62
     3
370
     9
100
AcDbLine
 10
-528.6355121479116
 20
932.8717973251642
 30
0.0
 11
-528.6355121479116
 21
648.8725450058282
 31
0.0
  0
LINE
  5
14A
330
1F
100
AcDbEntity
  8
C-2
  6
Continuous
 62
     3
370
     9
100
AcDbLine
 10
-532.6353900775991
 20
932.8717973251642
 30
0.0
 11
-532.6353900775991
 21
648.8725450058282
 31
0.0
  0
LINE
  5
14B
330
1F
100
AcDbEntity
  8
C-2
  6
Continuous
 62
     3
370
     9
100
AcDbLine
 10
-528.6355121479116
 20
842.3719193954767
 30
0.0
 11
-517.6355731830679
 21
842.3719193954767
 31
0.0
  0
LINE
  5
14C
330
1F
100
AcDbEntity
  8
C-2
  6
Continuous
 62
     3
370
     9
100
AcDbLine
 10
-528.6355121479116
 20
839.3723771591488
 30
0.0
 11
-517.6355731830679
 21
839.3723771591488
 31
0.0
  0
LINE
  5
14D
330
1F
100
AcDbEntity
  8
C-2
  6
Continuous
 62
     3
370
     9
100
AcDbLine
 10
-513.6351459369741
 20
932.8717973251642
 30
0.0
 11
-513.6351459369741
 21
648.8725450058282
 31
0.0
  0
LINE
  5
14E
330
1F
100
AcDbEntity
  8
C-2
  6
Continuous
 62
     3
370
     9
100
AcDbLine
 10
-517.6355731830679
 20
932.8717973251642
 30
0.0
 11
-517.6355731830679
 21
648.8725450058282
 31
0.0
  0
LINE
  5
14F
330
1F
100
AcDbEntity
  8
C-2
  6
Continuous
 62
     3
370
     9
100
AcDbLine
 10
-513.6351459369741
 20
842.3719193954767
 30
0.0
 11
-502.6352680072866
 21
842.3719193954767
 31
0.0
  0
LINE
  5
150
330
1F
100
AcDbEntity
  8
C-2
  6
Continuous
 62
     3
370
     9
100
AcDbLine
 10
-513.6351459369741
 20
839.3723771591488
 30
0.0
 11
-502.6352680072866
 21
839.3723771591488
 31
0.0
  0
LINE
  5
151
330
1F
100
AcDbEntity
  8
C-2
  6
Continuous
 62
     3
370
     9
100
AcDbLine
 10
-498.6353290424429
 20
932.8717973251642
 30
0.0
 11
-498.6353290424429
 21
648.8725450058282
 31
0.0
  0
LINE
  5
152
330
1F
100
AcDbEntity
  8
C-2
  6
Continuous
 62
     3
370
     9
100
AcDbLine
 10
-502.6352680072866
 20
932.8717973251642
 30
0.0
 11
-502.6352680072866
 21
648.8725450058282
 31
0.0
  0
LINE
  5
153
330
1F
100
AcDbEntity
  8
C-2
  6
Continuous
 62
     3
370
     9
100
AcDbLine
 10
-498.6353290424429
 20
842.3719193954767
 30
0.0
 11
-487.6354511127554
 21
842.3719193954767
 31
0.0
  0
LINE
  5
154
330
1F
100
AcDbEntity
  8
C-2
  6
Continuous
 62
     3
370
     9
100
AcDbLine
 10
-498.6353290424429
 20
839.3723771591488
 30
0.0
 11
-487.6354511127554
 21
839.3723771591488
 31
0.0
  0
LINE
  5
155
330
1F
100
AcDbEntity
  8
C-2
  6
Continuous
 62
     3
370
     9
100
AcDbLine
 10
-483.6355121479116
 20
932.8717973251642
 30
0.0
 11
-483.6355121479116
 21
648.8725450058282
 31
0.0
  0
LINE
  5
156
330
1F
100
AcDbEntity
  8
C-2
  6
Continuous
 62
     3
370
     9
100
AcDbLine
 10
-487.6354511127554
 20
932.8717973251642
 30
0.0
 11
-487.6354511127554
 21
648.8725450058282
 31
0.0
  0
LINE
  5
157
330
1F
100
AcDbEntity
  8
C-2
  6
Continuous
 62
     3
370
     9
100
AcDbLine
 10
-483.6355121479116
 20
842.3719193954767
 30
0.0
 11
-472.6351459369741
 21
842.3719193954767
 31
0.0
  0
LINE
  5
158
330
1F
100
AcDbEntity
  8
C-2
  6
Continuous
 62
     3
370
     9
100
AcDbLine
 10
-483.6355121479116
 20
839.3723771591488
 30
0.0
 11
-472.6351459369741
 21
839.3723771591488
 31
0.0
  0
LINE
  5
159
330
1F
100
AcDbEntity
  8
C-2
  6
Continuous
 62
     3
370
     9
100
AcDbLine
 10
-472.6361224994741
 20
932.8717973251642
 30
0.0
 11
-472.6361224994741
 21
648.8725450058282
 31
0.0
  0
LINE
  5
15A
330
1F
100
AcDbEntity
  8
C-1
  6
Continuous
 62
     2
370
     9
100
AcDbLine
 10
-468.6356952533804
 20
932.8717973251642
 30
0.0
 11
-1462.635771547325
 21
932.8717973251642
 31
0.0
  0
LINE
  5
15B
330
1F
100
AcDbEntity
  8
C-1
  6
JWW_DASHED3
 62
     2
370
     9
100
AcDbLine
 10
-468.6356952533804
 20
935.8723466415705
 30
0.0
 11
-1462.635771547325
 21
935.8723466415705
 31
0.0
  0
LINE
  5
15C
330
1F
100
AcDbEntity
  8
C-1
  6
JWW_PHANTOM1
 62
     2
370
     9
100
AcDbLine
 10
-1464.636473451623
 20
962.8714311142268
 30
0.0
 11
-1614.636183534631
 21
962.8714311142268
 31
0.0
  0
LINE
  5
15D
330
1F
100
AcDbEntity
  8
C-1
  6
JWW_PHANTOM1
 62
     2
370
     9
100
AcDbLine
 10
-1464.636473451623
 20
618.8719041366878
 30
0.0
 11
-1464.636473451623
 21
962.8714311142268
 31
0.0
  0
LINE
  5
15E
330
1F
100
AcDbEntity
  8
C-1
  6
JWW_PHANTOM1
 62
     2
370
     9
100
AcDbLine
 10
-1464.636473451623
 20
618.8719041366878
 30
0.0
 11
-1614.636183534631
 21
618.8719041366878
 31
0.0
  0
LINE
  5
15F
330
1F
100
AcDbEntity
  8
C-1
  6
JWW_PHANTOM1
 62
     2
370
     9
100
AcDbLine
 10
-1464.636473451623
 20
932.8717973251642
 30
0.0
 11
-1614.636183534631
 21
932.8717973251642
 31
0.0
  0
LINE
  5
160
330
1F
100
AcDbEntity
  8
C-1
  6
JWW_PHANTOM1
 62
     2
370
     9
100
AcDbLine
 10
-1464.636473451623
 20
648.8725450058282
 30
0.0
 11
-1614.636183534631
 21
648.8725450058282
 31
0.0
  0
LINE
  5
161
330
1F
100
AcDbEntity
  8
C-1
  6
JWW_PHANTOM1
 62
     2
370
     9
100
AcDbLine
 10
-466.6364887104117
 20
962.8714311142268
 30
0.0
 11
-316.636793886193
 21
962.8714311142268
 31
0.0
  0
LINE
  5
162
330
1F
100
AcDbEntity
  8
C-1
  6
JWW_PHANTOM1
 62
     2
370
     9
100
AcDbLine
 10
-466.6364887104117
 20
618.8719041366878
 30
0.0
 11
-466.6364887104117
 21
962.8714311142268
 31
0.0
  0
LINE
  5
163
330
1F
100
AcDbEntity
  8
C-1
  6
JWW_PHANTOM1
 62
     2
370
     9
100
AcDbLine
 10
-466.6364887104117
 20
618.8719041366878
 30
0.0
 11
-316.636793886193
 21
618.8719041366878
 31
0.0
  0
LINE
  5
164
330
1F
100
AcDbEntity
  8
C-1
  6
JWW_PHANTOM1
 62
     2
370
     9
100
AcDbLine
 10
-466.6364887104117
 20
932.8717973251642
 30
0.0
 11
-316.636793886193
 21
932.8717973251642
 31
0.0
  0
LINE
  5
165
330
1F
100
AcDbEntity
  8
C-1
  6
JWW_PHANTOM1
 62
     2
370
     9
100
AcDbLine
 10
-466.6364887104117
 20
648.8725450058282
 30
0.0
 11
-316.636793886193
 21
648.8725450058282
 31
0.0
  0
LINE
  5
166
330
1F
100
AcDbEntity
  8
C-1
  6
Continuous
 62
     2
370
     9
100
AcDbLine
 10
-1631.956282411584
 20
780.8718583603206
 30
0.0
 11
-1597.315596376427
 21
800.871949913055
 31
0.0
  0
LINE
  5
167
330
1F
100
AcDbEntity
  8
C-1
  6
Continuous
 62
     2
370
     9
100
AcDbLine
 10
-1614.636183534631
 20
982.8720109482111
 30
0.0
 11
-1614.636183534631
 21
800.871949913055
 31
0.0
  0
LINE
  5
168
330
1F
100
AcDbEntity
  8
C-1
  6
Continuous
 62
     2
370
     9
100
AcDbLine
 10
-1614.636183534631
 20
800.871949913055
 30
0.0
 11
-1597.315596376427
 21
800.871949913055
 31
0.0
  0
LINE
  5
169
330
1F
100
AcDbEntity
  8
C-1
  6
Continuous
 62
     2
370
     9
100
AcDbLine
 10
-1631.956282411584
 20
780.8718583603206
 30
0.0
 11
-1614.636183534631
 21
780.8718583603206
 31
0.0
  0
LINE
  5
16A
330
1F
100
AcDbEntity
  8
C-1
  6
Continuous
 62
     2
370
     9
100
AcDbLine
 10
-1614.636183534631
 20
780.8718583603206
 30
0.0
 11
-1614.636183534631
 21
598.8718125839533
 31
0.0
  0
LINE
  5
16B
330
1F
100
AcDbEntity
  8
C-1
  6
Continuous
 62
     2
370
     9
100
AcDbLine
 10
-333.9573505268179
 20
780.8718583603206
 30
0.0
 11
-299.3166644916616
 21
800.871949913055
 31
0.0
  0
LINE
  5
16C
330
1F
100
AcDbEntity
  8
C-1
  6
Continuous
 62
     2
370
     9
100
AcDbLine
 10
-316.636793886193
 20
982.8720109482111
 30
0.0
 11
-316.636793886193
 21
800.871949913055
 31
0.0
  0
LINE
  5
16D
330
1F
100
AcDbEntity
  8
C-1
  6
Continuous
 62
     2
370
     9
100
AcDbLine
 10
-316.636793886193
 20
800.871949913055
 30
0.0
 11
-299.3166644916616
 21
800.871949913055
 31
0.0
  0
LINE
  5
16E
330
1F
100
AcDbEntity
  8
C-1
  6
Continuous
 62
     2
370
     9
100
AcDbLine
 10
-333.9573505268179
 20
780.8718583603206
 30
0.0
 11
-316.636793886193
 21
780.8718583603206
 31
0.0
  0
LINE
  5
16F
330
1F
100
AcDbEntity
  8
C-1
  6
Continuous
 62
     2
370
     9
100
AcDbLine
 10
-316.636793886193
 20
780.8718583603206
 30
0.0
 11
-316.636793886193
 21
598.8718125839533
 31
0.0
  0
LINE
  5
170
330
1F
100
AcDbEntity
  8
C-4
  6
Continuous
 62
     7
370
     9
100
AcDbLine
 10
-1464.636473451623
 20
974.8706681747738
 30
0.0
 11
-1464.636473451623
 21
1057.870607139618
 31
0.0
  0
LINE
  5
171
330
1F
100
AcDbEntity
  8
C-4
  6
Continuous
 62
     7
370
     9
100
AcDbLine
 10
-1462.635771547325
 20
974.8706681747738
 30
0.0
 11
-1462.635771547325
 21
1137.871034385711
 31
0.0
  0
LINE
  5
172
330
1F
100
AcDbEntity
  8
C-4
  6
Continuous
 62
     7
370
     9
100
AcDbLine
 10
-468.6361835346303
 20
974.8706681747738
 30
0.0
 11
-468.6361835346303
 21
1057.870607139618
 31
0.0
  0
LINE
  5
173
330
1F
100
AcDbEntity
  8
C-4
  6
Continuous
 62
     7
370
     9
100
AcDbLine
 10
-466.6364887104117
 20
974.8706681747738
 30
0.0
 11
-466.6364887104117
 21
1137.871034385711
 31
0.0
  0
LINE
  5
174
330
1F
100
AcDbEntity
  8
C-4
  6
Continuous
 62
     7
370
     9
100
AcDbLine
 10
-1614.636183534631
 20
1134.870424034149
 30
0.0
 11
-316.636793886193
 21
1134.870424034149
 31
0.0
  0
LINE
  5
175
330
1F
100
AcDbEntity
  8
C-4
  6
Continuous
 62
     7
370
     9
100
AcDbLine
 10
-1614.636183534631
 20
1054.871095420868
 30
0.0
 11
-316.636793886193
 21
1054.871095420868
 31
0.0
  0
LINE
  5
176
330
1F
100
AcDbEntity
  8
C-5
  6
Continuous
 62
     7
370
     9
100
AcDbLine
 10
-1254.135573183068
 20
453.8723771591486
 30
0.0
 11
-1254.135573183068
 21
518.8719346542658
 31
0.0
  0
LINE
  5
177
330
1F
100
AcDbEntity
  8
C-5
  6
Continuous
 62
     7
370
     9
100
AcDbLine
 10
-1254.135573183068
 20
518.8719346542658
 30
0.0
 11
-679.1356342182241
 21
518.8719346542658
 31
0.0
  0
LINE
  5
178
330
1F
100
AcDbEntity
  8
C-5
  6
Continuous
 62
     7
370
     9
100
AcDbLine
 10
-679.1356342182241
 20
518.8719346542658
 30
0.0
 11
-679.1356342182241
 21
453.8723771591486
 31
0.0
  0
LINE
  5
179
330
1F
100
AcDbEntity
  8
C-5
  6
Continuous
 62
     7
370
     9
100
AcDbLine
 10
-679.1356342182241
 20
453.8723771591486
 30
0.0
 11
-1254.135573183068
 21
453.8723771591486
 31
0.0
  0
LINE
  5
17A
330
1F
100
AcDbEntity
  8
C-9
  6
Continuous
 62
     6
370
     5
100
AcDbLine
 10
-1462.635771547325
 20
826.9811723251644
 30
0.0
 11
-1462.122221742638
 21
826.4678666611019
 31
0.0
  0
LINE
  5
17B
330
1F
100
AcDbEntity
  8
C-9
  6
Continuous
 62
     6
370
     5
100
AcDbLine
 10
-1462.635771547325
 20
829.8098161239923
 30
0.0
 11
-1460.533995424279
 21
827.7080400009456
 31
0.0
  0
LINE
  5
17C
330
1F
100
AcDbEntity
  8
C-9
  6
Continuous
 62
     6
370
     5
100
AcDbLine
 10
-1462.635771547325
 20
832.6379411239924
 30
0.0
 11
-1458.945769105919
 21
828.9481828232113
 31
0.0
  0
LINE
  5
17D
330
1F
100
AcDbEntity
  8
C-9
  6
Continuous
 62
     6
370
     5
100
AcDbLine
 10
-1462.635771547325
 20
835.4665849228206
 30
0.0
 11
-1458.635603700646
 21
831.4666764755549
 31
0.0
  0
LINE
  5
17E
330
1F
100
AcDbEntity
  8
C-9
  6
Continuous
 62
     6
370
     5
100
AcDbLine
 10
-1462.635771547325
 20
838.2947099228205
 30
0.0
 11
-1458.635603700646
 21
834.294801475555
 31
0.0
  0
LINE
  5
17F
330
1F
100
AcDbEntity
  8
C-9
  6
Continuous
 62
     6
370
     5
100
AcDbLine
 10
-1462.635771547325
 20
841.1233537216486
 30
0.0
 11
-1458.635603700646
 21
837.123445274383
 31
0.0
  0
LINE
  5
180
330
1F
100
AcDbEntity
  8
C-9
  6
Continuous
 62
     6
370
     5
100
AcDbLine
 10
-1462.635771547325
 20
843.9514787216488
 30
0.0
 11
-1458.635603700646
 21
839.9515702743829
 31
0.0
  0
LINE
  5
181
330
1F
100
AcDbEntity
  8
C-9
  6
Continuous
 62
     6
370
     5
100
AcDbLine
 10
-1462.635771547325
 20
846.7801225204768
 30
0.0
 11
-1458.635603700646
 21
842.7802140732113
 31
0.0
  0
LINE
  5
182
330
1F
100
AcDbEntity
  8
C-9
  6
Continuous
 62
     6
370
     5
100
AcDbLine
 10
-1462.635771547325
 20
849.6087358017269
 30
0.0
 11
-1458.635603700646
 21
845.6088273544611
 31
0.0
  0
LINE
  5
183
330
1F
100
AcDbEntity
  8
C-9
  6
Continuous
 62
     6
370
     5
100
AcDbLine
 10
-1462.635771547325
 20
852.436891319305
 30
0.0
 11
-1458.635603700646
 21
848.4369523544613
 31
0.0
  0
LINE
  5
184
330
1F
100
AcDbEntity
  8
C-9
  6
Continuous
 62
     6
370
     5
100
AcDbLine
 10
-1462.635771547325
 20
855.2655046005549
 30
0.0
 11
-1458.635603700646
 21
851.2655961532893
 31
0.0
  0
LINE
  5
185
330
1F
100
AcDbEntity
  8
C-9
  6
Continuous
 62
     6
370
     5
100
AcDbLine
 10
-1462.635771547325
 20
858.0936601181329
 30
0.0
 11
-1458.635603700646
 21
854.0937211532892
 31
0.0
  0
LINE
  5
186
330
1F
100
AcDbEntity
  8
C-9
  6
Continuous
 62
     6
370
     5
100
AcDbLine
 10
-1462.635771547325
 20
860.922273399383
 30
0.0
 11
-1458.635603700646
 21
856.9223649521175
 31
0.0
  0
LINE
  5
187
330
1F
100
AcDbEntity
  8
C-9
  6
Continuous
 62
     6
370
     5
100
AcDbLine
 10
-1462.635771547325
 20
863.7504289169613
 30
0.0
 11
-1458.635603700646
 21
859.7504899521175
 31
0.0
  0
LINE
  5
188
330
1F
100
AcDbEntity
  8
C-9
  6
Continuous
 62
     6
370
     5
100
AcDbLine
 10
-1462.635771547325
 20
866.5790421982113
 30
0.0
 11
-1458.635603700646
 21
862.5791337509454
 31
0.0
  0
LINE
  5
189
330
1F
100
AcDbEntity
  8
C-9
  6
Continuous
 62
     6
370
     5
100
AcDbLine
 10
-1462.635771547325
 20
869.4076859970393
 30
0.0
 11
-1458.635603700646
 21
865.4072587509455
 31
0.0
  0
LINE
  5
18A
330
1F
100
AcDbEntity
  8
C-9
  6
Continuous
 62
     6
370
     5
100
AcDbLine
 10
-1462.635771547325
 20
872.2358109970392
 30
0.0
 11
-1458.635603700646
 21
868.2359025497738
 31
0.0
  0
LINE
  5
18B
330
1F
100
AcDbEntity
  8
C-9
  6
Continuous
 62
     6
370
     5
100
AcDbLine
 10
-1462.635771547325
 20
875.0644547958675
 30
0.0
 11
-1458.635603700646
 21
871.0645158310238
 31
0.0
  0
LINE
  5
18C
330
1F
100
AcDbEntity
  8
C-9
  6
Continuous
 62
     6
370
     5
100
AcDbLine
 10
-1462.635771547325
 20
877.8925797958675
 30
0.0
 11
-1458.635603700646
 21
873.8926713486018
 31
0.0
  0
LINE
  5
18D
330
1F
100
AcDbEntity
  8
C-9
  6
Continuous
 62
     6
370
     5
100
AcDbLine
 10
-1462.635771547325
 20
880.7212235946954
 30
0.0
 11
-1458.635603700646
 21
876.7212846298517
 31
0.0
  0
LINE
  5
18E
330
1F
100
AcDbEntity
  8
C-9
  6
Continuous
 62
     6
370
     5
100
AcDbLine
 10
-1462.635771547325
 20
883.5498368759455
 30
0.0
 11
-1458.635603700646
 21
879.5494401474299
 31
0.0
  0
LINE
  5
18F
330
1F
100
AcDbEntity
  8
C-9
  6
Continuous
 62
     6
370
     5
100
AcDbLine
 10
-1462.635771547325
 20
886.3779923935238
 30
0.0
 11
-1458.635603700646
 21
882.37805342868
 31
0.0
  0
LINE
  5
190
330
1F
100
AcDbEntity
  8
C-9
  6
Continuous
 62
     6
370
     5
100
AcDbLine
 10
-1462.635771547325
 20
889.2066056747738
 30
0.0
 11
-1458.635603700646
 21
885.2062089462581
 31
0.0
  0
LINE
  5
191
330
1F
100
AcDbEntity
  8
C-9
  6
Continuous
 62
     6
370
     5
100
AcDbLine
 10
-1462.635771547325
 20
892.0347611923518
 30
0.0
 11
-1458.635603700646
 21
888.034822227508
 31
0.0
  0
LINE
  5
192
330
1F
100
AcDbEntity
  8
C-9
  6
Continuous
 62
     6
370
     5
100
AcDbLine
 10
-1462.635771547325
 20
894.8633744736017
 30
0.0
 11
-1458.635603700646
 21
890.8634660263363
 31
0.0
  0
LINE
  5
193
330
1F
100
AcDbEntity
  8
C-9
  6
Continuous
 62
     6
370
     5
100
AcDbLine
 10
-1462.635771547325
 20
897.6915299911799
 30
0.0
 11
-1458.635603700646
 21
893.6915910263361
 31
0.0
  0
LINE
  5
194
330
1F
100
AcDbEntity
  8
C-9
  6
Continuous
 62
     6
370
     5
100
AcDbLine
 10
-1462.635771547325
 20
900.52014327243
 30
0.0
 11
-1458.635603700646
 21
896.5202348251643
 31
0.0
  0
LINE
  5
195
330
1F
100
AcDbEntity
  8
C-9
  6
Continuous
 62
     6
370
     5
100
AcDbLine
 10
-1462.635771547325
 20
903.3487870712579
 30
0.0
 11
-1458.635603700646
 21
899.3483598251644
 31
0.0
  0
LINE
  5
196
330
1F
100
AcDbEntity
  8
C-9
  6
Continuous
 62
     6
370
     5
100
AcDbLine
 10
-1462.635771547325
 20
906.176912071258
 30
0.0
 11
-1458.635603700646
 21
902.1770036239924
 31
0.0
  0
LINE
  5
197
330
1F
100
AcDbEntity
  8
C-9
  6
Continuous
 62
     6
370
     5
100
AcDbLine
 10
-1462.635771547325
 20
909.005067588836
 30
0.0
 11
-1458.635603700646
 21
905.0051286239923
 31
0.0
  0
LINE
  5
198
330
1F
100
AcDbEntity
  8
C-9
  6
Continuous
 62
     6
370
     5
100
AcDbLine
 10
-1462.635771547325
 20
911.8336808700861
 30
0.0
 11
-1458.635603700646
 21
907.8337724228206
 31
0.0
  0
LINE
  5
199
330
1F
100
AcDbEntity
  8
C-9
  6
Continuous
 62
     6
370
     5
100
AcDbLine
 10
-1462.635771547325
 20
914.6623246689143
 30
0.0
 11
-1458.635603700646
 21
910.6623857040705
 31
0.0
  0
LINE
  5
19A
330
1F
100
AcDbEntity
  8
C-9
  6
Continuous
 62
     6
370
     5
100
AcDbLine
 10
-1462.635771547325
 20
917.4904496689144
 30
0.0
 11
-1458.635603700646
 21
913.4905412216485
 31
0.0
  0
LINE
  5
19B
330
1F
100
AcDbEntity
  8
C-9
  6
Continuous
 62
     6
370
     5
100
AcDbLine
 10
-1462.635771547325
 20
920.3190934677424
 30
0.0
 11
-1458.635603700646
 21
916.3191545028986
 31
0.0
  0
LINE
  5
19C
330
1F
100
AcDbEntity
  8
C-9
  6
Continuous
 62
     6
370
     5
100
AcDbLine
 10
-1462.635771547325
 20
923.1477067489925
 30
0.0
 11
-1458.635603700646
 21
919.1473100204769
 31
0.0
  0
LINE
  5
19D
330
1F
100
AcDbEntity
  8
C-9
  6
Continuous
 62
     6
370
     5
100
AcDbLine
 10
-1462.635771547325
 20
925.9758622665706
 30
0.0
 11
-1458.635603700646
 21
921.9759233017269
 31
0.0
  0
LINE
  5
19E
330
1F
100
AcDbEntity
  8
C-9
  6
Continuous
 62
     6
370
     5
100
AcDbLine
 10
-1462.635771547325
 20
928.8039872665706
 30
0.0
 11
-1458.635603700646
 21
924.8040788193049
 31
0.0
  0
LINE
  5
19F
330
1F
100
AcDbEntity
  8
C-9
  6
Continuous
 62
     6
370
     5
100
AcDbLine
 10
-1462.635771547325
 20
931.6326310653985
 30
0.0
 11
-1458.635603700646
 21
927.6326921005548
 31
0.0
  0
LINE
  5
1A0
330
1F
100
AcDbEntity
  8
C-9
  6
Continuous
 62
     6
370
     5
100
AcDbLine
 10
-1461.046309267052
 20
932.8717973251642
 30
0.0
 11
-1458.635603700646
 21
930.4613358993831
 31
0.0
  0
LINE
  5
1A1
330
1F
100
AcDbEntity
  8
C-9
  6
Continuous
 62
     6
370
     5
100
AcDbLine
 10
-1462.635771547325
 20
827.2581498642268
 30
0.0
 11
-1458.635603700646
 21
831.2580583114925
 31
0.0
  0
LINE
  5
1A2
330
1F
100
AcDbEntity
  8
C-9
  6
Continuous
 62
     6
370
     5
100
AcDbLine
 10
-1462.635771547325
 20
830.086793663055
 30
0.0
 11
-1458.635603700646
 21
834.0867021103204
 31
0.0
  0
LINE
  5
1A3
330
1F
100
AcDbEntity
  8
C-9
  6
Continuous
 62
     6
370
     5
100
AcDbLine
 10
-1462.635771547325
 20
832.9149186630549
 30
0.0
 11
-1458.635603700646
 21
836.9148271103205
 31
0.0
  0
LINE
  5
1A4
330
1F
100
AcDbEntity
  8
C-9
  6
Continuous
 62
     6
370
     5
100
AcDbLine
 10
-1462.635771547325
 20
835.743562461883
 30
0.0
 11
-1458.635603700646
 21
839.7434709091488
 31
0.0
  0
LINE
  5
1A5
330
1F
100
AcDbEntity
  8
C-9
  6
Continuous
 62
     6
370
     5
100
AcDbLine
 10
-1462.635771547325
 20
838.5716874618831
 30
0.0
 11
-1458.635603700646
 21
842.5721147079767
 31
0.0
  0
LINE
  5
1A6
330
1F
100
AcDbEntity
  8
C-9
  6
Continuous
 62
     6
370
     5
100
AcDbLine
 10
-1462.635771547325
 20
841.4003312607111
 30
0.0
 11
-1458.635603700646
 21
845.4002397079768
 31
0.0
  0
LINE
  5
1A7
330
1F
100
AcDbEntity
  8
C-9
  6
Continuous
 62
     6
370
     5
100
AcDbLine
 10
-1462.635771547325
 20
844.228456260711
 30
0.0
 11
-1458.635603700646
 21
848.228883506805
 31
0.0
  0
LINE
  5
1A8
330
1F
100
AcDbEntity
  8
C-9
  6
Continuous
 62
     6
370
     5
100
AcDbLine
 10
-1462.635771547325
 20
847.0571000595394
 30
0.0
 11
-1458.635603700646
 21
851.0570085068049
 31
0.0
  0
LINE
  5
1A9
330
1F
100
AcDbEntity
  8
C-9
  6
Continuous
 62
     6
370
     5
100
AcDbLine
 10
-1462.635771547325
 20
849.8857133407893
 30
0.0
 11
-1458.635603700646
 21
853.885621788055
 31
0.0
  0
LINE
  5
1AA
330
1F
100
AcDbEntity
  8
C-9
  6
Continuous
 62
     6
370
     5
100
AcDbLine
 10
-1462.635771547325
 20
852.7138383407894
 30
0.0
 11
-1458.635603700646
 21
856.7137773056331
 31
0.0
  0
LINE
  5
1AB
330
1F
100
AcDbEntity
  8
C-9
  6
Continuous
 62
     6
370
     5
100
AcDbLine
 10
-1462.635771547325
 20
855.5424821396174
 30
0.0
 11
-1458.635603700646
 21
859.542390586883
 31
0.0
  0
LINE
  5
1AC
330
1F
100
AcDbEntity
  8
C-9
  6
Continuous
 62
     6
370
     5
100
AcDbLine
 10
-1462.635771547325
 20
858.3706071396173
 30
0.0
 11
-1458.635603700646
 21
862.3710343857113
 31
0.0
  0
LINE
  5
1AD
330
1F
100
AcDbEntity
  8
C-9
  6
Continuous
 62
     6
370
     5
100
AcDbLine
 10
-1462.635771547325
 20
861.1992509384456
 30
0.0
 11
-1458.635603700646
 21
865.1991593857111
 31
0.0
  0
LINE
  5
1AE
330
1F
100
AcDbEntity
  8
C-9
  6
Continuous
 62
     6
370
     5
100
AcDbLine
 10
-1462.635771547325
 20
864.0273759384456
 30
0.0
 11
-1458.635603700646
 21
868.0278031845393
 31
0.0
  0
LINE
  5
1AF
330
1F
100
AcDbEntity
  8
C-9
  6
Continuous
 62
     6
370
     5
100
AcDbLine
 10
-1462.635771547325
 20
866.8560197372735
 30
0.0
 11
-1458.635603700646
 21
870.8559281845394
 31
0.0
  0
LINE
  5
1B0
330
1F
100
AcDbEntity
  8
C-9
  6
Continuous
 62
     6
370
     5
100
AcDbLine
 10
-1462.635771547325
 20
869.6846635361019
 30
0.0
 11
-1458.635603700646
 21
873.6845719833674
 31
0.0
  0
LINE
  5
1B1
330
1F
100
AcDbEntity
  8
C-9
  6
Continuous
 62
     6
370
     5
100
AcDbLine
 10
-1462.635771547325
 20
872.5127885361019
 30
0.0
 11
-1458.635603700646
 21
876.5126969833673
 31
0.0
  0
LINE
  5
1B2
330
1F
100
AcDbEntity
  8
C-9
  6
Continuous
 62
     6
370
     5
100
AcDbLine
 10
-1462.635771547325
 20
875.3414323349298
 30
0.0
 11
-1458.635603700646
 21
879.3413407821956
 31
0.0
  0
LINE
  5
1B3
330
1F
100
AcDbEntity
  8
C-9
  6
Continuous
 62
     6
370
     5
100
AcDbLine
 10
-1462.635771547325
 20
878.1695573349299
 30
0.0
 11
-1458.635603700646
 21
882.1699540634455
 31
0.0
  0
LINE
  5
1B4
330
1F
100
AcDbEntity
  8
C-9
  6
Continuous
 62
     6
370
     5
100
AcDbLine
 10
-1462.635771547325
 20
880.9981706161798
 30
0.0
 11
-1458.635603700646
 21
884.9981095810235
 31
0.0
  0
LINE
  5
1B5
330
1F
100
AcDbEntity
  8
C-9
  6
Continuous
 62
     6
370
     5
100
AcDbLine
 10
-1462.635771547325
 20
883.826326133758
 30
0.0
 11
-1458.635603700646
 21
887.8267228622736
 31
0.0
  0
LINE
  5
1B6
330
1F
100
AcDbEntity
  8
C-9
  6
Continuous
 62
     6
370
     5
100
AcDbLine
 10
-1462.635771547325
 20
886.6549394150081
 30
0.0
 11
-1458.635603700646
 21
890.6548783798519
 31
0.0
  0
LINE
  5
1B7
330
1F
100
AcDbEntity
  8
C-9
  6
Continuous
 62
     6
370
     5
100
AcDbLine
 10
-1462.635771547325
 20
889.483583213836
 30
0.0
 11
-1458.635603700646
 21
893.4834916611019
 31
0.0
  0
LINE
  5
1B8
330
1F
100
AcDbEntity
  8
C-9
  6
Continuous
 62
     6
370
     5
100
AcDbLine
 10
-1462.635771547325
 20
892.3117082138361
 30
0.0
 11
-1458.635603700646
 21
896.3116471786799
 31
0.0
  0
LINE
  5
1B9
330
1F
100
AcDbEntity
  8
C-9
  6
Continuous
 62
     6
370
     5
100
AcDbLine
 10
-1462.635771547325
 20
895.1403520126644
 30
0.0
 11
-1458.635603700646
 21
899.1402604599298
 31
0.0
  0
LINE
  5
1BA
330
1F
100
AcDbEntity
  8
C-9
  6
Continuous
 62
     6
370
     5
100
AcDbLine
 10
-1462.635771547325
 20
897.9684770126643
 30
0.0
 11
-1458.635603700646
 21
901.968415977508
 31
0.0
  0
LINE
  5
1BB
330
1F
100
AcDbEntity
  8
C-9
  6
Continuous
 62
     6
370
     5
100
AcDbLine
 10
-1462.635771547325
 20
900.7971208114924
 30
0.0
 11
-1458.635603700646
 21
904.7970292587581
 31
0.0
  0
LINE
  5
1BC
330
1F
100
AcDbEntity
  8
C-9
  6
Continuous
 62
     6
370
     5
100
AcDbLine
 10
-1462.635771547325
 20
903.6257340927423
 30
0.0
 11
-1458.635603700646
 21
907.625673057586
 31
0.0
  0
LINE
  5
1BD
330
1F
100
AcDbEntity
  8
C-9
  6
Continuous
 62
     6
370
     5
100
AcDbLine
 10
-1462.635771547325
 20
906.4538896103205
 30
0.0
 11
-1458.635603700646
 21
910.4537980575861
 31
0.0
  0
LINE
  5
1BE
330
1F
100
AcDbEntity
  8
C-9
  6
Continuous
 62
     6
370
     5
100
AcDbLine
 10
-1462.635771547325
 20
909.2825028915706
 30
0.0
 11
-1458.635603700646
 21
913.2824418564144
 31
0.0
  0
LINE
  5
1BF
330
1F
100
AcDbEntity
  8
C-9
  6
Continuous
 62
     6
370
     5
100
AcDbLine
 10
-1462.635771547325
 20
912.1106584091488
 30
0.0
 11
-1458.635603700646
 21
916.1105668564143
 31
0.0
  0
LINE
  5
1C0
330
1F
100
AcDbEntity
  8
C-9
  6
Continuous
 62
     6
370
     5
100
AcDbLine
 10
-1462.635771547325
 20
914.9392716903986
 30
0.0
 11
-1458.635603700646
 21
918.9392106552424
 31
0.0
  0
LINE
  5
1C1
330
1F
100
AcDbEntity
  8
C-9
  6
Continuous
 62
     6
370
     5
100
AcDbLine
 10
-1462.635771547325
 20
917.7674272079767
 30
0.0
 11
-1458.635603700646
 21
921.7678239364923
 31
0.0
  0
LINE
  5
1C2
330
1F
100
AcDbEntity
  8
C-9
  6
Continuous
 62
     6
370
     5
100
AcDbLine
 10
-1462.635771547325
 20
920.5960404892268
 30
0.0
 11
-1458.635603700646
 21
924.5959794540705
 31
0.0
  0
LINE
  5
1C3
330
1F
100
AcDbEntity
  8
C-9
  6
Continuous
 62
     6
370
     5
100
AcDbLine
 10
-1462.635771547325
 20
923.4246842880549
 30
0.0
 11
-1458.635603700646
 21
927.4245927353206
 31
0.0
  0
LINE
  5
1C4
330
1F
100
AcDbEntity
  8
C-9
  6
Continuous
 62
     6
370
     5
100
AcDbLine
 10
-1462.635771547325
 20
926.252809288055
 30
0.0
 11
-1458.635603700646
 21
930.2527482528988
 31
0.0
  0
LINE
  5
1C5
330
1F
100
AcDbEntity
  8
C-9
  6
Continuous
 62
     6
370
     5
100
AcDbLine
 10
-1462.635771547325
 20
929.080964805633
 30
0.0
 11
-1458.845198427209
 21
932.8717973251642
 31
0.0
  0
LINE
  5
1C6
330
1F
100
AcDbEntity
  8
C-9
  6
Continuous
 62
     6
370
     5
100
AcDbLine
 10
-1462.635771547325
 20
931.9095780868829
 30
0.0
 11
-1461.673826967248
 21
932.8717973251642
 31
0.0
  0
LINE
  5
1C7
330
1F
100
AcDbEntity
  8
C-9
  6
Continuous
 62
     6
370
     5
100
AcDbLine
 10
-1447.635954652794
 20
839.4298417587581
 30
0.0
 11
-1443.63603094674
 21
843.4297502060236
 31
0.0
  0
LINE
  5
1C8
330
1F
100
AcDbEntity
  8
C-9
  6
Continuous
 62
     6
370
     5
100
AcDbLine
 10
-1447.635954652794
 20
842.2579667587581
 30
0.0
 11
-1443.63603094674
 21
846.2583940048518
 31
0.0
  0
LINE
  5
1C9
330
1F
100
AcDbEntity
  8
C-9
  6
Continuous
 62
     6
370
     5
100
AcDbLine
 10
-1447.635954652794
 20
845.086610557586
 30
0.0
 11
-1443.63603094674
 21
849.0865190048519
 31
0.0
  0
LINE
  5
1CA
330
1F
100
AcDbEntity
  8
C-9
  6
Continuous
 62
     6
370
     5
100
AcDbLine
 10
-1447.635954652794
 20
847.9152238388361
 30
0.0
 11
-1443.63603094674
 21
851.9151628036799
 31
0.0
  0
LINE
  5
1CB
330
1F
100
AcDbEntity
  8
C-9
  6
Continuous
 62
     6
370
     5
100
AcDbLine
 10
-1447.635954652794
 20
850.7433793564144
 30
0.0
 11
-1443.63603094674
 21
854.7432878036798
 31
0.0
  0
LINE
  5
1CC
330
1F
100
AcDbEntity
  8
C-9
  6
Continuous
 62
     6
370
     5
100
AcDbLine
 10
-1447.635954652794
 20
853.5719926376644
 30
0.0
 11
-1443.63603094674
 21
857.5719316025081
 31
0.0
  0
LINE
  5
1CD
330
1F
100
AcDbEntity
  8
C-9
  6
Continuous
 62
     6
370
     5
100
AcDbLine
 10
-1447.635954652794
 20
856.4001481552424
 30
0.0
 11
-1443.63603094674
 21
860.400544883758
 31
0.0
  0
LINE
  5
1CE
330
1F
100
AcDbEntity
  8
C-9
  6
Continuous
 62
     6
370
     5
100
AcDbLine
 10
-1447.635954652794
 20
859.2287614364923
 30
0.0
 11
-1443.63603094674
 21
863.228700401336
 31
0.0
  0
LINE
  5
1CF
330
1F
100
AcDbEntity
  8
C-9
  6
Continuous
 62
     6
370
     5
100
AcDbLine
 10
-1447.635954652794
 20
862.0574052353206
 30
0.0
 11
-1443.63603094674
 21
866.0573136825861
 31
0.0
  0
LINE
  5
1D0
330
1F
100
AcDbEntity
  8
C-9
  6
Continuous
 62
     6
370
     5
100
AcDbLine
 10
-1447.635954652794
 20
864.8855302353206
 30
0.0
 11
-1443.63603094674
 21
868.8854692001644
 31
0.0
  0
LINE
  5
1D1
330
1F
100
AcDbEntity
  8
C-9
  6
Continuous
 62
     6
370
     5
100
AcDbLine
 10
-1447.635954652794
 20
867.7141740341485
 30
0.0
 11
-1443.63603094674
 21
871.7140824814144
 31
0.0
  0
LINE
  5
1D2
330
1F
100
AcDbEntity
  8
C-9
  6
Continuous
 62
     6
370
     5
100
AcDbLine
 10
-1447.635954652794
 20
870.5422990341486
 30
0.0
 11
-1443.63603094674
 21
874.5422379989924
 31
0.0
  0
LINE
  5
1D3
330
1F
100
AcDbEntity
  8
C-9
  6
Continuous
 62
     6
370
     5
100
AcDbLine
 10
-1447.635954652794
 20
873.3709428329769
 30
0.0
 11
-1443.63603094674
 21
877.3708512802423
 31
0.0
  0
LINE
  5
1D4
330
1F
100
AcDbEntity
  8
C-9
  6
Continuous
 62
     6
370
     5
100
AcDbLine
 10
-1447.635954652794
 20
876.1990678329768
 30
0.0
 11
-1443.63603094674
 21
880.1994950790706
 31
0.0
  0
LINE
  5
1D5
330
1F
100
AcDbEntity
  8
C-9
  6
Continuous
 62
     6
370
     5
100
AcDbLine
 10
-1447.635954652794
 20
879.0277116318049
 30
0.0
 11
-1443.63603094674
 21
883.0276200790706
 31
0.0
  0
LINE
  5
1D6
330
1F
100
AcDbEntity
  8
C-9
  6
Continuous
 62
     6
370
     5
100
AcDbLine
 10
-1447.635954652794
 20
881.855836631805
 30
0.0
 11
-1443.63603094674
 21
885.8562638778985
 31
0.0
  0
LINE
  5
1D7
330
1F
100
AcDbEntity
  8
C-9
  6
Continuous
 62
     6
370
     5
100
AcDbLine
 10
-1447.635954652794
 20
884.684480430633
 30
0.0
 11
-1443.63603094674
 21
888.6843888778986
 31
0.0
  0
LINE
  5
1D8
330
1F
100
AcDbEntity
  8
C-9
  6
Continuous
 62
     6
370
     5
100
AcDbLine
 10
-1447.635954652794
 20
887.5130937118831
 30
0.0
 11
-1443.63603094674
 21
891.5130326767269
 31
0.0
  0
LINE
  5
1D9
330
1F
100
AcDbEntity
  8
C-9
  6
Continuous
 62
     6
370
     5
100
AcDbLine
 10
-1447.635954652794
 20
890.3412492294613
 30
0.0
 11
-1443.63603094674
 21
894.3411576767268
 31
0.0
  0
LINE
  5
1DA
330
1F
100
AcDbEntity
  8
C-9
  6
Continuous
 62
     6
370
     5
100
AcDbLine
 10
-1447.635954652794
 20
893.1698625107111
 30
0.0
 11
-1443.63603094674
 21
897.1698014755549
 31
0.0
  0
LINE
  5
1DB
330
1F
100
AcDbEntity
  8
C-9
  6
Continuous
 62
     6
370
     5
100
AcDbLine
 10
-1447.635954652794
 20
895.9980180282892
 30
0.0
 11
-1443.63603094674
 21
899.9984147568048
 31
0.0
  0
LINE
  5
1DC
330
1F
100
AcDbEntity
  8
C-9
  6
Continuous
 62
     6
370
     5
100
AcDbLine
 10
-1447.635954652794
 20
898.8266313095393
 30
0.0
 11
-1443.63603094674
 21
902.826570274383
 31
0.0
  0
LINE
  5
1DD
330
1F
100
AcDbEntity
  8
C-9
  6
Continuous
 62
     6
370
     5
100
AcDbLine
 10
-1447.635954652794
 20
901.6547868271175
 30
0.0
 11
-1443.63603094674
 21
905.6551835556331
 31
0.0
  0
LINE
  5
1DE
330
1F
100
AcDbEntity
  8
C-9
  6
Continuous
 62
     6
370
     5
100
AcDbLine
 10
-1447.635954652794
 20
904.4834001083675
 30
0.0
 11
-1443.63603094674
 21
908.4833390732113
 31
0.0
  0
LINE
  5
1DF
330
1F
100
AcDbEntity
  8
C-9
  6
Continuous
 62
     6
370
     5
100
AcDbLine
 10
-1447.635954652794
 20
907.3120439071955
 30
0.0
 11
-1443.63603094674
 21
911.3119523544611
 31
0.0
  0
LINE
  5
1E0
330
1F
100
AcDbEntity
  8
C-9
  6
Continuous
 62
     6
370
     5
100
AcDbLine
 10
-1447.635954652794
 20
910.1401689071954
 30
0.0
 11
-1443.63603094674
 21
914.1400773544613
 31
0.0
  0
LINE
  5
1E1
330
1F
100
AcDbEntity
  8
C-9
  6
Continuous
 62
     6
370
     5
100
AcDbLine
 10
-1447.635954652794
 20
912.9688127060238
 30
0.0
 11
-1443.63603094674
 21
916.9687211532893
 31
0.0
  0
LINE
  5
1E2
330
1F
100
AcDbEntity
  8
C-9
  6
Continuous
 62
     6
370
     5
100
AcDbLine
 10
-1447.635954652794
 20
915.7969377060238
 30
0.0
 11
-1443.63603094674
 21
919.7973649521174
 31
0.0
  0
LINE
  5
1E3
330
1F
100
AcDbEntity
  8
C-9
  6
Continuous
 62
     6
370
     5
100
AcDbLine
 10
-1447.635954652794
 20
918.6255815048517
 30
0.0
 11
-1443.63603094674
 21
922.6254899521175
 31
0.0
  0
LINE
  5
1E4
330
1F
100
AcDbEntity
  8
C-9
  6
Continuous
 62
     6
370
     5
100
AcDbLine
 10
-1447.635954652794
 20
921.4537065048518
 30
0.0
 11
-1443.63603094674
 21
925.4536149521175
 31
0.0
  0
LINE
  5
1E5
330
1F
100
AcDbEntity
  8
C-9
  6
Continuous
 62
     6
370
     5
100
AcDbLine
 10
-1447.635954652794
 20
924.28235030368
 30
0.0
 11
-1443.63603094674
 21
928.2822587509454
 31
0.0
  0
LINE
  5
1E6
330
1F
100
AcDbEntity
  8
C-9
  6
Continuous
 62
     6
370
     5
100
AcDbLine
 10
-1447.635954652794
 20
927.11096358493
 30
0.0
 11
-1443.63603094674
 21
931.1109025497738
 31
0.0
  0
LINE
  5
1E7
330
1F
100
AcDbEntity
  8
C-9
  6
Continuous
 62
     6
370
     5
100
AcDbLine
 10
-1447.635954652794
 20
929.939119102508
 30
0.0
 11
-1444.703520570763
 21
932.8717973251642
 31
0.0
  0
LINE
  5
1E8
330
1F
100
AcDbEntity
  8
C-9
  6
Continuous
 62
     6
370
     5
100
AcDbLine
 10
-1447.635954652794
 20
932.7677323837579
 30
0.0
 11
-1447.531904970177
 21
932.8717973251642
 31
0.0
  0
LINE
  5
1E9
330
1F
100
AcDbEntity
  8
C-9
  6
Continuous
 62
     6
370
     5
100
AcDbLine
 10
-1447.635954652794
 20
840.2656877060236
 30
0.0
 11
-1446.239729677209
 21
838.8694779892268
 31
0.0
  0
LINE
  5
1EA
330
1F
100
AcDbEntity
  8
C-9
  6
Continuous
 62
     6
370
     5
100
AcDbLine
 10
-1447.635954652794
 20
843.0938432236019
 30
0.0
 11
-1444.651503358849
 21
840.1096208114925
 31
0.0
  0
LINE
  5
1EB
330
1F
100
AcDbEntity
  8
C-9
  6
Continuous
 62
     6
370
     5
100
AcDbLine
 10
-1447.635954652794
 20
845.9224565048519
 30
0.0
 11
-1443.63603094674
 21
841.922548057586
 31
0.0
  0
LINE
  5
1EC
330
1F
100
AcDbEntity
  8
C-9
  6
Continuous
 62
     6
370
     5
100
AcDbLine
 10
-1447.635954652794
 20
848.7506120224299
 30
0.0
 11
-1443.63603094674
 21
844.7506730575861
 31
0.0
  0
LINE
  5
1ED
330
1F
100
AcDbEntity
  8
C-9
  6
Continuous
 62
     6
370
     5
100
AcDbLine
 10
-1447.635954652794
 20
851.5792253036798
 30
0.0
 11
-1443.63603094674
 21
847.5793168564144
 31
0.0
  0
LINE
  5
1EE
330
1F
100
AcDbEntity
  8
C-9
  6
Continuous
 62
     6
370
     5
100
AcDbLine
 10
-1447.635954652794
 20
854.4073503036799
 30
0.0
 11
-1443.63603094674
 21
850.4074418564143
 31
0.0
  0
LINE
  5
1EF
330
1F
100
AcDbEntity
  8
C-9
  6
Continuous
 62
     6
370
     5
100
AcDbLine
 10
-1447.635954652794
 20
857.2359941025081
 30
0.0
 11
-1443.63603094674
 21
853.2360856552424
 31
0.0
  0
LINE
  5
1F0
330
1F
100
AcDbEntity
  8
C-9
  6
Continuous
 62
     6
370
     5
100
AcDbLine
 10
-1447.635954652794
 20
860.064119102508
 30
0.0
 11
-1443.63603094674
 21
856.0642106552425
 31
0.0
  0
LINE
  5
1F1
330
1F
100
AcDbEntity
  8
C-9
  6
Continuous
 62
     6
370
     5
100
AcDbLine
 10
-1447.635954652794
 20
862.8927629013361
 30
0.0
 11
-1443.63603094674
 21
858.8928544540705
 31
0.0
  0
LINE
  5
1F2
330
1F
100
AcDbEntity
  8
C-9
  6
Continuous
 62
     6
370
     5
100
AcDbLine
 10
-1447.635954652794
 20
865.7214067001644
 30
0.0
 11
-1443.63603094674
 21
861.7214677353206
 31
0.0
  0
LINE
  5
1F3
330
1F
100
AcDbEntity
  8
C-9
  6
Continuous
 62
     6
370
     5
100
AcDbLine
 10
-1447.635954652794
 20
868.5495317001643
 30
0.0
 11
-1443.63603094674
 21
864.5496232528988
 31
0.0
  0
LINE
  5
1F4
330
1F
100
AcDbEntity
  8
C-9
  6
Continuous
 62
     6
370
     5
100
AcDbLine
 10
-1447.635954652794
 20
871.3781754989924
 30
0.0
 11
-1443.63603094674
 21
867.3782365341486
 31
0.0
  0
LINE
  5
1F5
330
1F
100
AcDbEntity
  8
C-9
  6
Continuous
 62
     6
370
     5
100
AcDbLine
 10
-1447.635954652794
 20
874.2063004989925
 30
0.0
 11
-1443.63603094674
 21
870.2063920517267
 31
0.0
  0
LINE
  5
1F6
330
1F
100
AcDbEntity
  8
C-9
  6
Continuous
 62
     6
370
     5
100
AcDbLine
 10
-1447.635954652794
 20
877.0349442978205
 30
0.0
 11
-1443.63603094674
 21
873.0350053329768
 31
0.0
  0
LINE
  5
1F7
330
1F
100
AcDbEntity
  8
C-9
  6
Continuous
 62
     6
370
     5
100
AcDbLine
 10
-1447.635954652794
 20
879.8630692978204
 30
0.0
 11
-1443.63603094674
 21
875.863160850555
 31
0.0
  0
LINE
  5
1F8
330
1F
100
AcDbEntity
  8
C-9
  6
Continuous
 62
     6
370
     5
100
AcDbLine
 10
-1447.635954652794
 20
882.6916825790705
 30
0.0
 11
-1443.63603094674
 21
878.691774131805
 31
0.0
  0
LINE
  5
1F9
330
1F
100
AcDbEntity
  8
C-9
  6
Continuous
 62
     6
370
     5
100
AcDbLine
 10
-1447.635954652794
 20
885.5203263778986
 30
0.0
 11
-1443.63603094674
 21
881.520417930633
 31
0.0
  0
LINE
  5
1FA
330
1F
100
AcDbEntity
  8
C-9
  6
Continuous
 62
     6
370
     5
100
AcDbLine
 10
-1447.635954652794
 20
888.3484513778988
 30
0.0
 11
-1443.63603094674
 21
884.3485429306329
 31
0.0
  0
LINE
  5
1FB
330
1F
100
AcDbEntity
  8
C-9
  6
Continuous
 62
     6
370
     5
100
AcDbLine
 10
-1447.635954652794
 20
891.1770951767268
 30
0.0
 11
-1443.63603094674
 21
887.1771867294613
 31
0.0
  0
LINE
  5
1FC
330
1F
100
AcDbEntity
  8
C-9
  6
Continuous
 62
     6
370
     5
100
AcDbLine
 10
-1447.635954652794
 20
894.0057389755549
 30
0.0
 11
-1443.63603094674
 21
890.0053117294613
 31
0.0
  0
LINE
  5
1FD
330
1F
100
AcDbEntity
  8
C-9
  6
Continuous
 62
     6
370
     5
100
AcDbLine
 10
-1447.635954652794
 20
896.833863975555
 30
0.0
 11
-1443.63603094674
 21
892.8339555282892
 31
0.0
  0
LINE
  5
1FE
330
1F
100
AcDbEntity
  8
C-9
  6
Continuous
 62
     6
370
     5
100
AcDbLine
 10
-1447.635954652794
 20
899.661988975555
 30
0.0
 11
-1443.63603094674
 21
895.6620805282893
 31
0.0
  0
LINE
  5
1FF
330
1F
100
AcDbEntity
  8
C-9
  6
Continuous
 62
     6
370
     5
100
AcDbLine
 10
-1447.635954652794
 20
902.4906327743829
 30
0.0
 11
-1443.63603094674
 21
898.4907243271175
 31
0.0
  0
LINE
  5
200
330
1F
100
AcDbEntity
  8
C-9
  6
Continuous
 62
     6
370
     5
100
AcDbLine
 10
-1447.635954652794
 20
905.319246055633
 30
0.0
 11
-1443.63603094674
 21
901.3188493271174
 31
0.0
  0
LINE
  5
201
330
1F
100
AcDbEntity
  8
C-9
  6
Continuous
 62
     6
370
     5
100
AcDbLine
 10
-1447.635954652794
 20
908.1474015732113
 30
0.0
 11
-1443.63603094674
 21
904.1474626083675
 31
0.0
  0
LINE
  5
202
330
1F
100
AcDbEntity
  8
C-9
  6
Continuous
 62
     6
370
     5
100
AcDbLine
 10
-1447.635954652794
 20
910.9760148544613
 30
0.0
 11
-1443.63603094674
 21
906.9761064071954
 31
0.0
  0
LINE
  5
203
330
1F
100
AcDbEntity
  8
C-9
  6
Continuous
 62
     6
370
     5
100
AcDbLine
 10
-1447.635954652794
 20
913.8041703720393
 30
0.0
 11
-1443.63603094674
 21
909.8042314071955
 31
0.0
  0
LINE
  5
204
330
1F
100
AcDbEntity
  8
C-9
  6
Continuous
 62
     6
370
     5
100
AcDbLine
 10
-1447.635954652794
 20
916.6327836532892
 30
0.0
 11
-1443.63603094674
 21
912.6328752060238
 31
0.0
  0
LINE
  5
205
330
1F
100
AcDbEntity
  8
C-9
  6
Continuous
 62
     6
370
     5
100
AcDbLine
 10
-1447.635954652794
 20
919.4614274521175
 30
0.0
 11
-1443.63603094674
 21
915.4610002060236
 31
0.0
  0
LINE
  5
206
330
1F
100
AcDbEntity
  8
C-9
  6
Continuous
 62
     6
370
     5
100
AcDbLine
 10
-1447.635954652794
 20
922.2895524521175
 30
0.0
 11
-1443.63603094674
 21
918.2896440048518
 31
0.0
  0
LINE
  5
207
330
1F
100
AcDbEntity
  8
C-9
  6
Continuous
 62
     6
370
     5
100
AcDbLine
 10
-1447.635954652794
 20
925.1181962509454
 30
0.0
 11
-1443.63603094674
 21
921.11828780368
 31
0.0
  0
LINE
  5
208
330
1F
100
AcDbEntity
  8
C-9
  6
Continuous
 62
     6
370
     5
100
AcDbLine
 10
-1447.635954652794
 20
927.9463212509455
 30
0.0
 11
-1443.63603094674
 21
923.9464128036799
 31
0.0
  0
LINE
  5
209
330
1F
100
AcDbEntity
  8
C-9
  6
Continuous
 62
     6
370
     5
100
AcDbLine
 10
-1447.635954652794
 20
930.7749650497738
 30
0.0
 11
-1443.63603094674
 21
926.77502608493
 31
0.0
  0
LINE
  5
20A
330
1F
100
AcDbEntity
  8
C-9
  6
Continuous
 62
     6
370
     5
100
AcDbLine
 10
-1446.904387269982
 20
932.8717973251642
 30
0.0
 11
-1443.63603094674
 21
929.6031816025081
 31
0.0
  0
LINE
  5
20B
330
1F
100
AcDbEntity
  8
C-9
  6
Continuous
 62
     6
370
     5
100
AcDbLine
 10
-1444.076018129357
 20
932.8717973251642
 30
0.0
 11
-1443.63603094674
 21
932.431794883758
 31
0.0
  0
LINE
  5
20C
330
1F
100
AcDbEntity
  8
C-9
  6
Continuous
 62
     6
370
     5
100
AcDbLine
 10
-1432.635634218224
 20
850.721559288055
 30
0.0
 11
-1431.944960390099
 21
850.03088545993
 31
0.0
  0
LINE
  5
20D
330
1F
100
AcDbEntity
  8
C-9
  6
Continuous
 62
     6
370
     5
100
AcDbLine
 10
-1432.635634218224
 20
853.5497148056331
 30
0.0
 11
-1430.35673407174
 21
851.2710587997736
 31
0.0
  0
LINE
  5
20E
330
1F
100
AcDbEntity
  8
C-9
  6
Continuous
 62
     6
370
     5
100
AcDbLine
 10
-1432.635634218224
 20
856.378328086883
 30
0.0
 11
-1428.76850775338
 21
852.5107133407893
 31
0.0
  0
LINE
  5
20F
330
1F
100
AcDbEntity
  8
C-9
  6
Continuous
 62
     6
370
     5
100
AcDbLine
 10
-1432.635634218224
 20
859.206483604461
 30
0.0
 11
-1428.635710512169
 21
855.2065446396173
 31
0.0
  0
LINE
  5
210
330
1F
100
AcDbEntity
  8
C-9
  6
Continuous
 62
     6
370
     5
100
AcDbLine
 10
-1432.635634218224
 20
862.0350968857111
 30
0.0
 11
-1428.635710512169
 21
858.0351884384456
 31
0.0
  0
LINE
  5
211
330
1F
100
AcDbEntity
  8
C-9
  6
Continuous
 62
     6
370
     5
100
AcDbLine
 10
-1432.635634218224
 20
864.8632524032894
 30
0.0
 11
-1428.635710512169
 21
860.8633134384456
 31
0.0
  0
LINE
  5
212
330
1F
100
AcDbEntity
  8
C-9
  6
Continuous
 62
     6
370
     5
100
AcDbLine
 10
-1432.635634218224
 20
867.6918656845394
 30
0.0
 11
-1428.635710512169
 21
863.6919572372735
 31
0.0
  0
LINE
  5
213
330
1F
100
AcDbEntity
  8
C-9
  6
Continuous
 62
     6
370
     5
100
AcDbLine
 10
-1432.635634218224
 20
870.5205094833674
 30
0.0
 11
-1428.635710512169
 21
866.5200822372736
 31
0.0
  0
LINE
  5
214
330
1F
100
AcDbEntity
  8
C-9
  6
Continuous
 62
     6
370
     5
100
AcDbLine
 10
-1432.635634218224
 20
873.3486344833673
 30
0.0
 11
-1428.635710512169
 21
869.3487260361019
 31
0.0
  0
LINE
  5
215
330
1F
100
AcDbEntity
  8
C-9
  6
Continuous
 62
     6
370
     5
100
AcDbLine
 10
-1432.635634218224
 20
876.1772782821956
 30
0.0
 11
-1428.635710512169
 21
872.1768510361018
 31
0.0
  0
LINE
  5
216
330
1F
100
AcDbEntity
  8
C-9
  6
Continuous
 62
     6
370
     5
100
AcDbLine
 10
-1432.635634218224
 20
879.0054032821956
 30
0.0
 11
-1428.635710512169
 21
875.0054948349299
 31
0.0
  0
LINE
  5
217
330
1F
100
AcDbEntity
  8
C-9
  6
Continuous
 62
     6
370
     5
100
AcDbLine
 10
-1432.635634218224
 20
881.8340470810235
 30
0.0
 11
-1428.635710512169
 21
877.8341081161798
 31
0.0
  0
LINE
  5
218
330
1F
100
AcDbEntity
  8
C-9
  6
Continuous
 62
     6
370
     5
100
AcDbLine
 10
-1432.635634218224
 20
884.6621720810236
 30
0.0
 11
-1428.635710512169
 21
880.662263633758
 31
0.0
  0
LINE
  5
219
330
1F
100
AcDbEntity
  8
C-9
  6
Continuous
 62
     6
370
     5
100
AcDbLine
 10
-1432.635634218224
 20
887.4908158798519
 30
0.0
 11
-1428.635710512169
 21
883.4908769150081
 31
0.0
  0
LINE
  5
21A
330
1F
100
AcDbEntity
  8
C-9
  6
Continuous
 62
     6
370
     5
100
AcDbLine
 10
-1432.635634218224
 20
890.3194291611019
 30
0.0
 11
-1428.635710512169
 21
886.3190324325863
 31
0.0
  0
LINE
  5
21B
330
1F
100
AcDbEntity
  8
C-9
  6
Continuous
 62
     6
370
     5
100
AcDbLine
 10
-1432.635634218224
 20
893.1475846786799
 30
0.0
 11
-1428.635710512169
 21
889.1476457138361
 31
0.0
  0
LINE
  5
21C
330
1F
100
AcDbEntity
  8
C-9
  6
Continuous
 62
     6
370
     5
100
AcDbLine
 10
-1432.635634218224
 20
895.9761979599298
 30
0.0
 11
-1428.635710512169
 21
891.9762895126644
 31
0.0
  0
LINE
  5
21D
330
1F
100
AcDbEntity
  8
C-9
  6
Continuous
 62
     6
370
     5
100
AcDbLine
 10
-1432.635634218224
 20
898.804353477508
 30
0.0
 11
-1428.635710512169
 21
894.8044145126643
 31
0.0
  0
LINE
  5
21E
330
1F
100
AcDbEntity
  8
C-9
  6
Continuous
 62
     6
370
     5
100
AcDbLine
 10
-1432.635634218224
 20
901.6329667587581
 30
0.0
 11
-1428.635710512169
 21
897.6330583114924
 31
0.0
  0
LINE
  5
21F
330
1F
100
AcDbEntity
  8
C-9
  6
Continuous
 62
     6
370
     5
100
AcDbLine
 10
-1432.635634218224
 20
904.4611222763363
 30
0.0
 11
-1428.635710512169
 21
900.4611833114925
 31
0.0
  0
LINE
  5
220
330
1F
100
AcDbEntity
  8
C-9
  6
Continuous
 62
     6
370
     5
100
AcDbLine
 10
-1432.635634218224
 20
907.2897355575861
 30
0.0
 11
-1428.635710512169
 21
903.2898271103205
 31
0.0
  0
LINE
  5
221
330
1F
100
AcDbEntity
  8
C-9
  6
Continuous
 62
     6
370
     5
100
AcDbLine
 10
-1432.635634218224
 20
910.1183793564144
 30
0.0
 11
-1428.635710512169
 21
906.1179521103204
 31
0.0
  0
LINE
  5
222
330
1F
100
AcDbEntity
  8
C-9
  6
Continuous
 62
     6
370
     5
100
AcDbLine
 10
-1432.635634218224
 20
912.9465043564143
 30
0.0
 11
-1428.635710512169
 21
908.9465959091488
 31
0.0
  0
LINE
  5
223
330
1F
100
AcDbEntity
  8
C-9
  6
Continuous
 62
     6
370
     5
100
AcDbLine
 10
-1432.635634218224
 20
915.7751481552424
 30
0.0
 11
-1428.635710512169
 21
911.7752091903986
 31
0.0
  0
LINE
  5
224
330
1F
100
AcDbEntity
  8
C-9
  6
Continuous
 62
     6
370
     5
100
AcDbLine
 10
-1432.635634218224
 20
918.6032731552425
 30
0.0
 11
-1428.635710512169
 21
914.6033647079767
 31
0.0
  0
LINE
  5
225
330
1F
100
AcDbEntity
  8
C-9
  6
Continuous
 62
     6
370
     5
100
AcDbLine
 10
-1432.635634218224
 20
921.4319169540705
 30
0.0
 11
-1428.635710512169
 21
917.4314897079768
 31
0.0
  0
LINE
  5
226
330
1F
100
AcDbEntity
  8
C-9
  6
Continuous
 62
     6
370
     5
100
AcDbLine
 10
-1432.635634218224
 20
924.2600419540704
 30
0.0
 11
-1428.635710512169
 21
920.260133506805
 31
0.0
  0
LINE
  5
227
330
1F
100
AcDbEntity
  8
C-9
  6
Continuous
 62
     6
370
     5
100
AcDbLine
 10
-1432.635634218224
 20
927.0886857528988
 30
0.0
 11
-1428.635710512169
 21
923.088746788055
 31
0.0
  0
LINE
  5
228
330
1F
100
AcDbEntity
  8
C-9
  6
Continuous
 62
     6
370
     5
100
AcDbLine
 10
-1432.635634218224
 20
929.9168107528988
 30
0.0
 11
-1428.635710512169
 21
925.916902305633
 31
0.0
  0
LINE
  5
229
330
1F
100
AcDbEntity
  8
C-9
  6
Continuous
 62
     6
370
     5
100
AcDbLine
 10
-1432.635634218224
 20
932.7454545517267
 30
0.0
 11
-1428.635710512169
 21
928.7455155868829
 31
0.0
  0
LINE
  5
22A
330
1F
100
AcDbEntity
  8
C-9
  6
Continuous
 62
     6
370
     5
100
AcDbLine
 10
-1429.933348451623
 20
932.8717973251642
 30
0.0
 11
-1428.635710512169
 21
931.5741593857113
 31
0.0
  0
LINE
  5
22B
330
1F
100
AcDbEntity
  8
C-9
  6
Continuous
 62
     6
370
     5
100
AcDbLine
 10
-1429.357619081505
 20
852.05090499118
 30
0.0
 11
-1428.635710512169
 21
852.7728288193049
 31
0.0
  0
LINE
  5
22C
330
1F
100
AcDbEntity
  8
C-9
  6
Continuous
 62
     6
370
     5
100
AcDbLine
 10
-1432.635634218224
 20
851.6015336532894
 30
0.0
 11
-1428.635710512169
 21
855.6014421005548
 31
0.0
  0
LINE
  5
22D
330
1F
100
AcDbEntity
  8
C-9
  6
Continuous
 62
     6
370
     5
100
AcDbLine
 10
-1432.635634218224
 20
854.4296586532893
 30
0.0
 11
-1428.635710512169
 21
858.4295671005549
 31
0.0
  0
LINE
  5
22E
330
1F
100
AcDbEntity
  8
C-9
  6
Continuous
 62
     6
370
     5
100
AcDbLine
 10
-1432.635634218224
 20
857.2583024521174
 30
0.0
 11
-1428.635710512169
 21
861.2582108993831
 31
0.0
  0
LINE
  5
22F
330
1F
100
AcDbEntity
  8
C-9
  6
Continuous
 62
     6
370
     5
100
AcDbLine
 10
-1432.635634218224
 20
860.0864274521175
 30
0.0
 11
-1428.635710512169
 21
864.086854698211
 31
0.0
  0
LINE
  5
230
330
1F
100
AcDbEntity
  8
C-9
  6
Continuous
 62
     6
370
     5
100
AcDbLine
 10
-1432.635634218224
 20
862.9150712509455
 30
0.0
 11
-1428.635710512169
 21
866.9149796982111
 31
0.0
  0
LINE
  5
231
330
1F
100
AcDbEntity
  8
C-9
  6
Continuous
 62
     6
370
     5
100
AcDbLine
 10
-1432.635634218224
 20
865.7431962509454
 30
0.0
 11
-1428.635710512169
 21
869.7436234970394
 31
0.0
  0
LINE
  5
232
330
1F
100
AcDbEntity
  8
C-9
  6
Continuous
 62
     6
370
     5
100
AcDbLine
 10
-1432.635634218224
 20
868.5718400497738
 30
0.0
 11
-1428.635710512169
 21
872.5717484970393
 31
0.0
  0
LINE
  5
233
330
1F
100
AcDbEntity
  8
C-9
  6
Continuous
 62
     6
370
     5
100
AcDbLine
 10
-1432.635634218224
 20
871.4004533310236
 30
0.0
 11
-1428.635710512169
 21
875.4003922958674
 31
0.0
  0
LINE
  5
234
330
1F
100
AcDbEntity
  8
C-9
  6
Continuous
 62
     6
370
     5
100
AcDbLine
 10
-1432.635634218224
 20
874.2286088486017
 30
0.0
 11
-1428.635710512169
 21
878.2285172958675
 31
0.0
  0
LINE
  5
235
330
1F
100
AcDbEntity
  8
C-9
  6
Continuous
 62
     6
370
     5
100
AcDbLine
 10
-1432.635634218224
 20
877.0572221298518
 30
0.0
 11
-1428.635710512169
 21
881.0571305771174
 31
0.0
  0
LINE
  5
236
330
1F
100
AcDbEntity
  8
C-9
  6
Continuous
 62
     6
370
     5
100
AcDbLine
 10
-1432.635634218224
 20
879.8853471298517
 30
0.0
 11
-1428.635710512169
 21
883.8852860946954
 31
0.0
  0
LINE
  5
237
330
1F
100
AcDbEntity
  8
C-9
  6
Continuous
 62
     6
370
     5
100
AcDbLine
 10
-1432.635634218224
 20
882.71399092868
 30
0.0
 11
-1428.635710512169
 21
886.7138993759455
 31
0.0
  0
LINE
  5
238
330
1F
100
AcDbEntity
  8
C-9
  6
Continuous
 62
     6
370
     5
100
AcDbLine
 10
-1432.635634218224
 20
885.542634727508
 30
0.0
 11
-1428.635710512169
 21
889.5425431747736
 31
0.0
  0
LINE
  5
239
330
1F
100
AcDbEntity
  8
C-9
  6
Continuous
 62
     6
370
     5
100
AcDbLine
 10
-1432.635634218224
 20
888.3707597275079
 30
0.0
 11
-1428.635710512169
 21
892.3706681747738
 31
0.0
  0
LINE
  5
23A
330
1F
100
AcDbEntity
  8
C-9
  6
Continuous
 62
     6
370
     5
100
AcDbLine
 10
-1432.635634218224
 20
891.1994035263363
 30
0.0
 11
-1428.635710512169
 21
895.1993119736018
 31
0.0
  0
LINE
  5
23B
330
1F
100
AcDbEntity
  8
C-9
  6
Continuous
 62
     6
370
     5
100
AcDbLine
 10
-1432.635634218224
 20
894.0275285263363
 30
0.0
 11
-1428.635710512169
 21
898.0274369736017
 31
0.0
  0
LINE
  5
23C
330
1F
100
AcDbEntity
  8
C-9
  6
Continuous
 62
     6
370
     5
100
AcDbLine
 10
-1432.635634218224
 20
896.8561723251642
 30
0.0
 11
-1428.635710512169
 21
900.85608077243
 31
0.0
  0
LINE
  5
23D
330
1F
100
AcDbEntity
  8
C-9
  6
Continuous
 62
     6
370
     5
100
AcDbLine
 10
-1432.635634218224
 20
899.6842973251643
 30
0.0
 11
-1428.635710512169
 21
903.6846940536799
 31
0.0
  0
LINE
  5
23E
330
1F
100
AcDbEntity
  8
C-9
  6
Continuous
 62
     6
370
     5
100
AcDbLine
 10
-1432.635634218224
 20
902.5129106064142
 30
0.0
 11
-1428.635710512169
 21
906.5128495712579
 31
0.0
  0
LINE
  5
23F
330
1F
100
AcDbEntity
  8
C-9
  6
Continuous
 62
     6
370
     5
100
AcDbLine
 10
-1432.635634218224
 20
905.3415544052425
 30
0.0
 11
-1428.635710512169
 21
909.341462852508
 31
0.0
  0
LINE
  5
240
330
1F
100
AcDbEntity
  8
C-9
  6
Continuous
 62
     6
370
     5
100
AcDbLine
 10
-1432.635634218224
 20
908.1696794052425
 30
0.0
 11
-1428.635710512169
 21
912.1696183700863
 31
0.0
  0
LINE
  5
241
330
1F
100
AcDbEntity
  8
C-9
  6
Continuous
 62
     6
370
     5
100
AcDbLine
 10
-1432.635634218224
 20
910.9983232040704
 30
0.0
 11
-1428.635710512169
 21
914.9982316513363
 31
0.0
  0
LINE
  5
242
330
1F
100
AcDbEntity
  8
C-9
  6
Continuous
 62
     6
370
     5
100
AcDbLine
 10
-1432.635634218224
 20
913.8264482040705
 30
0.0
 11
-1428.635710512169
 21
917.8263871689143
 31
0.0
  0
LINE
  5
243
330
1F
100
AcDbEntity
  8
C-9
  6
Continuous
 62
     6
370
     5
100
AcDbLine
 10
-1432.635634218224
 20
916.6550920028988
 30
0.0
 11
-1428.635710512169
 21
920.6550004501642
 31
0.0
  0
LINE
  5
244
330
1F
100
AcDbEntity
  8
C-9
  6
Continuous
 62
     6
370
     5
100
AcDbLine
 10
-1432.635634218224
 20
919.4837358017267
 30
0.0
 11
-1428.635710512169
 21
923.4836442489925
 31
0.0
  0
LINE
  5
245
330
1F
100
AcDbEntity
  8
C-9
  6
Continuous
 62
     6
370
     5
100
AcDbLine
 10
-1432.635634218224
 20
922.3118608017268
 30
0.0
 11
-1428.635710512169
 21
926.3117692489925
 31
0.0
  0
LINE
  5
246
330
1F
100
AcDbEntity
  8
C-9
  6
Continuous
 62
     6
370
     5
100
AcDbLine
 10
-1432.635634218224
 20
925.1399858017269
 30
0.0
 11
-1428.635710512169
 21
929.1404130478204
 31
0.0
  0
LINE
  5
247
330
1F
100
AcDbEntity
  8
C-9
  6
Continuous
 62
     6
370
     5
100
AcDbLine
 10
-1432.635634218224
 20
927.9686296005549
 30
0.0
 11
-1428.635710512169
 21
931.9685380478205
 31
0.0
  0
LINE
  5
248
330
1F
100
AcDbEntity
  8
C-9
  6
Continuous
 62
     6
370
     5
100
AcDbLine
 10
-1432.635634218224
 20
930.797242881805
 30
0.0
 11
-1430.561110292443
 21
932.8717973251642
 31
0.0
  0
LINE
  5
249
330
1F
100
AcDbEntity
  8
C-9
  6
Continuous
 62
     6
370
     5
100
AcDbLine
 10
-1416.452879701623
 20
862.1272599716486
 30
0.0
 11
-1413.635893617638
 21
864.944490196258
 31
0.0
  0
LINE
  5
24A
330
1F
100
AcDbEntity
  8
C-9
  6
Continuous
 62
     6
370
     5
100
AcDbLine
 10
-1417.635817323693
 20
863.7727067489925
 30
0.0
 11
-1413.635893617638
 21
867.7731339950861
 31
0.0
  0
LINE
  5
24B
330
1F
100
AcDbEntity
  8
C-9
  6
Continuous
 62
     6
370
     5
100
AcDbLine
 10
-1417.635817323693
 20
866.6013505478204
 30
0.0
 11
-1413.635893617638
 21
870.6012589950863
 31
0.0
  0
LINE
  5
24C
330
1F
100
AcDbEntity
  8
C-9
  6
Continuous
 62
     6
370
     5
100
AcDbLine
 10
-1417.635817323693
 20
869.4299638290705
 30
0.0
 11
-1413.635893617638
 21
873.4299027939143
 31
0.0
  0
LINE
  5
24D
330
1F
100
AcDbEntity
  8
C-9
  6
Continuous
 62
     6
370
     5
100
AcDbLine
 10
-1417.635817323693
 20
872.2581193466488
 30
0.0
 11
-1413.635893617638
 21
876.2580277939142
 31
0.0
  0
LINE
  5
24E
330
1F
100
AcDbEntity
  8
C-9
  6
Continuous
 62
     6
370
     5
100
AcDbLine
 10
-1417.635817323693
 20
875.0867326278988
 30
0.0
 11
-1413.635893617638
 21
879.0866715927425
 31
0.0
  0
LINE
  5
24F
330
1F
100
AcDbEntity
  8
C-9
  6
Continuous
 62
     6
370
     5
100
AcDbLine
 10
-1417.635817323693
 20
877.9148881454768
 30
0.0
 11
-1413.635893617638
 21
881.9147965927425
 31
0.0
  0
LINE
  5
250
330
1F
100
AcDbEntity
  8
C-9
  6
Continuous
 62
     6
370
     5
100
AcDbLine
 10
-1417.635817323693
 20
880.7435014267267
 30
0.0
 11
-1413.635893617638
 21
884.7434403915704
 31
0.0
  0
LINE
  5
251
330
1F
100
AcDbEntity
  8
C-9
  6
Continuous
 62
     6
370
     5
100
AcDbLine
 10
-1417.635817323693
 20
883.5716569443049
 30
0.0
 11
-1413.635893617638
 21
887.5715653915705
 31
0.0
  0
LINE
  5
252
330
1F
100
AcDbEntity
  8
C-9
  6
Continuous
 62
     6
370
     5
100
AcDbLine
 10
-1417.635817323693
 20
886.400270225555
 30
0.0
 11
-1413.635893617638
 21
890.4002091903988
 31
0.0
  0
LINE
  5
253
330
1F
100
AcDbEntity
  8
C-9
  6
Continuous
 62
     6
370
     5
100
AcDbLine
 10
-1417.635817323693
 20
889.2284257431331
 30
0.0
 11
-1413.635893617638
 21
893.2288224716488
 31
0.0
  0
LINE
  5
254
330
1F
100
AcDbEntity
  8
C-9
  6
Continuous
 62
     6
370
     5
100
AcDbLine
 10
-1417.635817323693
 20
892.057039024383
 30
0.0
 11
-1413.635893617638
 21
896.0569779892268
 31
0.0
  0
LINE
  5
255
330
1F
100
AcDbEntity
  8
C-9
  6
Continuous
 62
     6
370
     5
100
AcDbLine
 10
-1417.635817323693
 20
894.8856828232113
 30
0.0
 11
-1413.635893617638
 21
898.8855912704767
 31
0.0
  0
LINE
  5
256
330
1F
100
AcDbEntity
  8
C-9
  6
Continuous
 62
     6
370
     5
100
AcDbLine
 10
-1417.635817323693
 20
897.7138078232111
 30
0.0
 11
-1413.635893617638
 21
901.7137467880549
 31
0.0
  0
LINE
  5
257
330
1F
100
AcDbEntity
  8
C-9
  6
Continuous
 62
     6
370
     5
100
AcDbLine
 10
-1417.635817323693
 20
900.5424516220393
 30
0.0
 11
-1413.635893617638
 21
904.542360069305
 31
0.0
  0
LINE
  5
258
330
1F
100
AcDbEntity
  8
C-9
  6
Continuous
 62
     6
370
     5
100
AcDbLine
 10
-1417.635817323693
 20
903.3710649032892
 30
0.0
 11
-1413.635893617638
 21
907.3710038681329
 31
0.0
  0
LINE
  5
259
330
1F
100
AcDbEntity
  8
C-9
  6
Continuous
 62
     6
370
     5
100
AcDbLine
 10
-1417.635817323693
 20
906.1992204208674
 30
0.0
 11
-1413.635893617638
 21
910.199128868133
 31
0.0
  0
LINE
  5
25A
330
1F
100
AcDbEntity
  8
C-9
  6
Continuous
 62
     6
370
     5
100
AcDbLine
 10
-1417.635817323693
 20
909.0278337021175
 30
0.0
 11
-1413.635893617638
 21
913.0277726669613
 31
0.0
  0
LINE
  5
25B
330
1F
100
AcDbEntity
  8
C-9
  6
Continuous
 62
     6
370
     5
100
AcDbLine
 10
-1417.635817323693
 20
911.8559892196956
 30
0.0
 11
-1413.635893617638
 21
915.8558976669611
 31
0.0
  0
LINE
  5
25C
330
1F
100
AcDbEntity
  8
C-9
  6
Continuous
 62
     6
370
     5
100
AcDbLine
 10
-1417.635817323693
 20
914.6846025009455
 30
0.0
 11
-1413.635893617638
 21
918.6845414657893
 31
0.0
  0
LINE
  5
25D
330
1F
100
AcDbEntity
  8
C-9
  6
Continuous
 62
     6
370
     5
100
AcDbLine
 10
-1417.635817323693
 20
917.5127580185235
 30
0.0
 11
-1413.635893617638
 21
921.5126664657894
 31
0.0
  0
LINE
  5
25E
330
1F
100
AcDbEntity
  8
C-9
  6
Continuous
 62
     6
370
     5
100
AcDbLine
 10
-1417.635817323693
 20
920.3413712997736
 30
0.0
 11
-1413.635893617638
 21
924.3413102646174
 31
0.0
  0
LINE
  5
25F
330
1F
100
AcDbEntity
  8
C-9
  6
Continuous
 62
     6
370
     5
100
AcDbLine
 10
-1417.635817323693
 20
923.1695268173519
 30
0.0
 11
-1413.635893617638
 21
927.1699235458675
 31
0.0
  0
LINE
  5
260
330
1F
100
AcDbEntity
  8
C-9
  6
Continuous
 62
     6
370
     5
100
AcDbLine
 10
-1417.635817323693
 20
925.9981400986019
 30
0.0
 11
-1413.635893617638
 21
929.9980790634456
 31
0.0
  0
LINE
  5
261
330
1F
100
AcDbEntity
  8
C-9
  6
Continuous
 62
     6
370
     5
100
AcDbLine
 10
-1417.635817323693
 20
928.8267838974299
 30
0.0
 11
-1413.635893617638
 21
932.8266923446955
 31
0.0
  0
LINE
  5
262
330
1F
100
AcDbEntity
  8
C-9
  6
Continuous
 62
     6
370
     5
100
AcDbLine
 10
-1417.635817323693
 20
931.6549088974298
 30
0.0
 11
-1416.419188295372
 21
932.8717973251642
 31
0.0
  0
LINE
  5
263
330
1F
100
AcDbEntity
  8
C-9
  6
Continuous
 62
     6
370
     5
100
AcDbLine
 10
-1417.635817323693
 20
864.0055863876643
 30
0.0
 11
-1416.062697206505
 21
862.4324662704769
 31
0.0
  0
LINE
  5
264
330
1F
100
AcDbEntity
  8
C-9
  6
Continuous
 62
     6
370
     5
100
AcDbLine
 10
-1417.635817323693
 20
866.8342301864925
 30
0.0
 11
-1414.474226747521
 21
863.6726396103205
 31
0.0
  0
LINE
  5
265
330
1F
100
AcDbEntity
  8
C-9
  6
Continuous
 62
     6
370
     5
100
AcDbLine
 10
-1417.635817323693
 20
869.6623551864924
 30
0.0
 11
-1413.635893617638
 21
865.6624467392269
 31
0.0
  0
LINE
  5
266
330
1F
100
AcDbEntity
  8
C-9
  6
Continuous
 62
     6
370
     5
100
AcDbLine
 10
-1417.635817323693
 20
872.4909989853205
 30
0.0
 11
-1413.635893617638
 21
868.4910600204768
 31
0.0
  0
LINE
  5
267
330
1F
100
AcDbEntity
  8
C-9
  6
Continuous
 62
     6
370
     5
100
AcDbLine
 10
-1417.635817323693
 20
875.3191239853206
 30
0.0
 11
-1413.635893617638
 21
871.3192155380548
 31
0.0
  0
LINE
  5
268
330
1F
100
AcDbEntity
  8
C-9
  6
Continuous
 62
     6
370
     5
100
AcDbLine
 10
-1417.635817323693
 20
878.1477372665705
 30
0.0
 11
-1413.635893617638
 21
874.1478288193049
 31
0.0
  0
LINE
  5
269
330
1F
100
AcDbEntity
  8
C-9
  6
Continuous
 62
     6
370
     5
100
AcDbLine
 10
-1417.635817323693
 20
880.9758927841485
 30
0.0
 11
-1413.635893617638
 21
876.9759538193048
 31
0.0
  0
LINE
  5
26A
330
1F
100
AcDbEntity
  8
C-9
  6
Continuous
 62
     6
370
     5
100
AcDbLine
 10
-1417.635817323693
 20
883.8045060653986
 30
0.0
 11
-1413.635893617638
 21
879.8045976181331
 31
0.0
  0
LINE
  5
26B
330
1F
100
AcDbEntity
  8
C-9
  6
Continuous
 62
     6
370
     5
100
AcDbLine
 10
-1417.635817323693
 20
886.6326615829769
 30
0.0
 11
-1413.635893617638
 21
882.6327226181331
 31
0.0
  0
LINE
  5
26C
330
1F
100
AcDbEntity
  8
C-9
  6
Continuous
 62
     6
370
     5
100
AcDbLine
 10
-1417.635817323693
 20
889.4612748642269
 30
0.0
 11
-1413.635893617638
 21
885.461366416961
 31
0.0
  0
LINE
  5
26D
330
1F
100
AcDbEntity
  8
C-9
  6
Continuous
 62
     6
370
     5
100
AcDbLine
 10
-1417.635817323693
 20
892.2899186630549
 30
0.0
 11
-1413.635893617638
 21
888.2900102157894
 31
0.0
  0
LINE
  5
26E
330
1F
100
AcDbEntity
  8
C-9
  6
Continuous
 62
     6
370
     5
100
AcDbLine
 10
-1417.635817323693
 20
895.1180436630548
 30
0.0
 11
-1413.635893617638
 21
891.1181352157894
 31
0.0
  0
LINE
  5
26F
330
1F
100
AcDbEntity
  8
C-9
  6
Continuous
 62
     6
370
     5
100
AcDbLine
 10
-1417.635817323693
 20
897.9466874618831
 30
0.0
 11
-1413.635893617638
 21
893.9467790146173
 31
0.0
  0
LINE
  5
270
330
1F
100
AcDbEntity
  8
C-9
  6
Continuous
 62
     6
370
     5
100
AcDbLine
 10
-1417.635817323693
 20
900.7753312607111
 30
0.0
 11
-1413.635893617638
 21
896.7749040146174
 31
0.0
  0
LINE
  5
271
330
1F
100
AcDbEntity
  8
C-9
  6
Continuous
 62
     6
370
     5
100
AcDbLine
 10
-1417.635817323693
 20
903.603456260711
 30
0.0
 11
-1413.635893617638
 21
899.6035478134456
 31
0.0
  0
LINE
  5
272
330
1F
100
AcDbEntity
  8
C-9
  6
Continuous
 62
     6
370
     5
100
AcDbLine
 10
-1417.635817323693
 20
906.4320695419611
 30
0.0
 11
-1413.635893617638
 21
902.4321610946956
 31
0.0
  0
LINE
  5
273
330
1F
100
AcDbEntity
  8
C-9
  6
Continuous
 62
     6
370
     5
100
AcDbLine
 10
-1417.635817323693
 20
909.2602250595394
 30
0.0
 11
-1413.635893617638
 21
905.2602860946956
 31
0.0
  0
LINE
  5
274
330
1F
100
AcDbEntity
  8
C-9
  6
Continuous
 62
     6
370
     5
100
AcDbLine
 10
-1417.635817323693
 20
912.0888383407894
 30
0.0
 11
-1413.635893617638
 21
908.0889298935235
 31
0.0
  0
LINE
  5
275
330
1F
100
AcDbEntity
  8
C-9
  6
Continuous
 62
     6
370
     5
100
AcDbLine
 10
-1417.635817323693
 20
914.9169938583674
 30
0.0
 11
-1413.635893617638
 21
910.9170548935236
 31
0.0
  0
LINE
  5
276
330
1F
100
AcDbEntity
  8
C-9
  6
Continuous
 62
     6
370
     5
100
AcDbLine
 10
-1417.635817323693
 20
917.7456071396173
 30
0.0
 11
-1413.635893617638
 21
913.7456986923519
 31
0.0
  0
LINE
  5
277
330
1F
100
AcDbEntity
  8
C-9
  6
Continuous
 62
     6
370
     5
100
AcDbLine
 10
-1417.635817323693
 20
920.5737626571955
 30
0.0
 11
-1413.635893617638
 21
916.5738236923518
 31
0.0
  0
LINE
  5
278
330
1F
100
AcDbEntity
  8
C-9
  6
Continuous
 62
     6
370
     5
100
AcDbLine
 10
-1417.635817323693
 20
923.4023759384456
 30
0.0
 11
-1413.635893617638
 21
919.4024674911799
 31
0.0
  0
LINE
  5
279
330
1F
100
AcDbEntity
  8
C-9
  6
Continuous
 62
     6
370
     5
100
AcDbLine
 10
-1417.635817323693
 20
926.2310197372735
 30
0.0
 11
-1413.635893617638
 21
922.23059249118
 31
0.0
  0
LINE
  5
27A
330
1F
100
AcDbEntity
  8
C-9
  6
Continuous
 62
     6
370
     5
100
AcDbLine
 10
-1417.635817323693
 20
929.0591447372736
 30
0.0
 11
-1413.635893617638
 21
925.059236290008
 31
0.0
  0
LINE
  5
27B
330
1F
100
AcDbEntity
  8
C-9
  6
Continuous
 62
     6
370
     5
100
AcDbLine
 10
-1417.635817323693
 20
931.8877885361019
 30
0.0
 11
-1413.635893617638
 21
927.8878495712581
 31
0.0
  0
LINE
  5
27C
330
1F
100
AcDbEntity
  8
C-9
  6
Continuous
 62
     6
370
     5
100
AcDbLine
 10
-1415.791685853967
 20
932.8717973251642
 30
0.0
 11
-1413.635893617638
 21
930.7160050888363
 31
0.0
  0
LINE
  5
27D
330
1F
100
AcDbEntity
  8
C-9
  6
Continuous
 62
     6
370
     5
100
AcDbLine
 10
-1402.635985170373
 20
874.4614579696954
 30
0.0
 11
-1401.768172060021
 21
873.593904258758
 31
0.0
  0
LINE
  5
27E
330
1F
100
AcDbEntity
  8
C-9
  6
Continuous
 62
     6
370
     5
100
AcDbLine
 10
-1402.635985170373
 20
877.2901017685238
 30
0.0
 11
-1400.179961000451
 21
874.8340470810238
 31
0.0
  0
LINE
  5
27F
330
1F
100
AcDbEntity
  8
C-9
  6
Continuous
 62
     6
370
     5
100
AcDbLine
 10
-1402.635985170373
 20
880.1182267685238
 30
0.0
 11
-1398.636076723107
 21
876.118318321258
 31
0.0
  0
LINE
  5
280
330
1F
100
AcDbEntity
  8
C-9
  6
Continuous
 62
     6
370
     5
100
AcDbLine
 10
-1402.635985170373
 20
882.9468705673517
 30
0.0
 11
-1398.636076723107
 21
878.9469316025079
 31
0.0
  0
LINE
  5
281
330
1F
100
AcDbEntity
  8
C-9
  6
Continuous
 62
     6
370
     5
100
AcDbLine
 10
-1402.635985170373
 20
885.7749955673518
 30
0.0
 11
-1398.636076723107
 21
881.7750871200861
 31
0.0
  0
LINE
  5
282
330
1F
100
AcDbEntity
  8
C-9
  6
Continuous
 62
     6
370
     5
100
AcDbLine
 10
-1402.635985170373
 20
888.60363936618
 30
0.0
 11
-1398.636076723107
 21
884.6037004013363
 31
0.0
  0
LINE
  5
283
330
1F
100
AcDbEntity
  8
C-9
  6
Continuous
 62
     6
370
     5
100
AcDbLine
 10
-1402.635985170373
 20
891.4317643661799
 30
0.0
 11
-1398.636076723107
 21
887.4318559189144
 31
0.0
  0
LINE
  5
284
330
1F
100
AcDbEntity
  8
C-9
  6
Continuous
 62
     6
370
     5
100
AcDbLine
 10
-1402.635985170373
 20
894.260408165008
 30
0.0
 11
-1398.636076723107
 21
890.2604692001643
 31
0.0
  0
LINE
  5
285
330
1F
100
AcDbEntity
  8
C-9
  6
Continuous
 62
     6
370
     5
100
AcDbLine
 10
-1402.635985170373
 20
897.0890214462579
 30
0.0
 11
-1398.636076723107
 21
893.0886247177423
 31
0.0
  0
LINE
  5
286
330
1F
100
AcDbEntity
  8
C-9
  6
Continuous
 62
     6
370
     5
100
AcDbLine
 10
-1402.635985170373
 20
899.9171769638361
 30
0.0
 11
-1398.636076723107
 21
895.9172379989924
 31
0.0
  0
LINE
  5
287
330
1F
100
AcDbEntity
  8
C-9
  6
Continuous
 62
     6
370
     5
100
AcDbLine
 10
-1402.635985170373
 20
902.7457902450863
 30
0.0
 11
-1398.636076723107
 21
898.7458817978205
 31
0.0
  0
LINE
  5
288
330
1F
100
AcDbEntity
  8
C-9
  6
Continuous
 62
     6
370
     5
100
AcDbLine
 10
-1402.635985170373
 20
905.5739457626644
 30
0.0
 11
-1398.636076723107
 21
901.5740067978206
 31
0.0
  0
LINE
  5
289
330
1F
100
AcDbEntity
  8
C-9
  6
Continuous
 62
     6
370
     5
100
AcDbLine
 10
-1402.635985170373
 20
908.4025590439143
 30
0.0
 11
-1398.636076723107
 21
904.4026505966486
 31
0.0
  0
LINE
  5
28A
330
1F
100
AcDbEntity
  8
C-9
  6
Continuous
 62
     6
370
     5
100
AcDbLine
 10
-1402.635985170373
 20
911.2306840439144
 30
0.0
 11
-1398.636076723107
 21
907.2307755966485
 31
0.0
  0
LINE
  5
28B
330
1F
100
AcDbEntity
  8
C-9
  6
Continuous
 62
     6
370
     5
100
AcDbLine
 10
-1402.635985170373
 20
914.0593278427424
 30
0.0
 11
-1398.636076723107
 21
910.0594193954769
 31
0.0
  0
LINE
  5
28C
330
1F
100
AcDbEntity
  8
C-9
  6
Continuous
 62
     6
370
     5
100
AcDbLine
 10
-1402.635985170373
 20
916.8879716415705
 30
0.0
 11
-1398.636076723107
 21
912.8875443954769
 31
0.0
  0
LINE
  5
28D
330
1F
100
AcDbEntity
  8
C-9
  6
Continuous
 62
     6
370
     5
100
AcDbLine
 10
-1402.635985170373
 20
919.7160966415706
 30
0.0
 11
-1398.636076723107
 21
915.7161881943048
 31
0.0
  0
LINE
  5
28E
330
1F
100
AcDbEntity
  8
C-9
  6
Continuous
 62
     6
370
     5
100
AcDbLine
 10
-1402.635985170373
 20
922.5447404403986
 30
0.0
 11
-1398.636076723107
 21
918.5448014755549
 31
0.0
  0
LINE
  5
28F
330
1F
100
AcDbEntity
  8
C-9
  6
Continuous
 62
     6
370
     5
100
AcDbLine
 10
-1402.635985170373
 20
925.3728654403985
 30
0.0
 11
-1398.636076723107
 21
921.3729569931331
 31
0.0
  0
LINE
  5
290
330
1F
100
AcDbEntity
  8
C-9
  6
Continuous
 62
     6
370
     5
100
AcDbLine
 10
-1402.635985170373
 20
928.2015092392269
 30
0.0
 11
-1398.636076723107
 21
924.2015702743831
 31
0.0
  0
LINE
  5
291
330
1F
100
AcDbEntity
  8
C-9
  6
Continuous
 62
     6
370
     5
100
AcDbLine
 10
-1402.635985170373
 20
931.0301225204768
 30
0.0
 11
-1398.636076723107
 21
927.0297257919611
 31
0.0
  0
LINE
  5
292
330
1F
100
AcDbEntity
  8
C-9
  6
Continuous
 62
     6
370
     5
100
AcDbLine
 10
-1401.649519716271
 20
932.8717973251642
 30
0.0
 11
-1398.636076723107
 21
929.858339073211
 31
0.0
  0
LINE
  5
293
330
1F
100
AcDbEntity
  8
C-9
  6
Continuous
 62
     6
370
     5
100
AcDbLine
 10
-1398.821135316857
 20
932.8717973251642
 30
0.0
 11
-1398.636076723107
 21
932.6864945907893
 31
0.0
  0
LINE
  5
294
330
1F
100
AcDbEntity
  8
C-9
  6
Continuous
 62
     6
370
     5
100
AcDbLine
 10
-1402.635985170373
 20
873.1162736435238
 30
0.0
 11
-1398.636076723107
 21
877.1161820907892
 31
0.0
  0
LINE
  5
295
330
1F
100
AcDbEntity
  8
C-9
  6
Continuous
 62
     6
370
     5
100
AcDbLine
 10
-1402.635985170373
 20
875.9443986435236
 30
0.0
 11
-1398.636076723107
 21
879.9443070907893
 31
0.0
  0
LINE
  5
296
330
1F
100
AcDbEntity
  8
C-9
  6
Continuous
 62
     6
370
     5
100
AcDbLine
 10
-1402.635985170373
 20
878.7730424423518
 30
0.0
 11
-1398.636076723107
 21
882.7729508896175
 31
0.0
  0
LINE
  5
297
330
1F
100
AcDbEntity
  8
C-9
  6
Continuous
 62
     6
370
     5
100
AcDbLine
 10
-1402.635985170373
 20
881.6011674423519
 30
0.0
 11
-1398.636076723107
 21
885.6010758896174
 31
0.0
  0
LINE
  5
298
330
1F
100
AcDbEntity
  8
C-9
  6
Continuous
 62
     6
370
     5
100
AcDbLine
 10
-1402.635985170373
 20
884.4298112411799
 30
0.0
 11
-1398.636076723107
 21
888.4297196884455
 31
0.0
  0
LINE
  5
299
330
1F
100
AcDbEntity
  8
C-9
  6
Continuous
 62
     6
370
     5
100
AcDbLine
 10
-1402.635985170373
 20
887.2579362411798
 30
0.0
 11
-1398.636076723107
 21
891.2583634872738
 31
0.0
  0
LINE
  5
29A
330
1F
100
AcDbEntity
  8
C-9
  6
Continuous
 62
     6
370
     5
100
AcDbLine
 10
-1402.635985170373
 20
890.0865800400081
 30
0.0
 11
-1398.636076723107
 21
894.0864884872736
 31
0.0
  0
LINE
  5
29B
330
1F
100
AcDbEntity
  8
C-9
  6
Continuous
 62
     6
370
     5
100
AcDbLine
 10
-1402.635985170373
 20
892.915193321258
 30
0.0
 11
-1398.636076723107
 21
896.9151322861018
 31
0.0
  0
LINE
  5
29C
330
1F
100
AcDbEntity
  8
C-9
  6
Continuous
 62
     6
370
     5
100
AcDbLine
 10
-1402.635985170373
 20
895.743348838836
 30
0.0
 11
-1398.636076723107
 21
899.7432572861019
 31
0.0
  0
LINE
  5
29D
330
1F
100
AcDbEntity
  8
C-9
  6
Continuous
 62
     6
370
     5
100
AcDbLine
 10
-1402.635985170373
 20
898.5719621200861
 30
0.0
 11
-1398.636076723107
 21
902.5719010849299
 31
0.0
  0
LINE
  5
29E
330
1F
100
AcDbEntity
  8
C-9
  6
Continuous
 62
     6
370
     5
100
AcDbLine
 10
-1402.635985170373
 20
901.4001176376644
 30
0.0
 11
-1398.636076723107
 21
905.4000260849298
 31
0.0
  0
LINE
  5
29F
330
1F
100
AcDbEntity
  8
C-9
  6
Continuous
 62
     6
370
     5
100
AcDbLine
 10
-1402.635985170373
 20
904.2287309189144
 30
0.0
 11
-1398.636076723107
 21
908.2286393661799
 31
0.0
  0
LINE
  5
2A0
330
1F
100
AcDbEntity
  8
C-9
  6
Continuous
 62
     6
370
     5
100
AcDbLine
 10
-1402.635985170373
 20
907.0568559189144
 30
0.0
 11
-1398.636076723107
 21
911.057283165008
 31
0.0
  0
LINE
  5
2A1
330
1F
100
AcDbEntity
  8
C-9
  6
Continuous
 62
     6
370
     5
100
AcDbLine
 10
-1402.635985170373
 20
909.8854997177423
 30
0.0
 11
-1398.636076723107
 21
913.8854081650081
 31
0.0
  0
LINE
  5
2A2
330
1F
100
AcDbEntity
  8
C-9
  6
Continuous
 62
     6
370
     5
100
AcDbLine
 10
-1402.635985170373
 20
912.7141435165706
 30
0.0
 11
-1398.636076723107
 21
916.7140519638361
 31
0.0
  0
LINE
  5
2A3
330
1F
100
AcDbEntity
  8
C-9
  6
Continuous
 62
     6
370
     5
100
AcDbLine
 10
-1402.635985170373
 20
915.5422685165706
 30
0.0
 11
-1398.636076723107
 21
919.542176963836
 31
0.0
  0
LINE
  5
2A4
330
1F
100
AcDbEntity
  8
C-9
  6
Continuous
 62
     6
370
     5
100
AcDbLine
 10
-1402.635985170373
 20
918.3709123153985
 30
0.0
 11
-1398.636076723107
 21
922.3708207626644
 31
0.0
  0
LINE
  5
2A5
330
1F
100
AcDbEntity
  8
C-9
  6
Continuous
 62
     6
370
     5
100
AcDbLine
 10
-1402.635985170373
 20
921.1990373153986
 30
0.0
 11
-1398.636076723107
 21
925.1994645614924
 31
0.0
  0
LINE
  5
2A6
330
1F
100
AcDbEntity
  8
C-9
  6
Continuous
 62
     6
370
     5
100
AcDbLine
 10
-1402.635985170373
 20
924.0276811142269
 30
0.0
 11
-1398.636076723107
 21
928.0275895614923
 31
0.0
  0
LINE
  5
2A7
330
1F
100
AcDbEntity
  8
C-9
  6
Continuous
 62
     6
370
     5
100
AcDbLine
 10
-1402.635985170373
 20
926.8562943954769
 30
0.0
 11
-1398.636076723107
 21
930.8562028427424
 31
0.0
  0
LINE
  5
2A8
330
1F
100
AcDbEntity
  8
C-9
  6
Continuous
 62
     6
370
     5
100
AcDbLine
 10
-1402.635985170373
 20
929.6844193954769
 30
0.0
 11
-1399.448897157677
 21
932.8717973251642
 31
0.0
  0
LINE
  5
2A9
330
1F
100
AcDbEntity
  8
C-9
  6
Continuous
 62
     6
370
     5
100
AcDbLine
 10
-1402.635985170373
 20
932.5130631943048
 30
0.0
 11
-1402.277266298302
 21
932.8717973251642
 31
0.0
  0
LINE
  5
2AA
330
1F
100
AcDbEntity
  8
C-2
  6
Continuous
 62
     3
370
     9
100
AcDbLine
 10
-1458.63586310006
 20
742.3719499130549
 30
0.0
 11
-1447.635954652794
 21
742.3719499130549
 31
0.0
  0
LINE
  5
2AB
330
1F
100
AcDbEntity
  8
C-2
  6
Continuous
 62
     3
370
     9
100
AcDbLine
 10
-1458.63586310006
 20
739.3724076767268
 30
0.0
 11
-1447.635954652794
 21
739.3724076767268
 31
0.0
  0
LINE
  5
2AC
330
1F
100
AcDbEntity
  8
C-2
  6
Continuous
 62
     3
370
     9
100
AcDbLine
 10
-1443.63603094674
 20
742.3719499130549
 30
0.0
 11
-1432.635634218224
 21
742.3719499130549
 31
0.0
  0
LINE
  5
2AD
330
1F
100
AcDbEntity
  8
C-2
  6
Continuous
 62
     3
370
     9
100
AcDbLine
 10
-1443.63603094674
 20
739.3724076767268
 30
0.0
 11
-1432.635634218224
 21
739.3724076767268
 31
0.0
  0
LINE
  5
2AE
330
1F
100
AcDbEntity
  8
C-2
  6
Continuous
 62
     3
370
     9
100
AcDbLine
 10
-1428.635710512169
 20
742.3719499130549
 30
0.0
 11
-1417.635817323693
 21
742.3719499130549
 31
0.0
  0
LINE
  5
2AF
330
1F
100
AcDbEntity
  8
C-2
  6
Continuous
 62
     3
370
     9
100
AcDbLine
 10
-1428.635710512169
 20
739.3724076767268
 30
0.0
 11
-1417.635817323693
 21
739.3724076767268
 31
0.0
  0
LINE
  5
2B0
330
1F
100
AcDbEntity
  8
C-2
  6
Continuous
 62
     3
370
     9
100
AcDbLine
 10
-1413.635893617638
 20
742.3719499130549
 30
0.0
 11
-1402.635985170373
 21
742.3719499130549
 31
0.0
  0
LINE
  5
2B1
330
1F
100
AcDbEntity
  8
C-2
  6
Continuous
 62
     3
370
     9
100
AcDbLine
 10
-1413.635893617638
 20
739.3724076767268
 30
0.0
 11
-1402.635985170373
 21
739.3724076767268
 31
0.0
  0
LINE
  5
2B2
330
1F
100
AcDbEntity
  8
C-2
  6
Continuous
 62
     3
370
     9
100
AcDbLine
 10
-1398.635573183068
 20
742.3719499130549
 30
0.0
 11
-1387.635679994592
 21
742.3719499130549
 31
0.0
  0
LINE
  5
2B3
330
1F
100
AcDbEntity
  8
C-2
  6
Continuous
 62
     3
370
     9
100
AcDbLine
 10
-1398.635573183068
 20
739.3724076767268
 30
0.0
 11
-1387.635679994592
 21
739.3724076767268
 31
0.0
  0
LINE
  5
2B4
330
1F
100
AcDbEntity
  8
C-2
  6
Continuous
 62
     3
370
     9
100
AcDbLine
 10
-1383.635756288536
 20
742.3719499130549
 30
0.0
 11
-1372.635855470666
 21
742.3719499130549
 31
0.0
  0
LINE
  5
2B5
330
1F
100
AcDbEntity
  8
C-2
  6
Continuous
 62
     3
370
     9
100
AcDbLine
 10
-1383.635756288536
 20
739.3724076767268
 30
0.0
 11
-1372.635855470666
 21
739.3724076767268
 31
0.0
  0
LINE
  5
2B6
330
1F
100
AcDbEntity
  8
C-2
  6
Continuous
 62
     3
370
     9
100
AcDbLine
 10
-1368.635931764611
 20
742.3719499130549
 30
0.0
 11
-1357.63603094674
 21
742.3719499130549
 31
0.0
  0
LINE
  5
2B7
330
1F
100
AcDbEntity
  8
C-2
  6
Continuous
 62
     3
370
     9
100
AcDbLine
 10
-1368.635931764611
 20
739.3724076767268
 30
0.0
 11
-1357.63603094674
 21
739.3724076767268
 31
0.0
  0
LINE
  5
2B8
330
1F
100
AcDbEntity
  8
C-2
  6
Continuous
 62
     3
370
     9
100
AcDbLine
 10
-1353.635618959435
 20
742.3719499130549
 30
0.0
 11
-1342.63571051217
 21
742.3719499130549
 31
0.0
  0
LINE
  5
2B9
330
1F
100
AcDbEntity
  8
C-2
  6
Continuous
 62
     3
370
     9
100
AcDbLine
 10
-1353.635618959435
 20
739.3724076767268
 30
0.0
 11
-1342.63571051217
 21
739.3724076767268
 31
0.0
  0
LINE
  5
2BA
330
1F
100
AcDbEntity
  8
C-2
  6
Continuous
 62
     3
370
     9
100
AcDbLine
 10
-1338.635794435509
 20
742.3719499130549
 30
0.0
 11
-1327.635893617638
 21
742.3719499130549
 31
0.0
  0
LINE
  5
2BB
330
1F
100
AcDbEntity
  8
C-2
  6
Continuous
 62
     3
370
     9
100
AcDbLine
 10
-1338.635794435509
 20
739.3724076767268
 30
0.0
 11
-1327.635893617638
 21
739.3724076767268
 31
0.0
  0
LINE
  5
2BC
330
1F
100
AcDbEntity
  8
C-2
  6
Continuous
 62
     3
370
     9
100
AcDbLine
 10
-1323.635474000939
 20
742.3719499130549
 30
0.0
 11
-1312.636069093712
 21
742.3719499130549
 31
0.0
  0
LINE
  5
2BD
330
1F
100
AcDbEntity
  8
C-2
  6
Continuous
 62
     3
370
     9
100
AcDbLine
 10
-1323.635474000939
 20
739.3724076767268
 30
0.0
 11
-1312.636069093712
 21
739.3724076767268
 31
0.0
  0
LINE
  5
2BE
330
1F
100
AcDbEntity
  8
C-2
  6
Continuous
 62
     3
370
     9
100
AcDbLine
 10
-1308.63565329171
 20
742.3719499130549
 30
0.0
 11
-1297.635752473839
 21
742.3719499130549
 31
0.0
  0
LINE
  5
2BF
330
1F
100
AcDbEntity
  8
C-2
  6
Continuous
 62
     3
370
     9
100
AcDbLine
 10
-1308.63565329171
 20
739.3724076767268
 30
0.0
 11
-1297.635752473839
 21
739.3724076767268
 31
0.0
  0
LINE
  5
2C0
330
1F
100
AcDbEntity
  8
C-2
  6
Continuous
 62
     3
370
     9
100
AcDbLine
 10
-1293.635832582482
 20
742.3719499130549
 30
0.0
 11
-1282.635929857262
 21
742.3719499130549
 31
0.0
  0
LINE
  5
2C1
330
1F
100
AcDbEntity
  8
C-2
  6
Continuous
 62
     3
370
     9
100
AcDbLine
 10
-1293.635832582482
 20
739.3724076767268
 30
0.0
 11
-1282.635929857262
 21
739.3724076767268
 31
0.0
  0
LINE
  5
2C2
330
1F
100
AcDbEntity
  8
C-2
  6
Continuous
 62
     3
370
     9
100
AcDbLine
 10
-1278.636009965905
 20
742.3719499130549
 30
0.0
 11
-1267.635611330041
 21
742.3719499130549
 31
0.0
  0
LINE
  5
2C3
330
1F
100
AcDbEntity
  8
C-2
  6
Continuous
 62
     3
370
     9
100
AcDbLine
 10
-1278.636009965905
 20
739.3724076767268
 30
0.0
 11
-1267.635611330041
 21
739.3724076767268
 31
0.0
  0
LINE
  5
2C4
330
1F
100
AcDbEntity
  8
C-2
  6
Continuous
 62
     3
370
     9
100
AcDbLine
 10
-1263.635691438683
 20
742.3719499130549
 30
0.0
 11
-1252.635789190301
 21
742.3719499130549
 31
0.0
  0
LINE
  5
2C5
330
1F
100
AcDbEntity
  8
C-2
  6
Continuous
 62
     3
370
     9
100
AcDbLine
 10
-1263.635691438683
 20
739.3724076767268
 30
0.0
 11
-1252.635789190301
 21
739.3724076767268
 31
0.0
  0
LINE
  5
2C6
330
1F
100
AcDbEntity
  8
C-2
  6
Continuous
 62
     3
370
     9
100
AcDbLine
 10
-1248.635374341973
 20
742.3719499130549
 30
0.0
 11
-1237.635966096886
 21
742.3719499130549
 31
0.0
  0
LINE
  5
2C7
330
1F
100
AcDbEntity
  8
C-2
  6
Continuous
 62
     3
370
     9
100
AcDbLine
 10
-1248.635374341973
 20
739.3724076767268
 30
0.0
 11
-1237.635966096886
 21
739.3724076767268
 31
0.0
  0
LINE
  5
2C8
330
1F
100
AcDbEntity
  8
C-2
  6
Continuous
 62
     3
370
     9
100
AcDbLine
 10
-1233.635552202233
 20
742.3719499130549
 30
0.0
 11
-1222.635649477013
 21
742.3719499130549
 31
0.0
  0
LINE
  5
2C9
330
1F
100
AcDbEntity
  8
C-2
  6
Continuous
 62
     3
370
     9
100
AcDbLine
 10
-1233.635552202233
 20
739.3724076767268
 30
0.0
 11
-1222.635649477013
 21
739.3724076767268
 31
0.0
  0
LINE
  5
2CA
330
1F
100
AcDbEntity
  8
C-2
  6
Continuous
 62
     3
370
     9
100
AcDbLine
 10
-1218.635729585656
 20
742.3719499130549
 30
0.0
 11
-1207.635828767785
 21
742.3719499130549
 31
0.0
  0
LINE
  5
2CB
330
1F
100
AcDbEntity
  8
C-2
  6
Continuous
 62
     3
370
     9
100
AcDbLine
 10
-1218.635729585656
 20
739.3724076767268
 30
0.0
 11
-1207.635828767785
 21
739.3724076767268
 31
0.0
  0
LINE
  5
2CC
330
1F
100
AcDbEntity
  8
C-2
  6
Continuous
 62
     3
370
     9
100
AcDbLine
 10
-1203.635908876427
 20
742.3719499130549
 30
0.0
 11
-1192.635508333214
 21
742.3719499130549
 31
0.0
  0
LINE
  5
2CD
330
1F
100
AcDbEntity
  8
C-2
  6
Continuous
 62
     3
370
     9
100
AcDbLine
 10
-1203.635908876427
 20
739.3724076767268
 30
0.0
 11
-1192.635508333214
 21
739.3724076767268
 31
0.0
  0
LINE
  5
2CE
330
1F
100
AcDbEntity
  8
C-2
  6
Continuous
 62
     3
370
     9
100
AcDbLine
 10
-1188.635588441857
 20
742.3719499130549
 30
0.0
 11
-1177.635687623986
 21
742.3719499130549
 31
0.0
  0
LINE
  5
2CF
330
1F
100
AcDbEntity
  8
C-2
  6
Continuous
 62
     3
370
     9
100
AcDbLine
 10
-1188.635588441857
 20
739.3724076767268
 30
0.0
 11
-1177.635687623986
 21
739.3724076767268
 31
0.0
  0
LINE
  5
2D0
330
1F
100
AcDbEntity
  8
C-2
  6
Continuous
 62
     3
370
     9
100
AcDbLine
 10
-1173.635771547326
 20
742.3719499130549
 30
0.0
 11
-1162.63586310006
 21
742.3719499130549
 31
0.0
  0
LINE
  5
2D1
330
1F
100
AcDbEntity
  8
C-2
  6
Continuous
 62
     3
370
     9
100
AcDbLine
 10
-1173.635771547326
 20
739.3724076767268
 30
0.0
 11
-1162.63586310006
 21
739.3724076767268
 31
0.0
  0
LINE
  5
2D2
330
1F
100
AcDbEntity
  8
C-2
  6
Continuous
 62
     3
370
     9
100
AcDbLine
 10
-1158.635451112755
 20
742.3719499130549
 30
0.0
 11
-1147.635550294884
 21
742.3719499130549
 31
0.0
  0
LINE
  5
2D3
330
1F
100
AcDbEntity
  8
C-2
  6
Continuous
 62
     3
370
     9
100
AcDbLine
 10
-1158.635451112755
 20
739.3724076767268
 30
0.0
 11
-1147.635550294884
 21
739.3724076767268
 31
0.0
  0
LINE
  5
2D4
330
1F
100
AcDbEntity
  8
C-2
  6
Continuous
 62
     3
370
     9
100
AcDbLine
 10
-1143.63562658883
 20
742.3719499130549
 30
0.0
 11
-1132.635725770959
 21
742.3719499130549
 31
0.0
  0
LINE
  5
2D5
330
1F
100
AcDbEntity
  8
C-2
  6
Continuous
 62
     3
370
     9
100
AcDbLine
 10
-1143.63562658883
 20
739.3724076767268
 30
0.0
 11
-1132.635725770959
 21
739.3724076767268
 31
0.0
  0
LINE
  5
2D6
330
1F
100
AcDbEntity
  8
C-2
  6
Continuous
 62
     3
370
     9
100
AcDbLine
 10
-1128.635809694299
 20
742.3719499130549
 30
0.0
 11
-1117.635908876427
 21
742.3719499130549
 31
0.0
  0
LINE
  5
2D7
330
1F
100
AcDbEntity
  8
C-2
  6
Continuous
 62
     3
370
     9
100
AcDbLine
 10
-1128.635809694299
 20
739.3724076767268
 30
0.0
 11
-1117.635908876427
 21
739.3724076767268
 31
0.0
  0
LINE
  5
2D8
330
1F
100
AcDbEntity
  8
C-2
  6
Continuous
 62
     3
370
     9
100
AcDbLine
 10
-1113.635481630334
 20
742.3719499130549
 30
0.0
 11
-1102.635588441857
 21
742.3719499130549
 31
0.0
  0
LINE
  5
2D9
330
1F
100
AcDbEntity
  8
C-2
  6
Continuous
 62
     3
370
     9
100
AcDbLine
 10
-1113.635481630334
 20
739.3724076767268
 30
0.0
 11
-1102.635588441857
 21
739.3724076767268
 31
0.0
  0
LINE
  5
2DA
330
1F
100
AcDbEntity
  8
C-2
  6
Continuous
 62
     3
370
     9
100
AcDbLine
 10
-1098.635664735802
 20
742.3719499130549
 30
0.0
 11
-1087.635756288537
 21
742.3719499130549
 31
0.0
  0
LINE
  5
2DB
330
1F
100
AcDbEntity
  8
C-2
  6
Continuous
 62
     3
370
     9
100
AcDbLine
 10
-1098.635664735802
 20
739.3724076767268
 30
0.0
 11
-1087.635756288537
 21
739.3724076767268
 31
0.0
  0
LINE
  5
2DC
330
1F
100
AcDbEntity
  8
C-2
  6
Continuous
 62
     3
370
     9
100
AcDbLine
 10
-1083.635344301232
 20
742.3719499130549
 30
0.0
 11
-1072.635451112755
 21
742.3719499130549
 31
0.0
  0
LINE
  5
2DD
330
1F
100
AcDbEntity
  8
C-2
  6
Continuous
 62
     3
370
     9
100
AcDbLine
 10
-1083.635344301232
 20
739.3724076767268
 30
0.0
 11
-1072.635451112755
 21
739.3724076767268
 31
0.0
  0
LINE
  5
2DE
330
1F
100
AcDbEntity
  8
C-2
  6
Continuous
 62
     3
370
     9
100
AcDbLine
 10
-1068.635527406701
 20
742.3719499130549
 30
0.0
 11
-1057.635618959435
 21
742.3719499130549
 31
0.0
  0
LINE
  5
2DF
330
1F
100
AcDbEntity
  8
C-2
  6
Continuous
 62
     3
370
     9
100
AcDbLine
 10
-1068.635527406701
 20
739.3724076767268
 30
0.0
 11
-1057.635618959435
 21
739.3724076767268
 31
0.0
  0
LINE
  5
2E0
330
1F
100
AcDbEntity
  8
C-2
  6
Continuous
 62
     3
370
     9
100
AcDbLine
 10
-1053.635710512169
 20
742.3719499130549
 30
0.0
 11
-1042.635802064904
 21
742.3719499130549
 31
0.0
  0
LINE
  5
2E1
330
1F
100
AcDbEntity
  8
C-2
  6
Continuous
 62
     3
370
     9
100
AcDbLine
 10
-1053.635710512169
 20
739.3724076767268
 30
0.0
 11
-1042.635802064904
 21
739.3724076767268
 31
0.0
  0
LINE
  5
2E2
330
1F
100
AcDbEntity
  8
C-2
  6
Continuous
 62
     3
370
     9
100
AcDbLine
 10
-1038.635878358849
 20
742.3719499130549
 30
0.0
 11
-1027.635481630334
 21
742.3719499130549
 31
0.0
  0
LINE
  5
2E3
330
1F
100
AcDbEntity
  8
C-2
  6
Continuous
 62
     3
370
     9
100
AcDbLine
 10
-1038.635878358849
 20
739.3724076767268
 30
0.0
 11
-1027.635481630334
 21
739.3724076767268
 31
0.0
  0
LINE
  5
2E4
330
1F
100
AcDbEntity
  8
C-2
  6
Continuous
 62
     3
370
     9
100
AcDbLine
 10
-1023.635557924279
 20
742.3719499130549
 30
0.0
 11
-1012.635664735802
 21
742.3719499130549
 31
0.0
  0
LINE
  5
2E5
330
1F
100
AcDbEntity
  8
C-2
  6
Continuous
 62
     3
370
     9
100
AcDbLine
 10
-1023.635557924279
 20
739.3724076767268
 30
0.0
 11
-1012.635664735802
 21
739.3724076767268
 31
0.0
  0
LINE
  5
2E6
330
1F
100
AcDbEntity
  8
C-2
  6
Continuous
 62
     3
370
     9
100
AcDbLine
 10
-1008.635741029748
 20
742.3719499130549
 30
0.0
 11
-997.635847841271
 21
742.3719499130549
 31
0.0
  0
LINE
  5
2E7
330
1F
100
AcDbEntity
  8
C-2
  6
Continuous
 62
     3
370
     9
100
AcDbLine
 10
-1008.635741029748
 20
739.3724076767268
 30
0.0
 11
-997.635847841271
 21
739.3724076767268
 31
0.0
  0
LINE
  5
2E8
330
1F
100
AcDbEntity
  8
C-2
  6
Continuous
 62
     3
370
     9
100
AcDbLine
 10
-993.6354205951773
 20
742.3719499130549
 30
0.0
 11
-982.6360309467398
 21
742.3719499130549
 31
0.0
  0
LINE
  5
2E9
330
1F
100
AcDbEntity
  8
C-2
  6
Continuous
 62
     3
370
     9
100
AcDbLine
 10
-993.6354205951773
 20
739.3724076767268
 30
0.0
 11
-982.6360309467398
 21
739.3724076767268
 31
0.0
  0
LINE
  5
2EA
330
1F
100
AcDbEntity
  8
C-2
  6
Continuous
 62
     3
370
     9
100
AcDbLine
 10
-978.635603700646
 20
742.3719499130549
 30
0.0
 11
-967.6356952533804
 21
742.3719499130549
 31
0.0
  0
LINE
  5
2EB
330
1F
100
AcDbEntity
  8
C-2
  6
Continuous
 62
     3
370
     9
100
AcDbLine
 10
-978.635603700646
 20
739.3724076767268
 30
0.0
 11
-967.6356952533804
 21
739.3724076767268
 31
0.0
  0
LINE
  5
2EC
330
1F
100
AcDbEntity
  8
C-2
  6
Continuous
 62
     3
370
     9
100
AcDbLine
 10
-963.6352985248648
 20
742.3719499130549
 30
0.0
 11
-952.6353900775991
 21
742.3719499130549
 31
0.0
  0
LINE
  5
2ED
330
1F
100
AcDbEntity
  8
C-2
  6
Continuous
 62
     3
370
     9
100
AcDbLine
 10
-963.6352985248648
 20
739.3724076767268
 30
0.0
 11
-952.6353900775991
 21
739.3724076767268
 31
0.0
  0
LINE
  5
2EE
330
1F
100
AcDbEntity
  8
C-2
  6
Continuous
 62
     3
370
     9
100
AcDbLine
 10
-948.6354511127554
 20
742.3719499130549
 30
0.0
 11
-937.6355731830679
 21
742.3719499130549
 31
0.0
  0
LINE
  5
2EF
330
1F
100
AcDbEntity
  8
C-2
  6
Continuous
 62
     3
370
     9
100
AcDbLine
 10
-948.6354511127554
 20
739.3724076767268
 30
0.0
 11
-937.6355731830679
 21
739.3724076767268
 31
0.0
  0
LINE
  5
2F0
330
1F
100
AcDbEntity
  8
C-2
  6
Continuous
 62
     3
370
     9
100
AcDbLine
 10
-933.6356342182241
 20
742.3719499130549
 30
0.0
 11
-922.6357257709585
 21
742.3719499130549
 31
0.0
  0
LINE
  5
2F1
330
1F
100
AcDbEntity
  8
C-2
  6
Continuous
 62
     3
370
     9
100
AcDbLine
 10
-933.6356342182241
 20
739.3724076767268
 30
0.0
 11
-922.6357257709585
 21
739.3724076767268
 31
0.0
  0
LINE
  5
2F2
330
1F
100
AcDbEntity
  8
C-2
  6
Continuous
 62
     3
370
     9
100
AcDbLine
 10
-918.6353290424429
 20
742.3719499130549
 30
0.0
 11
-907.6359088764273
 21
742.3719499130549
 31
0.0
  0
LINE
  5
2F3
330
1F
100
AcDbEntity
  8
C-2
  6
Continuous
 62
     3
370
     9
100
AcDbLine
 10
-918.6353290424429
 20
739.3724076767268
 30
0.0
 11
-907.6359088764273
 21
739.3724076767268
 31
0.0
  0
LINE
  5
2F4
330
1F
100
AcDbEntity
  8
C-2
  6
Continuous
 62
     3
370
     9
100
AcDbLine
 10
-903.6355121479116
 20
742.3719499130549
 30
0.0
 11
-892.635603700646
 21
742.3719499130549
 31
0.0
  0
LINE
  5
2F5
330
1F
100
AcDbEntity
  8
C-2
  6
Continuous
 62
     3
370
     9
100
AcDbLine
 10
-903.6355121479116
 20
739.3724076767268
 30
0.0
 11
-892.635603700646
 21
739.3724076767268
 31
0.0
  0
LINE
  5
2F6
330
1F
100
AcDbEntity
  8
C-2
  6
Continuous
 62
     3
370
     9
100
AcDbLine
 10
-888.6356647358023
 20
742.3719499130549
 30
0.0
 11
-877.6357868061149
 21
742.3719499130549
 31
0.0
  0
LINE
  5
2F7
330
1F
100
AcDbEntity
  8
C-2
  6
Continuous
 62
     3
370
     9
100
AcDbLine
 10
-888.6356647358023
 20
739.3724076767268
 30
0.0
 11
-877.6357868061149
 21
739.3724076767268
 31
0.0
  0
LINE
  5
2F8
330
1F
100
AcDbEntity
  8
C-2
  6
Continuous
 62
     3
370
     9
100
AcDbLine
 10
-873.6358478412711
 20
742.3719499130549
 30
0.0
 11
-862.6354511127554
 21
742.3719499130549
 31
0.0
  0
LINE
  5
2F9
330
1F
100
AcDbEntity
  8
C-2
  6
Continuous
 62
     3
370
     9
100
AcDbLine
 10
-873.6358478412711
 20
739.3724076767268
 30
0.0
 11
-862.6354511127554
 21
739.3724076767268
 31
0.0
  0
LINE
  5
2FA
330
1F
100
AcDbEntity
  8
C-2
  6
Continuous
 62
     3
370
     9
100
AcDbLine
 10
-858.6355426654899
 20
742.3719499130549
 30
0.0
 11
-847.6356342182243
 21
742.3719499130549
 31
0.0
  0
LINE
  5
2FB
330
1F
100
AcDbEntity
  8
C-2
  6
Continuous
 62
     3
370
     9
100
AcDbLine
 10
-858.6355426654899
 20
739.3724076767268
 30
0.0
 11
-847.6356342182243
 21
739.3724076767268
 31
0.0
  0
LINE
  5
2FC
330
1F
100
AcDbEntity
  8
C-2
  6
Continuous
 62
     3
370
     9
100
AcDbLine
 10
-843.6352069721304
 20
742.3719499130549
 30
0.0
 11
-832.6358173236929
 21
742.3719499130549
 31
0.0
  0
LINE
  5
2FD
330
1F
100
AcDbEntity
  8
C-2
  6
Continuous
 62
     3
370
     9
100
AcDbLine
 10
-843.6352069721304
 20
739.3724076767268
 30
0.0
 11
-832.6358173236929
 21
739.3724076767268
 31
0.0
  0
LINE
  5
2FE
330
1F
100
AcDbEntity
  8
C-2
  6
Continuous
 62
     3
370
     9
100
AcDbLine
 10
-828.6353900775993
 20
742.3719499130549
 30
0.0
 11
-817.6354816303336
 21
742.3719499130549
 31
0.0
  0
LINE
  5
2FF
330
1F
100
AcDbEntity
  8
C-2
  6
Continuous
 62
     3
370
     9
100
AcDbLine
 10
-828.6353900775993
 20
739.3724076767268
 30
0.0
 11
-817.6354816303336
 21
739.3724076767268
 31
0.0
  0
LINE
  5
300
330
1F
100
AcDbEntity
  8
C-2
  6
Continuous
 62
     3
370
     9
100
AcDbLine
 10
-813.6355731830679
 20
742.3719499130549
 30
0.0
 11
-802.6356647358023
 21
742.3719499130549
 31
0.0
  0
LINE
  5
301
330
1F
100
AcDbEntity
  8
C-2
  6
Continuous
 62
     3
370
     9
100
AcDbLine
 10
-813.6355731830679
 20
739.3724076767268
 30
0.0
 11
-802.6356647358023
 21
739.3724076767268
 31
0.0
  0
LINE
  5
302
330
1F
100
AcDbEntity
  8
C-2
  6
Continuous
 62
     3
370
     9
100
AcDbLine
 10
-798.6357562885366
 20
742.3719499130549
 30
0.0
 11
-787.635359560021
 21
742.3719499130549
 31
0.0
  0
LINE
  5
303
330
1F
100
AcDbEntity
  8
C-2
  6
Continuous
 62
     3
370
     9
100
AcDbLine
 10
-798.6357562885366
 20
739.3724076767268
 30
0.0
 11
-787.635359560021
 21
739.3724076767268
 31
0.0
  0
LINE
  5
304
330
1F
100
AcDbEntity
  8
C-2
  6
Continuous
 62
     3
370
     9
100
AcDbLine
 10
-783.6354511127554
 20
742.3719499130549
 30
0.0
 11
-772.6355426654898
 21
742.3719499130549
 31
0.0
  0
LINE
  5
305
330
1F
100
AcDbEntity
  8
C-2
  6
Continuous
 62
     3
370
     9
100
AcDbLine
 10
-783.6354511127554
 20
739.3724076767268
 30
0.0
 11
-772.6355426654898
 21
739.3724076767268
 31
0.0
  0
LINE
  5
306
330
1F
100
AcDbEntity
  8
C-2
  6
Continuous
 62
     3
370
     9
100
AcDbLine
 10
-768.635603700646
 20
742.3719499130549
 30
0.0
 11
-757.6357257709585
 21
742.3719499130549
 31
0.0
  0
LINE
  5
307
330
1F
100
AcDbEntity
  8
C-2
  6
Continuous
 62
     3
370
     9
100
AcDbLine
 10
-768.635603700646
 20
739.3724076767268
 30
0.0
 11
-757.6357257709585
 21
739.3724076767268
 31
0.0
  0
LINE
  5
308
330
1F
100
AcDbEntity
  8
C-2
  6
Continuous
 62
     3
370
     9
100
AcDbLine
 10
-753.6352985248648
 20
742.3719499130549
 30
0.0
 11
-742.6358783588491
 21
742.3719499130549
 31
0.0
  0
LINE
  5
309
330
1F
100
AcDbEntity
  8
C-2
  6
Continuous
 62
     3
370
     9
100
AcDbLine
 10
-753.6352985248648
 20
739.3724076767268
 30
0.0
 11
-742.6358783588491
 21
739.3724076767268
 31
0.0
  0
LINE
  5
30A
330
1F
100
AcDbEntity
  8
C-2
  6
Continuous
 62
     3
370
     9
100
AcDbLine
 10
-738.6354511127554
 20
742.3719499130549
 30
0.0
 11
-727.6355731830679
 21
742.3719499130549
 31
0.0
  0
LINE
  5
30B
330
1F
100
AcDbEntity
  8
C-2
  6
Continuous
 62
     3
370
     9
100
AcDbLine
 10
-738.6354511127554
 20
739.3724076767268
 30
0.0
 11
-727.6355731830679
 21
739.3724076767268
 31
0.0
  0
LINE
  5
30C
330
1F
100
AcDbEntity
  8
C-2
  6
Continuous
 62
     3
370
     9
100
AcDbLine
 10
-723.6356342182241
 20
742.3719499130549
 30
0.0
 11
-712.6352680072866
 21
742.3719499130549
 31
0.0
  0
LINE
  5
30D
330
1F
100
AcDbEntity
  8
C-2
  6
Continuous
 62
     3
370
     9
100
AcDbLine
 10
-723.6356342182241
 20
739.3724076767268
 30
0.0
 11
-712.6352680072866
 21
739.3724076767268
 31
0.0
  0
LINE
  5
30E
330
1F
100
AcDbEntity
  8
C-2
  6
Continuous
 62
     3
370
     9
100
AcDbLine
 10
-708.6353290424429
 20
742.3719499130549
 30
0.0
 11
-697.6354511127554
 21
742.3719499130549
 31
0.0
  0
LINE
  5
30F
330
1F
100
AcDbEntity
  8
C-2
  6
Continuous
 62
     3
370
     9
100
AcDbLine
 10
-708.6353290424429
 20
739.3724076767268
 30
0.0
 11
-697.6354511127554
 21
739.3724076767268
 31
0.0
  0
LINE
  5
310
330
1F
100
AcDbEntity
  8
C-2
  6
Continuous
 62
     3
370
     9
100
AcDbLine
 10
-693.6355121479116
 20
742.3719499130549
 30
0.0
 11
-682.6356342182243
 21
742.3719499130549
 31
0.0
  0
LINE
  5
311
330
1F
100
AcDbEntity
  8
C-2
  6
Continuous
 62
     3
370
     9
100
AcDbLine
 10
-693.6355121479116
 20
739.3724076767268
 30
0.0
 11
-682.6356342182243
 21
739.3724076767268
 31
0.0
  0
LINE
  5
312
330
1F
100
AcDbEntity
  8
C-2
  6
Continuous
 62
     3
370
     9
100
AcDbLine
 10
-678.6352069721304
 20
742.3719499130549
 30
0.0
 11
-667.6358173236929
 21
742.3719499130549
 31
0.0
  0
LINE
  5
313
330
1F
100
AcDbEntity
  8
C-2
  6
Continuous
 62
     3
370
     9
100
AcDbLine
 10
-678.6352069721304
 20
739.3724076767268
 30
0.0
 11
-667.6358173236929
 21
739.3724076767268
 31
0.0
  0
LINE
  5
314
330
1F
100
AcDbEntity
  8
C-2
  6
Continuous
 62
     3
370
     9
100
AcDbLine
 10
-663.6353900775993
 20
742.3719499130549
 30
0.0
 11
-652.6354511127554
 21
742.3719499130549
 31
0.0
  0
LINE
  5
315
330
1F
100
AcDbEntity
  8
C-2
  6
Continuous
 62
     3
370
     9
100
AcDbLine
 10
-663.6353900775993
 20
739.3724076767268
 30
0.0
 11
-652.6354511127554
 21
739.3724076767268
 31
0.0
  0
LINE
  5
316
330
1F
100
AcDbEntity
  8
C-2
  6
Continuous
 62
     3
370
     9
100
AcDbLine
 10
-648.6355731830679
 20
742.3719499130549
 30
0.0
 11
-637.6356342182241
 21
742.3719499130549
 31
0.0
  0
LINE
  5
317
330
1F
100
AcDbEntity
  8
C-2
  6
Continuous
 62
     3
370
     9
100
AcDbLine
 10
-648.6355731830679
 20
739.3724076767268
 30
0.0
 11
-637.6356342182241
 21
739.3724076767268
 31
0.0
  0
LINE
  5
318
330
1F
100
AcDbEntity
  8
C-2
  6
Continuous
 62
     3
370
     9
100
AcDbLine
 10
-633.6357562885366
 20
742.3719499130549
 30
0.0
 11
-622.6353290424429
 21
742.3719499130549
 31
0.0
  0
LINE
  5
319
330
1F
100
AcDbEntity
  8
C-2
  6
Continuous
 62
     3
370
     9
100
AcDbLine
 10
-633.6357562885366
 20
739.3724076767268
 30
0.0
 11
-622.6353290424429
 21
739.3724076767268
 31
0.0
  0
LINE
  5
31A
330
1F
100
AcDbEntity
  8
C-2
  6
Continuous
 62
     3
370
     9
100
AcDbLine
 10
-618.6353900775991
 20
742.3719499130549
 30
0.0
 11
-607.6355121479118
 21
742.3719499130549
 31
0.0
  0
LINE
  5
31B
330
1F
100
AcDbEntity
  8
C-2
  6
Continuous
 62
     3
370
     9
100
AcDbLine
 10
-618.6353900775991
 20
739.3724076767268
 30
0.0
 11
-607.6355121479118
 21
739.3724076767268
 31
0.0
  0
LINE
  5
31C
330
1F
100
AcDbEntity
  8
C-2
  6
Continuous
 62
     3
370
     9
100
AcDbLine
 10
-603.6350849018179
 20
742.3719499130549
 30
0.0
 11
-592.6356952533804
 21
742.3719499130549
 31
0.0
  0
LINE
  5
31D
330
1F
100
AcDbEntity
  8
C-2
  6
Continuous
 62
     3
370
     9
100
AcDbLine
 10
-603.6350849018179
 20
739.3724076767268
 30
0.0
 11
-592.6356952533804
 21
739.3724076767268
 31
0.0
  0
LINE
  5
31E
330
1F
100
AcDbEntity
  8
C-2
  6
Continuous
 62
     3
370
     9
100
AcDbLine
 10
-588.6352680072868
 20
742.3719499130549
 30
0.0
 11
-577.6353900775991
 21
742.3719499130549
 31
0.0
  0
LINE
  5
31F
330
1F
100
AcDbEntity
  8
C-2
  6
Continuous
 62
     3
370
     9
100
AcDbLine
 10
-588.6352680072868
 20
739.3724076767268
 30
0.0
 11
-577.6353900775991
 21
739.3724076767268
 31
0.0
  0
LINE
  5
320
330
1F
100
AcDbEntity
  8
C-2
  6
Continuous
 62
     3
370
     9
100
AcDbLine
 10
-573.6354511127554
 20
742.3719499130549
 30
0.0
 11
-562.6355731830679
 21
742.3719499130549
 31
0.0
  0
LINE
  5
321
330
1F
100
AcDbEntity
  8
C-2
  6
Continuous
 62
     3
370
     9
100
AcDbLine
 10
-573.6354511127554
 20
739.3724076767268
 30
0.0
 11
-562.6355731830679
 21
739.3724076767268
 31
0.0
  0
LINE
  5
322
330
1F
100
AcDbEntity
  8
C-2
  6
Continuous
 62
     3
370
     9
100
AcDbLine
 10
-558.6351459369741
 20
742.3719499130549
 30
0.0
 11
-547.6352069721305
 21
742.3719499130549
 31
0.0
  0
LINE
  5
323
330
1F
100
AcDbEntity
  8
C-2
  6
Continuous
 62
     3
370
     9
100
AcDbLine
 10
-558.6351459369741
 20
739.3724076767268
 30
0.0
 11
-547.6352069721305
 21
739.3724076767268
 31
0.0
  0
LINE
  5
324
330
1F
100
AcDbEntity
  8
C-2
  6
Continuous
 62
     3
370
     9
100
AcDbLine
 10
-543.6353290424429
 20
742.3719499130549
 30
0.0
 11
-532.6353900775991
 21
742.3719499130549
 31
0.0
  0
LINE
  5
325
330
1F
100
AcDbEntity
  8
C-2
  6
Continuous
 62
     3
370
     9
100
AcDbLine
 10
-543.6353290424429
 20
739.3724076767268
 30
0.0
 11
-532.6353900775991
 21
739.3724076767268
 31
0.0
  0
LINE
  5
326
330
1F
100
AcDbEntity
  8
C-2
  6
Continuous
 62
     3
370
     9
100
AcDbLine
 10
-528.6355121479116
 20
742.3719499130549
 30
0.0
 11
-517.6355731830679
 21
742.3719499130549
 31
0.0
  0
LINE
  5
327
330
1F
100
AcDbEntity
  8
C-2
  6
Continuous
 62
     3
370
     9
100
AcDbLine
 10
-528.6355121479116
 20
739.3724076767268
 30
0.0
 11
-517.6355731830679
 21
739.3724076767268
 31
0.0
  0
LINE
  5
328
330
1F
100
AcDbEntity
  8
C-2
  6
Continuous
 62
     3
370
     9
100
AcDbLine
 10
-513.6351459369741
 20
742.3719499130549
 30
0.0
 11
-502.6352680072866
 21
742.3719499130549
 31
0.0
  0
LINE
  5
329
330
1F
100
AcDbEntity
  8
C-2
  6
Continuous
 62
     3
370
     9
100
AcDbLine
 10
-513.6351459369741
 20
739.3724076767268
 30
0.0
 11
-502.6352680072866
 21
739.3724076767268
 31
0.0
  0
LINE
  5
32A
330
1F
100
AcDbEntity
  8
C-2
  6
Continuous
 62
     3
370
     9
100
AcDbLine
 10
-498.6353290424429
 20
742.3719499130549
 30
0.0
 11
-487.6354511127554
 21
742.3719499130549
 31
0.0
  0
LINE
  5
32B
330
1F
100
AcDbEntity
  8
C-2
  6
Continuous
 62
     3
370
     9
100
AcDbLine
 10
-498.6353290424429
 20
739.3724076767268
 30
0.0
 11
-487.6354511127554
 21
739.3724076767268
 31
0.0
  0
LINE
  5
32C
330
1F
100
AcDbEntity
  8
C-2
  6
Continuous
 62
     3
370
     9
100
AcDbLine
 10
-483.6355121479116
 20
742.3719499130549
 30
0.0
 11
-472.6351459369741
 21
742.3719499130549
 31
0.0
  0
LINE
  5
32D
330
1F
100
AcDbEntity
  8
C-2
  6
Continuous
 62
     3
370
     9
100
AcDbLine
 10
-483.6355121479116
 20
739.3724076767268
 30
0.0
 11
-472.6351459369741
 21
739.3724076767268
 31
0.0
  0
LINE
  5
32E
330
1F
100
AcDbEntity
  8
C-4
  6
Continuous
 62
     7
370
     9
100
AcDbLine
 10
-590.6344745502555
 20
982.8715226669613
 30
0.0
 11
-575.6349017963491
 21
982.8715226669613
 31
0.0
  0
LINE
  5
32F
330
1F
100
AcDbEntity
  8
C-4
  6
Continuous
 62
     7
370
     9
100
AcDbLine
 10
-575.6349017963491
 20
922.871736290008
 30
0.0
 11
-575.6349017963491
 21
985.8715837021174
 31
0.0
  0
LINE
  5
330
330
1F
100
AcDbEntity
  8
C-4
  6
Continuous
 62
     7
370
     9
100
AcDbLine
 10
-590.6344745502555
 20
922.871736290008
 30
0.0
 11
-590.6344745502555
 21
985.8715837021174
 31
0.0
  0
LWPOLYLINE
  5
331
330
1F
100
AcDbEntity
  8
C-4
  6
Continuous
 62
     7
370
     9
100
AcDbPolyline
 90
        4
 70
     1
 43
1.0
 10
-1464.136473451622
 20
1054.871095420868
 42
0.4142135623731
 10
-1464.636473451623
 20
1055.371095420867
 42
0.4142135623731
 10
-1465.136473451623
 20
1054.871095420868
 42
0.4142135623731
 10
-1464.636473451623
 20
1054.371095420868
 42
0.4142135623731
  0
LWPOLYLINE
  5
332
330
1F
100
AcDbEntity
  8
C-4
  6
Continuous
 62
     7
370
     9
100
AcDbPolyline
 90
        4
 70
     1
 43
1.0
 10
-1462.135771547325
 20
1054.871095420868
 42
0.4142135623731
 10
-1462.635771547325
 20
1055.371095420867
 42
0.4142135623731
 10
-1463.135771547326
 20
1054.871095420868
 42
0.4142135623731
 10
-1462.635771547325
 20
1054.371095420868
 42
0.4142135623731
  0
LWPOLYLINE
  5
333
330
1F
100
AcDbEntity
  8
C-4
  6
Continuous
 62
     7
370
     9
100
AcDbPolyline
 90
        4
 70
     1
 43
1.0
 10
-468.1361835346303
 20
1054.871095420868
 42
0.4142135623731
 10
-468.6361835346303
 20
1055.371095420867
 42
0.4142135623731
 10
-469.1361835346303
 20
1054.871095420868
 42
0.4142135623731
 10
-468.6361835346303
 20
1054.371095420868
 42
0.4142135623731
  0
LWPOLYLINE
  5
334
330
1F
100
AcDbEntity
  8
C-4
  6
Continuous
 62
     7
370
     9
100
AcDbPolyline
 90
        4
 70
     1
 43
1.0
 10
-466.1364887104117
 20
1054.871095420868
 42
0.4142135623731
 10
-466.6364887104117
 20
1055.371095420867
 42
0.4142135623731
 10
-467.1364887104116
 20
1054.871095420868
 42
0.4142135623731
 10
-466.6364887104117
 20
1054.371095420868
 42
0.4142135623731
  0
LWPOLYLINE
  5
335
330
1F
100
AcDbEntity
  8
C-4
  6
Continuous
 62
     7
370
     9
100
AcDbPolyline
 90
        4
 70
     1
 43
1.0
 10
-1462.135771547325
 20
1134.870424034149
 42
0.4142135623731
 10
-1462.635771547325
 20
1135.370424034149
 42
0.4142135623731
 10
-1463.135771547326
 20
1134.870424034149
 42
0.4142135623731
 10
-1462.635771547325
 20
1134.370424034149
 42
0.4142135623731
  0
LWPOLYLINE
  5
336
330
1F
100
AcDbEntity
  8
C-4
  6
Continuous
 62
     7
370
     9
100
AcDbPolyline
 90
        4
 70
     1
 43
1.0
 10
-466.1364887104117
 20
1134.870424034149
 42
0.4142135623731
 10
-466.6364887104117
 20
1135.370424034149
 42
0.4142135623731
 10
-467.1364887104116
 20
1134.870424034149
 42
0.4142135623731
 10
-466.6364887104117
 20
1134.370424034149
 42
0.4142135623731
  0
LWPOLYLINE
  5
337
330
1F
100
AcDbEntity
  8
C-4
  6
Continuous
 62
     7
370
     9
100
AcDbPolyline
 90
        4
 70
     1
 43
1.0
 10
-590.1344745502555
 20
982.8715226669613
 42
0.4142135623731
 10
-590.6344745502555
 20
983.3715226669613
 42
0.4142135623731
 10
-591.1344745502554
 20
982.8715226669613
 42
0.4142135623731
 10
-590.6344745502555
 20
982.3715226669613
 42
0.4142135623731
  0
LWPOLYLINE
  5
338
330
1F
100
AcDbEntity
  8
C-4
  6
Continuous
 62
     7
370
     9
100
AcDbPolyline
 90
        4
 70
     1
 43
1.0
 10
-575.1349017963493
 20
982.8715226669613
 42
0.4142135623731
 10
-575.6349017963491
 20
983.3715226669613
 42
0.4142135623731
 10
-576.1349017963491
 20
982.8715226669613
 42
0.4142135623731
 10
-575.6349017963491
 20
982.3715226669613
 42
0.4142135623731
  0
TEXT
  5
339
330
1F
100
AcDbEntity
  8
C-4
  6
Continuous
 62
     2
370
     9
100
AcDbText
 10
-1490.597563539513
 20
1065.510362998993
 30
0.0
 40
30.48
  1
2
 41
0.9999999999999998
  7
ＭＳ ゴシック
100
AcDbText
  0
TEXT
  5
33A
330
1F
100
AcDbEntity
  8
C-4
  6
Continuous
 62
     2
370
     9
100
AcDbText
 10
-998.1357715473257
 20
1065.510362998993
 30
0.0
 40
30.48
  1
994
 41
1.083333333333333
  7
ＭＳ ゴシック
100
AcDbText
  0
TEXT
  5
33B
330
1F
100
AcDbEntity
  8
C-4
  6
Continuous
 62
     2
370
     9
100
AcDbText
 10
-494.5973041400992
 20
1065.510362998993
 30
0.0
 40
30.48
  1
2
 41
0.9999999999999998
  7
ＭＳ ゴシック
100
AcDbText
  0
TEXT
  5
33C
330
1F
100
AcDbEntity
  8
C-4
  6
Continuous
 62
     2
370
     9
100
AcDbText
 10
-997.1359088764274
 20
1145.51072920993
 30
0.0
 40
30.48
  1
996
 41
1.083333333333333
  7
ＭＳ ゴシック
100
AcDbText
  0
TEXT
  5
33D
330
1F
100
AcDbEntity
  8
C-5
  6
Continuous
 62
     2
370
     9
100
AcDbText
 10
-1234.135479722985
 20
472.0120634002985
 30
0.0
 40
30.48
  1
平面詳細図　Ｓ＝１：１０
 41
1.114583333333333
  7
ＭＳ ゴシック
100
AcDbText
  0
TEXT
  5
33E
330
1F
100
AcDbEntity
  8
C-4
  6
Continuous
 62
     2
370
     9
100
AcDbText
 10
-604.3847186908804
 20
993.5117668075862
 30
0.0
 40
30.48
  1
15
 41
1.0625
  7
ＭＳ ゴシック
100
AcDbText
  0
LINE
  5
33F
330
1F
100
AcDbEntity
  8
C-2
  6
Continuous
 62
     3
370
     9
100
AcDbLine
 10
650.8246330097281
 20
669.6130482182446
 30
0.0
 11
650.8246330097281
 21
899.6121517643871
 31
0.0
  0
LINE
  5
340
330
1F
100
AcDbEntity
  8
C-2
  6
Continuous
 62
     3
370
     9
100
AcDbLine
 10
610.8254875019156
 20
686.8211742863599
 30
0.0
 11
610.8254875019156
 21
916.8212582096997
 31
0.0
  0
LINE
  5
341
330
1F
100
AcDbEntity
  8
C-5
  6
Continuous
 62
     7
370
     9
100
AcDbLine
 10
739.1418937519156
 20
888.719756744856
 30
0.0
 11
647.1680167987906
 21
805.5890041813793
 31
0.0
  0
LINE
  5
342
330
1F
100
AcDbEntity
  8
C-5
  6
Continuous
 62
     7
370
     9
100
AcDbLine
 10
647.1680167987906
 20
805.5890041813793
 30
0.0
 11
663.3668693378534
 21
824.6298672184888
 31
0.0
  0
LINE
  5
343
330
1F
100
AcDbEntity
  8
C-5
  6
Continuous
 62
     7
370
     9
100
AcDbLine
 10
647.1680167987906
 20
805.5890041813793
 30
0.0
 11
667.7439445331657
 21
819.788146637434
 31
0.0
  0
LINE
  5
344
330
1F
100
AcDbEntity
  8
C-5
  6
Continuous
 62
     7
370
     9
100
AcDbLine
 10
739.1418937519156
 20
888.719756744856
 30
0.0
 11
1087.584276564416
 21
888.719756744856
 31
0.0
  0
LINE
  5
345
330
1F
100
AcDbEntity
  8
C-5
  6
Continuous
 62
     7
370
     9
100
AcDbLine
 10
413.1987785175409
 20
608.6530453190746
 30
0.0
 11
851.2328361347281
 21
608.6530453190746
 31
0.0
  0
LINE
  5
346
330
1F
100
AcDbEntity
  8
C-9
  6
Continuous
 62
     6
370
     5
100
AcDbLine
 10
616.0149406269159
 20
686.2122417912427
 30
0.0
 11
610.8254875019156
 21
690.5669170842114
 31
0.0
  0
LINE
  5
347
330
1F
100
AcDbEntity
  8
C-9
  6
Continuous
 62
     6
370
     5
100
AcDbLine
 10
649.4452384784781
 20
670.1610371098462
 30
0.0
 11
610.8254875019156
 21
702.5671688542309
 31
0.0
  0
LINE
  5
348
330
1F
100
AcDbEntity
  8
C-9
  6
Continuous
 62
     6
370
     5
100
AcDbLine
 10
615.3579582050406
 20
916.3619686589185
 30
0.0
 11
610.8254875019156
 21
913.7449032292309
 31
0.0
  0
LINE
  5
349
330
1F
100
AcDbEntity
  8
C-9
  6
Continuous
 62
     6
370
     5
100
AcDbLine
 10
627.6039298847284
 20
911.4320370182935
 30
0.0
 11
610.8254875019156
 21
901.7446285710278
 31
0.0
  0
LINE
  5
34A
330
1F
100
AcDbEntity
  8
C-9
  6
Continuous
 62
     6
370
     5
100
AcDbLine
 10
636.9950431659782
 20
904.8536983952465
 30
0.0
 11
610.8254875019156
 21
889.7448727116529
 31
0.0
  0
LINE
  5
34B
330
1F
100
AcDbEntity
  8
C-9
  6
Continuous
 62
     6
370
     5
100
AcDbLine
 10
649.5997794941034
 20
900.131377838606
 30
0.0
 11
610.8254875019156
 21
877.7446285710278
 31
0.0
  0
LINE
  5
34C
330
1F
100
AcDbEntity
  8
C-9
  6
Continuous
 62
     6
370
     5
100
AcDbLine
 10
650.8246330097281
 20
897.0035091862621
 30
0.0
 11
646.1077140644159
 21
900.9617916569653
 31
0.0
  0
LINE
  5
34D
330
1F
100
AcDbEntity
  8
C-9
  6
Continuous
 62
     6
370
     5
100
AcDbLine
 10
650.8246330097281
 20
885.003234528059
 30
0.0
 11
612.9093498066032
 21
916.8187862858715
 31
0.0
  0
LINE
  5
34E
330
1F
100
AcDbEntity
  8
C-9
  6
Continuous
 62
     6
370
     5
100
AcDbLine
 10
650.8246330097281
 20
672.839042328352
 30
0.0
 11
647.1036857441032
 21
670.6906925663891
 31
0.0
  0
LINE
  5
34F
330
1F
100
AcDbEntity
  8
C-9
  6
Continuous
 62
     6
370
     5
100
AcDbLine
 10
650.8246330097281
 20
684.8388058171215
 30
0.0
 11
635.3214591816032
 21
675.8881603703442
 31
0.0
  0
LINE
  5
350
330
1F
100
AcDbEntity
  8
C-9
  6
Continuous
 62
     6
370
     5
100
AcDbLine
 10
650.8246330097281
 20
696.8385616764965
 30
0.0
 11
625.8738273456657
 21
682.4333034977856
 31
0.0
  0
LINE
  5
351
330
1F
100
AcDbEntity
  8
C-9
  6
Continuous
 62
     6
370
     5
100
AcDbLine
 10
650.8246330097281
 20
708.8388134465162
 30
0.0
 11
612.7310050800406
 21
686.8454510197582
 31
0.0
  0
LINE
  5
352
330
1F
100
AcDbEntity
  8
C-9
  6
Continuous
 62
     6
370
     5
100
AcDbLine
 10
650.8246330097281
 20
681.0033794865552
 30
0.0
 11
610.8254875019156
 21
714.5669323430004
 31
0.0
  0
LINE
  5
353
330
1F
100
AcDbEntity
  8
C-9
  6
Continuous
 62
     6
370
     5
100
AcDbLine
 10
650.8246330097281
 20
693.0036312565746
 30
0.0
 11
610.8254875019156
 21
726.56718411302
 31
0.0
  0
LINE
  5
354
330
1F
100
AcDbEntity
  8
C-9
  6
Continuous
 62
     6
370
     5
100
AcDbLine
 10
650.8246330097281
 20
705.0033947453443
 30
0.0
 11
610.8254875019156
 21
738.5669399723951
 31
0.0
  0
LINE
  5
355
330
1F
100
AcDbEntity
  8
C-9
  6
Continuous
 62
     6
370
     5
100
AcDbLine
 10
650.8246330097281
 20
717.0036465153637
 30
0.0
 11
610.8254875019156
 21
750.567199371809
 31
0.0
  0
LINE
  5
356
330
1F
100
AcDbEntity
  8
C-9
  6
Continuous
 62
     6
370
     5
100
AcDbLine
 10
650.8246330097281
 20
873.003478668684
 30
0.0
 11
610.8254875019156
 21
906.5670467839185
 31
0.0
  0
LINE
  5
357
330
1F
100
AcDbEntity
  8
C-9
  6
Continuous
 62
     6
370
     5
100
AcDbLine
 10
650.8246330097281
 20
861.0032345280591
 30
0.0
 11
610.8254875019156
 21
894.5672604069654
 31
0.0
  0
LINE
  5
358
330
1F
100
AcDbEntity
  8
C-9
  6
Continuous
 62
     6
370
     5
100
AcDbLine
 10
650.8246330097281
 20
849.003463409895
 30
0.0
 11
610.8254875019156
 21
882.5670162663403
 31
0.0
  0
LINE
  5
359
330
1F
100
AcDbEntity
  8
C-9
  6
Continuous
 62
     6
370
     5
100
AcDbLine
 10
650.8246330097281
 20
837.0037075505201
 30
0.0
 11
610.8254875019156
 21
870.5672604069653
 31
0.0
  0
LINE
  5
35A
330
1F
100
AcDbEntity
  8
C-9
  6
Continuous
 62
     6
370
     5
100
AcDbLine
 10
650.8246330097281
 20
825.003463409895
 30
0.0
 11
610.8254875019156
 21
858.5670010075512
 31
0.0
  0
LINE
  5
35B
330
1F
100
AcDbEntity
  8
C-9
  6
Continuous
 62
     6
370
     5
100
AcDbLine
 10
650.8246330097281
 20
813.003692291731
 30
0.0
 11
610.8254875019156
 21
846.5672451481762
 31
0.0
  0
LINE
  5
35C
330
1F
100
AcDbEntity
  8
C-9
  6
Continuous
 62
     6
370
     5
100
AcDbLine
 10
650.8246330097281
 20
801.0034481511059
 30
0.0
 11
610.8254875019156
 21
834.5670010075513
 31
0.0
  0
LINE
  5
35D
330
1F
100
AcDbEntity
  8
C-9
  6
Continuous
 62
     6
370
     5
100
AcDbLine
 10
650.8246330097281
 20
789.0036922917309
 30
0.0
 11
610.8254875019156
 21
822.5672298893871
 31
0.0
  0
LINE
  5
35E
330
1F
100
AcDbEntity
  8
C-9
  6
Continuous
 62
     6
370
     5
100
AcDbLine
 10
650.8246330097281
 20
777.0034328923168
 30
0.0
 11
610.8254875019156
 21
810.5669857487622
 31
0.0
  0
LINE
  5
35F
330
1F
100
AcDbEntity
  8
C-9
  6
Continuous
 62
     6
370
     5
100
AcDbLine
 10
650.8246330097281
 20
765.0031734929029
 30
0.0
 11
610.8254875019156
 21
798.5667263493481
 31
0.0
  0
LINE
  5
360
330
1F
100
AcDbEntity
  8
C-9
  6
Continuous
 62
     6
370
     5
100
AcDbLine
 10
650.8246330097281
 20
753.0034176335278
 30
0.0
 11
610.8254875019156
 21
786.5669704899732
 31
0.0
  0
LINE
  5
361
330
1F
100
AcDbEntity
  8
C-9
  6
Continuous
 62
     6
370
     5
100
AcDbLine
 10
650.8246330097281
 20
741.0036617741528
 30
0.0
 11
610.8254875019156
 21
774.5672146305981
 31
0.0
  0
LINE
  5
362
330
1F
100
AcDbEntity
  8
C-9
  6
Continuous
 62
     6
370
     5
100
AcDbLine
 10
650.8246330097281
 20
729.0034023747387
 30
0.0
 11
610.8254875019156
 21
762.5669552311841
 31
0.0
  0
LINE
  5
363
330
1F
100
AcDbEntity
  8
C-9
  6
Continuous
 62
     6
370
     5
100
AcDbLine
 10
650.8246330097281
 20
720.8385769352856
 30
0.0
 11
610.8254875019156
 21
697.7447735295239
 31
0.0
  0
LINE
  5
364
330
1F
100
AcDbEntity
  8
C-9
  6
Continuous
 62
     6
370
     5
100
AcDbLine
 10
650.8246330097281
 20
732.8388287053052
 30
0.0
 11
610.8254875019156
 21
709.7450252995435
 31
0.0
  0
LINE
  5
365
330
1F
100
AcDbEntity
  8
C-9
  6
Continuous
 62
     6
370
     5
100
AcDbLine
 10
650.8246330097281
 20
744.8385921940746
 30
0.0
 11
610.8254875019156
 21
721.7452846989574
 31
0.0
  0
LINE
  5
366
330
1F
100
AcDbEntity
  8
C-9
  6
Continuous
 62
     6
370
     5
100
AcDbLine
 10
650.8246330097281
 20
756.8383480534497
 30
0.0
 11
610.8254875019156
 21
733.744544647688
 31
0.0
  0
LINE
  5
367
330
1F
100
AcDbEntity
  8
C-9
  6
Continuous
 62
     6
370
     5
100
AcDbLine
 10
650.8246330097281
 20
888.838653229231
 30
0.0
 11
610.8254875019156
 21
865.7448727116528
 31
0.0
  0
LINE
  5
368
330
1F
100
AcDbEntity
  8
C-9
  6
Continuous
 62
     6
370
     5
100
AcDbLine
 10
650.8246330097281
 20
768.8386074528637
 30
0.0
 11
610.8254875019156
 21
745.7447964177074
 31
0.0
  0
LINE
  5
369
330
1F
100
AcDbEntity
  8
C-9
  6
Continuous
 62
     6
370
     5
100
AcDbLine
 10
650.8246330097281
 20
780.8388515934888
 30
0.0
 11
610.8254875019156
 21
757.7450558171216
 31
0.0
  0
LINE
  5
36A
330
1F
100
AcDbEntity
  8
C-9
  6
Continuous
 62
     6
370
     5
100
AcDbLine
 10
650.8246330097281
 20
792.8386074528637
 30
0.0
 11
610.8254875019156
 21
769.7448116764965
 31
0.0
  0
LINE
  5
36B
330
1F
100
AcDbEntity
  8
C-9
  6
Continuous
 62
     6
370
     5
100
AcDbLine
 10
650.8246330097281
 20
804.8383785710279
 30
0.0
 11
610.8254875019156
 21
781.7445675358715
 31
0.0
  0
LINE
  5
36C
330
1F
100
AcDbEntity
  8
C-9
  6
Continuous
 62
     6
370
     5
100
AcDbLine
 10
650.8246330097281
 20
816.8386227116528
 30
0.0
 11
610.8254875019156
 21
793.7448269352856
 31
0.0
  0
LINE
  5
36D
330
1F
100
AcDbEntity
  8
C-9
  6
Continuous
 62
     6
370
     5
100
AcDbLine
 10
650.8246330097281
 20
828.8383785710278
 30
0.0
 11
610.8254875019156
 21
805.7450863346997
 31
0.0
  0
LINE
  5
36E
330
1F
100
AcDbEntity
  8
C-9
  6
Continuous
 62
     6
370
     5
100
AcDbLine
 10
650.8246330097281
 20
840.8381496891918
 30
0.0
 11
610.8254875019156
 21
817.7448421940746
 31
0.0
  0
LINE
  5
36F
330
1F
100
AcDbEntity
  8
C-9
  6
Continuous
 62
     6
370
     5
100
AcDbLine
 10
650.8246330097281
 20
852.8383938298168
 30
0.0
 11
610.8254875019156
 21
829.7445980534496
 31
0.0
  0
LINE
  5
370
330
1F
100
AcDbEntity
  8
C-9
  6
Continuous
 62
     6
370
     5
100
AcDbLine
 10
650.8246330097281
 20
864.8386532292309
 30
0.0
 11
610.8254875019156
 21
841.7448574528637
 31
0.0
  0
LINE
  5
371
330
1F
100
AcDbEntity
  8
C-9
  6
Continuous
 62
     6
370
     5
100
AcDbLine
 10
650.8246330097281
 20
876.8384090886059
 30
0.0
 11
610.8254875019156
 21
853.7451015934887
 31
0.0
  0
LINE
  5
372
330
1F
100
AcDbEntity
  8
C-4
  6
Continuous
 62
     7
370
     9
100
AcDbLine
 10
610.8254875019156
 20
957.050353668684
 30
0.0
 11
650.8246330097281
 21
957.050353668684
 31
0.0
  0
LINE
  5
373
330
1F
100
AcDbEntity
  8
C-4
  6
Continuous
 62
     7
370
     9
100
AcDbLine
 10
610.8254875019156
 20
931.821563385481
 30
0.0
 11
610.8254875019156
 21
960.0504147038405
 31
0.0
  0
LINE
  5
374
330
1F
100
AcDbEntity
  8
C-4
  6
Continuous
 62
     7
370
     9
100
AcDbLine
 10
650.8246330097281
 20
914.6119686589185
 30
0.0
 11
650.8246330097281
 21
960.0504147038405
 31
0.0
  0
LINE
  5
375
330
1F
100
AcDbEntity
  8
C-2
  6
Continuous
 62
     3
370
     9
100
AcDbLine
 10
650.8246330097281
 20
669.6130482182446
 30
0.0
 11
650.8246330097281
 21
899.6121517643871
 31
0.0
  0
LINE
  5
376
330
1F
100
AcDbEntity
  8
C-2
  6
Continuous
 62
     3
370
     9
100
AcDbLine
 10
610.8254875019156
 20
686.8211742863599
 30
0.0
 11
610.8254875019156
 21
916.8212582096997
 31
0.0
  0
LINE
  5
377
330
1F
100
AcDbEntity
  8
C-5
  6
Continuous
 62
     7
370
     9
100
AcDbLine
 10
739.1418937519156
 20
888.719756744856
 30
0.0
 11
647.1680167987906
 21
805.5890041813793
 31
0.0
  0
LINE
  5
378
330
1F
100
AcDbEntity
  8
C-5
  6
Continuous
 62
     7
370
     9
100
AcDbLine
 10
647.1680167987906
 20
805.5890041813793
 30
0.0
 11
663.3668693378534
 21
824.6298672184888
 31
0.0
  0
LINE
  5
379
330
1F
100
AcDbEntity
  8
C-5
  6
Continuous
 62
     7
370
     9
100
AcDbLine
 10
647.1680167987906
 20
805.5890041813793
 30
0.0
 11
667.7439445331657
 21
819.788146637434
 31
0.0
  0
LINE
  5
37A
330
1F
100
AcDbEntity
  8
C-5
  6
Continuous
 62
     7
370
     9
100
AcDbLine
 10
739.1418937519156
 20
888.719756744856
 30
0.0
 11
1087.584276564416
 21
888.719756744856
 31
0.0
  0
LINE
  5
37B
330
1F
100
AcDbEntity
  8
C-5
  6
Continuous
 62
     7
370
     9
100
AcDbLine
 10
413.1987785175409
 20
608.6530453190746
 30
0.0
 11
851.2328361347281
 21
608.6530453190746
 31
0.0
  0
LINE
  5
37C
330
1F
100
AcDbEntity
  8
C-9
  6
Continuous
 62
     6
370
     5
100
AcDbLine
 10
616.0149406269159
 20
686.2122417912427
 30
0.0
 11
610.8254875019156
 21
690.5669170842114
 31
0.0
  0
LINE
  5
37D
330
1F
100
AcDbEntity
  8
C-9
  6
Continuous
 62
     6
370
     5
100
AcDbLine
 10
649.4452384784781
 20
670.1610371098462
 30
0.0
 11
610.8254875019156
 21
702.5671688542309
 31
0.0
  0
LINE
  5
37E
330
1F
100
AcDbEntity
  8
C-9
  6
Continuous
 62
     6
370
     5
100
AcDbLine
 10
615.3579582050406
 20
916.3619686589185
 30
0.0
 11
610.8254875019156
 21
913.7449032292309
 31
0.0
  0
LINE
  5
37F
330
1F
100
AcDbEntity
  8
C-9
  6
Continuous
 62
     6
370
     5
100
AcDbLine
 10
627.6039298847284
 20
911.4320370182935
 30
0.0
 11
610.8254875019156
 21
901.7446285710278
 31
0.0
  0
LINE
  5
380
330
1F
100
AcDbEntity
  8
C-9
  6
Continuous
 62
     6
370
     5
100
AcDbLine
 10
636.9950431659782
 20
904.8536983952465
 30
0.0
 11
610.8254875019156
 21
889.7448727116529
 31
0.0
  0
LINE
  5
381
330
1F
100
AcDbEntity
  8
C-9
  6
Continuous
 62
     6
370
     5
100
AcDbLine
 10
649.5997794941034
 20
900.131377838606
 30
0.0
 11
610.8254875019156
 21
877.7446285710278
 31
0.0
  0
LINE
  5
382
330
1F
100
AcDbEntity
  8
C-9
  6
Continuous
 62
     6
370
     5
100
AcDbLine
 10
650.8246330097281
 20
897.0035091862621
 30
0.0
 11
646.1077140644159
 21
900.9617916569653
 31
0.0
  0
LINE
  5
383
330
1F
100
AcDbEntity
  8
C-9
  6
Continuous
 62
     6
370
     5
100
AcDbLine
 10
650.8246330097281
 20
885.003234528059
 30
0.0
 11
612.9093498066032
 21
916.8187862858715
 31
0.0
  0
LINE
  5
384
330
1F
100
AcDbEntity
  8
C-9
  6
Continuous
 62
     6
370
     5
100
AcDbLine
 10
650.8246330097281
 20
672.839042328352
 30
0.0
 11
647.1036857441032
 21
670.6906925663891
 31
0.0
  0
LINE
  5
385
330
1F
100
AcDbEntity
  8
C-9
  6
Continuous
 62
     6
370
     5
100
AcDbLine
 10
650.8246330097281
 20
684.8388058171215
 30
0.0
 11
635.3214591816032
 21
675.8881603703442
 31
0.0
  0
LINE
  5
386
330
1F
100
AcDbEntity
  8
C-9
  6
Continuous
 62
     6
370
     5
100
AcDbLine
 10
650.8246330097281
 20
696.8385616764965
 30
0.0
 11
625.8738273456657
 21
682.4333034977856
 31
0.0
  0
LINE
  5
387
330
1F
100
AcDbEntity
  8
C-9
  6
Continuous
 62
     6
370
     5
100
AcDbLine
 10
650.8246330097281
 20
708.8388134465162
 30
0.0
 11
612.7310050800406
 21
686.8454510197582
 31
0.0
  0
LINE
  5
388
330
1F
100
AcDbEntity
  8
C-9
  6
Continuous
 62
     6
370
     5
100
AcDbLine
 10
650.8246330097281
 20
681.0033794865552
 30
0.0
 11
610.8254875019156
 21
714.5669323430004
 31
0.0
  0
LINE
  5
389
330
1F
100
AcDbEntity
  8
C-9
  6
Continuous
 62
     6
370
     5
100
AcDbLine
 10
650.8246330097281
 20
693.0036312565746
 30
0.0
 11
610.8254875019156
 21
726.56718411302
 31
0.0
  0
LINE
  5
38A
330
1F
100
AcDbEntity
  8
C-9
  6
Continuous
 62
     6
370
     5
100
AcDbLine
 10
650.8246330097281
 20
705.0033947453443
 30
0.0
 11
610.8254875019156
 21
738.5669399723951
 31
0.0
  0
LINE
  5
38B
330
1F
100
AcDbEntity
  8
C-9
  6
Continuous
 62
     6
370
     5
100
AcDbLine
 10
650.8246330097281
 20
717.0036465153637
 30
0.0
 11
610.8254875019156
 21
750.567199371809
 31
0.0
  0
LINE
  5
38C
330
1F
100
AcDbEntity
  8
C-9
  6
Continuous
 62
     6
370
     5
100
AcDbLine
 10
650.8246330097281
 20
873.003478668684
 30
0.0
 11
610.8254875019156
 21
906.5670467839185
 31
0.0
  0
LINE
  5
38D
330
1F
100
AcDbEntity
  8
C-9
  6
Continuous
 62
     6
370
     5
100
AcDbLine
 10
650.8246330097281
 20
861.0032345280591
 30
0.0
 11
610.8254875019156
 21
894.5672604069654
 31
0.0
  0
LINE
  5
38E
330
1F
100
AcDbEntity
  8
C-9
  6
Continuous
 62
     6
370
     5
100
AcDbLine
 10
650.8246330097281
 20
849.003463409895
 30
0.0
 11
610.8254875019156
 21
882.5670162663403
 31
0.0
  0
LINE
  5
38F
330
1F
100
AcDbEntity
  8
C-9
  6
Continuous
 62
     6
370
     5
100
AcDbLine
 10
650.8246330097281
 20
837.0037075505201
 30
0.0
 11
610.8254875019156
 21
870.5672604069653
 31
0.0
  0
LINE
  5
390
330
1F
100
AcDbEntity
  8
C-9
  6
Continuous
 62
     6
370
     5
100
AcDbLine
 10
650.8246330097281
 20
825.003463409895
 30
0.0
 11
610.8254875019156
 21
858.5670010075512
 31
0.0
  0
LINE
  5
391
330
1F
100
AcDbEntity
  8
C-9
  6
Continuous
 62
     6
370
     5
100
AcDbLine
 10
650.8246330097281
 20
813.003692291731
 30
0.0
 11
610.8254875019156
 21
846.5672451481762
 31
0.0
  0
LINE
  5
392
330
1F
100
AcDbEntity
  8
C-9
  6
Continuous
 62
     6
370
     5
100
AcDbLine
 10
650.8246330097281
 20
801.0034481511059
 30
0.0
 11
610.8254875019156
 21
834.5670010075513
 31
0.0
  0
LINE
  5
393
330
1F
100
AcDbEntity
  8
C-9
  6
Continuous
 62
     6
370
     5
100
AcDbLine
 10
650.8246330097281
 20
789.0036922917309
 30
0.0
 11
610.8254875019156
 21
822.5672298893871
 31
0.0
  0
LINE
  5
394
330
1F
100
AcDbEntity
  8
C-9
  6
Continuous
 62
     6
370
     5
100
AcDbLine
 10
650.8246330097281
 20
777.0034328923168
 30
0.0
 11
610.8254875019156
 21
810.5669857487622
 31
0.0
  0
LINE
  5
395
330
1F
100
AcDbEntity
  8
C-9
  6
Continuous
 62
     6
370
     5
100
AcDbLine
 10
650.8246330097281
 20
765.0031734929029
 30
0.0
 11
610.8254875019156
 21
798.5667263493481
 31
0.0
  0
LINE
  5
396
330
1F
100
AcDbEntity
  8
C-9
  6
Continuous
 62
     6
370
     5
100
AcDbLine
 10
650.8246330097281
 20
753.0034176335278
 30
0.0
 11
610.8254875019156
 21
786.5669704899732
 31
0.0
  0
LINE
  5
397
330
1F
100
AcDbEntity
  8
C-9
  6
Continuous
 62
     6
370
     5
100
AcDbLine
 10
650.8246330097281
 20
741.0036617741528
 30
0.0
 11
610.8254875019156
 21
774.5672146305981
 31
0.0
  0
LINE
  5
398
330
1F
100
AcDbEntity
  8
C-9
  6
Continuous
 62
     6
370
     5
100
AcDbLine
 10
650.8246330097281
 20
729.0034023747387
 30
0.0
 11
610.8254875019156
 21
762.5669552311841
 31
0.0
  0
LINE
  5
399
330
1F
100
AcDbEntity
  8
C-9
  6
Continuous
 62
     6
370
     5
100
AcDbLine
 10
650.8246330097281
 20
720.8385769352856
 30
0.0
 11
610.8254875019156
 21
697.7447735295239
 31
0.0
  0
LINE
  5
39A
330
1F
100
AcDbEntity
  8
C-9
  6
Continuous
 62
     6
370
     5
100
AcDbLine
 10
650.8246330097281
 20
732.8388287053052
 30
0.0
 11
610.8254875019156
 21
709.7450252995435
 31
0.0
  0
LINE
  5
39B
330
1F
100
AcDbEntity
  8
C-9
  6
Continuous
 62
     6
370
     5
100
AcDbLine
 10
650.8246330097281
 20
744.8385921940746
 30
0.0
 11
610.8254875019156
 21
721.7452846989574
 31
0.0
  0
LINE
  5
39C
330
1F
100
AcDbEntity
  8
C-9
  6
Continuous
 62
     6
370
     5
100
AcDbLine
 10
650.8246330097281
 20
756.8383480534497
 30
0.0
 11
610.8254875019156
 21
733.744544647688
 31
0.0
  0
LINE
  5
39D
330
1F
100
AcDbEntity
  8
C-9
  6
Continuous
 62
     6
370
     5
100
AcDbLine
 10
650.8246330097281
 20
888.838653229231
 30
0.0
 11
610.8254875019156
 21
865.7448727116528
 31
0.0
  0
LINE
  5
39E
330
1F
100
AcDbEntity
  8
C-9
  6
Continuous
 62
     6
370
     5
100
AcDbLine
 10
650.8246330097281
 20
768.8386074528637
 30
0.0
 11
610.8254875019156
 21
745.7447964177074
 31
0.0
  0
LINE
  5
39F
330
1F
100
AcDbEntity
  8
C-9
  6
Continuous
 62
     6
370
     5
100
AcDbLine
 10
650.8246330097281
 20
780.8388515934888
 30
0.0
 11
610.8254875019156
 21
757.7450558171216
 31
0.0
  0
LINE
  5
3A0
330
1F
100
AcDbEntity
  8
C-9
  6
Continuous
 62
     6
370
     5
100
AcDbLine
 10
650.8246330097281
 20
792.8386074528637
 30
0.0
 11
610.8254875019156
 21
769.7448116764965
 31
0.0
  0
LINE
  5
3A1
330
1F
100
AcDbEntity
  8
C-9
  6
Continuous
 62
     6
370
     5
100
AcDbLine
 10
650.8246330097281
 20
804.8383785710279
 30
0.0
 11
610.8254875019156
 21
781.7445675358715
 31
0.0
  0
LINE
  5
3A2
330
1F
100
AcDbEntity
  8
C-9
  6
Continuous
 62
     6
370
     5
100
AcDbLine
 10
650.8246330097281
 20
816.8386227116528
 30
0.0
 11
610.8254875019156
 21
793.7448269352856
 31
0.0
  0
LINE
  5
3A3
330
1F
100
AcDbEntity
  8
C-9
  6
Continuous
 62
     6
370
     5
100
AcDbLine
 10
650.8246330097281
 20
828.8383785710278
 30
0.0
 11
610.8254875019156
 21
805.7450863346997
 31
0.0
  0
LINE
  5
3A4
330
1F
100
AcDbEntity
  8
C-9
  6
Continuous
 62
     6
370
     5
100
AcDbLine
 10
650.8246330097281
 20
840.8381496891918
 30
0.0
 11
610.8254875019156
 21
817.7448421940746
 31
0.0
  0
LINE
  5
3A5
330
1F
100
AcDbEntity
  8
C-9
  6
Continuous
 62
     6
370
     5
100
AcDbLine
 10
650.8246330097281
 20
852.8383938298168
 30
0.0
 11
610.8254875019156
 21
829.7445980534496
 31
0.0
  0
LINE
  5
3A6
330
1F
100
AcDbEntity
  8
C-9
  6
Continuous
 62
     6
370
     5
100
AcDbLine
 10
650.8246330097281
 20
864.8386532292309
 30
0.0
 11
610.8254875019156
 21
841.7448574528637
 31
0.0
  0
LINE
  5
3A7
330
1F
100
AcDbEntity
  8
C-9
  6
Continuous
 62
     6
370
     5
100
AcDbLine
 10
650.8246330097281
 20
876.8384090886059
 30
0.0
 11
610.8254875019156
 21
853.7451015934887
 31
0.0
  0
LINE
  5
3A8
330
1F
100
AcDbEntity
  8
C-4
  6
Continuous
 62
     7
370
     9
100
AcDbLine
 10
610.8254875019156
 20
957.050353668684
 30
0.0
 11
650.8246330097281
 21
957.050353668684
 31
0.0
  0
LINE
  5
3A9
330
1F
100
AcDbEntity
  8
C-4
  6
Continuous
 62
     7
370
     9
100
AcDbLine
 10
610.8254875019156
 20
931.821563385481
 30
0.0
 11
610.8254875019156
 21
960.0504147038405
 31
0.0
  0
LINE
  5
3AA
330
1F
100
AcDbEntity
  8
C-4
  6
Continuous
 62
     7
370
     9
100
AcDbLine
 10
650.8246330097281
 20
914.6119686589185
 30
0.0
 11
650.8246330097281
 21
960.0504147038405
 31
0.0
  0
ARC
  5
3AB
330
1F
100
AcDbEntity
  8
C-2
  6
Continuous
 62
     3
370
     9
100
AcDbCircle
 10
606.8577140644157
 20
647.5701366887035
 30
0.0
 40
39.71226119995117
100
AcDbArc
 50
50.82627868652344
 51
129.1737060546875
  0
ARC
  5
3AC
330
1F
100
AcDbEntity
  8
C-2
  6
Continuous
 62
     3
370
     9
100
AcDbCircle
 10
657.0288566425406
 20
709.1425396428052
 30
0.0
 40
39.71226119995117
100
AcDbArc
 50
230.8262786865235
 51
309.1737060546876
  0
ARC
  5
3AD
330
1F
100
AcDbEntity
  8
C-2
  6
Continuous
 62
     3
370
     9
100
AcDbCircle
 10
657.0288566425406
 20
939.142608307356
 30
0.0
 40
39.71226119995117
100
AcDbArc
 50
230.8262786865235
 51
309.1737060546876
  0
ARC
  5
3AE
330
1F
100
AcDbEntity
  8
C-2
  6
Continuous
 62
     3
370
     9
100
AcDbCircle
 10
606.8577140644157
 20
877.5697323307935
 30
0.0
 40
39.71226119995117
100
AcDbArc
 50
50.82627868652344
 51
129.1737060546875
  0
ARC
  5
3AF
330
1F
100
AcDbEntity
  8
C-2
  6
Continuous
 62
     3
370
     9
100
AcDbCircle
 10
606.8577140644157
 20
647.5701366887035
 30
0.0
 40
39.71226119995117
100
AcDbArc
 50
50.82627868652344
 51
129.1737060546875
  0
ARC
  5
3B0
330
1F
100
AcDbEntity
  8
C-2
  6
Continuous
 62
     3
370
     9
100
AcDbCircle
 10
657.0288566425406
 20
709.1425396428052
 30
0.0
 40
39.71226119995117
100
AcDbArc
 50
230.8262786865235
 51
309.1737060546876
  0
ARC
  5
3B1
330
1F
100
AcDbEntity
  8
C-2
  6
Continuous
 62
     3
370
     9
100
AcDbCircle
 10
657.0288566425406
 20
939.142608307356
 30
0.0
 40
39.71226119995117
100
AcDbArc
 50
230.8262786865235
 51
309.1737060546876
  0
ARC
  5
3B2
330
1F
100
AcDbEntity
  8
C-2
  6
Continuous
 62
     3
370
     9
100
AcDbCircle
 10
606.8577140644157
 20
877.5697323307935
 30
0.0
 40
39.71226119995117
100
AcDbArc
 50
50.82627868652344
 51
129.1737060546875
  0
LWPOLYLINE
  5
3B3
330
1F
100
AcDbEntity
  8
C-4
  6
Continuous
 62
     7
370
     9
100
AcDbPolyline
 90
        4
 70
     1
 43
1.0
 10
611.3254875019156
 20
957.050353668684
 42
0.4142135623731
 10
610.8254875019156
 20
957.550353668684
 42
0.4142135623731
 10
610.3254875019156
 20
957.050353668684
 42
0.4142135623731
 10
610.8254875019156
 20
956.550353668684
 42
0.4142135623731
  0
LWPOLYLINE
  5
3B4
330
1F
100
AcDbEntity
  8
C-4
  6
Continuous
 62
     7
370
     9
100
AcDbPolyline
 90
        4
 70
     1
 43
1.0
 10
651.3246330097281
 20
957.050353668684
 42
0.4142135623731
 10
650.8246330097281
 20
957.550353668684
 42
0.4142135623731
 10
650.3246330097282
 20
957.050353668684
 42
0.4142135623731
 10
650.8246330097281
 20
956.550353668684
 42
0.4142135623731
  0
LWPOLYLINE
  5
3B5
330
1F
100
AcDbEntity
  8
C-4
  6
Continuous
 62
     7
370
     9
100
AcDbPolyline
 90
        4
 70
     1
 43
1.0
 10
611.3254875019156
 20
957.050353668684
 42
0.4142135623731
 10
610.8254875019156
 20
957.550353668684
 42
0.4142135623731
 10
610.3254875019156
 20
957.050353668684
 42
0.4142135623731
 10
610.8254875019156
 20
956.550353668684
 42
0.4142135623731
  0
LWPOLYLINE
  5
3B6
330
1F
100
AcDbEntity
  8
C-4
  6
Continuous
 62
     7
370
     9
100
AcDbPolyline
 90
        4
 70
     1
 43
1.0
 10
651.3246330097281
 20
957.050353668684
 42
0.4142135623731
 10
650.8246330097281
 20
957.550353668684
 42
0.4142135623731
 10
650.3246330097282
 20
957.050353668684
 42
0.4142135623731
 10
650.8246330097281
 20
956.550353668684
 42
0.4142135623731
  0
TEXT
  5
3B7
330
1F
100
AcDbEntity
  8
C-5
  6
Continuous
 62
     7
370
     9
100
AcDbText
 10
746.2162345722282
 20
900.0250436100903
 30
0.0
 40
22.86
  1
ローレットアヤ目模様
 41
1.15
  7
ＭＳ ゴシック
100
AcDbText
  0
TEXT
  5
3B8
330
1F
100
AcDbEntity
  8
C-5
  6
Continuous
 62
     7
370
     9
100
AcDbText
 10
409.6373771503534
 20
619.5837651524487
 30
0.0
 40
22.86
  1
メインバー表面　Ｓ＝１：１
 41
1.153846153846154
  7
ＭＳ ゴシック
100
AcDbText
  0
TEXT
  5
3B9
330
1F
100
AcDbEntity
  8
C-4
  6
Continuous
 62
     2
370
     9
100
AcDbText
 10
620.8249992206657
 20
967.690109528059
 30
0.0
 40
30.48
  1
4
 41
0.9999999999999998
  7
ＭＳ ゴシック
100
AcDbText
  0
TEXT
  5
3BA
330
1F
100
AcDbEntity
  8
C-5
  6
Continuous
 62
     7
370
     9
100
AcDbText
 10
746.2162345722282
 20
900.0250436100903
 30
0.0
 40
22.86
  1
ローレットアヤ目模様
 41
1.15
  7
ＭＳ ゴシック
100
AcDbText
  0
TEXT
  5
3BB
330
1F
100
AcDbEntity
  8
C-5
  6
Continuous
 62
     7
370
     9
100
AcDbText
 10
409.6373771503534
 20
619.5837651524487
 30
0.0
 40
22.86
  1
メインバー表面　Ｓ＝１：１
 41
1.153846153846154
  7
ＭＳ ゴシック
100
AcDbText
  0
TEXT
  5
3BC
330
1F
100
AcDbEntity
  8
C-4
  6
Continuous
 62
     2
370
     9
100
AcDbText
 10
620.8249992206657
 20
967.690109528059
 30
0.0
 40
30.48
  1
4
 41
0.9999999999999998
  7
ＭＳ ゴシック
100
AcDbText
  0
LINE
  5
3BD
330
1F
100
AcDbEntity
  8
A-5
  6
Continuous
 62
     7
370
     9
100
AcDbLine
 10
374.7710273085355
 20
-79.56601355242299
 30
0.0
 11
374.7710273085355
 21
-29.56572487262974
 31
0.0
  0
LINE
  5
3BE
330
1F
100
AcDbEntity
  8
A-5
  6
Continuous
 62
     7
370
     9
100
AcDbLine
 10
374.7710273085355
 20
-29.56572487262974
 30
0.0
 11
599.7710273085355
 21
-29.56572487262974
 31
0.0
  0
LINE
  5
3BF
330
1F
100
AcDbEntity
  8
A-5
  6
Continuous
 62
     7
370
     9
100
AcDbLine
 10
599.7710273085355
 20
-29.56572487262974
 30
0.0
 11
599.7710273085355
 21
-79.56601355242299
 31
0.0
  0
LINE
  5
3C0
330
1F
100
AcDbEntity
  8
A-5
  6
Continuous
 62
     7
370
     9
100
AcDbLine
 10
599.7710273085355
 20
-79.56601355242299
 30
0.0
 11
374.7710273085355
 21
-79.56601355242299
 31
0.0
  0
TEXT
  5
3C1
330
1F
100
AcDbEntity
  8
A-5
  6
Continuous
 62
     2
370
     9
100
AcDbText
 10
417.3148076611537
 20
-71.49170057733834
 30
0.0
 40
30.48
  1
仕　様
 41
1.083333333333333
  7
ＭＳ ゴシック
100
AcDbText
  0
TEXT
  5
3C2
330
1F
100
AcDbEntity
  8
A-5
  6
Continuous
 62
     2
370
     9
100
AcDbText
 10
536.5734037205923
 20
-351.8473293384238
 30
0.0
 40
30.48
  1
　　　受けつば　　Ｌ３０×３０×３（ＳＵＳ３０４）
 41
1.12
  7
ＭＳ ゴシック
100
AcDbText
  0
TEXT
  5
3C3
330
1F
100
AcDbEntity
  8
A-5
  6
Continuous
 62
     2
370
     9
100
AcDbText
 10
536.57337897661
 20
-241.8469664266839
 30
0.0
 40
30.48
  1
材質：メインバー　ＦＢ４×１５（ＳＵＳ３０４）
 41
1.119565217391304
  7
ＭＳ ゴシック
100
AcDbText
  0
TEXT
  5
3C4
330
1F
100
AcDbEntity
  8
A-5
  6
Continuous
 62
     2
370
     9
100
AcDbText
 10
536.57337897661
 20
-296.8477664821105
 30
0.0
 40
30.48
  1
　　　クロスバー　ＦＢ３×１０（ＳＵＳ３０４）
 41
1.119565217391304
  7
ＭＳ ゴシック
100
AcDbText
  0
TEXT
  5
3C5
330
1F
100
AcDbEntity
  8
A-5
  6
Continuous
 62
     2
370
     9
100
AcDbText
 10
536.572735633071
 20
-406.8476963741608
 30
0.0
 40
30.48
  1
定尺：９９４
 41
1.104166666666667
  7
ＭＳ ゴシック
100
AcDbText
  0
TEXT
  5
3C6
330
1F
100
AcDbEntity
  8
A-5
  6
Continuous
 62
     2
370
     9
100
AcDbText
 10
476.8607060986537
 20
-131.8463560751214
 30
0.0
 40
30.48
  1
滑り止め模様付　歩道Ｕ字溝用ステンレス製グレーチング
 41
1.120192307692307
  7
ＭＳ ゴシック
100
AcDbText
  0
TEXT
  5
3C7
330
1F
100
AcDbEntity
  8
A-5
  6
Continuous
 62
     7
370
     9
100
AcDbText
 10
432.2710273085355
 20
-591.3735909915979
 30
0.0
 40
30.48
  1
強　度
 41
0.8749999999999999
  7
ＭＳ ゴシック
100
AcDbText
  0
TEXT
  5
3C8
330
1F
100
AcDbEntity
  8
A-5
  6
Continuous
 62
     7
370
     9
100
AcDbText
 10
642.2710273085354
 20
-591.3735909915979
 30
0.0
 40
30.48
  1
歩行用
 41
0.8749999999999999
  7
ＭＳ ゴシック
100
AcDbText
  0
TEXT
  5
3C9
330
1F
100
AcDbEntity
  8
A-5
  6
Continuous
 62
     7
370
     9
100
AcDbText
 10
397.2710273085355
 20
-641.3735909915979
 30
0.0
 40
30.48
  1
等分布荷重
 41
0.8749999999999999
  7
ＭＳ ゴシック
100
AcDbText
  0
TEXT
  5
3CA
330
1F
100
AcDbEntity
  8
A-5
  6
Continuous
 62
     7
370
     9
100
AcDbText
 10
624.7710273085355
 20
-641.3735909915979
 30
0.0
 40
30.48
  1
5.0kN/㎡
 41
0.8749999999999994
  7
ＭＳ ゴシック
100
AcDbText
  0
TEXT
  5
3CB
330
1F
100
AcDbEntity
  8
A-5
  6
Continuous
 62
     7
370
     9
100
AcDbText
 10
414.7710273085355
 20
-691.3735909915979
 30
0.0
 40
30.48
  1
衝撃係数
 41
0.8749999999999999
  7
ＭＳ ゴシック
100
AcDbText
  0
TEXT
  5
3CC
330
1F
100
AcDbEntity
  8
A-5
  6
Continuous
 62
     7
370
     9
100
AcDbText
 10
686.0210273085354
 20
-691.3735909915979
 30
0.0
 40
30.48
  1
0
 41
0.8749999999999999
  7
ＭＳ ゴシック
100
AcDbText
  0
LINE
  5
3CD
330
1F
100
AcDbEntity
  8
A-4
  6
Continuous
 62
     2
370
     9
100
AcDbLine
 10
374.7710273085355
 20
-1089.616155094162
 30
0.0
 11
374.7710273085355
 21
-789.9502012606479
 31
0.0
  0
TEXT
  5
3CE
330
1F
100
AcDbEntity
  8
A-5
  6
Continuous
 62
     7
370
     9
100
AcDbText
 10
373.888374247311
 20
-772.1783985395595
 30
0.0
 40
30.48
  1
適用Ｕ形側溝および、設置場所について
 41
0.8750000000000003
  7
ＭＳ ゴシック
100
AcDbText
  0
TEXT
  5
3CF
330
1F
100
AcDbEntity
  8
A-5
  6
Continuous
 62
     7
370
     9
100
AcDbText
 10
407.7200069003729
 20
-853.7336706484032
 30
0.0
 40
30.48
  1
・適用Ｕ形側溝
 41
0.8749999999999997
  7
ＭＳ ゴシック
100
AcDbText
  0
TEXT
  5
3D0
330
1F
100
AcDbEntity
  8
A-5
  6
Continuous
 62
     7
370
     9
100
AcDbText
 10
407.7200069003729
 20
-902.6724461586073
 30
0.0
 40
30.48
  1
　JIS A 5372 推奨仕様E-1 U形側溝、推奨仕様E-2 上ぶた式U形側溝の本体に適用します。
 41
0.8749999999999998
  7
ＭＳ ゴシック
100
AcDbText
  0
TEXT
  5
3D1
330
1F
100
AcDbEntity
  8
A-5
  6
Continuous
 62
     7
370
     9
100
AcDbText
 10
407.7200069003729
 20
-1000.549997179015
 30
0.0
 40
30.48
  1
・設置場所
 41
0.8749999999999999
  7
ＭＳ ゴシック
100
AcDbText
  0
LINE
  5
3D2
330
1F
100
AcDbEntity
  8
A-4
  6
Continuous
 62
     2
370
     9
100
AcDbLine
 10
374.7710273085355
 20
-553.013590991598
 30
0.0
 11
794.7710273085354
 21
-553.013590991598
 31
0.0
  0
LINE
  5
3D3
330
1F
100
AcDbEntity
  8
A-4
  6
Continuous
 62
     2
370
     9
100
AcDbLine
 10
374.7710273085355
 20
-653.013590991598
 30
0.0
 11
794.7710273085354
 21
-653.013590991598
 31
0.0
  0
LINE
  5
3D4
330
1F
100
AcDbEntity
  8
A-4
  6
Continuous
 62
     2
370
     9
100
AcDbLine
 10
374.7710273085355
 20
-603.013590991598
 30
0.0
 11
794.7710273085354
 21
-603.013590991598
 31
0.0
  0
LINE
  5
3D5
330
1F
100
AcDbEntity
  8
A-4
  6
Continuous
 62
     2
370
     9
100
AcDbLine
 10
794.7710273085354
 20
-553.013590991598
 30
0.0
 11
794.7710273085354
 21
-703.013590991598
 31
0.0
  0
LINE
  5
3D6
330
1F
100
AcDbEntity
  8
A-4
  6
Continuous
 62
     2
370
     9
100
AcDbLine
 10
374.7710273085355
 20
-703.013590991598
 30
0.0
 11
794.7710273085354
 21
-703.013590991598
 31
0.0
  0
LINE
  5
3D7
330
1F
100
AcDbEntity
  8
A-4
  6
Continuous
 62
     2
370
     9
100
AcDbLine
 10
374.7710273085355
 20
-553.013590991598
 30
0.0
 11
374.7710273085355
 21
-703.013590991598
 31
0.0
  0
LINE
  5
3D8
330
1F
100
AcDbEntity
  8
A-4
  6
Continuous
 62
     2
370
     9
100
AcDbLine
 10
594.7710273085355
 20
-553.013590991598
 30
0.0
 11
594.7710273085355
 21
-703.013590991598
 31
0.0
  0
LINE
  5
3D9
330
1F
100
AcDbEntity
  8
A-4
  6
Continuous
 62
     2
370
     9
100
AcDbLine
 10
374.7710273085355
 20
-789.9502012606479
 30
0.0
 11
1838.208588927387
 21
-789.9502012606479
 31
0.0
  0
LINE
  5
3DA
330
1F
100
AcDbEntity
  8
A-4
  6
Continuous
 62
     2
370
     9
100
AcDbLine
 10
1838.208588927387
 20
-789.9502012606479
 30
0.0
 11
1838.208588927387
 21
-1089.616155094162
 31
0.0
  0
LINE
  5
3DB
330
1F
100
AcDbEntity
  8
A-4
  6
Continuous
 62
     2
370
     9
100
AcDbLine
 10
1838.208588927387
 20
-1089.616155094162
 30
0.0
 11
374.7710273085355
 21
-1089.616155094162
 31
0.0
  0
TEXT
  5
3DC
330
1F
100
AcDbEntity
  8
A-5
  6
Continuous
 62
     2
370
     9
100
AcDbText
 10
536.572735633071
 20
-461.8484964295873
 30
0.0
 40
30.48
  1
質量：１２．１ｋｇ／枚
 41
1.113636363636364
  7
ＭＳ ゴシック
100
AcDbText
  0
LINE
  5
3DD
330
1F
100
AcDbEntity
  8
A-0
  6
Continuous
 62
     6
370
     5
100
AcDbLine
 10
-1466.635616200643
 20
-164.8486472751097
 30
0.0
 11
-1341.635666200648
 21
-164.8486472751097
 31
0.0
  0
LINE
  5
3DE
330
1F
100
AcDbEntity
  8
A-0
  6
Continuous
 62
     6
370
     5
100
AcDbLine
 10
-1439.461616200648
 20
-817.0224722751044
 30
0.0
 11
-1466.635616200643
 21
-164.8486472751097
 31
0.0
  0
LINE
  5
3DF
330
1F
100
AcDbEntity
  8
A-0
  6
Continuous
 62
     6
370
     5
100
AcDbLine
 10
-1301.187083343614
 20
-650.2292440123972
 30
0.0
 11
-1341.635666200648
 21
-164.8486472751097
 31
0.0
  0
ARC
  5
3E0
330
1F
100
AcDbEntity
  8
A-0
  6
Continuous
 62
     6
370
     5
100
AcDbCircle
 10
-1176.618866200649
 20
-639.8484972751071
 30
0.0
 40
125.0000025
100
AcDbArc
 50
184.7636700000196
 51
270.0
  0
LINE
  5
3E1
330
1F
100
AcDbEntity
  8
A-0
  6
Continuous
 62
     6
370
     5
100
AcDbLine
 10
-1341.635666200648
 20
-914.8485222751077
 30
0.0
 11
-1439.461616200648
 21
-817.0224722751044
 31
0.0
  0
LINE
  5
3E2
330
1F
100
AcDbEntity
  8
A-0
  6
Continuous
 62
     6
370
     5
100
AcDbLine
 10
-1341.635666200648
 20
-914.8485222751077
 30
0.0
 11
-591.6355412006453
 21
-914.8485222751077
 31
0.0
  0
ARC
  5
3E3
330
1F
100
AcDbEntity
  8
A-0
  6
Continuous
 62
     6
370
     5
100
AcDbCircle
 10
-756.652116200645
 20
-639.8484972751071
 30
0.0
 40
125.0000025
100
AcDbArc
 50
270.0
 51
355.2363199999838
  0
LINE
  5
3E4
330
1F
100
AcDbEntity
  8
A-0
  6
Continuous
 62
     6
370
     5
100
AcDbLine
 10
-756.652116200645
 20
-764.8484997751092
 30
0.0
 11
-1176.618866200649
 21
-764.8484997751092
 31
0.0
  0
LINE
  5
3E5
330
1F
100
AcDbEntity
  8
A-0
  6
Continuous
 62
     6
370
     5
100
AcDbLine
 10
-632.0839008694668
 20
-650.2292657536447
 30
0.0
 11
-591.6355412006453
 21
-164.8486472751097
 31
0.0
  0
LINE
  5
3E6
330
1F
100
AcDbEntity
  8
A-0
  6
Continuous
 62
     6
370
     5
100
AcDbLine
 10
-466.6355912006441
 20
-164.8486472751097
 30
0.0
 11
-591.6355412006453
 21
-164.8486472751097
 31
0.0
  0
LINE
  5
3E7
330
1F
100
AcDbEntity
  8
A-0
  6
Continuous
 62
     6
370
     5
100
AcDbLine
 10
-466.6355912006441
 20
-164.8486472751097
 30
0.0
 11
-493.8094912006466
 21
-817.0225722751047
 31
0.0
  0
LINE
  5
3E8
330
1F
100
AcDbEntity
  8
A-0
  6
Continuous
 62
     6
370
     5
100
AcDbLine
 10
-591.6355412006453
 20
-914.8485222751077
 30
0.0
 11
-493.8094912006466
 21
-817.0225722751047
 31
0.0
  0
LINE
  5
3E9
330
1F
100
AcDbEntity
  8
A-0
  6
Continuous
 62
     6
370
     5
100
AcDbLine
 10
-368.4843790754337
 20
-364.8485647951687
 30
0.0
 11
-357.4501094847972
 21
-383.9606001856618
 31
0.0
  0
LINE
  5
3EA
330
1F
100
AcDbEntity
  8
A-0
  6
Continuous
 62
     6
370
     5
100
AcDbLine
 10
-276.3283864128493
 20
-489.8486678950949
 30
0.0
 11
-287.3627178634399
 21
-470.7366325046018
 31
0.0
  0
LINE
  5
3EB
330
1F
100
AcDbEntity
  8
A-0
  6
Continuous
 62
     6
370
     5
100
AcDbLine
 10
-346.41559245434
 20
-364.8485647951687
 30
0.0
 11
-418.5843860037483
 21
-489.8486678950949
 31
0.0
  0
LINE
  5
3EC
330
1F
100
AcDbEntity
  8
A-0
  6
Continuous
 62
     6
370
     5
100
AcDbLine
 10
-254.1353850007931
 20
-413.1853464773636
 30
0.0
 11
-298.3971730339431
 21
-489.8486678950949
 31
0.0
  0
LINE
  5
3ED
330
1F
100
AcDbEntity
  8
A-0
  6
Continuous
 62
     6
370
     5
100
AcDbLine
 10
-260.5250235406993
 20
-364.8485647951687
 30
0.0
 11
-360.5249204407733
 21
-264.8486060351391
 31
0.0
  0
LINE
  5
3EE
330
1F
100
AcDbEntity
  8
A-0
  6
Continuous
 62
     6
370
     5
100
AcDbLine
 10
-274.6671991635884
 20
-364.8485647951687
 30
0.0
 11
-374.6667867638837
 21
-264.8486060351391
 31
0.0
  0
LINE
  5
3EF
330
1F
100
AcDbEntity
  8
A-0
  6
Continuous
 62
     6
370
     5
100
AcDbLine
 10
-267.5957401924103
 20
-364.8485647951687
 30
0.0
 11
-367.59569895244
 21
-264.8486060351391
 31
0.0
  0
LINE
  5
3F0
330
1F
100
AcDbEntity
  8
A-0
  6
Continuous
 62
     6
370
     5
100
AcDbLine
 10
-254.1353850007931
 20
-264.8486060351391
 30
0.0
 11
-468.6355235670931
 21
-264.8486060351391
 31
0.0
  0
LINE
  5
3F1
330
1F
100
AcDbEntity
  8
A-0
  6
Continuous
 62
     6
370
     5
100
AcDbLine
 10
-406.4727634253597
 20
-364.8485647951687
 30
0.0
 11
-469.3774100153087
 21
-301.9441037850863
 31
0.0
  0
LINE
  5
3F2
330
1F
100
AcDbEntity
  8
A-0
  6
Continuous
 62
     6
370
     5
100
AcDbLine
 10
-413.5440368166712
 20
-364.8485647951687
 30
0.0
 11
-469.5161618958514
 21
-308.8763778560323
 31
0.0
  0
LINE
  5
3F3
330
1F
100
AcDbEntity
  8
A-0
  6
Continuous
 62
     6
370
     5
100
AcDbLine
 10
-420.6151246281149
 20
-364.8485647951687
 30
0.0
 11
-469.654604476616
 21
-315.8091468066235
 31
0.0
  0
LINE
  5
3F4
330
1F
100
AcDbEntity
  8
A-0
  6
Continuous
 62
     6
370
     5
100
AcDbLine
 10
-473.1355260414909
 20
-489.8486678950949
 30
0.0
 11
-254.1353850007931
 21
-489.8486678950949
 31
0.0
  0
LINE
  5
3F5
330
1F
100
AcDbEntity
  8
A-0
  6
Continuous
 62
     6
370
     5
100
AcDbLine
 10
-254.1353850007931
 20
-489.8486678950949
 30
0.0
 11
-473.1355260414909
 21
-489.8486678950949
 31
0.0
  0
LINE
  5
3F6
330
1F
100
AcDbEntity
  8
A-0
  6
Continuous
 62
     6
370
     5
100
AcDbLine
 10
-254.1353850007931
 20
-364.8485647951687
 30
0.0
 11
-470.6355177934972
 21
-364.8485647951687
 31
0.0
  0
LINE
  5
3F7
330
1F
100
AcDbEntity
  8
A-0
  6
Continuous
 62
     6
370
     5
100
AcDbLine
 10
-396.5159705423878
 20
-489.8486678950949
 30
0.0
 11
-407.550425712891
 21
-470.7366325046018
 31
0.0
  0
LINE
  5
3F8
330
1F
100
AcDbEntity
  8
A-0
  6
Continuous
 62
     6
370
     5
100
AcDbLine
 10
-254.1353850007931
 20
-164.8486472751097
 30
0.0
 11
-466.6355912006441
 21
-164.8486472751097
 31
0.0
  0
LINE
  5
3F9
330
1F
100
AcDbEntity
  8
A-0
  6
Continuous
 62
     6
370
     5
100
AcDbLine
 10
-1580.984610275284
 20
-364.8485647951687
 30
0.0
 11
-1569.95034068465
 21
-383.9606001856618
 31
0.0
  0
LINE
  5
3FA
330
1F
100
AcDbEntity
  8
A-0
  6
Continuous
 62
     6
370
     5
100
AcDbLine
 10
-1488.8286176127
 20
-489.8486678950949
 30
0.0
 11
-1499.862949063291
 21
-470.7366325046018
 31
0.0
  0
LINE
  5
3FB
330
1F
100
AcDbEntity
  8
A-0
  6
Continuous
 62
     6
370
     5
100
AcDbLine
 10
-1558.91582365419
 20
-364.8485647951687
 30
0.0
 11
-1631.0846172036
 21
-489.8486678950949
 31
0.0
  0
LINE
  5
3FC
330
1F
100
AcDbEntity
  8
A-0
  6
Continuous
 62
     6
370
     5
100
AcDbLine
 10
-1473.025254740551
 20
-364.8485647951687
 30
0.0
 11
-1573.025151640625
 21
-264.8486060351391
 31
0.0
  0
LINE
  5
3FD
330
1F
100
AcDbEntity
  8
A-0
  6
Continuous
 62
     6
370
     5
100
AcDbLine
 10
-1487.167430363438
 20
-364.8485647951687
 30
0.0
 11
-1587.167017963735
 21
-264.8486060351391
 31
0.0
  0
LINE
  5
3FE
330
1F
100
AcDbEntity
  8
A-0
  6
Continuous
 62
     6
370
     5
100
AcDbLine
 10
-1480.09597139226
 20
-364.8485647951687
 30
0.0
 11
-1580.09593015229
 21
-264.8486060351391
 31
0.0
  0
LINE
  5
3FF
330
1F
100
AcDbEntity
  8
A-0
  6
Continuous
 62
     6
370
     5
100
AcDbLine
 10
-1609.01620174224
 20
-489.8486678950949
 30
0.0
 11
-1620.050656912741
 21
-470.7366325046018
 31
0.0
  0
LINE
  5
400
330
1F
100
AcDbEntity
  8
A-0
  6
Continuous
 62
     6
370
     5
100
AcDbLine
 10
-1466.635616200643
 20
-164.8486472751097
 30
0.0
 11
-1679.135822400497
 21
-164.8486472751097
 31
0.0
  0
LINE
  5
401
330
1F
100
AcDbEntity
  8
A-0
  6
Continuous
 62
     6
370
     5
100
AcDbLine
 10
-1466.635616200643
 20
-489.8486678950949
 30
0.0
 11
-1679.135822400497
 21
-489.8486678950949
 31
0.0
  0
LINE
  5
402
330
1F
100
AcDbEntity
  8
A-0
  6
Continuous
 62
     6
370
     5
100
AcDbLine
 10
-1626.044268016522
 20
-364.8485647951687
 30
0.0
 11
-1679.135822400497
 21
-311.7569517348236
 31
0.0
  0
LINE
  5
403
330
1F
100
AcDbEntity
  8
A-0
  6
Continuous
 62
     6
370
     5
100
AcDbLine
 10
-1633.115355827966
 20
-364.8485647951687
 30
0.0
 11
-1679.135822400497
 21
-318.8281562743159
 31
0.0
  0
LINE
  5
404
330
1F
100
AcDbEntity
  8
A-0
  6
Continuous
 62
     6
370
     5
100
AcDbLine
 10
-1618.97299462521
 20
-364.8485647951687
 30
0.0
 11
-1679.135822400497
 21
-304.6859145108989
 31
0.0
  0
ARC
  5
405
330
1F
100
AcDbEntity
  8
A-0
  6
Continuous
 62
     3
370
     9
100
AcDbCircle
 10
-609.1352166496404
 20
-227.3485731720378
 30
0.0
 40
5.000000064437454
100
AcDbArc
 50
270.0
 51
0.0
  0
ARC
  5
406
330
1F
100
AcDbEntity
  8
A-0
  6
Continuous
 62
     3
370
     9
100
AcDbCircle
 10
-541.6354888334445
 20
-159.8487216359314
 30
0.0
 40
5.000000064437454
100
AcDbArc
 50
270.0
 51
0.0
  0
ARC
  5
407
330
1F
100
AcDbEntity
  8
A-0
  6
Continuous
 62
     3
370
     9
100
AcDbCircle
 10
-594.1351671616746
 20
-174.8486474039846
 30
0.0
 40
10.00000012887491
100
AcDbArc
 50
90.0
 51
180.0
  0
LINE
  5
408
330
1F
100
AcDbEntity
  8
A-0
  6
Continuous
 62
     3
370
     9
100
AcDbLine
 10
-609.1352166496404
 20
-232.3487133879373
 30
0.0
 11
-611.6351011777226
 21
-232.3487133879373
 31
0.0
  0
LINE
  5
409
330
1F
100
AcDbEntity
  8
A-0
  6
Continuous
 62
     3
370
     9
100
AcDbLine
 10
-604.1352001536518
 20
-227.3485731720378
 30
0.0
 11
-604.1352001536518
 21
-174.8486474039846
 31
0.0
  0
LINE
  5
40A
330
1F
100
AcDbEntity
  8
A-0
  6
Continuous
 62
     3
370
     9
100
AcDbLine
 10
-541.6354888334445
 20
-164.8487999918752
 30
0.0
 11
-594.1351671616746
 21
-164.8487999918752
 31
0.0
  0
LINE
  5
40B
330
1F
100
AcDbEntity
  8
A-0
  6
Continuous
 62
     3
370
     9
100
AcDbLine
 10
-536.6354723374559
 20
-159.8487216359314
 30
0.0
 11
-536.6354723374559
 21
-157.3486515279817
 31
0.0
  0
LINE
  5
40C
330
1F
100
AcDbEntity
  8
A-0
  6
Continuous
 62
     3
370
     9
100
AcDbLine
 10
-611.6351011777226
 20
-157.3486515279817
 30
0.0
 11
-536.6354723374559
 21
-157.3486515279817
 31
0.0
  0
LINE
  5
40D
330
1F
100
AcDbEntity
  8
A-0
  6
Continuous
 62
     3
370
     9
100
AcDbLine
 10
-611.6351011777226
 20
-157.3486515279817
 30
0.0
 11
-611.6351011777226
 21
-232.3487133879373
 31
0.0
  0
LINE
  5
40E
330
1F
100
AcDbEntity
  8
A-0
  6
Continuous
 62
     3
370
     9
100
AcDbLine
 10
-1321.635843497189
 20
-194.8485690480408
 30
0.0
 11
-611.6351011777226
 21
-194.8485690480408
 31
0.0
  0
LINE
  5
40F
330
1F
100
AcDbEntity
  8
A-0
  6
Continuous
 62
     3
370
     9
100
AcDbLine
 10
-611.6351011777226
 20
-157.3486515279817
 30
0.0
 11
-1321.635843497189
 21
-157.3486515279817
 31
0.0
  0
ARC
  5
410
330
1F
100
AcDbEntity
  8
A-0
  6
Continuous
 62
     3
370
     9
100
AcDbCircle
 10
-1324.135728025273
 20
-227.3485731720378
 30
0.0
 40
5.000000064437454
100
AcDbArc
 50
180.0
 51
270.0
  0
ARC
  5
411
330
1F
100
AcDbEntity
  8
A-0
  6
Continuous
 62
     3
370
     9
100
AcDbCircle
 10
-1391.635455841468
 20
-159.8487216359314
 30
0.0
 40
5.000000064437454
100
AcDbArc
 50
180.0
 51
270.0
  0
ARC
  5
412
330
1F
100
AcDbEntity
  8
A-0
  6
Continuous
 62
     3
370
     9
100
AcDbCircle
 10
-1339.135777513238
 20
-174.8486474039846
 30
0.0
 40
10.00000012887491
100
AcDbArc
 50
0.0
 51
90.0
  0
LINE
  5
413
330
1F
100
AcDbEntity
  8
A-0
  6
Continuous
 62
     3
370
     9
100
AcDbLine
 10
-1324.135728025273
 20
-232.3487133879373
 30
0.0
 11
-1321.635843497189
 21
-232.3487133879373
 31
0.0
  0
LINE
  5
414
330
1F
100
AcDbEntity
  8
A-0
  6
Continuous
 62
     3
370
     9
100
AcDbLine
 10
-1329.135744521262
 20
-227.3485731720378
 30
0.0
 11
-1329.135744521262
 21
-174.8486474039846
 31
0.0
  0
LINE
  5
415
330
1F
100
AcDbEntity
  8
A-0
  6
Continuous
 62
     3
370
     9
100
AcDbLine
 10
-1391.635455841468
 20
-164.8487999918752
 30
0.0
 11
-1339.135777513238
 21
-164.8487999918752
 31
0.0
  0
LINE
  5
416
330
1F
100
AcDbEntity
  8
A-0
  6
Continuous
 62
     3
370
     9
100
AcDbLine
 10
-1396.635472337457
 20
-159.8487216359314
 30
0.0
 11
-1396.635472337457
 21
-157.3486515279817
 31
0.0
  0
LINE
  5
417
330
1F
100
AcDbEntity
  8
A-0
  6
Continuous
 62
     3
370
     9
100
AcDbLine
 10
-1321.635843497189
 20
-157.3486515279817
 30
0.0
 11
-1396.635472337457
 21
-157.3486515279817
 31
0.0
  0
LINE
  5
418
330
1F
100
AcDbEntity
  8
A-0
  6
Continuous
 62
     3
370
     9
100
AcDbLine
 10
-1321.635843497189
 20
-157.3486515279817
 30
0.0
 11
-1321.635843497189
 21
-232.3487133879373
 31
0.0
  0
ARC
  5
419
330
1F
100
AcDbEntity
  8
A-0
  6
Continuous
 62
     3
370
     9
100
AcDbCircle
 10
-1079.313933866416
 20
-168.8546031858729
 30
0.0
 40
1.25
100
AcDbArc
 50
0.0
 51
70.34616088867189
  0
ARC
  5
41A
330
1F
100
AcDbEntity
  8
A-0
  6
Continuous
 62
     3
370
     9
100
AcDbCircle
 10
-1104.314010160361
 20
-178.342682733755
 30
0.0
 40
1.25
100
AcDbArc
 50
180.0
 51
250.3461608886719
  0
ARC
  5
41B
330
1F
100
AcDbEntity
  8
A-0
  6
Continuous
 62
     3
370
     9
100
AcDbCircle
 10
-1104.314010160361
 20
-169.2237836267757
 30
0.0
 40
1.25
100
AcDbArc
 50
90.0
 51
180.0
  0
ARC
  5
41C
330
1F
100
AcDbEntity
  8
A-0
  6
Continuous
 62
     3
370
     9
100
AcDbCircle
 10
-1098.064067380819
 20
-166.7241460230159
 30
0.0
 40
1.25
100
AcDbArc
 50
270.0
 51
0.0
  0
ARC
  5
41D
330
1F
100
AcDbEntity
  8
A-0
  6
Continuous
 62
     3
370
     9
100
AcDbCircle
 10
-1088.064029233848
 20
-181.0991639044093
 30
0.0
 40
1.25
100
AcDbArc
 50
270.0
 51
0.0
  0
ARC
  5
41E
330
1F
100
AcDbEntity
  8
A-0
  6
Continuous
 62
     3
370
     9
100
AcDbCircle
 10
-1085.564010160361
 20
-180.4743760969447
 30
0.0
 40
1.25
100
AcDbArc
 50
90.0
 51
180.0
  0
ARC
  5
41F
330
1F
100
AcDbEntity
  8
A-0
  6
Continuous
 62
     3
370
     9
100
AcDbCircle
 10
-1079.313933866416
 20
-177.973997011404
 30
0.0
 40
1.25
100
AcDbArc
 50
270.0
 51
0.0
  0
ARC
  5
420
330
1F
100
AcDbEntity
  8
A-0
  6
Continuous
 62
     3
370
     9
100
AcDbCircle
 10
-1095.563933866415
 20
-166.0993605997371
 30
0.0
 40
1.25
100
AcDbArc
 50
90.0
 51
180.0
  0
LINE
  5
421
330
1F
100
AcDbEntity
  8
A-0
  6
Continuous
 62
     3
370
     9
100
AcDbLine
 10
-1088.064029233848
 20
-157.3486515279817
 30
0.0
 11
-1088.064029233848
 21
-182.3487347509669
 31
0.0
  0
LINE
  5
422
330
1F
100
AcDbEntity
  8
A-0
  6
Continuous
 62
     3
370
     9
100
AcDbLine
 10
-1086.814200895225
 20
-164.849047675352
 30
0.0
 11
-1088.064029233848
 21
-164.849047675352
 31
0.0
  0
LINE
  5
423
330
1F
100
AcDbEntity
  8
A-0
  6
Continuous
 62
     3
370
     9
100
AcDbLine
 10
-1088.064029233848
 20
-157.3486515279817
 30
0.0
 11
-1095.563933866415
 21
-157.3486515279817
 31
0.0
  0
LINE
  5
424
330
1F
100
AcDbEntity
  8
A-0
  6
Continuous
 62
     3
370
     9
100
AcDbLine
 10
-1095.563933866415
 20
-157.3486515279817
 30
0.0
 11
-1095.563933866415
 21
-182.3487347509669
 31
0.0
  0
LINE
  5
425
330
1F
100
AcDbEntity
  8
A-0
  6
Continuous
 62
     3
370
     9
100
AcDbLine
 10
-1078.064124601279
 20
-168.8546031858729
 30
0.0
 11
-1078.064124601279
 21
-177.973997011404
 31
0.0
  0
LINE
  5
426
330
1F
100
AcDbEntity
  8
A-0
  6
Continuous
 62
     3
370
     9
100
AcDbLine
 10
-1078.893649595176
 20
-167.6780265714931
 30
0.0
 11
-1086.814200895225
 21
-164.849047675352
 31
0.0
  0
LINE
  5
427
330
1F
100
AcDbEntity
  8
A-0
  6
Continuous
 62
     3
370
     9
100
AcDbLine
 10
-1104.73440887252
 20
-179.5204967405604
 30
0.0
 11
-1096.814124601279
 21
-182.3487347509669
 31
0.0
  0
LINE
  5
428
330
1F
100
AcDbEntity
  8
A-0
  6
Continuous
 62
     3
370
     9
100
AcDbLine
 10
-1105.564200895225
 20
-178.342682733755
 30
0.0
 11
-1105.564200895225
 21
-169.2237836267757
 31
0.0
  0
LINE
  5
429
330
1F
100
AcDbEntity
  8
A-0
  6
Continuous
 62
     3
370
     9
100
AcDbLine
 10
-1104.314010160361
 20
-167.9737168695735
 30
0.0
 11
-1098.064067380819
 21
-167.9737168695735
 31
0.0
  0
LINE
  5
42A
330
1F
100
AcDbEntity
  8
A-0
  6
Continuous
 62
     3
370
     9
100
AcDbLine
 10
-1096.814124601279
 20
-166.7241460230159
 30
0.0
 11
-1096.814124601279
 21
-166.0993605997371
 31
0.0
  0
LINE
  5
42B
330
1F
100
AcDbEntity
  8
A-0
  6
Continuous
 62
     3
370
     9
100
AcDbLine
 10
-1088.064029233848
 20
-182.3487347509669
 30
0.0
 11
-1096.814124601279
 21
-182.3487347509669
 31
0.0
  0
LINE
  5
42C
330
1F
100
AcDbEntity
  8
A-0
  6
Continuous
 62
     3
370
     9
100
AcDbLine
 10
-1086.814200895225
 20
-181.0991639044093
 30
0.0
 11
-1086.814200895225
 21
-180.4743760969447
 31
0.0
  0
LINE
  5
42D
330
1F
100
AcDbEntity
  8
A-0
  6
Continuous
 62
     3
370
     9
100
AcDbLine
 10
-1085.564010160361
 20
-179.2235678579616
 30
0.0
 11
-1079.313933866416
 21
-179.2235678579616
 31
0.0
  0
ARC
  5
42E
330
1F
100
AcDbEntity
  8
A-0
  6
Continuous
 62
     3
370
     9
100
AcDbCircle
 10
-829.3139338664162
 20
-168.8546031858729
 30
0.0
 40
1.25
100
AcDbArc
 50
0.0
 51
70.34616088867189
  0
ARC
  5
42F
330
1F
100
AcDbEntity
  8
A-0
  6
Continuous
 62
     3
370
     9
100
AcDbCircle
 10
-854.3140101603615
 20
-178.342682733755
 30
0.0
 40
1.25
100
AcDbArc
 50
180.0
 51
250.3461608886719
  0
ARC
  5
430
330
1F
100
AcDbEntity
  8
A-0
  6
Continuous
 62
     3
370
     9
100
AcDbCircle
 10
-854.3140101603615
 20
-169.2237836267757
 30
0.0
 40
1.25
100
AcDbArc
 50
90.0
 51
180.0
  0
ARC
  5
431
330
1F
100
AcDbEntity
  8
A-0
  6
Continuous
 62
     3
370
     9
100
AcDbCircle
 10
-848.0640673808205
 20
-166.7241460230159
 30
0.0
 40
1.25
100
AcDbArc
 50
270.0
 51
0.0
  0
ARC
  5
432
330
1F
100
AcDbEntity
  8
A-0
  6
Continuous
 62
     3
370
     9
100
AcDbCircle
 10
-838.0640292338478
 20
-181.0991639044093
 30
0.0
 40
1.25
100
AcDbArc
 50
270.0
 51
0.0
  0
ARC
  5
433
330
1F
100
AcDbEntity
  8
A-0
  6
Continuous
 62
     3
370
     9
100
AcDbCircle
 10
-835.5640101603615
 20
-180.4743760969447
 30
0.0
 40
1.25
100
AcDbArc
 50
90.0
 51
180.0
  0
ARC
  5
434
330
1F
100
AcDbEntity
  8
A-0
  6
Continuous
 62
     3
370
     9
100
AcDbCircle
 10
-829.3139338664162
 20
-177.973997011404
 30
0.0
 40
1.25
100
AcDbArc
 50
270.0
 51
0.0
  0
ARC
  5
435
330
1F
100
AcDbEntity
  8
A-0
  6
Continuous
 62
     3
370
     9
100
AcDbCircle
 10
-845.5639338664162
 20
-166.0993605997371
 30
0.0
 40
1.25
100
AcDbArc
 50
90.0
 51
180.0
  0
LINE
  5
436
330
1F
100
AcDbEntity
  8
A-0
  6
Continuous
 62
     3
370
     9
100
AcDbLine
 10
-838.0640292338478
 20
-157.3486515279817
 30
0.0
 11
-838.0640292338478
 21
-182.3487347509669
 31
0.0
  0
LINE
  5
437
330
1F
100
AcDbEntity
  8
A-0
  6
Continuous
 62
     3
370
     9
100
AcDbLine
 10
-836.8142008952248
 20
-164.849047675352
 30
0.0
 11
-838.0640292338478
 21
-164.849047675352
 31
0.0
  0
LINE
  5
438
330
1F
100
AcDbEntity
  8
A-0
  6
Continuous
 62
     3
370
     9
100
AcDbLine
 10
-838.0640292338478
 20
-157.3486515279817
 30
0.0
 11
-845.5639338664162
 21
-157.3486515279817
 31
0.0
  0
LINE
  5
439
330
1F
100
AcDbEntity
  8
A-0
  6
Continuous
 62
     3
370
     9
100
AcDbLine
 10
-845.5639338664162
 20
-157.3486515279817
 30
0.0
 11
-845.5639338664162
 21
-182.3487347509669
 31
0.0
  0
LINE
  5
43A
330
1F
100
AcDbEntity
  8
A-0
  6
Continuous
 62
     3
370
     9
100
AcDbLine
 10
-828.0641246012794
 20
-168.8546031858729
 30
0.0
 11
-828.0641246012794
 21
-177.973997011404
 31
0.0
  0
LINE
  5
43B
330
1F
100
AcDbEntity
  8
A-0
  6
Continuous
 62
     3
370
     9
100
AcDbLine
 10
-828.8936495951759
 20
-167.6780265714931
 30
0.0
 11
-836.8142008952248
 21
-164.849047675352
 31
0.0
  0
LINE
  5
43C
330
1F
100
AcDbEntity
  8
A-0
  6
Continuous
 62
     3
370
     9
100
AcDbLine
 10
-854.7344088725197
 20
-179.5204967405604
 30
0.0
 11
-846.8141246012794
 21
-182.3487347509669
 31
0.0
  0
LINE
  5
43D
330
1F
100
AcDbEntity
  8
A-0
  6
Continuous
 62
     3
370
     9
100
AcDbLine
 10
-855.5642008952248
 20
-178.342682733755
 30
0.0
 11
-855.5642008952248
 21
-169.2237836267757
 31
0.0
  0
LINE
  5
43E
330
1F
100
AcDbEntity
  8
A-0
  6
Continuous
 62
     3
370
     9
100
AcDbLine
 10
-854.3140101603615
 20
-167.9737168695735
 30
0.0
 11
-848.0640673808205
 21
-167.9737168695735
 31
0.0
  0
LINE
  5
43F
330
1F
100
AcDbEntity
  8
A-0
  6
Continuous
 62
     3
370
     9
100
AcDbLine
 10
-846.8141246012794
 20
-166.7241460230159
 30
0.0
 11
-846.8141246012794
 21
-166.0993605997371
 31
0.0
  0
LINE
  5
440
330
1F
100
AcDbEntity
  8
A-0
  6
Continuous
 62
     3
370
     9
100
AcDbLine
 10
-838.0640292338478
 20
-182.3487347509669
 30
0.0
 11
-846.8141246012794
 21
-182.3487347509669
 31
0.0
  0
LINE
  5
441
330
1F
100
AcDbEntity
  8
A-0
  6
Continuous
 62
     3
370
     9
100
AcDbLine
 10
-836.8142008952248
 20
-181.0991639044093
 30
0.0
 11
-836.8142008952248
 21
-180.4743760969447
 31
0.0
  0
LINE
  5
442
330
1F
100
AcDbEntity
  8
A-0
  6
Continuous
 62
     3
370
     9
100
AcDbLine
 10
-835.5640101603615
 20
-179.2235678579616
 30
0.0
 11
-829.3139338664162
 21
-179.2235678579616
 31
0.0
  0
LINE
  5
443
330
1F
100
AcDbEntity
  8
A-0
  6
Continuous
 62
     6
370
     5
100
AcDbLine
 10
-760.7580804802456
 20
-914.8485222751103
 30
0.0
 11
-486.4563367947403
 21
-640.5467785896047
 31
0.0
  0
LINE
  5
444
330
1F
100
AcDbEntity
  8
A-0
  6
Continuous
 62
     6
370
     5
100
AcDbLine
 10
-771.3646821980376
 20
-914.8485222751088
 30
0.0
 11
-485.9951804381171
 21
-629.4790205151888
 31
0.0
  0
LINE
  5
445
330
1F
100
AcDbEntity
  8
A-0
  6
Continuous
 62
     6
370
     5
100
AcDbLine
 10
-781.9712839158365
 20
-914.848522275108
 30
0.0
 11
-485.534024081494
 21
-618.4112624407651
 31
0.0
  0
LINE
  5
446
330
1F
100
AcDbEntity
  8
A-0
  6
Continuous
 62
     6
370
     5
100
AcDbLine
 10
-1078.956132014193
 20
-914.848522275106
 30
0.0
 11
-928.956109514196
 21
-764.8484997751084
 31
0.0
  0
LINE
  5
447
330
1F
100
AcDbEntity
  8
A-0
  6
Continuous
 62
     6
370
     5
100
AcDbLine
 10
-615.5154598937645
 20
-451.4078501546769
 30
0.0
 11
-472.6216460960006
 21
-308.514036356913
 31
0.0
  0
LINE
  5
448
330
1F
100
AcDbEntity
  8
A-0
  6
Continuous
 62
     6
370
     5
100
AcDbLine
 10
-1089.562733731984
 20
-914.8485222751106
 30
0.0
 11
-939.5627112319835
 21
-764.8484997751088
 31
0.0
  0
LINE
  5
449
330
1F
100
AcDbEntity
  8
A-0
  6
Continuous
 62
     6
370
     5
100
AcDbLine
 10
-614.5512240294295
 20
-439.8370125725555
 30
0.0
 11
-472.1604897393786
 21
-297.4462782825049
 31
0.0
  0
LINE
  5
44A
330
1F
100
AcDbEntity
  8
A-0
  6
Continuous
 62
     6
370
     5
100
AcDbLine
 10
-1100.169335449784
 20
-914.8485222751096
 30
0.0
 11
-950.1693129497824
 21
-764.848499775108
 31
0.0
  0
LINE
  5
44B
330
1F
100
AcDbEntity
  8
A-0
  6
Continuous
 62
     6
370
     5
100
AcDbLine
 10
-613.5869881650922
 20
-428.2661749904177
 30
0.0
 11
-471.6993333827554
 21
-286.3785202080811
 31
0.0
  0
LINE
  5
44C
330
1F
100
AcDbEntity
  8
A-0
  6
Continuous
 62
     6
370
     5
100
AcDbLine
 10
-1369.394910686316
 20
-887.0892494132827
 30
0.0
 11
-1233.475151426185
 21
-751.1694901531519
 31
0.0
  0
LINE
  5
44D
330
1F
100
AcDbEntity
  8
A-0
  6
Continuous
 62
     6
370
     5
100
AcDbLine
 10
-1374.698208834634
 20
-881.7859458438077
 30
0.0
 11
-1240.31467497598
 21
-747.4024119851535
 31
0.0
  0
LINE
  5
44E
330
1F
100
AcDbEntity
  8
A-0
  6
Continuous
 62
     6
370
     5
100
AcDbLine
 10
-1380.001506982952
 20
-876.482642274332
 30
0.0
 11
-1246.803739474842
 21
-743.2848747662229
 31
0.0
  0
LINE
  5
44F
330
1F
100
AcDbEntity
  8
A-0
  6
Continuous
 62
     6
370
     5
100
AcDbLine
 10
-1446.584221759565
 20
-646.0805089525863
 30
0.0
 11
-1312.69066452349
 21
-512.1869517165111
 31
0.0
  0
LINE
  5
450
330
1F
100
AcDbEntity
  8
A-0
  6
Continuous
 62
     6
370
     5
100
AcDbLine
 10
-1447.008487186602
 20
-635.8981726618224
 30
0.0
 11
-1313.506560683428
 21
-502.396246158649
 31
0.0
  0
LINE
  5
451
330
1F
100
AcDbEntity
  8
A-0
  6
Continuous
 62
     6
370
     5
100
AcDbLine
 10
-1447.432752613636
 20
-625.7158363710708
 30
0.0
 11
-1314.322456843364
 21
-492.6055406007993
 31
0.0
  0
LINE
  5
452
330
1F
100
AcDbEntity
  8
A-0
  6
Continuous
 62
     6
370
     5
100
AcDbLine
 10
-1459.312184570638
 20
-340.6104202297133
 30
0.0
 11
-1337.167549321606
 21
-218.4657849806813
 31
0.0
  0
LINE
  5
453
330
1F
100
AcDbEntity
  8
A-0
  6
Continuous
 62
     6
370
     5
100
AcDbLine
 10
-1459.736449997671
 20
-330.4280839389472
 30
0.0
 11
-1337.983445481544
 21
-208.6750794228198
 31
0.0
  0
LINE
  5
454
330
1F
100
AcDbEntity
  8
A-0
  6
Continuous
 62
     6
370
     5
100
AcDbLine
 10
-1460.160715424707
 20
-320.2457476481902
 30
0.0
 11
-1338.799341641479
 21
-198.8843738649614
 31
0.0
  0
LINE
  5
455
330
1F
100
AcDbEntity
  8
A-0
  6
Continuous
 62
     7
370
     9
100
AcDbLine
 10
-536.6354723374559
 20
198.588719660162
 30
0.0
 11
-1396.635472337457
 21
198.588719660162
 31
0.0
  0
LWPOLYLINE
  5
456
330
1F
100
AcDbEntity
  8
A-0
  6
Continuous
 62
     7
370
     9
100
AcDbPolyline
 90
        4
 70
     1
 43
1.0
 10
-536.1354723374559
 20
198.588719660162
 42
0.4142135623731
 10
-536.6354723374559
 20
199.088719660162
 42
0.4142135623731
 10
-537.1354723374559
 20
198.588719660162
 42
0.4142135623731
 10
-536.6354723374559
 20
198.088719660162
 42
0.4142135623731
  0
LWPOLYLINE
  5
457
330
1F
100
AcDbEntity
  8
A-0
  6
Continuous
 62
     7
370
     9
100
AcDbPolyline
 90
        4
 70
     1
 43
1.0
 10
-1396.135472337457
 20
198.588719660162
 42
0.4142135623731
 10
-1396.635472337457
 20
199.088719660162
 42
0.4142135623731
 10
-1397.135472337457
 20
198.588719660162
 42
0.4142135623731
 10
-1396.635472337457
 20
198.088719660162
 42
0.4142135623731
  0
LINE
  5
458
330
1F
100
AcDbEntity
  8
A-0
  6
Continuous
 62
     7
370
     9
100
AcDbLine
 10
-536.6354723374559
 20
201.588719660162
 30
0.0
 11
-536.6354723374559
 21
-137.3486515279817
 31
0.0
  0
LINE
  5
459
330
1F
100
AcDbEntity
  8
A-0
  6
Continuous
 62
     7
370
     9
100
AcDbLine
 10
-1396.635472337457
 20
201.588719660162
 30
0.0
 11
-1396.635472337457
 21
-137.3486515279817
 31
0.0
  0
TEXT
  5
45A
330
1F
100
AcDbEntity
  8
A-0
  6
Continuous
 62
     2
370
   211
100
AcDbText
 10
-999.1354723374559
 20
210.228719660162
 30
0.0
 40
30.48
  1
344
 41
1.083333333333333
  7
ＭＳ ゴシック
100
AcDbText
  0
LINE
  5
45B
330
1F
100
AcDbEntity
  8
A-0
  6
Continuous
 62
     7
370
     9
100
AcDbLine
 10
-536.6354723374559
 20
87.89305084681764
 30
0.0
 11
-591.6355539270342
 21
87.89305084681764
 31
0.0
  0
LWPOLYLINE
  5
45C
330
1F
100
AcDbEntity
  8
A-0
  6
Continuous
 62
     7
370
     9
100
AcDbPolyline
 90
        4
 70
     1
 43
1.0
 10
-536.1354723374559
 20
87.89305084681764
 42
0.4142135623731
 10
-536.6354723374559
 20
88.39305084681766
 42
0.4142135623731
 10
-537.1354723374559
 20
87.89305084681764
 42
0.4142135623731
 10
-536.6354723374559
 20
87.39305084681763
 42
0.4142135623731
  0
LWPOLYLINE
  5
45D
330
1F
100
AcDbEntity
  8
A-0
  6
Continuous
 62
     7
370
     9
100
AcDbPolyline
 90
        4
 70
     1
 43
1.0
 10
-591.1355539270342
 20
87.89305084681764
 42
0.4142135623731
 10
-591.6355539270342
 20
88.39305084681766
 42
0.4142135623731
 10
-592.1355539270342
 20
87.89305084681764
 42
0.4142135623731
 10
-591.6355539270342
 20
87.39305084681763
 42
0.4142135623731
  0
TEXT
  5
45E
330
1F
100
AcDbEntity
  8
A-0
  6
Continuous
 62
     2
370
   211
100
AcDbText
 10
-585.385513132245
 20
99.53305084681766
 30
0.0
 40
30.48
  1
22
 41
1.0625
  7
ＭＳ ゴシック
100
AcDbText
  0
LINE
  5
45F
330
1F
100
AcDbEntity
  8
A-0
  6
Continuous
 62
     7
370
     9
100
AcDbLine
 10
-591.6355539270342
 20
87.89305084681764
 30
0.0
 11
-1341.635666200648
 21
87.89305084681764
 31
0.0
  0
LWPOLYLINE
  5
460
330
1F
100
AcDbEntity
  8
A-0
  6
Continuous
 62
     7
370
     9
100
AcDbPolyline
 90
        4
 70
     1
 43
1.0
 10
-1341.135666200648
 20
87.89305084681764
 42
0.4142135623731
 10
-1341.635666200648
 20
88.39305084681766
 42
0.4142135623731
 10
-1342.135666200648
 20
87.89305084681764
 42
0.4142135623731
 10
-1341.635666200648
 20
87.39305084681763
 42
0.4142135623731
  0
TEXT
  5
461
330
1F
100
AcDbEntity
  8
A-0
  6
Continuous
 62
     2
370
   211
100
AcDbText
 10
-999.1356100638416
 20
99.53305084681766
 30
0.0
 40
30.48
  1
300
 41
1.083333333333333
  7
ＭＳ ゴシック
100
AcDbText
  0
LINE
  5
462
330
1F
100
AcDbEntity
  8
A-0
  6
Continuous
 62
     7
370
     9
100
AcDbLine
 10
-1341.635666200648
 20
87.89305084681764
 30
0.0
 11
-1396.635472337457
 21
87.89305084681764
 31
0.0
  0
LWPOLYLINE
  5
463
330
1F
100
AcDbEntity
  8
A-0
  6
Continuous
 62
     7
370
     9
100
AcDbPolyline
 90
        4
 70
     1
 43
1.0
 10
-1396.135472337457
 20
87.89305084681764
 42
0.4142135623731
 10
-1396.635472337457
 20
88.39305084681766
 42
0.4142135623731
 10
-1397.135472337457
 20
87.89305084681764
 42
0.4142135623731
 10
-1396.635472337457
 20
87.39305084681763
 42
0.4142135623731
  0
TEXT
  5
464
330
1F
100
AcDbEntity
  8
A-0
  6
Continuous
 62
     2
370
   211
100
AcDbText
 10
-1390.385569269052
 20
99.53305084681766
 30
0.0
 40
30.48
  1
22
 41
1.0625
  7
ＭＳ ゴシック
100
AcDbText
  0
LINE
  5
465
330
1F
100
AcDbEntity
  8
A-0
  6
Continuous
 62
     7
370
     9
100
AcDbLine
 10
-591.6355539270342
 20
-20.85860699999412
 30
0.0
 11
-604.1352001536518
 21
-20.85860699999412
 31
0.0
  0
LWPOLYLINE
  5
466
330
1F
100
AcDbEntity
  8
A-0
  6
Continuous
 62
     7
370
     9
100
AcDbPolyline
 90
        4
 70
     1
 43
1.0
 10
-591.1355539270342
 20
-20.85860699999412
 42
0.4142135623731
 10
-591.6355539270342
 20
-20.35860699999412
 42
0.4142135623731
 10
-592.1355539270342
 20
-20.85860699999412
 42
0.4142135623731
 10
-591.6355539270342
 20
-21.35860699999412
 42
0.4142135623731
  0
LWPOLYLINE
  5
467
330
1F
100
AcDbEntity
  8
A-0
  6
Continuous
 62
     7
370
     9
100
AcDbPolyline
 90
        4
 70
     1
 43
1.0
 10
-603.6352001536518
 20
-20.85860699999412
 42
0.4142135623731
 10
-604.1352001536518
 20
-20.35860699999412
 42
0.4142135623731
 10
-604.6352001536518
 20
-20.85860699999412
 42
0.4142135623731
 10
-604.1352001536518
 20
-21.35860699999412
 42
0.4142135623731
  0
LINE
  5
468
330
1F
100
AcDbEntity
  8
A-0
  6
Continuous
 62
     7
370
     9
100
AcDbLine
 10
-604.1352001536518
 20
-20.85860699999412
 30
0.0
 11
-1329.135744521262
 21
-20.85860699999412
 31
0.0
  0
LWPOLYLINE
  5
469
330
1F
100
AcDbEntity
  8
A-0
  6
Continuous
 62
     7
370
     9
100
AcDbPolyline
 90
        4
 70
     1
 43
1.0
 10
-1328.635744521262
 20
-20.85860699999412
 42
0.4142135623731
 10
-1329.135744521262
 20
-20.35860699999412
 42
0.4142135623731
 10
-1329.635744521262
 20
-20.85860699999412
 42
0.4142135623731
 10
-1329.135744521262
 20
-21.35860699999412
 42
0.4142135623731
  0
TEXT
  5
46A
330
1F
100
AcDbEntity
  8
A-0
  6
Continuous
 62
     2
370
   211
100
AcDbText
 10
-999.135472337457
 20
-9.218606999994137
 30
0.0
 40
30.48
  1
290
 41
1.083333333333333
  7
ＭＳ ゴシック
100
AcDbText
  0
LINE
  5
46B
330
1F
100
AcDbEntity
  8
A-0
  6
Continuous
 62
     7
370
     9
100
AcDbLine
 10
-1329.135744521262
 20
-20.85860699999412
 30
0.0
 11
-1341.635666200648
 21
-20.85860699999412
 31
0.0
  0
LWPOLYLINE
  5
46C
330
1F
100
AcDbEntity
  8
A-0
  6
Continuous
 62
     7
370
     9
100
AcDbPolyline
 90
        4
 70
     1
 43
1.0
 10
-1341.135666200648
 20
-20.85860699999412
 42
0.4142135623731
 10
-1341.635666200648
 20
-20.35860699999412
 42
0.4142135623731
 10
-1342.135666200648
 20
-20.85860699999412
 42
0.4142135623731
 10
-1341.635666200648
 20
-21.35860699999412
 42
0.4142135623731
  0
TEXT
  5
46D
330
1F
100
AcDbEntity
  8
A-0
  6
Continuous
 62
     2
370
   211
100
AcDbText
 10
-1336.06007377645
 20
-9.218606999994137
 30
0.0
 40
30.48
  1
5
 41
0.9999999999999998
  7
ＭＳ ゴシック
100
AcDbText
  0
TEXT
  5
46E
330
1F
100
AcDbEntity
  8
A-0
  6
Continuous
 62
     2
370
   211
100
AcDbText
 10
-617.9662583319043
 20
-9.218606999994137
 30
0.0
 40
30.48
  1
5
 41
0.9999999999999998
  7
ＭＳ ゴシック
100
AcDbText
  0
LINE
  5
46F
330
1F
100
AcDbEntity
  8
A-0
  6
Continuous
 62
     7
370
     9
100
AcDbLine
 10
-604.1352001536518
 20
-17.85860699999411
 30
0.0
 11
-604.1352001536518
 21
-137.3486515279817
 31
0.0
  0
LINE
  5
470
330
1F
100
AcDbEntity
  8
A-0
  6
Continuous
 62
     7
370
     9
100
AcDbLine
 10
-591.6355539270342
 20
90.89305084681769
 30
0.0
 11
-591.6355539270342
 21
-137.3486515279817
 31
0.0
  0
LINE
  5
471
330
1F
100
AcDbEntity
  8
A-0
  6
Continuous
 62
     7
370
     9
100
AcDbLine
 10
-1341.635666200648
 20
90.89305084681769
 30
0.0
 11
-1341.635666200648
 21
-137.3486515279817
 31
0.0
  0
LINE
  5
472
330
1F
100
AcDbEntity
  8
A-0
  6
Continuous
 62
     7
370
     9
100
AcDbLine
 10
-1329.135744521262
 20
-17.85860699999411
 30
0.0
 11
-1329.135744521262
 21
-137.3486515279817
 31
0.0
  0
LINE
  5
473
330
1F
100
AcDbEntity
  8
A-0
  6
Continuous
 62
     7
370
     9
100
AcDbLine
 10
-938.4946475356583
 20
-157.3486515279817
 30
0.0
 11
-938.4946475356583
 21
-194.8485690480408
 31
0.0
  0
LWPOLYLINE
  5
474
330
1F
100
AcDbEntity
  8
A-0
  6
Continuous
 62
     7
370
     9
100
AcDbPolyline
 90
        4
 70
     1
 43
1.0
 10
-937.9946475356583
 20
-157.3486515279817
 42
0.4142135623731
 10
-938.4946475356583
 20
-156.8486515279817
 42
0.4142135623731
 10
-938.9946475356583
 20
-157.3486515279817
 42
0.4142135623731
 10
-938.4946475356583
 20
-157.8486515279817
 42
0.4142135623731
  0
LWPOLYLINE
  5
475
330
1F
100
AcDbEntity
  8
A-0
  6
Continuous
 62
     7
370
     9
100
AcDbPolyline
 90
        4
 70
     1
 43
1.0
 10
-937.9946475356583
 20
-194.8485690480408
 42
0.4142135623731
 10
-938.4946475356583
 20
-194.3485690480408
 42
0.4142135623731
 10
-938.9946475356583
 20
-194.8485690480408
 42
0.4142135623731
 10
-938.4946475356583
 20
-195.3485690480408
 42
0.4142135623731
  0
TEXT
  5
476
330
1F
100
AcDbEntity
  8
A-0
  6
Continuous
 62
     2
370
   211
100
AcDbText
 10
-950.1346475356585
 20
-246.7270433847068
 30
0.0
 40
30.48
  1
15
 50
90.0
 41
1.0625
  7
ＭＳ ゴシック
100
AcDbText
  0
LINE
  5
477
330
1F
100
AcDbEntity
  8
A-0
  6
Continuous
 62
     7
370
     9
100
AcDbLine
 10
-938.4946475356583
 20
-194.8485690480408
 30
0.0
 11
-938.4946475356583
 21
-250.736624832505
 31
0.0
  0
LINE
  5
478
330
1F
100
AcDbEntity
  8
A-0
  6
Continuous
 62
     7
370
     9
100
AcDbLine
 10
-1254.135562460675
 20
-1036.859736209793
 30
0.0
 11
-1254.135562460675
 21
-971.8601403615028
 31
0.0
  0
LINE
  5
479
330
1F
100
AcDbEntity
  8
A-0
  6
Continuous
 62
     7
370
     9
100
AcDbLine
 10
-1254.135562460675
 20
-971.8601403615028
 30
0.0
 11
-679.1356449406169
 21
-971.8601403615028
 31
0.0
  0
LINE
  5
47A
330
1F
100
AcDbEntity
  8
A-0
  6
Continuous
 62
     7
370
     9
100
AcDbLine
 10
-679.1356449406169
 20
-971.8601403615028
 30
0.0
 11
-679.1356449406169
 21
-1036.859736209793
 31
0.0
  0
LINE
  5
47B
330
1F
100
AcDbEntity
  8
A-0
  6
Continuous
 62
     7
370
     9
100
AcDbLine
 10
-679.1356449406169
 20
-1036.859736209793
 30
0.0
 11
-1254.135562460675
 21
-1036.859736209793
 31
0.0
  0
TEXT
  5
47C
330
1F
100
AcDbEntity
  8
A-0
  6
Continuous
 62
     2
370
     9
100
AcDbText
 10
-1215.366377626427
 20
-1018.720066129557
 30
0.0
 40
30.48
  1
断面詳細図　Ｓ＝１：４
 41
1.113636363636364
  7
ＭＳ ゴシック
100
AcDbText
  0
LINE
  5
47D
330
1F
100
AcDbEntity
  8
A-0
  6
Continuous
 62
     7
370
     9
100
AcDbLine
 10
-591.6350351937706
 20
-157.3486515279817
 30
0.0
 11
-576.4160014627726
 21
-137.5148651048397
 31
0.0
  0
LINE
  5
47E
330
1F
100
AcDbEntity
  8
A-0
  6
Continuous
 62
     7
370
     9
100
AcDbLine
 10
-591.6350351937706
 20
-157.3486515279817
 30
0.0
 11
-571.801001330806
 21
-142.129617796985
 31
0.0
  0
LINE
  5
47F
330
1F
100
AcDbEntity
  8
A-0
  6
Continuous
 62
     7
370
     9
100
AcDbLine
 10
-591.6350351937706
 20
-157.3486515279817
 30
0.0
 11
-417.1679380917851
 21
17.1184455740033
 31
0.0
  0
TEXT
  5
480
330
1F
100
AcDbEntity
  8
A-0
  6
Continuous
 62
     7
370
     9
100
AcDbText
 10
-414.7617095365706
 20
98.97489557136387
 30
0.0
 40
22.86
  1
滑り止め模様付歩道Ｕ字溝用
 41
1.153846153846155
  7
ＭＳ ゴシック
100
AcDbText
  0
LINE
  5
481
330
1F
100
AcDbEntity
  8
A-0
  6
Continuous
 62
     7
370
     9
100
AcDbLine
 10
-417.1679380917851
 20
17.1184455740033
 30
0.0
 11
69.71610296313031
 21
17.1184455740033
 31
0.0
  0
TEXT
  5
482
330
1F
100
AcDbEntity
  8
A-0
  6
Continuous
 62
     7
370
     9
100
AcDbText
 10
-414.7609744417953
 20
61.5070627483021
 30
0.0
 40
22.86
  1
ステンレス製グレーチング
 50
0.000153729295388
 41
1.152777777777775
  7
ＭＳ ゴシック
100
AcDbText
  0
LINE
  5
483
330
1F
100
AcDbEntity
  8
A-0
  6
Continuous
 62
     6
370
     5
100
AcDbLine
 10
-1679.135822400497
 20
-489.8486678950949
 30
0.0
 11
-1453.093903513345
 21
-489.8486678950949
 31
0.0
  0
LINE
  5
484
330
1F
100
AcDbEntity
  8
A-0
  6
Continuous
 62
     6
370
     5
100
AcDbLine
 10
-1456.984712408148
 20
-396.4695658391832
 30
0.0
 11
-1510.897404233793
 21
-489.8486678950949
 31
0.0
  0
LINE
  5
485
330
1F
100
AcDbEntity
  8
A-0
  6
Continuous
 62
     6
370
     5
100
AcDbLine
 10
-1458.302258512317
 20
-364.8485647951687
 30
0.0
 11
-1679.135822400497
 21
-364.8485647951687
 31
0.0
  0
LINE
  5
486
330
1F
100
AcDbEntity
  8
A-0
  6
Continuous
 62
     6
370
     5
100
AcDbLine
 10
-1462.46893735648
 20
-264.8486060351391
 30
0.0
 11
-1679.135822400497
 21
-264.8486060351391
 31
0.0
  0
TEXT
  5
487
330
1F
100
AcDbEntity
  8
A-0
  6
Continuous
 62
     7
370
     9
100
AcDbText
 10
-414.7609765202957
 20
24.86939053017982
 30
0.0
 40
22.86
  1
ＳＭＱＨＵ(h=15)ピッチ＝１５
 50
0.0001260200668
 41
1.154761904761904
  7
ＭＳ ゴシック
100
AcDbText
  0
TEXT
  5
488
330
1F
100
AcDbEntity
  8
A-5
  6
Continuous
 62
     7
370
     9
100
AcDbText
 10
407.7200069003729
 20
-1049.488772689219
 30
0.0
 40
30.48
  1
　建物内、建物敷地内などで、車の乗り入れの無い場所でお使いいただけます。
 41
0.8749999999999999
  7
ＭＳ ゴシック
100
AcDbText
  0
TEXT
  5
489
330
1F
100
AcDbEntity
  8
A-5
  6
Continuous
 62
     2
370
     9
100
AcDbText
 10
476.8607060986537
 20
-186.8470324106366
 30
0.0
 40
30.48
  1
ＳＭＱＨＵ　３０１５　Ｐ＝１５（すきま１１mm）
 41
1.119565217391304
  7
ＭＳ ゴシック
100
AcDbText
  0
TEXT
  5
48A
330
1F
100
AcDbEntity
  8
F-5
  6
Continuous
 62
     2
370
     9
100
AcDbText
 10
-164.5140478668054
 20
-1370.86711064863
 30
0.0
 40
30.48
  1
ＳＭＱＨＵ　３０１５　Ｐ＝１５
 41
0.8983333333333332
  7
ＭＳ ゴシック
100
AcDbText
  0
ENDSEC
  0
SECTION
  2
OBJECTS
  0
DICTIONARY
  5
C
330
0
100
AcDbDictionary
281
     1
  3
ACAD_GROUP
350
D
  3
ACAD_LAYOUT
350
1A
  3
ACAD_MLEADERSTYLE
350
48C
  3
ACAD_MLINESTYLE
350
17
  3
ACAD_PLOTSETTINGS
350
19
  3
ACAD_PLOTSTYLENAME
350
E
  3
ACAD_TABLESTYLE
350
48B
  3
ACAD_VISUALSTYLE
350
2A
  3
AcDbVariableDictionary
350
48D
  0
DICTIONARY
  5
D
102
{ACAD_REACTORS
330
C
102
}
330
C
100
AcDbDictionary
281
     1
  0
DICTIONARY
  5
1A
102
{ACAD_REACTORS
330
C
102
}
330
C
100
AcDbDictionary
281
     1
  3
Layout1
350
1E
  3
Layout2
350
26
  3
Model
350
22
  0
DICTIONARY
  5
48C
102
{ACAD_REACTORS
330
C
102
}
330
C
100
AcDbDictionary
281
     1
  0
DICTIONARY
  5
17
102
{ACAD_REACTORS
330
C
102
}
330
C
100
AcDbDictionary
281
     1
  3
Standard
350
18
  0
DICTIONARY
  5
19
102
{ACAD_REACTORS
330
C
102
}
330
C
100
AcDbDictionary
281
     1
  0
ACDBDICTIONARYWDFLT
  5
E
102
{ACAD_REACTORS
330
C
102
}
330
C
100
AcDbDictionary
281
     1
  3
Normal
350
F
100
AcDbDictionaryWithDefault
340
F
  0
DICTIONARY
  5
48B
102
{ACAD_REACTORS
330
C
102
}
330
C
100
AcDbDictionary
281
     1
  0
DICTIONARY
  5
2A
102
{ACAD_REACTORS
330
C
102
}
330
C
100
AcDbDictionary
281
     1
  3
2dWireframe
350
2F
  3
3D Hidden
350
31
  3
3dWireframe
350
30
  3
Basic
350
32
  3
Brighten
350
36
  3
ColorChange
350
3A
  3
Conceptual
350
34
  3
Dim
350
35
  3
Facepattern
350
39
  3
Flat
350
2B
  3
FlatWithEdges
350
2C
  3
Gouraud
350
2D
  3
GouraudWithEdges
350
2E
  3
Linepattern
350
38
  3
Realistic
350
33
  3
Thicken
350
37
  0
DICTIONARY
  5
48D
102
{ACAD_REACTORS
330
C
102
}
330
C
100
AcDbDictionary
281
     1
  3
PSOLHEIGHT
350
48F
  3
PSOLWIDTH
350
48E
  0
LAYOUT
  5
1E
102
{ACAD_REACTORS
330
1A
102
}
102
{ACAD_XDICTIONARY
360
490
102
}
330
1A
100
AcDbPlotSettings
  1

  2
none_device
  4

  6

 40
0.0
 41
0.0
 42
0.0
 43
0.0
 44
0.0
 45
0.0
 46
0.0
 47
0.0
 48
0.0
 49
0.0
140
0.0
141
0.0
142
1.0
143
1.0
 70
   688
 72
     0
 73
     0
 74
     5
  7

 75
    16
147
1.0
148
0.0
149
0.0
100
AcDbLayout
  1
Layout1
 70
     1
 71
     1
 10
0.0
 20
0.0
 11
420.0
 21
297.0
 12
0.0
 22
0.0
 32
0.0
 14
1.000000000000000E+20
 24
1.000000000000000E+20
 34
1.000000000000000E+20
 15
-1.000000000000000E+20
 25
-1.000000000000000E+20
 35
-1.000000000000000E+20
146
0.0
 13
0.0
 23
0.0
 33
0.0
 16
1.0
 26
0.0
 36
0.0
 17
0.0
 27
1.0
 37
0.0
 76
     0
330
1B
  0
LAYOUT
  5
26
102
{ACAD_REACTORS
330
1A
102
}
102
{ACAD_XDICTIONARY
360
494
102
}
330
1A
100
AcDbPlotSettings
  1

  2
none_device
  4

  6

 40
0.0
 41
0.0
 42
0.0
 43
0.0
 44
0.0
 45
0.0
 46
0.0
 47
0.0
 48
0.0
 49
0.0
140
0.0
141
0.0
142
1.0
143
1.0
 70
   688
 72
     0
 73
     0
 74
     5
  7

 75
    16
147
1.0
148
0.0
149
0.0
100
AcDbLayout
  1
Layout2
 70
     1
 71
     2
 10
0.0
 20
0.0
 11
0.0
 21
0.0
 12
0.0
 22
0.0
 32
0.0
 14
0.0
 24
0.0
 34
0.0
 15
0.0
 25
0.0
 35
0.0
146
0.0
 13
0.0
 23
0.0
 33
0.0
 16
1.0
 26
0.0
 36
0.0
 17
0.0
 27
1.0
 37
0.0
 76
     0
330
23
  0
LAYOUT
  5
22
102
{ACAD_REACTORS
330
1A
102
}
102
{ACAD_XDICTIONARY
360
492
102
}
330
1A
100
AcDbPlotSettings
  1

  2
none_device
  4

  6

 40
0.0
 41
0.0
 42
0.0
 43
0.0
 44
0.0
 45
0.0
 46
0.0
 47
0.0
 48
0.0
 49
0.0
140
0.0
141
0.0
142
1.0
143
1.0
 70
  1712
 72
     0
 73
     0
 74
     0
  7

 75
     0
147
1.0
148
0.0
149
0.0
100
AcDbLayout
  1
Model
 70
     1
 71
     0
 10
-2100.0
 20
-1485.0
 11
2100.0
 21
1485.0
 12
0.0
 22
0.0
 32
0.0
 14
-2100.0
 24
-1485.0
 34
0.0
 15
2100.0
 25
1485.0
 35
0.0
146
0.0
 13
0.0
 23
0.0
 33
0.0
 16
1.0
 26
0.0
 36
0.0
 17
0.0
 27
1.0
 37
0.0
 76
     0
330
1F
331
29
  0
MLINESTYLE
  5
18
102
{ACAD_REACTORS
330
17
102
}
330
17
100
AcDbMlineStyle
  2
Standard
 70
     0
  3

 62
   256
 51
90.0
 52
90.0
 71
     2
 49
0.5
 62
   256
  6
BYLAYER
 49
-0.5
 62
   256
  6
BYLAYER
  0
ACDBPLACEHOLDER
  5
F
102
{ACAD_REACTORS
330
E
102
}
330
E
  0
VISUALSTYLE
  5
2F
102
{ACAD_REACTORS
330
2A
102
}
330
2A
100
AcDbVisualStyle
  2
2dWireframe
 70
     4
 71
     0
 72
     2
 73
     0
 90
        0
 40
-0.6
 41
-30.0
 62
     5
 63
     7
 74
     1
 91
        4
 64
     7
 65
   257
 75
     1
175
     1
 42
1.0
 92
        0
 66
   257
 43
1.0
 76
     1
 77
     6
 78
     2
 67
     7
 79
     5
170
     0
171
     0
290
     0
174
     0
 93
        1
 44
0.0
173
     0
291
     0
 45
0.0
1001
ACAD
1000
AcDbSavedByObjectVersion
1070
     0
  0
VISUALSTYLE
  5
31
102
{ACAD_REACTORS
330
2A
102
}
330
2A
100
AcDbVisualStyle
  2
3D Hidden
 70
     6
 71
     1
 72
     2
 73
     2
 90
        0
 40
-0.6
 41
-30.0
 62
     5
 63
     7
 74
     2
 91
        2
 64
     7
 65
   257
 75
     2
175
     1
 42
40.0
 92
        0
 66
   257
 43
1.0
 76
     1
 77
     6
 78
     2
 67
     7
 79
     3
170
     0
171
     0
290
     0
174
     0
 93
        1
 44
0.0
173
     0
291
     0
 45
0.0
1001
ACAD
1000
AcDbSavedByObjectVersion
1070
     0
  0
VISUALSTYLE
  5
30
102
{ACAD_REACTORS
330
2A
102
}
330
2A
100
AcDbVisualStyle
  2
3dWireframe
 70
     5
 71
     0
 72
     2
 73
     0
 90
        0
 40
-0.6
 41
-30.0
 62
     5
 63
     7
 74
     1
 91
        4
 64
     7
 65
   257
 75
     1
175
     1
 42
1.0
 92
        0
 66
   257
 43
1.0
 76
     1
 77
     6
 78
     2
 67
     7
 79
     5
170
     0
171
     0
290
     0
174
     0
 93
        1
 44
0.0
173
     0
291
     0
 45
0.0
1001
ACAD
1000
AcDbSavedByObjectVersion
1070
     0
  0
VISUALSTYLE
  5
32
102
{ACAD_REACTORS
330
2A
102
}
330
2A
100
AcDbVisualStyle
  2
Basic
 70
     7
 71
     1
 72
     0
 73
     1
 90
        0
 40
-0.6
 41
-30.0
 62
     5
 63
     7
 74
     0
 91
        4
 64
     7
 65
   257
 75
     1
175
     1
 42
1.0
 92
        8
 66
     7
 43
1.0
 76
     1
 77
     6
 78
     2
 67
     7
 79
     5
170
     0
171
     0
290
     0
174
     0
 93
        1
 44
0.0
173
     0
291
     1
 45
0.0
1001
ACAD
1000
AcDbSavedByObjectVersion
1070
     0
  0
VISUALSTYLE
  5
36
102
{ACAD_REACTORS
330
2A
102
}
330
2A
100
AcDbVisualStyle
  2
Brighten
 70
    12
 71
     2
 72
     2
 73
     0
 90
        0
 40
-0.6
 41
-30.0
 62
     5
 63
     7
 74
     1
 91
        4
 64
     7
 65
   257
 75
     1
175
     1
 42
1.0
 92
        8
 66
     7
 43
1.0
 76
     1
 77
     6
 78
     2
 67
     7
 79
     5
170
     0
171
     0
290
     0
174
     0
 93
        1
 44
50.0
173
     0
291
     1
 45
0.0
1001
ACAD
1000
AcDbSavedByObjectVersion
1070
     0
  0
VISUALSTYLE
  5
3A
102
{ACAD_REACTORS
330
2A
102
}
330
2A
100
AcDbVisualStyle
  2
ColorChange
 70
    16
 71
     2
 72
     2
 73
     3
 90
        0
 40
-0.6
 41
-30.0
 62
     5
 63
     8
 74
     1
 91
        4
 64
     7
 65
   257
 75
     1
175
     1
 42
1.0
 92
        8
 66
     8
 43
1.0
 76
     1
 77
     6
 78
     2
 67
     7
 79
     5
170
     0
171
     0
290
     0
174
     0
 93
        1
 44
0.0
173
     0
291
     1
 45
0.0
1001
ACAD
1000
AcDbSavedByObjectVersion
1070
     0
  0
VISUALSTYLE
  5
34
102
{ACAD_REACTORS
330
2A
102
}
330
2A
100
AcDbVisualStyle
  2
Conceptual
 70
     9
 71
     3
 72
     2
 73
     0
 90
        0
 40
-0.6
 41
-30.0
 62
     5
 63
     7
 74
     2
 91
        2
 64
     7
 65
   257
 75
     1
175
     1
 42
40.0
 92
        8
 66
     7
 43
1.0
 76
     1
 77
     6
 78
     2
 67
     7
 79
     3
170
     0
171
     0
290
     0
174
     0
 93
        1
 44
0.0
173
     0
291
     0
 45
0.0
1001
ACAD
1000
AcDbSavedByObjectVersion
1070
     0
  0
VISUALSTYLE
  5
35
102
{ACAD_REACTORS
330
2A
102
}
330
2A
100
AcDbVisualStyle
  2
Dim
 70
    11
 71
     2
 72
     2
 73
     0
 90
        0
 40
-0.6
 41
-30.0
 62
     5
 63
     7
 74
     1
 91
        4
 64
     7
 65
   257
 75
     1
175
     1
 42
1.0
 92
        8
 66
     7
 43
1.0
 76
     1
 77
     6
 78
     2
 67
     7
 79
     5
170
     0
171
     0
290
     0
174
     0
 93
        1
 44
-50.0
173
     0
291
     1
 45
0.0
1001
ACAD
1000
AcDbSavedByObjectVersion
1070
     0
  0
VISUALSTYLE
  5
39
102
{ACAD_REACTORS
330
2A
102
}
330
2A
100
AcDbVisualStyle
  2
Facepattern
 70
    15
 71
     2
 72
     2
 73
     0
 90
        0
 40
-0.6
 41
-30.0
 62
     5
 63
     7
 74
     1
 91
        4
 64
     7
 65
   257
 75
     1
175
     1
 42
1.0
 92
        8
 66
     7
 43
1.0
 76
     1
 77
     6
 78
     2
 67
     7
 79
     5
170
     0
171
     0
290
     0
174
     0
 93
        1
 44
0.0
173
     0
291
     1
 45
0.0
1001
ACAD
1000
AcDbSavedByObjectVersion
1070
     0
  0
VISUALSTYLE
  5
2B
102
{ACAD_REACTORS
330
2A
102
}
330
2A
100
AcDbVisualStyle
  2
Flat
 70
     0
 71
     2
 72
     1
 73
     1
 90
        2
 40
-0.6
 41
30.0
 62
     5
 63
     7
 74
     0
 91
        4
 64
     7
 65
   257
 75
     1
175
     1
 42
1.0
 92
        8
 66
     7
 43
1.0
 76
     1
 77
     6
 78
     2
 67
     7
 79
     5
170
     0
171
     0
290
     0
174
     0
 93
       13
 44
0.0
173
     0
291
     1
 45
0.0
1001
ACAD
1000
AcDbSavedByObjectVersion
1070
     0
  0
VISUALSTYLE
  5
2C
102
{ACAD_REACTORS
330
2A
102
}
330
2A
100
AcDbVisualStyle
  2
FlatWithEdges
 70
     1
 71
     2
 72
     1
 73
     1
 90
        2
 40
-0.6
 41
30.0
 62
     5
 63
     7
 74
     1
 91
        4
 64
     7
 65
   257
 75
     1
175
     1
 42
1.0
 92
        0
 66
   257
 43
1.0
 76
     1
 77
     6
 78
     2
 67
     7
 79
     5
170
     0
171
     0
290
     0
174
     0
 93
       13
 44
0.0
173
     0
291
     1
 45
0.0
1001
ACAD
1000
AcDbSavedByObjectVersion
1070
     0
  0
VISUALSTYLE
  5
2D
102
{ACAD_REACTORS
330
2A
102
}
330
2A
100
AcDbVisualStyle
  2
Gouraud
 70
     2
 71
     2
 72
     2
 73
     1
 90
        2
 40
-0.6
 41
30.0
 62
     5
 63
     7
 74
     0
 91
        4
 64
     7
 65
   257
 75
     1
175
     1
 42
1.0
 92
        0
 66
     7
 43
1.0
 76
     1
 77
     6
 78
     2
 67
     7
 79
     5
170
     0
171
     0
290
     0
174
     0
 93
       13
 44
0.0
173
     0
291
     1
 45
0.0
1001
ACAD
1000
AcDbSavedByObjectVersion
1070
     0
  0
VISUALSTYLE
  5
2E
102
{ACAD_REACTORS
330
2A
102
}
330
2A
100
AcDbVisualStyle
  2
GouraudWithEdges
 70
     3
 71
     2
 72
     2
 73
     1
 90
        2
 40
-0.6
 41
30.0
 62
     5
 63
     7
 74
     1
 91
        4
 64
     7
 65
   257
 75
     1
175
     1
 42
1.0
 92
        0
 66
   257
 43
1.0
 76
     1
 77
     6
 78
     2
 67
     7
 79
     5
170
     0
171
     0
290
     0
174
     0
 93
       13
 44
0.0
173
     0
291
     1
 45
0.0
1001
ACAD
1000
AcDbSavedByObjectVersion
1070
     0
  0
VISUALSTYLE
  5
38
102
{ACAD_REACTORS
330
2A
102
}
330
2A
100
AcDbVisualStyle
  2
Linepattern
 70
    14
 71
     2
 72
     2
 73
     0
 90
        0
 40
-0.6
 41
-30.0
 62
     5
 63
     7
 74
     1
 91
        4
 64
     7
 65
   257
 75
     7
175
     7
 42
1.0
 92
        8
 66
     7
 43
1.0
 76
     1
 77
     6
 78
     2
 67
     7
 79
     5
170
     0
171
     0
290
     0
174
     0
 93
        1
 44
0.0
173
     0
291
     1
 45
0.0
1001
ACAD
1000
AcDbSavedByObjectVersion
1070
     0
  0
VISUALSTYLE
  5
33
102
{ACAD_REACTORS
330
2A
102
}
330
2A
100
AcDbVisualStyle
  2
Realistic
 70
     8
 71
     2
 72
     2
 73
     0
 90
        0
 40
-0.6
 41
-30.0
 62
     5
 63
     7
 74
     1
 91
        0
 64
     7
 65
   257
 75
     1
175
     1
 42
1.0
 92
        8
 66
     8
 43
1.0
 76
     1
 77
     6
 78
     2
 67
     7
 79
     5
170
     0
171
     0
290
     0
174
     0
 93
       13
 44
0.0
173
     0
291
     0
 45
0.0
1001
ACAD
1000
AcDbSavedByObjectVersion
1070
     0
  0
VISUALSTYLE
  5
37
102
{ACAD_REACTORS
330
2A
102
}
330
2A
100
AcDbVisualStyle
  2
Thicken
 70
    13
 71
     2
 72
     2
 73
     0
 90
        0
 40
-0.6
 41
-30.0
 62
     5
 63
     7
 74
     1
 91
        4
 64
     7
 65
   257
 75
     1
175
     1
 42
1.0
 92
       12
 66
     7
 43
1.0
 76
     1
 77
     6
 78
     2
 67
     7
 79
     5
170
     0
171
     0
290
     0
174
     0
 93
        1
 44
0.0
173
     0
291
     1
 45
0.0
1001
ACAD
1000
AcDbSavedByObjectVersion
1070
     0
  0
DICTIONARYVAR
  5
48F
102
{ACAD_REACTORS
330
48D
102
}
330
48D
100
DictionaryVariables
280
     0
  1
80.000000
  0
DICTIONARYVAR
  5
48E
102
{ACAD_REACTORS
330
48D
102
}
330
48D
100
DictionaryVariables
280
     0
  1
5.000000
  0
DICTIONARY
  5
490
330
1E
100
AcDbDictionary
280
     1
281
     1
  3
ACAD_XREC_ROUNDTRIP
360
491
  0
DICTIONARY
  5
494
330
26
100
AcDbDictionary
280
     1
281
     1
  3
ACAD_XREC_ROUNDTRIP
360
495
  0
DICTIONARY
  5
492
330
22
100
AcDbDictionary
280
     1
281
     1
  3
ACAD_XREC_ROUNDTRIP
360
493
  0
XRECORD
  5
491
102
{ACAD_REACTORS
330
490
102
}
330
490
100
AcDbXrecord
280
     1
102
SHADEPLOT
 70
     0
102
SHADEPLOTRESLEVEL
 70
     5
102
SHADEPLOTCUSTOMDPI
 70
   300
  0
XRECORD
  5
495
102
{ACAD_REACTORS
330
494
102
}
330
494
100
AcDbXrecord
280
     1
102
SHADEPLOT
 70
     0
102
SHADEPLOTRESLEVEL
 70
     5
102
SHADEPLOTCUSTOMDPI
 70
   300
  0
XRECORD
  5
493
102
{ACAD_REACTORS
330
492
102
}
330
492
100
AcDbXrecord
280
     1
102
SHADEPLOT
 70
     0
102
SHADEPLOTRESLEVEL
 70
     5
102
SHADEPLOTCUSTOMDPI
 70
   300
  0
ENDSEC
  0
EOF
