  0
SECTION
  2
HEADER
  9
$ACADVER
  1
AC1015
  9
$ACADMAINTVER
 70
     6
  9
$DWGCODEPAGE
  3
ANSI_932
  9
$INSBASE
 10
0.0
 20
0.0
 30
0.0
  9
$EXTMIN
 10
-2100.0
 20
-1485.0
 30
0.0
  9
$EXTMAX
 10
2100.0
 20
1485.0
 30
0.0
  9
$LIMMIN
 10
-2100.0
 20
-1485.0
  9
$LIMMAX
 10
2100.0
 20
1485.0
  9
$ORTHOMODE
 70
     0
  9
$REGENMODE
 70
     1
  9
$FILLMODE
 70
     1
  9
$QTEXTMODE
 70
     0
  9
$MIRRTEXT
 70
     1
  9
$LTSCALE
 40
10.0
  9
$ATTMODE
 70
     1
  9
$TEXTSIZE
 40
2.5
  9
$TRACEWID
 40
1.0
  9
$TEXTSTYLE
  7
Standard
  9
$CLAYER
  8
0
  9
$CELTYPE
  6
ByLayer
  9
$CECOLOR
 62
   256
  9
$CELTSCALE
 40
1.0
  9
$DISPSILH
 70
     0
  9
$DIMSCALE
 40
1.0
  9
$DIMASZ
 40
2.5
  9
$DIMEXO
 40
0.625
  9
$DIMDLI
 40
3.75
  9
$DIMRND
 40
0.0
  9
$DIMDLE
 40
0.0
  9
$DIMEXE
 40
1.25
  9
$DIMTP
 40
0.0
  9
$DIMTM
 40
0.0
  9
$DIMTXT
 40
2.5
  9
$DIMCEN
 40
2.5
  9
$DIMTSZ
 40
0.0
  9
$DIMTOL
 70
     0
  9
$DIMLIM
 70
     0
  9
$DIMTIH
 70
     0
  9
$DIMTOH
 70
     0
  9
$DIMSE1
 70
     0
  9
$DIMSE2
 70
     0
  9
$DIMTAD
 70
     1
  9
$DIMZIN
 70
     8
  9
$DIMBLK
  1

  9
$DIMASO
 70
     1
  9
$DIMSHO
 70
     1
  9
$DIMPOST
  1

  9
$DIMAPOST
  1

  9
$DIMALT
 70
     0
  9
$DIMALTD
 70
     3
  9
$DIMALTF
 40
0.03937007874016
  9
$DIMLFAC
 40
1.0
  9
$DIMTOFL
 70
     1
  9
$DIMTVP
 40
0.0
  9
$DIMTIX
 70
     0
  9
$DIMSOXD
 70
     0
  9
$DIMSAH
 70
     0
  9
$DIMBLK1
  1

  9
$DIMBLK2
  1

  9
$DIMSTYLE
  2
ISO-25
  9
$DIMCLRD
 70
     0
  9
$DIMCLRE
 70
     0
  9
$DIMCLRT
 70
     0
  9
$DIMTFAC
 40
1.0
  9
$DIMGAP
 40
0.625
  9
$DIMJUST
 70
     0
  9
$DIMSD1
 70
     0
  9
$DIMSD2
 70
     0
  9
$DIMTOLJ
 70
     0
  9
$DIMTZIN
 70
     8
  9
$DIMALTZ
 70
     0
  9
$DIMALTTZ
 70
     0
  9
$DIMUPT
 70
     0
  9
$DIMDEC
 70
     2
  9
$DIMTDEC
 70
     2
  9
$DIMALTU
 70
     2
  9
$DIMALTTD
 70
     3
  9
$DIMTXSTY
  7
Standard
  9
$DIMAUNIT
 70
     0
  9
$DIMADEC
 70
     0
  9
$DIMALTRND
 40
0.0
  9
$DIMAZIN
 70
     0
  9
$DIMDSEP
 70
    44
  9
$DIMATFIT
 70
     3
  9
$DIMFRAC
 70
     0
  9
$DIMLDRBLK
  1

  9
$DIMLUNIT
 70
     2
  9
$DIMLWD
 70
    -2
  9
$DIMLWE
 70
    -2
  9
$DIMTMOVE
 70
     0
  9
$LUNITS
 70
     2
  9
$LUPREC
 70
     4
  9
$SKETCHINC
 40
1.0
  9
$FILLETRAD
 40
10.0
  9
$AUNITS
 70
     0
  9
$AUPREC
 70
     0
  9
$MENU
  1
.
  9
$ELEVATION
 40
0.0
  9
$PELEVATION
 40
0.0
  9
$THICKNESS
 40
0.0
  9
$LIMCHECK
 70
     0
  9
$CHAMFERA
 40
10.0
  9
$CHAMFERB
 40
10.0
  9
$CHAMFERC
 40
20.0
  9
$CHAMFERD
 40
0.0
  9
$SKPOLY
 70
     0
  9
$TDCREATE
 40
2456541.782016481
  9
$TDUCREATE
 40
2456541.407016481
  9
$TDUPDATE
 40
2456541.782016493
  9
$TDUUPDATE
 40
2456541.407016493
  9
$TDINDWG
 40
0.0000000116
  9
$TDUSRTIMER
 40
0.0000000116
  9
$USRTIMER
 70
     1
  9
$ANGBASE
 50
0.0
  9
$ANGDIR
 70
     0
  9
$PDMODE
 70
     0
  9
$PDSIZE
 40
0.0
  9
$PLINEWID
 40
0.0
  9
$SPLFRAME
 70
     0
  9
$SPLINETYPE
 70
     6
  9
$SPLINESEGS
 70
     8
  9
$HANDSEED
  5
31B
  9
$SURFTAB1
 70
     6
  9
$SURFTAB2
 70
     6
  9
$SURFTYPE
 70
     6
  9
$SURFU
 70
     6
  9
$SURFV
 70
     6
  9
$UCSBASE
  2

  9
$UCSNAME
  2

  9
$UCSORG
 10
0.0
 20
0.0
 30
0.0
  9
$UCSXDIR
 10
1.0
 20
0.0
 30
0.0
  9
$UCSYDIR
 10
0.0
 20
1.0
 30
0.0
  9
$UCSORTHOREF
  2

  9
$UCSORTHOVIEW
 70
     0
  9
$UCSORGTOP
 10
0.0
 20
0.0
 30
0.0
  9
$UCSORGBOTTOM
 10
0.0
 20
0.0
 30
0.0
  9
$UCSORGLEFT
 10
0.0
 20
0.0
 30
0.0
  9
$UCSORGRIGHT
 10
0.0
 20
0.0
 30
0.0
  9
$UCSORGFRONT
 10
0.0
 20
0.0
 30
0.0
  9
$UCSORGBACK
 10
0.0
 20
0.0
 30
0.0
  9
$PUCSBASE
  2

  9
$PUCSNAME
  2

  9
$PUCSORG
 10
0.0
 20
0.0
 30
0.0
  9
$PUCSXDIR
 10
1.0
 20
0.0
 30
0.0
  9
$PUCSYDIR
 10
0.0
 20
1.0
 30
0.0
  9
$PUCSORTHOREF
  2

  9
$PUCSORTHOVIEW
 70
     0
  9
$PUCSORGTOP
 10
0.0
 20
0.0
 30
0.0
  9
$PUCSORGBOTTOM
 10
0.0
 20
0.0
 30
0.0
  9
$PUCSORGLEFT
 10
0.0
 20
0.0
 30
0.0
  9
$PUCSORGRIGHT
 10
0.0
 20
0.0
 30
0.0
  9
$PUCSORGFRONT
 10
0.0
 20
0.0
 30
0.0
  9
$PUCSORGBACK
 10
0.0
 20
0.0
 30
0.0
  9
$USERI1
 70
     0
  9
$USERI2
 70
     0
  9
$USERI3
 70
     0
  9
$USERI4
 70
     0
  9
$USERI5
 70
     0
  9
$USERR1
 40
0.0
  9
$USERR2
 40
0.0
  9
$USERR3
 40
0.0
  9
$USERR4
 40
0.0
  9
$USERR5
 40
0.0
  9
$WORLDVIEW
 70
     1
  9
$SHADEDGE
 70
     3
  9
$SHADEDIF
 70
    70
  9
$TILEMODE
 70
     1
  9
$MAXACTVP
 70
    64
  9
$PINSBASE
 10
0.0
 20
0.0
 30
0.0
  9
$PLIMCHECK
 70
     0
  9
$PEXTMIN
 10
1.000000000000000E+20
 20
1.000000000000000E+20
 30
1.000000000000000E+20
  9
$PEXTMAX
 10
-1.000000000000000E+20
 20
-1.000000000000000E+20
 30
-1.000000000000000E+20
  9
$PLIMMIN
 10
0.0
 20
0.0
  9
$PLIMMAX
 10
420.0
 20
297.0
  9
$UNITMODE
 70
     0
  9
$VISRETAIN
 70
     1
  9
$PLINEGEN
 70
     0
  9
$PSLTSCALE
 70
     1
  9
$TREEDEPTH
 70
  3020
  9
$CMLSTYLE
  2
Standard
  9
$CMLJUST
 70
     0
  9
$CMLSCALE
 40
20.0
  9
$PROXYGRAPHICS
 70
     1
  9
$MEASUREMENT
 70
     1
  9
$CELWEIGHT
370
    -1
  9
$ENDCAPS
280
     0
  9
$JOINSTYLE
280
     0
  9
$LWDISPLAY
290
     0
  9
$INSUNITS
 70
     4
  9
$HYPERLINKBASE
  1

  9
$STYLESHEET
  1

  9
$XEDIT
290
     1
  9
$CEPSNTYPE
380
     0
  9
$PSTYLEMODE
290
     1
  9
$FINGERPRINTGUID
  2
{D8FD8FAB-59F2-46D5-A1BF-C000F3D7D766}
  9
$VERSIONGUID
  2
{FAEB1C32-E019-11D5-929B-00C0DF256EC4}
  9
$EXTNAMES
290
     1
  9
$PSVPSCALE
 40
0.0
  9
$OLESTARTUP
290
     0
  0
ENDSEC
  0
SECTION
  2
CLASSES
  0
CLASS
  1
ACDBDICTIONARYWDFLT
  2
AcDbDictionaryWithDefault
  3
ObjectDBX Classes
 90
        0
280
     0
281
     0
  0
CLASS
  1
VISUALSTYLE
  2
AcDbVisualStyle
  3
ObjectDBX Classes
 90
     4095
280
     0
281
     0
  0
CLASS
  1
DICTIONARYVAR
  2
AcDbDictionaryVar
  3
ObjectDBX Classes
 90
        0
280
     0
281
     0
  0
CLASS
  1
ACDBPLACEHOLDER
  2
AcDbPlaceHolder
  3
ObjectDBX Classes
 90
        0
280
     0
281
     0
  0
CLASS
  1
LAYOUT
  2
AcDbLayout
  3
ObjectDBX Classes
 90
        0
280
     0
281
     0
  0
ENDSEC
  0
SECTION
  2
TABLES
  0
TABLE
  2
VPORT
  5
8
330
0
100
AcDbSymbolTable
 70
     1
  0
VPORT
  5
29
330
8
100
AcDbSymbolTableRecord
100
AcDbViewportTableRecord
  2
*Active
 70
     0
 10
0.0
 20
0.0
 11
1.0
 21
1.0
 12
0.0
 22
0.0
 13
0.0
 23
0.0
 14
10.0
 24
10.0
 15
10.0
 25
10.0
 16
0.0
 26
0.0
 36
1.0
 17
0.0
 27
0.0
 37
0.0
 40
3267.0
 41
1.414141414141414
 42
50.0
 43
0.0
 44
0.0
 50
0.0
 51
0.0
 71
     0
 72
 10000
 73
     1
 74
     3
 75
     0
 76
     0
 77
     0
 78
     0
281
     0
 65
     1
110
0.0
120
0.0
130
0.0
111
1.0
121
0.0
131
0.0
112
0.0
122
1.0
132
0.0
 79
     0
146
0.0
  0
ENDTAB
  0
TABLE
  2
LTYPE
  5
5
330
0
100
AcDbSymbolTable
 70
     4
  0
LTYPE
  5
14
330
5
100
AcDbSymbolTableRecord
100
AcDbLinetypeTableRecord
  2
ByBlock
 70
     0
  3

 72
    65
 73
     0
 40
0.0
  0
LTYPE
  5
15
330
5
100
AcDbSymbolTableRecord
100
AcDbLinetypeTableRecord
  2
ByLayer
 70
     0
  3

 72
    65
 73
     0
 40
0.0
  0
LTYPE
  5
16
330
5
100
AcDbSymbolTableRecord
100
AcDbLinetypeTableRecord
  2
Continuous
 70
     0
  3
Solid line
 72
    65
 73
     0
 40
0.0
  0
LTYPE
  5
3C
330
5
100
AcDbSymbolTableRecord
100
AcDbLinetypeTableRecord
  2
JWW_DASHED3
 70
     0
  3
---  ------  ------  ------  ---
 72
    65
 73
     2
 40
3.386666666666667
 49
2.54
 74
     0
 49
-0.8466666666666667
 74
     0
  0
LTYPE
  5
3D
330
5
100
AcDbSymbolTableRecord
100
AcDbLinetypeTableRecord
  2
JWW_CENTER2
 70
     0
  3
-------------  --  -------------
 72
    65
 73
     4
 40
13.54666666666667
 49
11.00666666666667
 74
     0
 49
-0.8466666666666667
 74
     0
 49
0.8466666666666667
 74
     0
 49
-0.8466666666666667
 74
     0
  0
LTYPE
  5
3E
330
5
100
AcDbSymbolTableRecord
100
AcDbLinetypeTableRecord
  2
JWW_CENTER1
 70
     0
  3
-----  --  ----------  --  -----
 72
    65
 73
     4
 40
6.773333333333333
 49
4.233333333333333
 74
     0
 49
-0.8466666666666667
 74
     0
 49
0.8466666666666667
 74
     0
 49
-0.8466666666666667
 74
     0
  0
ENDTAB
  0
TABLE
  2
LAYER
  5
2
330
0
100
AcDbSymbolTable
 70
    18
  0
LAYER
  5
10
330
2
100
AcDbSymbolTableRecord
100
AcDbLayerTableRecord
  2
0
 70
     0
 62
     7
  6
Continuous
370
    -3
390
F
  0
LAYER
  5
3F
330
2
100
AcDbSymbolTableRecord
100
AcDbLayerTableRecord
  2
D-A
 70
     0
 62
     7
  6
Continuous
370
    -1
390
F
  0
LAYER
  5
40
330
2
100
AcDbSymbolTableRecord
100
AcDbLayerTableRecord
  2
D-4
 70
     0
 62
     7
  6
Continuous
370
    -1
390
F
  0
LAYER
  5
41
330
2
100
AcDbSymbolTableRecord
100
AcDbLayerTableRecord
  2
D-5
 70
     0
 62
     7
  6
Continuous
370
    -1
390
F
  0
LAYER
  5
42
330
2
100
AcDbSymbolTableRecord
100
AcDbLayerTableRecord
  2
D-6
 70
     0
 62
     7
  6
Continuous
370
    -1
390
F
  0
LAYER
  5
43
330
2
100
AcDbSymbolTableRecord
100
AcDbLayerTableRecord
  2
D-9
 70
     0
 62
     7
  6
Continuous
370
    -1
390
F
  0
LAYER
  5
44
330
2
100
AcDbSymbolTableRecord
100
AcDbLayerTableRecord
  2
D-1
 70
     0
 62
     7
  6
Continuous
370
    -1
390
F
  0
LAYER
  5
45
330
2
100
AcDbSymbolTableRecord
100
AcDbLayerTableRecord
  2
D-2
 70
     0
 62
     7
  6
Continuous
370
    -1
390
F
  0
LAYER
  5
46
330
2
100
AcDbSymbolTableRecord
100
AcDbLayerTableRecord
  2
C-2
 70
     0
 62
     7
  6
Continuous
370
    -1
390
F
  0
LAYER
  5
47
330
2
100
AcDbSymbolTableRecord
100
AcDbLayerTableRecord
  2
C-3
 70
     0
 62
     7
  6
Continuous
370
    -1
390
F
  0
LAYER
  5
48
330
2
100
AcDbSymbolTableRecord
100
AcDbLayerTableRecord
  2
C-4
 70
     0
 62
     7
  6
Continuous
370
    -1
390
F
  0
LAYER
  5
49
330
2
100
AcDbSymbolTableRecord
100
AcDbLayerTableRecord
  2
C-1
 70
     0
 62
     7
  6
Continuous
370
    -1
390
F
  0
LAYER
  5
4A
330
2
100
AcDbSymbolTableRecord
100
AcDbLayerTableRecord
  2
C-5
 70
     0
 62
     7
  6
Continuous
370
    -1
390
F
  0
LAYER
  5
4B
330
2
100
AcDbSymbolTableRecord
100
AcDbLayerTableRecord
  2
C-A
 70
     0
 62
     7
  6
Continuous
370
    -1
390
F
  0
LAYER
  5
4C
330
2
100
AcDbSymbolTableRecord
100
AcDbLayerTableRecord
  2
C-0
 70
     0
 62
     7
  6
Continuous
370
    -1
390
F
  0
LAYER
  5
4D
330
2
100
AcDbSymbolTableRecord
100
AcDbLayerTableRecord
  2
C-B
 70
     0
 62
     7
  6
Continuous
370
    -1
390
F
  0
LAYER
  5
4E
330
2
100
AcDbSymbolTableRecord
100
AcDbLayerTableRecord
  2
F-4
 70
     0
 62
     7
  6
Continuous
370
    -1
390
F
  0
LAYER
  5
4F
330
2
100
AcDbSymbolTableRecord
100
AcDbLayerTableRecord
  2
D-0
 70
     0
 62
     7
  6
Continuous
370
    -1
390
F
  0
ENDTAB
  0
TABLE
  2
STYLE
  5
3
330
0
100
AcDbSymbolTable
 70
     2
  0
STYLE
  5
11
330
3
100
AcDbSymbolTableRecord
100
AcDbTextStyleTableRecord
  2
Standard
 70
     0
 40
0.0
 41
1.0
 50
0.0
 71
     0
 42
2.5
  3
txt
  4

1001
ACAD
1000

1071
        0
  0
STYLE
  5
3B
330
3
100
AcDbSymbolTableRecord
100
AcDbTextStyleTableRecord
  2
ＭＳ ゴシック
 70
     0
 40
1.0
 41
1.0
 50
0.0
 71
     0
 42
10.0
  3

  4

1001
ACAD
1000
MS Gothic
1071
    32817
  0
ENDTAB
  0
TABLE
  2
VIEW
  5
6
330
0
100
AcDbSymbolTable
 70
     0
  0
ENDTAB
  0
TABLE
  2
UCS
  5
7
330
0
100
AcDbSymbolTable
 70
     0
  0
ENDTAB
  0
TABLE
  2
APPID
  5
9
330
0
100
AcDbSymbolTable
 70
     1
  0
APPID
  5
12
330
9
100
AcDbSymbolTableRecord
100
AcDbRegAppTableRecord
  2
ACAD
 70
     0
  0
ENDTAB
  0
TABLE
  2
DIMSTYLE
  5
A
330
0
100
AcDbSymbolTable
 70
     1
100
AcDbDimStyleTable
  0
DIMSTYLE
105
27
330
A
100
AcDbSymbolTableRecord
100
AcDbDimStyleTableRecord
  2
ISO-25
 70
     0
 41
2.5
 42
0.625
 43
3.75
 44
1.25
 73
     0
 74
     0
 77
     1
 78
     8
140
2.5
141
2.5
143
0.03937007874016
147
0.625
171
     3
172
     1
271
     2
272
     2
274
     3
278
    44
283
     0
284
     8
340
11
  0
ENDTAB
  0
TABLE
  2
BLOCK_RECORD
  5
1
330
0
100
AcDbSymbolTable
 70
     1
  0
BLOCK_RECORD
  5
1F
330
1
100
AcDbSymbolTableRecord
100
AcDbBlockTableRecord
  2
*Model_Space
340
22
  0
BLOCK_RECORD
  5
1B
330
1
100
AcDbSymbolTableRecord
100
AcDbBlockTableRecord
  2
*Paper_Space
340
1E
  0
BLOCK_RECORD
  5
23
330
1
100
AcDbSymbolTableRecord
100
AcDbBlockTableRecord
  2
*Paper_Space0
340
26
  0
ENDTAB
  0
ENDSEC
  0
SECTION
  2
BLOCKS
  0
BLOCK
  5
20
330
1F
100
AcDbEntity
  8
0
100
AcDbBlockBegin
  2
*Model_Space
 70
     0
 10
0.0
 20
0.0
 30
0.0
  3
*Model_Space
  1

  0
ENDBLK
  5
21
330
1F
100
AcDbEntity
  8
0
100
AcDbBlockEnd
  0
BLOCK
  5
1C
330
1B
100
AcDbEntity
 67
     1
  8
0
100
AcDbBlockBegin
  2
*Paper_Space
 70
     0
 10
0.0
 20
0.0
 30
0.0
  3
*Paper_Space
  1

  0
ENDBLK
  5
1D
330
1B
100
AcDbEntity
 67
     1
  8
0
100
AcDbBlockEnd
  0
BLOCK
  5
24
330
23
100
AcDbEntity
  8
0
100
AcDbBlockBegin
  2
*Paper_Space0
 70
     0
 10
0.0
 20
0.0
 30
0.0
  3
*Paper_Space0
  1

  0
ENDBLK
  5
25
330
23
100
AcDbEntity
  8
0
100
AcDbBlockEnd
  0
ENDSEC
  0
SECTION
  2
ENTITIES
  0
LINE
  5
50
330
1F
100
AcDbEntity
  8
D-A
  6
JWW_DASHED3
 62
     3
370
     5
100
AcDbLine
 10
-435.1342832719956
 20
-320.7272173907305
 30
0.0
 11
-435.1342832719956
 21
-270.7272998706713
 31
0.0
  0
LINE
  5
51
330
1F
100
AcDbEntity
  8
D-A
  6
Continuous
 62
     3
370
     5
100
AcDbLine
 10
-410.1345719517886
 20
-295.7273823506122
 30
0.0
 11
-410.1345719517886
 21
-280.2273807010134
 31
0.0
  0
LINE
  5
52
330
1F
100
AcDbEntity
  8
D-A
  6
Continuous
 62
     3
370
     5
100
AcDbLine
 10
-435.1342832719956
 20
-270.7272998706713
 30
0.0
 11
-435.1342832719956
 21
-240.7276957743876
 31
0.0
  0
LINE
  5
53
330
1F
100
AcDbEntity
  8
D-A
  6
Continuous
 62
     3
370
     5
100
AcDbLine
 10
-285.1344069919068
 20
-359.2279877533784
 30
0.0
 11
-410.1345719517886
 21
-359.2279877533784
 31
0.0
  0
LINE
  5
54
330
1F
100
AcDbEntity
  8
D-A
  6
Continuous
 62
     3
370
     5
100
AcDbLine
 10
-413.0636408522321
 20
-342.797859810494
 30
0.0
 11
-435.1342832719956
 21
-320.7272173907305
 31
0.0
  0
LINE
  5
55
330
1F
100
AcDbEntity
  8
D-A
  6
Continuous
 62
     3
370
     5
100
AcDbLine
 10
-410.1345719517886
 20
-370.7277535103462
 30
0.0
 11
-410.1345719517886
 21
-349.8693187816723
 31
0.0
  0
LINE
  5
56
330
1F
100
AcDbEntity
  8
D-A
  6
Continuous
 62
     3
370
     5
100
AcDbLine
 10
-285.1344069919068
 20
-370.7277535103462
 30
0.0
 11
-410.1345719517886
 21
-370.7277535103462
 31
0.0
  0
LINE
  5
57
330
1F
100
AcDbEntity
  8
D-A
  6
Continuous
 62
     3
370
     5
100
AcDbLine
 10
-285.1344069919068
 20
-330.7273741026182
 30
0.0
 11
-285.1344069919068
 21
-370.7277535103462
 31
0.0
  0
LINE
  5
58
330
1F
100
AcDbEntity
  8
D-A
  6
Continuous
 62
     3
370
     5
100
AcDbLine
 10
-374.7792566144787
 20
-320.7272173907305
 30
0.0
 11
-295.1346874237061
 21
-320.7272173907305
 31
0.0
  0
LINE
  5
59
330
1F
100
AcDbEntity
  8
D-A
  6
Continuous
 62
     3
370
     5
100
AcDbLine
 10
-435.1342832719956
 20
-270.7272998706713
 30
0.0
 11
-392.4570998630006
 21
-313.4054730389569
 31
0.0
  0
LINE
  5
5A
330
1F
100
AcDbEntity
  8
D-A
  6
Continuous
 62
     3
370
     5
100
AcDbLine
 10
-446.6345439086089
 20
-240.7276957743876
 30
0.0
 11
-446.6345439086089
 21
-353.227819494299
 31
0.0
  0
LINE
  5
5B
330
1F
100
AcDbEntity
  8
D-A
  6
JWW_CENTER2
 62
     3
370
     5
100
AcDbLine
 10
-392.1395108506485
 20
-298.2273905986063
 30
0.0
 11
-452.5580058226714
 21
-298.2273905986063
 31
0.0
  0
LINE
  5
5C
330
1F
100
AcDbEntity
  8
D-A
  6
JWW_DASHED3
 62
     3
370
     5
100
AcDbLine
 10
-410.1345719517886
 20
-316.2271530563767
 30
0.0
 11
-410.1345719517886
 21
-295.7273823506122
 31
0.0
  0
LINE
  5
5D
330
1F
100
AcDbEntity
  8
D-A
  6
Continuous
 62
     3
370
     5
100
AcDbLine
 10
-448.88451421583
 20
-288.2272338867188
 30
0.0
 11
-450.1342090400487
 21
-289.4776710304053
 31
0.0
  0
LINE
  5
5E
330
1F
100
AcDbEntity
  8
D-A
  6
Continuous
 62
     3
370
     5
100
AcDbLine
 10
-448.88451421583
 20
-308.2269287109375
 30
0.0
 11
-450.1342090400487
 21
-306.9776050464526
 31
0.0
  0
LINE
  5
5F
330
1F
100
AcDbEntity
  8
D-A
  6
JWW_DASHED3
 62
     3
370
     5
100
AcDbLine
 10
-448.88451421583
 20
-288.2272338867188
 30
0.0
 11
-448.88451421583
 21
-308.2269287109375
 31
0.0
  0
LINE
  5
60
330
1F
100
AcDbEntity
  8
D-A
  6
Continuous
 62
     3
370
     5
100
AcDbLine
 10
-446.6345439086089
 20
-289.4776710304053
 30
0.0
 11
-450.1342090400487
 21
-289.4776710304053
 31
0.0
  0
LINE
  5
61
330
1F
100
AcDbEntity
  8
D-A
  6
Continuous
 62
     3
370
     5
100
AcDbLine
 10
-446.6345439086089
 20
-288.2272338867188
 30
0.0
 11
-448.88451421583
 21
-288.2272338867188
 31
0.0
  0
LINE
  5
62
330
1F
100
AcDbEntity
  8
D-A
  6
Continuous
 62
     3
370
     5
100
AcDbLine
 10
-446.6345439086089
 20
-306.9776050464526
 30
0.0
 11
-450.1342090400487
 21
-306.9776050464526
 31
0.0
  0
LINE
  5
63
330
1F
100
AcDbEntity
  8
D-A
  6
Continuous
 62
     3
370
     5
100
AcDbLine
 10
-446.6345439086089
 20
-308.2269287109375
 30
0.0
 11
-448.88451421583
 21
-308.2269287109375
 31
0.0
  0
LINE
  5
64
330
1F
100
AcDbEntity
  8
D-A
  6
JWW_DASHED3
 62
     3
370
     5
100
AcDbLine
 10
-410.1345719517886
 20
-308.2269287109375
 30
0.0
 11
-446.6345439086089
 21
-308.2269287109375
 31
0.0
  0
LINE
  5
65
330
1F
100
AcDbEntity
  8
D-A
  6
JWW_DASHED3
 62
     3
370
     5
100
AcDbLine
 10
-410.1345719517886
 20
-306.9776050464526
 30
0.0
 11
-446.6345439086089
 21
-306.9776050464526
 31
0.0
  0
LINE
  5
66
330
1F
100
AcDbEntity
  8
D-A
  6
JWW_DASHED3
 62
     3
370
     5
100
AcDbLine
 10
-403.6343278111636
 20
-316.2271530563767
 30
0.0
 11
-410.1345719517886
 21
-316.2271530563767
 31
0.0
  0
LINE
  5
67
330
1F
100
AcDbEntity
  8
D-A
  6
Continuous
 62
     3
370
     5
100
AcDbLine
 10
-403.6343278111636
 20
-280.2273807010134
 30
0.0
 11
-410.1345719517886
 21
-280.2273807010134
 31
0.0
  0
LINE
  5
68
330
1F
100
AcDbEntity
  8
D-A
  6
Continuous
 62
     3
370
     5
100
AcDbLine
 10
-397.1344548302727
 20
-286.7273774018157
 30
0.0
 11
-397.1344548302727
 21
-308.7279943517735
 31
0.0
  0
LINE
  5
69
330
1F
100
AcDbEntity
  8
D-A
  6
JWW_DASHED3
 62
     3
370
     5
100
AcDbLine
 10
-397.1344548302727
 20
-309.7275275153082
 30
0.0
 11
-397.1344548302727
 21
-308.7279943517735
 31
0.0
  0
LINE
  5
6A
330
1F
100
AcDbEntity
  8
D-A
  6
Continuous
 62
     3
370
     5
100
AcDbLine
 10
-410.1345719517886
 20
-288.2272338867188
 30
0.0
 11
-417.6348441355935
 21
-288.2272338867188
 31
0.0
  0
LINE
  5
6B
330
1F
100
AcDbEntity
  8
D-A
  6
Continuous
 62
     3
370
     5
100
AcDbLine
 10
-410.1345719517886
 20
-289.4776710304053
 30
0.0
 11
-416.3847781516409
 21
-289.4776710304053
 31
0.0
  0
LINE
  5
6C
330
1F
100
AcDbEntity
  8
D-A
  6
JWW_DASHED3
 62
     3
370
     5
100
AcDbLine
 10
-417.6348441355935
 20
-288.2272338867188
 30
0.0
 11
-446.6345439086089
 21
-288.2272338867188
 31
0.0
  0
LINE
  5
6D
330
1F
100
AcDbEntity
  8
D-A
  6
JWW_DASHED3
 62
     3
370
     5
100
AcDbLine
 10
-446.6345439086089
 20
-289.4776710304053
 30
0.0
 11
-416.3847781516409
 21
-289.4776710304053
 31
0.0
  0
LINE
  5
6E
330
1F
100
AcDbEntity
  8
D-4
  6
Continuous
 62
     7
370
     5
100
AcDbLine
 10
-1157.802760923231
 20
-114.8079207136823
 30
0.0
 11
-585.1350255914635
 21
-114.8079207136823
 31
0.0
  0
LINE
  5
6F
330
1F
100
AcDbEntity
  8
D-4
  6
Continuous
 62
     7
370
     5
100
AcDbLine
 10
-585.1350255914635
 20
-220.2717219172297
 30
0.0
 11
-585.1350255914635
 21
-111.8074654244086
 31
0.0
  0
LINE
  5
70
330
1F
100
AcDbEntity
  8
D-4
  6
Continuous
 62
     7
370
     5
100
AcDbLine
 10
-585.1350255914635
 20
-114.8079207136823
 30
0.0
 11
-460.1342420320253
 21
-114.8079207136823
 31
0.0
  0
LINE
  5
71
330
1F
100
AcDbEntity
  8
D-4
  6
Continuous
 62
     7
370
     5
100
AcDbLine
 10
-460.1342420320253
 20
-220.2717219172297
 30
0.0
 11
-460.1342420320253
 21
-3.055931297508323
 31
0.0
  0
LINE
  5
72
330
1F
100
AcDbEntity
  8
D-4
  6
Continuous
 62
     7
370
     5
100
AcDbLine
 10
-455.1339780962144
 20
-220.2717219172297
 30
0.0
 11
-455.1339780962144
 21
-3.055931297508323
 31
0.0
  0
LINE
  5
73
330
1F
100
AcDbEntity
  8
D-4
  6
Continuous
 62
     7
370
     5
100
AcDbLine
 10
-430.1351328153868
 20
-220.2717219172297
 30
0.0
 11
-430.1351328153868
 21
107.6404798353042
 31
0.0
  0
LINE
  5
74
330
1F
100
AcDbEntity
  8
D-5
  6
Continuous
 62
     7
370
     5
100
AcDbLine
 10
-335.6113884900066
 20
-72.81614561338671
 30
0.0
 11
-76.22826421583
 21
-72.81614561338671
 31
0.0
  0
LINE
  5
75
330
1F
100
AcDbEntity
  8
D-4
  6
Continuous
 62
     7
370
     5
100
AcDbLine
 10
-185.1335821924982
 20
-555.6006849134291
 30
0.0
 11
-185.1335821924982
 21
-798.8104000607052
 31
0.0
  0
LINE
  5
76
330
1F
100
AcDbEntity
  8
D-4
  6
Continuous
 62
     7
370
     5
100
AcDbLine
 10
-585.1345307118183
 20
-641.3461303710938
 30
0.0
 11
-435.1342832719956
 21
-641.3461303710938
 31
0.0
  0
LINE
  5
77
330
1F
100
AcDbEntity
  8
D-4
  6
Continuous
 62
     7
370
     5
100
AcDbLine
 10
86.55039426442755
 20
-485.7275143185177
 30
0.0
 11
86.55039426442755
 21
-235.7273081186655
 31
0.0
  0
LINE
  5
78
330
1F
100
AcDbEntity
  8
D-6
  6
Continuous
 62
     6
370
     5
100
AcDbLine
 10
-435.1342832719956
 20
-485.7275143185177
 30
0.0
 11
-435.1342832719956
 21
-735.7272256387246
 31
0.0
  0
LINE
  5
79
330
1F
100
AcDbEntity
  8
D-6
  6
JWW_DASHED3
 62
     6
370
     5
100
AcDbLine
 10
-341.6333314534779
 20
-613.2274400865709
 30
0.0
 11
-341.6333314534779
 21
-485.7275143185177
 31
0.0
  0
LINE
  5
7A
330
1F
100
AcDbEntity
  8
D-6
  6
JWW_DASHED3
 62
     6
370
     5
100
AcDbLine
 10
-296.6331829895844
 20
-485.7275143185177
 30
0.0
 11
-296.6331829895844
 21
-613.2274400865709
 31
0.0
  0
LINE
  5
7B
330
1F
100
AcDbEntity
  8
D-6
  6
Continuous
 62
     6
370
     5
100
AcDbLine
 10
-185.1346956717001
 20
-385.7276792783995
 30
0.0
 11
-20.13365642444484
 21
-385.7276792783995
 31
0.0
  0
LINE
  5
7C
330
1F
100
AcDbEntity
  8
D-6
  6
Continuous
 62
     6
370
     5
100
AcDbLine
 10
-420.1346049437652
 20
-730.8766627956081
 30
0.0
 11
-74.98351818806412
 21
-385.7276792783995
 31
0.0
  0
LINE
  5
7D
330
1F
100
AcDbEntity
  8
D-6
  6
Continuous
 62
     6
370
     5
100
AcDbLine
 10
-420.1346049437652
 20
-723.8043377850506
 30
0.0
 11
-82.05782271720267
 21
-385.7276792783995
 31
0.0
  0
LINE
  5
7E
330
1F
100
AcDbEntity
  8
D-6
  6
Continuous
 62
     6
370
     5
100
AcDbLine
 10
-420.1346049437652
 20
-716.7359718116553
 30
0.0
 11
-189.1247865316029
 21
-485.7275143185177
 31
0.0
  0
LINE
  5
7F
330
1F
100
AcDbEntity
  8
D-6
  6
Continuous
 62
     6
370
     5
100
AcDbLine
 10
-185.1346956717001
 20
-385.7276792783995
 30
0.0
 11
-185.1346956717001
 21
-485.7275143185177
 31
0.0
  0
LINE
  5
80
330
1F
100
AcDbEntity
  8
D-6
  6
Continuous
 62
     6
370
     5
100
AcDbLine
 10
-185.1346956717001
 20
-481.7372997387035
 30
0.0
 11
-89.1243328919279
 21
-385.7276792783995
 31
0.0
  0
LINE
  5
81
330
1F
100
AcDbEntity
  8
D-4
  6
Continuous
 62
     7
370
     5
100
AcDbLine
 10
-129.355697374086
 20
-485.7275143185177
 30
0.0
 11
89.55084955370125
 21
-485.7275143185177
 31
0.0
  0
LINE
  5
82
330
1F
100
AcDbEntity
  8
D-6
  6
Continuous
 62
     6
370
     5
100
AcDbLine
 10
-435.1342832719956
 20
-485.7275143185177
 30
0.0
 11
-185.1346956717001
 21
-485.7275143185177
 31
0.0
  0
LINE
  5
83
330
1F
100
AcDbEntity
  8
D-6
  6
Continuous
 62
     6
370
     5
100
AcDbLine
 10
-341.6333314534779
 20
-288.2276050464526
 30
0.0
 11
-296.6331829895844
 21
-288.2276050464526
 31
0.0
  0
LINE
  5
84
330
1F
100
AcDbEntity
  8
D-6
  6
JWW_CENTER2
 62
     6
370
     5
100
AcDbLine
 10
-319.133257221531
 20
-284.1478172508445
 30
0.0
 11
-319.133257221531
 21
-613.2274400865709
 31
0.0
  0
LINE
  5
85
330
1F
100
AcDbEntity
  8
D-4
  6
Continuous
 62
     7
370
     5
100
AcDbLine
 10
-430.13451421583
 20
-426.2581985061233
 30
0.0
 11
-280.1340193361847
 21
-426.2581985061233
 31
0.0
  0
LINE
  5
86
330
1F
100
AcDbEntity
  8
D-4
  6
Continuous
 62
     7
370
     5
100
AcDbLine
 10
-430.13451421583
 20
-373.6949281434754
 30
0.0
 11
-430.13451421583
 21
-429.2584063555742
 31
0.0
  0
LINE
  5
87
330
1F
100
AcDbEntity
  8
D-4
  6
Continuous
 62
     7
370
     5
100
AcDbLine
 10
-285.1344069919068
 20
-373.6949281434754
 30
0.0
 11
-285.1344069919068
 21
-429.2584063555742
 31
0.0
  0
LINE
  5
88
330
1F
100
AcDbEntity
  8
D-4
  6
Continuous
 62
     7
370
     5
100
AcDbLine
 10
-273.3082681088834
 20
-370.7277535103462
 30
0.0
 11
-194.0843466165902
 21
-370.7277535103462
 31
0.0
  0
LINE
  5
89
330
1F
100
AcDbEntity
  8
D-4
  6
Continuous
 62
     7
370
     5
100
AcDbLine
 10
-273.3082681088834
 20
-320.7272173907305
 30
0.0
 11
-194.0843466165902
 21
-320.7272173907305
 31
0.0
  0
LINE
  5
8A
330
1F
100
AcDbEntity
  8
D-4
  6
Continuous
 62
     7
370
     5
100
AcDbLine
 10
-197.08443074613
 20
-320.7272173907305
 30
0.0
 11
-197.08443074613
 21
-235.7273081186655
 31
0.0
  0
LINE
  5
8B
330
1F
100
AcDbEntity
  8
D-6
  6
Continuous
 62
     6
370
     5
100
AcDbLine
 10
-341.6333314534779
 20
-485.7275143185177
 30
0.0
 11
-341.6333314534779
 21
-370.7277535103462
 31
0.0
  0
LINE
  5
8C
330
1F
100
AcDbEntity
  8
D-6
  6
Continuous
 62
     6
370
     5
100
AcDbLine
 10
-296.6331829895844
 20
-485.7275143185177
 30
0.0
 11
-296.6331829895844
 21
-370.7277535103462
 31
0.0
  0
LINE
  5
8D
330
1F
100
AcDbEntity
  8
D-6
  6
Continuous
 62
     6
370
     5
100
AcDbLine
 10
-341.6333314534779
 20
-320.7272173907305
 30
0.0
 11
-341.6333314534779
 21
-288.2276050464526
 31
0.0
  0
LINE
  5
8E
330
1F
100
AcDbEntity
  8
D-6
  6
Continuous
 62
     6
370
     5
100
AcDbLine
 10
-296.6331829895844
 20
-320.7272173907305
 30
0.0
 11
-296.6331829895844
 21
-288.2276050464526
 31
0.0
  0
LINE
  5
8F
330
1F
100
AcDbEntity
  8
D-4
  6
Continuous
 62
     7
370
     5
100
AcDbLine
 10
-730.6175167496139
 20
-360.7275967984586
 30
0.0
 11
-730.6175167496139
 21
-235.7273081186655
 31
0.0
  0
LINE
  5
90
330
1F
100
AcDbEntity
  8
D-4
  6
Continuous
 62
     7
370
     5
100
AcDbLine
 10
-458.2791856817295
 20
-360.7275967984586
 30
0.0
 11
-733.6174771592423
 21
-360.7275967984586
 31
0.0
  0
LINE
  5
91
330
1F
100
AcDbEntity
  8
D-4
  6
Continuous
 62
     7
370
     5
100
AcDbLine
 10
-458.2791856817295
 20
-235.7273081186655
 30
0.0
 11
-733.6174771592423
 21
-235.7273081186655
 31
0.0
  0
LINE
  5
92
330
1F
100
AcDbEntity
  8
D-4
  6
Continuous
 62
     7
370
     5
100
AcDbLine
 10
-1157.802760923231
 20
104.6400245460305
 30
0.0
 11
-430.1351328153868
 21
104.6400245460305
 31
0.0
  0
LINE
  5
93
330
1F
100
AcDbEntity
  8
D-4
  6
Continuous
 62
     7
370
     5
100
AcDbLine
 10
-585.1345307118183
 20
-795.8108108108108
 30
0.0
 11
-185.1335821924982
 21
-795.8108108108108
 31
0.0
  0
LINE
  5
94
330
1F
100
AcDbEntity
  8
D-4
  6
Continuous
 62
     7
370
     5
100
AcDbLine
 10
-1157.802760923231
 20
-6.055644267314051
 30
0.0
 11
-383.5973932936383
 21
-6.055644267314051
 31
0.0
  0
LINE
  5
95
330
1F
100
AcDbEntity
  8
D-4
  6
Continuous
 62
     7
370
     5
100
AcDbLine
 10
-197.08443074613
 20
-370.7277535103462
 30
0.0
 11
-197.08443074613
 21
-320.7272173907305
 31
0.0
  0
LINE
  5
96
330
1F
100
AcDbEntity
  8
D-4
  6
Continuous
 62
     7
370
     5
100
AcDbLine
 10
-585.1345307118183
 20
-760.7275555584881
 30
0.0
 11
-585.1345307118183
 21
-798.8104000607052
 31
0.0
  0
LINE
  5
97
330
1F
100
AcDbEntity
  8
D-5
  6
Continuous
 62
     2
370
     5
100
AcDbLine
 10
-927.1293988098968
 20
-931.6696249472127
 30
0.0
 11
-927.1293988098968
 21
-866.6700290989231
 31
0.0
  0
LINE
  5
98
330
1F
100
AcDbEntity
  8
D-5
  6
Continuous
 62
     2
370
     5
100
AcDbLine
 10
-927.1293988098968
 20
-866.6700290989231
 30
0.0
 11
-352.1289864101925
 21
-866.6700290989231
 31
0.0
  0
LINE
  5
99
330
1F
100
AcDbEntity
  8
D-5
  6
Continuous
 62
     2
370
     5
100
AcDbLine
 10
-352.1289864101925
 20
-866.6700290989231
 30
0.0
 11
-352.1289864101925
 21
-931.6696249472127
 31
0.0
  0
LINE
  5
9A
330
1F
100
AcDbEntity
  8
D-5
  6
Continuous
 62
     2
370
     5
100
AcDbLine
 10
-352.1289864101925
 20
-931.6696249472127
 30
0.0
 11
-927.1293988098968
 21
-931.6696249472127
 31
0.0
  0
LINE
  5
9B
330
1F
100
AcDbEntity
  8
D-A
  6
Continuous
 62
     3
370
     5
100
AcDbLine
 10
-446.6345439086089
 20
-240.7276957743876
 30
0.0
 11
-435.1342832719956
 21
-240.7276957743876
 31
0.0
  0
LINE
  5
9C
330
1F
100
AcDbEntity
  8
D-A
  6
Continuous
 62
     3
370
     5
100
AcDbLine
 10
-435.1342832719956
 20
-353.227819494299
 30
0.0
 11
-446.6345439086089
 21
-353.227819494299
 31
0.0
  0
LINE
  5
9D
330
1F
100
AcDbEntity
  8
D-A
  6
Continuous
 62
     3
370
     5
100
AcDbLine
 10
-435.1342832719956
 20
-353.227819494299
 30
0.0
 11
-435.1342832719956
 21
-320.7272173907305
 31
0.0
  0
LINE
  5
9E
330
1F
100
AcDbEntity
  8
D-5
  6
Continuous
 62
     7
370
     5
100
AcDbLine
 10
-335.6113884900066
 20
-72.81614561338671
 30
0.0
 11
-498.9130110354034
 21
-260.4412264437287
 31
0.0
  0
LINE
  5
9F
330
1F
100
AcDbEntity
  8
D-5
  6
Continuous
 62
     7
370
     5
100
AcDbLine
 10
-498.9130110354034
 20
-260.4412264437287
 30
0.0
 11
-485.1017861752896
 21
-239.6015971415751
 31
0.0
  0
LINE
  5
A0
330
1F
100
AcDbEntity
  8
D-5
  6
Continuous
 62
     7
370
     5
100
AcDbLine
 10
-498.9130110354034
 20
-260.4412264437287
 30
0.0
 11
-480.1789709039636
 21
-243.8863888302365
 31
0.0
  0
LINE
  5
A1
330
1F
100
AcDbEntity
  8
D-5
  6
Continuous
 62
     7
370
     5
100
AcDbLine
 10
-335.6113884900066
 20
-127.6782556482263
 30
0.0
 11
-432.0868144164214
 21
-238.5233781144424
 31
0.0
  0
LINE
  5
A2
330
1F
100
AcDbEntity
  8
D-5
  6
Continuous
 62
     7
370
     5
100
AcDbLine
 10
-432.0868144164214
 20
-238.5233781144424
 30
0.0
 11
-418.2754658363959
 21
-217.6848622914906
 31
0.0
  0
LINE
  5
A3
330
1F
100
AcDbEntity
  8
D-5
  6
Continuous
 62
     7
370
     5
100
AcDbLine
 10
-432.0868144164214
 20
-238.5233781144424
 30
0.0
 11
-413.3525268451586
 21
-221.9694065403293
 31
0.0
  0
LINE
  5
A4
330
1F
100
AcDbEntity
  8
D-5
  6
Continuous
 62
     7
370
     5
100
AcDbLine
 10
-400.1135065748883
 20
-323.9039735536317
 30
0.0
 11
-279.0264786900698
 21
-184.7817993164062
 31
0.0
  0
LINE
  5
A5
330
1F
100
AcDbEntity
  8
D-5
  6
Continuous
 62
     7
370
     5
100
AcDbLine
 10
-400.1135065748883
 20
-323.9039735536317
 30
0.0
 11
-386.3024054346857
 21
-303.0652102908572
 31
0.0
  0
LINE
  5
A6
330
1F
100
AcDbEntity
  8
D-5
  6
Continuous
 62
     7
370
     5
100
AcDbLine
 10
-400.1135065748883
 20
-323.9039735536317
 30
0.0
 11
-381.3792190036256
 21
-307.3496308197845
 31
0.0
  0
LINE
  5
A7
330
1F
100
AcDbEntity
  8
D-5
  6
Continuous
 62
     7
370
     5
100
AcDbLine
 10
-279.0264786900698
 20
-184.7817993164062
 30
0.0
 11
107.675816561725
 21
-184.7817993164062
 31
0.0
  0
LINE
  5
A8
330
1F
100
AcDbEntity
  8
D-6
  6
Continuous
 62
     6
370
     5
100
AcDbLine
 10
-435.1342832719956
 20
-235.7280504381333
 30
0.0
 11
-20.13365642444484
 21
-235.7280504381333
 31
0.0
  0
LINE
  5
A9
330
1F
100
AcDbEntity
  8
D-4
  6
Continuous
 62
     7
370
     5
100
AcDbLine
 10
-1.634312964774267
 20
-235.7280504381333
 30
0.0
 11
89.55084955370125
 21
-235.7280504381333
 31
0.0
  0
LINE
  5
AA
330
1F
100
AcDbEntity
  8
D-5
  6
Continuous
 62
     7
370
     5
100
AcDbLine
 10
-335.6113884900066
 20
-127.6782556482263
 30
0.0
 11
115.3558537766742
 21
-127.6782556482263
 31
0.0
  0
LINE
  5
AB
330
1F
100
AcDbEntity
  8
D-9
  6
Continuous
 62
     4
370
     5
100
AcDbLine
 10
-552.1783918947788
 20
-253.2272421347128
 30
0.0
 11
-569.6784496307373
 21
-270.7272998706713
 31
0.0
  0
LINE
  5
AC
330
1F
100
AcDbEntity
  8
D-9
  6
Continuous
 62
     4
370
     5
100
AcDbLine
 10
-523.8940406490017
 20
-253.2272421347128
 30
0.0
 11
-541.3939746650487
 21
-270.7272998706713
 31
0.0
  0
LINE
  5
AD
330
1F
100
AcDbEntity
  8
D-9
  6
Continuous
 62
     4
370
     5
100
AcDbLine
 10
-516.8227053977347
 20
-253.2272421347128
 30
0.0
 11
-534.3227631336933
 21
-270.7272998706713
 31
0.0
  0
LINE
  5
AE
330
1F
100
AcDbEntity
  8
D-9
  6
Continuous
 62
     4
370
     5
100
AcDbLine
 10
-509.7519887460243
 20
-253.2272421347128
 30
0.0
 11
-527.2514278824264
 21
-270.7272998706713
 31
0.0
  0
LINE
  5
AF
330
1F
100
AcDbEntity
  8
D-9
  6
Continuous
 62
     4
370
     5
100
AcDbLine
 10
-502.6805297748461
 20
-253.2272421347128
 30
0.0
 11
-522.3037449089256
 21
-272.8500861090582
 31
0.0
  0
LINE
  5
B0
330
1F
100
AcDbEntity
  8
D-9
  6
Continuous
 62
     4
370
     5
100
AcDbLine
 10
-495.6098131231357
 20
-253.2272421347128
 30
0.0
 11
-518.263176325205
 21
-275.880605336782
 31
0.0
  0
LINE
  5
B1
330
1F
100
AcDbEntity
  8
D-9
  6
Continuous
 62
     4
370
     5
100
AcDbLine
 10
-488.5383541519576
 20
-253.2272421347128
 30
0.0
 11
-514.2226077414847
 21
-278.9108771246832
 31
0.0
  0
LINE
  5
B2
330
1F
100
AcDbEntity
  8
D-9
  6
Continuous
 62
     4
370
     5
100
AcDbLine
 10
-481.4676375002472
 20
-253.2272421347128
 30
0.0
 11
-510.1820391577641
 21
-281.941396352407
 31
0.0
  0
LINE
  5
B3
330
1F
100
AcDbEntity
  8
D-9
  6
Continuous
 62
     4
370
     5
100
AcDbLine
 10
-474.3963022489805
 20
-253.2272421347128
 30
0.0
 11
-506.1408519744873
 21
-284.9720393000422
 31
0.0
  0
LINE
  5
B4
330
1F
100
AcDbEntity
  8
D-9
  6
Continuous
 62
     4
370
     5
100
AcDbLine
 10
-467.3253381574474
 20
-253.2272421347128
 30
0.0
 11
-499.8253216614594
 21
-285.7272256387246
 31
0.0
  0
LINE
  5
B5
330
1F
100
AcDbEntity
  8
D-9
  6
Continuous
 62
     4
370
     5
100
AcDbLine
 10
-460.254126626092
 20
-253.2272421347128
 30
0.0
 11
-492.753862690281
 21
-285.7272256387246
 31
0.0
  0
LINE
  5
B6
330
1F
100
AcDbEntity
  8
D-9
  6
Continuous
 62
     4
370
     5
100
AcDbLine
 10
-455.1344729758597
 20
-255.1783051361907
 30
0.0
 11
-485.6831460385709
 21
-285.7272256387246
 31
0.0
  0
LINE
  5
B7
330
1F
100
AcDbEntity
  8
D-9
  6
Continuous
 62
     4
370
     5
100
AcDbLine
 10
-455.1344729758597
 20
-276.3915685705235
 30
0.0
 11
-464.4696351644154
 21
-285.7272256387246
 31
0.0
  0
LINE
  5
B8
330
1F
100
AcDbEntity
  8
D-9
  6
Continuous
 62
     4
370
     5
100
AcDbLine
 10
-455.1344729758597
 20
-269.3204807590793
 30
0.0
 11
-471.5408466957709
 21
-285.7272256387246
 31
0.0
  0
LINE
  5
B9
330
1F
100
AcDbEntity
  8
D-9
  6
Continuous
 62
     4
370
     5
100
AcDbLine
 10
-455.1344729758597
 20
-262.249392947635
 30
0.0
 11
-478.6116870673925
 21
-285.7272256387246
 31
0.0
  0
LINE
  5
BA
330
1F
100
AcDbEntity
  8
D-9
  6
Continuous
 62
     4
370
     5
100
AcDbLine
 10
-566.3206912375784
 20
-253.2272421347128
 30
0.0
 11
-575.134497719842
 21
-262.0408011771536
 31
0.0
  0
LINE
  5
BB
330
1F
100
AcDbEntity
  8
D-9
  6
Continuous
 62
     4
370
     5
100
AcDbLine
 10
-559.2497271460454
 20
-253.2272421347128
 30
0.0
 11
-575.134497719842
 21
-269.1118889885979
 31
0.0
  0
LINE
  5
BC
330
1F
100
AcDbEntity
  8
D-9
  6
Continuous
 62
     4
370
     5
100
AcDbLine
 10
-570.134233784031
 20
-253.2272421347128
 30
0.0
 11
-455.1344729758597
 21
-253.2272421347128
 31
0.0
  0
LINE
  5
BD
330
1F
100
AcDbEntity
  8
D-9
  6
Continuous
 62
     4
370
     5
100
AcDbLine
 10
-575.134497719842
 20
-258.2273823506122
 30
0.0
 11
-575.134497719842
 21
-270.7272998706713
 31
0.0
  0
LINE
  5
BE
330
1F
100
AcDbEntity
  8
D-6
  6
Continuous
 62
     6
370
     5
100
AcDbLine
 10
-585.1345307118183
 20
-290.7272421347128
 30
0.0
 11
-585.1345307118183
 21
-735.7272256387246
 31
0.0
  0
LINE
  5
BF
330
1F
100
AcDbEntity
  8
D-1
  6
Continuous
 62
     2
370
     5
100
AcDbLine
 10
-435.134035832173
 20
-355.7270854228251
 30
0.0
 11
-450.1340853201376
 21
-355.7270854228251
 31
0.0
  0
LINE
  5
C0
330
1F
100
AcDbEntity
  8
D-1
  6
Continuous
 62
     2
370
     5
100
AcDbLine
 10
-435.134035832173
 20
-240.7272008947423
 30
0.0
 11
-450.1340853201376
 21
-240.7272008947423
 31
0.0
  0
LINE
  5
C1
330
1F
100
AcDbEntity
  8
D-1
  6
Continuous
 62
     2
370
     5
100
AcDbLine
 10
-430.1340193361847
 20
-333.2271349107896
 30
0.0
 11
-435.134035832173
 21
-333.2271349107896
 31
0.0
  0
LINE
  5
C2
330
1F
100
AcDbEntity
  8
D-1
  6
Continuous
 62
     2
370
     5
100
AcDbLine
 10
-435.134035832173
 20
-355.7270854228251
 30
0.0
 11
-435.134035832173
 21
-333.2271349107896
 31
0.0
  0
LINE
  5
C3
330
1F
100
AcDbEntity
  8
D-1
  6
Continuous
 62
     2
370
     5
100
AcDbLine
 10
-430.1340193361847
 20
-263.2271514067779
 30
0.0
 11
-435.134035832173
 21
-263.2271514067779
 31
0.0
  0
LINE
  5
C4
330
1F
100
AcDbEntity
  8
D-1
  6
Continuous
 62
     2
370
     5
100
AcDbLine
 10
-435.134035832173
 20
-263.2271514067779
 30
0.0
 11
-435.134035832173
 21
-240.7272008947423
 31
0.0
  0
LINE
  5
C5
330
1F
100
AcDbEntity
  8
D-1
  6
Continuous
 62
     2
370
     5
100
AcDbLine
 10
-508.1339797458131
 20
-289.7272140915329
 30
0.0
 11
-526.8005925255852
 21
-275.7273163666595
 31
0.0
  0
LINE
  5
C6
330
1F
100
AcDbEntity
  8
D-1
  6
Continuous
 62
     2
370
     5
100
AcDbLine
 10
-455.1341018161256
 20
-285.7271019188133
 30
0.0
 11
-505.1340193361847
 21
-285.7271019188133
 31
0.0
  0
LINE
  5
C7
330
1F
100
AcDbEntity
  8
D-1
  6
Continuous
 62
     2
370
     5
100
AcDbLine
 10
-450.1340853201376
 20
-295.7271349107896
 30
0.0
 11
-450.1340853201376
 21
-355.7270854228251
 31
0.0
  0
LINE
  5
C8
330
1F
100
AcDbEntity
  8
D-1
  6
Continuous
 62
     2
370
     5
100
AcDbLine
 10
-450.1340853201376
 20
-285.7271019188133
 30
0.0
 11
-450.1340853201376
 21
-240.7272008947423
 31
0.0
  0
LINE
  5
C9
330
1F
100
AcDbEntity
  8
D-1
  6
Continuous
 62
     2
370
     5
100
AcDbLine
 10
-430.1340193361847
 20
-238.7271448083825
 30
0.0
 11
-430.1340193361847
 21
-263.2271514067779
 31
0.0
  0
LINE
  5
CA
330
1F
100
AcDbEntity
  8
D-1
  6
Continuous
 62
     2
370
     5
100
AcDbLine
 10
-452.134017686586
 20
-235.7271843987542
 30
0.0
 11
-433.1339797458131
 21
-235.7271843987542
 31
0.0
  0
LINE
  5
CB
330
1F
100
AcDbEntity
  8
D-1
  6
Continuous
 62
     2
370
     5
100
AcDbLine
 10
-455.1341018161256
 20
-238.7271448083825
 30
0.0
 11
-455.1341018161256
 21
-285.7271019188133
 31
0.0
  0
LINE
  5
CC
330
1F
100
AcDbEntity
  8
D-1
  6
Continuous
 62
     2
370
     5
100
AcDbLine
 10
-430.1340193361847
 20
-357.7271415091849
 30
0.0
 11
-430.1340193361847
 21
-333.2271349107896
 31
0.0
  0
LINE
  5
CD
330
1F
100
AcDbEntity
  8
D-1
  6
Continuous
 62
     2
370
     5
100
AcDbLine
 10
-452.134017686586
 20
-360.7271019188133
 30
0.0
 11
-433.1339797458131
 21
-360.7271019188133
 31
0.0
  0
LINE
  5
CE
330
1F
100
AcDbEntity
  8
D-1
  6
Continuous
 62
     2
370
     5
100
AcDbLine
 10
-455.1341018161256
 20
-357.7271415091849
 30
0.0
 11
-455.1341018161256
 21
-295.7271349107896
 31
0.0
  0
LINE
  5
CF
330
1F
100
AcDbEntity
  8
D-1
  6
Continuous
 62
     2
370
     5
100
AcDbLine
 10
-523.813993866379
 20
-271.7173066010345
 30
0.0
 11
-505.1340193361847
 21
-285.7271019188133
 31
0.0
  0
LINE
  5
D0
330
1F
100
AcDbEntity
  8
D-1
  6
Continuous
 62
     2
370
     5
100
AcDbLine
 10
-580.134019336185
 20
-290.7271184148015
 30
0.0
 11
-455.1341018161256
 21
-290.7271184148015
 31
0.0
  0
LINE
  5
D1
330
1F
100
AcDbEntity
  8
D-1
  6
Continuous
 62
     2
370
     5
100
AcDbLine
 10
-580.134019336185
 20
-290.7271184148015
 30
0.0
 11
-580.134019336185
 21
-275.7273163666595
 31
0.0
  0
LINE
  5
D2
330
1F
100
AcDbEntity
  8
D-1
  6
Continuous
 62
     2
370
     5
100
AcDbLine
 10
-585.1340358321729
 20
-290.7271184148015
 30
0.0
 11
-585.1340358321729
 21
-275.7273163666595
 31
0.0
  0
LINE
  5
D3
330
1F
100
AcDbEntity
  8
D-1
  6
Continuous
 62
     2
370
     5
100
AcDbLine
 10
-580.134019336185
 20
-295.7271349107896
 30
0.0
 11
-455.1341018161256
 21
-295.7271349107896
 31
0.0
  0
LINE
  5
D4
330
1F
100
AcDbEntity
  8
D-1
  6
Continuous
 62
     2
370
     5
100
AcDbLine
 10
-566.9642822162524
 20
-271.3971194705447
 30
0.0
 11
-555.1340605761552
 21
-278.2272008947423
 31
0.0
  0
LINE
  5
D5
330
1F
100
AcDbEntity
  8
D-1
  6
Continuous
 62
     2
370
     5
100
AcDbLine
 10
-543.3038389360581
 20
-271.3971194705447
 30
0.0
 11
-555.1340605761552
 21
-278.2272008947423
 31
0.0
  0
LINE
  5
D6
330
1F
100
AcDbEntity
  8
D-1
  6
Continuous
 62
     2
370
     5
100
AcDbLine
 10
-552.6340523281613
 20
-282.5573977908572
 30
0.0
 11
-540.8039544079753
 21
-275.7273163666595
 31
0.0
  0
LINE
  5
D7
330
1F
100
AcDbEntity
  8
D-1
  6
Continuous
 62
     2
370
     5
100
AcDbLine
 10
-557.6340688241493
 20
-282.5573977908572
 30
0.0
 11
-569.4642904642465
 21
-275.7273163666595
 31
0.0
  0
LINE
  5
D8
330
1F
100
AcDbEntity
  8
D-1
  6
Continuous
 62
     2
370
     5
100
AcDbLine
 10
-526.7840140574685
 20
-270.7272998706713
 30
0.0
 11
-540.8038306880642
 21
-270.7272998706713
 31
0.0
  0
LINE
  5
D9
330
1F
100
AcDbEntity
  8
D-1
  6
Continuous
 62
     2
370
     5
100
AcDbLine
 10
-569.4642904642465
 20
-270.7272998706713
 30
0.0
 11
-580.134019336185
 21
-270.7272998706713
 31
0.0
  0
LINE
  5
DA
330
1F
100
AcDbEntity
  8
D-1
  6
Continuous
 62
     2
370
     5
100
AcDbLine
 10
-526.8005925255852
 20
-275.7273163666595
 30
0.0
 11
-540.8039544079753
 21
-275.7273163666595
 31
0.0
  0
LINE
  5
DB
330
1F
100
AcDbEntity
  8
D-1
  6
Continuous
 62
     2
370
     5
100
AcDbLine
 10
-569.4642904642465
 20
-275.7273163666595
 30
0.0
 11
-580.134019336185
 21
-275.7273163666595
 31
0.0
  0
LINE
  5
DC
330
1F
100
AcDbEntity
  8
D-9
  6
Continuous
 62
     4
370
     5
100
AcDbLine
 10
-530.9650047405344
 20
-253.2272421347128
 30
0.0
 11
-555.6612311182795
 21
-277.9228499129011
 31
0.0
  0
LINE
  5
DD
330
1F
100
AcDbEntity
  8
D-9
  6
Continuous
 62
     4
370
     5
100
AcDbLine
 10
-538.0362162718902
 20
-253.2272421347128
 30
0.0
 11
-560.1438509451375
 21
-275.3348768079603
 31
0.0
  0
LINE
  5
DE
330
1F
100
AcDbEntity
  8
D-9
  6
Continuous
 62
     4
370
     5
100
AcDbLine
 10
-545.1071803634229
 20
-253.2272421347128
 30
0.0
 11
-564.6268419317295
 21
-272.7466562631968
 31
0.0
  0
LINE
  5
DF
330
1F
100
AcDbEntity
  8
D-2
  6
Continuous
 62
     3
370
     5
100
AcDbLine
 10
-460.1346131917592
 20
-253.2272421347128
 30
0.0
 11
-460.1346131917592
 21
-238.2271926467483
 31
0.0
  0
LINE
  5
E0
330
1F
100
AcDbEntity
  8
D-4
  6
Continuous
 62
     7
370
     5
100
AcDbLine
 10
-941.8610998102135
 20
-200.2071978594805
 30
0.0
 11
-941.8610998102135
 21
-284.4101034628378
 31
0.0
  0
LINE
  5
E1
330
1F
100
AcDbEntity
  8
D-2
  6
Continuous
 62
     3
370
     5
100
AcDbLine
 10
-460.1346131917592
 20
-253.2272421347128
 30
0.0
 11
-1132.80410122227
 21
-253.2272421347128
 31
0.0
  0
LINE
  5
E2
330
1F
100
AcDbEntity
  8
D-2
  6
Continuous
 62
     3
370
     5
100
AcDbLine
 10
-460.1346131917592
 20
-248.2272256387246
 30
0.0
 11
-1132.80410122227
 21
-248.2272256387246
 31
0.0
  0
LINE
  5
E3
330
1F
100
AcDbEntity
  8
D-2
  6
Continuous
 62
     3
370
     5
100
AcDbLine
 10
-460.1346131917592
 20
-243.2272091427365
 30
0.0
 11
-1132.80410122227
 21
-243.2272091427365
 31
0.0
  0
LINE
  5
E4
330
1F
100
AcDbEntity
  8
D-2
  6
Continuous
 62
     3
370
     5
100
AcDbLine
 10
-460.1346131917592
 20
-238.2271926467483
 30
0.0
 11
-1132.80410122227
 21
-238.2271926467483
 31
0.0
  0
LINE
  5
E5
330
1F
100
AcDbEntity
  8
D-5
  6
Continuous
 62
     7
370
     5
100
AcDbLine
 10
-335.6123782492972
 20
-9.481448611697658
 30
0.0
 11
124.7857854172992
 21
-9.481448611697658
 31
0.0
  0
LINE
  5
E6
330
1F
100
AcDbEntity
  8
D-5
  6
Continuous
 62
     7
370
     5
100
AcDbLine
 10
-335.6123782492972
 20
-9.481448611697658
 30
0.0
 11
-533.1252781120506
 21
-238.2274400865708
 31
0.0
  0
LINE
  5
E7
330
1F
100
AcDbEntity
  8
D-5
  6
Continuous
 62
     7
370
     5
100
AcDbLine
 10
-533.1252781120506
 20
-238.2274400865708
 30
0.0
 11
-519.3966981526967
 21
-217.3344875026393
 31
0.0
  0
LINE
  5
E8
330
1F
100
AcDbEntity
  8
D-5
  6
Continuous
 62
     7
370
     5
100
AcDbLine
 10
-533.1252781120506
 20
-238.2274400865708
 30
0.0
 11
-514.4570569734316
 21
-221.5994840054898
 31
0.0
  0
LINE
  5
E9
330
1F
100
AcDbEntity
  8
D-5
  6
Continuous
 62
     2
370
     5
100
AcDbLine
 10
539.5374878032789
 20
-285.7275967984586
 30
0.0
 11
314.5374878032789
 21
-285.7275967984586
 31
0.0
  0
LINE
  5
EA
330
1F
100
AcDbEntity
  8
D-5
  6
Continuous
 62
     2
370
     5
100
AcDbLine
 10
539.5374878032789
 20
-235.7273081186655
 30
0.0
 11
539.5374878032789
 21
-285.7275967984586
 31
0.0
  0
LINE
  5
EB
330
1F
100
AcDbEntity
  8
D-5
  6
Continuous
 62
     2
370
     5
100
AcDbLine
 10
314.5374878032789
 20
-235.7273081186655
 30
0.0
 11
539.5374878032789
 21
-235.7273081186655
 31
0.0
  0
LINE
  5
EC
330
1F
100
AcDbEntity
  8
D-5
  6
Continuous
 62
     2
370
     5
100
AcDbLine
 10
314.5374878032789
 20
-285.7275967984586
 30
0.0
 11
314.5374878032789
 21
-235.7273081186655
 31
0.0
  0
LINE
  5
ED
330
1F
100
AcDbEntity
  8
D-2
  6
Continuous
 62
     3
370
     5
100
AcDbLine
 10
-1132.80410122227
 20
-448.8213698928421
 30
0.0
 11
-1132.80410122227
 21
-169.5282477301521
 31
0.0
  0
LINE
  5
EE
330
1F
100
AcDbEntity
  8
D-5
  6
Continuous
 62
     7
370
     5
100
AcDbLine
 10
-1153.598449036882
 20
-588.3809558765307
 30
0.0
 11
-1036.547535818976
 21
-343.7602770006333
 31
0.0
  0
LINE
  5
EF
330
1F
100
AcDbEntity
  8
D-4
  6
Continuous
 62
     7
370
     5
100
AcDbLine
 10
-1036.547535818976
 20
-343.7602770006333
 30
0.0
 11
-1044.302485440228
 21
-367.5271194045608
 31
0.0
  0
LINE
  5
F0
330
1F
100
AcDbEntity
  8
D-4
  6
Continuous
 62
     7
370
     5
100
AcDbLine
 10
-1036.547535818976
 20
-343.7602770006333
 30
0.0
 11
-1050.189511840408
 21
-364.7101407437711
 31
0.0
  0
LINE
  5
F1
330
1F
100
AcDbEntity
  8
C-2
  6
Continuous
 62
     3
370
     5
100
AcDbLine
 10
161.8651377188195
 20
960.1357454866977
 30
0.0
 11
161.8651377188195
 21
510.1356217667865
 31
0.0
  0
LINE
  5
F2
330
1F
100
AcDbEntity
  8
C-2
  6
Continuous
 62
     3
370
     5
100
AcDbLine
 10
161.8651377188195
 20
510.1356217667865
 30
0.0
 11
-288.134986001092
 21
510.1356217667865
 31
0.0
  0
LINE
  5
F3
330
1F
100
AcDbEntity
  8
C-3
  6
Continuous
 62
     2
370
     5
100
AcDbLine
 10
162.8647946022653
 20
961.1358972497891
 30
0.0
 11
162.8647946022653
 21
509.1354700036953
 31
0.0
  0
LINE
  5
F4
330
1F
100
AcDbEntity
  8
C-3
  6
Continuous
 62
     2
370
     5
100
AcDbLine
 10
162.8647946022653
 20
509.1354700036953
 30
0.0
 11
-289.1353852040058
 21
509.1354700036953
 31
0.0
  0
LINE
  5
F5
330
1F
100
AcDbEntity
  8
C-3
  6
Continuous
 62
     2
370
     5
100
AcDbLine
 10
169.8648671846135
 20
968.1357223923144
 30
0.0
 11
169.8648671846135
 21
502.1355211412586
 31
0.0
  0
LINE
  5
F6
330
1F
100
AcDbEntity
  8
C-3
  6
Continuous
 62
     2
370
     5
100
AcDbLine
 10
169.8648671846135
 20
502.1355211412586
 30
0.0
 11
-296.1353340664425
 21
502.1355211412586
 31
0.0
  0
LINE
  5
F7
330
1F
100
AcDbEntity
  8
C-2
  6
Continuous
 62
     3
370
     5
100
AcDbLine
 10
-288.134986001092
 20
510.1356217667865
 30
0.0
 11
-288.134986001092
 21
960.1357454866977
 31
0.0
  0
LINE
  5
F8
330
1F
100
AcDbEntity
  8
C-2
  6
Continuous
 62
     3
370
     5
100
AcDbLine
 10
161.8651377188195
 20
960.1357454866977
 30
0.0
 11
-288.134986001092
 21
960.1357454866977
 31
0.0
  0
LINE
  5
F9
330
1F
100
AcDbEntity
  8
C-3
  6
Continuous
 62
     2
370
     5
100
AcDbLine
 10
162.8647946022653
 20
961.1358972497891
 30
0.0
 11
-289.1353852040058
 21
961.1358972497891
 31
0.0
  0
LINE
  5
FA
330
1F
100
AcDbEntity
  8
C-3
  6
Continuous
 62
     2
370
     5
100
AcDbLine
 10
-289.1353852040058
 20
509.1354700036953
 30
0.0
 11
-289.1353852040058
 21
961.1358972497891
 31
0.0
  0
LINE
  5
FB
330
1F
100
AcDbEntity
  8
C-3
  6
Continuous
 62
     2
370
     5
100
AcDbLine
 10
169.8648671846135
 20
968.1357223923144
 30
0.0
 11
-296.1353340664425
 21
968.1357223923144
 31
0.0
  0
LINE
  5
FC
330
1F
100
AcDbEntity
  8
C-3
  6
Continuous
 62
     2
370
     5
100
AcDbLine
 10
-296.1353340664425
 20
502.1355211412586
 30
0.0
 11
-296.1353340664425
 21
968.1357223923144
 31
0.0
  0
LINE
  5
FD
330
1F
100
AcDbEntity
  8
C-4
  6
Continuous
 62
     7
370
     5
100
AcDbLine
 10
-288.134986001092
 20
1095.134953679265
 30
0.0
 11
161.8651377188195
 21
1095.134953679265
 31
0.0
  0
LINE
  5
FE
330
1F
100
AcDbEntity
  8
C-4
  6
Continuous
 62
     7
370
     5
100
AcDbLine
 10
-288.134986001092
 20
980.1360589104731
 30
0.0
 11
-288.134986001092
 21
1098.135656408361
 31
0.0
  0
LINE
  5
FF
330
1F
100
AcDbEntity
  8
C-4
  6
Continuous
 62
     7
370
     5
100
AcDbLine
 10
161.8651377188195
 20
980.1360589104731
 30
0.0
 11
161.8651377188195
 21
1098.135656408361
 31
0.0
  0
LINE
  5
100
330
1F
100
AcDbEntity
  8
C-4
  6
Continuous
 62
     7
370
     5
100
AcDbLine
 10
-296.1353340664425
 20
1150.135135135135
 30
0.0
 11
169.8648671846135
 21
1150.135135135135
 31
0.0
  0
LINE
  5
101
330
1F
100
AcDbEntity
  8
C-4
  6
Continuous
 62
     7
370
     5
100
AcDbLine
 10
169.8648671846135
 20
980.1360589104731
 30
0.0
 11
169.8648671846135
 21
1153.135590424409
 31
0.0
  0
LINE
  5
102
330
1F
100
AcDbEntity
  8
C-4
  6
Continuous
 62
     7
370
     5
100
AcDbLine
 10
-263.1346560813284
 20
1040.135761982686
 30
0.0
 11
136.8657975583466
 21
1040.135761982686
 31
0.0
  0
LINE
  5
103
330
1F
100
AcDbEntity
  8
C-4
  6
Continuous
 62
     7
370
     5
100
AcDbLine
 10
-263.1346560813284
 20
980.1360589104731
 30
0.0
 11
-263.1346560813284
 21
1043.135969832137
 31
0.0
  0
LINE
  5
104
330
1F
100
AcDbEntity
  8
C-4
  6
Continuous
 62
     7
370
     5
100
AcDbLine
 10
136.8657975583466
 20
980.1360589104731
 30
0.0
 11
136.8657975583466
 21
1043.135969832137
 31
0.0
  0
LINE
  5
105
330
1F
100
AcDbEntity
  8
C-4
  6
Continuous
 62
     7
370
     5
100
AcDbLine
 10
-288.134986001092
 20
1040.135761982686
 30
0.0
 11
-263.1346560813284
 21
1040.135761982686
 31
0.0
  0
LINE
  5
106
330
1F
100
AcDbEntity
  8
C-4
  6
Continuous
 62
     7
370
     5
100
AcDbLine
 10
136.8657975583466
 20
1040.135761982686
 30
0.0
 11
161.8651377188195
 21
1040.135761982686
 31
0.0
  0
LINE
  5
107
330
1F
100
AcDbEntity
  8
C-4
  6
Continuous
 62
     7
370
     5
100
AcDbLine
 10
-288.134986001092
 20
1095.134953679265
 30
0.0
 11
-289.1353852040058
 21
1095.134953679265
 31
0.0
  0
LINE
  5
108
330
1F
100
AcDbEntity
  8
C-4
  6
Continuous
 62
     7
370
     5
100
AcDbLine
 10
-289.1353852040058
 20
980.1360589104731
 30
0.0
 11
-289.1353852040058
 21
1098.135656408361
 31
0.0
  0
LINE
  5
109
330
1F
100
AcDbEntity
  8
C-4
  6
Continuous
 62
     7
370
     5
100
AcDbLine
 10
-296.1353340664425
 20
980.1360589104731
 30
0.0
 11
-296.1353340664425
 21
1153.135590424409
 31
0.0
  0
LINE
  5
10A
330
1F
100
AcDbEntity
  8
C-4
  6
Continuous
 62
     7
370
     5
100
AcDbLine
 10
161.8651377188195
 20
1095.134953679265
 30
0.0
 11
162.8647946022653
 21
1095.134953679265
 31
0.0
  0
LINE
  5
10B
330
1F
100
AcDbEntity
  8
C-4
  6
Continuous
 62
     7
370
     5
100
AcDbLine
 10
162.8647946022653
 20
980.1360589104731
 30
0.0
 11
162.8647946022653
 21
1098.135656408361
 31
0.0
  0
LINE
  5
10C
330
1F
100
AcDbEntity
  8
C-4
  6
Continuous
 62
     7
370
     5
100
AcDbLine
 10
-289.1353852040058
 20
1095.134953679265
 30
0.0
 11
-337.4524644903232
 21
1095.134953679265
 31
0.0
  0
LINE
  5
10D
330
1F
100
AcDbEntity
  8
C-4
  6
Continuous
 62
     7
370
     5
100
AcDbLine
 10
162.8647946022653
 20
1095.134953679265
 30
0.0
 11
214.6165860665812
 21
1095.134953679265
 31
0.0
  0
LINE
  5
10E
330
1F
100
AcDbEntity
  8
C-1
  6
JWW_DASHED3
 62
     2
370
     5
100
AcDbLine
 10
136.8653026787013
 20
935.1356630067568
 30
0.0
 11
136.8653026787013
 21
535.1357042467273
 31
0.0
  0
LINE
  5
10F
330
1F
100
AcDbEntity
  8
C-1
  6
JWW_DASHED3
 62
     2
370
     5
100
AcDbLine
 10
136.8653026787013
 20
535.1357042467273
 30
0.0
 11
-263.1351509609738
 21
535.1357042467273
 31
0.0
  0
LINE
  5
110
330
1F
100
AcDbEntity
  8
C-1
  6
JWW_DASHED3
 62
     2
370
     5
100
AcDbLine
 10
136.8653026787013
 20
935.1356630067568
 30
0.0
 11
-263.1351509609738
 21
935.1356630067568
 31
0.0
  0
LINE
  5
111
330
1F
100
AcDbEntity
  8
C-1
  6
JWW_DASHED3
 62
     2
370
     5
100
AcDbLine
 10
-263.1351509609738
 20
535.1357042467273
 30
0.0
 11
-263.1351509609738
 21
935.1356630067568
 31
0.0
  0
LINE
  5
112
330
1F
100
AcDbEntity
  8
C-5
  6
Continuous
 62
     7
370
     5
100
AcDbLine
 10
224.365467638583
 20
372.1357108451227
 30
0.0
 11
224.365467638583
 21
307.1361149968328
 31
0.0
  0
LINE
  5
113
330
1F
100
AcDbEntity
  8
C-5
  6
Continuous
 62
     7
370
     5
100
AcDbLine
 10
224.365467638583
 20
307.1361149968328
 30
0.0
 11
-350.6354396407667
 21
307.1361149968328
 31
0.0
  0
LINE
  5
114
330
1F
100
AcDbEntity
  8
C-5
  6
Continuous
 62
     7
370
     5
100
AcDbLine
 10
-350.6354396407667
 20
372.1357108451227
 30
0.0
 11
224.365467638583
 21
372.1357108451227
 31
0.0
  0
LINE
  5
115
330
1F
100
AcDbEntity
  8
C-5
  6
Continuous
 62
     7
370
     5
100
AcDbLine
 10
-350.6354396407667
 20
307.1361149968328
 30
0.0
 11
-350.6354396407667
 21
372.1357108451227
 31
0.0
  0
LINE
  5
116
330
1F
100
AcDbEntity
  8
C-A
  6
Continuous
 62
     3
370
     5
100
AcDbLine
 10
-288.134986001092
 20
949.3547924144849
 30
0.0
 11
-277.3536617691451
 21
960.1357454866977
 31
0.0
  0
LINE
  5
117
330
1F
100
AcDbEntity
  8
C-A
  6
Continuous
 62
     3
370
     5
100
AcDbLine
 10
-288.134986001092
 20
929.5554001266894
 30
0.0
 11
-257.5546406410834
 21
960.1357454866977
 31
0.0
  0
LINE
  5
118
330
1F
100
AcDbEntity
  8
C-A
  6
Continuous
 62
     3
370
     5
100
AcDbLine
 10
-288.134986001092
 20
909.7565027185391
 30
0.0
 11
-237.7557432329331
 21
960.1357454866977
 31
0.0
  0
LINE
  5
119
330
1F
100
AcDbEntity
  8
C-A
  6
Continuous
 62
     3
370
     5
100
AcDbLine
 10
-288.134986001092
 20
889.9573578705658
 30
0.0
 11
-217.9568458247829
 21
960.1357454866977
 31
0.0
  0
LINE
  5
11A
330
1F
100
AcDbEntity
  8
C-A
  6
Continuous
 62
     3
370
     5
100
AcDbLine
 10
-288.134986001092
 20
870.1584604624156
 30
0.0
 11
-198.1578246967211
 21
960.1357454866977
 31
0.0
  0
LINE
  5
11B
330
1F
100
AcDbEntity
  8
C-A
  6
Continuous
 62
     3
370
     5
100
AcDbLine
 10
-199.9213283126417
 20
960.1357454866977
 30
0.0
 11
-183.9681406278868
 21
944.1825578019427
 31
0.0
  0
LINE
  5
11C
330
1F
100
AcDbEntity
  8
C-A
  6
Continuous
 62
     3
370
     5
100
AcDbLine
 10
-219.720225720792
 20
960.1357454866977
 30
0.0
 11
-193.8675893319618
 21
934.2837276974242
 31
0.0
  0
LINE
  5
11D
330
1F
100
AcDbEntity
  8
C-A
  6
Continuous
 62
     3
370
     5
100
AcDbLine
 10
-239.5191231289425
 20
960.1357454866977
 30
0.0
 11
-203.767038036037
 21
924.3836603937925
 31
0.0
  0
LINE
  5
11E
330
1F
100
AcDbEntity
  8
C-A
  6
Continuous
 62
     3
370
     5
100
AcDbLine
 10
-259.3180205370928
 20
960.1357454866977
 30
0.0
 11
-213.6666104600235
 21
914.4840879698061
 31
0.0
  0
LINE
  5
11F
330
1F
100
AcDbEntity
  8
C-A
  6
Continuous
 62
     3
370
     5
100
AcDbLine
 10
-288.134986001092
 20
949.3547924144849
 30
0.0
 11
-233.4655078681737
 21
894.6856854413008
 31
0.0
  0
LINE
  5
120
330
1F
100
AcDbEntity
  8
C-A
  6
Continuous
 62
     3
370
     5
100
AcDbLine
 10
-288.134986001092
 20
929.5558950063346
 30
0.0
 11
-243.364956572249
 21
884.786360457137
 31
0.0
  0
LINE
  5
121
330
1F
100
AcDbEntity
  8
C-A
  6
Continuous
 62
     3
370
     5
100
AcDbLine
 10
-288.134986001092
 20
909.7569975981842
 30
0.0
 11
-253.2649001559693
 21
874.8862931535052
 31
0.0
  0
LINE
  5
122
330
1F
100
AcDbEntity
  8
C-A
  6
Continuous
 62
     3
370
     5
100
AcDbLine
 10
-288.134986001092
 20
889.9578527502113
 30
0.0
 11
-263.1643488600446
 21
864.9867207295188
 31
0.0
  0
LINE
  5
123
330
1F
100
AcDbEntity
  8
C-A
  6
Continuous
 62
     3
370
     5
100
AcDbLine
 10
-288.134986001092
 20
870.1592027818836
 30
0.0
 11
-273.0637975641199
 21
855.087395745355
 31
0.0
  0
LINE
  5
124
330
1F
100
AcDbEntity
  8
C-A
  6
Continuous
 62
     3
370
     5
100
AcDbLine
 10
-288.134986001092
 20
850.3600579339106
 30
0.0
 11
-282.962875108461
 21
845.1880707611908
 31
0.0
  0
LINE
  5
125
330
1F
100
AcDbEntity
  8
C-A
  6
Continuous
 62
     3
370
     5
100
AcDbLine
 10
-180.12230718458
 20
960.1357454866977
 30
0.0
 11
-174.0686919238115
 21
954.0826251055745
 31
0.0
  0
LINE
  5
126
330
1F
100
AcDbEntity
  8
C-A
  6
Continuous
 62
     3
370
     5
100
AcDbLine
 10
161.8651377188195
 20
520.916451119088
 30
0.0
 11
151.0836897669614
 21
510.1356217667865
 31
0.0
  0
LINE
  5
127
330
1F
100
AcDbEntity
  8
C-A
  6
Continuous
 62
     3
370
     5
100
AcDbLine
 10
161.8651377188195
 20
540.7159671267948
 30
0.0
 11
131.2847923588109
 21
510.1356217667865
 31
0.0
  0
LINE
  5
128
330
1F
100
AcDbEntity
  8
C-A
  6
Continuous
 62
     3
370
     5
100
AcDbLine
 10
161.8651377188195
 20
560.5148645349453
 30
0.0
 11
111.4858949506606
 21
510.1356217667865
 31
0.0
  0
LINE
  5
129
330
1F
100
AcDbEntity
  8
C-A
  6
Continuous
 62
     3
370
     5
100
AcDbLine
 10
161.8651377188195
 20
580.3137619430956
 30
0.0
 11
91.68699754251037
 21
510.1356217667865
 31
0.0
  0
LINE
  5
12A
330
1F
100
AcDbEntity
  8
C-A
  6
Continuous
 62
     3
370
     5
100
AcDbLine
 10
161.8651377188195
 20
600.1127830711573
 30
0.0
 11
71.88785269453746
 21
510.1356217667865
 31
0.0
  0
LINE
  5
12B
330
1F
100
AcDbEntity
  8
C-A
  6
Continuous
 62
     3
370
     5
100
AcDbLine
 10
73.65135631045803
 20
510.1356217667865
 30
0.0
 11
57.69866350534812
 21
526.0886857316302
 31
0.0
  0
LINE
  5
12C
330
1F
100
AcDbEntity
  8
C-A
  6
Continuous
 62
     3
370
     5
100
AcDbLine
 10
93.45025371860828
 20
510.1356217667865
 30
0.0
 11
67.59823592933458
 21
535.9876395560602
 31
0.0
  0
LINE
  5
12D
330
1F
100
AcDbEntity
  8
C-A
  6
Continuous
 62
     3
370
     5
100
AcDbLine
 10
113.2491511267585
 20
510.1356217667865
 30
0.0
 11
77.49756091349838
 21
545.8875831397804
 31
0.0
  0
LINE
  5
12E
330
1F
100
AcDbEntity
  8
C-A
  6
Continuous
 62
     3
370
     5
100
AcDbLine
 10
133.0480485349091
 20
510.1356217667865
 30
0.0
 11
87.39713333748512
 21
555.7871555637669
 31
0.0
  0
LINE
  5
12F
330
1F
100
AcDbEntity
  8
C-A
  6
Continuous
 62
     3
370
     5
100
AcDbLine
 10
161.8651377188195
 20
520.916451119088
 30
0.0
 11
107.1960307456354
 21
575.5855580922721
 31
0.0
  0
LINE
  5
130
330
1F
100
AcDbEntity
  8
C-A
  6
Continuous
 62
     3
370
     5
100
AcDbLine
 10
161.8651377188195
 20
540.7154722471495
 30
0.0
 11
117.0956031696218
 21
585.4850067963471
 31
0.0
  0
LINE
  5
131
330
1F
100
AcDbEntity
  8
C-A
  6
Continuous
 62
     3
370
     5
100
AcDbLine
 10
161.8651377188195
 20
560.5143696553
 30
0.0
 11
126.9949281537856
 21
595.3849503800677
 31
0.0
  0
LINE
  5
132
330
1F
100
AcDbEntity
  8
C-A
  6
Continuous
 62
     3
370
     5
100
AcDbLine
 10
161.8651377188195
 20
580.3133907833617
 30
0.0
 11
136.8945005777721
 21
605.2845228040542
 31
0.0
  0
LINE
  5
133
330
1F
100
AcDbEntity
  8
C-A
  6
Continuous
 62
     3
370
     5
100
AcDbLine
 10
161.8651377188195
 20
600.112288191512
 30
0.0
 11
146.7938255619359
 21
615.1838477882179
 31
0.0
  0
LINE
  5
134
330
1F
100
AcDbEntity
  8
C-A
  6
Continuous
 62
     3
370
     5
100
AcDbLine
 10
161.8651377188195
 20
619.9111855996623
 30
0.0
 11
156.6933979859226
 21
625.0834202122044
 31
0.0
  0
LINE
  5
135
330
1F
100
AcDbEntity
  8
C-A
  6
Continuous
 62
     3
370
     5
100
AcDbLine
 10
53.8523351823963
 20
510.1356217667865
 30
0.0
 11
47.79871992162782
 21
516.1887421479096
 31
0.0
  0
LINE
  5
136
330
1F
100
AcDbEntity
  8
C-0
  6
JWW_CENTER1
 62
     3
370
     5
100
AcDbLine
 10
504.2755809990138
 20
533.8115300358953
 30
0.0
 11
504.2755809990138
 21
649.7798940297721
 31
0.0
  0
LINE
  5
137
330
1F
100
AcDbEntity
  8
C-0
  6
JWW_CENTER1
 62
     3
370
     5
100
AcDbLine
 10
449.2271487777299
 20
593.426216744088
 30
0.0
 11
562.4773863199596
 21
593.426216744088
 31
0.0
  0
LINE
  5
138
330
1F
100
AcDbEntity
  8
C-5
  6
Continuous
 62
     7
370
     5
100
AcDbLine
 10
224.365467638583
 20
437.1351829735011
 30
0.0
 11
224.365467638583
 21
502.1347788217906
 31
0.0
  0
LINE
  5
139
330
1F
100
AcDbEntity
  8
C-5
  6
Continuous
 62
     7
370
     5
100
AcDbLine
 10
224.365467638583
 20
502.1347788217906
 30
0.0
 11
799.3658800382875
 21
502.1347788217906
 31
0.0
  0
LINE
  5
13A
330
1F
100
AcDbEntity
  8
C-5
  6
Continuous
 62
     7
370
     5
100
AcDbLine
 10
799.3658800382875
 20
502.1347788217906
 30
0.0
 11
799.3658800382875
 21
437.1351829735011
 31
0.0
  0
LINE
  5
13B
330
1F
100
AcDbEntity
  8
C-5
  6
Continuous
 62
     7
370
     5
100
AcDbLine
 10
799.3658800382875
 20
437.1351829735011
 30
0.0
 11
224.365467638583
 21
437.1351829735011
 31
0.0
  0
LINE
  5
13C
330
1F
100
AcDbEntity
  8
C-5
  6
Continuous
 62
     7
370
     5
100
AcDbLine
 10
578.9620747437348
 20
668.1127104888092
 30
0.0
 11
676.9559151417504
 21
668.1127104888092
 31
0.0
  0
LINE
  5
13D
330
1F
100
AcDbEntity
  8
C-5
  6
Continuous
 62
     7
370
     5
100
AcDbLine
 10
529.0242646191573
 20
618.1751478040542
 30
0.0
 11
578.9620747437348
 21
668.1127104888092
 31
0.0
  0
LINE
  5
13E
330
1F
100
AcDbEntity
  8
C-5
  6
Continuous
 62
     7
370
     5
100
AcDbLine
 10
529.0242646191573
 20
618.1751478040542
 30
0.0
 11
544.2430509103312
 21
638.0091816670188
 31
0.0
  0
LINE
  5
13F
330
1F
100
AcDbEntity
  8
C-5
  6
Continuous
 62
     7
370
     5
100
AcDbLine
 10
529.0242646191573
 20
618.1751478040542
 30
0.0
 11
548.8578036024765
 21
633.3944289748734
 31
0.0
  0
LINE
  5
140
330
1F
100
AcDbEntity
  8
C-4
  6
Continuous
 62
     7
370
     5
100
AcDbLine
 10
-223.1350189930683
 20
442.7578817831505
 30
0.0
 11
-143.1351262169915
 21
442.7578817831505
 31
0.0
  0
LINE
  5
141
330
1F
100
AcDbEntity
  8
C-4
  6
Continuous
 62
     7
370
     5
100
AcDbLine
 10
-223.1350189930683
 20
560.1359104465794
 30
0.0
 11
-223.1350189930683
 21
439.7577976536107
 31
0.0
  0
LINE
  5
142
330
1F
100
AcDbEntity
  8
C-4
  6
Continuous
 62
     7
370
     5
100
AcDbLine
 10
-143.1351262169915
 20
560.1359104465794
 30
0.0
 11
-143.1351262169915
 21
439.7577976536107
 31
0.0
  0
LINE
  5
143
330
1F
100
AcDbEntity
  8
C-4
  6
Continuous
 62
     7
370
     5
100
AcDbLine
 10
-326.4749204790269
 20
560.1359104465794
 30
0.0
 11
-326.4749204790269
 21
610.1358279666385
 31
0.0
  0
LINE
  5
144
330
1F
100
AcDbEntity
  8
C-4
  6
Continuous
 62
     7
370
     5
100
AcDbLine
 10
-223.1350189930683
 20
560.1359104465794
 30
0.0
 11
-329.4745097289214
 21
560.1359104465794
 31
0.0
  0
LINE
  5
145
330
1F
100
AcDbEntity
  8
C-4
  6
Continuous
 62
     7
370
     5
100
AcDbLine
 10
-223.1350189930683
 20
610.1358279666385
 30
0.0
 11
-329.4745097289214
 21
610.1358279666385
 31
0.0
  0
LINE
  5
146
330
1F
100
AcDbEntity
  8
C-A
  6
Continuous
 62
     3
370
     5
100
AcDbLine
 10
-288.134986001092
 20
850.3595630542654
 30
0.0
 11
-229.9516149469324
 21
908.5433052681589
 31
0.0
  0
LINE
  5
147
330
1F
100
AcDbEntity
  8
C-A
  6
Continuous
 62
     3
370
     5
100
AcDbLine
 10
-221.5424962945886
 20
916.9520527607688
 30
0.0
 11
-178.3589272885709
 21
960.1357454866977
 31
0.0
  0
LINE
  5
148
330
1F
100
AcDbEntity
  8
C-A
  6
Continuous
 62
     3
370
     5
100
AcDbLine
 10
-279.1170416651545
 20
960.1357454866977
 30
0.0
 11
-230.0700149020631
 21
911.0887187236065
 31
0.0
  0
LINE
  5
149
330
1F
100
AcDbEntity
  8
C-A
  6
Continuous
 62
     3
370
     5
100
AcDbLine
 10
152.8469459430593
 20
510.1356217667865
 30
0.0
 11
103.8001666197908
 21
559.1830196896117
 31
0.0
  0
LINE
  5
14A
330
1F
100
AcDbEntity
  8
C-A
  6
Continuous
 62
     3
370
     5
100
AcDbLine
 10
161.8651377188195
 20
619.9116804793075
 30
0.0
 11
103.6816429447484
 21
561.7280619853252
 31
0.0
  0
LINE
  5
14B
330
1F
100
AcDbEntity
  8
C-A
  6
Continuous
 62
     3
370
     5
100
AcDbLine
 10
95.2726480123161
 20
553.3191907728042
 30
0.0
 11
52.08895528638692
 21
510.1356217667865
 31
0.0
  0
ARC
  5
14C
330
1F
100
AcDbEntity
  8
D-A
  6
Continuous
 62
     3
370
     5
100
AcDbCircle
 10
-420.1346049437652
 20
-349.8693187816723
 30
0.0
 40
10.00000012887491
100
AcDbArc
 50
7.016464233398438
 51
45.0
  0
ARC
  5
14D
330
1F
100
AcDbEntity
  8
D-A
  6
Continuous
 62
     3
370
     5
100
AcDbCircle
 10
-295.1346874237061
 20
-330.7273741026182
 30
0.0
 40
10.00000012887491
100
AcDbArc
 50
7.016464233398438
 51
90.0
  0
ARC
  5
14E
330
1F
100
AcDbEntity
  8
D-A
  6
Continuous
 62
     3
370
     5
100
AcDbCircle
 10
-374.7792566144787
 20
-295.7273823506122
 30
0.0
 40
25.00000128874908
100
AcDbArc
 50
225.0
 51
270.0
  0
ARC
  5
14F
330
1F
100
AcDbEntity
  8
D-A
  6
JWW_DASHED3
 62
     3
370
     5
100
AcDbCircle
 10
-403.6343278111636
 20
-309.7275275153082
 30
0.0
 40
6.50000008376869
100
AcDbArc
 50
270.0
 51
0.0
  0
ARC
  5
150
330
1F
100
AcDbEntity
  8
D-A
  6
Continuous
 62
     3
370
     5
100
AcDbCircle
 10
-403.6343278111636
 20
-286.7273774018157
 30
0.0
 40
6.50000008376869
100
AcDbArc
 50
0.0
 51
90.0
  0
ARC
  5
151
330
1F
100
AcDbEntity
  8
D-9
  6
Continuous
 62
     4
370
     5
100
AcDbCircle
 10
-570.134233784031
 20
-258.2273823506122
 30
0.0
 40
5.000000064437454
100
AcDbArc
 50
90.0
 51
180.0
  0
ARC
  5
152
330
1F
100
AcDbEntity
  8
D-1
  6
Continuous
 62
     2
370
     5
100
AcDbCircle
 10
-505.1340193361847
 20
-285.7271019188133
 30
0.0
 40
5.000000064437454
100
AcDbArc
 50
233.1302490234375
 51
270.0
  0
ARC
  5
153
330
1F
100
AcDbEntity
  8
D-1
  6
Continuous
 62
     2
370
     5
100
AcDbCircle
 10
-580.134019336185
 20
-275.7273163666595
 30
0.0
 40
5.000000064437454
100
AcDbArc
 50
90.0
 51
180.0
  0
ARC
  5
154
330
1F
100
AcDbEntity
  8
D-1
  6
Continuous
 62
     2
370
     5
100
AcDbCircle
 10
-455.1341018161256
 20
-295.7271349107896
 30
0.0
 40
5.000000064437454
100
AcDbArc
 50
0.0
 51
90.0
  0
ARC
  5
155
330
1F
100
AcDbEntity
  8
D-1
  6
Continuous
 62
     2
370
     5
100
AcDbCircle
 10
-455.1341018161256
 20
-285.7271019188133
 30
0.0
 40
5.000000064437454
100
AcDbArc
 50
270.0
 51
0.0
  0
ARC
  5
156
330
1F
100
AcDbEntity
  8
D-1
  6
Continuous
 62
     2
370
     5
100
AcDbCircle
 10
-433.1339797458131
 20
-238.7271448083825
 30
0.0
 40
3.000000038662472
100
AcDbArc
 50
0.0
 51
90.0
  0
ARC
  5
157
330
1F
100
AcDbEntity
  8
D-1
  6
Continuous
 62
     2
370
     5
100
AcDbCircle
 10
-452.134017686586
 20
-238.7271448083825
 30
0.0
 40
3.000000038662472
100
AcDbArc
 50
90.0
 51
180.0
  0
ARC
  5
158
330
1F
100
AcDbEntity
  8
D-1
  6
Continuous
 62
     2
370
     5
100
AcDbCircle
 10
-433.1339797458131
 20
-357.7271415091849
 30
0.0
 40
3.000000038662472
100
AcDbArc
 50
270.0
 51
0.0
  0
ARC
  5
159
330
1F
100
AcDbEntity
  8
D-1
  6
Continuous
 62
     2
370
     5
100
AcDbCircle
 10
-452.134017686586
 20
-357.7271415091849
 30
0.0
 40
3.000000038662472
100
AcDbArc
 50
180.0
 51
270.0
  0
ARC
  5
15A
330
1F
100
AcDbEntity
  8
D-1
  6
Continuous
 62
     2
370
     5
100
AcDbCircle
 10
-526.7843852172027
 20
-275.6772098025759
 30
0.0
 40
4.950000305433531
100
AcDbArc
 50
53.12966918945312
 51
90.0
  0
ARC
  5
15B
330
1F
100
AcDbEntity
  8
D-1
  6
Continuous
 62
     2
370
     5
100
AcDbCircle
 10
-580.134019336185
 20
-290.7271184148015
 30
0.0
 40
5.000000064437454
100
AcDbArc
 50
180.0
 51
270.0
  0
ARC
  5
15C
330
1F
100
AcDbEntity
  8
D-1
  6
Continuous
 62
     2
370
     5
100
AcDbCircle
 10
-569.4642904642465
 20
-275.7273163666595
 30
0.0
 40
5.000000064437454
100
AcDbArc
 50
59.99996948242189
 51
90.00000000000001
  0
ARC
  5
15D
330
1F
100
AcDbEntity
  8
D-1
  6
Continuous
 62
     2
370
     5
100
AcDbCircle
 10
-540.8038306880642
 20
-275.7273163666595
 30
0.0
 40
5.000000064437454
100
AcDbArc
 50
90.0
 51
120.0000305175781
  0
ARC
  5
15E
330
1F
100
AcDbEntity
  8
D-1
  6
Continuous
 62
     2
370
     5
100
AcDbCircle
 10
-555.1340605761552
 20
-278.2272008947423
 30
0.0
 40
5.000000064437454
100
AcDbArc
 50
239.9999694824219
 51
300.0000305175781
  0
CIRCLE
  5
15F
330
1F
100
AcDbEntity
  8
C-A
  6
Continuous
 62
     3
370
     5
100
AcDbCircle
 10
-223.1350189930683
 20
910.1355805268158
 30
0.0
 40
6.999999606931532
  0
CIRCLE
  5
160
330
1F
100
AcDbEntity
  8
C-A
  6
Continuous
 62
     3
370
     5
100
AcDbCircle
 10
-223.1350189930683
 20
860.1356630067568
 30
0.0
 40
6.999999606931532
  0
CIRCLE
  5
161
330
1F
100
AcDbEntity
  8
C-A
  6
Continuous
 62
     3
370
     5
100
AcDbCircle
 10
-223.1350189930683
 20
810.1357454866977
 30
0.0
 40
6.999999606931532
  0
CIRCLE
  5
162
330
1F
100
AcDbEntity
  8
C-A
  6
Continuous
 62
     3
370
     5
100
AcDbCircle
 10
-223.1350189930683
 20
760.1358279666385
 30
0.0
 40
6.999999606931532
  0
CIRCLE
  5
163
330
1F
100
AcDbEntity
  8
C-A
  6
Continuous
 62
     3
370
     5
100
AcDbCircle
 10
-223.1350189930683
 20
710.1359104465794
 30
0.0
 40
6.999999606931532
  0
CIRCLE
  5
164
330
1F
100
AcDbEntity
  8
C-A
  6
Continuous
 62
     3
370
     5
100
AcDbCircle
 10
-223.1350189930683
 20
660.1357454866977
 30
0.0
 40
6.999999606931532
  0
CIRCLE
  5
165
330
1F
100
AcDbEntity
  8
C-A
  6
Continuous
 62
     3
370
     5
100
AcDbCircle
 10
-223.1350189930683
 20
610.1358279666385
 30
0.0
 40
6.999999606931532
  0
CIRCLE
  5
166
330
1F
100
AcDbEntity
  8
C-A
  6
Continuous
 62
     3
370
     5
100
AcDbCircle
 10
-223.1350189930683
 20
560.1359104465794
 30
0.0
 40
6.999999606931532
  0
CIRCLE
  5
167
330
1F
100
AcDbEntity
  8
C-A
  6
Continuous
 62
     3
370
     5
100
AcDbCircle
 10
-143.1351262169915
 20
910.1355805268158
 30
0.0
 40
6.999999606931532
  0
CIRCLE
  5
168
330
1F
100
AcDbEntity
  8
C-A
  6
Continuous
 62
     3
370
     5
100
AcDbCircle
 10
-143.1351262169915
 20
860.1356630067568
 30
0.0
 40
6.999999606931532
  0
CIRCLE
  5
169
330
1F
100
AcDbEntity
  8
C-A
  6
Continuous
 62
     3
370
     5
100
AcDbCircle
 10
-143.1351262169915
 20
810.1357454866977
 30
0.0
 40
6.999999606931532
  0
CIRCLE
  5
16A
330
1F
100
AcDbEntity
  8
C-A
  6
Continuous
 62
     3
370
     5
100
AcDbCircle
 10
-143.1351262169915
 20
760.1358279666385
 30
0.0
 40
6.999999606931532
  0
CIRCLE
  5
16B
330
1F
100
AcDbEntity
  8
C-A
  6
Continuous
 62
     3
370
     5
100
AcDbCircle
 10
-143.1351262169915
 20
710.1359104465794
 30
0.0
 40
6.999999606931532
  0
CIRCLE
  5
16C
330
1F
100
AcDbEntity
  8
C-A
  6
Continuous
 62
     3
370
     5
100
AcDbCircle
 10
-143.1351262169915
 20
660.1357454866977
 30
0.0
 40
6.999999606931532
  0
CIRCLE
  5
16D
330
1F
100
AcDbEntity
  8
C-A
  6
Continuous
 62
     3
370
     5
100
AcDbCircle
 10
-143.1351262169915
 20
610.1358279666385
 30
0.0
 40
6.999999606931532
  0
CIRCLE
  5
16E
330
1F
100
AcDbEntity
  8
C-A
  6
Continuous
 62
     3
370
     5
100
AcDbCircle
 10
-143.1351262169915
 20
560.1359104465794
 30
0.0
 40
6.999999606931532
  0
CIRCLE
  5
16F
330
1F
100
AcDbEntity
  8
C-A
  6
Continuous
 62
     3
370
     5
100
AcDbCircle
 10
-63.13523344091465
 20
910.1355805268158
 30
0.0
 40
6.999999606931532
  0
CIRCLE
  5
170
330
1F
100
AcDbEntity
  8
C-A
  6
Continuous
 62
     3
370
     5
100
AcDbCircle
 10
-63.13523344091465
 20
860.1356630067568
 30
0.0
 40
6.999999606931532
  0
CIRCLE
  5
171
330
1F
100
AcDbEntity
  8
C-A
  6
Continuous
 62
     3
370
     5
100
AcDbCircle
 10
-63.13523344091465
 20
810.1357454866977
 30
0.0
 40
6.999999606931532
  0
CIRCLE
  5
172
330
1F
100
AcDbEntity
  8
C-A
  6
Continuous
 62
     3
370
     5
100
AcDbCircle
 10
-63.13523344091465
 20
760.1358279666385
 30
0.0
 40
6.999999606931532
  0
CIRCLE
  5
173
330
1F
100
AcDbEntity
  8
C-A
  6
Continuous
 62
     3
370
     5
100
AcDbCircle
 10
-63.13523344091465
 20
710.1359104465794
 30
0.0
 40
6.999999606931532
  0
CIRCLE
  5
174
330
1F
100
AcDbEntity
  8
C-A
  6
Continuous
 62
     3
370
     5
100
AcDbCircle
 10
-63.13523344091465
 20
660.1357454866977
 30
0.0
 40
6.999999606931532
  0
CIRCLE
  5
175
330
1F
100
AcDbEntity
  8
C-A
  6
Continuous
 62
     3
370
     5
100
AcDbCircle
 10
-63.13523344091465
 20
610.1358279666385
 30
0.0
 40
6.999999606931532
  0
CIRCLE
  5
176
330
1F
100
AcDbEntity
  8
C-A
  6
Continuous
 62
     3
370
     5
100
AcDbCircle
 10
-63.13523344091465
 20
560.1359104465794
 30
0.0
 40
6.999999606931532
  0
CIRCLE
  5
177
330
1F
100
AcDbEntity
  8
C-A
  6
Continuous
 62
     3
370
     5
100
AcDbCircle
 10
16.86515421480749
 20
910.1355805268158
 30
0.0
 40
6.999999606931532
  0
CIRCLE
  5
178
330
1F
100
AcDbEntity
  8
C-A
  6
Continuous
 62
     3
370
     5
100
AcDbCircle
 10
16.86515421480749
 20
860.1356630067568
 30
0.0
 40
6.999999606931532
  0
CIRCLE
  5
179
330
1F
100
AcDbEntity
  8
C-A
  6
Continuous
 62
     3
370
     5
100
AcDbCircle
 10
16.86515421480749
 20
810.1357454866977
 30
0.0
 40
6.999999606931532
  0
CIRCLE
  5
17A
330
1F
100
AcDbEntity
  8
C-A
  6
Continuous
 62
     3
370
     5
100
AcDbCircle
 10
16.86515421480749
 20
760.1358279666385
 30
0.0
 40
6.999999606931532
  0
CIRCLE
  5
17B
330
1F
100
AcDbEntity
  8
C-A
  6
Continuous
 62
     3
370
     5
100
AcDbCircle
 10
16.86515421480749
 20
710.1359104465794
 30
0.0
 40
6.999999606931532
  0
CIRCLE
  5
17C
330
1F
100
AcDbEntity
  8
C-A
  6
Continuous
 62
     3
370
     5
100
AcDbCircle
 10
16.86515421480749
 20
660.1357454866977
 30
0.0
 40
6.999999606931532
  0
CIRCLE
  5
17D
330
1F
100
AcDbEntity
  8
C-A
  6
Continuous
 62
     3
370
     5
100
AcDbCircle
 10
16.86515421480749
 20
610.1358279666385
 30
0.0
 40
6.999999606931532
  0
CIRCLE
  5
17E
330
1F
100
AcDbEntity
  8
C-A
  6
Continuous
 62
     3
370
     5
100
AcDbCircle
 10
16.86515421480749
 20
560.1359104465794
 30
0.0
 40
6.999999606931532
  0
CIRCLE
  5
17F
330
1F
100
AcDbEntity
  8
C-A
  6
Continuous
 62
     3
370
     5
100
AcDbCircle
 10
96.86492327097312
 20
910.1355805268158
 30
0.0
 40
6.999999606931532
  0
CIRCLE
  5
180
330
1F
100
AcDbEntity
  8
C-A
  6
Continuous
 62
     3
370
     5
100
AcDbCircle
 10
96.86492327097312
 20
860.1356630067568
 30
0.0
 40
6.999999606931532
  0
CIRCLE
  5
181
330
1F
100
AcDbEntity
  8
C-A
  6
Continuous
 62
     3
370
     5
100
AcDbCircle
 10
96.86492327097312
 20
810.1357454866977
 30
0.0
 40
6.999999606931532
  0
CIRCLE
  5
182
330
1F
100
AcDbEntity
  8
C-A
  6
Continuous
 62
     3
370
     5
100
AcDbCircle
 10
96.86492327097312
 20
760.1358279666385
 30
0.0
 40
6.999999606931532
  0
CIRCLE
  5
183
330
1F
100
AcDbEntity
  8
C-A
  6
Continuous
 62
     3
370
     5
100
AcDbCircle
 10
96.86492327097312
 20
710.1359104465794
 30
0.0
 40
6.999999606931532
  0
CIRCLE
  5
184
330
1F
100
AcDbEntity
  8
C-A
  6
Continuous
 62
     3
370
     5
100
AcDbCircle
 10
96.86492327097312
 20
660.1357454866977
 30
0.0
 40
6.999999606931532
  0
CIRCLE
  5
185
330
1F
100
AcDbEntity
  8
C-A
  6
Continuous
 62
     3
370
     5
100
AcDbCircle
 10
96.86492327097312
 20
610.1358279666385
 30
0.0
 40
6.999999606931532
  0
CIRCLE
  5
186
330
1F
100
AcDbEntity
  8
C-A
  6
Continuous
 62
     3
370
     5
100
AcDbCircle
 10
96.86492327097312
 20
560.1359104465794
 30
0.0
 40
6.999999606931532
  0
CIRCLE
  5
187
330
1F
100
AcDbEntity
  8
C-0
  6
Continuous
 62
     3
370
     5
100
AcDbCircle
 10
504.2755809990138
 20
593.426216744088
 30
0.0
 40
34.99999948450037
  0
TEXT
  5
188
330
1F
100
AcDbEntity
  8
D-4
  6
Continuous
 62
     2
370
     5
100
AcDbText
 10
-493.0800172444934
 20
4.583629909206266
 30
0.0
 40
30.48
  1
1
 41
0.9999999999999998
  7
ＭＳ ゴシック
100
AcDbText
  0
TEXT
  5
189
330
1F
100
AcDbEntity
  8
D-4
  6
Continuous
 62
     2
370
     5
100
AcDbText
 10
-543.884324511966
 20
-104.1676567778716
 30
0.0
 40
30.48
  1
25
 41
1.0625
  7
ＭＳ ゴシック
100
AcDbText
  0
TEXT
  5
18A
330
1F
100
AcDbEntity
  8
D-5
  6
Continuous
 62
     7
370
     5
100
AcDbText
 10
-334.7784813030344
 20
-65.06433461782082
 30
0.0
 40
22.86
  1
塩ビクッション
 41
1.142857142857143
  7
ＭＳ ゴシック
100
AcDbText
  0
TEXT
  5
18B
330
1F
100
AcDbEntity
  8
D-4
  6
Continuous
 62
     2
370
     5
100
AcDbText
 10
-575.5307396038156
 20
-630.7063613149281
 30
0.0
 40
30.48
  1
25～30
 41
1.104166666666667
  7
ＭＳ ゴシック
100
AcDbText
  0
TEXT
  5
18C
330
1F
100
AcDbEntity
  8
D-4
  6
Continuous
 62
     2
370
     5
100
AcDbText
 10
-453.0029933517042
 20
-785.170546875
 30
0.0
 40
30.48
  1
75～80
 41
1.104166666666667
  7
ＭＳ ゴシック
100
AcDbText
  0
TEXT
  5
18D
330
1F
100
AcDbEntity
  8
D-4
  6
Continuous
 62
     2
370
     5
100
AcDbText
 10
75.91062810414151
 20
-431.2404903093488
 30
0.0
 40
30.48
  1
40～50
 50
90.00000250447816
 41
1.104166666666666
  7
ＭＳ ゴシック
100
AcDbText
  0
TEXT
  5
18E
330
1F
100
AcDbEntity
  8
D-4
  6
Continuous
 62
     2
370
     5
100
AcDbText
 10
-401.4961668427437
 20
-415.6189243303011
 30
0.0
 40
30.48
  1
29
 50
0.0010007471525833
 41
1.0625
  7
ＭＳ ゴシック
100
AcDbText
  0
TEXT
  5
18F
330
1F
100
AcDbEntity
  8
D-4
  6
Continuous
 62
     2
370
     5
100
AcDbText
 10
-207.7245700331624
 20
-366.9773001172036
 30
0.0
 40
30.48
  1
10
 50
90.00000250447816
 41
1.062499999999999
  7
ＭＳ ゴシック
100
AcDbText
  0
TEXT
  5
190
330
1F
100
AcDbEntity
  8
D-4
  6
Continuous
 62
     2
370
     5
100
AcDbText
 10
-207.7245700331624
 20
-299.4770774213633
 30
0.0
 40
30.48
  1
17
 50
90.00000250447816
 41
1.0625
  7
ＭＳ ゴシック
100
AcDbText
  0
TEXT
  5
191
330
1F
100
AcDbEntity
  8
D-4
  6
Continuous
 62
     2
370
     5
100
AcDbText
 10
-741.2572848769124
 20
-324.4995532052526
 30
0.0
 40
30.48
  1
25
 50
90.00000250447816
 41
1.0625
  7
ＭＳ ゴシック
100
AcDbText
  0
TEXT
  5
192
330
1F
100
AcDbEntity
  8
D-4
  6
Continuous
 62
     2
370
     5
100
AcDbText
 10
-419.0227629687332
 20
4.583629909206266
 30
0.0
 40
30.48
  1
5
 41
0.9999999999999998
  7
ＭＳ ゴシック
100
AcDbText
  0
TEXT
  5
193
330
1F
100
AcDbEntity
  8
D-5
  6
Continuous
 62
     2
370
     5
100
AcDbText
 10
-884.6291293260399
 20
-913.5297074271577
 30
0.0
 40
30.48
  1
断面詳細図　Ｓ＝１：２
 50
359.9999855334116
 41
1.113636363636364
  7
ＭＳ ゴシック
100
AcDbText
  0
TEXT
  5
194
330
1F
100
AcDbEntity
  8
D-5
  6
Continuous
 62
     7
370
     5
100
AcDbText
 10
-278.5844191989382
 20
-214.3116226773649
 30
0.0
 40
22.86
  1
ｔ＝２．３（ＳＰＨＣ）
 41
1.151515151515152
  7
ＭＳ ゴシック
100
AcDbText
  0
TEXT
  5
195
330
1F
100
AcDbEntity
  8
D-5
  6
Continuous
 62
     2
370
     5
100
AcDbText
 10
476.3393693356903
 20
-742.7704960673564
 30
0.0
 40
30.48
  1
材質：冷間圧延ステンレス鋼板（ＳＵＳ３０４－２Ｂ）
 41
1.12
  7
ＭＳ ゴシック
100
AcDbText
  0
TEXT
  5
196
330
1F
100
AcDbEntity
  8
D-5
  6
Continuous
 62
     7
370
     5
100
AcDbText
 10
-335.9718464516304
 20
-118.6897404191299
 30
0.0
 40
22.86
  1
ステンレス製受枠ＳＦ０３Ｂ
 41
1.153846153846154
  7
ＭＳ ゴシック
100
AcDbText
  0
TEXT
  5
197
330
1F
100
AcDbEntity
  8
D-4
  6
Continuous
 62
     2
370
     5
100
AcDbText
 10
-952.5011158690878
 20
-219.6052718694735
 30
0.0
 40
30.48
  1
3
 50
90.00000250447816
 41
0.9999999999999989
  7
ＭＳ ゴシック
100
AcDbText
  0
TEXT
  5
198
330
1F
100
AcDbEntity
  8
D-5
  6
Continuous
 62
     7
370
     5
100
AcDbText
 10
-331.6703979389086
 20
-0.2576181112752529
 30
0.0
 40
22.86
  1
ＳＰ－３（ｔ＝３）
 41
1.148148148148148
  7
ＭＳ ゴシック
100
AcDbText
  0
TEXT
  5
199
330
1F
100
AcDbEntity
  8
D-5
  6
Continuous
 62
     7
370
     5
100
AcDbText
 10
-331.6704144348968
 20
32.28826547983543
 30
0.0
 40
22.86
  1
ステンレス縞鋼板製排水用蓋
 41
1.153846153846154
  7
ＭＳ ゴシック
100
AcDbText
  0
TEXT
  5
19A
330
1F
100
AcDbEntity
  8
D-5
  6
Continuous
 62
     2
370
     5
100
AcDbText
 10
362.0372403634562
 20
-275.0872091427365
 30
0.0
 40
30.48
  1
仕　様
 41
1.083333333333333
  7
ＭＳ ゴシック
100
AcDbText
  0
TEXT
  5
19B
330
1F
100
AcDbEntity
  8
D-5
  6
Continuous
 62
     2
370
     5
100
AcDbText
 10
476.3395920315305
 20
-403.0079063291807
 30
0.0
 40
30.48
  1
材質：縞鋼板　ｔ＝３（ＳＵＳ３０４）
 41
1.118055555555555
  7
ＭＳ ゴシック
100
AcDbText
  0
TEXT
  5
19C
330
1F
100
AcDbEntity
  8
D-5
  6
Continuous
 62
     2
370
     5
100
AcDbText
 10
476.3396167755128
 20
-468.00793519716
 30
0.0
 40
30.48
  1
処理：酸洗
 41
1.1
  7
ＭＳ ゴシック
100
AcDbText
  0
TEXT
  5
19D
330
1F
100
AcDbEntity
  8
D-5
  6
Continuous
 62
     7
370
     5
100
AcDbText
 10
-278.1941901026545
 20
-177.7431098896747
 30
0.0
 40
22.86
  1
溶接用アンカ－
 41
1.142857142857143
  7
ＭＳ ゴシック
100
AcDbText
  0
TEXT
  5
19E
330
1F
100
AcDbEntity
  8
D-5
  6
Continuous
 62
     2
370
     5
100
AcDbText
 10
416.6277357049893
 20
-677.7707764991553
 30
0.0
 40
30.48
  1
ステンレス製受枠　ＳＦ０３Ｂ（四方枠）
 41
1.118421052631579
  7
ＭＳ ゴシック
100
AcDbText
  0
TEXT
  5
19F
330
1F
100
AcDbEntity
  8
D-4
  6
Continuous
 62
     2
370
     5
100
AcDbText
 10
-1159.390153369388
 20
115.9963793285474
 30
0.0
 40
30.48
  1
□462
 41
1.1
  7
ＭＳ ゴシック
100
AcDbText
  0
TEXT
  5
1A0
330
1F
100
AcDbEntity
  8
D-4
  6
Continuous
 62
     2
370
     5
100
AcDbText
 10
-1159.390153369388
 20
5.832582413957041
 30
0.0
 40
30.48
  1
□450
 41
1.1
  7
ＭＳ ゴシック
100
AcDbText
  0
TEXT
  5
1A1
330
1F
100
AcDbEntity
  8
D-4
  6
Continuous
 62
     2
370
     5
100
AcDbText
 10
-1160.98663510503
 20
-104.3312145006333
 30
0.0
 40
30.48
  1
□400
 41
1.1
  7
ＭＳ ゴシック
100
AcDbText
  0
TEXT
  5
1A2
330
1F
100
AcDbEntity
  8
D-5
  6
Continuous
 62
     2
370
     5
100
AcDbText
 10
416.6277604489716
 20
-338.0078156012457
 30
0.0
 40
30.48
  1
ステンレス縞鋼板製排水用蓋　ＳＰ－３　４５０×４５０
 41
1.120192307692307
  7
ＭＳ ゴシック
100
AcDbText
  0
TEXT
  5
1A3
330
1F
100
AcDbEntity
  8
C-4
  6
Continuous
 62
     2
370
     5
100
AcDbText
 10
-262.2676186948207
 20
1050.775531038852
 30
0.0
 40
30.48
  1
25
 41
1.0625
  7
ＭＳ ゴシック
100
AcDbText
  0
TEXT
  5
1A4
330
1F
100
AcDbEntity
  8
C-4
  6
Continuous
 62
     2
370
     5
100
AcDbText
 10
89.4850388088743
 20
1050.775531038852
 30
0.0
 40
30.48
  1
25
 41
1.0625
  7
ＭＳ ゴシック
100
AcDbText
  0
TEXT
  5
1A5
330
1F
100
AcDbEntity
  8
C-4
  6
Continuous
 62
     2
370
     5
100
AcDbText
 10
-278.7647162257012
 20
1105.775217615076
 30
0.0
 40
30.48
  1
1
 41
0.9999999999999998
  7
ＭＳ ゴシック
100
AcDbText
  0
TEXT
  5
1A6
330
1F
100
AcDbEntity
  8
C-4
  6
Continuous
 62
     2
370
     5
100
AcDbText
 10
127.9572546159901
 20
1105.775217615076
 30
0.0
 40
30.48
  1
1
 41
0.9999999999999998
  7
ＭＳ ゴシック
100
AcDbText
  0
TEXT
  5
1A7
330
1F
100
AcDbEntity
  8
C-4
  6
Continuous
 62
     2
370
     5
100
AcDbText
 10
-95.63498600109185
 20
1050.775283599029
 30
0.0
 40
30.48
  1
400
 41
1.083333333333333
  7
ＭＳ ゴシック
100
AcDbText
  0
TEXT
  5
1A8
330
1F
100
AcDbEntity
  8
C-4
  6
Continuous
 62
     2
370
     5
100
AcDbText
 10
-95.63500747103082
 20
1105.77521761497
 30
0.0
 40
30.48
  1
450
 50
0.0002181117696755
 41
1.083333333333333
  7
ＭＳ ゴシック
100
AcDbText
  0
TEXT
  5
1A9
330
1F
100
AcDbEntity
  8
C-5
  6
Continuous
 62
     2
370
     5
100
AcDbText
 10
-330.6348622811806
 20
325.2757850770693
 30
0.0
 40
30.48
  1
平面詳細図　Ｓ＝１：１０
 41
1.114583333333333
  7
ＭＳ ゴシック
100
AcDbText
  0
TEXT
  5
1AA
330
1F
100
AcDbEntity
  8
C-0
  6
Continuous
 62
     2
370
     5
100
AcDbText
 10
586.5280009604792
 20
677.7943925517314
 30
0.0
 40
30.48
  1
φ14
 41
1.09375
  7
ＭＳ ゴシック
100
AcDbText
  0
TEXT
  5
1AB
330
1F
100
AcDbEntity
  8
C-5
  6
Continuous
 62
     2
370
     5
100
AcDbText
 10
266.8657989823955
 20
455.2749767736307
 30
0.0
 40
30.48
  1
排水穴詳細　Ｓ＝１：２
 50
359.9999855334149
 41
1.113636363636364
  7
ＭＳ ゴシック
100
AcDbText
  0
TEXT
  5
1AC
330
1F
100
AcDbEntity
  8
C-4
  6
Continuous
 62
     2
370
     5
100
AcDbText
 10
-204.3848706067191
 20
453.3976508392683
 30
0.0
 40
30.48
  1
80
 50
359.9998332087992
 41
1.0625
  7
ＭＳ ゴシック
100
AcDbText
  0
TEXT
  5
1AD
330
1F
100
AcDbEntity
  8
C-4
  6
Continuous
 62
     2
370
     5
100
AcDbText
 10
-337.1146886063255
 20
563.8858689600767
 30
0.0
 40
30.48
  1
50
 50
90.00000250447816
 41
1.062499999999999
  7
ＭＳ ゴシック
100
AcDbText
  0
TEXT
  5
1AE
330
1F
100
AcDbEntity
  8
C-4
  6
Continuous
 62
     2
370
     5
100
AcDbText
 10
-326.8902770892992
 20
1105.775217615076
 30
0.0
 40
30.48
  1
5
 41
0.9999999999999998
  7
ＭＳ ゴシック
100
AcDbText
  0
TEXT
  5
1AF
330
1F
100
AcDbEntity
  8
C-4
  6
Continuous
 62
     2
370
     5
100
AcDbText
 10
182.6058240838955
 20
1105.775217615076
 30
0.0
 40
30.48
  1
5
 41
0.9999999999999998
  7
ＭＳ ゴシック
100
AcDbText
  0
TEXT
  5
1B0
330
1F
100
AcDbEntity
  8
C-4
  6
Continuous
 62
     2
370
     5
100
AcDbText
 10
-95.63500747103082
 20
1162.397861987858
 30
0.0
 40
30.48
  1
462
 50
0.0002181117696755
 41
1.083333333333333
  7
ＭＳ ゴシック
100
AcDbText
  0
LWPOLYLINE
  5
1B1
330
1F
100
AcDbEntity
  8
D-4
  6
Continuous
 62
     7
370
     5
100
AcDbPolyline
 90
        4
 70
     1
 43
1.0
 10
-429.6351328153868
 20
104.6400245460305
 42
0.4142135623731
 10
-430.1351328153868
 20
105.1400245460305
 42
0.4142135623731
 10
-430.6351328153868
 20
104.6400245460305
 42
0.4142135623731
 10
-430.1351328153868
 20
104.1400245460305
 42
0.4142135623731
  0
LWPOLYLINE
  5
1B2
330
1F
100
AcDbEntity
  8
D-4
  6
Continuous
 62
     7
370
     5
100
AcDbPolyline
 90
        4
 70
     1
 43
1.0
 10
-459.6342420320253
 20
-6.055644267314051
 42
0.4142135623731
 10
-460.1342420320253
 20
-5.555644267314051
 42
0.4142135623731
 10
-460.6342420320253
 20
-6.055644267314051
 42
0.4142135623731
 10
-460.1342420320253
 20
-6.555644267314051
 42
0.4142135623731
  0
LWPOLYLINE
  5
1B3
330
1F
100
AcDbEntity
  8
D-4
  6
Continuous
 62
     7
370
     5
100
AcDbPolyline
 90
        4
 70
     1
 43
1.0
 10
-454.6339780962144
 20
-6.055644267314051
 42
0.4142135623731
 10
-455.1339780962144
 20
-5.555644267314051
 42
0.4142135623731
 10
-455.6339780962144
 20
-6.055644267314051
 42
0.4142135623731
 10
-455.1339780962144
 20
-6.555644267314051
 42
0.4142135623731
  0
LWPOLYLINE
  5
1B4
330
1F
100
AcDbEntity
  8
D-4
  6
Continuous
 62
     7
370
     5
100
AcDbPolyline
 90
        4
 70
     1
 43
1.0
 10
-429.6351328153868
 20
-6.055644267314051
 42
0.4142135623731
 10
-430.1351328153868
 20
-5.555644267314051
 42
0.4142135623731
 10
-430.6351328153868
 20
-6.055644267314051
 42
0.4142135623731
 10
-430.1351328153868
 20
-6.555644267314051
 42
0.4142135623731
  0
LWPOLYLINE
  5
1B5
330
1F
100
AcDbEntity
  8
D-4
  6
Continuous
 62
     7
370
     5
100
AcDbPolyline
 90
        4
 70
     1
 43
1.0
 10
-584.6350255914637
 20
-114.8079207136823
 42
0.4142135623731
 10
-585.1350255914635
 20
-114.3079207136823
 42
0.4142135623731
 10
-585.6350255914635
 20
-114.8079207136823
 42
0.4142135623731
 10
-585.1350255914635
 20
-115.3079207136823
 42
0.4142135623731
  0
LWPOLYLINE
  5
1B6
330
1F
100
AcDbEntity
  8
D-4
  6
Continuous
 62
     7
370
     5
100
AcDbPolyline
 90
        4
 70
     1
 43
1.0
 10
-459.6342420320253
 20
-114.8079207136823
 42
0.4142135623731
 10
-460.1342420320253
 20
-114.3079207136823
 42
0.4142135623731
 10
-460.6342420320253
 20
-114.8079207136823
 42
0.4142135623731
 10
-460.1342420320253
 20
-115.3079207136823
 42
0.4142135623731
  0
LWPOLYLINE
  5
1B7
330
1F
100
AcDbEntity
  8
D-4
  6
Continuous
 62
     7
370
     5
100
AcDbPolyline
 90
        4
 70
     1
 43
1.0
 10
-730.1175167496139
 20
-235.7273081186655
 42
0.4142135623731
 10
-730.6175167496139
 20
-235.2273081186655
 42
0.4142135623731
 10
-731.1175167496139
 20
-235.7273081186655
 42
0.4142135623731
 10
-730.6175167496139
 20
-236.2273081186655
 42
0.4142135623731
  0
LWPOLYLINE
  5
1B8
330
1F
100
AcDbEntity
  8
D-4
  6
Continuous
 62
     7
370
     5
100
AcDbPolyline
 90
        4
 70
     1
 43
1.0
 10
-730.1175167496139
 20
-360.7275967984586
 42
0.4142135623731
 10
-730.6175167496139
 20
-360.2275967984586
 42
0.4142135623731
 10
-731.1175167496139
 20
-360.7275967984586
 42
0.4142135623731
 10
-730.6175167496139
 20
-361.2275967984585
 42
0.4142135623731
  0
LWPOLYLINE
  5
1B9
330
1F
100
AcDbEntity
  8
D-4
  6
Continuous
 62
     7
370
     5
100
AcDbPolyline
 90
        4
 70
     1
 43
1.0
 10
87.05039426442755
 20
-235.7273081186655
 42
0.4142135623731
 10
86.55039426442755
 20
-235.2273081186655
 42
0.4142135623731
 10
86.05039426442755
 20
-235.7273081186655
 42
0.4142135623731
 10
86.55039426442755
 20
-236.2273081186655
 42
0.4142135623731
  0
LWPOLYLINE
  5
1BA
330
1F
100
AcDbEntity
  8
D-4
  6
Continuous
 62
     7
370
     5
100
AcDbPolyline
 90
        4
 70
     1
 43
1.0
 10
87.05039426442755
 20
-485.7275143185177
 42
0.4142135623731
 10
86.55039426442755
 20
-485.2275143185177
 42
0.4142135623731
 10
86.05039426442755
 20
-485.7275143185177
 42
0.4142135623731
 10
86.55039426442755
 20
-486.2275143185177
 42
0.4142135623731
  0
LWPOLYLINE
  5
1BB
330
1F
100
AcDbEntity
  8
D-4
  6
Continuous
 62
     7
370
     5
100
AcDbPolyline
 90
        4
 70
     1
 43
1.0
 10
-196.58443074613
 20
-235.7273081186655
 42
0.4142135623731
 10
-197.08443074613
 20
-235.2273081186655
 42
0.4142135623731
 10
-197.58443074613
 20
-235.7273081186655
 42
0.4142135623731
 10
-197.08443074613
 20
-236.2273081186655
 42
0.4142135623731
  0
LWPOLYLINE
  5
1BC
330
1F
100
AcDbEntity
  8
D-4
  6
Continuous
 62
     7
370
     5
100
AcDbPolyline
 90
        4
 70
     1
 43
1.0
 10
-196.58443074613
 20
-320.7272173907305
 42
0.4142135623731
 10
-197.08443074613
 20
-320.2272173907305
 42
0.4142135623731
 10
-197.58443074613
 20
-320.7272173907305
 42
0.4142135623731
 10
-197.08443074613
 20
-321.2272173907304
 42
0.4142135623731
  0
LWPOLYLINE
  5
1BD
330
1F
100
AcDbEntity
  8
D-4
  6
Continuous
 62
     7
370
     5
100
AcDbPolyline
 90
        4
 70
     1
 43
1.0
 10
-196.58443074613
 20
-370.7277535103462
 42
0.4142135623731
 10
-197.08443074613
 20
-370.2277535103462
 42
0.4142135623731
 10
-197.58443074613
 20
-370.7277535103462
 42
0.4142135623731
 10
-197.08443074613
 20
-371.2277535103462
 42
0.4142135623731
  0
LWPOLYLINE
  5
1BE
330
1F
100
AcDbEntity
  8
D-4
  6
Continuous
 62
     7
370
     5
100
AcDbPolyline
 90
        4
 70
     1
 43
1.0
 10
-429.63451421583
 20
-426.2581985061233
 42
0.4142135623731
 10
-430.13451421583
 20
-425.7581985061233
 42
0.4142135623731
 10
-430.63451421583
 20
-426.2581985061233
 42
0.4142135623731
 10
-430.13451421583
 20
-426.7581985061233
 42
0.4142135623731
  0
LWPOLYLINE
  5
1BF
330
1F
100
AcDbEntity
  8
D-4
  6
Continuous
 62
     7
370
     5
100
AcDbPolyline
 90
        4
 70
     1
 43
1.0
 10
-284.6344069919068
 20
-426.2581985061233
 42
0.4142135623731
 10
-285.1344069919068
 20
-425.7581985061233
 42
0.4142135623731
 10
-285.6344069919068
 20
-426.2581985061233
 42
0.4142135623731
 10
-285.1344069919068
 20
-426.7581985061233
 42
0.4142135623731
  0
LWPOLYLINE
  5
1C0
330
1F
100
AcDbEntity
  8
D-4
  6
Continuous
 62
     7
370
     5
100
AcDbPolyline
 90
        4
 70
     1
 43
1.0
 10
-584.6345307118183
 20
-641.3461303710938
 42
0.4142135623731
 10
-585.1345307118183
 20
-640.8461303710938
 42
0.4142135623731
 10
-585.6345307118182
 20
-641.3461303710938
 42
0.4142135623731
 10
-585.1345307118183
 20
-641.8461303710938
 42
0.4142135623731
  0
LWPOLYLINE
  5
1C1
330
1F
100
AcDbEntity
  8
D-4
  6
Continuous
 62
     7
370
     5
100
AcDbPolyline
 90
        4
 70
     1
 43
1.0
 10
-434.6342832719956
 20
-641.3461303710938
 42
0.4142135623731
 10
-435.1342832719956
 20
-640.8461303710938
 42
0.4142135623731
 10
-435.6342832719956
 20
-641.3461303710938
 42
0.4142135623731
 10
-435.1342832719956
 20
-641.8461303710938
 42
0.4142135623731
  0
LWPOLYLINE
  5
1C2
330
1F
100
AcDbEntity
  8
D-4
  6
Continuous
 62
     7
370
     5
100
AcDbPolyline
 90
        4
 70
     1
 43
1.0
 10
-584.6345307118183
 20
-795.8108108108108
 42
0.4142135623731
 10
-585.1345307118183
 20
-795.3108108108108
 42
0.4142135623731
 10
-585.6345307118182
 20
-795.8108108108108
 42
0.4142135623731
 10
-585.1345307118183
 20
-796.3108108108108
 42
0.4142135623731
  0
LWPOLYLINE
  5
1C3
330
1F
100
AcDbEntity
  8
D-4
  6
Continuous
 62
     7
370
     5
100
AcDbPolyline
 90
        4
 70
     1
 43
1.0
 10
-184.6335821924982
 20
-795.8108108108108
 42
0.4142135623731
 10
-185.1335821924982
 20
-795.3108108108108
 42
0.4142135623731
 10
-185.6335821924982
 20
-795.8108108108108
 42
0.4142135623731
 10
-185.1335821924982
 20
-796.3108108108108
 42
0.4142135623731
  0
LWPOLYLINE
  5
1C4
330
1F
100
AcDbEntity
  8
D-4
  6
Continuous
 62
     7
370
     5
100
AcDbPolyline
 90
        4
 70
     1
 43
1.0
 10
-941.3610998102137
 20
-238.2271926467483
 42
0.4142135623731
 10
-941.8610998102135
 20
-237.7271926467483
 42
0.4142135623731
 10
-942.3610998102135
 20
-238.2271926467483
 42
0.4142135623731
 10
-941.8610998102135
 20
-238.7271926467483
 42
0.4142135623731
  0
LWPOLYLINE
  5
1C5
330
1F
100
AcDbEntity
  8
D-4
  6
Continuous
 62
     7
370
     5
100
AcDbPolyline
 90
        4
 70
     1
 43
1.0
 10
-941.3610998102137
 20
-253.2272421347128
 42
0.4142135623731
 10
-941.8610998102135
 20
-252.7272421347128
 42
0.4142135623731
 10
-942.3610998102135
 20
-253.2272421347128
 42
0.4142135623731
 10
-941.8610998102135
 20
-253.7272421347128
 42
0.4142135623731
  0
LWPOLYLINE
  5
1C6
330
1F
100
AcDbEntity
  8
C-4
  6
Continuous
 62
     7
370
     5
100
AcDbPolyline
 90
        4
 70
     1
 43
1.0
 10
-287.634986001092
 20
1095.134953679265
 42
0.4142135623731
 10
-288.134986001092
 20
1095.634953679265
 42
0.4142135623731
 10
-288.634986001092
 20
1095.134953679265
 42
0.4142135623731
 10
-288.134986001092
 20
1094.634953679265
 42
0.4142135623731
  0
LWPOLYLINE
  5
1C7
330
1F
100
AcDbEntity
  8
C-4
  6
Continuous
 62
     7
370
     5
100
AcDbPolyline
 90
        4
 70
     1
 43
1.0
 10
162.3651377188195
 20
1095.134953679265
 42
0.4142135623731
 10
161.8651377188195
 20
1095.634953679265
 42
0.4142135623731
 10
161.3651377188195
 20
1095.134953679265
 42
0.4142135623731
 10
161.8651377188195
 20
1094.634953679265
 42
0.4142135623731
  0
LWPOLYLINE
  5
1C8
330
1F
100
AcDbEntity
  8
C-4
  6
Continuous
 62
     7
370
     5
100
AcDbPolyline
 90
        4
 70
     1
 43
1.0
 10
-295.6353340664425
 20
1150.135135135135
 42
0.4142135623731
 10
-296.1353340664425
 20
1150.635135135135
 42
0.4142135623731
 10
-296.6353340664425
 20
1150.135135135135
 42
0.4142135623731
 10
-296.1353340664425
 20
1149.635135135135
 42
0.4142135623731
  0
LWPOLYLINE
  5
1C9
330
1F
100
AcDbEntity
  8
C-4
  6
Continuous
 62
     7
370
     5
100
AcDbPolyline
 90
        4
 70
     1
 43
1.0
 10
170.3648671846135
 20
1150.135135135135
 42
0.4142135623731
 10
169.8648671846135
 20
1150.635135135135
 42
0.4142135623731
 10
169.3648671846135
 20
1150.135135135135
 42
0.4142135623731
 10
169.8648671846135
 20
1149.635135135135
 42
0.4142135623731
  0
LWPOLYLINE
  5
1CA
330
1F
100
AcDbEntity
  8
C-4
  6
Continuous
 62
     7
370
     5
100
AcDbPolyline
 90
        4
 70
     1
 43
1.0
 10
-262.6346560813284
 20
1040.135761982686
 42
0.4142135623731
 10
-263.1346560813284
 20
1040.635761982686
 42
0.4142135623731
 10
-263.6346560813284
 20
1040.135761982686
 42
0.4142135623731
 10
-263.1346560813284
 20
1039.635761982686
 42
0.4142135623731
  0
LWPOLYLINE
  5
1CB
330
1F
100
AcDbEntity
  8
C-4
  6
Continuous
 62
     7
370
     5
100
AcDbPolyline
 90
        4
 70
     1
 43
1.0
 10
137.3657975583466
 20
1040.135761982686
 42
0.4142135623731
 10
136.8657975583466
 20
1040.635761982686
 42
0.4142135623731
 10
136.3657975583466
 20
1040.135761982686
 42
0.4142135623731
 10
136.8657975583466
 20
1039.635761982686
 42
0.4142135623731
  0
LWPOLYLINE
  5
1CC
330
1F
100
AcDbEntity
  8
C-4
  6
Continuous
 62
     7
370
     5
100
AcDbPolyline
 90
        4
 70
     1
 43
1.0
 10
-287.634986001092
 20
1040.135761982686
 42
0.4142135623731
 10
-288.134986001092
 20
1040.635761982686
 42
0.4142135623731
 10
-288.634986001092
 20
1040.135761982686
 42
0.4142135623731
 10
-288.134986001092
 20
1039.635761982686
 42
0.4142135623731
  0
LWPOLYLINE
  5
1CD
330
1F
100
AcDbEntity
  8
C-4
  6
Continuous
 62
     7
370
     5
100
AcDbPolyline
 90
        4
 70
     1
 43
1.0
 10
162.3651377188195
 20
1040.135761982686
 42
0.4142135623731
 10
161.8651377188195
 20
1040.635761982686
 42
0.4142135623731
 10
161.3651377188195
 20
1040.135761982686
 42
0.4142135623731
 10
161.8651377188195
 20
1039.635761982686
 42
0.4142135623731
  0
LWPOLYLINE
  5
1CE
330
1F
100
AcDbEntity
  8
C-4
  6
Continuous
 62
     7
370
     5
100
AcDbPolyline
 90
        4
 70
     1
 43
1.0
 10
-288.6353852040058
 20
1095.134953679265
 42
0.4142135623731
 10
-289.1353852040058
 20
1095.634953679265
 42
0.4142135623731
 10
-289.6353852040058
 20
1095.134953679265
 42
0.4142135623731
 10
-289.1353852040058
 20
1094.634953679265
 42
0.4142135623731
  0
LWPOLYLINE
  5
1CF
330
1F
100
AcDbEntity
  8
C-4
  6
Continuous
 62
     7
370
     5
100
AcDbPolyline
 90
        4
 70
     1
 43
1.0
 10
-295.6353340664425
 20
1095.134953679265
 42
0.4142135623731
 10
-296.1353340664425
 20
1095.634953679265
 42
0.4142135623731
 10
-296.6353340664425
 20
1095.134953679265
 42
0.4142135623731
 10
-296.1353340664425
 20
1094.634953679265
 42
0.4142135623731
  0
LWPOLYLINE
  5
1D0
330
1F
100
AcDbEntity
  8
C-4
  6
Continuous
 62
     7
370
     5
100
AcDbPolyline
 90
        4
 70
     1
 43
1.0
 10
163.3647946022653
 20
1095.134953679265
 42
0.4142135623731
 10
162.8647946022653
 20
1095.634953679265
 42
0.4142135623731
 10
162.3647946022653
 20
1095.134953679265
 42
0.4142135623731
 10
162.8647946022653
 20
1094.634953679265
 42
0.4142135623731
  0
LWPOLYLINE
  5
1D1
330
1F
100
AcDbEntity
  8
C-4
  6
Continuous
 62
     7
370
     5
100
AcDbPolyline
 90
        4
 70
     1
 43
1.0
 10
170.3648671846135
 20
1095.134953679265
 42
0.4142135623731
 10
169.8648671846135
 20
1095.634953679265
 42
0.4142135623731
 10
169.3648671846135
 20
1095.134953679265
 42
0.4142135623731
 10
169.8648671846135
 20
1094.634953679265
 42
0.4142135623731
  0
LWPOLYLINE
  5
1D2
330
1F
100
AcDbEntity
  8
C-4
  6
Continuous
 62
     7
370
     5
100
AcDbPolyline
 90
        4
 70
     1
 43
1.0
 10
-222.6350189930683
 20
442.7578817831505
 42
0.4142135623731
 10
-223.1350189930683
 20
443.2578817831505
 42
0.4142135623731
 10
-223.6350189930683
 20
442.7578817831505
 42
0.4142135623731
 10
-223.1350189930683
 20
442.2578817831505
 42
0.4142135623731
  0
LWPOLYLINE
  5
1D3
330
1F
100
AcDbEntity
  8
C-4
  6
Continuous
 62
     7
370
     5
100
AcDbPolyline
 90
        4
 70
     1
 43
1.0
 10
-142.6351262169915
 20
442.7578817831505
 42
0.4142135623731
 10
-143.1351262169915
 20
443.2578817831505
 42
0.4142135623731
 10
-143.6351262169915
 20
442.7578817831505
 42
0.4142135623731
 10
-143.1351262169915
 20
442.2578817831505
 42
0.4142135623731
  0
LWPOLYLINE
  5
1D4
330
1F
100
AcDbEntity
  8
C-4
  6
Continuous
 62
     7
370
     5
100
AcDbPolyline
 90
        4
 70
     1
 43
1.0
 10
-325.9749204790269
 20
560.1359104465794
 42
0.4142135623731
 10
-326.4749204790269
 20
560.6359104465794
 42
0.4142135623731
 10
-326.9749204790269
 20
560.1359104465794
 42
0.4142135623731
 10
-326.4749204790269
 20
559.6359104465795
 42
0.4142135623731
  0
LWPOLYLINE
  5
1D5
330
1F
100
AcDbEntity
  8
C-4
  6
Continuous
 62
     7
370
     5
100
AcDbPolyline
 90
        4
 70
     1
 43
1.0
 10
-325.9749204790269
 20
610.1358279666385
 42
0.4142135623731
 10
-326.4749204790269
 20
610.6358279666385
 42
0.4142135623731
 10
-326.9749204790269
 20
610.1358279666385
 42
0.4142135623731
 10
-326.4749204790269
 20
609.6358279666385
 42
0.4142135623731
  0
LINE
  5
1D6
330
1F
100
AcDbEntity
  8
D-2
  6
Continuous
 62
     6
370
     5
100
AcDbLine
 10
-635.1345719517885
 20
-378.2272833746832
 30
0.0
 11
-1132.80410122227
 21
-378.2272833746832
 31
0.0
  0
LINE
  5
1D7
330
1F
100
AcDbEntity
  8
D-2
  6
Continuous
 62
     6
370
     5
100
AcDbLine
 10
-635.1345719517885
 20
-253.2272421347128
 30
0.0
 11
-635.1345719517885
 21
-378.2272833746832
 31
0.0
  0
LINE
  5
1D8
330
1F
100
AcDbEntity
  8
C-B
  6
JWW_DASHED3
 62
     6
370
     5
100
AcDbLine
 10
-195.635417061883
 20
925.1358065218542
 30
0.0
 11
-191.635417061883
 21
925.1358065218542
 31
0.0
  0
LINE
  5
1D9
330
1F
100
AcDbEntity
  8
C-B
  6
JWW_DASHED3
 62
     6
370
     5
100
AcDbLine
 10
-195.635417061883
 20
925.1358065218542
 30
0.0
 11
-195.635417061883
 21
545.1355318636511
 31
0.0
  0
LINE
  5
1DA
330
1F
100
AcDbEntity
  8
C-B
  6
JWW_DASHED3
 62
     6
370
     5
100
AcDbLine
 10
-191.635417061883
 20
925.1358065218542
 30
0.0
 11
-191.635417061883
 21
545.1355318636511
 31
0.0
  0
LINE
  5
1DB
330
1F
100
AcDbEntity
  8
C-B
  6
JWW_DASHED3
 62
     6
370
     5
100
AcDbLine
 10
-195.635417061883
 20
545.1355318636511
 30
0.0
 11
-191.635417061883
 21
545.1355318636511
 31
0.0
  0
LINE
  5
1DC
330
1F
100
AcDbEntity
  8
C-B
  6
JWW_DASHED3
 62
     6
370
     5
100
AcDbLine
 10
69.36505596057792
 20
545.1355318636511
 30
0.0
 11
65.36505596057793
 21
545.1355318636511
 31
0.0
  0
LINE
  5
1DD
330
1F
100
AcDbEntity
  8
C-B
  6
JWW_DASHED3
 62
     6
370
     5
100
AcDbLine
 10
69.36505596057792
 20
545.1355318636511
 30
0.0
 11
69.36505596057792
 21
925.1358065218542
 31
0.0
  0
LINE
  5
1DE
330
1F
100
AcDbEntity
  8
C-B
  6
JWW_DASHED3
 62
     6
370
     5
100
AcDbLine
 10
65.36505596057793
 20
545.1355318636511
 30
0.0
 11
65.36505596057793
 21
925.1358065218542
 31
0.0
  0
LINE
  5
1DF
330
1F
100
AcDbEntity
  8
C-B
  6
JWW_DASHED3
 62
     6
370
     5
100
AcDbLine
 10
69.36505596057792
 20
925.1358065218542
 30
0.0
 11
65.36505596057793
 21
925.1358065218542
 31
0.0
  0
TEXT
  5
1E0
330
1F
100
AcDbEntity
  8
F-4
  6
Continuous
 62
     2
370
     5
100
AcDbText
 10
-851.6662025596897
 20
-1365.511899375921
 30
0.0
 40
30.48
  1
ステンレス縞鋼板製　排水ピット蓋　　ＳＰ－３　４５０×４５０＋ＳＦ０３Ｂ
 41
0.8993055555555554
  7
ＭＳ ゴシック
100
AcDbText
  0
TEXT
  5
1E1
330
1F
100
AcDbEntity
  8
D-5
  6
Continuous
 62
     7
370
     5
100
AcDbText
 10
-1570.521910126145
 20
-624.7853998297613
 30
0.0
 40
22.86
  1
（ＳＵＳ３０４）
 41
1.145833333333333
  7
ＭＳ ゴシック
100
AcDbText
  0
TEXT
  5
1E2
330
1F
100
AcDbEntity
  8
D-5
  6
Continuous
 62
     7
370
     5
100
AcDbText
 10
-1685.679332730244
 20
-574.6649446640412
 30
0.0
 40
22.86
  1
補強材：ＦＢ４×２５～２本／枚
 41
1.155555555555555
  7
ＭＳ ゴシック
100
AcDbText
  0
LINE
  5
1E3
330
1F
100
AcDbEntity
  8
D-5
  6
Continuous
 62
     7
370
     5
100
AcDbLine
 10
-1689.671458063222
 20
-588.3809558765307
 30
0.0
 11
-1153.598449036882
 21
-588.3809558765307
 31
0.0
  0
LINE
  5
1E4
330
1F
100
AcDbEntity
  8
D-0
  6
Continuous
 62
     7
370
     5
100
AcDbLine
 10
-158.2893621599351
 20
-256.6772499599972
 30
0.0
 11
-158.2893621599351
 21
-255.1769688644924
 31
0.0
  0
LINE
  5
1E5
330
1F
100
AcDbEntity
  8
D-0
  6
Continuous
 62
     7
370
     5
100
AcDbLine
 10
-158.2893621599351
 20
-255.1769688644924
 30
0.0
 11
-156.789346901146
 21
-255.1769688644924
 31
0.0
  0
LINE
  5
1E6
330
1F
100
AcDbEntity
  8
D-0
  6
Continuous
 62
     7
370
     5
100
AcDbLine
 10
-156.789346901146
 20
-255.1769688644924
 30
0.0
 11
-156.789346901146
 21
-256.6772499599972
 31
0.0
  0
LINE
  5
1E7
330
1F
100
AcDbEntity
  8
D-0
  6
Continuous
 62
     7
370
     5
100
AcDbLine
 10
-156.789346901146
 20
-256.6772499599972
 30
0.0
 11
-158.2893621599351
 21
-256.6772499599972
 31
0.0
  0
LINE
  5
1E8
330
1F
100
AcDbEntity
  8
D-0
  6
Continuous
 62
     7
370
     5
100
AcDbLine
 10
-107.5334417497788
 20
-259.3844905415096
 30
0.0
 11
-107.5334417497788
 21
-257.8842106380978
 31
0.0
  0
LINE
  5
1E9
330
1F
100
AcDbEntity
  8
D-0
  6
Continuous
 62
     7
370
     5
100
AcDbLine
 10
-107.5334417497788
 20
-257.8842106380978
 30
0.0
 11
-106.0333883440171
 21
-257.8842106380978
 31
0.0
  0
LINE
  5
1EA
330
1F
100
AcDbEntity
  8
D-0
  6
Continuous
 62
     7
370
     5
100
AcDbLine
 10
-106.0333883440171
 20
-257.8842106380978
 30
0.0
 11
-106.0333883440171
 21
-259.3844905415096
 31
0.0
  0
LINE
  5
1EB
330
1F
100
AcDbEntity
  8
D-0
  6
Continuous
 62
     7
370
     5
100
AcDbLine
 10
-106.0333883440171
 20
-259.3844905415096
 30
0.0
 11
-107.5334417497788
 21
-259.3844905415096
 31
0.0
  0
LINE
  5
1EC
330
1F
100
AcDbEntity
  8
D-0
  6
Continuous
 62
     7
370
     5
100
AcDbLine
 10
-42.56571408864602
 20
-257.354058317236
 30
0.0
 11
-42.56571408864602
 21
-255.8537807980099
 31
0.0
  0
LINE
  5
1ED
330
1F
100
AcDbEntity
  8
D-0
  6
Continuous
 62
     7
370
     5
100
AcDbLine
 10
-42.56571408864602
 20
-255.8537807980099
 30
0.0
 11
-41.0656606828843
 21
-255.8537807980099
 31
0.0
  0
LINE
  5
1EE
330
1F
100
AcDbEntity
  8
D-0
  6
Continuous
 62
     7
370
     5
100
AcDbLine
 10
-41.0656606828843
 20
-255.8537807980099
 30
0.0
 11
-41.0656606828843
 21
-257.354058317236
 31
0.0
  0
LINE
  5
1EF
330
1F
100
AcDbEntity
  8
D-0
  6
Continuous
 62
     7
370
     5
100
AcDbLine
 10
-41.0656606828843
 20
-257.354058317236
 30
0.0
 11
-42.56571408864602
 21
-257.354058317236
 31
0.0
  0
LINE
  5
1F0
330
1F
100
AcDbEntity
  8
D-0
  6
Continuous
 62
     7
370
     5
100
AcDbLine
 10
-66.92865964528664
 20
-289.8379841366329
 30
0.0
 11
-66.92865964528664
 21
-288.3377018490353
 31
0.0
  0
LINE
  5
1F1
330
1F
100
AcDbEntity
  8
D-0
  6
Continuous
 62
     7
370
     5
100
AcDbLine
 10
-66.92865964528664
 20
-288.3377018490353
 30
0.0
 11
-65.42860623952492
 21
-288.3377018490353
 31
0.0
  0
LINE
  5
1F2
330
1F
100
AcDbEntity
  8
D-0
  6
Continuous
 62
     7
370
     5
100
AcDbLine
 10
-65.42860623952492
 20
-288.3377018490353
 30
0.0
 11
-65.42860623952492
 21
-289.8379841366329
 31
0.0
  0
LINE
  5
1F3
330
1F
100
AcDbEntity
  8
D-0
  6
Continuous
 62
     7
370
     5
100
AcDbLine
 10
-65.42860623952492
 20
-289.8379841366329
 30
0.0
 11
-66.92865964528664
 21
-289.8379841366329
 31
0.0
  0
LINE
  5
1F4
330
1F
100
AcDbEntity
  8
D-0
  6
Continuous
 62
     7
370
     5
100
AcDbLine
 10
-117.4938451921616
 20
-293.7690344372311
 30
0.0
 11
-117.4938451921616
 21
-292.2687521496334
 31
0.0
  0
LINE
  5
1F5
330
1F
100
AcDbEntity
  8
D-0
  6
Continuous
 62
     7
370
     5
100
AcDbLine
 10
-117.4938451921616
 20
-292.2687521496334
 30
0.0
 11
-115.9937917863999
 21
-292.2687521496334
 31
0.0
  0
LINE
  5
1F6
330
1F
100
AcDbEntity
  8
D-0
  6
Continuous
 62
     7
370
     5
100
AcDbLine
 10
-115.9937917863999
 20
-292.2687521496334
 30
0.0
 11
-115.9937917863999
 21
-293.7690344372311
 31
0.0
  0
LINE
  5
1F7
330
1F
100
AcDbEntity
  8
D-0
  6
Continuous
 62
     7
370
     5
100
AcDbLine
 10
-115.9937917863999
 20
-293.7690344372311
 30
0.0
 11
-117.4938451921616
 21
-293.7690344372311
 31
0.0
  0
LINE
  5
1F8
330
1F
100
AcDbEntity
  8
D-0
  6
Continuous
 62
     7
370
     5
100
AcDbLine
 10
-134.6032201921616
 20
-327.7358952084103
 30
0.0
 11
-134.6032201921616
 21
-326.2356129208126
 31
0.0
  0
LINE
  5
1F9
330
1F
100
AcDbEntity
  8
D-0
  6
Continuous
 62
     7
370
     5
100
AcDbLine
 10
-134.6032201921616
 20
-326.2356129208126
 30
0.0
 11
-133.1032049333726
 21
-326.2356129208126
 31
0.0
  0
LINE
  5
1FA
330
1F
100
AcDbEntity
  8
D-0
  6
Continuous
 62
     7
370
     5
100
AcDbLine
 10
-133.1032049333726
 20
-326.2356129208126
 30
0.0
 11
-133.1032049333726
 21
-327.7358952084103
 31
0.0
  0
LINE
  5
1FB
330
1F
100
AcDbEntity
  8
D-0
  6
Continuous
 62
     7
370
     5
100
AcDbLine
 10
-133.1032049333726
 20
-327.7358952084103
 30
0.0
 11
-134.6032201921616
 21
-327.7358952084103
 31
0.0
  0
LINE
  5
1FC
330
1F
100
AcDbEntity
  8
D-0
  6
Continuous
 62
     7
370
     5
100
AcDbLine
 10
-165.9597265398179
 20
-313.1641569653073
 30
0.0
 11
-165.9597265398179
 21
-311.6638794460812
 31
0.0
  0
LINE
  5
1FD
330
1F
100
AcDbEntity
  8
D-0
  6
Continuous
 62
     7
370
     5
100
AcDbLine
 10
-165.9597265398179
 20
-311.6638794460812
 30
0.0
 11
-164.4596922075425
 21
-311.6638794460812
 31
0.0
  0
LINE
  5
1FE
330
1F
100
AcDbEntity
  8
D-0
  6
Continuous
 62
     7
370
     5
100
AcDbLine
 10
-164.4596922075425
 20
-311.6638794460812
 30
0.0
 11
-164.4596922075425
 21
-313.1641569653073
 31
0.0
  0
LINE
  5
1FF
330
1F
100
AcDbEntity
  8
D-0
  6
Continuous
 62
     7
370
     5
100
AcDbLine
 10
-164.4596922075425
 20
-313.1641569653073
 30
0.0
 11
-165.9597265398179
 21
-313.1641569653073
 31
0.0
  0
LINE
  5
200
330
1F
100
AcDbEntity
  8
D-0
  6
Continuous
 62
     7
370
     5
100
AcDbLine
 10
-176.6838895952378
 20
-354.3841877499142
 30
0.0
 11
-176.6838895952378
 21
-352.8839054623165
 31
0.0
  0
LINE
  5
201
330
1F
100
AcDbEntity
  8
D-0
  6
Continuous
 62
     7
370
     5
100
AcDbLine
 10
-176.6838895952378
 20
-352.8839054623165
 30
0.0
 11
-175.1838552629624
 21
-352.8839054623165
 31
0.0
  0
LINE
  5
202
330
1F
100
AcDbEntity
  8
D-0
  6
Continuous
 62
     7
370
     5
100
AcDbLine
 10
-175.1838552629624
 20
-352.8839054623165
 30
0.0
 11
-175.1838552629624
 21
-354.3841877499142
 31
0.0
  0
LINE
  5
203
330
1F
100
AcDbEntity
  8
D-0
  6
Continuous
 62
     7
370
     5
100
AcDbLine
 10
-175.1838552629624
 20
-354.3841877499142
 30
0.0
 11
-176.6838895952378
 21
-354.3841877499142
 31
0.0
  0
LINE
  5
204
330
1F
100
AcDbEntity
  8
D-0
  6
Continuous
 62
     7
370
     5
100
AcDbLine
 10
-139.3405401384507
 20
-362.9265633144894
 30
0.0
 11
-139.3405401384507
 21
-361.4262810268917
 31
0.0
  0
LINE
  5
205
330
1F
100
AcDbEntity
  8
D-0
  6
Continuous
 62
     7
370
     5
100
AcDbLine
 10
-139.3405401384507
 20
-361.4262810268917
 30
0.0
 11
-137.8405248796616
 21
-361.4262810268917
 31
0.0
  0
LINE
  5
206
330
1F
100
AcDbEntity
  8
D-0
  6
Continuous
 62
     7
370
     5
100
AcDbLine
 10
-137.8405248796616
 20
-361.4262810268917
 30
0.0
 11
-137.8405248796616
 21
-362.9265633144894
 31
0.0
  0
LINE
  5
207
330
1F
100
AcDbEntity
  8
D-0
  6
Continuous
 62
     7
370
     5
100
AcDbLine
 10
-137.8405248796616
 20
-362.9265633144894
 30
0.0
 11
-139.3405401384507
 21
-362.9265633144894
 31
0.0
  0
LINE
  5
208
330
1F
100
AcDbEntity
  8
D-0
  6
Continuous
 62
     7
370
     5
100
AcDbLine
 10
-87.1356069719468
 20
-367.6513519802609
 30
0.0
 11
-87.1356069719468
 21
-366.1510792294064
 31
0.0
  0
LINE
  5
209
330
1F
100
AcDbEntity
  8
D-0
  6
Continuous
 62
     7
370
     5
100
AcDbLine
 10
-87.1356069719468
 20
-366.1510792294064
 30
0.0
 11
-85.63555356618508
 21
-366.1510792294064
 31
0.0
  0
LINE
  5
20A
330
1F
100
AcDbEntity
  8
D-0
  6
Continuous
 62
     7
370
     5
100
AcDbLine
 10
-85.63555356618508
 20
-366.1510792294064
 30
0.0
 11
-85.63555356618508
 21
-367.6513519802609
 31
0.0
  0
LINE
  5
20B
330
1F
100
AcDbEntity
  8
D-0
  6
Continuous
 62
     7
370
     5
100
AcDbLine
 10
-85.63555356618508
 20
-367.6513519802609
 30
0.0
 11
-87.1356069719468
 21
-367.6513519802609
 31
0.0
  0
LINE
  5
20C
330
1F
100
AcDbEntity
  8
D-0
  6
Continuous
 62
     7
370
     5
100
AcDbLine
 10
-32.4145376360093
 20
-360.8961334744015
 30
0.0
 11
-32.4145376360093
 21
-359.3958511868038
 31
0.0
  0
LINE
  5
20D
330
1F
100
AcDbEntity
  8
D-0
  6
Continuous
 62
     7
370
     5
100
AcDbLine
 10
-32.4145376360093
 20
-359.3958511868038
 30
0.0
 11
-30.91452237722024
 21
-359.3958511868038
 31
0.0
  0
LINE
  5
20E
330
1F
100
AcDbEntity
  8
D-0
  6
Continuous
 62
     7
370
     5
100
AcDbLine
 10
-30.91452237722024
 20
-359.3958511868038
 30
0.0
 11
-30.91452237722024
 21
-360.8961334744015
 31
0.0
  0
LINE
  5
20F
330
1F
100
AcDbEntity
  8
D-0
  6
Continuous
 62
     7
370
     5
100
AcDbLine
 10
-30.91452237722024
 20
-360.8961334744015
 30
0.0
 11
-32.4145376360093
 21
-360.8961334744015
 31
0.0
  0
LINE
  5
210
330
1F
100
AcDbEntity
  8
D-0
  6
Continuous
 62
     7
370
     5
100
AcDbLine
 10
-44.59601041432961
 20
-320.9682884731808
 30
0.0
 11
-44.59601041432961
 21
-319.4680061855831
 31
0.0
  0
LINE
  5
211
330
1F
100
AcDbEntity
  8
D-0
  6
Continuous
 62
     7
370
     5
100
AcDbLine
 10
-44.59601041432961
 20
-319.4680061855831
 30
0.0
 11
-43.09595700856789
 21
-319.4680061855831
 31
0.0
  0
LINE
  5
212
330
1F
100
AcDbEntity
  8
D-0
  6
Continuous
 62
     7
370
     5
100
AcDbLine
 10
-43.09595700856789
 20
-319.4680061855831
 30
0.0
 11
-43.09595700856789
 21
-320.9682884731808
 31
0.0
  0
LINE
  5
213
330
1F
100
AcDbEntity
  8
D-0
  6
Continuous
 62
     7
370
     5
100
AcDbLine
 10
-43.09595700856789
 20
-320.9682884731808
 30
0.0
 11
-44.59601041432961
 21
-320.9682884731808
 31
0.0
  0
LINE
  5
214
330
1F
100
AcDbEntity
  8
D-0
  6
Continuous
 62
     7
370
     5
100
AcDbLine
 10
-405.007177559105
 20
-250.2589467087307
 30
0.0
 11
-405.007177559105
 21
-248.7586668053189
 31
0.0
  0
LINE
  5
215
330
1F
100
AcDbEntity
  8
D-0
  6
Continuous
 62
     7
370
     5
100
AcDbLine
 10
-405.007177559105
 20
-248.7586668053189
 30
0.0
 11
-403.5071479952012
 21
-248.7586668053189
 31
0.0
  0
LINE
  5
216
330
1F
100
AcDbEntity
  8
D-0
  6
Continuous
 62
     7
370
     5
100
AcDbLine
 10
-403.5071479952012
 20
-248.7586668053189
 30
0.0
 11
-403.5071479952012
 21
-250.2589467087307
 31
0.0
  0
LINE
  5
217
330
1F
100
AcDbEntity
  8
D-0
  6
Continuous
 62
     7
370
     5
100
AcDbLine
 10
-403.5071479952012
 20
-250.2589467087307
 30
0.0
 11
-405.007177559105
 21
-250.2589467087307
 31
0.0
  0
LINE
  5
218
330
1F
100
AcDbEntity
  8
D-0
  6
Continuous
 62
     7
370
     5
100
AcDbLine
 10
-378.2021963274155
 20
-267.9110112705746
 30
0.0
 11
-378.2021963274155
 21
-266.4107337513485
 31
0.0
  0
LINE
  5
219
330
1F
100
AcDbEntity
  8
D-0
  6
Continuous
 62
     7
370
     5
100
AcDbLine
 10
-378.2021963274155
 20
-266.4107337513485
 30
0.0
 11
-376.7021619951402
 21
-266.4107337513485
 31
0.0
  0
LINE
  5
21A
330
1F
100
AcDbEntity
  8
D-0
  6
Continuous
 62
     7
370
     5
100
AcDbLine
 10
-376.7021619951402
 20
-266.4107337513485
 30
0.0
 11
-376.7021619951402
 21
-267.9110112705746
 31
0.0
  0
LINE
  5
21B
330
1F
100
AcDbEntity
  8
D-0
  6
Continuous
 62
     7
370
     5
100
AcDbLine
 10
-376.7021619951402
 20
-267.9110112705746
 30
0.0
 11
-378.2021963274155
 21
-267.9110112705746
 31
0.0
  0
LINE
  5
21C
330
1F
100
AcDbEntity
  8
D-0
  6
Continuous
 62
     7
370
     5
100
AcDbLine
 10
-359.8964845811997
 20
-307.1377697506466
 30
0.0
 11
-359.8964845811997
 21
-305.6374922314205
 31
0.0
  0
LINE
  5
21D
330
1F
100
AcDbEntity
  8
D-0
  6
Continuous
 62
     7
370
     5
100
AcDbLine
 10
-359.8964845811997
 20
-305.6374922314205
 30
0.0
 11
-358.3964502489243
 21
-305.6374922314205
 31
0.0
  0
LINE
  5
21E
330
1F
100
AcDbEntity
  8
D-0
  6
Continuous
 62
     7
370
     5
100
AcDbLine
 10
-358.3964502489243
 20
-305.6374922314205
 30
0.0
 11
-358.3964502489243
 21
-307.1377697506466
 31
0.0
  0
LINE
  5
21F
330
1F
100
AcDbEntity
  8
D-0
  6
Continuous
 62
     7
370
     5
100
AcDbLine
 10
-358.3964502489243
 20
-307.1377697506466
 30
0.0
 11
-359.8964845811997
 21
-307.1377697506466
 31
0.0
  0
LINE
  5
220
330
1F
100
AcDbEntity
  8
D-0
  6
Continuous
 62
     7
370
     5
100
AcDbLine
 10
-314.1318857347642
 20
-254.1815724888363
 30
0.0
 11
-314.1318857347642
 21
-252.6812937775173
 31
0.0
  0
LINE
  5
221
330
1F
100
AcDbEntity
  8
D-0
  6
Continuous
 62
     7
370
     5
100
AcDbLine
 10
-314.1318857347642
 20
-252.6812937775173
 30
0.0
 11
-312.631860939232
 21
-252.6812937775173
 31
0.0
  0
LINE
  5
222
330
1F
100
AcDbEntity
  8
D-0
  6
Continuous
 62
     7
370
     5
100
AcDbLine
 10
-312.631860939232
 20
-252.6812937775173
 30
0.0
 11
-312.631860939232
 21
-254.1815724888363
 31
0.0
  0
LINE
  5
223
330
1F
100
AcDbEntity
  8
D-0
  6
Continuous
 62
     7
370
     5
100
AcDbLine
 10
-312.631860939232
 20
-254.1815724888363
 30
0.0
 11
-314.1318857347642
 21
-254.1815724888363
 31
0.0
  0
LINE
  5
224
330
1F
100
AcDbEntity
  8
D-0
  6
Continuous
 62
     7
370
     5
100
AcDbLine
 10
-255.2917539751206
 20
-260.0657597103634
 30
0.0
 11
-255.2917539751206
 21
-258.5654798069515
 31
0.0
  0
LINE
  5
225
330
1F
100
AcDbEntity
  8
D-0
  6
Continuous
 62
     7
370
     5
100
AcDbLine
 10
-255.2917539751206
 20
-258.5654798069515
 30
0.0
 11
-253.7917196428452
 21
-258.5654798069515
 31
0.0
  0
LINE
  5
226
330
1F
100
AcDbEntity
  8
D-0
  6
Continuous
 62
     7
370
     5
100
AcDbLine
 10
-253.7917196428452
 20
-258.5654798069515
 30
0.0
 11
-253.7917196428452
 21
-260.0657597103634
 31
0.0
  0
LINE
  5
227
330
1F
100
AcDbEntity
  8
D-0
  6
Continuous
 62
     7
370
     5
100
AcDbLine
 10
-253.7917196428452
 20
-260.0657597103634
 30
0.0
 11
-255.2917539751206
 21
-260.0657597103634
 31
0.0
  0
LINE
  5
228
330
1F
100
AcDbEntity
  8
D-0
  6
Continuous
 62
     7
370
     5
100
AcDbLine
 10
-274.9051344072495
 20
-281.6404524364987
 30
0.0
 11
-274.9051344072495
 21
-280.1401749172726
 31
0.0
  0
LINE
  5
229
330
1F
100
AcDbEntity
  8
D-0
  6
Continuous
 62
     7
370
     5
100
AcDbLine
 10
-274.9051344072495
 20
-280.1401749172726
 30
0.0
 11
-273.4051000749741
 21
-280.1401749172726
 31
0.0
  0
LINE
  5
22A
330
1F
100
AcDbEntity
  8
D-0
  6
Continuous
 62
     7
370
     5
100
AcDbLine
 10
-273.4051000749741
 20
-280.1401749172726
 30
0.0
 11
-273.4051000749741
 21
-281.6404524364987
 31
0.0
  0
LINE
  5
22B
330
1F
100
AcDbEntity
  8
D-0
  6
Continuous
 62
     7
370
     5
100
AcDbLine
 10
-273.4051000749741
 20
-281.6404524364987
 30
0.0
 11
-274.9051344072495
 21
-281.6404524364987
 31
0.0
  0
LINE
  5
22C
330
1F
100
AcDbEntity
  8
D-0
  6
Continuous
 62
     7
370
     5
100
AcDbLine
 10
-261.8295919572984
 20
-306.4842453518429
 30
0.0
 11
-261.8295919572984
 21
-304.9839678326168
 31
0.0
  0
LINE
  5
22D
330
1F
100
AcDbEntity
  8
D-0
  6
Continuous
 62
     7
370
     5
100
AcDbLine
 10
-261.8295919572984
 20
-304.9839678326168
 30
0.0
 11
-260.329557625023
 21
-304.9839678326168
 31
0.0
  0
LINE
  5
22E
330
1F
100
AcDbEntity
  8
D-0
  6
Continuous
 62
     7
370
     5
100
AcDbLine
 10
-260.329557625023
 20
-304.9839678326168
 30
0.0
 11
-260.329557625023
 21
-306.4842453518429
 31
0.0
  0
LINE
  5
22F
330
1F
100
AcDbEntity
  8
D-0
  6
Continuous
 62
     7
370
     5
100
AcDbLine
 10
-260.329557625023
 20
-306.4842453518429
 30
0.0
 11
-261.8295919572984
 21
-306.4842453518429
 31
0.0
  0
LINE
  5
230
330
1F
100
AcDbEntity
  8
D-0
  6
Continuous
 62
     7
370
     5
100
AcDbLine
 10
-257.9068433916245
 20
-345.0569859066525
 30
0.0
 11
-257.9068433916245
 21
-343.5567036190548
 31
0.0
  0
LINE
  5
231
330
1F
100
AcDbEntity
  8
D-0
  6
Continuous
 62
     7
370
     5
100
AcDbLine
 10
-257.9068433916245
 20
-343.5567036190548
 30
0.0
 11
-256.4068090593491
 21
-343.5567036190548
 31
0.0
  0
LINE
  5
232
330
1F
100
AcDbEntity
  8
D-0
  6
Continuous
 62
     7
370
     5
100
AcDbLine
 10
-256.4068090593491
 20
-343.5567036190548
 30
0.0
 11
-256.4068090593491
 21
-345.0569859066525
 31
0.0
  0
LINE
  5
233
330
1F
100
AcDbEntity
  8
D-0
  6
Continuous
 62
     7
370
     5
100
AcDbLine
 10
-256.4068090593491
 20
-345.0569859066525
 30
0.0
 11
-257.9068433916245
 21
-345.0569859066525
 31
0.0
  0
LINE
  5
234
330
1F
100
AcDbEntity
  8
D-0
  6
Continuous
 62
     7
370
     5
100
AcDbLine
 10
-85.62502500173196
 20
-330.0859013119259
 30
0.0
 11
-85.62502500173196
 21
-328.5856190243283
 31
0.0
  0
LINE
  5
235
330
1F
100
AcDbEntity
  8
D-0
  6
Continuous
 62
     7
370
     5
100
AcDbLine
 10
-85.62502500173196
 20
-328.5856190243283
 30
0.0
 11
-84.1250097429429
 21
-328.5856190243283
 31
0.0
  0
LINE
  5
236
330
1F
100
AcDbEntity
  8
D-0
  6
Continuous
 62
     7
370
     5
100
AcDbLine
 10
-84.1250097429429
 20
-328.5856190243283
 30
0.0
 11
-84.1250097429429
 21
-330.0859013119259
 31
0.0
  0
LINE
  5
237
330
1F
100
AcDbEntity
  8
D-0
  6
Continuous
 62
     7
370
     5
100
AcDbLine
 10
-84.1250097429429
 20
-330.0859013119259
 30
0.0
 11
-85.62502500173196
 21
-330.0859013119259
 31
0.0
  0
LINE
  5
238
330
1F
100
AcDbEntity
  8
D-0
  6
Continuous
 62
     7
370
     5
100
AcDbLine
 10
-25.13983365651711
 20
-290.5975380459347
 30
0.0
 11
-25.13983365651711
 21
-289.097255758337
 31
0.0
  0
LINE
  5
239
330
1F
100
AcDbEntity
  8
D-0
  6
Continuous
 62
     7
370
     5
100
AcDbLine
 10
-25.13983365651711
 20
-289.097255758337
 30
0.0
 11
-23.63978025075539
 21
-289.097255758337
 31
0.0
  0
LINE
  5
23A
330
1F
100
AcDbEntity
  8
D-0
  6
Continuous
 62
     7
370
     5
100
AcDbLine
 10
-23.63978025075539
 20
-289.097255758337
 30
0.0
 11
-23.63978025075539
 21
-290.5975380459347
 31
0.0
  0
LINE
  5
23B
330
1F
100
AcDbEntity
  8
D-0
  6
Continuous
 62
     7
370
     5
100
AcDbLine
 10
-23.63978025075539
 20
-290.5975380459347
 30
0.0
 11
-25.13983365651711
 21
-290.5975380459347
 31
0.0
  0
LINE
  5
23C
330
1F
100
AcDbEntity
  8
D-0
  6
Continuous
 62
     7
370
     5
100
AcDbLine
 10
-179.140306678978
 20
-279.7046556988278
 30
0.0
 11
-179.140306678978
 21
-278.2043781796017
 31
0.0
  0
LINE
  5
23D
330
1F
100
AcDbEntity
  8
D-0
  6
Continuous
 62
     7
370
     5
100
AcDbLine
 10
-179.140306678978
 20
-278.2043781796017
 30
0.0
 11
-177.6402723467027
 21
-278.2043781796017
 31
0.0
  0
LINE
  5
23E
330
1F
100
AcDbEntity
  8
D-0
  6
Continuous
 62
     7
370
     5
100
AcDbLine
 10
-177.6402723467027
 20
-278.2043781796017
 30
0.0
 11
-177.6402723467027
 21
-279.7046556988278
 31
0.0
  0
LINE
  5
23F
330
1F
100
AcDbEntity
  8
D-0
  6
Continuous
 62
     7
370
     5
100
AcDbLine
 10
-177.6402723467027
 20
-279.7046556988278
 30
0.0
 11
-179.140306678978
 21
-279.7046556988278
 31
0.0
  0
LINE
  5
240
330
1F
100
AcDbEntity
  8
D-0
  6
Continuous
 62
     7
370
     5
100
AcDbLine
 10
-262.4902975237046
 20
-402.9549923458615
 30
0.0
 11
-262.4902975237046
 21
-401.4547100582638
 31
0.0
  0
LINE
  5
241
330
1F
100
AcDbEntity
  8
D-0
  6
Continuous
 62
     7
370
     5
100
AcDbLine
 10
-262.4902975237046
 20
-401.4547100582638
 30
0.0
 11
-260.9902631914292
 21
-401.4547100582638
 31
0.0
  0
LINE
  5
242
330
1F
100
AcDbEntity
  8
D-0
  6
Continuous
 62
     7
370
     5
100
AcDbLine
 10
-260.9902631914292
 20
-401.4547100582638
 30
0.0
 11
-260.9902631914292
 21
-402.9549923458615
 31
0.0
  0
LINE
  5
243
330
1F
100
AcDbEntity
  8
D-0
  6
Continuous
 62
     7
370
     5
100
AcDbLine
 10
-260.9902631914292
 20
-402.9549923458615
 30
0.0
 11
-262.4902975237046
 21
-402.9549923458615
 31
0.0
  0
LINE
  5
244
330
1F
100
AcDbEntity
  8
D-0
  6
Continuous
 62
     7
370
     5
100
AcDbLine
 10
-213.1256162798081
 20
-410.853265813879
 30
0.0
 11
-213.1256162798081
 21
-409.3529835262814
 31
0.0
  0
LINE
  5
245
330
1F
100
AcDbEntity
  8
D-0
  6
Continuous
 62
     7
370
     5
100
AcDbLine
 10
-213.1256162798081
 20
-409.3529835262814
 30
0.0
 11
-211.6256010210191
 21
-409.3529835262814
 31
0.0
  0
LINE
  5
246
330
1F
100
AcDbEntity
  8
D-0
  6
Continuous
 62
     7
370
     5
100
AcDbLine
 10
-211.6256010210191
 20
-409.3529835262814
 30
0.0
 11
-211.6256010210191
 21
-410.853265813879
 31
0.0
  0
LINE
  5
247
330
1F
100
AcDbEntity
  8
D-0
  6
Continuous
 62
     7
370
     5
100
AcDbLine
 10
-211.6256010210191
 20
-410.853265813879
 30
0.0
 11
-213.1256162798081
 21
-410.853265813879
 31
0.0
  0
LINE
  5
248
330
1F
100
AcDbEntity
  8
D-0
  6
Continuous
 62
     7
370
     5
100
AcDbLine
 10
-230.0068723833238
 20
-431.4340343990841
 30
0.0
 11
-230.0068723833238
 21
-429.9337521114865
 31
0.0
  0
LINE
  5
249
330
1F
100
AcDbEntity
  8
D-0
  6
Continuous
 62
     7
370
     5
100
AcDbLine
 10
-230.0068723833238
 20
-429.9337521114865
 30
0.0
 11
-228.5068380510484
 21
-429.9337521114865
 31
0.0
  0
LINE
  5
24A
330
1F
100
AcDbEntity
  8
D-0
  6
Continuous
 62
     7
370
     5
100
AcDbLine
 10
-228.5068380510484
 20
-429.9337521114865
 30
0.0
 11
-228.5068380510484
 21
-431.4340343990841
 31
0.0
  0
LINE
  5
24B
330
1F
100
AcDbEntity
  8
D-0
  6
Continuous
 62
     7
370
     5
100
AcDbLine
 10
-228.5068380510484
 20
-431.4340343990841
 30
0.0
 11
-230.0068723833238
 21
-431.4340343990841
 31
0.0
  0
LINE
  5
24C
330
1F
100
AcDbEntity
  8
D-0
  6
Continuous
 62
     7
370
     5
100
AcDbLine
 10
-278.2870733415757
 20
-466.1421146908322
 30
0.0
 11
-278.2870733415757
 21
-464.6418514767208
 31
0.0
  0
LINE
  5
24D
330
1F
100
AcDbEntity
  8
D-0
  6
Continuous
 62
     7
370
     5
100
AcDbLine
 10
-278.2870733415757
 20
-464.6418514767208
 30
0.0
 11
-276.7870390093003
 21
-464.6418514767208
 31
0.0
  0
LINE
  5
24E
330
1F
100
AcDbEntity
  8
D-0
  6
Continuous
 62
     7
370
     5
100
AcDbLine
 10
-276.7870390093003
 20
-464.6418514767208
 30
0.0
 11
-276.7870390093003
 21
-466.1421146908322
 31
0.0
  0
LINE
  5
24F
330
1F
100
AcDbEntity
  8
D-0
  6
Continuous
 62
     7
370
     5
100
AcDbLine
 10
-276.7870390093003
 20
-466.1421146908322
 30
0.0
 11
-278.2870733415757
 21
-466.1421146908322
 31
0.0
  0
LINE
  5
250
330
1F
100
AcDbEntity
  8
D-0
  6
Continuous
 62
     7
370
     5
100
AcDbLine
 10
-207.2017919695054
 20
-464.1671886959591
 30
0.0
 11
-207.2017919695054
 21
-462.6669064083615
 31
0.0
  0
LINE
  5
251
330
1F
100
AcDbEntity
  8
D-0
  6
Continuous
 62
     7
370
     5
100
AcDbLine
 10
-207.2017919695054
 20
-462.6669064083615
 30
0.0
 11
-205.7017767107163
 21
-462.6669064083615
 31
0.0
  0
LINE
  5
252
330
1F
100
AcDbEntity
  8
D-0
  6
Continuous
 62
     7
370
     5
100
AcDbLine
 10
-205.7017767107163
 20
-462.6669064083615
 30
0.0
 11
-205.7017767107163
 21
-464.1671886959591
 31
0.0
  0
LINE
  5
253
330
1F
100
AcDbEntity
  8
D-0
  6
Continuous
 62
     7
370
     5
100
AcDbLine
 10
-205.7017767107163
 20
-464.1671886959591
 30
0.0
 11
-207.2017919695054
 21
-464.1671886959591
 31
0.0
  0
LINE
  5
254
330
1F
100
AcDbEntity
  8
D-0
  6
Continuous
 62
     7
370
     5
100
AcDbLine
 10
-574.475589958397
 20
-312.1236744442501
 30
0.0
 11
-574.475589958397
 21
-310.6233921566525
 31
0.0
  0
LINE
  5
255
330
1F
100
AcDbEntity
  8
D-0
  6
Continuous
 62
     7
370
     5
100
AcDbLine
 10
-574.475589958397
 20
-310.6233921566525
 30
0.0
 11
-572.9755556261216
 21
-310.6233921566525
 31
0.0
  0
LINE
  5
256
330
1F
100
AcDbEntity
  8
D-0
  6
Continuous
 62
     7
370
     5
100
AcDbLine
 10
-572.9755556261216
 20
-310.6233921566525
 30
0.0
 11
-572.9755556261216
 21
-312.1236744442501
 31
0.0
  0
LINE
  5
257
330
1F
100
AcDbEntity
  8
D-0
  6
Continuous
 62
     7
370
     5
100
AcDbLine
 10
-572.9755556261216
 20
-312.1236744442501
 30
0.0
 11
-574.475589958397
 21
-312.1236744442501
 31
0.0
  0
LINE
  5
258
330
1F
100
AcDbEntity
  8
D-0
  6
Continuous
 62
     7
370
     5
100
AcDbLine
 10
-469.8222988521729
 20
-318.0474987545529
 30
0.0
 11
-469.8222988521729
 21
-316.5472164669552
 31
0.0
  0
LINE
  5
259
330
1F
100
AcDbEntity
  8
D-0
  6
Continuous
 62
     7
370
     5
100
AcDbLine
 10
-469.8222988521729
 20
-316.5472164669552
 30
0.0
 11
-468.3222669040833
 21
-316.5472164669552
 31
0.0
  0
LINE
  5
25A
330
1F
100
AcDbEntity
  8
D-0
  6
Continuous
 62
     7
370
     5
100
AcDbLine
 10
-468.3222669040833
 20
-316.5472164669552
 30
0.0
 11
-468.3222669040833
 21
-318.0474987545529
 31
0.0
  0
LINE
  5
25B
330
1F
100
AcDbEntity
  8
D-0
  6
Continuous
 62
     7
370
     5
100
AcDbLine
 10
-468.3222669040833
 20
-318.0474987545529
 30
0.0
 11
-469.8222988521729
 21
-318.0474987545529
 31
0.0
  0
LINE
  5
25C
330
1F
100
AcDbEntity
  8
D-0
  6
Continuous
 62
     7
370
     5
100
AcDbLine
 10
-509.3141328966294
 20
-316.0730591335812
 30
0.0
 11
-509.3141328966294
 21
-314.5727768459835
 31
0.0
  0
LINE
  5
25D
330
1F
100
AcDbEntity
  8
D-0
  6
Continuous
 62
     7
370
     5
100
AcDbLine
 10
-509.3141328966294
 20
-314.5727768459835
 30
0.0
 11
-507.8141033327256
 21
-314.5727768459835
 31
0.0
  0
LINE
  5
25E
330
1F
100
AcDbEntity
  8
D-0
  6
Continuous
 62
     7
370
     5
100
AcDbLine
 10
-507.8141033327256
 20
-314.5727768459835
 30
0.0
 11
-507.8141033327256
 21
-316.0730591335812
 31
0.0
  0
LINE
  5
25F
330
1F
100
AcDbEntity
  8
D-0
  6
Continuous
 62
     7
370
     5
100
AcDbLine
 10
-507.8141033327256
 20
-316.0730591335812
 30
0.0
 11
-509.3141328966294
 21
-316.0730591335812
 31
0.0
  0
LINE
  5
260
330
1F
100
AcDbEntity
  8
D-0
  6
Continuous
 62
     7
370
     5
100
AcDbLine
 10
-564.6026289140855
 20
-341.7427959957638
 30
0.0
 11
-564.6026289140855
 21
-340.2425137081661
 31
0.0
  0
LINE
  5
261
330
1F
100
AcDbEntity
  8
D-0
  6
Continuous
 62
     7
370
     5
100
AcDbLine
 10
-564.6026289140855
 20
-340.2425137081661
 30
0.0
 11
-563.1025945818101
 21
-340.2425137081661
 31
0.0
  0
LINE
  5
262
330
1F
100
AcDbEntity
  8
D-0
  6
Continuous
 62
     7
370
     5
100
AcDbLine
 10
-563.1025945818101
 20
-340.2425137081661
 30
0.0
 11
-563.1025945818101
 21
-341.7427959957638
 31
0.0
  0
LINE
  5
263
330
1F
100
AcDbEntity
  8
D-0
  6
Continuous
 62
     7
370
     5
100
AcDbLine
 10
-563.1025945818101
 20
-341.7427959957638
 30
0.0
 11
-564.6026289140855
 21
-341.7427959957638
 31
0.0
  0
LINE
  5
264
330
1F
100
AcDbEntity
  8
D-0
  6
Continuous
 62
     7
370
     5
100
AcDbLine
 10
-539.6603548204575
 20
-315.241660169653
 30
0.0
 11
-539.6603548204575
 21
-313.7413778820553
 31
0.0
  0
LINE
  5
265
330
1F
100
AcDbEntity
  8
D-0
  6
Continuous
 62
     7
370
     5
100
AcDbLine
 10
-539.6603548204575
 20
-313.7413778820553
 30
0.0
 11
-538.1603252565537
 21
-313.7413778820553
 31
0.0
  0
LINE
  5
266
330
1F
100
AcDbEntity
  8
D-0
  6
Continuous
 62
     7
370
     5
100
AcDbLine
 10
-538.1603252565537
 20
-313.7413778820553
 30
0.0
 11
-538.1603252565537
 21
-315.241660169653
 31
0.0
  0
LINE
  5
267
330
1F
100
AcDbEntity
  8
D-0
  6
Continuous
 62
     7
370
     5
100
AcDbLine
 10
-538.1603252565537
 20
-315.241660169653
 30
0.0
 11
-539.6603548204575
 21
-315.241660169653
 31
0.0
  0
LINE
  5
268
330
1F
100
AcDbEntity
  8
D-0
  6
Continuous
 62
     7
370
     5
100
AcDbLine
 10
-491.5427839433823
 20
-347.6666203060665
 30
0.0
 11
-491.5427839433823
 21
-346.1663380184689
 31
0.0
  0
LINE
  5
269
330
1F
100
AcDbEntity
  8
D-0
  6
Continuous
 62
     7
370
     5
100
AcDbLine
 10
-491.5427839433823
 20
-346.1663380184689
 30
0.0
 11
-490.0427519952927
 21
-346.1663380184689
 31
0.0
  0
LINE
  5
26A
330
1F
100
AcDbEntity
  8
D-0
  6
Continuous
 62
     7
370
     5
100
AcDbLine
 10
-490.0427519952927
 20
-346.1663380184689
 30
0.0
 11
-490.0427519952927
 21
-347.6666203060665
 31
0.0
  0
LINE
  5
26B
330
1F
100
AcDbEntity
  8
D-0
  6
Continuous
 62
     7
370
     5
100
AcDbLine
 10
-490.0427519952927
 20
-347.6666203060665
 30
0.0
 11
-491.5427839433823
 21
-347.6666203060665
 31
0.0
  0
LINE
  5
26C
330
1F
100
AcDbEntity
  8
D-0
  6
Continuous
 62
     7
370
     5
100
AcDbLine
 10
-562.6280557787095
 20
-385.1835194149533
 30
0.0
 11
-562.6280557787095
 21
-383.6832371273556
 31
0.0
  0
LINE
  5
26D
330
1F
100
AcDbEntity
  8
D-0
  6
Continuous
 62
     7
370
     5
100
AcDbLine
 10
-562.6280557787095
 20
-383.6832371273556
 30
0.0
 11
-561.1280309831773
 21
-383.6832371273556
 31
0.0
  0
LINE
  5
26E
330
1F
100
AcDbEntity
  8
D-0
  6
Continuous
 62
     7
370
     5
100
AcDbLine
 10
-561.1280309831773
 20
-383.6832371273556
 30
0.0
 11
-561.1280309831773
 21
-385.1835194149533
 31
0.0
  0
LINE
  5
26F
330
1F
100
AcDbEntity
  8
D-0
  6
Continuous
 62
     7
370
     5
100
AcDbLine
 10
-561.1280309831773
 20
-385.1835194149533
 30
0.0
 11
-562.6280557787095
 21
-385.1835194149533
 31
0.0
  0
LINE
  5
270
330
1F
100
AcDbEntity
  8
D-0
  6
Continuous
 62
     7
370
     5
100
AcDbLine
 10
-503.3903085863267
 20
-489.8369350948849
 30
0.0
 11
-503.3903085863267
 21
-488.3366528072872
 31
0.0
  0
LINE
  5
271
330
1F
100
AcDbEntity
  8
D-0
  6
Continuous
 62
     7
370
     5
100
AcDbLine
 10
-503.3903085863267
 20
-488.3366528072872
 30
0.0
 11
-501.8902790224229
 21
-488.3366528072872
 31
0.0
  0
LINE
  5
272
330
1F
100
AcDbEntity
  8
D-0
  6
Continuous
 62
     7
370
     5
100
AcDbLine
 10
-501.8902790224229
 20
-488.3366528072872
 30
0.0
 11
-501.8902790224229
 21
-489.8369350948849
 31
0.0
  0
LINE
  5
273
330
1F
100
AcDbEntity
  8
D-0
  6
Continuous
 62
     7
370
     5
100
AcDbLine
 10
-501.8902790224229
 20
-489.8369350948849
 30
0.0
 11
-503.3903085863267
 21
-489.8369350948849
 31
0.0
  0
LINE
  5
274
330
1F
100
AcDbEntity
  8
D-0
  6
Continuous
 62
     7
370
     5
100
AcDbLine
 10
-517.2125255739365
 20
-549.0746822872677
 30
0.0
 11
-517.2125255739365
 21
-547.57439999967
 31
0.0
  0
LINE
  5
275
330
1F
100
AcDbEntity
  8
D-0
  6
Continuous
 62
     7
370
     5
100
AcDbLine
 10
-517.2125255739365
 20
-547.57439999967
 30
0.0
 11
-515.7124912416612
 21
-547.57439999967
 31
0.0
  0
LINE
  5
276
330
1F
100
AcDbEntity
  8
D-0
  6
Continuous
 62
     7
370
     5
100
AcDbLine
 10
-515.7124912416612
 20
-547.57439999967
 30
0.0
 11
-515.7124912416612
 21
-549.0746822872677
 31
0.0
  0
LINE
  5
277
330
1F
100
AcDbEntity
  8
D-0
  6
Continuous
 62
     7
370
     5
100
AcDbLine
 10
-515.7124912416612
 20
-549.0746822872677
 30
0.0
 11
-517.2125255739365
 21
-549.0746822872677
 31
0.0
  0
LINE
  5
278
330
1F
100
AcDbEntity
  8
D-0
  6
Continuous
 62
     7
370
     5
100
AcDbLine
 10
-547.8187429582749
 20
-559.9348774471798
 30
0.0
 11
-547.8187429582749
 21
-558.4345951595822
 31
0.0
  0
LINE
  5
279
330
1F
100
AcDbEntity
  8
D-0
  6
Continuous
 62
     7
370
     5
100
AcDbLine
 10
-547.8187429582749
 20
-558.4345951595822
 30
0.0
 11
-546.3187181627427
 21
-558.4345951595822
 31
0.0
  0
LINE
  5
27A
330
1F
100
AcDbEntity
  8
D-0
  6
Continuous
 62
     7
370
     5
100
AcDbLine
 10
-546.3187181627427
 20
-558.4345951595822
 30
0.0
 11
-546.3187181627427
 21
-559.9348774471798
 31
0.0
  0
LINE
  5
27B
330
1F
100
AcDbEntity
  8
D-0
  6
Continuous
 62
     7
370
     5
100
AcDbLine
 10
-546.3187181627427
 20
-559.9348774471798
 30
0.0
 11
-547.8187429582749
 21
-559.9348774471798
 31
0.0
  0
LINE
  5
27C
330
1F
100
AcDbEntity
  8
D-0
  6
Continuous
 62
     7
370
     5
100
AcDbLine
 10
-570.6722414171372
 20
-493.7863102474728
 30
0.0
 11
-570.6722414171372
 21
-492.2860279598751
 31
0.0
  0
LINE
  5
27D
330
1F
100
AcDbEntity
  8
D-0
  6
Continuous
 62
     7
370
     5
100
AcDbLine
 10
-570.6722414171372
 20
-492.2860279598751
 30
0.0
 11
-569.1722070848618
 21
-492.2860279598751
 31
0.0
  0
LINE
  5
27E
330
1F
100
AcDbEntity
  8
D-0
  6
Continuous
 62
     7
370
     5
100
AcDbLine
 10
-569.1722070848618
 20
-492.2860279598751
 30
0.0
 11
-569.1722070848618
 21
-493.7863102474728
 31
0.0
  0
LINE
  5
27F
330
1F
100
AcDbEntity
  8
D-0
  6
Continuous
 62
     7
370
     5
100
AcDbLine
 10
-569.1722070848618
 20
-493.7863102474728
 30
0.0
 11
-570.6722414171372
 21
-493.7863102474728
 31
0.0
  0
LINE
  5
280
330
1F
100
AcDbEntity
  8
D-0
  6
Continuous
 62
     7
370
     5
100
AcDbLine
 10
-544.8567068254624
 20
-472.0659580746212
 30
0.0
 11
-544.8567068254624
 21
-470.5656757870236
 31
0.0
  0
LINE
  5
281
330
1F
100
AcDbEntity
  8
D-0
  6
Continuous
 62
     7
370
     5
100
AcDbLine
 10
-544.8567068254624
 20
-470.5656757870236
 30
0.0
 11
-543.3566820299302
 21
-470.5656757870236
 31
0.0
  0
LINE
  5
282
330
1F
100
AcDbEntity
  8
D-0
  6
Continuous
 62
     7
370
     5
100
AcDbLine
 10
-543.3566820299302
 20
-470.5656757870236
 30
0.0
 11
-543.3566820299302
 21
-472.0659580746212
 31
0.0
  0
LINE
  5
283
330
1F
100
AcDbEntity
  8
D-0
  6
Continuous
 62
     7
370
     5
100
AcDbLine
 10
-543.3566820299302
 20
-472.0659580746212
 30
0.0
 11
-544.8567068254624
 21
-472.0659580746212
 31
0.0
  0
LINE
  5
284
330
1F
100
AcDbEntity
  8
D-0
  6
Continuous
 62
     7
370
     5
100
AcDbLine
 10
-481.6698252832566
 20
-524.5588818111935
 30
0.0
 11
-481.6698252832566
 21
-523.0585995235958
 31
0.0
  0
LINE
  5
285
330
1F
100
AcDbEntity
  8
D-0
  6
Continuous
 62
     7
370
     5
100
AcDbLine
 10
-481.6698252832566
 20
-523.0585995235958
 30
0.0
 11
-480.169793335167
 21
-523.0585995235958
 31
0.0
  0
LINE
  5
286
330
1F
100
AcDbEntity
  8
D-0
  6
Continuous
 62
     7
370
     5
100
AcDbLine
 10
-480.169793335167
 20
-523.0585995235958
 30
0.0
 11
-480.169793335167
 21
-524.5588818111935
 31
0.0
  0
LINE
  5
287
330
1F
100
AcDbEntity
  8
D-0
  6
Continuous
 62
     7
370
     5
100
AcDbLine
 10
-480.169793335167
 20
-524.5588818111935
 30
0.0
 11
-481.6698252832566
 21
-524.5588818111935
 31
0.0
  0
LINE
  5
288
330
1F
100
AcDbEntity
  8
D-0
  6
Continuous
 62
     7
370
     5
100
AcDbLine
 10
-558.6789285814439
 20
-662.4379292049923
 30
0.0
 11
-558.6789285814439
 21
-660.9376469173947
 31
0.0
  0
LINE
  5
289
330
1F
100
AcDbEntity
  8
D-0
  6
Continuous
 62
     7
370
     5
100
AcDbLine
 10
-558.6789285814439
 20
-660.9376469173947
 30
0.0
 11
-557.1788942491685
 21
-660.9376469173947
 31
0.0
  0
LINE
  5
28A
330
1F
100
AcDbEntity
  8
D-0
  6
Continuous
 62
     7
370
     5
100
AcDbLine
 10
-557.1788942491685
 20
-660.9376469173947
 30
0.0
 11
-557.1788942491685
 21
-662.4379292049923
 31
0.0
  0
LINE
  5
28B
330
1F
100
AcDbEntity
  8
D-0
  6
Continuous
 62
     7
370
     5
100
AcDbLine
 10
-557.1788942491685
 20
-662.4379292049923
 30
0.0
 11
-558.6789285814439
 21
-662.4379292049923
 31
0.0
  0
LINE
  5
28C
330
1F
100
AcDbEntity
  8
D-0
  6
Continuous
 62
     7
370
     5
100
AcDbLine
 10
-488.2886683618699
 20
-666.1499729671993
 30
0.0
 11
-488.2886683618699
 21
-664.6496906796017
 31
0.0
  0
LINE
  5
28D
330
1F
100
AcDbEntity
  8
D-0
  6
Continuous
 62
     7
370
     5
100
AcDbLine
 10
-488.2886683618699
 20
-664.6496906796017
 30
0.0
 11
-486.7886364137803
 21
-664.6496906796017
 31
0.0
  0
LINE
  5
28E
330
1F
100
AcDbEntity
  8
D-0
  6
Continuous
 62
     7
370
     5
100
AcDbLine
 10
-486.7886364137803
 20
-664.6496906796017
 30
0.0
 11
-486.7886364137803
 21
-666.1499729671993
 31
0.0
  0
LINE
  5
28F
330
1F
100
AcDbEntity
  8
D-0
  6
Continuous
 62
     7
370
     5
100
AcDbLine
 10
-486.7886364137803
 20
-666.1499729671993
 30
0.0
 11
-488.2886683618699
 21
-666.1499729671993
 31
0.0
  0
LINE
  5
290
330
1F
100
AcDbEntity
  8
D-0
  6
Continuous
 62
     7
370
     5
100
AcDbLine
 10
-463.898474243847
 20
-692.0565739193478
 30
0.0
 11
-463.898474243847
 21
-690.5562916317501
 31
0.0
  0
LINE
  5
291
330
1F
100
AcDbEntity
  8
D-0
  6
Continuous
 62
     7
370
     5
100
AcDbLine
 10
-463.898474243847
 20
-690.5562916317501
 30
0.0
 11
-462.398442444769
 21
-690.5562916317501
 31
0.0
  0
LINE
  5
292
330
1F
100
AcDbEntity
  8
D-0
  6
Continuous
 62
     7
370
     5
100
AcDbLine
 10
-462.398442444769
 20
-690.5562916317501
 30
0.0
 11
-462.398442444769
 21
-692.0565739193478
 31
0.0
  0
LINE
  5
293
330
1F
100
AcDbEntity
  8
D-0
  6
Continuous
 62
     7
370
     5
100
AcDbLine
 10
-462.398442444769
 20
-692.0565739193478
 30
0.0
 11
-463.898474243847
 21
-692.0565739193478
 31
0.0
  0
LINE
  5
294
330
1F
100
AcDbEntity
  8
D-0
  6
Continuous
 62
     7
370
     5
100
AcDbLine
 10
-457.6196461593781
 20
-730.2685871639767
 30
0.0
 11
-457.6196461593781
 21
-728.768304876379
 31
0.0
  0
LINE
  5
295
330
1F
100
AcDbEntity
  8
D-0
  6
Continuous
 62
     7
370
     5
100
AcDbLine
 10
-457.6196461593781
 20
-728.768304876379
 30
0.0
 11
-456.1196145093118
 21
-728.768304876379
 31
0.0
  0
LINE
  5
296
330
1F
100
AcDbEntity
  8
D-0
  6
Continuous
 62
     7
370
     5
100
AcDbLine
 10
-456.1196145093118
 20
-728.768304876379
 30
0.0
 11
-456.1196145093118
 21
-730.2685871639767
 31
0.0
  0
LINE
  5
297
330
1F
100
AcDbEntity
  8
D-0
  6
Continuous
 62
     7
370
     5
100
AcDbLine
 10
-456.1196145093118
 20
-730.2685871639767
 30
0.0
 11
-457.6196461593781
 21
-730.2685871639767
 31
0.0
  0
LINE
  5
298
330
1F
100
AcDbEntity
  8
D-0
  6
Continuous
 62
     7
370
     5
100
AcDbLine
 10
-531.8481790697251
 20
-735.7271900692501
 30
0.0
 11
-531.8481790697251
 21
-734.2269077816525
 31
0.0
  0
LINE
  5
299
330
1F
100
AcDbEntity
  8
D-0
  6
Continuous
 62
     7
370
     5
100
AcDbLine
 10
-531.8481790697251
 20
-734.2269077816525
 30
0.0
 11
-530.3481447374497
 21
-734.2269077816525
 31
0.0
  0
LINE
  5
29A
330
1F
100
AcDbEntity
  8
D-0
  6
Continuous
 62
     7
370
     5
100
AcDbLine
 10
-530.3481447374497
 20
-734.2269077816525
 30
0.0
 11
-530.3481447374497
 21
-735.7271900692501
 31
0.0
  0
LINE
  5
29B
330
1F
100
AcDbEntity
  8
D-0
  6
Continuous
 62
     7
370
     5
100
AcDbLine
 10
-530.3481447374497
 20
-735.7271900692501
 30
0.0
 11
-531.8481790697251
 21
-735.7271900692501
 31
0.0
  0
LINE
  5
29C
330
1F
100
AcDbEntity
  8
D-0
  6
Continuous
 62
     7
370
     5
100
AcDbLine
 10
-566.5771925127183
 20
-726.4306965389767
 30
0.0
 11
-566.5771925127183
 21
-724.930414251379
 31
0.0
  0
LINE
  5
29D
330
1F
100
AcDbEntity
  8
D-0
  6
Continuous
 62
     7
370
     5
100
AcDbLine
 10
-566.5771925127183
 20
-724.930414251379
 30
0.0
 11
-565.0771581804429
 21
-724.930414251379
 31
0.0
  0
LINE
  5
29E
330
1F
100
AcDbEntity
  8
D-0
  6
Continuous
 62
     7
370
     5
100
AcDbLine
 10
-565.0771581804429
 20
-724.930414251379
 30
0.0
 11
-565.0771581804429
 21
-726.4306965389767
 31
0.0
  0
LINE
  5
29F
330
1F
100
AcDbEntity
  8
D-0
  6
Continuous
 62
     7
370
     5
100
AcDbLine
 10
-565.0771581804429
 20
-726.4306965389767
 30
0.0
 11
-566.5771925127183
 21
-726.4306965389767
 31
0.0
  0
LINE
  5
2A0
330
1F
100
AcDbEntity
  8
D-0
  6
Continuous
 62
     7
370
     5
100
AcDbLine
 10
-568.7885915910874
 20
-686.1327305355587
 30
0.0
 11
-568.7885915910874
 21
-684.6324482479611
 31
0.0
  0
LINE
  5
2A1
330
1F
100
AcDbEntity
  8
D-0
  6
Continuous
 62
     7
370
     5
100
AcDbLine
 10
-568.7885915910874
 20
-684.6324482479611
 30
0.0
 11
-567.2885667955552
 21
-684.6324482479611
 31
0.0
  0
LINE
  5
2A2
330
1F
100
AcDbEntity
  8
D-0
  6
Continuous
 62
     7
370
     5
100
AcDbLine
 10
-567.2885667955552
 20
-684.6324482479611
 30
0.0
 11
-567.2885667955552
 21
-686.1327305355587
 31
0.0
  0
LINE
  5
2A3
330
1F
100
AcDbEntity
  8
D-0
  6
Continuous
 62
     7
370
     5
100
AcDbLine
 10
-567.2885667955552
 20
-686.1327305355587
 30
0.0
 11
-568.7885915910874
 21
-686.1327305355587
 31
0.0
  0
LINE
  5
2A4
330
1F
100
AcDbEntity
  8
D-0
  6
Continuous
 62
     7
370
     5
100
AcDbLine
 10
-511.2887012636338
 20
-705.8786716976681
 30
0.0
 11
-511.2887012636338
 21
-704.3783894100704
 31
0.0
  0
LINE
  5
2A5
330
1F
100
AcDbEntity
  8
D-0
  6
Continuous
 62
     7
370
     5
100
AcDbLine
 10
-511.2887012636338
 20
-704.3783894100704
 30
0.0
 11
-509.7886669313584
 21
-704.3783894100704
 31
0.0
  0
LINE
  5
2A6
330
1F
100
AcDbEntity
  8
D-0
  6
Continuous
 62
     7
370
     5
100
AcDbLine
 10
-509.7886669313584
 20
-704.3783894100704
 30
0.0
 11
-509.7886669313584
 21
-705.8786716976681
 31
0.0
  0
LINE
  5
2A7
330
1F
100
AcDbEntity
  8
D-0
  6
Continuous
 62
     7
370
     5
100
AcDbLine
 10
-509.7886669313584
 20
-705.8786716976681
 30
0.0
 11
-511.2887012636338
 21
-705.8786716976681
 31
0.0
  0
LINE
  5
2A8
330
1F
100
AcDbEntity
  8
D-0
  6
Continuous
 62
     7
370
     5
100
AcDbLine
 10
-523.1362259065781
 20
-672.3106327572384
 30
0.0
 11
-523.1362259065781
 21
-670.8103504696408
 31
0.0
  0
LINE
  5
2A9
330
1F
100
AcDbEntity
  8
D-0
  6
Continuous
 62
     7
370
     5
100
AcDbLine
 10
-523.1362259065781
 20
-670.8103504696408
 30
0.0
 11
-521.6361915743028
 21
-670.8103504696408
 31
0.0
  0
LINE
  5
2AA
330
1F
100
AcDbEntity
  8
D-0
  6
Continuous
 62
     7
370
     5
100
AcDbLine
 10
-521.6361915743028
 20
-670.8103504696408
 30
0.0
 11
-521.6361915743028
 21
-672.3106327572384
 31
0.0
  0
LINE
  5
2AB
330
1F
100
AcDbEntity
  8
D-0
  6
Continuous
 62
     7
370
     5
100
AcDbLine
 10
-521.6361915743028
 20
-672.3106327572384
 30
0.0
 11
-523.1362259065781
 21
-672.3106327572384
 31
0.0
  0
LINE
  5
2AC
330
1F
100
AcDbEntity
  8
D-0
  6
Continuous
 62
     7
370
     5
100
AcDbLine
 10
-467.8477316772614
 20
-558.1269016781368
 30
0.0
 11
-467.8477316772614
 21
-556.6266193905392
 31
0.0
  0
LINE
  5
2AD
330
1F
100
AcDbEntity
  8
D-0
  6
Continuous
 62
     7
370
     5
100
AcDbLine
 10
-467.8477316772614
 20
-556.6266193905392
 30
0.0
 11
-466.3477003252183
 21
-556.6266193905392
 31
0.0
  0
LINE
  5
2AE
330
1F
100
AcDbEntity
  8
D-0
  6
Continuous
 62
     7
370
     5
100
AcDbLine
 10
-466.3477003252183
 20
-556.6266193905392
 30
0.0
 11
-466.3477003252183
 21
-558.1269016781368
 31
0.0
  0
LINE
  5
2AF
330
1F
100
AcDbEntity
  8
D-0
  6
Continuous
 62
     7
370
     5
100
AcDbLine
 10
-466.3477003252183
 20
-558.1269016781368
 30
0.0
 11
-467.8477316772614
 21
-558.1269016781368
 31
0.0
  0
LINE
  5
2B0
330
1F
100
AcDbEntity
  8
D-0
  6
Continuous
 62
     7
370
     5
100
AcDbLine
 10
-456.0002064382707
 20
-458.2433643856564
 30
0.0
 11
-456.0002064382707
 21
-456.7430820980587
 31
0.0
  0
LINE
  5
2B1
330
1F
100
AcDbEntity
  8
D-0
  6
Continuous
 62
     7
370
     5
100
AcDbLine
 10
-456.0002064382707
 20
-456.7430820980587
 30
0.0
 11
-454.5001744901811
 21
-456.7430820980587
 31
0.0
  0
LINE
  5
2B2
330
1F
100
AcDbEntity
  8
D-0
  6
Continuous
 62
     7
370
     5
100
AcDbLine
 10
-454.5001744901811
 20
-456.7430820980587
 30
0.0
 11
-454.5001744901811
 21
-458.2433643856564
 31
0.0
  0
LINE
  5
2B3
330
1F
100
AcDbEntity
  8
D-0
  6
Continuous
 62
     7
370
     5
100
AcDbLine
 10
-454.5001744901811
 20
-458.2433643856564
 30
0.0
 11
-456.0002064382707
 21
-458.2433643856564
 31
0.0
  0
LINE
  5
2B4
330
1F
100
AcDbEntity
  8
D-0
  6
Continuous
 62
     7
370
     5
100
AcDbLine
 10
-361.2198793565904
 20
-466.1421146908322
 30
0.0
 11
-361.2198793565904
 21
-464.6418514767208
 31
0.0
  0
LINE
  5
2B5
330
1F
100
AcDbEntity
  8
D-0
  6
Continuous
 62
     7
370
     5
100
AcDbLine
 10
-361.2198793565904
 20
-464.6418514767208
 30
0.0
 11
-359.719845024315
 21
-464.6418514767208
 31
0.0
  0
LINE
  5
2B6
330
1F
100
AcDbEntity
  8
D-0
  6
Continuous
 62
     7
370
     5
100
AcDbLine
 10
-359.719845024315
 20
-464.6418514767208
 30
0.0
 11
-359.719845024315
 21
-466.1421146908322
 31
0.0
  0
LINE
  5
2B7
330
1F
100
AcDbEntity
  8
D-0
  6
Continuous
 62
     7
370
     5
100
AcDbLine
 10
-359.719845024315
 20
-466.1421146908322
 30
0.0
 11
-361.2198793565904
 21
-466.1421146908322
 31
0.0
  0
LINE
  5
2B8
330
1F
100
AcDbEntity
  8
D-0
  6
Continuous
 62
     7
370
     5
100
AcDbLine
 10
-414.533807007042
 20
-462.1927395382443
 30
0.0
 11
-414.533807007042
 21
-460.6924572506466
 31
0.0
  0
LINE
  5
2B9
330
1F
100
AcDbEntity
  8
D-0
  6
Continuous
 62
     7
370
     5
100
AcDbLine
 10
-414.533807007042
 20
-460.6924572506466
 30
0.0
 11
-413.0337726747666
 21
-460.6924572506466
 31
0.0
  0
LINE
  5
2BA
330
1F
100
AcDbEntity
  8
D-0
  6
Continuous
 62
     7
370
     5
100
AcDbLine
 10
-413.0337726747666
 20
-460.6924572506466
 30
0.0
 11
-413.0337726747666
 21
-462.1927395382443
 31
0.0
  0
LINE
  5
2BB
330
1F
100
AcDbEntity
  8
D-0
  6
Continuous
 62
     7
370
     5
100
AcDbLine
 10
-413.0337726747666
 20
-462.1927395382443
 30
0.0
 11
-414.533807007042
 21
-462.1927395382443
 31
0.0
  0
LINE
  5
2BC
330
1F
100
AcDbEntity
  8
D-0
  6
Continuous
 62
     7
370
     5
100
AcDbLine
 10
-264.4648611223374
 20
-432.5741138973751
 30
0.0
 11
-264.4648611223374
 21
-431.0738316097775
 31
0.0
  0
LINE
  5
2BD
330
1F
100
AcDbEntity
  8
D-0
  6
Continuous
 62
     7
370
     5
100
AcDbLine
 10
-264.4648611223374
 20
-431.0738316097775
 30
0.0
 11
-262.964826790062
 21
-431.0738316097775
 31
0.0
  0
LINE
  5
2BE
330
1F
100
AcDbEntity
  8
D-0
  6
Continuous
 62
     7
370
     5
100
AcDbLine
 10
-262.964826790062
 20
-431.0738316097775
 30
0.0
 11
-262.964826790062
 21
-432.5741138973751
 31
0.0
  0
LINE
  5
2BF
330
1F
100
AcDbEntity
  8
D-0
  6
Continuous
 62
     7
370
     5
100
AcDbLine
 10
-262.964826790062
 20
-432.5741138973751
 30
0.0
 11
-264.4648611223374
 21
-432.5741138973751
 31
0.0
  0
LINE
  5
2C0
330
1F
100
AcDbEntity
  8
D-0
  6
Continuous
 62
     7
370
     5
100
AcDbLine
 10
-333.5755693590318
 20
-268.6829534092465
 30
0.0
 11
-333.5755693590318
 21
-267.1826735058346
 31
0.0
  0
LINE
  5
2C1
330
1F
100
AcDbEntity
  8
D-0
  6
Continuous
 62
     7
370
     5
100
AcDbLine
 10
-333.5755693590318
 20
-267.1826735058346
 30
0.0
 11
-332.0755350267564
 21
-267.1826735058346
 31
0.0
  0
LINE
  5
2C2
330
1F
100
AcDbEntity
  8
D-0
  6
Continuous
 62
     7
370
     5
100
AcDbLine
 10
-332.0755350267564
 20
-267.1826735058346
 30
0.0
 11
-332.0755350267564
 21
-268.6829534092465
 31
0.0
  0
LINE
  5
2C3
330
1F
100
AcDbEntity
  8
D-0
  6
Continuous
 62
     7
370
     5
100
AcDbLine
 10
-332.0755350267564
 20
-268.6829534092465
 30
0.0
 11
-333.5755693590318
 21
-268.6829534092465
 31
0.0
  0
LINE
  5
2C4
330
1F
100
AcDbEntity
  8
D-0
  6
Continuous
 62
     7
370
     5
100
AcDbLine
 10
-548.8059675371323
 20
-521.4304867306271
 30
0.0
 11
-548.8059675371323
 21
-519.9302235165158
 31
0.0
  0
LINE
  5
2C5
330
1F
100
AcDbEntity
  8
D-0
  6
Continuous
 62
     7
370
     5
100
AcDbLine
 10
-548.8059675371323
 20
-519.9302235165158
 30
0.0
 11
-547.305933204857
 21
-519.9302235165158
 31
0.0
  0
LINE
  5
2C6
330
1F
100
AcDbEntity
  8
D-0
  6
Continuous
 62
     7
370
     5
100
AcDbLine
 10
-547.305933204857
 20
-519.9302235165158
 30
0.0
 11
-547.305933204857
 21
-521.4304867306271
 31
0.0
  0
LINE
  5
2C7
330
1F
100
AcDbEntity
  8
D-0
  6
Continuous
 62
     7
370
     5
100
AcDbLine
 10
-547.305933204857
 20
-521.4304867306271
 30
0.0
 11
-548.8059675371323
 21
-521.4304867306271
 31
0.0
  0
LINE
  5
2C8
330
1F
100
AcDbEntity
  8
D-0
  6
Continuous
 62
     7
370
     5
100
AcDbLine
 10
-529.0600502168809
 20
-347.6666203060665
 30
0.0
 11
-529.0600502168809
 21
-346.1663380184689
 31
0.0
  0
LINE
  5
2C9
330
1F
100
AcDbEntity
  8
D-0
  6
Continuous
 62
     7
370
     5
100
AcDbLine
 10
-529.0600502168809
 20
-346.1663380184689
 30
0.0
 11
-527.5600206529771
 21
-346.1663380184689
 31
0.0
  0
LINE
  5
2CA
330
1F
100
AcDbEntity
  8
D-0
  6
Continuous
 62
     7
370
     5
100
AcDbLine
 10
-527.5600206529771
 20
-346.1663380184689
 30
0.0
 11
-527.5600206529771
 21
-347.6666203060665
 31
0.0
  0
LINE
  5
2CB
330
1F
100
AcDbEntity
  8
D-0
  6
Continuous
 62
     7
370
     5
100
AcDbLine
 10
-527.5600206529771
 20
-347.6666203060665
 30
0.0
 11
-529.0600502168809
 21
-347.6666203060665
 31
0.0
  0
LINE
  5
2CC
330
1F
100
AcDbEntity
  8
D-0
  6
Continuous
 62
     7
370
     5
100
AcDbLine
 10
-517.6850759660874
 20
-379.659532598547
 30
0.0
 11
-517.6850759660874
 21
-378.1592598476925
 31
0.0
  0
LINE
  5
2CD
330
1F
100
AcDbEntity
  8
D-0
  6
Continuous
 62
     7
370
     5
100
AcDbLine
 10
-517.6850759660874
 20
-378.1592598476925
 30
0.0
 11
-516.1850464021836
 21
-378.1592598476925
 31
0.0
  0
LINE
  5
2CE
330
1F
100
AcDbEntity
  8
D-0
  6
Continuous
 62
     7
370
     5
100
AcDbLine
 10
-516.1850464021836
 20
-378.1592598476925
 30
0.0
 11
-516.1850464021836
 21
-379.659532598547
 31
0.0
  0
LINE
  5
2CF
330
1F
100
AcDbEntity
  8
D-0
  6
Continuous
 62
     7
370
     5
100
AcDbLine
 10
-516.1850464021836
 20
-379.659532598547
 30
0.0
 11
-517.6850759660874
 21
-379.659532598547
 31
0.0
  0
LINE
  5
2D0
330
1F
100
AcDbEntity
  8
D-0
  6
Continuous
 62
     7
370
     5
100
AcDbLine
 10
-461.9240311956082
 20
-490.9908810177365
 30
0.0
 11
-461.9240311956082
 21
-489.4905987301388
 31
0.0
  0
LINE
  5
2D1
330
1F
100
AcDbEntity
  8
D-0
  6
Continuous
 62
     7
370
     5
100
AcDbLine
 10
-461.9240311956082
 20
-489.4905987301388
 30
0.0
 11
-460.4239994337831
 21
-489.4905987301388
 31
0.0
  0
LINE
  5
2D2
330
1F
100
AcDbEntity
  8
D-0
  6
Continuous
 62
     7
370
     5
100
AcDbLine
 10
-460.4239994337831
 20
-489.4905987301388
 30
0.0
 11
-460.4239994337831
 21
-490.9908810177365
 31
0.0
  0
LINE
  5
2D3
330
1F
100
AcDbEntity
  8
D-0
  6
Continuous
 62
     7
370
     5
100
AcDbLine
 10
-460.4239994337831
 20
-490.9908810177365
 30
0.0
 11
-461.9240311956082
 21
-490.9908810177365
 31
0.0
  0
LINE
  5
2D4
330
1F
100
AcDbEntity
  8
D-0
  6
Continuous
 62
     7
370
     5
100
AcDbLine
 10
-521.1616575395738
 20
-513.5322323360958
 30
0.0
 11
-521.1616575395738
 21
-512.0319500484982
 31
0.0
  0
LINE
  5
2D5
330
1F
100
AcDbEntity
  8
D-0
  6
Continuous
 62
     7
370
     5
100
AcDbLine
 10
-521.1616575395738
 20
-512.0319500484982
 30
0.0
 11
-519.66162797567
 21
-512.0319500484982
 31
0.0
  0
LINE
  5
2D6
330
1F
100
AcDbEntity
  8
D-0
  6
Continuous
 62
     7
370
     5
100
AcDbLine
 10
-519.66162797567
 20
-512.0319500484982
 30
0.0
 11
-519.66162797567
 21
-513.5322323360958
 31
0.0
  0
LINE
  5
2D7
330
1F
100
AcDbEntity
  8
D-0
  6
Continuous
 62
     7
370
     5
100
AcDbLine
 10
-519.66162797567
 20
-513.5322323360958
 30
0.0
 11
-521.1616575395738
 21
-513.5322323360958
 31
0.0
  0
LINE
  5
2D8
330
1F
100
AcDbEntity
  8
D-0
  6
Continuous
 62
     7
370
     5
100
AcDbLine
 10
-509.3141328966294
 20
-586.5920582333126
 30
0.0
 11
-509.3141328966294
 21
-585.091775945715
 31
0.0
  0
LINE
  5
2D9
330
1F
100
AcDbEntity
  8
D-0
  6
Continuous
 62
     7
370
     5
100
AcDbLine
 10
-509.3141328966294
 20
-585.091775945715
 30
0.0
 11
-507.8141033327256
 21
-585.091775945715
 31
0.0
  0
LINE
  5
2DA
330
1F
100
AcDbEntity
  8
D-0
  6
Continuous
 62
     7
370
     5
100
AcDbLine
 10
-507.8141033327256
 20
-585.091775945715
 30
0.0
 11
-507.8141033327256
 21
-586.5920582333126
 31
0.0
  0
LINE
  5
2DB
330
1F
100
AcDbEntity
  8
D-0
  6
Continuous
 62
     7
370
     5
100
AcDbLine
 10
-507.8141033327256
 20
-586.5920582333126
 30
0.0
 11
-509.3141328966294
 21
-586.5920582333126
 31
0.0
  0
LINE
  5
2DC
330
1F
100
AcDbEntity
  8
D-0
  6
Continuous
 62
     7
370
     5
100
AcDbLine
 10
-557.691332069603
 20
-585.6045856991329
 30
0.0
 11
-557.691332069603
 21
-584.1043034115353
 31
0.0
  0
LINE
  5
2DD
330
1F
100
AcDbEntity
  8
D-0
  6
Continuous
 62
     7
370
     5
100
AcDbLine
 10
-557.691332069603
 20
-584.1043034115353
 30
0.0
 11
-556.1912977373277
 21
-584.1043034115353
 31
0.0
  0
LINE
  5
2DE
330
1F
100
AcDbEntity
  8
D-0
  6
Continuous
 62
     7
370
     5
100
AcDbLine
 10
-556.1912977373277
 20
-584.1043034115353
 30
0.0
 11
-556.1912977373277
 21
-585.6045856991329
 31
0.0
  0
LINE
  5
2DF
330
1F
100
AcDbEntity
  8
D-0
  6
Continuous
 62
     7
370
     5
100
AcDbLine
 10
-556.1912977373277
 20
-585.6045856991329
 30
0.0
 11
-557.691332069603
 21
-585.6045856991329
 31
0.0
  0
LINE
  5
2E0
330
1F
100
AcDbEntity
  8
D-0
  6
Continuous
 62
     7
370
     5
100
AcDbLine
 10
-544.7384130632554
 20
-704.7103443661251
 30
0.0
 11
-544.7384130632554
 21
-703.2100620785275
 31
0.0
  0
LINE
  5
2E1
330
1F
100
AcDbEntity
  8
D-0
  6
Continuous
 62
     7
370
     5
100
AcDbLine
 10
-544.7384130632554
 20
-703.2100620785275
 30
0.0
 11
-543.2383882677232
 21
-703.2100620785275
 31
0.0
  0
LINE
  5
2E2
330
1F
100
AcDbEntity
  8
D-0
  6
Continuous
 62
     7
370
     5
100
AcDbLine
 10
-543.2383882677232
 20
-703.2100620785275
 30
0.0
 11
-543.2383882677232
 21
-704.7103443661251
 31
0.0
  0
LINE
  5
2E3
330
1F
100
AcDbEntity
  8
D-0
  6
Continuous
 62
     7
370
     5
100
AcDbLine
 10
-543.2383882677232
 20
-704.7103443661251
 30
0.0
 11
-544.7384130632554
 21
-704.7103443661251
 31
0.0
  0
LINE
  5
2E4
330
1F
100
AcDbEntity
  8
D-0
  6
Continuous
 62
     7
370
     5
100
AcDbLine
 10
-494.2126166498338
 20
-734.2179813900509
 30
0.0
 11
-494.2126166498338
 21
-732.7176991024533
 31
0.0
  0
LINE
  5
2E5
330
1F
100
AcDbEntity
  8
D-0
  6
Continuous
 62
     7
370
     5
100
AcDbLine
 10
-494.2126166498338
 20
-732.7176991024533
 30
0.0
 11
-492.7125847017442
 21
-732.7176991024533
 31
0.0
  0
LINE
  5
2E6
330
1F
100
AcDbEntity
  8
D-0
  6
Continuous
 62
     7
370
     5
100
AcDbLine
 10
-492.7125847017442
 20
-732.7176991024533
 30
0.0
 11
-492.7125847017442
 21
-734.2179813900509
 31
0.0
  0
LINE
  5
2E7
330
1F
100
AcDbEntity
  8
D-0
  6
Continuous
 62
     7
370
     5
100
AcDbLine
 10
-492.7125847017442
 20
-734.2179813900509
 30
0.0
 11
-494.2126166498338
 21
-734.2179813900509
 31
0.0
  0
LINE
  5
2E8
330
1F
100
AcDbEntity
  8
D-0
  6
Continuous
 62
     7
370
     5
100
AcDbLine
 10
-457.9747734641705
 20
-658.4885349789181
 30
0.0
 11
-457.9747734641705
 21
-656.9882908382931
 31
0.0
  0
LINE
  5
2E9
330
1F
100
AcDbEntity
  8
D-0
  6
Continuous
 62
     7
370
     5
100
AcDbLine
 10
-457.9747734641705
 20
-656.9882908382931
 30
0.0
 11
-456.4747416650926
 21
-656.9882908382931
 31
0.0
  0
LINE
  5
2EA
330
1F
100
AcDbEntity
  8
D-0
  6
Continuous
 62
     7
370
     5
100
AcDbLine
 10
-456.4747416650926
 20
-656.9882908382931
 30
0.0
 11
-456.4747416650926
 21
-658.4885349789181
 31
0.0
  0
LINE
  5
2EB
330
1F
100
AcDbEntity
  8
D-0
  6
Continuous
 62
     7
370
     5
100
AcDbLine
 10
-456.4747416650926
 20
-658.4885349789181
 30
0.0
 11
-457.9747734641705
 21
-658.4885349789181
 31
0.0
  0
LINE
  5
2EC
330
1F
100
AcDbEntity
  8
D-0
  6
Continuous
 62
     7
370
     5
100
AcDbLine
 10
-575.0074731981431
 20
-540.4252758541622
 30
0.0
 11
-575.0074731981431
 21
-538.9249935665646
 31
0.0
  0
LINE
  5
2ED
330
1F
100
AcDbEntity
  8
D-0
  6
Continuous
 62
     7
370
     5
100
AcDbLine
 10
-575.0074731981431
 20
-538.9249935665646
 30
0.0
 11
-573.5074388658677
 21
-538.9249935665646
 31
0.0
  0
LINE
  5
2EE
330
1F
100
AcDbEntity
  8
D-0
  6
Continuous
 62
     7
370
     5
100
AcDbLine
 10
-573.5074388658677
 20
-538.9249935665646
 30
0.0
 11
-573.5074388658677
 21
-540.4252758541622
 31
0.0
  0
LINE
  5
2EF
330
1F
100
AcDbEntity
  8
D-0
  6
Continuous
 62
     7
370
     5
100
AcDbLine
 10
-573.5074388658677
 20
-540.4252758541622
 30
0.0
 11
-575.0074731981431
 21
-540.4252758541622
 31
0.0
  0
LINE
  5
2F0
330
1F
100
AcDbEntity
  8
D-0
  6
Continuous
 62
     7
370
     5
100
AcDbLine
 10
-232.5976621782456
 20
-388.6953964748898
 30
0.0
 11
-232.5976621782456
 21
-387.1951237240353
 31
0.0
  0
LINE
  5
2F1
330
1F
100
AcDbEntity
  8
D-0
  6
Continuous
 62
     7
370
     5
100
AcDbLine
 10
-232.5976621782456
 20
-387.1951237240353
 30
0.0
 11
-231.0976469194566
 21
-387.1951237240353
 31
0.0
  0
LINE
  5
2F2
330
1F
100
AcDbEntity
  8
D-0
  6
Continuous
 62
     7
370
     5
100
AcDbLine
 10
-231.0976469194566
 20
-387.1951237240353
 30
0.0
 11
-231.0976469194566
 21
-388.6953964748898
 31
0.0
  0
LINE
  5
2F3
330
1F
100
AcDbEntity
  8
D-0
  6
Continuous
 62
     7
370
     5
100
AcDbLine
 10
-231.0976469194566
 20
-388.6953964748898
 30
0.0
 11
-232.5976621782456
 21
-388.6953964748898
 31
0.0
  0
LINE
  5
2F4
330
1F
100
AcDbEntity
  8
D-0
  6
Continuous
 62
     7
370
     5
100
AcDbLine
 10
-458.0857583558236
 20
-584.1593113461056
 30
0.0
 11
-458.0857583558236
 21
-582.6590290585079
 31
0.0
  0
LINE
  5
2F5
330
1F
100
AcDbEntity
  8
D-0
  6
Continuous
 62
     7
370
     5
100
AcDbLine
 10
-458.0857583558236
 20
-582.6590290585079
 30
0.0
 11
-456.5857267057572
 21
-582.6590290585079
 31
0.0
  0
LINE
  5
2F6
330
1F
100
AcDbEntity
  8
D-0
  6
Continuous
 62
     7
370
     5
100
AcDbLine
 10
-456.5857267057572
 20
-582.6590290585079
 30
0.0
 11
-456.5857267057572
 21
-584.1593113461056
 31
0.0
  0
LINE
  5
2F7
330
1F
100
AcDbEntity
  8
D-0
  6
Continuous
 62
     7
370
     5
100
AcDbLine
 10
-456.5857267057572
 20
-584.1593113461056
 30
0.0
 11
-458.0857583558236
 21
-584.1593113461056
 31
0.0
  0
LINE
  5
2F8
330
1F
100
AcDbEntity
  8
D-0
  6
Continuous
 62
     7
370
     5
100
AcDbLine
 10
-482.8159677660142
 20
-707.5052967587033
 30
0.0
 11
-482.8159677660142
 21
-706.0050144711056
 31
0.0
  0
LINE
  5
2F9
330
1F
100
AcDbEntity
  8
D-0
  6
Continuous
 62
     7
370
     5
100
AcDbLine
 10
-482.8159677660142
 20
-706.0050144711056
 30
0.0
 11
-481.3159358179246
 21
-706.0050144711056
 31
0.0
  0
LINE
  5
2FA
330
1F
100
AcDbEntity
  8
D-0
  6
Continuous
 62
     7
370
     5
100
AcDbLine
 10
-481.3159358179246
 20
-706.0050144711056
 30
0.0
 11
-481.3159358179246
 21
-707.5052967587033
 31
0.0
  0
LINE
  5
2FB
330
1F
100
AcDbEntity
  8
D-0
  6
Continuous
 62
     7
370
     5
100
AcDbLine
 10
-481.3159358179246
 20
-707.5052967587033
 30
0.0
 11
-482.8159677660142
 21
-707.5052967587033
 31
0.0
  0
LINE
  5
2FC
330
1F
100
AcDbEntity
  8
D-0
  6
Continuous
 62
     7
370
     5
100
AcDbLine
 10
-241.8811475908433
 20
-460.1350536861935
 30
0.0
 11
-241.8811475908433
 21
-458.6347904720822
 31
0.0
  0
LINE
  5
2FD
330
1F
100
AcDbEntity
  8
D-0
  6
Continuous
 62
     7
370
     5
100
AcDbLine
 10
-241.8811475908433
 20
-458.6347904720822
 30
0.0
 11
-240.3811132585679
 21
-458.6347904720822
 31
0.0
  0
LINE
  5
2FE
330
1F
100
AcDbEntity
  8
D-0
  6
Continuous
 62
     7
370
     5
100
AcDbLine
 10
-240.3811132585679
 20
-458.6347904720822
 30
0.0
 11
-240.3811132585679
 21
-460.1350536861935
 31
0.0
  0
LINE
  5
2FF
330
1F
100
AcDbEntity
  8
D-0
  6
Continuous
 62
     7
370
     5
100
AcDbLine
 10
-240.3811132585679
 20
-460.1350536861935
 30
0.0
 11
-241.8811475908433
 21
-460.1350536861935
 31
0.0
  0
LINE
  5
300
330
1F
100
AcDbEntity
  8
D-0
  6
Continuous
 62
     7
370
     5
100
AcDbLine
 10
-454.5010417377625
 20
-381.6339817562618
 30
0.0
 11
-454.5010417377625
 21
-380.1336994686642
 31
0.0
  0
LINE
  5
301
330
1F
100
AcDbEntity
  8
D-0
  6
Continuous
 62
     7
370
     5
100
AcDbLine
 10
-454.5010417377625
 20
-380.1336994686642
 30
0.0
 11
-453.0010103857194
 21
-380.1336994686642
 31
0.0
  0
LINE
  5
302
330
1F
100
AcDbEntity
  8
D-0
  6
Continuous
 62
     7
370
     5
100
AcDbLine
 10
-453.0010103857194
 20
-380.1336994686642
 30
0.0
 11
-453.0010103857194
 21
-381.6339817562618
 31
0.0
  0
LINE
  5
303
330
1F
100
AcDbEntity
  8
D-0
  6
Continuous
 62
     7
370
     5
100
AcDbLine
 10
-453.0010103857194
 20
-381.6339817562618
 30
0.0
 11
-454.5010417377625
 21
-381.6339817562618
 31
0.0
  0
LINE
  5
304
330
1F
100
AcDbEntity
  8
D-0
  6
Continuous
 62
     7
370
     5
100
AcDbLine
 10
-541.6262934681072
 20
-425.919832645816
 30
0.0
 11
-541.6262934681072
 21
-424.4195598949615
 31
0.0
  0
LINE
  5
305
330
1F
100
AcDbEntity
  8
D-0
  6
Continuous
 62
     7
370
     5
100
AcDbLine
 10
-541.6262934681072
 20
-424.4195598949615
 30
0.0
 11
-540.1262639042034
 21
-424.4195598949615
 31
0.0
  0
LINE
  5
306
330
1F
100
AcDbEntity
  8
D-0
  6
Continuous
 62
     7
370
     5
100
AcDbLine
 10
-540.1262639042034
 20
-424.4195598949615
 30
0.0
 11
-540.1262639042034
 21
-425.919832645816
 31
0.0
  0
LINE
  5
307
330
1F
100
AcDbEntity
  8
D-0
  6
Continuous
 62
     7
370
     5
100
AcDbLine
 10
-540.1262639042034
 20
-425.919832645816
 30
0.0
 11
-541.6262934681072
 21
-425.919832645816
 31
0.0
  0
LINE
  5
308
330
1F
100
AcDbEntity
  8
D-0
  6
Continuous
 62
     7
370
     5
100
AcDbLine
 10
-488.8478894402248
 20
-430.9198919747733
 30
0.0
 11
-488.8478894402248
 21
-429.4196192239189
 31
0.0
  0
LINE
  5
309
330
1F
100
AcDbEntity
  8
D-0
  6
Continuous
 62
     7
370
     5
100
AcDbLine
 10
-488.8478894402248
 20
-429.4196192239189
 30
0.0
 11
-487.347859876321
 21
-429.4196192239189
 31
0.0
  0
LINE
  5
30A
330
1F
100
AcDbEntity
  8
D-0
  6
Continuous
 62
     7
370
     5
100
AcDbLine
 10
-487.347859876321
 20
-429.4196192239189
 30
0.0
 11
-487.347859876321
 21
-430.9198919747733
 31
0.0
  0
LINE
  5
30B
330
1F
100
AcDbEntity
  8
D-0
  6
Continuous
 62
     7
370
     5
100
AcDbLine
 10
-487.347859876321
 20
-430.9198919747733
 30
0.0
 11
-488.8478894402248
 21
-430.9198919747733
 31
0.0
  0
LINE
  5
30C
330
1F
100
AcDbEntity
  8
D-0
  6
Continuous
 62
     7
370
     5
100
AcDbLine
 10
-473.292149305691
 20
-407.5862817729727
 30
0.0
 11
-473.292149305691
 21
-406.0860090221182
 31
0.0
  0
LINE
  5
30D
330
1F
100
AcDbEntity
  8
D-0
  6
Continuous
 62
     7
370
     5
100
AcDbLine
 10
-473.292149305691
 20
-406.0860090221182
 30
0.0
 11
-471.7921197417872
 21
-406.0860090221182
 31
0.0
  0
LINE
  5
30E
330
1F
100
AcDbEntity
  8
D-0
  6
Continuous
 62
     7
370
     5
100
AcDbLine
 10
-471.7921197417872
 20
-406.0860090221182
 30
0.0
 11
-471.7921197417872
 21
-407.5862817729727
 31
0.0
  0
LINE
  5
30F
330
1F
100
AcDbEntity
  8
D-0
  6
Continuous
 62
     7
370
     5
100
AcDbLine
 10
-471.7921197417872
 20
-407.5862817729727
 30
0.0
 11
-473.292149305691
 21
-407.5862817729727
 31
0.0
  0
ENDSEC
  0
SECTION
  2
OBJECTS
  0
DICTIONARY
  5
C
330
0
100
AcDbDictionary
281
     1
  3
ACAD_GROUP
350
D
  3
ACAD_LAYOUT
350
1A
  3
ACAD_MLEADERSTYLE
350
311
  3
ACAD_MLINESTYLE
350
17
  3
ACAD_PLOTSETTINGS
350
19
  3
ACAD_PLOTSTYLENAME
350
E
  3
ACAD_TABLESTYLE
350
310
  3
ACAD_VISUALSTYLE
350
2A
  3
AcDbVariableDictionary
350
312
  0
DICTIONARY
  5
D
102
{ACAD_REACTORS
330
C
102
}
330
C
100
AcDbDictionary
281
     1
  0
DICTIONARY
  5
1A
102
{ACAD_REACTORS
330
C
102
}
330
C
100
AcDbDictionary
281
     1
  3
Layout1
350
1E
  3
Layout2
350
26
  3
Model
350
22
  0
DICTIONARY
  5
311
102
{ACAD_REACTORS
330
C
102
}
330
C
100
AcDbDictionary
281
     1
  0
DICTIONARY
  5
17
102
{ACAD_REACTORS
330
C
102
}
330
C
100
AcDbDictionary
281
     1
  3
Standard
350
18
  0
DICTIONARY
  5
19
102
{ACAD_REACTORS
330
C
102
}
330
C
100
AcDbDictionary
281
     1
  0
ACDBDICTIONARYWDFLT
  5
E
102
{ACAD_REACTORS
330
C
102
}
330
C
100
AcDbDictionary
281
     1
  3
Normal
350
F
100
AcDbDictionaryWithDefault
340
F
  0
DICTIONARY
  5
310
102
{ACAD_REACTORS
330
C
102
}
330
C
100
AcDbDictionary
281
     1
  0
DICTIONARY
  5
2A
102
{ACAD_REACTORS
330
C
102
}
330
C
100
AcDbDictionary
281
     1
  3
2dWireframe
350
2F
  3
3D Hidden
350
31
  3
3dWireframe
350
30
  3
Basic
350
32
  3
Brighten
350
36
  3
ColorChange
350
3A
  3
Conceptual
350
34
  3
Dim
350
35
  3
Facepattern
350
39
  3
Flat
350
2B
  3
FlatWithEdges
350
2C
  3
Gouraud
350
2D
  3
GouraudWithEdges
350
2E
  3
Linepattern
350
38
  3
Realistic
350
33
  3
Thicken
350
37
  0
DICTIONARY
  5
312
102
{ACAD_REACTORS
330
C
102
}
330
C
100
AcDbDictionary
281
     1
  3
PSOLHEIGHT
350
314
  3
PSOLWIDTH
350
313
  0
LAYOUT
  5
1E
102
{ACAD_REACTORS
330
1A
102
}
102
{ACAD_XDICTIONARY
360
315
102
}
330
1A
100
AcDbPlotSettings
  1

  2
none_device
  4

  6

 40
0.0
 41
0.0
 42
0.0
 43
0.0
 44
0.0
 45
0.0
 46
0.0
 47
0.0
 48
0.0
 49
0.0
140
0.0
141
0.0
142
1.0
143
1.0
 70
   688
 72
     0
 73
     0
 74
     5
  7

 75
    16
147
1.0
148
0.0
149
0.0
100
AcDbLayout
  1
Layout1
 70
     1
 71
     1
 10
0.0
 20
0.0
 11
420.0
 21
297.0
 12
0.0
 22
0.0
 32
0.0
 14
1.000000000000000E+20
 24
1.000000000000000E+20
 34
1.000000000000000E+20
 15
-1.000000000000000E+20
 25
-1.000000000000000E+20
 35
-1.000000000000000E+20
146
0.0
 13
0.0
 23
0.0
 33
0.0
 16
1.0
 26
0.0
 36
0.0
 17
0.0
 27
1.0
 37
0.0
 76
     0
330
1B
  0
LAYOUT
  5
26
102
{ACAD_REACTORS
330
1A
102
}
102
{ACAD_XDICTIONARY
360
319
102
}
330
1A
100
AcDbPlotSettings
  1

  2
none_device
  4

  6

 40
0.0
 41
0.0
 42
0.0
 43
0.0
 44
0.0
 45
0.0
 46
0.0
 47
0.0
 48
0.0
 49
0.0
140
0.0
141
0.0
142
1.0
143
1.0
 70
   688
 72
     0
 73
     0
 74
     5
  7

 75
    16
147
1.0
148
0.0
149
0.0
100
AcDbLayout
  1
Layout2
 70
     1
 71
     2
 10
0.0
 20
0.0
 11
0.0
 21
0.0
 12
0.0
 22
0.0
 32
0.0
 14
0.0
 24
0.0
 34
0.0
 15
0.0
 25
0.0
 35
0.0
146
0.0
 13
0.0
 23
0.0
 33
0.0
 16
1.0
 26
0.0
 36
0.0
 17
0.0
 27
1.0
 37
0.0
 76
     0
330
23
  0
LAYOUT
  5
22
102
{ACAD_REACTORS
330
1A
102
}
102
{ACAD_XDICTIONARY
360
317
102
}
330
1A
100
AcDbPlotSettings
  1

  2
none_device
  4

  6

 40
0.0
 41
0.0
 42
0.0
 43
0.0
 44
0.0
 45
0.0
 46
0.0
 47
0.0
 48
0.0
 49
0.0
140
0.0
141
0.0
142
1.0
143
1.0
 70
  1712
 72
     0
 73
     0
 74
     0
  7

 75
     0
147
1.0
148
0.0
149
0.0
100
AcDbLayout
  1
Model
 70
     1
 71
     0
 10
-2100.0
 20
-1485.0
 11
2100.0
 21
1485.0
 12
0.0
 22
0.0
 32
0.0
 14
-2100.0
 24
-1485.0
 34
0.0
 15
2100.0
 25
1485.0
 35
0.0
146
0.0
 13
0.0
 23
0.0
 33
0.0
 16
1.0
 26
0.0
 36
0.0
 17
0.0
 27
1.0
 37
0.0
 76
     0
330
1F
331
29
  0
MLINESTYLE
  5
18
102
{ACAD_REACTORS
330
17
102
}
330
17
100
AcDbMlineStyle
  2
Standard
 70
     0
  3

 62
   256
 51
90.0
 52
90.0
 71
     2
 49
0.5
 62
   256
  6
BYLAYER
 49
-0.5
 62
   256
  6
BYLAYER
  0
ACDBPLACEHOLDER
  5
F
102
{ACAD_REACTORS
330
E
102
}
330
E
  0
VISUALSTYLE
  5
2F
102
{ACAD_REACTORS
330
2A
102
}
330
2A
100
AcDbVisualStyle
  2
2dWireframe
 70
     4
 71
     0
 72
     2
 73
     0
 90
        0
 40
-0.6
 41
-30.0
 62
     5
 63
     7
 74
     1
 91
        4
 64
     7
 65
   257
 75
     1
175
     1
 42
1.0
 92
        0
 66
   257
 43
1.0
 76
     1
 77
     6
 78
     2
 67
     7
 79
     5
170
     0
171
     0
290
     0
174
     0
 93
        1
 44
0.0
173
     0
291
     0
 45
0.0
1001
ACAD
1000
AcDbSavedByObjectVersion
1070
     0
  0
VISUALSTYLE
  5
31
102
{ACAD_REACTORS
330
2A
102
}
330
2A
100
AcDbVisualStyle
  2
3D Hidden
 70
     6
 71
     1
 72
     2
 73
     2
 90
        0
 40
-0.6
 41
-30.0
 62
     5
 63
     7
 74
     2
 91
        2
 64
     7
 65
   257
 75
     2
175
     1
 42
40.0
 92
        0
 66
   257
 43
1.0
 76
     1
 77
     6
 78
     2
 67
     7
 79
     3
170
     0
171
     0
290
     0
174
     0
 93
        1
 44
0.0
173
     0
291
     0
 45
0.0
1001
ACAD
1000
AcDbSavedByObjectVersion
1070
     0
  0
VISUALSTYLE
  5
30
102
{ACAD_REACTORS
330
2A
102
}
330
2A
100
AcDbVisualStyle
  2
3dWireframe
 70
     5
 71
     0
 72
     2
 73
     0
 90
        0
 40
-0.6
 41
-30.0
 62
     5
 63
     7
 74
     1
 91
        4
 64
     7
 65
   257
 75
     1
175
     1
 42
1.0
 92
        0
 66
   257
 43
1.0
 76
     1
 77
     6
 78
     2
 67
     7
 79
     5
170
     0
171
     0
290
     0
174
     0
 93
        1
 44
0.0
173
     0
291
     0
 45
0.0
1001
ACAD
1000
AcDbSavedByObjectVersion
1070
     0
  0
VISUALSTYLE
  5
32
102
{ACAD_REACTORS
330
2A
102
}
330
2A
100
AcDbVisualStyle
  2
Basic
 70
     7
 71
     1
 72
     0
 73
     1
 90
        0
 40
-0.6
 41
-30.0
 62
     5
 63
     7
 74
     0
 91
        4
 64
     7
 65
   257
 75
     1
175
     1
 42
1.0
 92
        8
 66
     7
 43
1.0
 76
     1
 77
     6
 78
     2
 67
     7
 79
     5
170
     0
171
     0
290
     0
174
     0
 93
        1
 44
0.0
173
     0
291
     1
 45
0.0
1001
ACAD
1000
AcDbSavedByObjectVersion
1070
     0
  0
VISUALSTYLE
  5
36
102
{ACAD_REACTORS
330
2A
102
}
330
2A
100
AcDbVisualStyle
  2
Brighten
 70
    12
 71
     2
 72
     2
 73
     0
 90
        0
 40
-0.6
 41
-30.0
 62
     5
 63
     7
 74
     1
 91
        4
 64
     7
 65
   257
 75
     1
175
     1
 42
1.0
 92
        8
 66
     7
 43
1.0
 76
     1
 77
     6
 78
     2
 67
     7
 79
     5
170
     0
171
     0
290
     0
174
     0
 93
        1
 44
50.0
173
     0
291
     1
 45
0.0
1001
ACAD
1000
AcDbSavedByObjectVersion
1070
     0
  0
VISUALSTYLE
  5
3A
102
{ACAD_REACTORS
330
2A
102
}
330
2A
100
AcDbVisualStyle
  2
ColorChange
 70
    16
 71
     2
 72
     2
 73
     3
 90
        0
 40
-0.6
 41
-30.0
 62
     5
 63
     8
 74
     1
 91
        4
 64
     7
 65
   257
 75
     1
175
     1
 42
1.0
 92
        8
 66
     8
 43
1.0
 76
     1
 77
     6
 78
     2
 67
     7
 79
     5
170
     0
171
     0
290
     0
174
     0
 93
        1
 44
0.0
173
     0
291
     1
 45
0.0
1001
ACAD
1000
AcDbSavedByObjectVersion
1070
     0
  0
VISUALSTYLE
  5
34
102
{ACAD_REACTORS
330
2A
102
}
330
2A
100
AcDbVisualStyle
  2
Conceptual
 70
     9
 71
     3
 72
     2
 73
     0
 90
        0
 40
-0.6
 41
-30.0
 62
     5
 63
     7
 74
     2
 91
        2
 64
     7
 65
   257
 75
     1
175
     1
 42
40.0
 92
        8
 66
     7
 43
1.0
 76
     1
 77
     6
 78
     2
 67
     7
 79
     3
170
     0
171
     0
290
     0
174
     0
 93
        1
 44
0.0
173
     0
291
     0
 45
0.0
1001
ACAD
1000
AcDbSavedByObjectVersion
1070
     0
  0
VISUALSTYLE
  5
35
102
{ACAD_REACTORS
330
2A
102
}
330
2A
100
AcDbVisualStyle
  2
Dim
 70
    11
 71
     2
 72
     2
 73
     0
 90
        0
 40
-0.6
 41
-30.0
 62
     5
 63
     7
 74
     1
 91
        4
 64
     7
 65
   257
 75
     1
175
     1
 42
1.0
 92
        8
 66
     7
 43
1.0
 76
     1
 77
     6
 78
     2
 67
     7
 79
     5
170
     0
171
     0
290
     0
174
     0
 93
        1
 44
-50.0
173
     0
291
     1
 45
0.0
1001
ACAD
1000
AcDbSavedByObjectVersion
1070
     0
  0
VISUALSTYLE
  5
39
102
{ACAD_REACTORS
330
2A
102
}
330
2A
100
AcDbVisualStyle
  2
Facepattern
 70
    15
 71
     2
 72
     2
 73
     0
 90
        0
 40
-0.6
 41
-30.0
 62
     5
 63
     7
 74
     1
 91
        4
 64
     7
 65
   257
 75
     1
175
     1
 42
1.0
 92
        8
 66
     7
 43
1.0
 76
     1
 77
     6
 78
     2
 67
     7
 79
     5
170
     0
171
     0
290
     0
174
     0
 93
        1
 44
0.0
173
     0
291
     1
 45
0.0
1001
ACAD
1000
AcDbSavedByObjectVersion
1070
     0
  0
VISUALSTYLE
  5
2B
102
{ACAD_REACTORS
330
2A
102
}
330
2A
100
AcDbVisualStyle
  2
Flat
 70
     0
 71
     2
 72
     1
 73
     1
 90
        2
 40
-0.6
 41
30.0
 62
     5
 63
     7
 74
     0
 91
        4
 64
     7
 65
   257
 75
     1
175
     1
 42
1.0
 92
        8
 66
     7
 43
1.0
 76
     1
 77
     6
 78
     2
 67
     7
 79
     5
170
     0
171
     0
290
     0
174
     0
 93
       13
 44
0.0
173
     0
291
     1
 45
0.0
1001
ACAD
1000
AcDbSavedByObjectVersion
1070
     0
  0
VISUALSTYLE
  5
2C
102
{ACAD_REACTORS
330
2A
102
}
330
2A
100
AcDbVisualStyle
  2
FlatWithEdges
 70
     1
 71
     2
 72
     1
 73
     1
 90
        2
 40
-0.6
 41
30.0
 62
     5
 63
     7
 74
     1
 91
        4
 64
     7
 65
   257
 75
     1
175
     1
 42
1.0
 92
        0
 66
   257
 43
1.0
 76
     1
 77
     6
 78
     2
 67
     7
 79
     5
170
     0
171
     0
290
     0
174
     0
 93
       13
 44
0.0
173
     0
291
     1
 45
0.0
1001
ACAD
1000
AcDbSavedByObjectVersion
1070
     0
  0
VISUALSTYLE
  5
2D
102
{ACAD_REACTORS
330
2A
102
}
330
2A
100
AcDbVisualStyle
  2
Gouraud
 70
     2
 71
     2
 72
     2
 73
     1
 90
        2
 40
-0.6
 41
30.0
 62
     5
 63
     7
 74
     0
 91
        4
 64
     7
 65
   257
 75
     1
175
     1
 42
1.0
 92
        0
 66
     7
 43
1.0
 76
     1
 77
     6
 78
     2
 67
     7
 79
     5
170
     0
171
     0
290
     0
174
     0
 93
       13
 44
0.0
173
     0
291
     1
 45
0.0
1001
ACAD
1000
AcDbSavedByObjectVersion
1070
     0
  0
VISUALSTYLE
  5
2E
102
{ACAD_REACTORS
330
2A
102
}
330
2A
100
AcDbVisualStyle
  2
GouraudWithEdges
 70
     3
 71
     2
 72
     2
 73
     1
 90
        2
 40
-0.6
 41
30.0
 62
     5
 63
     7
 74
     1
 91
        4
 64
     7
 65
   257
 75
     1
175
     1
 42
1.0
 92
        0
 66
   257
 43
1.0
 76
     1
 77
     6
 78
     2
 67
     7
 79
     5
170
     0
171
     0
290
     0
174
     0
 93
       13
 44
0.0
173
     0
291
     1
 45
0.0
1001
ACAD
1000
AcDbSavedByObjectVersion
1070
     0
  0
VISUALSTYLE
  5
38
102
{ACAD_REACTORS
330
2A
102
}
330
2A
100
AcDbVisualStyle
  2
Linepattern
 70
    14
 71
     2
 72
     2
 73
     0
 90
        0
 40
-0.6
 41
-30.0
 62
     5
 63
     7
 74
     1
 91
        4
 64
     7
 65
   257
 75
     7
175
     7
 42
1.0
 92
        8
 66
     7
 43
1.0
 76
     1
 77
     6
 78
     2
 67
     7
 79
     5
170
     0
171
     0
290
     0
174
     0
 93
        1
 44
0.0
173
     0
291
     1
 45
0.0
1001
ACAD
1000
AcDbSavedByObjectVersion
1070
     0
  0
VISUALSTYLE
  5
33
102
{ACAD_REACTORS
330
2A
102
}
330
2A
100
AcDbVisualStyle
  2
Realistic
 70
     8
 71
     2
 72
     2
 73
     0
 90
        0
 40
-0.6
 41
-30.0
 62
     5
 63
     7
 74
     1
 91
        0
 64
     7
 65
   257
 75
     1
175
     1
 42
1.0
 92
        8
 66
     8
 43
1.0
 76
     1
 77
     6
 78
     2
 67
     7
 79
     5
170
     0
171
     0
290
     0
174
     0
 93
       13
 44
0.0
173
     0
291
     0
 45
0.0
1001
ACAD
1000
AcDbSavedByObjectVersion
1070
     0
  0
VISUALSTYLE
  5
37
102
{ACAD_REACTORS
330
2A
102
}
330
2A
100
AcDbVisualStyle
  2
Thicken
 70
    13
 71
     2
 72
     2
 73
     0
 90
        0
 40
-0.6
 41
-30.0
 62
     5
 63
     7
 74
     1
 91
        4
 64
     7
 65
   257
 75
     1
175
     1
 42
1.0
 92
       12
 66
     7
 43
1.0
 76
     1
 77
     6
 78
     2
 67
     7
 79
     5
170
     0
171
     0
290
     0
174
     0
 93
        1
 44
0.0
173
     0
291
     1
 45
0.0
1001
ACAD
1000
AcDbSavedByObjectVersion
1070
     0
  0
DICTIONARYVAR
  5
314
102
{ACAD_REACTORS
330
312
102
}
330
312
100
DictionaryVariables
280
     0
  1
80.000000
  0
DICTIONARYVAR
  5
313
102
{ACAD_REACTORS
330
312
102
}
330
312
100
DictionaryVariables
280
     0
  1
5.000000
  0
DICTIONARY
  5
315
330
1E
100
AcDbDictionary
280
     1
281
     1
  3
ACAD_XREC_ROUNDTRIP
360
316
  0
DICTIONARY
  5
319
330
26
100
AcDbDictionary
280
     1
281
     1
  3
ACAD_XREC_ROUNDTRIP
360
31A
  0
DICTIONARY
  5
317
330
22
100
AcDbDictionary
280
     1
281
     1
  3
ACAD_XREC_ROUNDTRIP
360
318
  0
XRECORD
  5
316
102
{ACAD_REACTORS
330
315
102
}
330
315
100
AcDbXrecord
280
     1
102
SHADEPLOT
 70
     0
102
SHADEPLOTRESLEVEL
 70
     5
102
SHADEPLOTCUSTOMDPI
 70
   300
  0
XRECORD
  5
31A
102
{ACAD_REACTORS
330
319
102
}
330
319
100
AcDbXrecord
280
     1
102
SHADEPLOT
 70
     0
102
SHADEPLOTRESLEVEL
 70
     5
102
SHADEPLOTCUSTOMDPI
 70
   300
  0
XRECORD
  5
318
102
{ACAD_REACTORS
330
317
102
}
330
317
100
AcDbXrecord
280
     1
102
SHADEPLOT
 70
     0
102
SHADEPLOTRESLEVEL
 70
     5
102
SHADEPLOTCUSTOMDPI
 70
   300
  0
ENDSEC
  0
EOF
