  0
SECTION
  2
HEADER
  9
$ACADVER
  1
AC1015
  9
$ACADMAINTVER
 70
     6
  9
$DWGCODEPAGE
  3
ANSI_932
  9
$INSBASE
 10
0.0
 20
0.0
 30
0.0
  9
$EXTMIN
 10
-3150.0
 20
-2227.5
 30
0.0
  9
$EXTMAX
 10
3150.0
 20
2227.5
 30
0.0
  9
$LIMMIN
 10
-3150.0
 20
-2227.5
  9
$LIMMAX
 10
3150.0
 20
2227.5
  9
$ORTHOMODE
 70
     0
  9
$REGENMODE
 70
     1
  9
$FILLMODE
 70
     1
  9
$QTEXTMODE
 70
     0
  9
$MIRRTEXT
 70
     1
  9
$LTSCALE
 40
15.0
  9
$ATTMODE
 70
     1
  9
$TEXTSIZE
 40
2.5
  9
$TRACEWID
 40
1.0
  9
$TEXTSTYLE
  7
Standard
  9
$CLAYER
  8
0
  9
$CELTYPE
  6
ByLayer
  9
$CECOLOR
 62
   256
  9
$CELTSCALE
 40
1.0
  9
$DISPSILH
 70
     0
  9
$DIMSCALE
 40
1.0
  9
$DIMASZ
 40
2.5
  9
$DIMEXO
 40
0.625
  9
$DIMDLI
 40
3.75
  9
$DIMRND
 40
0.0
  9
$DIMDLE
 40
0.0
  9
$DIMEXE
 40
1.25
  9
$DIMTP
 40
0.0
  9
$DIMTM
 40
0.0
  9
$DIMTXT
 40
2.5
  9
$DIMCEN
 40
2.5
  9
$DIMTSZ
 40
0.0
  9
$DIMTOL
 70
     0
  9
$DIMLIM
 70
     0
  9
$DIMTIH
 70
     0
  9
$DIMTOH
 70
     0
  9
$DIMSE1
 70
     0
  9
$DIMSE2
 70
     0
  9
$DIMTAD
 70
     1
  9
$DIMZIN
 70
     8
  9
$DIMBLK
  1

  9
$DIMASO
 70
     1
  9
$DIMSHO
 70
     1
  9
$DIMPOST
  1

  9
$DIMAPOST
  1

  9
$DIMALT
 70
     0
  9
$DIMALTD
 70
     3
  9
$DIMALTF
 40
0.03937007874016
  9
$DIMLFAC
 40
1.0
  9
$DIMTOFL
 70
     1
  9
$DIMTVP
 40
0.0
  9
$DIMTIX
 70
     0
  9
$DIMSOXD
 70
     0
  9
$DIMSAH
 70
     0
  9
$DIMBLK1
  1

  9
$DIMBLK2
  1

  9
$DIMSTYLE
  2
ISO-25
  9
$DIMCLRD
 70
     0
  9
$DIMCLRE
 70
     0
  9
$DIMCLRT
 70
     0
  9
$DIMTFAC
 40
1.0
  9
$DIMGAP
 40
0.625
  9
$DIMJUST
 70
     0
  9
$DIMSD1
 70
     0
  9
$DIMSD2
 70
     0
  9
$DIMTOLJ
 70
     0
  9
$DIMTZIN
 70
     8
  9
$DIMALTZ
 70
     0
  9
$DIMALTTZ
 70
     0
  9
$DIMUPT
 70
     0
  9
$DIMDEC
 70
     2
  9
$DIMTDEC
 70
     2
  9
$DIMALTU
 70
     2
  9
$DIMALTTD
 70
     3
  9
$DIMTXSTY
  7
Standard
  9
$DIMAUNIT
 70
     0
  9
$DIMADEC
 70
     0
  9
$DIMALTRND
 40
0.0
  9
$DIMAZIN
 70
     0
  9
$DIMDSEP
 70
    44
  9
$DIMATFIT
 70
     3
  9
$DIMFRAC
 70
     0
  9
$DIMLDRBLK
  1

  9
$DIMLUNIT
 70
     2
  9
$DIMLWD
 70
    -2
  9
$DIMLWE
 70
    -2
  9
$DIMTMOVE
 70
     0
  9
$LUNITS
 70
     2
  9
$LUPREC
 70
     4
  9
$SKETCHINC
 40
1.0
  9
$FILLETRAD
 40
10.0
  9
$AUNITS
 70
     0
  9
$AUPREC
 70
     0
  9
$MENU
  1
.
  9
$ELEVATION
 40
0.0
  9
$PELEVATION
 40
0.0
  9
$THICKNESS
 40
0.0
  9
$LIMCHECK
 70
     0
  9
$CHAMFERA
 40
0.0
  9
$CHAMFERB
 40
0.0
  9
$CHAMFERC
 40
0.0
  9
$CHAMFERD
 40
0.0
  9
$SKPOLY
 70
     0
  9
$TDCREATE
 40
2456910.387651493
  9
$TDUCREATE
 40
2456910.012651493
  9
$TDUPDATE
 40
2456910.387651864
  9
$TDUUPDATE
 40
2456910.012651864
  9
$TDINDWG
 40
0.0000000116
  9
$TDUSRTIMER
 40
0.0000000116
  9
$USRTIMER
 70
     1
  9
$ANGBASE
 50
0.0
  9
$ANGDIR
 70
     0
  9
$PDMODE
 70
     0
  9
$PDSIZE
 40
0.0
  9
$PLINEWID
 40
0.0
  9
$SPLFRAME
 70
     0
  9
$SPLINETYPE
 70
     6
  9
$SPLINESEGS
 70
     8
  9
$HANDSEED
  5
311
  9
$SURFTAB1
 70
     6
  9
$SURFTAB2
 70
     6
  9
$SURFTYPE
 70
     6
  9
$SURFU
 70
     6
  9
$SURFV
 70
     6
  9
$UCSBASE
  2

  9
$UCSNAME
  2

  9
$UCSORG
 10
0.0
 20
0.0
 30
0.0
  9
$UCSXDIR
 10
1.0
 20
0.0
 30
0.0
  9
$UCSYDIR
 10
0.0
 20
1.0
 30
0.0
  9
$UCSORTHOREF
  2

  9
$UCSORTHOVIEW
 70
     0
  9
$UCSORGTOP
 10
0.0
 20
0.0
 30
0.0
  9
$UCSORGBOTTOM
 10
0.0
 20
0.0
 30
0.0
  9
$UCSORGLEFT
 10
0.0
 20
0.0
 30
0.0
  9
$UCSORGRIGHT
 10
0.0
 20
0.0
 30
0.0
  9
$UCSORGFRONT
 10
0.0
 20
0.0
 30
0.0
  9
$UCSORGBACK
 10
0.0
 20
0.0
 30
0.0
  9
$PUCSBASE
  2

  9
$PUCSNAME
  2

  9
$PUCSORG
 10
0.0
 20
0.0
 30
0.0
  9
$PUCSXDIR
 10
1.0
 20
0.0
 30
0.0
  9
$PUCSYDIR
 10
0.0
 20
1.0
 30
0.0
  9
$PUCSORTHOREF
  2

  9
$PUCSORTHOVIEW
 70
     0
  9
$PUCSORGTOP
 10
0.0
 20
0.0
 30
0.0
  9
$PUCSORGBOTTOM
 10
0.0
 20
0.0
 30
0.0
  9
$PUCSORGLEFT
 10
0.0
 20
0.0
 30
0.0
  9
$PUCSORGRIGHT
 10
0.0
 20
0.0
 30
0.0
  9
$PUCSORGFRONT
 10
0.0
 20
0.0
 30
0.0
  9
$PUCSORGBACK
 10
0.0
 20
0.0
 30
0.0
  9
$USERI1
 70
     0
  9
$USERI2
 70
     0
  9
$USERI3
 70
     0
  9
$USERI4
 70
     0
  9
$USERI5
 70
     0
  9
$USERR1
 40
0.0
  9
$USERR2
 40
0.0
  9
$USERR3
 40
0.0
  9
$USERR4
 40
0.0
  9
$USERR5
 40
0.0
  9
$WORLDVIEW
 70
     1
  9
$SHADEDGE
 70
     3
  9
$SHADEDIF
 70
    70
  9
$TILEMODE
 70
     1
  9
$MAXACTVP
 70
    64
  9
$PINSBASE
 10
0.0
 20
0.0
 30
0.0
  9
$PLIMCHECK
 70
     0
  9
$PEXTMIN
 10
1.000000000000000E+20
 20
1.000000000000000E+20
 30
1.000000000000000E+20
  9
$PEXTMAX
 10
-1.000000000000000E+20
 20
-1.000000000000000E+20
 30
-1.000000000000000E+20
  9
$PLIMMIN
 10
0.0
 20
0.0
  9
$PLIMMAX
 10
420.0
 20
297.0
  9
$UNITMODE
 70
     0
  9
$VISRETAIN
 70
     1
  9
$PLINEGEN
 70
     0
  9
$PSLTSCALE
 70
     1
  9
$TREEDEPTH
 70
  3020
  9
$CMLSTYLE
  2
Standard
  9
$CMLJUST
 70
     0
  9
$CMLSCALE
 40
20.0
  9
$PROXYGRAPHICS
 70
     1
  9
$MEASUREMENT
 70
     1
  9
$CELWEIGHT
370
    -1
  9
$ENDCAPS
280
     0
  9
$JOINSTYLE
280
     0
  9
$LWDISPLAY
290
     0
  9
$INSUNITS
 70
     4
  9
$HYPERLINKBASE
  1

  9
$STYLESHEET
  1

  9
$XEDIT
290
     1
  9
$CEPSNTYPE
380
     0
  9
$PSTYLEMODE
290
     1
  9
$FINGERPRINTGUID
  2
{E550AE8E-E75F-4B59-A7FF-3F2F49DB60D2}
  9
$VERSIONGUID
  2
{FAEB1C32-E019-11D5-929B-00C0DF256EC4}
  9
$EXTNAMES
290
     1
  9
$PSVPSCALE
 40
0.0
  9
$OLESTARTUP
290
     0
  0
ENDSEC
  0
SECTION
  2
CLASSES
  0
CLASS
  1
ACDBDICTIONARYWDFLT
  2
AcDbDictionaryWithDefault
  3
ObjectDBX Classes
 90
        0
280
     0
281
     0
  0
CLASS
  1
VISUALSTYLE
  2
AcDbVisualStyle
  3
ObjectDBX Classes
 90
     4095
280
     0
281
     0
  0
CLASS
  1
MATERIAL
  2
AcDbMaterial
  3
ObjectDBX Classes
 90
     1153
280
     0
281
     0
  0
CLASS
  1
SCALE
  2
AcDbScale
  3
ObjectDBX Classes
 90
     1153
280
     0
281
     0
  0
CLASS
  1
TABLESTYLE
  2
AcDbTableStyle
  3
ObjectDBX Classes
 90
     4095
280
     0
281
     0
  0
CLASS
  1
MLEADERSTYLE
  2
AcDbMLeaderStyle
  3
ACDB_MLEADERSTYLE_CLASS
 90
     4095
280
     0
281
     0
  0
CLASS
  1
SUN
  2
AcDbSun
  3
SCENEOE
 90
     1153
280
     0
281
     0
  0
CLASS
  1
DICTIONARYVAR
  2
AcDbDictionaryVar
  3
ObjectDBX Classes
 90
        0
280
     0
281
     0
  0
CLASS
  1
ACDBPLACEHOLDER
  2
AcDbPlaceHolder
  3
ObjectDBX Classes
 90
        0
280
     0
281
     0
  0
CLASS
  1
LAYOUT
  2
AcDbLayout
  3
ObjectDBX Classes
 90
        0
280
     0
281
     0
  0
ENDSEC
  0
SECTION
  2
TABLES
  0
TABLE
  2
VPORT
  5
8
102
{ACAD_XDICTIONARY
360
2CE
102
}
330
0
100
AcDbSymbolTable
 70
     1
  0
VPORT
  5
29
330
8
100
AcDbSymbolTableRecord
100
AcDbViewportTableRecord
  2
*Active
 70
     0
 10
0.0
 20
0.0
 11
1.0
 21
1.0
 12
0.0
 22
0.0
 13
0.0
 23
0.0
 14
10.0
 24
10.0
 15
10.0
 25
10.0
 16
0.0
 26
0.0
 36
1.0
 17
0.0
 27
0.0
 37
0.0
 40
4900.5
 41
1.414141414141414
 42
50.0
 43
0.0
 44
0.0
 50
0.0
 51
0.0
 71
     0
 72
 10000
 73
     1
 74
     3
 75
     0
 76
     0
 77
     0
 78
     0
281
     0
 65
     1
110
0.0
120
0.0
130
0.0
111
1.0
121
0.0
131
0.0
112
0.0
122
1.0
132
0.0
 79
     0
146
0.0
  0
ENDTAB
  0
TABLE
  2
LTYPE
  5
5
330
0
100
AcDbSymbolTable
 70
     4
  0
LTYPE
  5
14
330
5
100
AcDbSymbolTableRecord
100
AcDbLinetypeTableRecord
  2
ByBlock
 70
     0
  3

 72
    65
 73
     0
 40
0.0
  0
LTYPE
  5
15
330
5
100
AcDbSymbolTableRecord
100
AcDbLinetypeTableRecord
  2
ByLayer
 70
     0
  3

 72
    65
 73
     0
 40
0.0
  0
LTYPE
  5
16
330
5
100
AcDbSymbolTableRecord
100
AcDbLinetypeTableRecord
  2
Continuous
 70
     0
  3
Solid line
 72
    65
 73
     0
 40
0.0
  0
LTYPE
  5
6F
330
5
100
AcDbSymbolTableRecord
100
AcDbLinetypeTableRecord
  2
JWW_CENTER2
 70
     0
  3
-------------  --  -------------
 72
    65
 73
     4
 40
13.54666666666667
 49
11.00666666666667
 74
     0
 49
-0.8466666666666667
 74
     0
 49
0.8466666666666667
 74
     0
 49
-0.8466666666666667
 74
     0
  0
LTYPE
  5
70
330
5
100
AcDbSymbolTableRecord
100
AcDbLinetypeTableRecord
  2
JWW_DASHED1
 70
     0
  3
-  --  --  --  --  --  --  --  -
 72
    65
 73
     2
 40
1.693333333333333
 49
0.8466666666666667
 74
     0
 49
-0.8466666666666667
 74
     0
  0
LTYPE
  5
71
330
5
100
AcDbSymbolTableRecord
100
AcDbLinetypeTableRecord
  2
JWW_CENTER1
 70
     0
  3
-----  --  ----------  --  -----
 72
    65
 73
     4
 40
6.773333333333333
 49
4.233333333333333
 74
     0
 49
-0.8466666666666667
 74
     0
 49
0.8466666666666667
 74
     0
 49
-0.8466666666666667
 74
     0
  0
ENDTAB
  0
TABLE
  2
LAYER
  5
2
330
0
100
AcDbSymbolTable
 70
     8
  0
LAYER
  5
10
330
2
100
AcDbSymbolTableRecord
100
AcDbLayerTableRecord
  2
0
 70
     0
 62
     7
  6
Continuous
370
    -3
390
F
  0
LAYER
  5
72
330
2
100
AcDbSymbolTableRecord
100
AcDbLayerTableRecord
  2
3-0
 70
     0
 62
     7
  6
Continuous
370
    -3
390
F
  0
LAYER
  5
73
330
2
100
AcDbSymbolTableRecord
100
AcDbLayerTableRecord
  2
3-5
 70
     0
 62
     7
  6
Continuous
370
    -3
390
F
  0
LAYER
  5
74
330
2
100
AcDbSymbolTableRecord
100
AcDbLayerTableRecord
  2
3-4
 70
     0
 62
     7
  6
Continuous
370
    -3
390
F
  0
LAYER
  5
75
330
2
100
AcDbSymbolTableRecord
100
AcDbLayerTableRecord
  2
1-4_寸法
 70
     0
 62
     7
  6
Continuous
370
    -3
390
F
  0
LAYER
  5
76
330
2
100
AcDbSymbolTableRecord
100
AcDbLayerTableRecord
  2
1-0_通り芯
 70
     0
 62
     7
  6
Continuous
370
    -3
390
F
  0
LAYER
  5
77
330
2
100
AcDbSymbolTableRecord
100
AcDbLayerTableRecord
  2
1-2_本体（蓋）
 70
     0
 62
     7
  6
Continuous
370
    -3
390
F
  0
LAYER
  5
78
330
2
100
AcDbSymbolTableRecord
100
AcDbLayerTableRecord
  2
F-Eﾚｲﾔ
 70
     0
 62
     7
  6
Continuous
370
    -3
390
F
  0
ENDTAB
  0
TABLE
  2
STYLE
  5
3
330
0
100
AcDbSymbolTable
 70
     2
  0
STYLE
  5
11
330
3
100
AcDbSymbolTableRecord
100
AcDbTextStyleTableRecord
  2
Standard
 70
     0
 40
0.0
 41
1.0
 50
0.0
 71
     0
 42
2.5
  3
txt
  4

  0
STYLE
  5
6E
330
3
100
AcDbSymbolTableRecord
100
AcDbTextStyleTableRecord
  2
ＭＳ ゴシック
 70
     0
 40
1.0
 41
1.0
 50
0.0
 71
     0
 42
2.5
  3

  4

1001
ACAD
1000
MS Gothic
1071
    32817
  0
ENDTAB
  0
TABLE
  2
VIEW
  5
6
330
0
100
AcDbSymbolTable
 70
     0
  0
ENDTAB
  0
TABLE
  2
UCS
  5
7
330
0
100
AcDbSymbolTable
 70
     0
  0
ENDTAB
  0
TABLE
  2
APPID
  5
9
330
0
100
AcDbSymbolTable
 70
     2
  0
APPID
  5
12
330
9
100
AcDbSymbolTableRecord
100
AcDbRegAppTableRecord
  2
ACAD
 70
     0
  0
APPID
  5
30E
330
9
100
AcDbSymbolTableRecord
100
AcDbRegAppTableRecord
  2
ACAD_MLEADERVER
 70
     0
  0
ENDTAB
  0
TABLE
  2
DIMSTYLE
  5
A
330
0
100
AcDbSymbolTable
 70
     1
100
AcDbDimStyleTable
  0
DIMSTYLE
105
27
330
A
100
AcDbSymbolTableRecord
100
AcDbDimStyleTableRecord
  2
ISO-25
 70
     0
 41
2.5
 42
0.625
 43
3.75
 44
1.25
 73
     0
 74
     0
 77
     1
 78
     8
140
2.5
141
2.5
143
0.03937007874016
147
0.625
171
     3
172
     1
178
     0
271
     2
272
     2
274
     3
278
    44
283
     0
284
     8
340
11
  0
ENDTAB
  0
TABLE
  2
BLOCK_RECORD
  5
1
330
0
100
AcDbSymbolTable
 70
     1
  0
BLOCK_RECORD
  5
1F
330
1
100
AcDbSymbolTableRecord
100
AcDbBlockTableRecord
  2
*Model_Space
340
22
  0
BLOCK_RECORD
  5
1B
330
1
100
AcDbSymbolTableRecord
100
AcDbBlockTableRecord
  2
*Paper_Space
340
1E
  0
BLOCK_RECORD
  5
23
330
1
100
AcDbSymbolTableRecord
100
AcDbBlockTableRecord
  2
*Paper_Space0
340
26
  0
ENDTAB
  0
ENDSEC
  0
SECTION
  2
BLOCKS
  0
BLOCK
  5
20
330
1F
100
AcDbEntity
  8
0
100
AcDbBlockBegin
  2
*Model_Space
 70
     0
 10
0.0
 20
0.0
 30
0.0
  3
*Model_Space
  1
*Model_Space
  0
ENDBLK
  5
21
330
1F
100
AcDbEntity
  8
0
100
AcDbBlockEnd
  0
BLOCK
  5
1C
330
1B
100
AcDbEntity
 67
     1
  8
0
100
AcDbBlockBegin
  2
*Paper_Space
 70
     0
 10
0.0
 20
0.0
 30
0.0
  3
*Paper_Space
  1
*Paper_Space
  0
ENDBLK
  5
1D
330
1B
100
AcDbEntity
 67
     1
  8
0
100
AcDbBlockEnd
  0
BLOCK
  5
24
330
23
100
AcDbEntity
  8
0
100
AcDbBlockBegin
  2
*Paper_Space0
 70
     0
 10
0.0
 20
0.0
 30
0.0
  3
*Paper_Space0
  1
*Paper_Space0
  0
ENDBLK
  5
25
330
23
100
AcDbEntity
  8
0
100
AcDbBlockEnd
  0
ENDSEC
  0
SECTION
  2
ENTITIES
  0
TEXT
  5
79
330
1F
100
AcDbEntity
  8
3-0
  6
Continuous
 62
     7
370
     9
100
AcDbText
 10
1410.803470083228
 20
383.1322884163036
 30
0.0
 40
45.72
  1
接続部詳細図　Ｓ＝１：３
 41
1.114583333333333
  7
ＭＳ ゴシック
100
AcDbText
  0
LINE
  5
7A
330
1F
100
AcDbEntity
  8
3-5
  6
Continuous
 62
     7
370
     9
100
AcDbLine
 10
1392.02690150157
 20
361.2263948784754
 30
0.0
 11
2234.124020510629
 21
361.2263948784754
 31
0.0
  0
LINE
  5
7B
330
1F
100
AcDbEntity
  8
3-0
  6
Continuous
 62
     3
370
     9
100
AcDbLine
 10
1398.285016597091
 20
-708.0351514676721
 30
0.0
 11
1798.284439237505
 21
-708.0351514676721
 31
0.0
  0
LINE
  5
7C
330
1F
100
AcDbEntity
  8
3-0
  6
Continuous
 62
     3
370
     9
100
AcDbLine
 10
1598.284439237505
 20
-508.0351720876575
 30
0.0
 11
1598.284439237505
 21
-708.0351514676721
 31
0.0
  0
LINE
  5
7D
330
1F
100
AcDbEntity
  8
3-0
  6
Continuous
 62
     3
370
     9
100
AcDbLine
 10
1588.284653685351
 20
-508.0351720876575
 30
0.0
 11
1598.284439237505
 21
-508.0351720876575
 31
0.0
  0
LINE
  5
7E
330
1F
100
AcDbEntity
  8
3-0
  6
Continuous
 62
     3
370
     9
100
AcDbLine
 10
1398.285016597091
 20
-698.0351803356515
 30
0.0
 11
1398.285016597091
 21
-708.0351514676721
 31
0.0
  0
LINE
  5
7F
330
1F
100
AcDbEntity
  8
3-0
  6
Continuous
 62
     3
370
     9
100
AcDbLine
 10
1548.284026837801
 20
-683.0353164275538
 30
0.0
 11
1413.284323765588
 21
-683.0353164275538
 31
0.0
  0
LINE
  5
80
330
1F
100
AcDbEntity
  8
3-0
  6
Continuous
 62
     3
370
     9
100
AcDbLine
 10
1573.284604197387
 20
-658.0352958075687
 30
0.0
 11
1573.284604197387
 21
-523.0352215756218
 31
0.0
  0
ARC
  5
81
330
1F
100
AcDbEntity
  8
3-0
  6
Continuous
 62
     3
370
     9
100
AcDbCircle
 10
1588.284653685351
 20
-523.0352215756218
 30
0.0
 40
14.99999874346965
100
AcDbArc
 50
90.0
 51
180.0
  0
ARC
  5
82
330
1F
100
AcDbEntity
  8
3-0
  6
Continuous
 62
     3
370
     9
100
AcDbCircle
 10
1413.284323765588
 20
-698.0351803356515
 30
0.0
 40
14.99999874346965
100
AcDbArc
 50
90.0
 51
180.0
  0
ARC
  5
83
330
1F
100
AcDbEntity
  8
3-0
  6
Continuous
 62
     3
370
     9
100
AcDbCircle
 10
1548.284026837801
 20
-658.0352958075687
 30
0.0
 40
24.99999742250185
100
AcDbArc
 50
270.0
 51
0.0
  0
LINE
  5
84
330
1F
100
AcDbEntity
  8
3-0
  6
Continuous
 62
     3
370
     9
100
AcDbLine
 10
1598.284439237505
 20
-663.0351514676721
 30
0.0
 11
1798.284439237505
 21
-663.0351514676721
 31
0.0
  0
LINE
  5
85
330
1F
100
AcDbEntity
  8
3-0
  6
Continuous
 62
     3
370
     9
100
AcDbLine
 10
1798.284439237505
 20
-663.0351514676721
 30
0.0
 11
1798.284439237505
 21
-708.0351514676721
 31
0.0
  0
ARC
  5
86
330
1F
100
AcDbEntity
  8
3-0
  6
Continuous
 62
     3
370
     9
100
AcDbCircle
 10
1597.111384329812
 20
-667.9726050246321
 30
0.0
 40
4.991850943869145
100
AcDbArc
 50
285.0281982421875
 51
75.04071044921876
  0
ARC
  5
87
330
1F
100
AcDbEntity
  8
3-0
  6
Continuous
 62
     3
370
     9
100
AcDbCircle
 10
1597.111384329812
 20
-677.6382407705901
 30
0.0
 40
4.991850943869145
100
AcDbArc
 50
285.0281982421875
 51
75.04071044921876
  0
ARC
  5
88
330
1F
100
AcDbEntity
  8
3-0
  6
Continuous
 62
     3
370
     9
100
AcDbCircle
 10
1597.111384329812
 20
-687.3038765165481
 30
0.0
 40
4.991850943869145
100
AcDbArc
 50
285.0281982421875
 51
75.04071044921876
  0
ARC
  5
89
330
1F
100
AcDbEntity
  8
3-0
  6
Continuous
 62
     3
370
     9
100
AcDbCircle
 10
1597.111384329812
 20
-696.9691623118999
 30
0.0
 40
4.991850943869145
100
AcDbArc
 50
285.0281982421875
 51
75.04071044921876
  0
ARC
  5
8A
330
1F
100
AcDbEntity
  8
3-0
  6
Continuous
 62
     3
370
     9
100
AcDbCircle
 10
1598.129390643534
 20
-705.0281748243426
 30
0.0
 40
3.279673858729107
100
AcDbArc
 50
289.0494232177735
 51
85.1255035400391
  0
TEXT
  5
8B
330
1F
100
AcDbEntity
  8
3-0
  6
Continuous
 62
     7
370
     9
100
AcDbText
 10
1343.507171192342
 20
-941.7833048589777
 30
0.0
 40
45.72
  1
断面詳細図　Ｓ＝１：３
 41
1.113636363636364
  7
ＭＳ ゴシック
100
AcDbText
  0
LINE
  5
8C
330
1F
100
AcDbEntity
  8
3-4
  6
Continuous
 62
     7
370
     9
100
AcDbLine
 10
1929.49114088534
 20
-708.0351514676721
 30
0.0
 11
1929.49114088534
 21
-508.0351720876575
 31
0.0
  0
LWPOLYLINE
  5
8D
330
1F
100
AcDbEntity
  8
3-4
  6
Continuous
 62
     7
370
     9
100
AcDbPolyline
 90
        4
 70
     1
 43
3.0
 10
1930.99114088534
 20
-708.0351514676721
 42
0.4142135623731
 10
1929.49114088534
 20
-706.5351514676721
 42
0.4142135623731
 10
1927.99114088534
 20
-708.0351514676721
 42
0.4142135623731
 10
1929.49114088534
 20
-709.5351514676722
 42
0.4142135623731
  0
LWPOLYLINE
  5
8E
330
1F
100
AcDbEntity
  8
3-4
  6
Continuous
 62
     7
370
     9
100
AcDbPolyline
 90
        4
 70
     1
 43
3.0
 10
1930.99114088534
 20
-508.0351720876575
 42
0.4142135623731
 10
1929.49114088534
 20
-506.5351720876575
 42
0.4142135623731
 10
1927.99114088534
 20
-508.0351720876575
 42
0.4142135623731
 10
1929.49114088534
 20
-509.5351720876575
 42
0.4142135623731
  0
LINE
  5
8F
330
1F
100
AcDbEntity
  8
3-4
  6
Continuous
 62
     7
370
     9
100
AcDbLine
 10
1933.99114088534
 20
-708.0351514676721
 30
0.0
 11
1836.101757804534
 21
-708.0351514676721
 31
0.0
  0
TEXT
  5
90
330
1F
100
AcDbEntity
  8
3-4
  6
Continuous
 62
     2
370
   211
100
AcDbText
 10
1912.03114088534
 20
-639.9101617776648
 30
0.0
 40
45.72
  1
40
 50
90.0
 41
1.0625
  7
ＭＳ ゴシック
100
AcDbText
  0
LINE
  5
91
330
1F
100
AcDbEntity
  8
3-4
  6
Continuous
 62
     7
370
     9
100
AcDbLine
 10
1933.99114088534
 20
-508.0351720876575
 30
0.0
 11
1673.012951359048
 21
-508.0351720876575
 31
0.0
  0
TEXT
  5
92
330
1F
100
AcDbEntity
  8
3-4
  6
Continuous
 62
     7
370
     0
100
AcDbText
 10
1837.110352453343
 20
-183.82876035129
 30
0.0
 40
34.29
  1
受枠：L40X40X5
 41
1.154761904761905
  7
ＭＳ ゴシック
100
AcDbText
  0
TEXT
  5
93
330
1F
100
AcDbEntity
  8
3-4
  6
Continuous
 62
     7
370
     0
100
AcDbText
 10
1838.558948405002
 20
-260.6043457892172
 30
0.0
 40
34.29
  1
SS400
 41
1.133333333333333
  7
ＭＳ ゴシック
100
AcDbText
  0
TEXT
  5
94
330
1F
100
AcDbEntity
  8
3-4
  6
Continuous
 62
     7
370
     0
100
AcDbText
 10
1997.904503087493
 20
-259.1557498375589
 30
0.0
 40
34.29
  1
樹脂系塗装
 41
1.133333333333333
  7
ＭＳ ゴシック
100
AcDbText
  0
LINE
  5
95
330
1F
100
AcDbEntity
  8
3-4
  6
Continuous
 62
     7
370
     9
100
AcDbLine
 10
1815.173222117363
 20
-207.0752395686138
 30
0.0
 11
2260.100370337774
 21
-207.0752395686138
 31
0.0
  0
LINE
  5
96
330
1F
100
AcDbEntity
  8
3-5
  6
Continuous
 62
     7
370
     9
100
AcDbLine
 10
1815.173222117363
 20
-207.0752395686138
 30
0.0
 11
1594.681027602399
 21
-590.716864073869
 31
0.0
  0
TEXT
  5
97
330
1F
100
AcDbEntity
  8
3-4
  6
Continuous
 62
     7
370
     0
100
AcDbText
 10
1985.583887324709
 20
-429.5510635716566
 30
0.0
 40
34.29
  1
SS400
 41
1.133333333333333
  7
ＭＳ ゴシック
100
AcDbText
  0
TEXT
  5
98
330
1F
100
AcDbEntity
  8
3-4
  6
Continuous
 62
     7
370
     0
100
AcDbText
 10
2144.9294420072
 20
-428.1024676199984
 30
0.0
 40
34.29
  1
樹脂系塗装
 41
1.133333333333333
  7
ＭＳ ゴシック
100
AcDbText
  0
TEXT
  5
99
330
1F
100
AcDbEntity
  8
3-4
  6
Continuous
 62
     7
370
     0
100
AcDbText
 10
1984.13529137305
 20
-352.7754781337296
 30
0.0
 40
34.29
  1
アンカー：φ９
 41
1.142857142857143
  7
ＭＳ ゴシック
100
AcDbText
  0
LINE
  5
9A
330
1F
100
AcDbEntity
  8
3-4
  6
Continuous
 62
     7
370
     9
100
AcDbLine
 10
1941.668684299521
 20
-376.0219573510533
 30
0.0
 11
2407.125309257481
 21
-376.0219573510533
 31
0.0
  0
LINE
  5
9B
330
1F
100
AcDbEntity
  8
3-5
  6
Continuous
 62
     7
370
     9
100
AcDbLine
 10
1941.668684299521
 20
-376.0219573510533
 30
0.0
 11
1764.386172345902
 21
-684.4816333585092
 31
0.0
  0
LINE
  5
9C
330
1F
100
AcDbEntity
  8
3-5
  6
Continuous
 62
     7
370
     9
100
AcDbLine
 10
1319.705001690177
 20
-964.0412286527566
 30
0.0
 11
2082.076949668793
 21
-964.0412286527566
 31
0.0
  0
LINE
  5
9D
330
1F
100
AcDbEntity
  8
3-4
  6
Continuous
 62
     7
370
     9
100
AcDbLine
 10
1398.285016597091
 20
-327.1685855498072
 30
0.0
 11
1798.284439237505
 21
-327.1685855498072
 31
0.0
  0
LWPOLYLINE
  5
9E
330
1F
100
AcDbEntity
  8
3-4
  6
Continuous
 62
     7
370
     9
100
AcDbPolyline
 90
        4
 70
     1
 43
3.0
 10
1399.785016597091
 20
-327.1685855498072
 42
0.4142135623731
 10
1398.285016597091
 20
-325.6685855498072
 42
0.4142135623731
 10
1396.785016597091
 20
-327.1685855498072
 42
0.4142135623731
 10
1398.285016597091
 20
-328.6685855498072
 42
0.4142135623731
  0
LWPOLYLINE
  5
9F
330
1F
100
AcDbEntity
  8
3-4
  6
Continuous
 62
     7
370
     9
100
AcDbPolyline
 90
        4
 70
     1
 43
3.0
 10
1599.784439237505
 20
-327.1685855498072
 42
0.4142135623731
 10
1598.284439237505
 20
-325.6685855498072
 42
0.4142135623731
 10
1596.784439237505
 20
-327.1685855498072
 42
0.4142135623731
 10
1598.284439237505
 20
-328.6685855498072
 42
0.4142135623731
  0
LINE
  5
A0
330
1F
100
AcDbEntity
  8
3-4
  6
Continuous
 62
     7
370
     9
100
AcDbLine
 10
1598.284439237505
 20
-322.6685855498072
 30
0.0
 11
1598.284439237505
 21
-495.9533537617355
 31
0.0
  0
TEXT
  5
A1
330
1F
100
AcDbEntity
  8
3-4
  6
Continuous
 62
     2
370
   211
100
AcDbText
 10
1466.409727917298
 20
-309.7085855498072
 30
0.0
 40
45.72
  1
40
 41
1.0625
  7
ＭＳ ゴシック
100
AcDbText
  0
LWPOLYLINE
  5
A2
330
1F
100
AcDbEntity
  8
3-4
  6
Continuous
 62
     7
370
     9
100
AcDbPolyline
 90
        4
 70
     1
 43
3.0
 10
1799.784439237505
 20
-327.1685855498072
 42
0.4142135623731
 10
1798.284439237505
 20
-325.6685855498072
 42
0.4142135623731
 10
1796.784439237505
 20
-327.1685855498072
 42
0.4142135623731
 10
1798.284439237505
 20
-328.6685855498072
 42
0.4142135623731
  0
TEXT
  5
A3
330
1F
100
AcDbEntity
  8
3-4
  6
Continuous
 62
     2
370
   211
100
AcDbText
 10
1666.409439237505
 20
-309.7085855498072
 30
0.0
 40
45.72
  1
40
 41
1.0625
  7
ＭＳ ゴシック
100
AcDbText
  0
LINE
  5
A4
330
1F
100
AcDbEntity
  8
3-4
  6
Continuous
 62
     7
370
     9
100
AcDbLine
 10
1398.285016597091
 20
-322.6685855498072
 30
0.0
 11
1398.285016597091
 21
-637.489796039748
 31
0.0
  0
LINE
  5
A5
330
1F
100
AcDbEntity
  8
3-4
  6
Continuous
 62
     7
370
     9
100
AcDbLine
 10
1798.284439237505
 20
-322.6685855498072
 30
0.0
 11
1798.284439237505
 21
-615.099267177015
 31
0.0
  0
LINE
  5
A6
330
1F
100
AcDbEntity
  8
3-4
  6
Continuous
 62
     7
370
     9
100
AcDbLine
 10
1258.925464706099
 20
-708.0351514676721
 30
0.0
 11
1258.925464706099
 21
-508.0351720876575
 31
0.0
  0
LWPOLYLINE
  5
A7
330
1F
100
AcDbEntity
  8
3-4
  6
Continuous
 62
     7
370
     9
100
AcDbPolyline
 90
        4
 70
     1
 43
3.0
 10
1260.425464706098
 20
-708.0351514676721
 42
0.4142135623731
 10
1258.925464706099
 20
-706.5351514676721
 42
0.4142135623731
 10
1257.425464706099
 20
-708.0351514676721
 42
0.4142135623731
 10
1258.925464706099
 20
-709.5351514676722
 42
0.4142135623731
  0
LWPOLYLINE
  5
A8
330
1F
100
AcDbEntity
  8
3-4
  6
Continuous
 62
     7
370
     9
100
AcDbPolyline
 90
        4
 70
     1
 43
3.0
 10
1260.425464706098
 20
-683.0353164275538
 42
0.4142135623731
 10
1258.925464706099
 20
-681.5353164275538
 42
0.4142135623731
 10
1257.425464706099
 20
-683.0353164275538
 42
0.4142135623731
 10
1258.925464706099
 20
-684.5353164275538
 42
0.4142135623731
  0
LINE
  5
A9
330
1F
100
AcDbEntity
  8
3-4
  6
Continuous
 62
     7
370
     9
100
AcDbLine
 10
1254.425464706099
 20
-708.0351514676721
 30
0.0
 11
1377.497269858035
 21
-708.0351514676721
 31
0.0
  0
LINE
  5
AA
330
1F
100
AcDbEntity
  8
3-4
  6
Continuous
 62
     7
370
     9
100
AcDbLine
 10
1254.425464706099
 20
-683.0353164275538
 30
0.0
 11
1377.497269858035
 21
-683.0353164275538
 31
0.0
  0
TEXT
  5
AB
330
1F
100
AcDbEntity
  8
3-4
  6
Continuous
 62
     2
370
   211
100
AcDbText
 10
1241.465464706099
 20
-710.5352339476129
 30
0.0
 40
45.72
  1
5
 50
90.0
  7
ＭＳ ゴシック
100
AcDbText
  0
LWPOLYLINE
  5
AC
330
1F
100
AcDbEntity
  8
3-4
  6
Continuous
 62
     7
370
     9
100
AcDbPolyline
 90
        4
 70
     1
 43
3.0
 10
1260.425464706098
 20
-508.0351720876575
 42
0.4142135623731
 10
1258.925464706099
 20
-506.5351720876575
 42
0.4142135623731
 10
1257.425464706099
 20
-508.0351720876575
 42
0.4142135623731
 10
1258.925464706099
 20
-509.5351720876575
 42
0.4142135623731
  0
TEXT
  5
AD
330
1F
100
AcDbEntity
  8
3-4
  6
Continuous
 62
     2
370
   211
100
AcDbText
 10
1241.465464706099
 20
-627.4102442576057
 30
0.0
 40
45.72
  1
35
 50
90.0
 41
1.0625
  7
ＭＳ ゴシック
100
AcDbText
  0
LINE
  5
AE
330
1F
100
AcDbEntity
  8
3-4
  6
Continuous
 62
     7
370
     9
100
AcDbLine
 10
1254.425464706099
 20
-508.0351720876575
 30
0.0
 11
1508.358680833102
 21
-508.0351720876575
 31
0.0
  0
LINE
  5
AF
330
1F
100
AcDbEntity
  8
3-4
  6
Continuous
 62
     7
370
     9
100
AcDbLine
 10
1398.285016597091
 20
-421.5806707747628
 30
0.0
 11
1598.284439237505
 21
-421.5806707747628
 31
0.0
  0
LWPOLYLINE
  5
B0
330
1F
100
AcDbEntity
  8
3-4
  6
Continuous
 62
     7
370
     9
100
AcDbPolyline
 90
        4
 70
     1
 43
3.0
 10
1399.785016597091
 20
-421.5806707747628
 42
0.4142135623731
 10
1398.285016597091
 20
-420.0806707747628
 42
0.4142135623731
 10
1396.785016597091
 20
-421.5806707747628
 42
0.4142135623731
 10
1398.285016597091
 20
-423.0806707747628
 42
0.4142135623731
  0
LWPOLYLINE
  5
B1
330
1F
100
AcDbEntity
  8
3-4
  6
Continuous
 62
     7
370
     9
100
AcDbPolyline
 90
        4
 70
     1
 43
3.0
 10
1574.784604197387
 20
-421.5806707747628
 42
0.4142135623731
 10
1573.284604197387
 20
-420.0806707747628
 42
0.4142135623731
 10
1571.784604197387
 20
-421.5806707747628
 42
0.4142135623731
 10
1573.284604197387
 20
-423.0806707747628
 42
0.4142135623731
  0
LINE
  5
B2
330
1F
100
AcDbEntity
  8
3-4
  6
Continuous
 62
     7
370
     9
100
AcDbLine
 10
1573.284604197387
 20
-417.0806707747628
 30
0.0
 11
1573.284604197387
 21
-495.9533537617355
 31
0.0
  0
TEXT
  5
B3
330
1F
100
AcDbEntity
  8
3-4
  6
Continuous
 62
     2
370
   211
100
AcDbText
 10
1453.909810397239
 20
-404.1206707747628
 30
0.0
 40
45.72
  1
35
 41
1.0625
  7
ＭＳ ゴシック
100
AcDbText
  0
LWPOLYLINE
  5
B4
330
1F
100
AcDbEntity
  8
3-4
  6
Continuous
 62
     7
370
     9
100
AcDbPolyline
 90
        4
 70
     1
 43
3.0
 10
1599.784439237505
 20
-421.5806707747628
 42
0.4142135623731
 10
1598.284439237505
 20
-420.0806707747628
 42
0.4142135623731
 10
1596.784439237505
 20
-421.5806707747628
 42
0.4142135623731
 10
1598.284439237505
 20
-423.0806707747628
 42
0.4142135623731
  0
TEXT
  5
B5
330
1F
100
AcDbEntity
  8
3-4
  6
Continuous
 62
     2
370
   211
100
AcDbText
 10
1558.086017003628
 20
-401.3431437870067
 30
0.0
 40
45.72
  1
5
  7
ＭＳ ゴシック
100
AcDbText
  0
LINE
  5
B6
330
1F
100
AcDbEntity
  8
3-0
  6
JWW_CENTER2
 62
     4
370
     9
100
AcDbLine
 10
1190.69621838587
 20
1254.605377261897
 30
0.0
 11
1190.69621838587
 21
1374.604659686411
 31
0.0
  0
LINE
  5
B7
330
1F
100
AcDbEntity
  8
3-0
  6
JWW_CENTER2
 62
     4
370
     9
100
AcDbLine
 10
1250.69567401826
 20
1314.604090574819
 30
0.0
 11
1130.696020434013
 21
1314.604090574819
 31
0.0
  0
LINE
  5
B8
330
1F
100
AcDbEntity
  8
3-0
  6
Continuous
 62
     3
370
     9
100
AcDbLine
 10
1315.69599569003
 20
1214.604713298372
 30
0.0
 11
1315.69599569003
 21
1414.605249417988
 31
0.0
  0
LINE
  5
B9
330
1F
100
AcDbEntity
  8
3-0
  6
Continuous
 62
     3
370
     9
100
AcDbLine
 10
861.7668987464067
 20
1389.605785537603
 30
0.0
 11
1713.744767728671
 21
1389.605785537603
 31
0.0
  0
LINE
  5
BA
330
1F
100
AcDbEntity
  8
3-0
  6
Continuous
 62
     3
370
     9
100
AcDbLine
 10
861.7668987464067
 20
1414.605249417988
 30
0.0
 11
1713.744767728671
 21
1414.605249417988
 31
0.0
  0
LINE
  5
BB
330
1F
100
AcDbEntity
  8
3-0
  6
Continuous
 62
     3
370
     9
100
AcDbLine
 10
861.7668987464067
 20
1214.604713298372
 30
0.0
 11
1713.744767728671
 21
1214.604713298372
 31
0.0
  0
LINE
  5
BC
330
1F
100
AcDbEntity
  8
3-0
  6
JWW_DASHED1
 62
     4
370
     9
100
AcDbLine
 10
1565.696573049617
 20
1394.604935994213
 30
0.0
 11
1065.69599569003
 21
1394.604935994213
 31
0.0
  0
LINE
  5
BD
330
1F
100
AcDbEntity
  8
3-0
  6
JWW_DASHED1
 62
     4
370
     9
100
AcDbLine
 10
1065.69599569003
 20
1234.605397881881
 30
0.0
 11
1065.69599569003
 21
1394.604935994213
 31
0.0
  0
LINE
  5
BE
330
1F
100
AcDbEntity
  8
3-0
  6
JWW_DASHED1
 62
     4
370
     9
100
AcDbLine
 10
1565.696573049617
 20
1394.604935994213
 30
0.0
 11
1565.696573049617
 21
1234.605397881881
 31
0.0
  0
LINE
  5
BF
330
1F
100
AcDbEntity
  8
3-0
  6
JWW_DASHED1
 62
     4
370
     9
100
AcDbLine
 10
1565.696573049617
 20
1234.605397881881
 30
0.0
 11
1065.69599569003
 21
1234.605397881881
 31
0.0
  0
LINE
  5
C0
330
1F
100
AcDbEntity
  8
3-0
  6
Continuous
 62
     4
370
     9
100
AcDbLine
 10
871.6575633367786
 20
1304.678128693748
 30
0.0
 11
861.7668987464067
 21
1298.967465027152
 31
0.0
  0
LINE
  5
C1
330
1F
100
AcDbEntity
  8
3-0
  6
Continuous
 62
     4
370
     9
100
AcDbLine
 10
851.8762341560357
 20
1270.416002492841
 30
0.0
 11
871.6575633367786
 21
1304.678128693748
 31
0.0
  0
LINE
  5
C2
330
1F
100
AcDbEntity
  8
3-0
  6
Continuous
 62
     4
370
     9
100
AcDbLine
 10
851.8762341560357
 20
1270.416002492841
 30
0.0
 11
861.7668987464067
 21
1276.126294999703
 31
0.0
  0
LINE
  5
C3
330
1F
100
AcDbEntity
  8
3-0
  6
Continuous
 62
     4
370
     9
100
AcDbLine
 10
861.7668987464067
 20
1276.126294999703
 30
0.0
 11
861.7668987464067
 21
1192.132476046472
 31
0.0
  0
LINE
  5
C4
330
1F
100
AcDbEntity
  8
3-0
  6
Continuous
 62
     4
370
     9
100
AcDbLine
 10
861.7668987464067
 20
1428.826234624387
 30
0.0
 11
861.7668987464067
 21
1298.967465027152
 31
0.0
  0
LINE
  5
C5
330
1F
100
AcDbEntity
  8
3-0
  6
Continuous
 62
     4
370
     9
100
AcDbLine
 10
1723.635432319043
 20
1304.678128693748
 30
0.0
 11
1713.744767728671
 21
1298.967465027152
 31
0.0
  0
LINE
  5
C6
330
1F
100
AcDbEntity
  8
3-0
  6
Continuous
 62
     4
370
     9
100
AcDbLine
 10
1703.854103138299
 20
1270.416002492841
 30
0.0
 11
1723.635432319043
 21
1304.678128693748
 31
0.0
  0
LINE
  5
C7
330
1F
100
AcDbEntity
  8
3-0
  6
Continuous
 62
     4
370
     9
100
AcDbLine
 10
1703.854103138299
 20
1270.416002492841
 30
0.0
 11
1713.744767728671
 21
1276.126294999703
 31
0.0
  0
LINE
  5
C8
330
1F
100
AcDbEntity
  8
3-0
  6
Continuous
 62
     4
370
     9
100
AcDbLine
 10
1713.744767728671
 20
1428.826234624387
 30
0.0
 11
1713.744767728671
 21
1298.967465027152
 31
0.0
  0
LINE
  5
C9
330
1F
100
AcDbEntity
  8
3-0
  6
Continuous
 62
     4
370
     9
100
AcDbLine
 10
1713.744767728671
 20
1276.126294999703
 30
0.0
 11
1713.744767728671
 21
1192.132476046472
 31
0.0
  0
LINE
  5
CA
330
1F
100
AcDbEntity
  8
3-0
  6
Continuous
 62
     7
370
     9
100
AcDbLine
 10
1204.262848981309
 20
1301.03745997938
 30
0.0
 11
1177.128845470963
 21
1328.171463489727
 31
0.0
  0
LINE
  5
CB
330
1F
100
AcDbEntity
  8
3-0
  6
Continuous
 62
     7
370
     9
100
AcDbLine
 10
1177.128845470963
 20
1301.03745997938
 30
0.0
 11
1204.262848981309
 21
1328.171463489727
 31
0.0
  0
CIRCLE
  5
CC
330
1F
100
AcDbEntity
  8
3-0
  6
Continuous
 62
     7
370
     9
100
AcDbCircle
 10
1190.69621838587
 20
1314.604090574819
 30
0.0
 40
34.99999465169133
  0
CIRCLE
  5
CD
330
1F
100
AcDbEntity
  8
3-0
  6
Continuous
 62
     3
370
     9
100
AcDbCircle
 10
1190.695847226137
 20
1314.604461734553
 30
0.0
 40
40.0
  0
LINE
  5
CE
330
1F
100
AcDbEntity
  8
3-0
  6
Continuous
 62
     3
370
     9
100
AcDbLine
 10
2306.168450542753
 20
982.9239919302606
 30
0.0
 11
2306.168450542753
 21
782.9240125502456
 31
0.0
  0
LINE
  5
CF
330
1F
100
AcDbEntity
  8
3-0
  6
Continuous
 62
     3
370
     9
100
AcDbLine
 10
2296.168664990601
 20
982.9239919302606
 30
0.0
 11
2306.168450542753
 21
982.9239919302606
 31
0.0
  0
LINE
  5
D0
330
1F
100
AcDbEntity
  8
3-0
  6
Continuous
 62
     3
370
     9
100
AcDbLine
 10
2106.169027902339
 20
792.9239836822668
 30
0.0
 11
2106.169027902339
 21
782.9240125502456
 31
0.0
  0
LINE
  5
D1
330
1F
100
AcDbEntity
  8
3-0
  6
Continuous
 62
     3
370
     9
100
AcDbLine
 10
2281.168615502636
 20
832.9238682103496
 30
0.0
 11
2281.168615502636
 21
967.9239424422965
 31
0.0
  0
LINE
  5
D2
330
1F
100
AcDbEntity
  8
3-0
  6
Continuous
 62
     3
370
     9
100
AcDbLine
 10
2126.168599006647
 20
782.9240125502456
 30
0.0
 11
2126.168599006647
 21
752.924099154184
 31
0.0
  0
LINE
  5
D3
330
1F
100
AcDbEntity
  8
3-0
  6
Continuous
 62
     3
370
     9
100
AcDbLine
 10
2126.168599006647
 20
752.924099154184
 30
0.0
 11
2286.168879438447
 21
752.924099154184
 31
0.0
  0
LINE
  5
D4
330
1F
100
AcDbEntity
  8
3-0
  6
Continuous
 62
     3
370
     9
100
AcDbLine
 10
2286.168879438447
 20
782.9240125502456
 30
0.0
 11
2286.168879438447
 21
752.924099154184
 31
0.0
  0
LINE
  5
D5
330
1F
100
AcDbEntity
  8
3-0
  6
Continuous
 62
     3
370
     9
100
AcDbLine
 10
2286.168879438447
 20
782.9240125502456
 30
0.0
 11
2286.240142107366
 21
780.2041540198402
 31
0.0
  0
LINE
  5
D6
330
1F
100
AcDbEntity
  8
3-0
  6
Continuous
 62
     3
370
     9
100
AcDbLine
 10
2286.240142107366
 20
780.2041540198402
 30
0.0
 11
2286.240142107366
 21
774.8772695181511
 31
0.0
  0
LINE
  5
D7
330
1F
100
AcDbEntity
  8
3-0
  6
Continuous
 62
     3
370
     9
100
AcDbLine
 10
2286.240142107366
 20
774.8772695181511
 30
0.0
 11
2287.208126693514
 21
772.4560089937105
 31
0.0
  0
LINE
  5
D8
330
1F
100
AcDbEntity
  8
3-0
  6
Continuous
 62
     3
370
     9
100
AcDbLine
 10
2287.208126693514
 20
772.4560089937105
 30
0.0
 11
2287.208126693514
 21
770.0347484692707
 31
0.0
  0
LINE
  5
D9
330
1F
100
AcDbEntity
  8
3-0
  6
Continuous
 62
     3
370
     9
100
AcDbLine
 10
2287.208126693514
 20
770.0347484692707
 30
0.0
 11
2289.145580504747
 21
769.5503850164621
 31
0.0
  0
LINE
  5
DA
330
1F
100
AcDbEntity
  8
3-0
  6
Continuous
 62
     3
370
     9
100
AcDbLine
 10
2289.145580504747
 20
769.5503850164621
 30
0.0
 11
2291.082291996513
 21
771.0032897950199
 31
0.0
  0
LINE
  5
DB
330
1F
100
AcDbEntity
  8
3-0
  6
Continuous
 62
     3
370
     9
100
AcDbLine
 10
2291.082291996513
 20
771.0032897950199
 30
0.0
 11
2293.019745807745
 21
772.4560089937105
 31
0.0
  0
LINE
  5
DC
330
1F
100
AcDbEntity
  8
3-0
  6
Continuous
 62
     3
370
     9
100
AcDbLine
 10
2293.019745807745
 20
772.4560089937105
 30
0.0
 11
2293.987730393894
 21
774.8772695181511
 31
0.0
  0
LINE
  5
DD
330
1F
100
AcDbEntity
  8
3-0
  6
Continuous
 62
     3
370
     9
100
AcDbLine
 10
2293.987730393894
 20
774.8772695181511
 30
0.0
 11
2294.956457299511
 21
777.298715622459
 31
0.0
  0
LINE
  5
DE
330
1F
100
AcDbEntity
  8
3-0
  6
Continuous
 62
     3
370
     9
100
AcDbLine
 10
2294.956457299511
 20
777.298715622459
 30
0.0
 11
2294.956457299511
 21
779.7199761468996
 31
0.0
  0
LINE
  5
DF
330
1F
100
AcDbEntity
  8
3-0
  6
Continuous
 62
     3
370
     9
100
AcDbLine
 10
2294.956457299511
 20
779.7199761468996
 30
0.0
 11
2295.925184205127
 21
782.1410510914731
 31
0.0
  0
LINE
  5
E0
330
1F
100
AcDbEntity
  8
3-0
  6
Continuous
 62
     3
370
     9
100
AcDbLine
 10
2293.503738100821
 20
782.1410510914731
 30
0.0
 11
2297.861895696893
 21
782.1410510914731
 31
0.0
  0
LINE
  5
E1
330
1F
100
AcDbEntity
  8
3-0
  6
Continuous
 62
     3
370
     9
100
AcDbLine
 10
2293.503738100821
 20
782.1410510914731
 30
0.0
 11
2291.566284289586
 21
781.1726953455902
 31
0.0
  0
LINE
  5
E2
330
1F
100
AcDbEntity
  8
3-0
  6
Continuous
 62
     3
370
     9
100
AcDbLine
 10
2291.566284289586
 20
781.1726953455902
 30
0.0
 11
2289.629572797822
 21
780.2041540198402
 31
0.0
  0
LINE
  5
E3
330
1F
100
AcDbEntity
  8
3-0
  6
Continuous
 62
     3
370
     9
100
AcDbLine
 10
2289.629572797822
 20
780.2041540198402
 30
0.0
 11
2288.660845892205
 21
777.7828934954003
 31
0.0
  0
LINE
  5
E4
330
1F
100
AcDbEntity
  8
3-0
  6
Continuous
 62
     3
370
     9
100
AcDbLine
 10
2288.660845892205
 20
777.7828934954003
 30
0.0
 11
2287.692861306057
 21
775.3614473910925
 31
0.0
  0
LINE
  5
E5
330
1F
100
AcDbEntity
  8
3-0
  6
Continuous
 62
     3
370
     9
100
AcDbLine
 10
2287.692861306057
 20
775.3614473910925
 30
0.0
 11
2291.082291996513
 21
774.8772695181511
 31
0.0
  0
LINE
  5
E6
330
1F
100
AcDbEntity
  8
3-0
  6
Continuous
 62
     3
370
     9
100
AcDbLine
 10
2291.082291996513
 20
774.8772695181511
 30
0.0
 11
2293.019745807745
 21
775.8458108439012
 31
0.0
  0
LINE
  5
E7
330
1F
100
AcDbEntity
  8
3-0
  6
Continuous
 62
     3
370
     9
100
AcDbLine
 10
2293.019745807745
 20
775.8458108439012
 30
0.0
 11
2294.956457299511
 21
776.330174296709
 31
0.0
  0
LINE
  5
E8
330
1F
100
AcDbEntity
  8
3-0
  6
Continuous
 62
     3
370
     9
100
AcDbLine
 10
2294.956457299511
 20
776.330174296709
 30
0.0
 11
2296.893168791275
 21
777.7828934954003
 31
0.0
  0
LINE
  5
E9
330
1F
100
AcDbEntity
  8
3-0
  6
Continuous
 62
     3
370
     9
100
AcDbLine
 10
2296.893168791275
 20
777.7828934954003
 30
0.0
 11
2294.472465006436
 21
779.235612694091
 31
0.0
  0
LINE
  5
EA
330
1F
100
AcDbEntity
  8
3-0
  6
Continuous
 62
     3
370
     9
100
AcDbLine
 10
2294.472465006436
 20
779.235612694091
 30
0.0
 11
2292.535011195203
 21
777.7828934954003
 31
0.0
  0
LINE
  5
EB
330
1F
100
AcDbEntity
  8
3-0
  6
Continuous
 62
     3
370
     9
100
AcDbLine
 10
2292.535011195203
 20
777.7828934954003
 30
0.0
 11
2289.629572797822
 21
776.330174296709
 31
0.0
  0
LINE
  5
EC
330
1F
100
AcDbEntity
  8
3-0
  6
Continuous
 62
     3
370
     9
100
AcDbLine
 10
2289.629572797822
 20
776.330174296709
 30
0.0
 11
2287.692861306057
 21
773.4245503194605
 31
0.0
  0
LINE
  5
ED
330
1F
100
AcDbEntity
  8
3-0
  6
Continuous
 62
     3
370
     9
100
AcDbLine
 10
2287.692861306057
 20
773.4245503194605
 30
0.0
 11
2291.082291996513
 21
773.9087281924019
 31
0.0
  0
LINE
  5
EE
330
1F
100
AcDbEntity
  8
3-0
  6
Continuous
 62
     3
370
     9
100
AcDbLine
 10
2291.082291996513
 20
773.9087281924019
 30
0.0
 11
2293.019745807745
 21
775.3614473910925
 31
0.0
  0
LINE
  5
EF
330
1F
100
AcDbEntity
  8
3-0
  6
Continuous
 62
     3
370
     9
100
AcDbLine
 10
2293.019745807745
 20
775.3614473910925
 30
0.0
 11
2294.956457299511
 21
776.8143521696503
 31
0.0
  0
LINE
  5
F0
330
1F
100
AcDbEntity
  8
3-0
  6
Continuous
 62
     3
370
     9
100
AcDbLine
 10
2294.956457299511
 20
776.8143521696503
 30
0.0
 11
2292.535011195203
 21
776.330174296709
 31
0.0
  0
LINE
  5
F1
330
1F
100
AcDbEntity
  8
3-0
  6
Continuous
 62
     3
370
     9
100
AcDbLine
 10
2292.535011195203
 20
776.330174296709
 30
0.0
 11
2290.598299703438
 21
774.8772695181511
 31
0.0
  0
LINE
  5
F2
330
1F
100
AcDbEntity
  8
3-0
  6
Continuous
 62
     3
370
     9
100
AcDbLine
 10
2290.598299703438
 20
774.8772695181511
 30
0.0
 11
2292.051018902128
 21
777.298715622459
 31
0.0
  0
LINE
  5
F3
330
1F
100
AcDbEntity
  8
3-0
  6
Continuous
 62
     3
370
     9
100
AcDbLine
 10
2292.051018902128
 20
777.298715622459
 30
0.0
 11
2293.019745807745
 21
779.7199761468996
 31
0.0
  0
LINE
  5
F4
330
1F
100
AcDbEntity
  8
3-0
  6
Continuous
 62
     3
370
     9
100
AcDbLine
 10
2293.019745807745
 20
779.7199761468996
 30
0.0
 11
2290.598299703438
 21
779.7199761468996
 31
0.0
  0
LINE
  5
F5
330
1F
100
AcDbEntity
  8
3-0
  6
Continuous
 62
     3
370
     9
100
AcDbLine
 10
2290.598299703438
 20
779.7199761468996
 30
0.0
 11
2288.660845892205
 21
778.2670713683409
 31
0.0
  0
LINE
  5
F6
330
1F
100
AcDbEntity
  8
3-0
  6
Continuous
 62
     3
370
     9
100
AcDbLine
 10
2288.660845892205
 20
778.2670713683409
 30
0.0
 11
2286.724134400439
 21
776.8143521696503
 31
0.0
  0
LINE
  5
F7
330
1F
100
AcDbEntity
  8
3-0
  6
Continuous
 62
     3
370
     9
100
AcDbLine
 10
2286.724134400439
 20
776.8143521696503
 30
0.0
 11
2289.145580504747
 21
776.8143521696503
 31
0.0
  0
LINE
  5
F8
330
1F
100
AcDbEntity
  8
3-0
  6
Continuous
 62
     3
370
     9
100
AcDbLine
 10
2289.145580504747
 20
776.8143521696503
 30
0.0
 11
2291.082291996513
 21
779.235612694091
 31
0.0
  0
LINE
  5
F9
330
1F
100
AcDbEntity
  8
3-0
  6
Continuous
 62
     3
370
     9
100
AcDbLine
 10
2291.082291996513
 20
779.235612694091
 30
0.0
 11
2288.660845892205
 21
779.235612694091
 31
0.0
  0
LINE
  5
FA
330
1F
100
AcDbEntity
  8
3-0
  6
Continuous
 62
     3
370
     9
100
AcDbLine
 10
2288.660845892205
 20
779.235612694091
 30
0.0
 11
2287.692861306057
 21
776.8143521696503
 31
0.0
  0
LINE
  5
FB
330
1F
100
AcDbEntity
  8
3-0
  6
Continuous
 62
     3
370
     9
100
AcDbLine
 10
2287.692861306057
 20
776.8143521696503
 30
0.0
 11
2290.114307410364
 21
778.7512492412824
 31
0.0
  0
LINE
  5
FC
330
1F
100
AcDbEntity
  8
3-0
  6
Continuous
 62
     3
370
     9
100
AcDbLine
 10
2290.114307410364
 20
778.7512492412824
 30
0.0
 11
2290.114307410364
 21
781.1726953455902
 31
0.0
  0
LINE
  5
FD
330
1F
100
AcDbEntity
  8
3-0
  6
Continuous
 62
     3
370
     9
100
AcDbLine
 10
2290.114307410364
 20
781.1726953455902
 30
0.0
 11
2287.692861306057
 21
780.2041540198402
 31
0.0
  0
LINE
  5
FE
330
1F
100
AcDbEntity
  8
3-0
  6
Continuous
 62
     3
370
     9
100
AcDbLine
 10
2287.692861306057
 20
780.2041540198402
 30
0.0
 11
2289.145580504747
 21
782.6252289644136
 31
0.0
  0
LINE
  5
FF
330
1F
100
AcDbEntity
  8
3-0
  6
Continuous
 62
     3
370
     9
100
AcDbLine
 10
2289.145580504747
 20
782.6252289644136
 30
0.0
 11
2286.724134400439
 21
780.2041540198402
 31
0.0
  0
LINE
  5
100
330
1F
100
AcDbEntity
  8
3-0
  6
Continuous
 62
     3
370
     9
100
AcDbLine
 10
2286.724134400439
 20
780.2041540198402
 30
0.0
 11
2287.692861306057
 21
777.7828934954003
 31
0.0
  0
LINE
  5
101
330
1F
100
AcDbEntity
  8
3-0
  6
Continuous
 62
     3
370
     9
100
AcDbLine
 10
2287.692861306057
 20
777.7828934954003
 30
0.0
 11
2289.145580504747
 21
775.3614473910925
 31
0.0
  0
LINE
  5
102
330
1F
100
AcDbEntity
  8
3-0
  6
Continuous
 62
     3
370
     9
100
AcDbLine
 10
2289.145580504747
 20
775.3614473910925
 30
0.0
 11
2291.082291996513
 21
774.8772695181511
 31
0.0
  0
LINE
  5
103
330
1F
100
AcDbEntity
  8
3-0
  6
Continuous
 62
     3
370
     9
100
AcDbLine
 10
2291.082291996513
 20
774.8772695181511
 30
0.0
 11
2291.082291996513
 21
775.3614473910925
 31
0.0
  0
LINE
  5
104
330
1F
100
AcDbEntity
  8
3-0
  6
Continuous
 62
     3
370
     9
100
AcDbLine
 10
2126.168599006647
 20
782.9240125502456
 30
0.0
 11
2126.097336337728
 21
780.2041540198402
 31
0.0
  0
LINE
  5
105
330
1F
100
AcDbEntity
  8
3-0
  6
Continuous
 62
     3
370
     9
100
AcDbLine
 10
2126.097336337728
 20
780.2041540198402
 30
0.0
 11
2126.097336337728
 21
774.8772695181511
 31
0.0
  0
LINE
  5
106
330
1F
100
AcDbEntity
  8
3-0
  6
Continuous
 62
     3
370
     9
100
AcDbLine
 10
2126.097336337728
 20
774.8772695181511
 30
0.0
 11
2125.128609432113
 21
772.4560089937105
 31
0.0
  0
LINE
  5
107
330
1F
100
AcDbEntity
  8
3-0
  6
Continuous
 62
     3
370
     9
100
AcDbLine
 10
2125.128609432113
 20
772.4560089937105
 30
0.0
 11
2125.128609432113
 21
770.0347484692707
 31
0.0
  0
LINE
  5
108
330
1F
100
AcDbEntity
  8
3-0
  6
Continuous
 62
     3
370
     9
100
AcDbLine
 10
2125.128609432113
 20
770.0347484692707
 30
0.0
 11
2123.191155620878
 21
769.5503850164621
 31
0.0
  0
LINE
  5
109
330
1F
100
AcDbEntity
  8
3-0
  6
Continuous
 62
     3
370
     9
100
AcDbLine
 10
2123.191155620878
 20
769.5503850164621
 30
0.0
 11
2121.254444129114
 21
771.0032897950199
 31
0.0
  0
LINE
  5
10A
330
1F
100
AcDbEntity
  8
3-0
  6
Continuous
 62
     3
370
     9
100
AcDbLine
 10
2121.254444129114
 20
771.0032897950199
 30
0.0
 11
2119.31699031788
 21
772.4560089937105
 31
0.0
  0
LINE
  5
10B
330
1F
100
AcDbEntity
  8
3-0
  6
Continuous
 62
     3
370
     9
100
AcDbLine
 10
2119.31699031788
 20
772.4560089937105
 30
0.0
 11
2118.349005731732
 21
774.8772695181511
 31
0.0
  0
LINE
  5
10C
330
1F
100
AcDbEntity
  8
3-0
  6
Continuous
 62
     3
370
     9
100
AcDbLine
 10
2118.349005731732
 20
774.8772695181511
 30
0.0
 11
2117.380278826116
 21
777.298715622459
 31
0.0
  0
LINE
  5
10D
330
1F
100
AcDbEntity
  8
3-0
  6
Continuous
 62
     3
370
     9
100
AcDbLine
 10
2117.380278826116
 20
777.298715622459
 30
0.0
 11
2117.380278826116
 21
779.7199761468996
 31
0.0
  0
LINE
  5
10E
330
1F
100
AcDbEntity
  8
3-0
  6
Continuous
 62
     3
370
     9
100
AcDbLine
 10
2117.380278826116
 20
779.7199761468996
 30
0.0
 11
2116.411551920499
 21
782.1410510914731
 31
0.0
  0
LINE
  5
10F
330
1F
100
AcDbEntity
  8
3-0
  6
Continuous
 62
     3
370
     9
100
AcDbLine
 10
2118.832998024807
 20
782.1410510914731
 30
0.0
 11
2114.474840428733
 21
782.1410510914731
 31
0.0
  0
LINE
  5
110
330
1F
100
AcDbEntity
  8
3-0
  6
Continuous
 62
     3
370
     9
100
AcDbLine
 10
2118.832998024807
 20
782.1410510914731
 30
0.0
 11
2120.770451836039
 21
781.1726953455902
 31
0.0
  0
LINE
  5
111
330
1F
100
AcDbEntity
  8
3-0
  6
Continuous
 62
     3
370
     9
100
AcDbLine
 10
2120.770451836039
 20
781.1726953455902
 30
0.0
 11
2122.707163327805
 21
780.2041540198402
 31
0.0
  0
LINE
  5
112
330
1F
100
AcDbEntity
  8
3-0
  6
Continuous
 62
     3
370
     9
100
AcDbLine
 10
2122.707163327805
 20
780.2041540198402
 30
0.0
 11
2123.67589023342
 21
777.7828934954003
 31
0.0
  0
LINE
  5
113
330
1F
100
AcDbEntity
  8
3-0
  6
Continuous
 62
     3
370
     9
100
AcDbLine
 10
2123.67589023342
 20
777.7828934954003
 30
0.0
 11
2124.644617139038
 21
775.3614473910925
 31
0.0
  0
LINE
  5
114
330
1F
100
AcDbEntity
  8
3-0
  6
Continuous
 62
     3
370
     9
100
AcDbLine
 10
2124.644617139038
 20
775.3614473910925
 30
0.0
 11
2121.254444129114
 21
774.8772695181511
 31
0.0
  0
LINE
  5
115
330
1F
100
AcDbEntity
  8
3-0
  6
Continuous
 62
     3
370
     9
100
AcDbLine
 10
2121.254444129114
 20
774.8772695181511
 30
0.0
 11
2119.31699031788
 21
775.8458108439012
 31
0.0
  0
LINE
  5
116
330
1F
100
AcDbEntity
  8
3-0
  6
Continuous
 62
     3
370
     9
100
AcDbLine
 10
2119.31699031788
 20
775.8458108439012
 30
0.0
 11
2117.380278826116
 21
776.330174296709
 31
0.0
  0
LINE
  5
117
330
1F
100
AcDbEntity
  8
3-0
  6
Continuous
 62
     3
370
     9
100
AcDbLine
 10
2117.380278826116
 20
776.330174296709
 30
0.0
 11
2115.443567334351
 21
777.7828934954003
 31
0.0
  0
LINE
  5
118
330
1F
100
AcDbEntity
  8
3-0
  6
Continuous
 62
     3
370
     9
100
AcDbLine
 10
2115.443567334351
 20
777.7828934954003
 30
0.0
 11
2117.865013438658
 21
779.235612694091
 31
0.0
  0
LINE
  5
119
330
1F
100
AcDbEntity
  8
3-0
  6
Continuous
 62
     3
370
     9
100
AcDbLine
 10
2117.865013438658
 20
779.235612694091
 30
0.0
 11
2119.800982610955
 21
777.7828934954003
 31
0.0
  0
LINE
  5
11A
330
1F
100
AcDbEntity
  8
3-0
  6
Continuous
 62
     3
370
     9
100
AcDbLine
 10
2119.800982610955
 20
777.7828934954003
 30
0.0
 11
2122.707163327805
 21
776.330174296709
 31
0.0
  0
LINE
  5
11B
330
1F
100
AcDbEntity
  8
3-0
  6
Continuous
 62
     3
370
     9
100
AcDbLine
 10
2122.707163327805
 20
776.330174296709
 30
0.0
 11
2124.644617139038
 21
773.4245503194605
 31
0.0
  0
LINE
  5
11C
330
1F
100
AcDbEntity
  8
3-0
  6
Continuous
 62
     3
370
     9
100
AcDbLine
 10
2124.644617139038
 20
773.4245503194605
 30
0.0
 11
2121.254444129114
 21
773.9087281924019
 31
0.0
  0
LINE
  5
11D
330
1F
100
AcDbEntity
  8
3-0
  6
Continuous
 62
     3
370
     9
100
AcDbLine
 10
2121.254444129114
 20
773.9087281924019
 30
0.0
 11
2119.31699031788
 21
775.3614473910925
 31
0.0
  0
LINE
  5
11E
330
1F
100
AcDbEntity
  8
3-0
  6
Continuous
 62
     3
370
     9
100
AcDbLine
 10
2119.31699031788
 20
775.3614473910925
 30
0.0
 11
2117.380278826116
 21
776.8143521696503
 31
0.0
  0
LINE
  5
11F
330
1F
100
AcDbEntity
  8
3-0
  6
Continuous
 62
     3
370
     9
100
AcDbLine
 10
2117.380278826116
 20
776.8143521696503
 30
0.0
 11
2119.800982610955
 21
776.330174296709
 31
0.0
  0
LINE
  5
120
330
1F
100
AcDbEntity
  8
3-0
  6
Continuous
 62
     3
370
     9
100
AcDbLine
 10
2119.800982610955
 20
776.330174296709
 30
0.0
 11
2121.738436422188
 21
774.8772695181511
 31
0.0
  0
LINE
  5
121
330
1F
100
AcDbEntity
  8
3-0
  6
Continuous
 62
     3
370
     9
100
AcDbLine
 10
2121.738436422188
 20
774.8772695181511
 30
0.0
 11
2120.285717223497
 21
777.298715622459
 31
0.0
  0
LINE
  5
122
330
1F
100
AcDbEntity
  8
3-0
  6
Continuous
 62
     3
370
     9
100
AcDbLine
 10
2120.285717223497
 20
777.298715622459
 30
0.0
 11
2119.31699031788
 21
779.7199761468996
 31
0.0
  0
LINE
  5
123
330
1F
100
AcDbEntity
  8
3-0
  6
Continuous
 62
     3
370
     9
100
AcDbLine
 10
2119.31699031788
 20
779.7199761468996
 30
0.0
 11
2121.738436422188
 21
779.7199761468996
 31
0.0
  0
LINE
  5
124
330
1F
100
AcDbEntity
  8
3-0
  6
Continuous
 62
     3
370
     9
100
AcDbLine
 10
2121.738436422188
 20
779.7199761468996
 30
0.0
 11
2123.67589023342
 21
778.2670713683409
 31
0.0
  0
LINE
  5
125
330
1F
100
AcDbEntity
  8
3-0
  6
Continuous
 62
     3
370
     9
100
AcDbLine
 10
2123.67589023342
 20
778.2670713683409
 30
0.0
 11
2125.612601725186
 21
776.8143521696503
 31
0.0
  0
LINE
  5
126
330
1F
100
AcDbEntity
  8
3-0
  6
Continuous
 62
     3
370
     9
100
AcDbLine
 10
2125.612601725186
 20
776.8143521696503
 30
0.0
 11
2123.191155620878
 21
776.8143521696503
 31
0.0
  0
LINE
  5
127
330
1F
100
AcDbEntity
  8
3-0
  6
Continuous
 62
     3
370
     9
100
AcDbLine
 10
2123.191155620878
 20
776.8143521696503
 30
0.0
 11
2121.254444129114
 21
779.235612694091
 31
0.0
  0
LINE
  5
128
330
1F
100
AcDbEntity
  8
3-0
  6
Continuous
 62
     3
370
     9
100
AcDbLine
 10
2121.254444129114
 20
779.235612694091
 30
0.0
 11
2123.67589023342
 21
779.235612694091
 31
0.0
  0
LINE
  5
129
330
1F
100
AcDbEntity
  8
3-0
  6
Continuous
 62
     3
370
     9
100
AcDbLine
 10
2123.67589023342
 20
779.235612694091
 30
0.0
 11
2124.644617139038
 21
776.8143521696503
 31
0.0
  0
LINE
  5
12A
330
1F
100
AcDbEntity
  8
3-0
  6
Continuous
 62
     3
370
     9
100
AcDbLine
 10
2124.644617139038
 20
776.8143521696503
 30
0.0
 11
2122.22317103473
 21
778.7512492412824
 31
0.0
  0
LINE
  5
12B
330
1F
100
AcDbEntity
  8
3-0
  6
Continuous
 62
     3
370
     9
100
AcDbLine
 10
2122.22317103473
 20
778.7512492412824
 30
0.0
 11
2122.22317103473
 21
781.1726953455902
 31
0.0
  0
LINE
  5
12C
330
1F
100
AcDbEntity
  8
3-0
  6
Continuous
 62
     3
370
     9
100
AcDbLine
 10
2122.22317103473
 20
781.1726953455902
 30
0.0
 11
2124.644617139038
 21
780.2041540198402
 31
0.0
  0
LINE
  5
12D
330
1F
100
AcDbEntity
  8
3-0
  6
Continuous
 62
     3
370
     9
100
AcDbLine
 10
2124.644617139038
 20
780.2041540198402
 30
0.0
 11
2123.191155620878
 21
782.6252289644136
 31
0.0
  0
LINE
  5
12E
330
1F
100
AcDbEntity
  8
3-0
  6
Continuous
 62
     3
370
     9
100
AcDbLine
 10
2123.191155620878
 20
782.6252289644136
 30
0.0
 11
2125.612601725186
 21
780.2041540198402
 31
0.0
  0
LINE
  5
12F
330
1F
100
AcDbEntity
  8
3-0
  6
Continuous
 62
     3
370
     9
100
AcDbLine
 10
2125.612601725186
 20
780.2041540198402
 30
0.0
 11
2124.644617139038
 21
777.7828934954003
 31
0.0
  0
LINE
  5
130
330
1F
100
AcDbEntity
  8
3-0
  6
Continuous
 62
     3
370
     9
100
AcDbLine
 10
2124.644617139038
 20
777.7828934954003
 30
0.0
 11
2123.191155620878
 21
775.3614473910925
 31
0.0
  0
LINE
  5
131
330
1F
100
AcDbEntity
  8
3-0
  6
Continuous
 62
     3
370
     9
100
AcDbLine
 10
2123.191155620878
 20
775.3614473910925
 30
0.0
 11
2121.254444129114
 21
774.8772695181511
 31
0.0
  0
LINE
  5
132
330
1F
100
AcDbEntity
  8
3-0
  6
Continuous
 62
     3
370
     9
100
AcDbLine
 10
2121.254444129114
 20
774.8772695181511
 30
0.0
 11
2121.254444129114
 21
775.3614473910925
 31
0.0
  0
ARC
  5
133
330
1F
100
AcDbEntity
  8
3-0
  6
Continuous
 62
     3
370
     9
100
AcDbCircle
 10
2296.168664990601
 20
967.9239424422965
 30
0.0
 40
14.99999874346965
100
AcDbArc
 50
90.0
 51
180.0
  0
ARC
  5
134
330
1F
100
AcDbEntity
  8
3-0
  6
Continuous
 62
     3
370
     9
100
AcDbCircle
 10
2121.168335070836
 20
792.9239836822668
 30
0.0
 40
14.99999874346965
100
AcDbArc
 50
90.0
 51
180.0
  0
ARC
  5
135
330
1F
100
AcDbEntity
  8
3-0
  6
Continuous
 62
     3
370
     9
100
AcDbCircle
 10
2256.168038143051
 20
832.9238682103496
 30
0.0
 40
24.99999742250185
100
AcDbArc
 50
270.0
 51
0.0
  0
LINE
  5
136
330
1F
100
AcDbEntity
  8
3-0
  6
JWW_CENTER1
 62
     4
370
     9
100
AcDbLine
 10
2206.168368062813
 20
842.8365050057774
 30
0.0
 11
2206.168368062813
 21
662.8024581360971
 31
0.0
  0
LINE
  5
137
330
1F
100
AcDbEntity
  8
3-0
  6
Continuous
 62
     7
370
     9
100
AcDbLine
 10
2244.918186606943
 20
744.9243078284339
 30
0.0
 11
2244.918186606943
 21
752.9239135743168
 31
0.0
  0
LINE
  5
138
330
1F
100
AcDbEntity
  8
3-0
  6
Continuous
 62
     7
370
     9
100
AcDbLine
 10
2244.918186606943
 20
744.9243078284339
 30
0.0
 11
2167.418549518683
 21
744.9243078284339
 31
0.0
  0
LINE
  5
139
330
1F
100
AcDbEntity
  8
3-0
  6
Continuous
 62
     7
370
     9
100
AcDbLine
 10
2167.418549518683
 20
744.9243078284339
 30
0.0
 11
2167.418549518683
 21
752.9239135743168
 31
0.0
  0
LINE
  5
13A
330
1F
100
AcDbEntity
  8
3-0
  6
Continuous
 62
     7
370
     9
100
AcDbLine
 10
2191.667899576749
 20
712.4238913047332
 30
0.0
 11
2191.667899576749
 21
707.9280334473636
 31
0.0
  0
LINE
  5
13B
330
1F
100
AcDbEntity
  8
3-0
  6
Continuous
 62
     7
370
     9
100
AcDbLine
 10
2220.66809422941
 20
712.4238913047332
 30
0.0
 11
2220.66809422941
 21
707.9280334473636
 31
0.0
  0
LINE
  5
13C
330
1F
100
AcDbEntity
  8
3-0
  6
Continuous
 62
     7
370
     9
100
AcDbLine
 10
2191.667899576749
 20
707.9280334473636
 30
0.0
 11
2187.172412879114
 21
712.4238913047332
 31
0.0
  0
LINE
  5
13D
330
1F
100
AcDbEntity
  8
3-0
  6
Continuous
 62
     7
370
     9
100
AcDbLine
 10
2220.66809422941
 20
707.9280334473636
 30
0.0
 11
2225.164323246513
 21
712.4238913047332
 31
0.0
  0
LINE
  5
13E
330
1F
100
AcDbEntity
  8
3-0
  6
Continuous
 62
     7
370
     9
100
AcDbLine
 10
2191.667899576749
 20
707.9280334473636
 30
0.0
 11
2220.66809422941
 21
707.9280334473636
 31
0.0
  0
LINE
  5
13F
330
1F
100
AcDbEntity
  8
3-0
  6
Continuous
 62
     7
370
     9
100
AcDbLine
 10
2238.668599006647
 20
744.9243078284339
 30
0.0
 11
2238.668599006647
 21
716.0323062382206
 31
0.0
  0
LINE
  5
140
330
1F
100
AcDbEntity
  8
3-0
  6
Continuous
 62
     7
370
     9
100
AcDbLine
 10
2173.668879438447
 20
744.9243078284339
 30
0.0
 11
2173.668879438447
 21
716.0323062382206
 31
0.0
  0
ARC
  5
141
330
1F
100
AcDbEntity
  8
3-0
  6
Continuous
 62
     7
370
     9
100
AcDbCircle
 10
2189.918252590895
 20
750.817953243869
 30
0.0
 40
38.39398944700087
100
AcDbArc
 50
244.9606628417968
 51
295.0396728515625
  0
ARC
  5
142
330
1F
100
AcDbEntity
  8
3-0
  6
Continuous
 62
     7
370
     9
100
AcDbCircle
 10
2222.41848353473
 20
750.817953243869
 30
0.0
 40
38.39398944700087
100
AcDbArc
 50
244.9603271484375
 51
295.0393371582032
  0
LINE
  5
143
330
1F
100
AcDbEntity
  8
3-0
  6
Continuous
 62
     7
370
     9
100
AcDbLine
 10
2206.168368062813
 20
744.9243078284339
 30
0.0
 11
2206.1683922989
 21
716.0324252116026
 31
0.0
  0
LINE
  5
144
330
1F
100
AcDbEntity
  8
3-0
  6
Continuous
 62
     3
370
     9
100
AcDbLine
 10
2181.168368062813
 20
782.9240125502456
 30
0.0
 11
2181.168368062813
 21
752.9239135743168
 31
0.0
  0
LINE
  5
145
330
1F
100
AcDbEntity
  8
3-0
  6
Continuous
 62
     3
370
     9
100
AcDbLine
 10
2231.168368062813
 20
782.9240125502456
 30
0.0
 11
2231.168368062813
 21
752.9239135743168
 31
0.0
  0
LINE
  5
146
330
1F
100
AcDbEntity
  8
3-0
  6
JWW_DASHED1
 62
     7
370
     9
100
AcDbLine
 10
2166.66806453663
 20
807.9505345131058
 30
0.0
 11
2166.66806453663
 21
806.4506780282036
 31
0.0
  0
LINE
  5
147
330
1F
100
AcDbEntity
  8
3-0
  6
JWW_DASHED1
 62
     7
370
     9
100
AcDbLine
 10
2245.667929269527
 20
807.9505345131058
 30
0.0
 11
2245.667929269527
 21
806.4506780282036
 31
0.0
  0
LINE
  5
148
330
1F
100
AcDbEntity
  8
3-0
  6
Continuous
 62
     7
370
     9
100
AcDbLine
 10
2166.66806453663
 20
807.9505345131058
 30
0.0
 11
2245.667929269527
 21
807.9505345131058
 31
0.0
  0
LINE
  5
149
330
1F
100
AcDbEntity
  8
3-0
  6
Continuous
 62
     7
370
     9
100
AcDbLine
 10
2166.66806453663
 20
806.4506780282036
 30
0.0
 11
2245.667929269527
 21
806.4506780282036
 31
0.0
  0
LINE
  5
14A
330
1F
100
AcDbEntity
  8
3-0
  6
Continuous
 62
     7
370
     9
100
AcDbLine
 10
2225.840576281774
 20
786.6233250404496
 30
0.0
 11
2245.667929269527
 21
806.4506780282036
 31
0.0
  0
LINE
  5
14B
330
1F
100
AcDbEntity
  8
3-0
  6
Continuous
 62
     7
370
     9
100
AcDbLine
 10
2187.996387488488
 20
784.7007176185746
 30
0.0
 11
2224.339606317669
 21
784.7007176185746
 31
0.0
  0
LINE
  5
14C
330
1F
100
AcDbEntity
  8
3-0
  6
Continuous
 62
     7
370
     9
100
AcDbLine
 10
2186.495417524383
 20
786.6233250404496
 30
0.0
 11
2166.66806453663
 21
806.4506780282036
 31
0.0
  0
LINE
  5
14D
330
1F
100
AcDbEntity
  8
3-0
  6
Continuous
 62
     7
370
     9
100
AcDbLine
 10
2223.233550310491
 20
782.068823945116
 30
0.0
 11
2220.66809422941
 21
772.2004289387817
 31
0.0
  0
LINE
  5
14E
330
1F
100
AcDbEntity
  8
3-0
  6
Continuous
 62
     7
370
     9
100
AcDbLine
 10
2189.101701176201
 20
782.068823945116
 30
0.0
 11
2191.667899576749
 21
772.2004289387817
 31
0.0
  0
LINE
  5
14F
330
1F
100
AcDbEntity
  8
3-0
  6
Continuous
 62
     7
370
     9
100
AcDbLine
 10
2186.168054639038
 20
772.2004289387817
 30
0.0
 11
2226.16793916712
 21
772.2004289387817
 31
0.0
  0
LINE
  5
150
330
1F
100
AcDbEntity
  8
3-0
  6
Continuous
 62
     7
370
     9
100
AcDbLine
 10
2186.168054639038
 20
772.2004289387817
 30
0.0
 11
2189.960564800566
 21
778.7688427505426
 31
0.0
  0
LINE
  5
151
330
1F
100
AcDbEntity
  8
3-0
  6
Continuous
 62
     7
370
     9
100
AcDbLine
 10
2226.16793916712
 20
772.2004289387817
 30
0.0
 11
2222.37617132506
 21
778.7688427505426
 31
0.0
  0
ARC
  5
152
330
1F
100
AcDbEntity
  8
3-0
  6
Continuous
 62
     7
370
     9
100
AcDbCircle
 10
2232.911911533041
 20
779.5523609489168
 30
0.0
 40
9.999999403953552
100
AcDbArc
 50
135.0
 51
165.4257965087891
  0
ARC
  5
153
330
1F
100
AcDbEntity
  8
3-0
  6
Continuous
 62
     7
370
     9
100
AcDbCircle
 10
2179.424082273118
 20
779.5523609489168
 30
0.0
 40
9.999999403953552
100
AcDbArc
 50
14.57420349121094
 51
45.0
  0
LINE
  5
154
330
1F
100
AcDbEntity
  8
3-0
  6
Continuous
 62
     7
370
     9
100
AcDbLine
 10
2186.168054639038
 20
772.2004289387817
 30
0.0
 11
2186.168054639038
 21
752.9239135743168
 31
0.0
  0
LINE
  5
155
330
1F
100
AcDbEntity
  8
3-0
  6
Continuous
 62
     7
370
     9
100
AcDbLine
 10
2191.667899576749
 20
772.2004289387817
 30
0.0
 11
2191.667899576749
 21
752.9239135743168
 31
0.0
  0
LINE
  5
156
330
1F
100
AcDbEntity
  8
3-0
  6
Continuous
 62
     7
370
     9
100
AcDbLine
 10
2220.66809422941
 20
772.2004289387817
 30
0.0
 11
2220.66809422941
 21
752.9239135743168
 31
0.0
  0
LINE
  5
157
330
1F
100
AcDbEntity
  8
3-0
  6
Continuous
 62
     7
370
     9
100
AcDbLine
 10
2226.16793916712
 20
772.2004289387817
 30
0.0
 11
2226.16793916712
 21
752.9239135743168
 31
0.0
  0
LINE
  5
158
330
1F
100
AcDbEntity
  8
3-0
  6
Continuous
 62
     3
370
     9
100
AcDbLine
 10
2106.169027902339
 20
782.9240125502456
 30
0.0
 11
2186.168368062813
 21
782.9240125502456
 31
0.0
  0
LINE
  5
159
330
1F
100
AcDbEntity
  8
3-0
  6
Continuous
 62
     3
370
     9
100
AcDbLine
 10
2226.168368062813
 20
782.9240125502456
 30
0.0
 11
2306.168450542753
 21
782.9240125502456
 31
0.0
  0
LINE
  5
15A
330
1F
100
AcDbEntity
  8
3-0
  6
Continuous
 62
     3
370
     9
100
AcDbLine
 10
2186.168368062813
 20
782.9240125502456
 30
0.0
 11
2166.171485339205
 21
807.9238475903644
 31
0.0
  0
LINE
  5
15B
330
1F
100
AcDbEntity
  8
3-0
  6
Continuous
 62
     3
370
     9
100
AcDbLine
 10
2166.171485339205
 20
807.9238475903644
 30
0.0
 11
2121.168335070836
 21
807.9238475903644
 31
0.0
  0
LINE
  5
15C
330
1F
100
AcDbEntity
  8
3-0
  6
Continuous
 62
     3
370
     9
100
AcDbLine
 10
2256.168038143051
 20
807.9238475903644
 30
0.0
 11
2246.165250786422
 21
807.9238475903644
 31
0.0
  0
LINE
  5
15D
330
1F
100
AcDbEntity
  8
3-0
  6
Continuous
 62
     3
370
     9
100
AcDbLine
 10
2226.168368062813
 20
782.9240125502456
 30
0.0
 11
2246.165250786422
 21
807.9238475903644
 31
0.0
  0
LINE
  5
15E
330
1F
100
AcDbEntity
  8
3-0
  6
Continuous
 62
     3
370
     9
100
AcDbLine
 10
1332.550780021424
 20
982.9271467879996
 30
0.0
 11
1332.550780021424
 21
782.9240125502456
 31
0.0
  0
LINE
  5
15F
330
1F
100
AcDbEntity
  8
3-0
  6
Continuous
 62
     3
370
     9
100
AcDbLine
 10
1582.55135738101
 20
782.9240125502456
 30
0.0
 11
1582.55135738101
 21
752.9239135743168
 31
0.0
  0
LINE
  5
160
330
1F
100
AcDbEntity
  8
3-0
  6
Continuous
 62
     3
370
     9
100
AcDbLine
 10
878.621683077801
 20
982.9271467879996
 30
0.0
 11
1730.599552060063
 21
982.9271467879996
 31
0.0
  0
LINE
  5
161
330
1F
100
AcDbEntity
  8
3-0
  6
Continuous
 62
     3
370
     9
100
AcDbLine
 10
1582.55135738101
 20
782.9240125502456
 30
0.0
 11
1582.463763683798
 21
780.8202791782019
 31
0.0
  0
LINE
  5
162
330
1F
100
AcDbEntity
  8
3-0
  6
Continuous
 62
     3
370
     9
100
AcDbLine
 10
1582.463763683798
 20
780.8202791782019
 30
0.0
 11
1583.395374616018
 21
778.4918085872496
 31
0.0
  0
LINE
  5
163
330
1F
100
AcDbEntity
  8
3-0
  6
Continuous
 62
     3
370
     9
100
AcDbLine
 10
1583.395374616018
 20
778.4918085872496
 30
0.0
 11
1583.395374616018
 21
776.1637091560316
 31
0.0
  0
LINE
  5
164
330
1F
100
AcDbEntity
  8
3-0
  6
Continuous
 62
     3
370
     9
100
AcDbLine
 10
1583.395374616018
 20
776.1637091560316
 30
0.0
 11
1582.929940309642
 21
773.8352385650793
 31
0.0
  0
LINE
  5
165
330
1F
100
AcDbEntity
  8
3-0
  6
Continuous
 62
     3
370
     9
100
AcDbLine
 10
1582.929940309642
 20
773.8352385650793
 30
0.0
 11
1585.258596480462
 21
772.9038132127246
 31
0.0
  0
LINE
  5
166
330
1F
100
AcDbEntity
  8
3-0
  6
Continuous
 62
     3
370
     9
100
AcDbLine
 10
1585.258596480462
 20
772.9038132127246
 30
0.0
 11
1586.655641719059
 21
775.2322838036769
 31
0.0
  0
LINE
  5
167
330
1F
100
AcDbEntity
  8
3-0
  6
Continuous
 62
     3
370
     9
100
AcDbLine
 10
1586.655641719059
 20
775.2322838036769
 30
0.0
 11
1588.518121264034
 21
775.6979036899206
 31
0.0
  0
LINE
  5
168
330
1F
100
AcDbEntity
  8
3-0
  6
Continuous
 62
     3
370
     9
100
AcDbLine
 10
1588.518121264034
 20
775.6979036899206
 30
0.0
 11
1590.380600809009
 21
777.5603832348957
 31
0.0
  0
LINE
  5
169
330
1F
100
AcDbEntity
  8
3-0
  6
Continuous
 62
     3
370
     9
100
AcDbLine
 10
1590.380600809009
 20
777.5603832348957
 30
0.0
 11
1592.243080353984
 21
778.4918085872496
 31
0.0
  0
LINE
  5
16A
330
1F
100
AcDbEntity
  8
3-0
  6
Continuous
 62
     3
370
     9
100
AcDbLine
 10
1592.243080353984
 20
778.4918085872496
 30
0.0
 11
1592.243080353984
 21
780.8202791782019
 31
0.0
  0
LINE
  5
16B
330
1F
100
AcDbEntity
  8
3-0
  6
Continuous
 62
     3
370
     9
100
AcDbLine
 10
1592.243080353984
 20
780.8202791782019
 30
0.0
 11
1589.914424183163
 21
782.2171388369331
 31
0.0
  0
LINE
  5
16C
330
1F
100
AcDbEntity
  8
3-0
  6
Continuous
 62
     3
370
     9
100
AcDbLine
 10
1589.914424183163
 20
782.2171388369331
 30
0.0
 11
1588.051944638188
 21
782.2171388369331
 31
0.0
  0
LINE
  5
16D
330
1F
100
AcDbEntity
  8
3-0
  6
Continuous
 62
     3
370
     9
100
AcDbLine
 10
1588.051944638188
 20
782.2171388369331
 30
0.0
 11
1586.189465093215
 21
781.7515189506894
 31
0.0
  0
LINE
  5
16E
330
1F
100
AcDbEntity
  8
3-0
  6
Continuous
 62
     3
370
     9
100
AcDbLine
 10
1586.189465093215
 20
781.7515189506894
 30
0.0
 11
1584.32698554824
 21
780.3546592919581
 31
0.0
  0
LINE
  5
16F
330
1F
100
AcDbEntity
  8
3-0
  6
Continuous
 62
     3
370
     9
100
AcDbLine
 10
1584.32698554824
 20
780.3546592919581
 30
0.0
 11
1586.655641719059
 21
779.4232339396043
 31
0.0
  0
LINE
  5
170
330
1F
100
AcDbEntity
  8
3-0
  6
Continuous
 62
     3
370
     9
100
AcDbLine
 10
1584.32698554824
 20
780.3546592919581
 30
0.0
 11
1586.655641719059
 21
778.9576140533605
 31
0.0
  0
LINE
  5
171
330
1F
100
AcDbEntity
  8
3-0
  6
Continuous
 62
     3
370
     9
100
AcDbLine
 10
1586.655641719059
 20
778.9576140533605
 30
0.0
 11
1588.518121264034
 21
779.4232339396043
 31
0.0
  0
LINE
  5
172
330
1F
100
AcDbEntity
  8
3-0
  6
Continuous
 62
     3
370
     9
100
AcDbLine
 10
1588.518121264034
 20
779.4232339396043
 30
0.0
 11
1586.189465093215
 21
780.3546592919581
 31
0.0
  0
LINE
  5
173
330
1F
100
AcDbEntity
  8
3-0
  6
Continuous
 62
     3
370
     9
100
AcDbLine
 10
1586.189465093215
 20
780.3546592919581
 30
0.0
 11
1584.32698554824
 21
778.9576140533605
 31
0.0
  0
LINE
  5
174
330
1F
100
AcDbEntity
  8
3-0
  6
Continuous
 62
     3
370
     9
100
AcDbLine
 10
1584.32698554824
 20
778.9576140533605
 30
0.0
 11
1583.395374616018
 21
776.6291434624081
 31
0.0
  0
LINE
  5
175
330
1F
100
AcDbEntity
  8
3-0
  6
Continuous
 62
     3
370
     9
100
AcDbLine
 10
1583.395374616018
 20
776.6291434624081
 30
0.0
 11
1585.724030786839
 21
777.0947633486519
 31
0.0
  0
LINE
  5
176
330
1F
100
AcDbEntity
  8
3-0
  6
Continuous
 62
     3
370
     9
100
AcDbLine
 10
1585.724030786839
 20
777.0947633486519
 30
0.0
 11
1587.586510331812
 21
778.0261887010058
 31
0.0
  0
LINE
  5
177
330
1F
100
AcDbEntity
  8
3-0
  6
Continuous
 62
     3
370
     9
100
AcDbLine
 10
1587.586510331812
 20
778.0261887010058
 30
0.0
 11
1585.258596480462
 21
778.0261887010058
 31
0.0
  0
LINE
  5
178
330
1F
100
AcDbEntity
  8
3-0
  6
Continuous
 62
     3
370
     9
100
AcDbLine
 10
1585.258596480462
 20
778.0261887010058
 30
0.0
 11
1583.395374616018
 21
777.0947633486519
 31
0.0
  0
LINE
  5
179
330
1F
100
AcDbEntity
  8
3-0
  6
Continuous
 62
     3
370
     9
100
AcDbLine
 10
1583.395374616018
 20
777.0947633486519
 30
0.0
 11
1585.724030786839
 21
777.0947633486519
 31
0.0
  0
LINE
  5
17A
330
1F
100
AcDbEntity
  8
3-0
  6
Continuous
 62
     3
370
     9
100
AcDbLine
 10
1585.724030786839
 20
777.0947633486519
 30
0.0
 11
1588.518121264034
 21
778.0261887010058
 31
0.0
  0
LINE
  5
17B
330
1F
100
AcDbEntity
  8
3-0
  6
Continuous
 62
     3
370
     9
100
AcDbLine
 10
1588.518121264034
 20
778.0261887010058
 30
0.0
 11
1590.380600809009
 21
779.4232339396043
 31
0.0
  0
LINE
  5
17C
330
1F
100
AcDbEntity
  8
3-0
  6
Continuous
 62
     3
370
     9
100
AcDbLine
 10
1590.380600809009
 20
779.4232339396043
 30
0.0
 11
1588.051944638188
 21
779.4232339396043
 31
0.0
  0
LINE
  5
17D
330
1F
100
AcDbEntity
  8
3-0
  6
Continuous
 62
     3
370
     9
100
AcDbLine
 10
1588.051944638188
 20
779.4232339396043
 30
0.0
 11
1586.189465093215
 21
777.5603832348957
 31
0.0
  0
LINE
  5
17E
330
1F
100
AcDbEntity
  8
3-0
  6
Continuous
 62
     3
370
     9
100
AcDbLine
 10
1586.189465093215
 20
777.5603832348957
 30
0.0
 11
1589.448989876787
 21
778.9576140533605
 31
0.0
  0
LINE
  5
17F
330
1F
100
AcDbEntity
  8
3-0
  6
Continuous
 62
     3
370
     9
100
AcDbLine
 10
1589.448989876787
 20
778.9576140533605
 30
0.0
 11
1591.311469421762
 21
779.8888538258481
 31
0.0
  0
LINE
  5
180
330
1F
100
AcDbEntity
  8
3-0
  6
Continuous
 62
     3
370
     9
100
AcDbLine
 10
1591.311469421762
 20
779.8888538258481
 30
0.0
 11
1588.98355557041
 21
778.0261887010058
 31
0.0
  0
LINE
  5
181
330
1F
100
AcDbEntity
  8
3-0
  6
Continuous
 62
     3
370
     9
100
AcDbLine
 10
1588.98355557041
 20
778.0261887010058
 30
0.0
 11
1589.448989876787
 21
780.3546592919581
 31
0.0
  0
LINE
  5
182
330
1F
100
AcDbEntity
  8
3-0
  6
Continuous
 62
     3
370
     9
100
AcDbLine
 10
1589.448989876787
 20
780.3546592919581
 30
0.0
 11
1585.258596480462
 21
780.3546592919581
 31
0.0
  0
LINE
  5
183
330
1F
100
AcDbEntity
  8
3-0
  6
Continuous
 62
     3
370
     9
100
AcDbLine
 10
1585.258596480462
 20
780.3546592919581
 30
0.0
 11
1584.32698554824
 21
782.6827587231769
 31
0.0
  0
LINE
  5
184
330
1F
100
AcDbEntity
  8
3-0
  6
Continuous
 62
     3
370
     9
100
AcDbLine
 10
1584.32698554824
 20
782.6827587231769
 30
0.0
 11
1584.32698554824
 21
780.3546592919581
 31
0.0
  0
LINE
  5
185
330
1F
100
AcDbEntity
  8
3-0
  6
Continuous
 62
     3
370
     9
100
AcDbLine
 10
1584.32698554824
 20
780.3546592919581
 30
0.0
 11
1582.463763683798
 21
778.9576140533605
 31
0.0
  0
LINE
  5
186
330
1F
100
AcDbEntity
  8
3-0
  6
Continuous
 62
     3
370
     9
100
AcDbLine
 10
1582.463763683798
 20
778.9576140533605
 30
0.0
 11
1582.463763683798
 21
776.6291434624081
 31
0.0
  0
LINE
  5
187
330
1F
100
AcDbEntity
  8
3-0
  6
Continuous
 62
     3
370
     9
100
AcDbLine
 10
1582.463763683798
 20
776.6291434624081
 30
0.0
 11
1584.792419854617
 21
777.5603832348957
 31
0.0
  0
LINE
  5
188
330
1F
100
AcDbEntity
  8
3-0
  6
Continuous
 62
     3
370
     9
100
AcDbLine
 10
1584.792419854617
 20
777.5603832348957
 30
0.0
 11
1584.32698554824
 21
775.2322838036769
 31
0.0
  0
LINE
  5
189
330
1F
100
AcDbEntity
  8
3-0
  6
Continuous
 62
     3
370
     9
100
AcDbLine
 10
1584.32698554824
 20
775.2322838036769
 30
0.0
 11
1583.861551241863
 21
774.7666639174331
 31
0.0
  0
ARC
  5
18A
330
1F
100
AcDbEntity
  8
3-0
  6
Continuous
 62
     3
370
     9
100
AcDbCircle
 10
1341.94334824883
 20
783.2714180612253
 30
0.0
 40
9.508535346469364
100
AcDbArc
 50
182.1183013916016
 51
357.9061584472656
  0
ARC
  5
18B
330
1F
100
AcDbEntity
  8
3-0
  6
Continuous
 62
     3
370
     9
100
AcDbCircle
 10
1360.947468946677
 20
783.2714180612253
 30
0.0
 40
9.508535346469364
100
AcDbArc
 50
182.1183013916016
 51
357.9061584472656
  0
ARC
  5
18C
330
1F
100
AcDbEntity
  8
3-0
  6
Continuous
 62
     3
370
     9
100
AcDbCircle
 10
1379.951589644524
 20
783.2714180612253
 30
0.0
 40
9.508535346469364
100
AcDbArc
 50
182.1183013916016
 51
357.9061584472656
  0
ARC
  5
18D
330
1F
100
AcDbEntity
  8
3-0
  6
Continuous
 62
     3
370
     9
100
AcDbCircle
 10
1398.95571034237
 20
783.2714180612253
 30
0.0
 40
9.508535346469364
100
AcDbArc
 50
182.1183013916016
 51
357.9061584472656
  0
ARC
  5
18E
330
1F
100
AcDbEntity
  8
3-0
  6
Continuous
 62
     3
370
     9
100
AcDbCircle
 10
1417.959831040217
 20
783.2714180612253
 30
0.0
 40
9.508535346469364
100
AcDbArc
 50
182.1183013916016
 51
357.9061584472656
  0
ARC
  5
18F
330
1F
100
AcDbEntity
  8
3-0
  6
Continuous
 62
     3
370
     9
100
AcDbCircle
 10
1436.963951738062
 20
783.2714180612253
 30
0.0
 40
9.508535346469364
100
AcDbArc
 50
182.1183013916016
 51
357.9061584472656
  0
ARC
  5
190
330
1F
100
AcDbEntity
  8
3-0
  6
Continuous
 62
     3
370
     9
100
AcDbCircle
 10
1455.968072435909
 20
783.2714180612253
 30
0.0
 40
9.508535346469364
100
AcDbArc
 50
182.1183013916016
 51
357.9061584472656
  0
ARC
  5
191
330
1F
100
AcDbEntity
  8
3-0
  6
Continuous
 62
     3
370
     9
100
AcDbCircle
 10
1474.972193133756
 20
783.2714180612253
 30
0.0
 40
9.508535346469364
100
AcDbArc
 50
182.1183013916016
 51
357.9061584472656
  0
ARC
  5
192
330
1F
100
AcDbEntity
  8
3-0
  6
Continuous
 62
     3
370
     9
100
AcDbCircle
 10
1493.976313831601
 20
783.2714180612253
 30
0.0
 40
9.508535346469364
100
AcDbArc
 50
182.1183013916016
 51
357.9061584472656
  0
ARC
  5
193
330
1F
100
AcDbEntity
  8
3-0
  6
Continuous
 62
     3
370
     9
100
AcDbCircle
 10
1512.980434529448
 20
783.2714180612253
 30
0.0
 40
9.508535346469364
100
AcDbArc
 50
182.1183013916016
 51
357.9061584472656
  0
ARC
  5
194
330
1F
100
AcDbEntity
  8
3-0
  6
Continuous
 62
     3
370
     9
100
AcDbCircle
 10
1531.984555227293
 20
783.2714180612253
 30
0.0
 40
9.508535346469364
100
AcDbArc
 50
182.1183013916016
 51
357.9061584472656
  0
ARC
  5
195
330
1F
100
AcDbEntity
  8
3-0
  6
Continuous
 62
     3
370
     9
100
AcDbCircle
 10
1550.98867592514
 20
783.2714180612253
 30
0.0
 40
9.508535346469364
100
AcDbArc
 50
182.1183013916016
 51
357.9061584472656
  0
ARC
  5
196
330
1F
100
AcDbEntity
  8
3-0
  6
Continuous
 62
     3
370
     9
100
AcDbCircle
 10
1569.992796622987
 20
783.2714180612253
 30
0.0
 40
9.508535346469364
100
AcDbArc
 50
182.1183013916016
 51
357.9061584472656
  0
LINE
  5
197
330
1F
100
AcDbEntity
  8
3-4
  6
Continuous
 62
     3
370
     9
100
AcDbLine
 10
1065.69599569003
 20
782.9240125502456
 30
0.0
 11
1065.69599569003
 21
752.9239135743168
 31
0.0
  0
LINE
  5
198
330
1F
100
AcDbEntity
  8
3-0
  6
Continuous
 62
     3
370
     9
100
AcDbLine
 10
1065.69599569003
 20
752.9239135743168
 30
0.0
 11
1582.55135738101
 21
752.9239135743168
 31
0.0
  0
LINE
  5
199
330
1F
100
AcDbEntity
  8
3-0
  6
Continuous
 62
     4
370
     9
100
AcDbLine
 10
888.5123476681729
 20
900.0566427695769
 30
0.0
 11
878.621683077801
 21
894.3461646828472
 31
0.0
  0
LINE
  5
19A
330
1F
100
AcDbEntity
  8
3-0
  6
Continuous
 62
     4
370
     9
100
AcDbLine
 10
878.621683077801
 20
1002.927274631907
 30
0.0
 11
878.621683077801
 21
894.3461646828472
 31
0.0
  0
LINE
  5
19B
330
1F
100
AcDbEntity
  8
3-0
  6
Continuous
 62
     4
370
     9
100
AcDbLine
 10
868.7310184874291
 20
865.7945165686683
 30
0.0
 11
888.5123476681729
 21
900.0566427695769
 31
0.0
  0
LINE
  5
19C
330
1F
100
AcDbEntity
  8
3-0
  6
Continuous
 62
     4
370
     9
100
AcDbLine
 10
868.7310184874291
 20
865.7945165686683
 30
0.0
 11
878.621683077801
 21
871.504994655398
 31
0.0
  0
LINE
  5
19D
330
1F
100
AcDbEntity
  8
3-0
  6
Continuous
 62
     4
370
     9
100
AcDbLine
 10
878.621683077801
 20
871.504994655398
 30
0.0
 11
878.621683077801
 21
762.9240702862043
 31
0.0
  0
LINE
  5
19E
330
1F
100
AcDbEntity
  8
3-0
  6
Continuous
 62
     4
370
     9
100
AcDbLine
 10
1740.490216650435
 20
900.0566427695769
 30
0.0
 11
1730.599552060063
 21
894.3461646828472
 31
0.0
  0
LINE
  5
19F
330
1F
100
AcDbEntity
  8
3-0
  6
Continuous
 62
     4
370
     9
100
AcDbLine
 10
1730.599552060063
 20
1002.927274631907
 30
0.0
 11
1730.599552060063
 21
894.3461646828472
 31
0.0
  0
LINE
  5
1A0
330
1F
100
AcDbEntity
  8
3-0
  6
Continuous
 62
     4
370
     9
100
AcDbLine
 10
1720.708887469693
 20
865.7945165686683
 30
0.0
 11
1740.490216650435
 21
900.0566427695769
 31
0.0
  0
LINE
  5
1A1
330
1F
100
AcDbEntity
  8
3-0
  6
Continuous
 62
     4
370
     9
100
AcDbLine
 10
1720.708887469693
 20
865.7945165686683
 30
0.0
 11
1730.599552060063
 21
871.504994655398
 31
0.0
  0
LINE
  5
1A2
330
1F
100
AcDbEntity
  8
3-0
  6
Continuous
 62
     4
370
     9
100
AcDbLine
 10
1730.599552060063
 20
871.504994655398
 30
0.0
 11
1730.599552060063
 21
762.9240702862043
 31
0.0
  0
LINE
  5
1A3
330
1F
100
AcDbEntity
  8
3-0
  6
Continuous
 62
     7
370
     9
100
AcDbLine
 10
1245.050532581601
 20
716.0323062382206
 30
0.0
 11
1245.050532581601
 21
744.9243078284339
 31
0.0
  0
LINE
  5
1A4
330
1F
100
AcDbEntity
  8
3-0
  6
Continuous
 62
     7
370
     9
100
AcDbLine
 10
1226.286181071888
 20
716.0323062382206
 30
0.0
 11
1226.286181071888
 21
744.9243078284339
 31
0.0
  0
LINE
  5
1A5
330
1F
100
AcDbEntity
  8
3-0
  6
Continuous
 62
     7
370
     9
100
AcDbLine
 10
1188.813894332023
 20
716.0323062382206
 30
0.0
 11
1188.813894332023
 21
744.9243078284339
 31
0.0
  0
LINE
  5
1A6
330
1F
100
AcDbEntity
  8
3-0
  6
Continuous
 62
     7
370
     9
100
AcDbLine
 10
1235.668356826744
 20
712.4238913047332
 30
0.0
 11
1179.432460896635
 21
712.4238913047332
 31
0.0
  0
LINE
  5
1A7
330
1F
100
AcDbEntity
  8
3-0
  6
Continuous
 62
     7
370
     9
100
AcDbLine
 10
1246.299856246085
 20
744.9243078284339
 30
0.0
 11
1246.299856246085
 21
752.9239135743168
 31
0.0
  0
LINE
  5
1A8
330
1F
100
AcDbEntity
  8
3-0
  6
Continuous
 62
     7
370
     9
100
AcDbLine
 10
1170.050285141778
 20
716.0323062382206
 30
0.0
 11
1170.050285141778
 21
744.9243078284339
 31
0.0
  0
LINE
  5
1A9
330
1F
100
AcDbEntity
  8
3-0
  6
Continuous
 62
     7
370
     9
100
AcDbLine
 10
1246.299856246085
 20
744.9243078284339
 30
0.0
 11
1168.800219157825
 21
744.9243078284339
 31
0.0
  0
LINE
  5
1AA
330
1F
100
AcDbEntity
  8
3-0
  6
Continuous
 62
     7
370
     9
100
AcDbLine
 10
1168.800219157825
 20
744.9243078284339
 30
0.0
 11
1168.800219157825
 21
752.9239135743168
 31
0.0
  0
LINE
  5
1AB
330
1F
100
AcDbEntity
  8
3-0
  6
Continuous
 62
     7
370
     9
100
AcDbLine
 10
1193.050311535359
 20
712.4238913047332
 30
0.0
 11
1193.050311535359
 21
707.9280334473636
 31
0.0
  0
LINE
  5
1AC
330
1F
100
AcDbEntity
  8
3-0
  6
Continuous
 62
     7
370
     9
100
AcDbLine
 10
1222.05050618802
 20
712.4238913047332
 30
0.0
 11
1222.05050618802
 21
707.9280334473636
 31
0.0
  0
LINE
  5
1AD
330
1F
100
AcDbEntity
  8
3-0
  6
Continuous
 62
     7
370
     9
100
AcDbLine
 10
1193.050311535359
 20
707.9280334473636
 30
0.0
 11
1188.554824837724
 21
712.4238913047332
 31
0.0
  0
LINE
  5
1AE
330
1F
100
AcDbEntity
  8
3-0
  6
Continuous
 62
     7
370
     9
100
AcDbLine
 10
1222.05050618802
 20
707.9280334473636
 30
0.0
 11
1226.546735205123
 21
712.4238913047332
 31
0.0
  0
LINE
  5
1AF
330
1F
100
AcDbEntity
  8
3-0
  6
Continuous
 62
     7
370
     9
100
AcDbLine
 10
1193.050311535359
 20
707.9280334473636
 30
0.0
 11
1222.05050618802
 21
707.9280334473636
 31
0.0
  0
ARC
  5
1B0
330
1F
100
AcDbEntity
  8
3-0
  6
Continuous
 62
     7
370
     9
100
AcDbCircle
 10
1235.668356826744
 20
726.4247787888964
 30
0.0
 40
14.00086573652319
100
AcDbArc
 50
227.9255676269531
 51
312.0746307373047
  0
ARC
  5
1B1
330
1F
100
AcDbEntity
  8
3-0
  6
Continuous
 62
     7
370
     9
100
AcDbCircle
 10
1207.550780021424
 20
762.8709944442496
 30
0.0
 40
50.44705094517889
100
AcDbArc
 50
248.1978607177735
 51
291.8021392822266
  0
ARC
  5
1B2
330
1F
100
AcDbEntity
  8
3-0
  6
Continuous
 62
     7
370
     9
100
AcDbCircle
 10
1179.432460896635
 20
726.4247787888964
 30
0.0
 40
14.00094692771499
100
AcDbArc
 50
227.9257202148438
 51
312.0742797851563
  0
LINE
  5
1B3
330
1F
100
AcDbEntity
  8
3-0
  6
Continuous
 62
     3
370
     9
100
AcDbLine
 10
1182.550780021424
 20
782.9240125502456
 30
0.0
 11
1182.550780021424
 21
752.9239135743168
 31
0.0
  0
LINE
  5
1B4
330
1F
100
AcDbEntity
  8
3-0
  6
Continuous
 62
     3
370
     9
100
AcDbLine
 10
1232.550780021424
 20
782.9240125502456
 30
0.0
 11
1232.550780021424
 21
752.9239135743168
 31
0.0
  0
LINE
  5
1B5
330
1F
100
AcDbEntity
  8
3-0
  6
Continuous
 62
     3
370
     9
100
AcDbLine
 10
878.621683077801
 20
782.9240125502456
 30
0.0
 11
1187.550780021424
 21
782.9240125502456
 31
0.0
  0
LINE
  5
1B6
330
1F
100
AcDbEntity
  8
3-0
  6
Continuous
 62
     3
370
     9
100
AcDbLine
 10
1227.550780021424
 20
782.9240125502456
 30
0.0
 11
1730.599552060063
 21
782.9240125502456
 31
0.0
  0
LINE
  5
1B7
330
1F
100
AcDbEntity
  8
3-0
  6
Continuous
 62
     3
370
     9
100
AcDbLine
 10
1167.550780021424
 20
807.9277447675706
 30
0.0
 11
878.621683077801
 21
807.9277447675706
 31
0.0
  0
LINE
  5
1B8
330
1F
100
AcDbEntity
  8
3-0
  6
Continuous
 62
     3
370
     9
100
AcDbLine
 10
1730.599552060063
 20
807.9277447675706
 30
0.0
 11
1247.550780021424
 21
807.9277447675706
 31
0.0
  0
LINE
  5
1B9
330
1F
100
AcDbEntity
  8
3-0
  6
Continuous
 62
     3
370
     9
100
AcDbLine
 10
1187.550780021424
 20
782.9240125502456
 30
0.0
 11
1167.550780021424
 21
807.9277447675706
 31
0.0
  0
LINE
  5
1BA
330
1F
100
AcDbEntity
  8
3-0
  6
Continuous
 62
     3
370
     9
100
AcDbLine
 10
1227.550780021424
 20
782.9240125502456
 30
0.0
 11
1247.550780021424
 21
807.9277447675706
 31
0.0
  0
LINE
  5
1BB
330
1F
100
AcDbEntity
  8
3-0
  6
JWW_DASHED1
 62
     7
370
     9
100
AcDbLine
 10
1168.050476495241
 20
807.9505345131058
 30
0.0
 11
1168.050476495241
 21
806.4506780282036
 31
0.0
  0
LINE
  5
1BC
330
1F
100
AcDbEntity
  8
3-0
  6
JWW_DASHED1
 62
     7
370
     9
100
AcDbLine
 10
1247.050341228138
 20
807.9505345131058
 30
0.0
 11
1247.050341228138
 21
806.4506780282036
 31
0.0
  0
LINE
  5
1BD
330
1F
100
AcDbEntity
  8
3-0
  6
Continuous
 62
     7
370
     9
100
AcDbLine
 10
1168.050476495241
 20
807.9505345131058
 30
0.0
 11
1247.050341228138
 21
807.9505345131058
 31
0.0
  0
LINE
  5
1BE
330
1F
100
AcDbEntity
  8
3-0
  6
Continuous
 62
     7
370
     9
100
AcDbLine
 10
1168.050476495241
 20
806.4506780282036
 30
0.0
 11
1247.050341228138
 21
806.4506780282036
 31
0.0
  0
LINE
  5
1BF
330
1F
100
AcDbEntity
  8
3-0
  6
Continuous
 62
     7
370
     9
100
AcDbLine
 10
1227.222988240385
 20
786.6233250404496
 30
0.0
 11
1247.050341228138
 21
806.4506780282036
 31
0.0
  0
LINE
  5
1C0
330
1F
100
AcDbEntity
  8
3-0
  6
Continuous
 62
     7
370
     9
100
AcDbLine
 10
1189.378799447099
 20
784.7007176185746
 30
0.0
 11
1225.72201827628
 21
784.7007176185746
 31
0.0
  0
LINE
  5
1C1
330
1F
100
AcDbEntity
  8
3-0
  6
Continuous
 62
     7
370
     9
100
AcDbLine
 10
1187.877829482994
 20
786.6233250404496
 30
0.0
 11
1168.050476495241
 21
806.4506780282036
 31
0.0
  0
LINE
  5
1C2
330
1F
100
AcDbEntity
  8
3-0
  6
Continuous
 62
     7
370
     9
100
AcDbLine
 10
1224.615962269101
 20
782.068823945116
 30
0.0
 11
1222.05050618802
 21
772.2004289387817
 31
0.0
  0
LINE
  5
1C3
330
1F
100
AcDbEntity
  8
3-0
  6
Continuous
 62
     7
370
     9
100
AcDbLine
 10
1190.484113134811
 20
782.068823945116
 30
0.0
 11
1193.050311535359
 21
772.2004289387817
 31
0.0
  0
LINE
  5
1C4
330
1F
100
AcDbEntity
  8
3-0
  6
Continuous
 62
     7
370
     9
100
AcDbLine
 10
1187.550466597648
 20
772.2004289387817
 30
0.0
 11
1227.550351125731
 21
772.2004289387817
 31
0.0
  0
LINE
  5
1C5
330
1F
100
AcDbEntity
  8
3-0
  6
Continuous
 62
     7
370
     9
100
AcDbLine
 10
1187.550466597648
 20
772.2004289387817
 30
0.0
 11
1191.342976759177
 21
778.7688427505426
 31
0.0
  0
LINE
  5
1C6
330
1F
100
AcDbEntity
  8
3-0
  6
Continuous
 62
     7
370
     9
100
AcDbLine
 10
1227.550351125731
 20
772.2004289387817
 30
0.0
 11
1223.75858328367
 21
778.7688427505426
 31
0.0
  0
ARC
  5
1C7
330
1F
100
AcDbEntity
  8
3-0
  6
Continuous
 62
     7
370
     9
100
AcDbCircle
 10
1234.294323491651
 20
779.5523609489168
 30
0.0
 40
9.999999403953552
100
AcDbArc
 50
135.0
 51
165.4257965087891
  0
ARC
  5
1C8
330
1F
100
AcDbEntity
  8
3-0
  6
Continuous
 62
     7
370
     9
100
AcDbCircle
 10
1180.806494231728
 20
779.5523609489168
 30
0.0
 40
9.999999403953552
100
AcDbArc
 50
14.57420349121094
 51
45.0
  0
LINE
  5
1C9
330
1F
100
AcDbEntity
  8
3-0
  6
Continuous
 62
     7
370
     9
100
AcDbLine
 10
1187.550466597648
 20
772.2004289387817
 30
0.0
 11
1187.550466597648
 21
752.9239135743168
 31
0.0
  0
LINE
  5
1CA
330
1F
100
AcDbEntity
  8
3-0
  6
Continuous
 62
     7
370
     9
100
AcDbLine
 10
1193.050311535359
 20
772.2004289387817
 30
0.0
 11
1193.050311535359
 21
752.9239135743168
 31
0.0
  0
LINE
  5
1CB
330
1F
100
AcDbEntity
  8
3-0
  6
Continuous
 62
     7
370
     9
100
AcDbLine
 10
1222.05050618802
 20
772.2004289387817
 30
0.0
 11
1222.05050618802
 21
752.9239135743168
 31
0.0
  0
LINE
  5
1CC
330
1F
100
AcDbEntity
  8
3-0
  6
Continuous
 62
     7
370
     9
100
AcDbLine
 10
1227.550351125731
 20
772.2004289387817
 30
0.0
 11
1227.550351125731
 21
752.9239135743168
 31
0.0
  0
TEXT
  5
1CD
330
1F
100
AcDbEntity
  8
3-0
  6
Continuous
 62
     7
370
     9
100
AcDbText
 10
1430.009787430345
 20
606.0964256153584
 30
0.0
 40
34.29
  1
皿ネジ･平座金･六角ナット
 41
1.152777777777778
  7
ＭＳ ゴシック
100
AcDbText
  0
LINE
  5
1CE
330
1F
100
AcDbEntity
  8
3-5
  6
Continuous
 62
     7
370
     9
100
AcDbLine
 10
1419.872118727527
 20
591.160561697205
 30
0.0
 11
2050.538446304416
 21
591.160561697205
 31
0.0
  0
LINE
  5
1CF
330
1F
100
AcDbEntity
  8
3-4
  6
Continuous
 62
     7
370
     9
100
AcDbLine
 10
2416.025791875009
 20
752.924099154184
 30
0.0
 11
2416.025791875009
 21
982.9239919302606
 31
0.0
  0
LWPOLYLINE
  5
1D0
330
1F
100
AcDbEntity
  8
3-4
  6
Continuous
 62
     7
370
     9
100
AcDbPolyline
 90
        4
 70
     1
 43
3.0
 10
2417.525791875009
 20
752.924099154184
 42
0.4142135623731
 10
2416.025791875009
 20
754.424099154184
 42
0.4142135623731
 10
2414.525791875009
 20
752.924099154184
 42
0.4142135623731
 10
2416.025791875009
 20
751.4240991541839
 42
0.4142135623731
  0
LWPOLYLINE
  5
1D1
330
1F
100
AcDbEntity
  8
3-4
  6
Continuous
 62
     7
370
     9
100
AcDbPolyline
 90
        4
 70
     1
 43
3.0
 10
2417.525791875009
 20
782.9240125502456
 42
0.4142135623731
 10
2416.025791875009
 20
784.4240125502456
 42
0.4142135623731
 10
2414.525791875009
 20
782.9240125502456
 42
0.4142135623731
 10
2416.025791875009
 20
781.4240125502456
 42
0.4142135623731
  0
LINE
  5
1D2
330
1F
100
AcDbEntity
  8
3-4
  6
Continuous
 62
     7
370
     9
100
AcDbLine
 10
2508.194512049031
 20
752.924099154184
 30
0.0
 11
2329.726895453704
 21
752.924099154184
 31
0.0
  0
LINE
  5
1D3
330
1F
100
AcDbEntity
  8
3-4
  6
Continuous
 62
     7
370
     9
100
AcDbLine
 10
2420.525791875009
 20
782.9240125502456
 30
0.0
 11
2329.726895453704
 21
782.9240125502456
 31
0.0
  0
TEXT
  5
1D4
330
1F
100
AcDbEntity
  8
3-4
  6
Continuous
 62
     7
370
   211
100
AcDbText
 10
2398.565791875008
 20
752.9240558522152
 30
0.0
 40
45.72
  1
6
 50
90.0
  7
ＭＳ ゴシック
100
AcDbText
  0
LWPOLYLINE
  5
1D5
330
1F
100
AcDbEntity
  8
3-4
  6
Continuous
 62
     7
370
     9
100
AcDbPolyline
 90
        4
 70
     1
 43
3.0
 10
2417.525791875009
 20
982.9239919302606
 42
0.4142135623731
 10
2416.025791875009
 20
984.4239919302605
 42
0.4142135623731
 10
2414.525791875009
 20
982.9239919302606
 42
0.4142135623731
 10
2416.025791875009
 20
981.4239919302606
 42
0.4142135623731
  0
LINE
  5
1D6
330
1F
100
AcDbEntity
  8
3-4
  6
Continuous
 62
     7
370
     9
100
AcDbLine
 10
2508.194512049031
 20
982.9239919302606
 30
0.0
 11
2329.726895453704
 21
982.9239919302606
 31
0.0
  0
TEXT
  5
1D7
330
1F
100
AcDbEntity
  8
3-4
  6
Continuous
 62
     7
370
   211
100
AcDbText
 10
2398.565791875008
 20
851.0490022402535
 30
0.0
 40
45.72
  1
40
 50
90.0
 41
1.0625
  7
ＭＳ ゴシック
100
AcDbText
  0
LINE
  5
1D8
330
1F
100
AcDbEntity
  8
3-4
  6
Continuous
 62
     7
370
     9
100
AcDbLine
 10
2503.694512049031
 20
752.924099154184
 30
0.0
 11
2503.694512049031
 21
982.9239919302606
 31
0.0
  0
LWPOLYLINE
  5
1D9
330
1F
100
AcDbEntity
  8
3-4
  6
Continuous
 62
     7
370
     9
100
AcDbPolyline
 90
        4
 70
     1
 43
3.0
 10
2505.194512049031
 20
752.924099154184
 42
0.4142135623731
 10
2503.694512049031
 20
754.424099154184
 42
0.4142135623731
 10
2502.194512049031
 20
752.924099154184
 42
0.4142135623731
 10
2503.694512049031
 20
751.4240991541839
 42
0.4142135623731
  0
LWPOLYLINE
  5
1DA
330
1F
100
AcDbEntity
  8
3-4
  6
Continuous
 62
     7
370
     9
100
AcDbPolyline
 90
        4
 70
     1
 43
3.0
 10
2505.194512049031
 20
982.9239919302606
 42
0.4142135623731
 10
2503.694512049031
 20
984.4239919302605
 42
0.4142135623731
 10
2502.194512049031
 20
982.9239919302606
 42
0.4142135623731
 10
2503.694512049031
 20
981.4239919302606
 42
0.4142135623731
  0
TEXT
  5
1DB
330
1F
100
AcDbEntity
  8
3-4
  6
Continuous
 62
     7
370
   211
100
AcDbText
 10
2486.234512049032
 20
836.0490455422222
 30
0.0
 40
45.72
  1
46
 50
90.0
 41
1.0625
  7
ＭＳ ゴシック
100
AcDbText
  0
LINE
  5
1DC
330
1F
100
AcDbEntity
  8
3-4
  6
Continuous
 62
     7
370
     9
100
AcDbLine
 10
2106.169027902339
 20
1079.860174614407
 30
0.0
 11
2306.168450542753
 21
1079.860174614407
 31
0.0
  0
LWPOLYLINE
  5
1DD
330
1F
100
AcDbEntity
  8
3-4
  6
Continuous
 62
     7
370
     9
100
AcDbPolyline
 90
        4
 70
     1
 43
3.0
 10
2107.669027902339
 20
1079.860174614407
 42
0.4142135623731
 10
2106.169027902339
 20
1081.360174614407
 42
0.4142135623731
 10
2104.66902790234
 20
1079.860174614407
 42
0.4142135623731
 10
2106.169027902339
 20
1078.360174614407
 42
0.4142135623731
  0
LWPOLYLINE
  5
1DE
330
1F
100
AcDbEntity
  8
3-4
  6
Continuous
 62
     7
370
     9
100
AcDbPolyline
 90
        4
 70
     1
 43
3.0
 10
2307.668450542753
 20
1079.860174614407
 42
0.4142135623731
 10
2306.168450542753
 20
1081.360174614407
 42
0.4142135623731
 10
2304.668450542753
 20
1079.860174614407
 42
0.4142135623731
 10
2306.168450542753
 20
1078.360174614407
 42
0.4142135623731
  0
LINE
  5
1DF
330
1F
100
AcDbEntity
  8
3-4
  6
Continuous
 62
     7
370
     9
100
AcDbLine
 10
2306.168450542753
 20
1084.360174614407
 30
0.0
 11
2306.168450542753
 21
1000.410396956699
 31
0.0
  0
TEXT
  5
1E0
330
1F
100
AcDbEntity
  8
3-4
  6
Continuous
 62
     7
370
   211
100
AcDbText
 10
2174.293739222547
 20
1097.320174614407
 30
0.0
 40
45.72
  1
40
 41
1.0625
  7
ＭＳ ゴシック
100
AcDbText
  0
LINE
  5
1E1
330
1F
100
AcDbEntity
  8
3-4
  6
Continuous
 62
     7
370
     9
100
AcDbLine
 10
2106.169027902339
 20
1084.360174614407
 30
0.0
 11
2106.169027902339
 21
859.3185504266312
 31
0.0
  0
LINE
  5
1E2
330
1F
100
AcDbEntity
  8
3-5
  6
Continuous
 62
     7
370
     9
100
AcDbLine
 10
1419.872118727527
 20
591.160561697205
 30
0.0
 11
1207.550780021424
 21
707.9280334473636
 31
0.0
  0
TEXT
  5
1E3
330
1F
100
AcDbEntity
  8
3-0
  6
Continuous
 62
     7
370
     9
100
AcDbText
 10
1446.775931823469
 20
540.8947529754328
 30
0.0
 40
34.29
  1
M8･S20C･ユニクロ
 41
1.145833333333333
  7
ＭＳ ゴシック
100
AcDbText
  0
LINE
  5
1E4
330
1F
100
AcDbEntity
  8
3-0
  6
JWW_CENTER2
 62
     4
370
     9
100
AcDbLine
 10
1207.550780021424
 20
831.4047681884213
 30
0.0
 11
1207.550780021424
 21
689.7107969926591
 31
0.0
  0
LINE
  5
1E5
330
1F
100
AcDbEntity
  8
1-4_寸法
  6
JWW_CENTER2
 62
     4
370
     9
100
AcDbLine
 10
-884.012678451711
 20
-1234.737427404684
 30
0.0
 11
-884.012678451711
 21
-1381.078740509984
 31
0.0
  0
ARC
  5
1E6
330
1F
100
AcDbEntity
  8
1-0_通り芯
  6
Continuous
 62
     7
370
     9
100
AcDbCircle
 10
-1753.388886782845
 20
-1319.582626982857
 30
0.0
 40
2.800189421789066
100
AcDbArc
 50
227.9257202148438
 51
312.0742797851562
  0
ARC
  5
1E7
330
1F
100
AcDbEntity
  8
1-0_通り芯
  6
Continuous
 62
     7
370
     9
100
AcDbCircle
 10
-1759.012513491829
 20
-1312.293235387893
 30
0.0
 40
10.08941047900432
100
AcDbArc
 50
248.1978607177735
 51
291.8021392822266
  0
ARC
  5
1E8
330
1F
100
AcDbEntity
  8
1-0_通り芯
  6
Continuous
 62
     7
370
     9
100
AcDbCircle
 10
-1764.636140200814
 20
-1319.582626982857
 30
0.0
 40
2.80017311105857
100
AcDbArc
 50
227.9253692626953
 51
312.0744323730469
  0
LINE
  5
1E9
330
1F
100
AcDbEntity
  8
1-0_通り芯
  6
Continuous
 62
     7
370
     9
100
AcDbLine
 10
-1756.11245691059
 20
-1323.281976051163
 30
0.0
 11
-1761.912570073069
 21
-1323.281976051163
 31
0.0
  0
LINE
  5
1EA
330
1F
100
AcDbEntity
  8
1-0_通り芯
  6
Continuous
 62
     7
370
     9
100
AcDbLine
 10
-1761.912570073069
 20
-1323.281976051163
 30
0.0
 11
-1762.811704528569
 21
-1322.382656015796
 31
0.0
  0
LINE
  5
1EB
330
1F
100
AcDbEntity
  8
1-0_通り芯
  6
Continuous
 62
     7
370
     9
100
AcDbLine
 10
-1756.11245691059
 20
-1323.281976051163
 30
0.0
 11
-1755.213322455089
 21
-1322.382656015796
 31
0.0
  0
LINE
  5
1EC
330
1F
100
AcDbEntity
  8
1-0_通り芯
  6
Continuous
 62
     7
370
     9
100
AcDbLine
 10
-1761.912570073069
 20
-1322.382656015796
 30
0.0
 11
-1761.912570073069
 21
-1323.281976051163
 31
0.0
  0
LINE
  5
1ED
330
1F
100
AcDbEntity
  8
1-0_通り芯
  6
Continuous
 62
     7
370
     9
100
AcDbLine
 10
-1756.11245691059
 20
-1322.382656015796
 30
0.0
 11
-1756.11245691059
 21
-1323.281976051163
 31
0.0
  0
LINE
  5
1EE
330
1F
100
AcDbEntity
  8
1-0_通り芯
  6
Continuous
 62
     7
370
     9
100
AcDbLine
 10
-1751.26251266703
 20
-1315.882535595082
 30
0.0
 11
-1751.26251266703
 21
-1314.282651561879
 31
0.0
  0
LINE
  5
1EF
330
1F
100
AcDbEntity
  8
1-0_通り芯
  6
Continuous
 62
     7
370
     9
100
AcDbLine
 10
-1766.762328736762
 20
-1315.882535595082
 30
0.0
 11
-1751.26251266703
 21
-1315.882535595082
 31
0.0
  0
LINE
  5
1F0
330
1F
100
AcDbEntity
  8
1-0_通り芯
  6
Continuous
 62
     7
370
     9
100
AcDbLine
 10
-1751.512488747847
 20
-1321.661121492992
 30
0.0
 11
-1751.512488747847
 21
-1315.882535595082
 31
0.0
  0
LINE
  5
1F1
330
1F
100
AcDbEntity
  8
1-0_通り芯
  6
Continuous
 62
     7
370
     9
100
AcDbLine
 10
-1766.762328736762
 20
-1315.882535595082
 30
0.0
 11
-1766.762328736762
 21
-1314.282651561879
 31
0.0
  0
LINE
  5
1F2
330
1F
100
AcDbEntity
  8
1-0_通り芯
  6
Continuous
 62
     7
370
     9
100
AcDbLine
 10
-1764.636140200814
 20
-1322.382656015796
 30
0.0
 11
-1753.388886782845
 21
-1322.382656015796
 31
0.0
  0
LINE
  5
1F3
330
1F
100
AcDbEntity
  8
1-0_通り芯
  6
Continuous
 62
     7
370
     9
100
AcDbLine
 10
-1755.265284817843
 20
-1321.661121492992
 30
0.0
 11
-1755.265284817843
 21
-1315.882535595082
 31
0.0
  0
LINE
  5
1F4
330
1F
100
AcDbEntity
  8
1-0_通り芯
  6
Continuous
 62
     7
370
     9
100
AcDbLine
 10
-1762.759742165816
 20
-1321.661121492992
 30
0.0
 11
-1762.759742165816
 21
-1315.882535595082
 31
0.0
  0
LINE
  5
1F5
330
1F
100
AcDbEntity
  8
1-0_通り芯
  6
Continuous
 62
     7
370
     9
100
AcDbLine
 10
-1766.512538235812
 20
-1321.661121492992
 30
0.0
 11
-1766.512538235812
 21
-1315.882535595082
 31
0.0
  0
LINE
  5
1F6
330
1F
100
AcDbEntity
  8
1-0_通り芯
  6
JWW_CENTER1
 62
     4
370
     9
100
AcDbLine
 10
-1759.012513491829
 20
-1300.637149522975
 30
0.0
 11
-1759.012513491829
 21
-1326.199662719765
 31
0.0
  0
LINE
  5
1F7
330
1F
100
AcDbEntity
  8
1-0_通り芯
  6
Continuous
 62
     3
370
     9
100
AcDbLine
 10
-1734.01251349183
 20
-1314.282651561879
 30
0.0
 11
-1834.0125547318
 21
-1314.282651561879
 31
0.0
  0
LINE
  5
1F8
330
1F
100
AcDbEntity
  8
1-0_通り芯
  6
Continuous
 62
     3
370
     9
100
AcDbLine
 10
-1734.01251349183
 20
-1308.282668882667
 30
0.0
 11
-1734.01251349183
 21
-1314.282651561879
 31
0.0
  0
ARC
  5
1F9
330
1F
100
AcDbEntity
  8
1-0_通り芯
  6
Continuous
 62
     3
370
     9
100
AcDbCircle
 10
-1947.012506893434
 20
-1306.282489076395
 30
0.0
 40
3.00000021989281
100
AcDbArc
 50
0.0
 51
90.0
  0
ARC
  5
1FA
330
1F
100
AcDbEntity
  8
1-0_通り芯
  6
Continuous
 62
     3
370
     9
100
AcDbCircle
 10
-1982.012313065572
 20
-1271.28249732439
 30
0.0
 40
3.00000021989281
100
AcDbArc
 50
0.0
 51
90.0
  0
ARC
  5
1FB
330
1F
100
AcDbEntity
  8
1-0_通り芯
  6
Continuous
 62
     3
370
     9
100
AcDbCircle
 10
-1974.512659481325
 20
-1298.781907592812
 30
0.0
 40
4.500000057993709
100
AcDbArc
 50
180.0
 51
270.0
  0
LINE
  5
1FC
330
1F
100
AcDbEntity
  8
1-0_通り芯
  6
Continuous
 62
     3
370
     9
100
AcDbLine
 10
-1834.0125547318
 20
-1308.282668882667
 30
0.0
 11
-1834.0125547318
 21
-1314.282651561879
 31
0.0
  0
LINE
  5
1FD
330
1F
100
AcDbEntity
  8
1-0_通り芯
  6
Continuous
 62
     3
370
     9
100
AcDbLine
 10
-1784.01251349183
 20
-1268.282042035116
 30
0.0
 11
-1784.01251349183
 21
-1303.282033787122
 31
0.0
  0
LINE
  5
1FE
330
1F
100
AcDbEntity
  8
1-0_通り芯
  6
Continuous
 62
     3
370
     9
100
AcDbLine
 10
-1984.012864031578
 20
-1268.282042035116
 30
0.0
 11
-1984.012864031578
 21
-1308.282112143066
 31
0.0
  0
LINE
  5
1FF
330
1F
100
AcDbEntity
  8
1-0_通り芯
  6
Continuous
 62
     3
370
     9
100
AcDbLine
 10
-1944.012608343762
 20
-1306.282489076395
 30
0.0
 11
-1944.012608343762
 21
-1308.282112143066
 31
0.0
  0
LINE
  5
200
330
1F
100
AcDbEntity
  8
1-0_通り芯
  6
Continuous
 62
     3
370
     9
100
AcDbLine
 10
-1979.012600095767
 20
-1271.28249732439
 30
0.0
 11
-1979.012600095767
 21
-1298.781907592812
 31
0.0
  0
LWPOLYLINE
  5
201
330
1F
100
AcDbEntity
  8
1-4_寸法
  6
Continuous
 62
     7
370
     9
100
AcDbPolyline
 90
        4
 70
     1
 43
3.0
 10
-1982.512864031578
 20
-1158.428999440094
 42
0.4142135623731
 10
-1984.012864031578
 20
-1156.928999440094
 42
0.4142135623731
 10
-1985.512864031578
 20
-1158.428999440094
 42
0.4142135623731
 10
-1984.012864031578
 20
-1159.928999440094
 42
0.4142135623731
  0
LINE
  5
202
330
1F
100
AcDbEntity
  8
1-4_寸法
  6
Continuous
 62
     7
370
     9
100
AcDbLine
 10
-1984.012864031578
 20
-1153.928999440094
 30
0.0
 11
-1984.012864031578
 21
-1244.329387599098
 31
0.0
  0
LWPOLYLINE
  5
203
330
1F
100
AcDbEntity
  8
1-4_寸法
  6
Continuous
 62
     7
370
     9
100
AcDbPolyline
 90
        4
 70
     1
 43
3.0
 10
-1942.512422763894
 20
-1489.808070352986
 42
0.4142135623731
 10
-1944.012422763894
 20
-1488.308070352986
 42
0.4142135623731
 10
-1945.512422763894
 20
-1489.808070352986
 42
0.4142135623731
 10
-1944.012422763894
 20
-1491.308070352986
 42
0.4142135623731
  0
LINE
  5
204
330
1F
100
AcDbEntity
  8
1-4_寸法
  6
Continuous
 62
     7
370
     9
100
AcDbLine
 10
-1944.012422763894
 20
-1494.308070352986
 30
0.0
 11
-1944.012422763894
 21
-1391.124542997282
 31
0.0
  0
LWPOLYLINE
  5
205
330
1F
100
AcDbEntity
  8
1-4_寸法
  6
Continuous
 62
     7
370
     9
100
AcDbPolyline
 90
        4
 70
     1
 43
3.0
 10
-2151.352951208461
 20
262.8199800513106
 42
0.4142135623731
 10
-2152.852951208461
 20
264.3199800513106
 42
0.4142135623731
 10
-2154.352951208461
 20
262.8199800513106
 42
0.4142135623731
 10
-2152.852951208461
 20
261.3199800513105
 42
0.4142135623731
  0
LINE
  5
206
330
1F
100
AcDbEntity
  8
1-4_寸法
  6
Continuous
 62
     7
370
     9
100
AcDbLine
 10
-2157.352951208461
 20
262.8199800513106
 30
0.0
 11
-2063.237472939575
 21
262.8199800513106
 31
0.0
  0
LINE
  5
207
330
1F
100
AcDbEntity
  8
1-0_通り芯
  6
Continuous
 62
     3
370
     9
100
AcDbLine
 10
210.9865008728769
 20
-1271.28249732439
 30
0.0
 11
210.9865008728769
 21
-1298.781907592812
 31
0.0
  0
LINE
  5
208
330
1F
100
AcDbEntity
  8
1-0_通り芯
  6
Continuous
 62
     3
370
     9
100
AcDbLine
 10
175.9870658604723
 20
-1306.282489076395
 30
0.0
 11
175.9870658604723
 21
-1308.282112143066
 31
0.0
  0
LINE
  5
209
330
1F
100
AcDbEntity
  8
1-0_通り芯
  6
Continuous
 62
     3
370
     9
100
AcDbLine
 10
215.9871359684215
 20
-1268.282042035116
 30
0.0
 11
215.9871359684215
 21
-1308.282112143066
 31
0.0
  0
LINE
  5
20A
330
1F
100
AcDbEntity
  8
1-0_通り芯
  6
Continuous
 62
     3
370
     9
100
AcDbLine
 10
15.98715658840661
 20
-1268.282042035116
 30
0.0
 11
15.98715658840661
 21
-1303.282033787122
 31
0.0
  0
LINE
  5
20B
330
1F
100
AcDbEntity
  8
1-0_通り芯
  6
Continuous
 62
     3
370
     9
100
AcDbLine
 10
65.98719782837776
 20
-1308.282668882667
 30
0.0
 11
65.98719782837776
 21
-1314.282651561879
 31
0.0
  0
ARC
  5
20C
330
1F
100
AcDbEntity
  8
1-0_通り芯
  6
Continuous
 62
     3
370
     9
100
AcDbCircle
 10
206.4873025779019
 20
-1298.781907592812
 30
0.0
 40
4.500000057993709
100
AcDbArc
 50
270.0
 51
0.0
  0
ARC
  5
20D
330
1F
100
AcDbEntity
  8
1-0_通り芯
  6
Continuous
 62
     3
370
     9
100
AcDbCircle
 10
213.986770582284
 20
-1271.28249732439
 30
0.0
 40
3.00000021989281
100
AcDbArc
 50
90.0
 51
180.0
  0
ARC
  5
20E
330
1F
100
AcDbEntity
  8
1-0_通り芯
  6
Continuous
 62
     3
370
     9
100
AcDbCircle
 10
178.9867788302777
 20
-1306.282489076395
 30
0.0
 40
3.00000021989281
100
AcDbArc
 50
90.0
 51
180.0
  0
LINE
  5
20F
330
1F
100
AcDbEntity
  8
1-0_通り芯
  6
Continuous
 62
     3
370
     9
100
AcDbLine
 10
-34.01284341159311
 20
-1314.282651561879
 30
0.0
 11
65.98719782837776
 21
-1314.282651561879
 31
0.0
  0
LINE
  5
210
330
1F
100
AcDbEntity
  8
1-4_寸法
  6
Continuous
 62
     3
370
     9
100
AcDbLine
 10
-34.01284341159311
 20
-1308.282112143066
 30
0.0
 11
-34.01284341159311
 21
-1314.282651561879
 31
0.0
  0
LINE
  5
211
330
1F
100
AcDbEntity
  8
1-0_通り芯
  6
JWW_CENTER1
 62
     4
370
     9
100
AcDbLine
 10
-9.012843411592826
 20
-1300.637242312908
 30
0.0
 11
-9.012843411592826
 21
-1326.199662719765
 31
0.0
  0
LINE
  5
212
330
1F
100
AcDbEntity
  8
1-0_通り芯
  6
Continuous
 62
     7
370
     9
100
AcDbLine
 10
-1.512818667610816
 20
-1321.661028703058
 30
0.0
 11
-1.512818667610816
 21
-1315.882628385016
 31
0.0
  0
LINE
  5
213
330
1F
100
AcDbEntity
  8
1-0_通り芯
  6
Continuous
 62
     7
370
     9
100
AcDbLine
 10
-5.265614737606938
 20
-1321.661028703058
 30
0.0
 11
-5.265614737606938
 21
-1315.882628385016
 31
0.0
  0
LINE
  5
214
330
1F
100
AcDbEntity
  8
1-0_通り芯
  6
Continuous
 62
     7
370
     9
100
AcDbLine
 10
-12.76007208557957
 20
-1321.661028703058
 30
0.0
 11
-12.76007208557957
 21
-1315.882628385016
 31
0.0
  0
LINE
  5
215
330
1F
100
AcDbEntity
  8
1-0_通り芯
  6
Continuous
 62
     7
370
     9
100
AcDbLine
 10
-3.389216702608451
 20
-1322.382656015796
 30
0.0
 11
-14.6364701205772
 21
-1322.382656015796
 31
0.0
  0
LINE
  5
216
330
1F
100
AcDbEntity
  8
1-0_通り芯
  6
Continuous
 62
     7
370
     9
100
AcDbLine
 10
-1.263028166660831
 20
-1315.882628385016
 30
0.0
 11
-1.263028166660831
 21
-1314.282651561879
 31
0.0
  0
LINE
  5
217
330
1F
100
AcDbEntity
  8
1-0_通り芯
  6
Continuous
 62
     7
370
     9
100
AcDbLine
 10
-16.51286815557569
 20
-1321.661028703058
 30
0.0
 11
-16.51286815557569
 21
-1315.882628385016
 31
0.0
  0
LINE
  5
218
330
1F
100
AcDbEntity
  8
1-0_通り芯
  6
Continuous
 62
     7
370
     9
100
AcDbLine
 10
-1.263028166660831
 20
-1315.882628385016
 30
0.0
 11
-16.76284423639288
 21
-1315.882628385016
 31
0.0
  0
LINE
  5
219
330
1F
100
AcDbEntity
  8
1-0_通り芯
  6
Continuous
 62
     7
370
     9
100
AcDbLine
 10
-16.76284423639288
 20
-1315.882628385016
 30
0.0
 11
-16.76284423639288
 21
-1314.282651561879
 31
0.0
  0
LINE
  5
21A
330
1F
100
AcDbEntity
  8
1-0_通り芯
  6
Continuous
 62
     7
370
     9
100
AcDbLine
 10
-11.91289999283271
 20
-1322.382656015796
 30
0.0
 11
-11.91289999283271
 21
-1323.28188326123
 31
0.0
  0
LINE
  5
21B
330
1F
100
AcDbEntity
  8
1-0_通り芯
  6
Continuous
 62
     7
370
     9
100
AcDbLine
 10
-6.112786830353798
 20
-1322.382656015796
 30
0.0
 11
-6.112786830353798
 21
-1323.28188326123
 31
0.0
  0
LINE
  5
21C
330
1F
100
AcDbEntity
  8
1-0_通り芯
  6
Continuous
 62
     7
370
     9
100
AcDbLine
 10
-11.91289999283271
 20
-1323.28188326123
 30
0.0
 11
-12.81203444833352
 21
-1322.382656015796
 31
0.0
  0
LINE
  5
21D
330
1F
100
AcDbEntity
  8
1-0_通り芯
  6
Continuous
 62
     7
370
     9
100
AcDbLine
 10
-6.112786830353798
 20
-1323.28188326123
 30
0.0
 11
-5.213652374853837
 21
-1322.382656015796
 31
0.0
  0
LINE
  5
21E
330
1F
100
AcDbEntity
  8
1-0_通り芯
  6
Continuous
 62
     7
370
     9
100
AcDbLine
 10
-11.91289999283271
 20
-1323.28188326123
 30
0.0
 11
-6.112786830353798
 21
-1323.28188326123
 31
0.0
  0
ARC
  5
21F
330
1F
100
AcDbEntity
  8
1-0_通り芯
  6
Continuous
 62
     7
370
     9
100
AcDbCircle
 10
-3.389216702608451
 20
-1319.582534192923
 30
0.0
 40
2.80017311105857
100
AcDbArc
 50
227.9255676269531
 51
312.0746307373047
  0
ARC
  5
220
330
1F
100
AcDbEntity
  8
1-0_通り芯
  6
Continuous
 62
     7
370
     9
100
AcDbCircle
 10
-9.012843411592826
 20
-1312.293235387893
 30
0.0
 40
10.08941047900432
100
AcDbArc
 50
248.1978607177735
 51
291.8021392822266
  0
ARC
  5
221
330
1F
100
AcDbEntity
  8
1-0_通り芯
  6
Continuous
 62
     7
370
     9
100
AcDbCircle
 10
-14.6364701205772
 20
-1319.582534192923
 30
0.0
 40
2.800189421789066
100
AcDbArc
 50
227.9257202148438
 51
312.0742797851563
  0
LWPOLYLINE
  5
222
330
1F
100
AcDbEntity
  8
1-4_寸法
  6
Continuous
 62
     7
370
     9
100
AcDbPolyline
 90
        4
 70
     1
 43
3.0
 10
217.4871359684215
 20
-1158.428999440094
 42
0.4142135623731
 10
215.9871359684215
 20
-1156.928999440094
 42
0.4142135623731
 10
214.4871359684215
 20
-1158.428999440094
 42
0.4142135623731
 10
215.9871359684215
 20
-1159.928999440094
 42
0.4142135623731
  0
LINE
  5
223
330
1F
100
AcDbEntity
  8
1-4_寸法
  6
Continuous
 62
     7
370
     9
100
AcDbLine
 10
215.9871359684215
 20
-1153.928999440094
 30
0.0
 11
215.9871359684215
 21
-1244.329387599098
 31
0.0
  0
LWPOLYLINE
  5
224
330
1F
100
AcDbEntity
  8
1-4_寸法
  6
Continuous
 62
     7
370
     9
100
AcDbPolyline
 90
        4
 70
     1
 43
3.0
 10
177.4870658604723
 20
-1489.808070352986
 42
0.4142135623731
 10
175.9870658604723
 20
-1488.308070352986
 42
0.4142135623731
 10
174.4870658604723
 20
-1489.808070352986
 42
0.4142135623731
 10
175.9870658604723
 20
-1491.308070352986
 42
0.4142135623731
  0
LINE
  5
225
330
1F
100
AcDbEntity
  8
1-4_寸法
  6
Continuous
 62
     7
370
     9
100
AcDbLine
 10
175.9870658604723
 20
-1494.308070352986
 30
0.0
 11
175.9870658604723
 21
-1391.124542997282
 31
0.0
  0
LINE
  5
226
330
1F
100
AcDbEntity
  8
1-0_通り芯
  6
JWW_CENTER2
 62
     4
370
     9
100
AcDbLine
 10
-2044.556443035573
 20
262.8199800513106
 30
0.0
 11
274.6876904287104
 21
262.8199800513106
 31
0.0
  0
LINE
  5
227
330
1F
100
AcDbEntity
  8
1-0_通り芯
  6
Continuous
 62
     3
370
     9
100
AcDbLine
 10
215.9871359684215
 20
-1268.282042035116
 30
0.0
 11
-1984.012864031578
 21
-1268.282042035116
 31
0.0
  0
LINE
  5
228
330
1F
100
AcDbEntity
  8
1-0_通り芯
  6
Continuous
 62
     3
370
     9
100
AcDbLine
 10
-1974.512659481325
 20
-1303.282033787122
 30
0.0
 11
206.4873025779019
 21
-1303.282033787122
 31
0.0
  0
LINE
  5
229
330
1F
100
AcDbEntity
  8
1-4_寸法
  6
Continuous
 62
     7
370
     9
100
AcDbLine
 10
-1984.012864031578
 20
-1158.428999440094
 30
0.0
 11
215.9871359684215
 21
-1158.428999440094
 31
0.0
  0
LINE
  5
22A
330
1F
100
AcDbEntity
  8
1-4_寸法
  6
Continuous
 62
     7
370
     9
100
AcDbLine
 10
-1944.012422763894
 20
-1489.808070352986
 30
0.0
 11
175.9870658604723
 21
-1489.808070352986
 31
0.0
  0
LWPOLYLINE
  5
22B
330
1F
100
AcDbEntity
  8
1-4_寸法
  6
Continuous
 62
     7
370
     9
100
AcDbPolyline
 90
        4
 70
     1
 43
3.0
 10
-882.512678451711
 20
1539.790865433738
 42
0.4142135623731
 10
-884.012678451711
 20
1541.290865433738
 42
0.4142135623731
 10
-885.512678451711
 20
1539.790865433738
 42
0.4142135623731
 10
-884.012678451711
 20
1538.290865433738
 42
0.4142135623731
  0
LINE
  5
22C
330
1F
100
AcDbEntity
  8
1-4_寸法
  6
Continuous
 62
     7
370
     9
100
AcDbLine
 10
-884.012678451711
 20
1544.290865433738
 30
0.0
 11
-884.012678451711
 21
1431.407263957624
 31
0.0
  0
LINE
  5
22D
330
1F
100
AcDbEntity
  8
1-0_通り芯
  6
Continuous
 62
     7
370
     9
100
AcDbLine
 10
-1756.299335836635
 20
1340.106396182407
 30
0.0
 11
-1761.726062306757
 21
1345.53312265253
 31
0.0
  0
LINE
  5
22E
330
1F
100
AcDbEntity
  8
1-0_通り芯
  6
Continuous
 62
     7
370
     9
100
AcDbLine
 10
-1761.726062306757
 20
1340.106396182407
 30
0.0
 11
-1756.299335836635
 21
1345.53312265253
 31
0.0
  0
LINE
  5
22F
330
1F
100
AcDbEntity
  8
1-0_通り芯
  6
JWW_DASHED1
 62
     4
370
     9
100
AcDbLine
 10
-1834.012740311667
 20
1358.819991598502
 30
0.0
 11
-1734.012699071696
 21
1358.819991598502
 31
0.0
  0
LINE
  5
230
330
1F
100
AcDbEntity
  8
1-0_通り芯
  6
JWW_CENTER1
 62
     4
370
     9
100
AcDbLine
 10
-1759.012699071696
 20
1330.819979638911
 30
0.0
 11
-1759.012699071696
 21
1354.81991035576
 31
0.0
  0
LINE
  5
231
330
1F
100
AcDbEntity
  8
1-0_通り芯
  6
JWW_CENTER1
 62
     4
370
     9
100
AcDbLine
 10
-1771.012664430122
 20
1342.819573837601
 30
0.0
 11
-1747.012733713271
 21
1342.819573837601
 31
0.0
  0
LINE
  5
232
330
1F
100
AcDbEntity
  8
1-4_寸法
  6
JWW_DASHED1
 62
     4
370
     9
100
AcDbLine
 10
-1734.012699071696
 20
1358.819991598502
 30
0.0
 11
-1734.012699071696
 21
1326.820083976037
 31
0.0
  0
LINE
  5
233
330
1F
100
AcDbEntity
  8
1-0_通り芯
  6
JWW_DASHED1
 62
     4
370
     9
100
AcDbLine
 10
-1834.012740311667
 20
1326.820083976037
 30
0.0
 11
-1734.012699071696
 21
1326.820083976037
 31
0.0
  0
LINE
  5
234
330
1F
100
AcDbEntity
  8
1-0_通り芯
  6
JWW_DASHED1
 62
     4
370
     9
100
AcDbLine
 10
-1834.012740311667
 20
1358.819991598502
 30
0.0
 11
-1834.012740311667
 21
1326.820083976037
 31
0.0
  0
CIRCLE
  5
235
330
1F
100
AcDbEntity
  8
1-0_通り芯
  6
Continuous
 62
     3
370
     9
100
AcDbCircle
 10
-1759.012699071696
 20
1342.819573837601
 30
0.0
 40
6.999999365291081
  0
LINE
  5
236
330
1F
100
AcDbEntity
  8
1-0_通り芯
  6
Continuous
 62
     3
370
     9
100
AcDbLine
 10
-1784.012699071697
 20
1362.81998005131
 30
0.0
 11
-1784.012699071697
 21
1322.820095523228
 31
0.0
  0
LINE
  5
237
330
1F
100
AcDbEntity
  8
1-4_寸法
  6
Continuous
 62
     7
370
     9
100
AcDbLine
 10
-2152.852951208461
 20
-837.1800199486896
 30
0.0
 11
-2152.852951208461
 21
1362.81998005131
 31
0.0
  0
LWPOLYLINE
  5
238
330
1F
100
AcDbEntity
  8
1-4_寸法
  6
Continuous
 62
     7
370
     9
100
AcDbPolyline
 90
        4
 70
     1
 43
3.0
 10
-2151.352951208461
 20
1062.820103771222
 42
0.4142135623731
 10
-2152.852951208461
 20
1064.320103771222
 42
0.4142135623731
 10
-2154.352951208461
 20
1062.820103771222
 42
0.4142135623731
 10
-2152.852951208461
 20
1061.320103771222
 42
0.4142135623731
  0
LINE
  5
239
330
1F
100
AcDbEntity
  8
1-4_寸法
  6
Continuous
 62
     7
370
     9
100
AcDbLine
 10
-2157.352951208461
 20
1062.820103771222
 30
0.0
 11
-2063.237472939575
 21
1062.820103771222
 31
0.0
  0
LWPOLYLINE
  5
23A
330
1F
100
AcDbEntity
  8
1-4_寸法
  6
Continuous
 62
     7
370
     9
100
AcDbPolyline
 90
        4
 70
     1
 43
3.0
 10
-2151.352951208461
 20
1362.81998005131
 42
0.4142135623731
 10
-2152.852951208461
 20
1364.31998005131
 42
0.4142135623731
 10
-2154.352951208461
 20
1362.81998005131
 42
0.4142135623731
 10
-2152.852951208461
 20
1361.31998005131
 42
0.4142135623731
  0
LINE
  5
23B
330
1F
100
AcDbEntity
  8
1-4_寸法
  6
Continuous
 62
     7
370
     9
100
AcDbLine
 10
-2310.720890655499
 20
1362.81998005131
 30
0.0
 11
-2063.237472939575
 21
1362.81998005131
 31
0.0
  0
TEXT
  5
23C
330
1F
100
AcDbEntity
  8
1-4_寸法
  6
Continuous
 62
     7
370
   211
100
AcDbText
 10
-2170.312951208461
 20
1164.070041911266
 30
0.0
 40
45.72
  1
300
 50
90.0
 41
1.083333333333333
  7
ＭＳ ゴシック
100
AcDbText
  0
LINE
  5
23D
330
1F
100
AcDbEntity
  8
1-4_寸法
  6
Continuous
 62
     7
370
     9
100
AcDbLine
 10
-1984.012678451711
 20
1539.790865433738
 30
0.0
 11
215.9873215482887
 21
1539.790865433738
 31
0.0
  0
LWPOLYLINE
  5
23E
330
1F
100
AcDbEntity
  8
1-4_寸法
  6
Continuous
 62
     7
370
     9
100
AcDbPolyline
 90
        4
 70
     1
 43
3.0
 10
-1982.512678451711
 20
1539.790865433738
 42
0.4142135623731
 10
-1984.012678451711
 20
1541.290865433738
 42
0.4142135623731
 10
-1985.512678451711
 20
1539.790865433738
 42
0.4142135623731
 10
-1984.012678451711
 20
1538.290865433738
 42
0.4142135623731
  0
LWPOLYLINE
  5
23F
330
1F
100
AcDbEntity
  8
1-4_寸法
  6
Continuous
 62
     7
370
     9
100
AcDbPolyline
 90
        4
 70
     1
 43
3.0
 10
-1782.512699071697
 20
1539.790865433738
 42
0.4142135623731
 10
-1784.012699071697
 20
1541.290865433738
 42
0.4142135623731
 10
-1785.512699071697
 20
1539.790865433738
 42
0.4142135623731
 10
-1784.012699071697
 20
1538.290865433738
 42
0.4142135623731
  0
LINE
  5
240
330
1F
100
AcDbEntity
  8
1-4_寸法
  6
Continuous
 62
     7
370
     9
100
AcDbLine
 10
-1984.012678451711
 20
1708.4178754832
 30
0.0
 11
-1984.012678451711
 21
1431.407263957624
 31
0.0
  0
LINE
  5
241
330
1F
100
AcDbEntity
  8
1-4_寸法
  6
Continuous
 62
     7
370
     9
100
AcDbLine
 10
-1784.012699071697
 20
1544.290865433738
 30
0.0
 11
-1784.012699071697
 21
1431.407263957624
 31
0.0
  0
TEXT
  5
242
330
1F
100
AcDbEntity
  8
1-4_寸法
  6
Continuous
 62
     7
370
   211
100
AcDbText
 10
-1932.762688761704
 20
1557.250865433738
 30
0.0
 40
45.72
  1
200
 41
1.083333333333333
  7
ＭＳ ゴシック
100
AcDbText
  0
LWPOLYLINE
  5
243
330
1F
100
AcDbEntity
  8
1-4_寸法
  6
Continuous
 62
     7
370
     9
100
AcDbPolyline
 90
        4
 70
     1
 43
3.0
 10
-1682.512678451711
 20
1539.790865433738
 42
0.4142135623731
 10
-1684.012678451711
 20
1541.290865433738
 42
0.4142135623731
 10
-1685.512678451711
 20
1539.790865433738
 42
0.4142135623731
 10
-1684.012678451711
 20
1538.290865433738
 42
0.4142135623731
  0
LINE
  5
244
330
1F
100
AcDbEntity
  8
1-4_寸法
  6
Continuous
 62
     7
370
     9
100
AcDbLine
 10
-1684.012678451711
 20
1544.290865433738
 30
0.0
 11
-1684.012678451711
 21
1431.407263957624
 31
0.0
  0
TEXT
  5
245
330
1F
100
AcDbEntity
  8
1-4_寸法
  6
Continuous
 62
     7
370
   211
100
AcDbText
 10
-1782.762688761704
 20
1557.250865433738
 30
0.0
 40
45.72
  1
100
 41
1.083333333333333
  7
ＭＳ ゴシック
100
AcDbText
  0
LWPOLYLINE
  5
246
330
1F
100
AcDbEntity
  8
1-4_寸法
  6
Continuous
 62
     7
370
     9
100
AcDbPolyline
 90
        4
 70
     1
 43
3.0
 10
-2304.7208906555
 20
1362.81998005131
 42
0.4142135623731
 10
-2306.2208906555
 20
1364.31998005131
 42
0.4142135623731
 10
-2307.7208906555
 20
1362.81998005131
 42
0.4142135623731
 10
-2306.2208906555
 20
1361.31998005131
 42
0.4142135623731
  0
LWPOLYLINE
  5
247
330
1F
100
AcDbEntity
  8
1-4_寸法
  6
Continuous
 62
     7
370
     9
100
AcDbPolyline
 90
        4
 70
     1
 43
3.0
 10
-1982.512678451711
 20
1703.9178754832
 42
0.4142135623731
 10
-1984.012678451711
 20
1705.4178754832
 42
0.4142135623731
 10
-1985.512678451711
 20
1703.9178754832
 42
0.4142135623731
 10
-1984.012678451711
 20
1702.4178754832
 42
0.4142135623731
  0
LINE
  5
248
330
1F
100
AcDbEntity
  8
1-4_寸法
  6
JWW_DASHED1
 62
     4
370
     9
100
AcDbLine
 10
-34.0126578317259
 20
1358.819991598502
 30
0.0
 11
-34.0126578317259
 21
1326.820083976037
 31
0.0
  0
LINE
  5
249
330
1F
100
AcDbEntity
  8
1-0_通り芯
  6
JWW_DASHED1
 62
     4
370
     9
100
AcDbLine
 10
65.98738340824411
 20
1326.820083976037
 30
0.0
 11
-34.0126578317259
 21
1326.820083976037
 31
0.0
  0
LINE
  5
24A
330
1F
100
AcDbEntity
  8
1-0_通り芯
  6
JWW_DASHED1
 62
     4
370
     9
100
AcDbLine
 10
65.98738340824411
 20
1358.819991598502
 30
0.0
 11
65.98738340824411
 21
1326.820083976037
 31
0.0
  0
LINE
  5
24B
330
1F
100
AcDbEntity
  8
1-0_通り芯
  6
JWW_CENTER1
 62
     4
370
     9
100
AcDbLine
 10
2.987307526698544
 20
1342.819518163641
 30
0.0
 11
-21.01262319015063
 21
1342.819518163641
 31
0.0
  0
LINE
  5
24C
330
1F
100
AcDbEntity
  8
1-0_通り芯
  6
JWW_CENTER1
 62
     4
370
     9
100
AcDbLine
 10
-9.012657831725619
 20
1330.819923964951
 30
0.0
 11
-9.012657831725619
 21
1354.819854681801
 31
0.0
  0
LINE
  5
24D
330
1F
100
AcDbEntity
  8
1-0_通り芯
  6
Continuous
 62
     3
370
     9
100
AcDbLine
 10
15.98734216827381
 20
1362.81998005131
 30
0.0
 11
15.98734216827381
 21
1322.820095523228
 31
0.0
  0
CIRCLE
  5
24E
330
1F
100
AcDbEntity
  8
1-0_通り芯
  6
Continuous
 62
     3
370
     9
100
AcDbCircle
 10
-9.012657831725619
 20
1342.819518163641
 30
0.0
 40
6.999999365291081
  0
LINE
  5
24F
330
1F
100
AcDbEntity
  8
1-0_通り芯
  6
Continuous
 62
     7
370
     9
100
AcDbLine
 10
-6.299294596664708
 20
1340.106340508448
 30
0.0
 11
-11.72602106678738
 21
1345.53306697857
 31
0.0
  0
LINE
  5
250
330
1F
100
AcDbEntity
  8
1-0_通り芯
  6
Continuous
 62
     7
370
     9
100
AcDbLine
 10
-11.72602106678738
 20
1340.106340508448
 30
0.0
 11
-6.299294596664708
 21
1345.53306697857
 31
0.0
  0
LINE
  5
251
330
1F
100
AcDbEntity
  8
1-0_通り芯
  6
JWW_DASHED1
 62
     4
370
     9
100
AcDbLine
 10
65.98738340824411
 20
1358.819991598502
 30
0.0
 11
-34.0126578317259
 21
1358.819991598502
 31
0.0
  0
LWPOLYLINE
  5
252
330
1F
100
AcDbEntity
  8
1-4_寸法
  6
Continuous
 62
     7
370
     9
100
AcDbPolyline
 90
        4
 70
     1
 43
3.0
 10
-82.51267845171134
 20
1539.790865433738
 42
0.4142135623731
 10
-84.01267845171134
 20
1541.290865433738
 42
0.4142135623731
 10
-85.51267845171134
 20
1539.790865433738
 42
0.4142135623731
 10
-84.01267845171134
 20
1538.290865433738
 42
0.4142135623731
  0
LINE
  5
253
330
1F
100
AcDbEntity
  8
1-4_寸法
  6
Continuous
 62
     7
370
     9
100
AcDbLine
 10
-84.01267845171134
 20
1544.290865433738
 30
0.0
 11
-84.01267845171134
 21
1431.407263957624
 31
0.0
  0
LWPOLYLINE
  5
254
330
1F
100
AcDbEntity
  8
1-4_寸法
  6
Continuous
 62
     7
370
     9
100
AcDbPolyline
 90
        4
 70
     1
 43
3.0
 10
17.48734216827381
 20
1539.790865433738
 42
0.4142135623731
 10
15.98734216827381
 20
1541.290865433738
 42
0.4142135623731
 10
14.48734216827381
 20
1539.790865433738
 42
0.4142135623731
 10
15.98734216827381
 20
1538.290865433738
 42
0.4142135623731
  0
LINE
  5
255
330
1F
100
AcDbEntity
  8
1-4_寸法
  6
Continuous
 62
     7
370
     9
100
AcDbLine
 10
15.98734216827381
 20
1544.290865433738
 30
0.0
 11
15.98734216827381
 21
1431.407263957624
 31
0.0
  0
TEXT
  5
256
330
1F
100
AcDbEntity
  8
1-4_寸法
  6
Continuous
 62
     7
370
   211
100
AcDbText
 10
-82.76266814171834
 20
1557.250865433738
 30
0.0
 40
45.72
  1
100
 41
1.083333333333333
  7
ＭＳ ゴシック
100
AcDbText
  0
LWPOLYLINE
  5
257
330
1F
100
AcDbEntity
  8
1-4_寸法
  6
Continuous
 62
     7
370
     9
100
AcDbPolyline
 90
        4
 70
     1
 43
3.0
 10
217.4873215482887
 20
1539.790865433738
 42
0.4142135623731
 10
215.9873215482887
 20
1541.290865433738
 42
0.4142135623731
 10
214.4873215482887
 20
1539.790865433738
 42
0.4142135623731
 10
215.9873215482887
 20
1538.290865433738
 42
0.4142135623731
  0
LINE
  5
258
330
1F
100
AcDbEntity
  8
1-4_寸法
  6
Continuous
 62
     7
370
     9
100
AcDbLine
 10
215.9873215482887
 20
1708.4178754832
 30
0.0
 11
215.9873215482887
 21
1431.407263957624
 31
0.0
  0
TEXT
  5
259
330
1F
100
AcDbEntity
  8
1-4_寸法
  6
Continuous
 62
     7
370
   211
100
AcDbText
 10
67.23733185828166
 20
1557.250865433738
 30
0.0
 40
45.72
  1
200
 41
1.083333333333333
  7
ＭＳ ゴシック
100
AcDbText
  0
LWPOLYLINE
  5
25A
330
1F
100
AcDbEntity
  8
1-4_寸法
  6
Continuous
 62
     7
370
     9
100
AcDbPolyline
 90
        4
 70
     1
 43
3.0
 10
217.4873215482887
 20
1703.9178754832
 42
0.4142135623731
 10
215.9873215482887
 20
1705.4178754832
 42
0.4142135623731
 10
214.4873215482887
 20
1703.9178754832
 42
0.4142135623731
 10
215.9873215482887
 20
1702.4178754832
 42
0.4142135623731
  0
LINE
  5
25B
330
1F
100
AcDbEntity
  8
1-0_通り芯
  6
Continuous
 62
     7
370
     9
100
AcDbLine
 10
-1984.012678451711
 20
1359.61984082517
 30
0.0
 11
215.9873215482887
 21
1359.61984082517
 31
0.0
  0
LINE
  5
25C
330
1F
100
AcDbEntity
  8
1-0_通り芯
  6
Continuous
 62
     3
370
     9
100
AcDbLine
 10
-1984.012678451711
 20
1362.81998005131
 30
0.0
 11
215.9873215482887
 21
1362.81998005131
 31
0.0
  0
LINE
  5
25D
330
1F
100
AcDbEntity
  8
1-0_通り芯
  6
Continuous
 62
     3
370
     9
100
AcDbLine
 10
-1944.012701133694
 20
1322.820095523228
 30
0.0
 11
175.9872514403386
 21
1322.820095523228
 31
0.0
  0
LINE
  5
25E
330
1F
100
AcDbEntity
  8
1-4_寸法
  6
Continuous
 62
     7
370
     9
100
AcDbLine
 10
-1984.012678451711
 20
1703.9178754832
 30
0.0
 11
215.9873215482887
 21
1703.9178754832
 31
0.0
  0
LINE
  5
25F
330
1F
100
AcDbEntity
  8
1-0_通り芯
  6
Continuous
 62
     7
370
     9
100
AcDbLine
 10
-1756.299335836635
 20
-814.4665659856929
 30
0.0
 11
-1761.726062306757
 21
-819.8932924558155
 31
0.0
  0
LINE
  5
260
330
1F
100
AcDbEntity
  8
1-0_通り芯
  6
Continuous
 62
     7
370
     9
100
AcDbLine
 10
-1761.726062306757
 20
-814.4665659856929
 30
0.0
 11
-1756.299335836635
 21
-819.8932924558155
 31
0.0
  0
LINE
  5
261
330
1F
100
AcDbEntity
  8
1-0_通り芯
  6
JWW_DASHED1
 62
     4
370
     9
100
AcDbLine
 10
-1834.012740311667
 20
-833.180217075748
 30
0.0
 11
-1834.012740311667
 21
-801.1803094532819
 31
0.0
  0
LINE
  5
262
330
1F
100
AcDbEntity
  8
1-0_通り芯
  6
JWW_DASHED1
 62
     4
370
     9
100
AcDbLine
 10
-1834.012740311667
 20
-833.180217075748
 30
0.0
 11
-1734.012699071696
 21
-833.180217075748
 31
0.0
  0
LINE
  5
263
330
1F
100
AcDbEntity
  8
1-0_通り芯
  6
JWW_DASHED1
 62
     4
370
     9
100
AcDbLine
 10
-1834.012740311667
 20
-801.1803094532819
 30
0.0
 11
-1734.012699071696
 21
-801.1803094532819
 31
0.0
  0
LINE
  5
264
330
1F
100
AcDbEntity
  8
1-4_寸法
  6
JWW_DASHED1
 62
     4
370
     9
100
AcDbLine
 10
-1734.012699071696
 20
-833.180217075748
 30
0.0
 11
-1734.012699071696
 21
-801.1803094532819
 31
0.0
  0
LINE
  5
265
330
1F
100
AcDbEntity
  8
1-0_通り芯
  6
JWW_CENTER1
 62
     4
370
     9
100
AcDbLine
 10
-1759.012699071696
 20
-805.1801494421965
 30
0.0
 11
-1759.012699071696
 21
-829.180080159046
 31
0.0
  0
LINE
  5
266
330
1F
100
AcDbEntity
  8
1-0_通り芯
  6
JWW_CENTER1
 62
     4
370
     9
100
AcDbLine
 10
-1771.012664430122
 20
-817.1797436408871
 30
0.0
 11
-1747.012733713271
 21
-817.1797436408871
 31
0.0
  0
CIRCLE
  5
267
330
1F
100
AcDbEntity
  8
1-0_通り芯
  6
Continuous
 62
     3
370
     9
100
AcDbCircle
 10
-1759.012699071696
 20
-817.1797436408871
 30
0.0
 40
6.999999365291081
  0
LINE
  5
268
330
1F
100
AcDbEntity
  8
1-0_通り芯
  6
Continuous
 62
     3
370
     9
100
AcDbLine
 10
-1784.012699071697
 20
-837.1802055285561
 30
0.0
 11
-1784.012699071697
 21
-797.1803210004733
 31
0.0
  0
LWPOLYLINE
  5
269
330
1F
100
AcDbEntity
  8
1-4_寸法
  6
Continuous
 62
     7
370
     9
100
AcDbPolyline
 90
        4
 70
     1
 43
3.0
 10
-2151.352951208462
 20
-837.1800199486896
 42
0.4142135623731
 10
-2152.852951208461
 20
-835.6800199486896
 42
0.4142135623731
 10
-2154.352951208461
 20
-837.1800199486896
 42
0.4142135623731
 10
-2152.852951208461
 20
-838.6800199486896
 42
0.4142135623731
  0
LWPOLYLINE
  5
26A
330
1F
100
AcDbEntity
  8
1-4_寸法
  6
Continuous
 62
     7
370
     9
100
AcDbPolyline
 90
        4
 70
     1
 43
3.0
 10
-2151.352951208461
 20
-537.1800199486896
 42
0.4142135623731
 10
-2152.852951208461
 20
-535.6800199486896
 42
0.4142135623731
 10
-2154.352951208461
 20
-537.1800199486896
 42
0.4142135623731
 10
-2152.852951208461
 20
-538.6800199486896
 42
0.4142135623731
  0
LINE
  5
26B
330
1F
100
AcDbEntity
  8
1-4_寸法
  6
Continuous
 62
     7
370
     9
100
AcDbLine
 10
-2310.720890655499
 20
-837.1800199486895
 30
0.0
 11
-2063.237472939575
 21
-837.1800199486896
 31
0.0
  0
LINE
  5
26C
330
1F
100
AcDbEntity
  8
1-4_寸法
  6
Continuous
 62
     7
370
     9
100
AcDbLine
 10
-2157.352951208461
 20
-537.1800199486896
 30
0.0
 11
-2063.237472939575
 21
-537.1800199486896
 31
0.0
  0
TEXT
  5
26D
330
1F
100
AcDbEntity
  8
1-4_寸法
  6
Continuous
 62
     7
370
   211
100
AcDbText
 10
-2170.312951208461
 20
-735.9300199486896
 30
0.0
 40
45.72
  1
300
 50
90.0
 41
1.083333333333332
  7
ＭＳ ゴシック
100
AcDbText
  0
LWPOLYLINE
  5
26E
330
1F
100
AcDbEntity
  8
1-4_寸法
  6
Continuous
 62
     7
370
     9
100
AcDbPolyline
 90
        4
 70
     1
 43
3.0
 10
-2304.7208906555
 20
-837.1800199486895
 42
0.4142135623731
 10
-2306.2208906555
 20
-835.6800199486895
 42
0.4142135623731
 10
-2307.7208906555
 20
-837.1800199486895
 42
0.4142135623731
 10
-2306.2208906555
 20
-838.6800199486895
 42
0.4142135623731
  0
LINE
  5
26F
330
1F
100
AcDbEntity
  8
1-0_通り芯
  6
Continuous
 62
     3
370
     9
100
AcDbLine
 10
15.98734216827381
 20
-837.1802055285561
 30
0.0
 11
15.98734216827381
 21
-797.1803210004733
 31
0.0
  0
CIRCLE
  5
270
330
1F
100
AcDbEntity
  8
1-0_通り芯
  6
Continuous
 62
     3
370
     9
100
AcDbCircle
 10
-9.012657831725619
 20
-817.1797436408871
 30
0.0
 40
6.999999365291081
  0
LINE
  5
271
330
1F
100
AcDbEntity
  8
1-4_寸法
  6
JWW_DASHED1
 62
     4
370
     9
100
AcDbLine
 10
-34.0126578317259
 20
-833.180217075748
 30
0.0
 11
-34.0126578317259
 21
-801.1803094532819
 31
0.0
  0
LINE
  5
272
330
1F
100
AcDbEntity
  8
1-0_通り芯
  6
JWW_DASHED1
 62
     4
370
     9
100
AcDbLine
 10
65.98738340824411
 20
-801.1803094532819
 30
0.0
 11
-34.0126578317259
 21
-801.1803094532819
 31
0.0
  0
LINE
  5
273
330
1F
100
AcDbEntity
  8
1-0_通り芯
  6
JWW_CENTER1
 62
     4
370
     9
100
AcDbLine
 10
-9.012657831725619
 20
-805.1801494421965
 30
0.0
 11
-9.012657831725619
 21
-829.180080159046
 31
0.0
  0
LINE
  5
274
330
1F
100
AcDbEntity
  8
1-0_通り芯
  6
JWW_CENTER1
 62
     4
370
     9
100
AcDbLine
 10
2.987307526698544
 20
-817.1797436408871
 30
0.0
 11
-21.01262319015063
 21
-817.1797436408871
 31
0.0
  0
LINE
  5
275
330
1F
100
AcDbEntity
  8
1-0_通り芯
  6
JWW_DASHED1
 62
     4
370
     9
100
AcDbLine
 10
65.98738340824411
 20
-833.180217075748
 30
0.0
 11
-34.0126578317259
 21
-833.180217075748
 31
0.0
  0
LINE
  5
276
330
1F
100
AcDbEntity
  8
1-0_通り芯
  6
JWW_DASHED1
 62
     4
370
     9
100
AcDbLine
 10
65.98738340824411
 20
-833.180217075748
 30
0.0
 11
65.98738340824411
 21
-801.1803094532819
 31
0.0
  0
LINE
  5
277
330
1F
100
AcDbEntity
  8
1-0_通り芯
  6
Continuous
 62
     7
370
     9
100
AcDbLine
 10
-6.299294596664708
 20
-814.4665659856929
 30
0.0
 11
-11.72602106678738
 21
-819.8932924558155
 31
0.0
  0
LINE
  5
278
330
1F
100
AcDbEntity
  8
1-0_通り芯
  6
Continuous
 62
     7
370
     9
100
AcDbLine
 10
-11.72602106678738
 20
-814.4665659856929
 30
0.0
 11
-6.299294596664708
 21
-819.8932924558155
 31
0.0
  0
LINE
  5
279
330
1F
100
AcDbEntity
  8
1-0_通り芯
  6
Continuous
 62
     7
370
     9
100
AcDbLine
 10
215.9873215482887
 20
-833.980066302416
 30
0.0
 11
-1984.012678451711
 21
-833.980066302416
 31
0.0
  0
LINE
  5
27A
330
1F
100
AcDbEntity
  8
1-0_通り芯
  6
Continuous
 62
     3
370
     9
100
AcDbLine
 10
215.9873215482887
 20
-837.1800199486895
 30
0.0
 11
-1984.012678451711
 21
-837.1800199486895
 31
0.0
  0
LINE
  5
27B
330
1F
100
AcDbEntity
  8
1-0_通り芯
  6
Continuous
 62
     3
370
     9
100
AcDbLine
 10
175.9872514403386
 20
-797.1799498407395
 30
0.0
 11
-1944.012701133694
 21
-797.1799498407395
 31
0.0
  0
LINE
  5
27C
330
1F
100
AcDbEntity
  8
1-0_通り芯
  6
JWW_CENTER2
 62
     4
370
     9
100
AcDbLine
 10
-884.012678451711
 20
1403.681527544386
 30
0.0
 11
-884.012678451711
 21
-898.9937861188937
 31
0.0
  0
LINE
  5
27D
330
1F
100
AcDbEntity
  8
1-0_通り芯
  6
Continuous
 62
     7
370
     9
100
AcDbLine
 10
-1980.812724805438
 20
-833.980066302416
 30
0.0
 11
-1980.812724805438
 21
1359.61984082517
 31
0.0
  0
LINE
  5
27E
330
1F
100
AcDbEntity
  8
1-0_通り芯
  6
Continuous
 62
     3
370
     9
100
AcDbLine
 10
-1984.012678451711
 20
-837.1800199486895
 30
0.0
 11
-1984.012678451711
 21
1362.81998005131
 31
0.0
  0
LINE
  5
27F
330
1F
100
AcDbEntity
  8
1-0_通り芯
  6
Continuous
 62
     3
370
     9
100
AcDbLine
 10
-1944.012701133694
 20
-833.980066302416
 30
0.0
 11
-1944.012701133694
 21
1359.61984082517
 31
0.0
  0
LINE
  5
280
330
1F
100
AcDbEntity
  8
1-4_寸法
  6
Continuous
 62
     7
370
     9
100
AcDbLine
 10
-2306.2208906555
 20
-837.1800199486895
 30
0.0
 11
-2306.2208906555
 21
1362.81998005131
 31
0.0
  0
LINE
  5
281
330
1F
100
AcDbEntity
  8
1-0_通り芯
  6
Continuous
 62
     3
370
     9
100
AcDbLine
 10
215.9873215482887
 20
1362.81998005131
 30
0.0
 11
215.9873215482887
 21
-837.1800199486895
 31
0.0
  0
LINE
  5
282
330
1F
100
AcDbEntity
  8
1-0_通り芯
  6
Continuous
 62
     3
370
     9
100
AcDbLine
 10
175.9872514403386
 20
1359.61984082517
 30
0.0
 11
175.9872514403386
 21
-833.980066302416
 31
0.0
  0
LINE
  5
283
330
1F
100
AcDbEntity
  8
1-0_通り芯
  6
Continuous
 62
     7
370
     9
100
AcDbLine
 10
212.7873679020152
 20
1359.61984082517
 30
0.0
 11
212.7873679020152
 21
-833.980066302416
 31
0.0
  0
TEXT
  5
284
330
1F
100
AcDbEntity
  8
1-4_寸法
  6
Continuous
 62
     7
370
   211
100
AcDbText
 10
-949.6378640315783
 20
-1140.968999440094
 30
0.0
 40
45.72
  1
2200
 41
1.09375
  7
ＭＳ ゴシック
100
AcDbText
  0
TEXT
  5
285
330
1F
100
AcDbEntity
  8
1-4_寸法
  6
Continuous
 62
     7
370
   211
100
AcDbText
 10
-949.637678451711
 20
-1472.348070352986
 30
0.0
 40
45.72
  1
2120
 41
1.09375
  7
ＭＳ ゴシック
100
AcDbText
  0
TEXT
  5
286
330
1F
100
AcDbEntity
  8
1-4_寸法
  6
Continuous
 62
     7
370
   211
100
AcDbText
 10
-949.637678451711
 20
1721.3778754832
 30
0.0
 40
45.72
  1
2200
 41
1.09375
  7
ＭＳ ゴシック
100
AcDbText
  0
TEXT
  5
287
330
1F
100
AcDbEntity
  8
1-4_寸法
  6
Continuous
 62
     7
370
   211
100
AcDbText
 10
-2323.680890655499
 20
197.1949800513104
 30
0.0
 40
45.72
  1
2200
 50
90.0
 41
1.09375
  7
ＭＳ ゴシック
100
AcDbText
  0
TEXT
  5
288
330
1F
100
AcDbEntity
  8
1-4_寸法
  6
Continuous
 62
     7
370
   211
100
AcDbText
 10
-1332.762678451711
 20
1557.250865433738
 30
0.0
 40
45.72
  1
800
 41
1.083333333333333
  7
ＭＳ ゴシック
100
AcDbText
  0
TEXT
  5
289
330
1F
100
AcDbEntity
  8
1-4_寸法
  6
Continuous
 62
     7
370
   211
100
AcDbText
 10
-532.7626784517116
 20
1557.250865433738
 30
0.0
 40
45.72
  1
800
 41
1.083333333333333
  7
ＭＳ ゴシック
100
AcDbText
  0
TEXT
  5
28A
330
1F
100
AcDbEntity
  8
1-4_寸法
  6
Continuous
 62
     7
370
   211
100
AcDbText
 10
-2170.312951208461
 20
-185.9300199486895
 30
0.0
 40
45.72
  1
800
 50
90.0
 41
1.083333333333333
  7
ＭＳ ゴシック
100
AcDbText
  0
TEXT
  5
28B
330
1F
100
AcDbEntity
  8
1-4_寸法
  6
Continuous
 62
     7
370
   211
100
AcDbText
 10
-2170.312951208461
 20
614.0700419112661
 30
0.0
 40
45.72
  1
800
 50
90.0
 41
1.083333333333333
  7
ＭＳ ゴシック
100
AcDbText
  0
LWPOLYLINE
  5
28C
330
1F
100
AcDbEntity
  8
1-4_寸法
  6
Continuous
 62
     7
370
     9
100
AcDbPolyline
 90
        4
 70
     1
 43
3.0
 10
348.3899959183085
 20
-1308.282112143066
 42
0.4142135623731
 10
346.8899959183085
 20
-1306.782112143066
 42
0.4142135623731
 10
345.3899959183085
 20
-1308.282112143066
 42
0.4142135623731
 10
346.8899959183085
 20
-1309.782112143066
 42
0.4142135623731
  0
LINE
  5
28D
330
1F
100
AcDbEntity
  8
1-4_寸法
  6
Continuous
 62
     7
370
     9
100
AcDbLine
 10
349.8899959183083
 20
-1308.282112143066
 30
0.0
 11
268.83376034636
 21
-1308.282112143066
 31
0.0
  0
LINE
  5
28E
330
1F
100
AcDbEntity
  8
1-2_本体（蓋）
  6
Continuous
 62
     3
370
     9
100
AcDbLine
 10
215.9871359684215
 20
-1299.282112143065
 30
0.0
 11
255.9871359684217
 21
-1299.282112143065
 31
0.0
  0
LINE
  5
28F
330
1F
100
AcDbEntity
  8
1-4_寸法
  6
Continuous
 62
     7
370
     9
100
AcDbLine
 10
346.8899959183085
 20
-1308.282112143066
 30
0.0
 11
346.8899959183085
 21
-1196.361649389597
 31
0.0
  0
LWPOLYLINE
  5
290
330
1F
100
AcDbEntity
  8
1-4_寸法
  6
Continuous
 62
     7
370
     9
100
AcDbPolyline
 90
        4
 70
     1
 43
3.0
 10
348.3899959183085
 20
-1268.282232917265
 42
0.4142135623731
 10
346.8899959183085
 20
-1266.782232917265
 42
0.4142135623731
 10
345.3899959183085
 20
-1268.282232917265
 42
0.4142135623731
 10
346.8899959183085
 20
-1269.782232917265
 42
0.4142135623731
  0
LINE
  5
291
330
1F
100
AcDbEntity
  8
1-4_寸法
  6
Continuous
 62
     7
370
     9
100
AcDbLine
 10
349.8899959183083
 20
-1268.282232917265
 30
0.0
 11
229.6095213654817
 21
-1268.282232917265
 31
0.0
  0
TEXT
  5
292
330
1F
100
AcDbEntity
  8
1-4_寸法
  6
Continuous
 62
     2
370
   211
100
AcDbText
 10
325.8270193511749
 20
-1256.931078393904
 30
0.0
 40
45.72
  1
40
 50
90.0
 41
1.0625
  7
ＭＳ ゴシック
100
AcDbText
  0
LINE
  5
293
330
1F
100
AcDbEntity
  8
1-2_本体（蓋）
  6
Continuous
 62
     3
370
     9
100
AcDbLine
 10
255.9871359684217
 20
-1299.282112143065
 30
0.0
 11
255.9871359684217
 21
-1308.282112143066
 31
0.0
  0
LINE
  5
294
330
1F
100
AcDbEntity
  8
1-2_本体（蓋）
  6
Continuous
 62
     3
370
     9
100
AcDbLine
 10
-1984.012492871844
 20
-1299.282112143065
 30
0.0
 11
-2024.012492871844
 21
-1299.282112143065
 31
0.0
  0
LINE
  5
295
330
1F
100
AcDbEntity
  8
1-2_本体（蓋）
  6
Continuous
 62
     3
370
     9
100
AcDbLine
 10
-2024.012492871844
 20
-1299.282112143065
 30
0.0
 11
-2024.012492871844
 21
-1308.282112143066
 31
0.0
  0
LINE
  5
296
330
1F
100
AcDbEntity
  8
1-0_通り芯
  6
Continuous
 62
     3
370
     9
100
AcDbLine
 10
255.9871359684217
 20
-1308.282112143066
 30
0.0
 11
-2024.012492871844
 21
-1308.282112143066
 31
0.0
  0
LINE
  5
297
330
1F
100
AcDbEntity
  8
1-4_寸法
  6
Continuous
 62
     3
370
     9
100
AcDbLine
 10
-88.51267845171236
 20
1402.819980051311
 30
0.0
 11
-88.51267845171236
 21
1362.81998005131
 31
0.0
  0
LINE
  5
298
330
1F
100
AcDbEntity
  8
1-4_寸法
  6
Continuous
 62
     3
370
     9
100
AcDbLine
 10
-79.51267845171202
 20
1402.819980051311
 30
0.0
 11
-79.51267845171202
 21
1362.81998005131
 31
0.0
  0
LINE
  5
299
330
1F
100
AcDbEntity
  8
1-4_寸法
  6
Continuous
 62
     3
370
     9
100
AcDbLine
 10
-79.51267845171202
 20
1402.819980051311
 30
0.0
 11
-88.51267845171236
 21
1402.819980051311
 31
0.0
  0
LINE
  5
29A
330
1F
100
AcDbEntity
  8
1-2_本体（蓋）
  6
JWW_CENTER2
 62
     4
370
     9
100
AcDbLine
 10
-84.01267845171134
 20
1407.880036508906
 30
0.0
 11
-84.01267845171134
 21
1312.598834473682
 31
0.0
  0
LINE
  5
29B
330
1F
100
AcDbEntity
  8
1-4_寸法
  6
Continuous
 62
     3
370
     9
100
AcDbLine
 10
-888.5126784517121
 20
1402.819980051311
 30
0.0
 11
-888.5126784517121
 21
1362.81998005131
 31
0.0
  0
LINE
  5
29C
330
1F
100
AcDbEntity
  8
1-4_寸法
  6
Continuous
 62
     3
370
     9
100
AcDbLine
 10
-879.5126784517117
 20
1402.819980051311
 30
0.0
 11
-879.5126784517117
 21
1362.81998005131
 31
0.0
  0
LINE
  5
29D
330
1F
100
AcDbEntity
  8
1-4_寸法
  6
Continuous
 62
     3
370
     9
100
AcDbLine
 10
-879.5126784517117
 20
1402.819980051311
 30
0.0
 11
-888.5126784517121
 21
1402.819980051311
 31
0.0
  0
LINE
  5
29E
330
1F
100
AcDbEntity
  8
1-2_本体（蓋）
  6
JWW_CENTER2
 62
     4
370
     9
100
AcDbLine
 10
-884.012678451711
 20
1407.880036508906
 30
0.0
 11
-884.012678451711
 21
1312.598834473682
 31
0.0
  0
LINE
  5
29F
330
1F
100
AcDbEntity
  8
1-4_寸法
  6
Continuous
 62
     3
370
     9
100
AcDbLine
 10
-1688.512678451712
 20
1402.819980051311
 30
0.0
 11
-1688.512678451712
 21
1362.81998005131
 31
0.0
  0
LINE
  5
2A0
330
1F
100
AcDbEntity
  8
1-4_寸法
  6
Continuous
 62
     3
370
     9
100
AcDbLine
 10
-1679.512678451712
 20
1402.819980051311
 30
0.0
 11
-1679.512678451712
 21
1362.81998005131
 31
0.0
  0
LINE
  5
2A1
330
1F
100
AcDbEntity
  8
1-4_寸法
  6
Continuous
 62
     3
370
     9
100
AcDbLine
 10
-1679.512678451712
 20
1402.819980051311
 30
0.0
 11
-1688.512678451712
 21
1402.819980051311
 31
0.0
  0
LINE
  5
2A2
330
1F
100
AcDbEntity
  8
1-2_本体（蓋）
  6
JWW_CENTER2
 62
     4
370
     9
100
AcDbLine
 10
-1684.012678451711
 20
1407.880036508906
 30
0.0
 11
-1684.012678451711
 21
1312.598834473682
 31
0.0
  0
LINE
  5
2A3
330
1F
100
AcDbEntity
  8
1-4_寸法
  6
Continuous
 62
     3
370
     9
100
AcDbLine
 10
-2024.012678451711
 20
1058.319980051309
 30
0.0
 11
-1984.012678451711
 21
1058.319980051309
 31
0.0
  0
LINE
  5
2A4
330
1F
100
AcDbEntity
  8
1-4_寸法
  6
Continuous
 62
     3
370
     9
100
AcDbLine
 10
-2024.012678451711
 20
1067.31998005131
 30
0.0
 11
-1984.012678451711
 21
1067.31998005131
 31
0.0
  0
LINE
  5
2A5
330
1F
100
AcDbEntity
  8
1-4_寸法
  6
Continuous
 62
     3
370
     9
100
AcDbLine
 10
-2024.012678451711
 20
1067.31998005131
 30
0.0
 11
-2024.012678451711
 21
1058.319980051309
 31
0.0
  0
LINE
  5
2A6
330
1F
100
AcDbEntity
  8
1-2_本体（蓋）
  6
JWW_CENTER2
 62
     4
370
     9
100
AcDbLine
 10
-2029.072734909306
 20
1062.81998005131
 30
0.0
 11
-1933.791532874083
 21
1062.81998005131
 31
0.0
  0
LINE
  5
2A7
330
1F
100
AcDbEntity
  8
1-4_寸法
  6
Continuous
 62
     3
370
     9
100
AcDbLine
 10
-2024.012678451711
 20
258.3199800513096
 30
0.0
 11
-1984.012678451711
 21
258.3199800513096
 31
0.0
  0
LINE
  5
2A8
330
1F
100
AcDbEntity
  8
1-4_寸法
  6
Continuous
 62
     3
370
     9
100
AcDbLine
 10
-2024.012678451711
 20
267.3199800513099
 30
0.0
 11
-1984.012678451711
 21
267.3199800513099
 31
0.0
  0
LINE
  5
2A9
330
1F
100
AcDbEntity
  8
1-4_寸法
  6
Continuous
 62
     3
370
     9
100
AcDbLine
 10
-2024.012678451711
 20
267.3199800513099
 30
0.0
 11
-2024.012678451711
 21
258.3199800513096
 31
0.0
  0
LINE
  5
2AA
330
1F
100
AcDbEntity
  8
1-4_寸法
  6
Continuous
 62
     3
370
     9
100
AcDbLine
 10
-2024.012678451711
 20
-541.6800199486901
 30
0.0
 11
-1984.012678451711
 21
-541.6800199486901
 31
0.0
  0
LINE
  5
2AB
330
1F
100
AcDbEntity
  8
1-4_寸法
  6
Continuous
 62
     3
370
     9
100
AcDbLine
 10
-2024.012678451711
 20
-532.6800199486897
 30
0.0
 11
-1984.012678451711
 21
-532.6800199486897
 31
0.0
  0
LINE
  5
2AC
330
1F
100
AcDbEntity
  8
1-4_寸法
  6
Continuous
 62
     3
370
     9
100
AcDbLine
 10
-2024.012678451711
 20
-532.6800199486897
 30
0.0
 11
-2024.012678451711
 21
-541.6800199486901
 31
0.0
  0
LINE
  5
2AD
330
1F
100
AcDbEntity
  8
1-2_本体（蓋）
  6
JWW_CENTER2
 62
     4
370
     9
100
AcDbLine
 10
-2029.072734909306
 20
-537.180019948689
 30
0.0
 11
-1933.791532874083
 21
-537.180019948689
 31
0.0
  0
LINE
  5
2AE
330
1F
100
AcDbEntity
  8
1-4_寸法
  6
Continuous
 62
     3
370
     9
100
AcDbLine
 10
-1679.51267845171
 20
-877.1800199486895
 30
0.0
 11
-1679.51267845171
 21
-837.1800199486892
 31
0.0
  0
LINE
  5
2AF
330
1F
100
AcDbEntity
  8
1-4_寸法
  6
Continuous
 62
     3
370
     9
100
AcDbLine
 10
-1688.51267845171
 20
-877.1800199486895
 30
0.0
 11
-1688.51267845171
 21
-837.1800199486892
 31
0.0
  0
LINE
  5
2B0
330
1F
100
AcDbEntity
  8
1-4_寸法
  6
Continuous
 62
     3
370
     9
100
AcDbLine
 10
-1688.51267845171
 20
-877.1800199486895
 30
0.0
 11
-1679.51267845171
 21
-877.1800199486895
 31
0.0
  0
LINE
  5
2B1
330
1F
100
AcDbEntity
  8
1-2_本体（蓋）
  6
JWW_CENTER2
 62
     4
370
     9
100
AcDbLine
 10
-1684.012678451711
 20
-882.2400764062847
 30
0.0
 11
-1684.012678451711
 21
-786.9588743710616
 31
0.0
  0
LINE
  5
2B2
330
1F
100
AcDbEntity
  8
1-4_寸法
  6
Continuous
 62
     3
370
     9
100
AcDbLine
 10
-879.51267845171
 20
-877.1800199486895
 30
0.0
 11
-879.51267845171
 21
-837.1800199486892
 31
0.0
  0
LINE
  5
2B3
330
1F
100
AcDbEntity
  8
1-4_寸法
  6
Continuous
 62
     3
370
     9
100
AcDbLine
 10
-888.5126784517104
 20
-877.1800199486895
 30
0.0
 11
-888.5126784517104
 21
-837.1800199486892
 31
0.0
  0
LINE
  5
2B4
330
1F
100
AcDbEntity
  8
1-4_寸法
  6
Continuous
 62
     3
370
     9
100
AcDbLine
 10
-888.5126784517104
 20
-877.1800199486895
 30
0.0
 11
-879.51267845171
 21
-877.1800199486895
 31
0.0
  0
LINE
  5
2B5
330
1F
100
AcDbEntity
  8
1-4_寸法
  6
Continuous
 62
     3
370
     9
100
AcDbLine
 10
-79.51267845171031
 20
-877.1800199486895
 30
0.0
 11
-79.51267845171031
 21
-837.1800199486892
 31
0.0
  0
LINE
  5
2B6
330
1F
100
AcDbEntity
  8
1-4_寸法
  6
Continuous
 62
     3
370
     9
100
AcDbLine
 10
-88.51267845171066
 20
-877.1800199486895
 30
0.0
 11
-88.51267845171066
 21
-837.1800199486892
 31
0.0
  0
LINE
  5
2B7
330
1F
100
AcDbEntity
  8
1-4_寸法
  6
Continuous
 62
     3
370
     9
100
AcDbLine
 10
-88.51267845171066
 20
-877.1800199486895
 30
0.0
 11
-79.51267845171031
 21
-877.1800199486895
 31
0.0
  0
LINE
  5
2B8
330
1F
100
AcDbEntity
  8
1-2_本体（蓋）
  6
JWW_CENTER2
 62
     4
370
     9
100
AcDbLine
 10
-84.01267845171134
 20
-882.2400764062847
 30
0.0
 11
-84.01267845171134
 21
-786.9588743710616
 31
0.0
  0
LINE
  5
2B9
330
1F
100
AcDbEntity
  8
1-4_寸法
  6
Continuous
 62
     3
370
     9
100
AcDbLine
 10
255.9873215482889
 20
-532.6800199486884
 30
0.0
 11
215.9873215482887
 21
-532.6800199486884
 31
0.0
  0
LINE
  5
2BA
330
1F
100
AcDbEntity
  8
1-4_寸法
  6
Continuous
 62
     3
370
     9
100
AcDbLine
 10
255.9873215482889
 20
-541.6800199486887
 30
0.0
 11
215.9873215482887
 21
-541.6800199486887
 31
0.0
  0
LINE
  5
2BB
330
1F
100
AcDbEntity
  8
1-4_寸法
  6
Continuous
 62
     3
370
     9
100
AcDbLine
 10
255.9873215482889
 20
-541.6800199486887
 30
0.0
 11
255.9873215482889
 21
-532.6800199486884
 31
0.0
  0
LINE
  5
2BC
330
1F
100
AcDbEntity
  8
1-2_本体（蓋）
  6
JWW_CENTER2
 62
     4
370
     9
100
AcDbLine
 10
261.0473780058842
 20
-537.1800199486894
 30
0.0
 11
165.766175970661
 21
-537.1800199486894
 31
0.0
  0
LINE
  5
2BD
330
1F
100
AcDbEntity
  8
1-4_寸法
  6
Continuous
 62
     3
370
     9
100
AcDbLine
 10
255.9873215482889
 20
267.3199800513113
 30
0.0
 11
215.9873215482887
 21
267.3199800513113
 31
0.0
  0
LINE
  5
2BE
330
1F
100
AcDbEntity
  8
1-4_寸法
  6
Continuous
 62
     3
370
     9
100
AcDbLine
 10
255.9873215482889
 20
258.319980051311
 30
0.0
 11
215.9873215482887
 21
258.319980051311
 31
0.0
  0
LINE
  5
2BF
330
1F
100
AcDbEntity
  8
1-4_寸法
  6
Continuous
 62
     3
370
     9
100
AcDbLine
 10
255.9873215482889
 20
258.319980051311
 30
0.0
 11
255.9873215482889
 21
267.3199800513113
 31
0.0
  0
LINE
  5
2C0
330
1F
100
AcDbEntity
  8
1-4_寸法
  6
Continuous
 62
     3
370
     9
100
AcDbLine
 10
255.9873215482889
 20
1067.319980051311
 30
0.0
 11
215.9873215482887
 21
1067.319980051311
 31
0.0
  0
LINE
  5
2C1
330
1F
100
AcDbEntity
  8
1-4_寸法
  6
Continuous
 62
     3
370
     9
100
AcDbLine
 10
255.9873215482889
 20
1058.319980051311
 30
0.0
 11
215.9873215482887
 21
1058.319980051311
 31
0.0
  0
LINE
  5
2C2
330
1F
100
AcDbEntity
  8
1-4_寸法
  6
Continuous
 62
     3
370
     9
100
AcDbLine
 10
255.9873215482889
 20
1058.319980051311
 30
0.0
 11
255.9873215482889
 21
1067.319980051311
 31
0.0
  0
LINE
  5
2C3
330
1F
100
AcDbEntity
  8
1-2_本体（蓋）
  6
JWW_CENTER2
 62
     4
370
     9
100
AcDbLine
 10
261.0473780058842
 20
1062.81998005131
 30
0.0
 11
165.766175970661
 21
1062.81998005131
 31
0.0
  0
TEXT
  5
2C4
330
1F
100
AcDbEntity
  8
F-Eﾚｲﾔ
  6
Continuous
 62
     7
370
     9
100
AcDbText
 10
-1079.902511723141
 20
-2036.716697862721
 30
0.0
 40
45.72
  1
角型用　タイル用　スチール製受枠　SS-2180
 41
1.121951219512195
  7
ＭＳ ゴシック
100
AcDbText
  0
ENDSEC
  0
SECTION
  2
OBJECTS
  0
DICTIONARY
  5
C
330
0
100
AcDbDictionary
281
     1
  3
ACAD_GROUP
350
D
  3
ACAD_LAYOUT
350
1A
  3
ACAD_MATERIAL
350
43
  3
ACAD_MLEADERSTYLE
350
6B
  3
ACAD_MLINESTYLE
350
17
  3
ACAD_PLOTSETTINGS
350
19
  3
ACAD_PLOTSTYLENAME
350
E
  3
ACAD_SCALELIST
350
47
  3
ACAD_TABLESTYLE
350
69
  3
ACAD_VISUALSTYLE
350
2A
  3
AcDbVariableDictionary
350
2C5
  0
DICTIONARY
  5
2CE
330
8
100
AcDbDictionary
280
     1
281
     1
  3
ACAD_XREC_ROUNDTRIP
360
2CF
  0
DICTIONARY
  5
D
102
{ACAD_REACTORS
330
C
102
}
330
C
100
AcDbDictionary
281
     1
  0
DICTIONARY
  5
1A
102
{ACAD_REACTORS
330
C
102
}
330
C
100
AcDbDictionary
281
     1
  3
Layout1
350
1E
  3
Layout2
350
26
  3
Model
350
22
  0
DICTIONARY
  5
43
102
{ACAD_REACTORS
330
C
102
}
330
C
100
AcDbDictionary
281
     1
  3
ByBlock
350
45
  3
ByLayer
350
44
  3
Global
350
46
  0
DICTIONARY
  5
6B
102
{ACAD_REACTORS
330
C
102
}
330
C
100
AcDbDictionary
281
     1
  3
Standard
350
6C
  0
DICTIONARY
  5
17
102
{ACAD_REACTORS
330
C
102
}
330
C
100
AcDbDictionary
281
     1
  3
Standard
350
18
  0
DICTIONARY
  5
19
102
{ACAD_REACTORS
330
C
102
}
330
C
100
AcDbDictionary
281
     1
  0
ACDBDICTIONARYWDFLT
  5
E
102
{ACAD_REACTORS
330
C
102
}
330
C
100
AcDbDictionary
281
     1
  3
Normal
350
F
100
AcDbDictionaryWithDefault
340
F
  0
DICTIONARY
  5
47
102
{ACAD_REACTORS
330
C
102
}
330
C
100
AcDbDictionary
281
     1
  3
A0
350
48
  3
A1
350
49
  3
A2
350
4A
  3
A3
350
4B
  3
A4
350
4C
  3
A5
350
4D
  3
A6
350
4E
  3
A7
350
4F
  3
A8
350
50
  3
A9
350
51
  3
B0
350
52
  3
B1
350
53
  3
B2
350
54
  3
B3
350
55
  3
B4
350
56
  3
B5
350
57
  3
B6
350
58
  3
B7
350
59
  3
B8
350
5A
  3
B9
350
5B
  3
C0
350
5C
  3
C1
350
5D
  3
C2
350
5E
  3
C3
350
5F
  3
C4
350
60
  3
C5
350
61
  3
C6
350
62
  3
C7
350
63
  3
C8
350
64
  3
C9
350
65
  3
D0
350
66
  3
D1
350
67
  3
D2
350
68
  0
DICTIONARY
  5
69
102
{ACAD_REACTORS
330
C
102
}
330
C
100
AcDbDictionary
281
     1
  3
Standard
350
6A
  0
DICTIONARY
  5
2A
102
{ACAD_REACTORS
330
C
102
}
330
C
100
AcDbDictionary
281
     1
  3
2dWireframe
350
2F
  3
Basic
350
32
  3
Brighten
350
36
  3
ColorChange
350
3A
  3
Conceptual
350
34
  3
Dim
350
35
  3
EdgeColorOff
350
3D
  3
Facepattern
350
39
  3
Flat
350
2B
  3
FlatWithEdges
350
2C
  3
Gouraud
350
2D
  3
GouraudWithEdges
350
2E
  3
Hidden
350
31
  3
JitterOff
350
3B
  3
Linepattern
350
38
  3
OverhangOff
350
3C
  3
Realistic
350
33
  3
Shaded
350
42
  3
Shaded with edges
350
41
  3
Shades of Gray
350
3E
  3
Sketchy
350
3F
  3
Thicken
350
37
  3
Wireframe
350
30
  3
X-Ray
350
40
  0
DICTIONARY
  5
2C5
102
{ACAD_REACTORS
330
C
102
}
330
C
100
AcDbDictionary
281
     1
  3
CANNOSCALE
350
2D0
  3
CMLEADERSTYLE
350
2C7
  3
CTABLESTYLE
350
2C6
  3
DIMASSOC
350
2CC
  3
HIDETEXT
350
2CD
  3
MSLTSCALE
350
2D1
  3
PSOLHEIGHT
350
2C9
  3
PSOLWIDTH
350
2C8
  0
XRECORD
  5
2CF
102
{ACAD_REACTORS
330
2CE
102
}
330
2CE
100
AcDbXrecord
280
     1
102
VTR_0.000_0.000_1.000_1.000_GRIDDISPLAY
 70
     3
102
VTR_0.000_0.000_1.000_1.000_GRIDMAJOR
 70
     5
102
VTR_0.000_0.000_1.000_1.000_DEFAULTLIGHTING
280
     1
102
VTR_0.000_0.000_1.000_1.000_DEFAULTLIGHTINGTYPE
 70
     1
102
VTR_0.000_0.000_1.000_1.000_BRIGHTNESS
141
0.0
102
VTR_0.000_0.000_1.000_1.000_CONTRAST
142
0.0
  0
LAYOUT
  5
1E
102
{ACAD_REACTORS
330
1A
102
}
102
{ACAD_XDICTIONARY
360
2D2
102
}
330
1A
100
AcDbPlotSettings
  1

  2
none_device
  4

  6

 40
0.0
 41
0.0
 42
0.0
 43
0.0
 44
0.0
 45
0.0
 46
0.0
 47
0.0
 48
0.0
 49
0.0
140
0.0
141
0.0
142
1.0
143
1.0
 70
   688
 72
     1
 73
     0
 74
     5
  7

 75
    16
147
1.0
148
0.0
149
0.0
100
AcDbLayout
  1
Layout1
 70
     1
 71
     1
 10
0.0
 20
0.0
 11
420.0
 21
297.0
 12
0.0
 22
0.0
 32
0.0
 14
1.000000000000000E+20
 24
1.000000000000000E+20
 34
1.000000000000000E+20
 15
-1.000000000000000E+20
 25
-1.000000000000000E+20
 35
-1.000000000000000E+20
146
0.0
 13
0.0
 23
0.0
 33
0.0
 16
1.0
 26
0.0
 36
0.0
 17
0.0
 27
1.0
 37
0.0
 76
     0
330
1B
  0
LAYOUT
  5
26
102
{ACAD_REACTORS
330
1A
102
}
102
{ACAD_XDICTIONARY
360
2D6
102
}
330
1A
100
AcDbPlotSettings
  1

  2
none_device
  4

  6

 40
0.0
 41
0.0
 42
0.0
 43
0.0
 44
0.0
 45
0.0
 46
0.0
 47
0.0
 48
0.0
 49
0.0
140
0.0
141
0.0
142
1.0
143
1.0
 70
   688
 72
     1
 73
     0
 74
     5
  7

 75
    16
147
1.0
148
0.0
149
0.0
100
AcDbLayout
  1
Layout2
 70
     1
 71
     2
 10
0.0
 20
0.0
 11
0.0
 21
0.0
 12
0.0
 22
0.0
 32
0.0
 14
0.0
 24
0.0
 34
0.0
 15
0.0
 25
0.0
 35
0.0
146
0.0
 13
0.0
 23
0.0
 33
0.0
 16
1.0
 26
0.0
 36
0.0
 17
0.0
 27
1.0
 37
0.0
 76
     0
330
23
  0
LAYOUT
  5
22
102
{ACAD_REACTORS
330
1A
102
}
102
{ACAD_XDICTIONARY
360
2D4
102
}
330
1A
100
AcDbPlotSettings
  1

  2
none_device
  4
Letter_(8.50_x_11.00_Inches)
  6

 40
6.35
 41
6.35
 42
6.35000508
 43
6.35000508
 44
215.9
 45
279.4
 46
0.0
 47
0.0
 48
0.0
 49
0.0
140
0.0
141
0.0
142
1.0
143
1.0
 70
  1712
 72
     1
 73
     0
 74
     0
  7

 75
     0
147
1.0
148
0.0
149
0.0
100
AcDbLayout
  1
Model
 70
     1
 71
     0
 10
-3150.0
 20
-2227.5
 11
3150.0
 21
2227.5
 12
0.0
 22
0.0
 32
0.0
 14
-3150.0
 24
-2227.5
 34
0.0
 15
3150.0
 25
2227.5
 35
0.0
146
0.0
 13
0.0
 23
0.0
 33
0.0
 16
1.0
 26
0.0
 36
0.0
 17
0.0
 27
1.0
 37
0.0
 76
     0
330
1F
331
29
  0
MATERIAL
  5
45
102
{ACAD_REACTORS
330
43
102
}
102
{ACAD_XDICTIONARY
360
30A
102
}
330
43
100
AcDbMaterial
  1
ByBlock
  0
MATERIAL
  5
44
102
{ACAD_REACTORS
330
43
102
}
102
{ACAD_XDICTIONARY
360
308
102
}
330
43
100
AcDbMaterial
  1
ByLayer
  0
MATERIAL
  5
46
102
{ACAD_REACTORS
330
43
102
}
102
{ACAD_XDICTIONARY
360
30C
102
}
330
43
100
AcDbMaterial
  1
Global
  0
MLEADERSTYLE
  5
6C
102
{ACAD_REACTORS
330
6B
102
}
102
{ACAD_XDICTIONARY
360
30F
102
}
330
6B
100
AcDbMLeaderStyle
170
     2
171
     1
172
     0
 90
        2
 40
0.0
 41
0.0
173
     1
 91
-1056964608
340
14
 92
       -2
290
     1
 42
2.0
291
     1
 43
8.0
  3
Standard
341
0
 44
4.0
300

342
11
174
     1
178
     6
175
     1
176
     0
 93
-1056964608
 45
4.0
292
     0
297
     0
 46
4.0
343
0
 94
-1056964608
 47
1.0
 49
1.0
140
1.0
293
     1
141
0.0
294
     1
177
     0
142
1.0
295
     0
296
     0
143
3.75
1001
ACAD_MLEADERVER
1070
     2
  0
MLINESTYLE
  5
18
102
{ACAD_REACTORS
330
17
102
}
330
17
100
AcDbMlineStyle
  2
Standard
 70
     0
  3

 62
   256
 51
90.0
 52
90.0
 71
     2
 49
0.5
 62
   256
  6
BYLAYER
 49
-0.5
 62
   256
  6
BYLAYER
  0
ACDBPLACEHOLDER
  5
F
102
{ACAD_REACTORS
330
E
102
}
330
E
  0
SCALE
  5
48
102
{ACAD_REACTORS
330
47
102
}
330
47
100
AcDbScale
 70
     0
300
1:1
140
1.0
141
1.0
290
     1
  0
SCALE
  5
49
102
{ACAD_REACTORS
330
47
102
}
330
47
100
AcDbScale
 70
     0
300
1:2
140
1.0
141
2.0
290
     0
  0
SCALE
  5
4A
102
{ACAD_REACTORS
330
47
102
}
330
47
100
AcDbScale
 70
     0
300
1:4
140
1.0
141
4.0
290
     0
  0
SCALE
  5
4B
102
{ACAD_REACTORS
330
47
102
}
330
47
100
AcDbScale
 70
     0
300
1:5
140
1.0
141
5.0
290
     0
  0
SCALE
  5
4C
102
{ACAD_REACTORS
330
47
102
}
330
47
100
AcDbScale
 70
     0
300
1:8
140
1.0
141
8.0
290
     0
  0
SCALE
  5
4D
102
{ACAD_REACTORS
330
47
102
}
330
47
100
AcDbScale
 70
     0
300
1:10
140
1.0
141
10.0
290
     0
  0
SCALE
  5
4E
102
{ACAD_REACTORS
330
47
102
}
330
47
100
AcDbScale
 70
     0
300
1:16
140
1.0
141
16.0
290
     0
  0
SCALE
  5
4F
102
{ACAD_REACTORS
330
47
102
}
330
47
100
AcDbScale
 70
     0
300
1:20
140
1.0
141
20.0
290
     0
  0
SCALE
  5
50
102
{ACAD_REACTORS
330
47
102
}
330
47
100
AcDbScale
 70
     0
300
1:30
140
1.0
141
30.0
290
     0
  0
SCALE
  5
51
102
{ACAD_REACTORS
330
47
102
}
330
47
100
AcDbScale
 70
     0
300
1:40
140
1.0
141
40.0
290
     0
  0
SCALE
  5
52
102
{ACAD_REACTORS
330
47
102
}
330
47
100
AcDbScale
 70
     0
300
1:50
140
1.0
141
50.0
290
     0
  0
SCALE
  5
53
102
{ACAD_REACTORS
330
47
102
}
330
47
100
AcDbScale
 70
     0
300
1:100
140
1.0
141
100.0
290
     0
  0
SCALE
  5
54
102
{ACAD_REACTORS
330
47
102
}
330
47
100
AcDbScale
 70
     0
300
2:1
140
2.0
141
1.0
290
     0
  0
SCALE
  5
55
102
{ACAD_REACTORS
330
47
102
}
330
47
100
AcDbScale
 70
     0
300
4:1
140
4.0
141
1.0
290
     0
  0
SCALE
  5
56
102
{ACAD_REACTORS
330
47
102
}
330
47
100
AcDbScale
 70
     0
300
8:1
140
8.0
141
1.0
290
     0
  0
SCALE
  5
57
102
{ACAD_REACTORS
330
47
102
}
330
47
100
AcDbScale
 70
     0
300
10:1
140
10.0
141
1.0
290
     0
  0
SCALE
  5
58
102
{ACAD_REACTORS
330
47
102
}
330
47
100
AcDbScale
 70
     0
300
100:1
140
100.0
141
1.0
290
     0
  0
SCALE
  5
59
102
{ACAD_REACTORS
330
47
102
}
330
47
100
AcDbScale
 70
     0
300
1/128" = 1'-0"
140
0.0078125
141
12.0
290
     0
  0
SCALE
  5
5A
102
{ACAD_REACTORS
330
47
102
}
330
47
100
AcDbScale
 70
     0
300
1/64" = 1'-0"
140
0.015625
141
12.0
290
     0
  0
SCALE
  5
5B
102
{ACAD_REACTORS
330
47
102
}
330
47
100
AcDbScale
 70
     0
300
1/32" = 1'-0"
140
0.03125
141
12.0
290
     0
  0
SCALE
  5
5C
102
{ACAD_REACTORS
330
47
102
}
330
47
100
AcDbScale
 70
     0
300
1/16" = 1'-0"
140
0.0625
141
12.0
290
     0
  0
SCALE
  5
5D
102
{ACAD_REACTORS
330
47
102
}
330
47
100
AcDbScale
 70
     0
300
3/32" = 1'-0"
140
0.09375
141
12.0
290
     0
  0
SCALE
  5
5E
102
{ACAD_REACTORS
330
47
102
}
330
47
100
AcDbScale
 70
     0
300
1/8" = 1'-0"
140
0.125
141
12.0
290
     0
  0
SCALE
  5
5F
102
{ACAD_REACTORS
330
47
102
}
330
47
100
AcDbScale
 70
     0
300
3/16" = 1'-0"
140
0.1875
141
12.0
290
     0
  0
SCALE
  5
60
102
{ACAD_REACTORS
330
47
102
}
330
47
100
AcDbScale
 70
     0
300
1/4" = 1'-0"
140
0.25
141
12.0
290
     0
  0
SCALE
  5
61
102
{ACAD_REACTORS
330
47
102
}
330
47
100
AcDbScale
 70
     0
300
3/8" = 1'-0"
140
0.375
141
12.0
290
     0
  0
SCALE
  5
62
102
{ACAD_REACTORS
330
47
102
}
330
47
100
AcDbScale
 70
     0
300
1/2" = 1'-0"
140
0.5
141
12.0
290
     0
  0
SCALE
  5
63
102
{ACAD_REACTORS
330
47
102
}
330
47
100
AcDbScale
 70
     0
300
3/4" = 1'-0"
140
0.75
141
12.0
290
     0
  0
SCALE
  5
64
102
{ACAD_REACTORS
330
47
102
}
330
47
100
AcDbScale
 70
     0
300
1" = 1'-0"
140
1.0
141
12.0
290
     0
  0
SCALE
  5
65
102
{ACAD_REACTORS
330
47
102
}
330
47
100
AcDbScale
 70
     0
300
1-1/2" = 1'-0"
140
1.5
141
12.0
290
     0
  0
SCALE
  5
66
102
{ACAD_REACTORS
330
47
102
}
330
47
100
AcDbScale
 70
     0
300
3" = 1'-0"
140
3.0
141
12.0
290
     0
  0
SCALE
  5
67
102
{ACAD_REACTORS
330
47
102
}
330
47
100
AcDbScale
 70
     0
300
6" = 1'-0"
140
6.0
141
12.0
290
     0
  0
SCALE
  5
68
102
{ACAD_REACTORS
330
47
102
}
330
47
100
AcDbScale
 70
     0
300
1'-0" = 1'-0"
140
12.0
141
12.0
290
     0
  0
TABLESTYLE
  5
6A
102
{ACAD_REACTORS
330
69
102
}
330
69
100
AcDbTableStyle
  3
Standard
 70
     0
 71
     0
 40
1.5
 41
1.5
280
     0
281
     0
  7
Standard
140
4.5
170
     2
 62
     0
 63
   257
283
     0
274
    -2
284
     1
 64
     0
275
    -2
285
     1
 65
     0
276
    -2
286
     1
 66
     0
277
    -2
287
     1
 67
     0
278
    -2
288
     1
 68
     0
279
    -2
289
     1
 69
     0
  7
Standard
140
6.0
170
     5
 62
     0
 63
   257
283
     0
274
    -2
284
     1
 64
     0
275
    -2
285
     1
 65
     0
276
    -2
286
     1
 66
     0
277
    -2
287
     1
 67
     0
278
    -2
288
     1
 68
     0
279
    -2
289
     1
 69
     0
  7
Standard
140
4.5
170
     5
 62
     0
 63
   257
283
     0
274
    -2
284
     1
 64
     0
275
    -2
285
     1
 65
     0
276
    -2
286
     1
 66
     0
277
    -2
287
     1
 67
     0
278
    -2
288
     1
 68
     0
279
    -2
289
     1
 69
     0
  0
VISUALSTYLE
  5
2F
102
{ACAD_REACTORS
330
2A
102
}
102
{ACAD_XDICTIONARY
360
2E0
102
}
330
2A
100
AcDbVisualStyle
  2
2dWireframe
 70
     4
 71
     0
 72
     2
 73
     0
 90
        0
 40
0.6
 41
30.0
 62
     5
 63
     7
 74
     1
 91
        4
 64
     7
 65
   257
 75
     1
175
     1
 42
1.0
 92
        0
 66
   257
 43
1.0
 76
     1
 77
     6
 78
     2
 67
     7
 79
     5
170
     0
171
     0
290
     0
174
     0
 93
        1
 44
0.0
173
     0
291
     0
 45
0.0
1001
ACAD
1000
AcDbSavedByObjectVersion
1070
     0
  0
VISUALSTYLE
  5
32
102
{ACAD_REACTORS
330
2A
102
}
102
{ACAD_XDICTIONARY
360
2E6
102
}
330
2A
100
AcDbVisualStyle
  2
Basic
 70
     7
 71
     1
 72
     0
 73
     1
 90
        0
 40
0.6
 41
30.0
 62
     5
 63
     7
 74
     0
 91
        4
 64
     7
 65
   257
 75
     1
175
     1
 42
1.0
 92
        8
 66
     7
 43
1.0
 76
     1
 77
     6
 78
     2
 67
     7
 79
     5
170
     0
171
     0
290
     0
174
     0
 93
        1
 44
0.0
173
     0
291
     1
 45
0.0
1001
ACAD
1000
AcDbSavedByObjectVersion
1070
     0
  0
VISUALSTYLE
  5
36
102
{ACAD_REACTORS
330
2A
102
}
102
{ACAD_XDICTIONARY
360
2EE
102
}
330
2A
100
AcDbVisualStyle
  2
Brighten
 70
    12
 71
     2
 72
     2
 73
     0
 90
        0
 40
0.6
 41
30.0
 62
     5
 63
     7
 74
     1
 91
        4
 64
     7
 65
   257
 75
     1
175
     1
 42
1.0
 92
        8
 66
     7
 43
1.0
 76
     1
 77
     6
 78
     2
 67
     7
 79
     5
170
     0
171
     0
290
     0
174
     0
 93
        1
 44
50.0
173
     0
291
     1
 45
0.0
1001
ACAD
1000
AcDbSavedByObjectVersion
1070
     0
  0
VISUALSTYLE
  5
3A
102
{ACAD_REACTORS
330
2A
102
}
102
{ACAD_XDICTIONARY
360
2F6
102
}
330
2A
100
AcDbVisualStyle
  2
ColorChange
 70
    16
 71
     2
 72
     2
 73
     3
 90
        0
 40
0.6
 41
30.0
 62
     5
 63
     8
 74
     1
 91
        4
 64
     7
 65
   257
 75
     1
175
     1
 42
1.0
 92
        8
 66
     8
 43
1.0
 76
     1
 77
     6
 78
     2
 67
     7
 79
     5
170
     0
171
     0
290
     0
174
     0
 93
        1
 44
0.0
173
     0
291
     1
 45
0.0
1001
ACAD
1000
AcDbSavedByObjectVersion
1070
     0
  0
VISUALSTYLE
  5
34
102
{ACAD_REACTORS
330
2A
102
}
102
{ACAD_XDICTIONARY
360
2EA
102
}
330
2A
100
AcDbVisualStyle
  2
Conceptual
 70
     9
 71
     3
 72
     2
 73
     0
 90
        0
 40
0.6
 41
30.0
 62
     5
 63
     7
 74
     2
 91
        2
 64
     7
 65
   257
 75
     1
175
     1
 42
179.0
 92
        8
 66
     7
 43
1.0
 76
     1
 77
     6
 78
     2
 67
     7
 79
     3
170
     0
171
     0
290
     0
174
     0
 93
        1
 44
0.0
173
     0
291
     0
 45
0.0
1001
ACAD
1000
AcDbSavedByObjectVersion
1070
     0
  0
VISUALSTYLE
  5
35
102
{ACAD_REACTORS
330
2A
102
}
102
{ACAD_XDICTIONARY
360
2EC
102
}
330
2A
100
AcDbVisualStyle
  2
Dim
 70
    11
 71
     2
 72
     2
 73
     0
 90
        0
 40
0.6
 41
30.0
 62
     5
 63
     7
 74
     1
 91
        4
 64
     7
 65
   257
 75
     1
175
     1
 42
1.0
 92
        8
 66
     7
 43
1.0
 76
     1
 77
     6
 78
     2
 67
     7
 79
     5
170
     0
171
     0
290
     0
174
     0
 93
        1
 44
-50.0
173
     0
291
     1
 45
0.0
1001
ACAD
1000
AcDbSavedByObjectVersion
1070
     0
  0
VISUALSTYLE
  5
3D
102
{ACAD_REACTORS
330
2A
102
}
102
{ACAD_XDICTIONARY
360
2FC
102
}
330
2A
100
AcDbVisualStyle
  2
EdgeColorOff
 70
    22
 71
     2
 72
     2
 73
     0
 90
        0
 40
0.6
 41
30.0
 62
     5
 63
     7
 74
     1
 91
        4
 64
     7
 65
   257
 75
     1
175
     1
 42
1.0
 92
        8
 66
     7
 43
1.0
 76
     1
 77
     6
 78
     2
 67
     7
 79
     5
170
     0
171
     0
290
     0
174
     0
 93
        1
 44
0.0
173
     0
291
     1
 45
0.0
1001
ACAD
1000
AcDbSavedByObjectVersion
1070
     0
  0
VISUALSTYLE
  5
39
102
{ACAD_REACTORS
330
2A
102
}
102
{ACAD_XDICTIONARY
360
2F4
102
}
330
2A
100
AcDbVisualStyle
  2
Facepattern
 70
    15
 71
     2
 72
     2
 73
     0
 90
        0
 40
0.6
 41
30.0
 62
     5
 63
     7
 74
     1
 91
        4
 64
     7
 65
   257
 75
     1
175
     1
 42
1.0
 92
        8
 66
     7
 43
1.0
 76
     1
 77
     6
 78
     2
 67
     7
 79
     5
170
     0
171
     0
290
     0
174
     0
 93
        1
 44
0.0
173
     0
291
     1
 45
0.0
1001
ACAD
1000
AcDbSavedByObjectVersion
1070
     0
  0
VISUALSTYLE
  5
2B
102
{ACAD_REACTORS
330
2A
102
}
102
{ACAD_XDICTIONARY
360
2D8
102
}
330
2A
100
AcDbVisualStyle
  2
Flat
 70
     0
 71
     2
 72
     1
 73
     1
 90
        2
 40
0.6
 41
30.0
 62
     5
 63
     7
 74
     0
 91
        0
 64
     7
 65
   257
 75
     1
175
     1
 42
1.0
 92
        8
 66
     7
 43
1.0
 76
     1
 77
     6
 78
     2
 67
     7
 79
     5
170
     0
171
     0
290
     0
174
     0
 93
       13
 44
0.0
173
     0
291
     1
 45
0.0
1001
ACAD
1000
AcDbSavedByObjectVersion
1070
     0
  0
VISUALSTYLE
  5
2C
102
{ACAD_REACTORS
330
2A
102
}
102
{ACAD_XDICTIONARY
360
2DA
102
}
330
2A
100
AcDbVisualStyle
  2
FlatWithEdges
 70
     1
 71
     2
 72
     1
 73
     1
 90
        2
 40
0.6
 41
30.0
 62
     5
 63
     7
 74
     1
 91
        0
 64
     7
 65
   257
 75
     1
175
     1
 42
1.0
 92
        0
 66
   257
 43
1.0
 76
     1
 77
     6
 78
     2
 67
     7
 79
     5
170
     0
171
     0
290
     0
174
     0
 93
       13
 44
0.0
173
     0
291
     1
 45
0.0
1001
ACAD
1000
AcDbSavedByObjectVersion
1070
     0
  0
VISUALSTYLE
  5
2D
102
{ACAD_REACTORS
330
2A
102
}
102
{ACAD_XDICTIONARY
360
2DC
102
}
330
2A
100
AcDbVisualStyle
  2
Gouraud
 70
     2
 71
     2
 72
     2
 73
     1
 90
        2
 40
0.6
 41
30.0
 62
     5
 63
     7
 74
     0
 91
        0
 64
     7
 65
   257
 75
     1
175
     1
 42
1.0
 92
        0
 66
     7
 43
1.0
 76
     1
 77
     6
 78
     2
 67
     7
 79
     5
170
     0
171
     0
290
     0
174
     0
 93
       13
 44
0.0
173
     0
291
     1
 45
0.0
1001
ACAD
1000
AcDbSavedByObjectVersion
1070
     0
  0
VISUALSTYLE
  5
2E
102
{ACAD_REACTORS
330
2A
102
}
102
{ACAD_XDICTIONARY
360
2DE
102
}
330
2A
100
AcDbVisualStyle
  2
GouraudWithEdges
 70
     3
 71
     2
 72
     2
 73
     1
 90
        2
 40
0.6
 41
30.0
 62
     5
 63
     7
 74
     1
 91
        0
 64
     7
 65
   257
 75
     1
175
     1
 42
1.0
 92
        0
 66
   257
 43
1.0
 76
     1
 77
     6
 78
     2
 67
     7
 79
     5
170
     0
171
     0
290
     0
174
     0
 93
       13
 44
0.0
173
     0
291
     1
 45
0.0
1001
ACAD
1000
AcDbSavedByObjectVersion
1070
     0
  0
VISUALSTYLE
  5
31
102
{ACAD_REACTORS
330
2A
102
}
102
{ACAD_XDICTIONARY
360
2E4
102
}
330
2A
100
AcDbVisualStyle
  2
Hidden
 70
     6
 71
     1
 72
     2
 73
     2
 90
        0
 40
0.6
 41
30.0
 62
     5
 63
     7
 74
     2
 91
        2
 64
     7
 65
   257
 75
     2
175
     1
 42
40.0
 92
        0
 66
   257
 43
1.0
 76
     1
 77
     6
 78
     2
 67
     7
 79
     3
170
     0
171
     0
290
     0
174
     0
 93
        1
 44
0.0
173
     0
291
     0
 45
0.0
1001
ACAD
1000
AcDbSavedByObjectVersion
1070
     0
  0
VISUALSTYLE
  5
3B
102
{ACAD_REACTORS
330
2A
102
}
102
{ACAD_XDICTIONARY
360
2F8
102
}
330
2A
100
AcDbVisualStyle
  2
JitterOff
 70
    20
 71
     2
 72
     2
 73
     0
 90
        0
 40
0.6
 41
30.0
 62
     5
 63
     7
 74
     1
 91
        4
 64
     7
 65
   257
 75
     1
175
     1
 42
1.0
 92
       10
 66
     7
 43
1.0
 76
     1
 77
     6
 78
     2
 67
     7
 79
     5
170
     0
171
     0
290
     0
174
     0
 93
        1
 44
0.0
173
     0
291
     1
 45
0.0
1001
ACAD
1000
AcDbSavedByObjectVersion
1070
     0
  0
VISUALSTYLE
  5
38
102
{ACAD_REACTORS
330
2A
102
}
102
{ACAD_XDICTIONARY
360
2F2
102
}
330
2A
100
AcDbVisualStyle
  2
Linepattern
 70
    14
 71
     2
 72
     2
 73
     0
 90
        0
 40
0.6
 41
30.0
 62
     5
 63
     7
 74
     1
 91
        4
 64
     7
 65
   257
 75
     7
175
     7
 42
1.0
 92
        8
 66
     7
 43
1.0
 76
     1
 77
     6
 78
     2
 67
     7
 79
     5
170
     0
171
     0
290
     0
174
     0
 93
        1
 44
0.0
173
     0
291
     1
 45
0.0
1001
ACAD
1000
AcDbSavedByObjectVersion
1070
     0
  0
VISUALSTYLE
  5
3C
102
{ACAD_REACTORS
330
2A
102
}
102
{ACAD_XDICTIONARY
360
2FA
102
}
330
2A
100
AcDbVisualStyle
  2
OverhangOff
 70
    21
 71
     2
 72
     2
 73
     0
 90
        0
 40
0.6
 41
30.0
 62
     5
 63
     7
 74
     1
 91
        4
 64
     7
 65
   257
 75
     1
175
     1
 42
1.0
 92
        9
 66
     7
 43
1.0
 76
     1
 77
     6
 78
     2
 67
     7
 79
     5
170
     0
171
     0
290
     0
174
     0
 93
        1
 44
0.0
173
     0
291
     1
 45
0.0
1001
ACAD
1000
AcDbSavedByObjectVersion
1070
     0
  0
VISUALSTYLE
  5
33
102
{ACAD_REACTORS
330
2A
102
}
102
{ACAD_XDICTIONARY
360
2E8
102
}
330
2A
100
AcDbVisualStyle
  2
Realistic
 70
     8
 71
     2
 72
     3
 73
     0
 90
        2
 40
0.6
 41
30.0
 62
     5
 63
     7
 74
     0
 91
        0
 64
     7
 65
   257
 75
     1
175
     1
 42
1.0
 92
        8
 66
   257
 43
1.0
 76
     1
 77
     6
 78
     2
 67
     7
 79
     3
170
     0
171
     0
290
     0
174
     0
 93
       13
 44
0.0
173
     0
291
     0
 45
0.0
1001
ACAD
1000
AcDbSavedByObjectVersion
1070
     0
  0
VISUALSTYLE
  5
42
102
{ACAD_REACTORS
330
2A
102
}
102
{ACAD_XDICTIONARY
360
306
102
}
330
2A
100
AcDbVisualStyle
  2
Shaded
 70
    27
 71
     2
 72
     2
 73
     1
 90
        2
 40
0.6
 41
30.0
 62
     5
 63
     7
 74
     0
 91
        4
 64
     7
 65
   257
 75
     1
175
     1
 42
1.0
 92
        8
 66
   257
 43
1.0
 76
     1
 77
     6
 78
     2
 67
     8
 79
     3
170
     0
171
     0
290
     0
174
     0
 93
        5
 44
0.0
173
     0
291
     0
 45
0.0
1001
ACAD
1000
AcDbSavedByObjectVersion
1070
     0
  0
VISUALSTYLE
  5
41
102
{ACAD_REACTORS
330
2A
102
}
102
{ACAD_XDICTIONARY
360
304
102
}
330
2A
100
AcDbVisualStyle
  2
Shaded with edges
 70
    26
 71
     2
 72
     2
 73
     1
 90
        2
 40
0.6
 41
30.0
 62
     5
 63
     7
 74
     1
 91
       10
 64
     7
 65
   257
 75
     2
175
     1
 42
1.0
 92
        8
 66
   257
 43
1.0
 76
     1
 77
     6
 78
     2
 67
     7
 79
     3
170
     0
171
     0
290
     0
174
     0
 93
        5
 44
0.0
173
     0
291
     0
 45
0.0
1001
ACAD
1000
AcDbSavedByObjectVersion
1070
     0
  0
VISUALSTYLE
  5
3E
102
{ACAD_REACTORS
330
2A
102
}
102
{ACAD_XDICTIONARY
360
2FE
102
}
330
2A
100
AcDbVisualStyle
  2
Shades of Gray
 70
    23
 71
     2
 72
     2
 73
     3
 90
        0
 40
0.6
 41
30.0
 62
     5
 63
     7
 74
     2
 91
        2
 64
     7
 65
     7
 75
     1
175
     1
 42
40.0
 92
        8
 66
     7
 43
1.0
 76
     1
 77
     6
 78
     2
 67
     7
 79
     3
170
     0
171
     0
290
     0
174
     0
 93
        1
 44
0.0
173
     0
291
     0
 45
0.0
1001
ACAD
1000
AcDbSavedByObjectVersion
1070
     0
  0
VISUALSTYLE
  5
3F
102
{ACAD_REACTORS
330
2A
102
}
102
{ACAD_XDICTIONARY
360
300
102
}
330
2A
100
AcDbVisualStyle
  2
Sketchy
 70
    24
 71
     1
 72
     2
 73
     2
 90
        0
 40
0.6
 41
30.0
 62
     5
 63
     7
 74
     2
 91
        2
 64
     7
 65
     7
 75
     1
175
     1
 42
40.0
 92
       11
 66
     7
 43
1.0
 76
     1
 77
     6
 78
     2
 67
     7
 79
     6
170
     0
171
     0
290
     0
174
     0
 93
        1
 44
0.0
173
     0
291
     0
 45
0.0
1001
ACAD
1000
AcDbSavedByObjectVersion
1070
     0
  0
VISUALSTYLE
  5
37
102
{ACAD_REACTORS
330
2A
102
}
102
{ACAD_XDICTIONARY
360
2F0
102
}
330
2A
100
AcDbVisualStyle
  2
Thicken
 70
    13
 71
     2
 72
     2
 73
     0
 90
        0
 40
0.6
 41
30.0
 62
     5
 63
     7
 74
     1
 91
        4
 64
     7
 65
   257
 75
     1
175
     1
 42
1.0
 92
       12
 66
     7
 43
1.0
 76
     1
 77
     6
 78
     2
 67
     7
 79
     5
170
     0
171
     0
290
     0
174
     0
 93
        1
 44
0.0
173
     0
291
     1
 45
0.0
1001
ACAD
1000
AcDbSavedByObjectVersion
1070
     0
  0
VISUALSTYLE
  5
30
102
{ACAD_REACTORS
330
2A
102
}
102
{ACAD_XDICTIONARY
360
2E2
102
}
330
2A
100
AcDbVisualStyle
  2
Wireframe
 70
     5
 71
     0
 72
     2
 73
     0
 90
        0
 40
0.6
 41
30.0
 62
     5
 63
     7
 74
     1
 91
        4
 64
     7
 65
   257
 75
     1
175
     1
 42
1.0
 92
        0
 66
   257
 43
1.0
 76
     1
 77
     6
 78
     2
 67
     7
 79
     3
170
     0
171
     0
290
     0
174
     0
 93
        1
 44
0.0
173
     0
291
     0
 45
0.0
1001
ACAD
1000
AcDbSavedByObjectVersion
1070
     0
  0
VISUALSTYLE
  5
40
102
{ACAD_REACTORS
330
2A
102
}
102
{ACAD_XDICTIONARY
360
302
102
}
330
2A
100
AcDbVisualStyle
  2
X-Ray
 70
    25
 71
     2
 72
     2
 73
     1
 90
        1
 40
0.5
 41
30.0
 62
     5
 63
     7
 74
     1
 91
        0
 64
     7
 65
   257
 75
     1
175
     1
 42
1.0
 92
        8
 66
     7
 43
1.0
 76
     1
 77
     6
 78
     2
 67
     7
 79
     3
170
     0
171
     0
290
     0
174
     0
 93
       13
 44
0.0
173
     0
291
     0
 45
0.0
1001
ACAD
1000
AcDbSavedByObjectVersion
1070
     0
  0
DICTIONARYVAR
  5
2D0
102
{ACAD_REACTORS
330
2C5
102
}
330
2C5
100
DictionaryVariables
280
     0
  1
1:1
  0
DICTIONARYVAR
  5
2C7
102
{ACAD_REACTORS
330
2C5
102
}
330
2C5
100
DictionaryVariables
280
     0
  1
Standard
  0
DICTIONARYVAR
  5
2C6
102
{ACAD_REACTORS
330
2C5
102
}
330
2C5
100
DictionaryVariables
280
     0
  1
Standard
  0
DICTIONARYVAR
  5
2CC
102
{ACAD_REACTORS
330
2C5
102
}
330
2C5
100
DictionaryVariables
280
     0
  1
2
  0
DICTIONARYVAR
  5
2CD
102
{ACAD_REACTORS
330
2C5
102
}
330
2C5
100
DictionaryVariables
280
     0
  1
1
  0
DICTIONARYVAR
  5
2D1
102
{ACAD_REACTORS
330
2C5
102
}
330
2C5
100
DictionaryVariables
280
     0
  1
1
  0
DICTIONARYVAR
  5
2C9
102
{ACAD_REACTORS
330
2C5
102
}
330
2C5
100
DictionaryVariables
280
     0
  1
80.000000
  0
DICTIONARYVAR
  5
2C8
102
{ACAD_REACTORS
330
2C5
102
}
330
2C5
100
DictionaryVariables
280
     0
  1
5.000000
  0
DICTIONARY
  5
2D2
330
1E
100
AcDbDictionary
280
     1
281
     1
  3
ACAD_XREC_ROUNDTRIP
360
2D3
  0
DICTIONARY
  5
2D6
330
26
100
AcDbDictionary
280
     1
281
     1
  3
ACAD_XREC_ROUNDTRIP
360
2D7
  0
DICTIONARY
  5
2D4
330
22
100
AcDbDictionary
280
     1
281
     1
  3
ACAD_XREC_ROUNDTRIP
360
2D5
  0
DICTIONARY
  5
30A
330
45
100
AcDbDictionary
280
     1
281
     1
  3
ACAD_XREC_ROUNDTRIP
360
30B
  0
DICTIONARY
  5
308
330
44
100
AcDbDictionary
280
     1
281
     1
  3
ACAD_XREC_ROUNDTRIP
360
309
  0
DICTIONARY
  5
30C
330
46
100
AcDbDictionary
280
     1
281
     1
  3
ACAD_XREC_ROUNDTRIP
360
30D
  0
DICTIONARY
  5
30F
330
6C
100
AcDbDictionary
280
     1
281
     1
  3
ACAD_XREC_ROUNDTRIP
360
310
  0
DICTIONARY
  5
2E0
330
2F
100
AcDbDictionary
280
     1
281
     1
  3
ACAD_XREC_ROUNDTRIP
360
2E1
  0
DICTIONARY
  5
2E6
330
32
100
AcDbDictionary
280
     1
281
     1
  3
ACAD_XREC_ROUNDTRIP
360
2E7
  0
DICTIONARY
  5
2EE
330
36
100
AcDbDictionary
280
     1
281
     1
  3
ACAD_XREC_ROUNDTRIP
360
2EF
  0
DICTIONARY
  5
2F6
330
3A
100
AcDbDictionary
280
     1
281
     1
  3
ACAD_XREC_ROUNDTRIP
360
2F7
  0
DICTIONARY
  5
2EA
330
34
100
AcDbDictionary
280
     1
281
     1
  3
ACAD_XREC_ROUNDTRIP
360
2EB
  0
DICTIONARY
  5
2EC
330
35
100
AcDbDictionary
280
     1
281
     1
  3
ACAD_XREC_ROUNDTRIP
360
2ED
  0
DICTIONARY
  5
2FC
330
3D
100
AcDbDictionary
280
     1
281
     1
  3
ACAD_XREC_ROUNDTRIP
360
2FD
  0
DICTIONARY
  5
2F4
330
39
100
AcDbDictionary
280
     1
281
     1
  3
ACAD_XREC_ROUNDTRIP
360
2F5
  0
DICTIONARY
  5
2D8
330
2B
100
AcDbDictionary
280
     1
281
     1
  3
ACAD_XREC_ROUNDTRIP
360
2D9
  0
DICTIONARY
  5
2DA
330
2C
100
AcDbDictionary
280
     1
281
     1
  3
ACAD_XREC_ROUNDTRIP
360
2DB
  0
DICTIONARY
  5
2DC
330
2D
100
AcDbDictionary
280
     1
281
     1
  3
ACAD_XREC_ROUNDTRIP
360
2DD
  0
DICTIONARY
  5
2DE
330
2E
100
AcDbDictionary
280
     1
281
     1
  3
ACAD_XREC_ROUNDTRIP
360
2DF
  0
DICTIONARY
  5
2E4
330
31
100
AcDbDictionary
280
     1
281
     1
  3
ACAD_XREC_ROUNDTRIP
360
2E5
  0
DICTIONARY
  5
2F8
330
3B
100
AcDbDictionary
280
     1
281
     1
  3
ACAD_XREC_ROUNDTRIP
360
2F9
  0
DICTIONARY
  5
2F2
330
38
100
AcDbDictionary
280
     1
281
     1
  3
ACAD_XREC_ROUNDTRIP
360
2F3
  0
DICTIONARY
  5
2FA
330
3C
100
AcDbDictionary
280
     1
281
     1
  3
ACAD_XREC_ROUNDTRIP
360
2FB
  0
DICTIONARY
  5
2E8
330
33
100
AcDbDictionary
280
     1
281
     1
  3
ACAD_XREC_ROUNDTRIP
360
2E9
  0
DICTIONARY
  5
306
330
42
100
AcDbDictionary
280
     1
281
     1
  3
ACAD_XREC_ROUNDTRIP
360
307
  0
DICTIONARY
  5
304
330
41
100
AcDbDictionary
280
     1
281
     1
  3
ACAD_XREC_ROUNDTRIP
360
305
  0
DICTIONARY
  5
2FE
330
3E
100
AcDbDictionary
280
     1
281
     1
  3
ACAD_XREC_ROUNDTRIP
360
2FF
  0
DICTIONARY
  5
300
330
3F
100
AcDbDictionary
280
     1
281
     1
  3
ACAD_XREC_ROUNDTRIP
360
301
  0
DICTIONARY
  5
2F0
330
37
100
AcDbDictionary
280
     1
281
     1
  3
ACAD_XREC_ROUNDTRIP
360
2F1
  0
DICTIONARY
  5
2E2
330
30
100
AcDbDictionary
280
     1
281
     1
  3
ACAD_XREC_ROUNDTRIP
360
2E3
  0
DICTIONARY
  5
302
330
40
100
AcDbDictionary
280
     1
281
     1
  3
ACAD_XREC_ROUNDTRIP
360
303
  0
XRECORD
  5
2D3
102
{ACAD_REACTORS
330
2D2
102
}
330
2D2
100
AcDbXrecord
280
     1
102
SHADEPLOT
 70
     0
102
SHADEPLOTRESLEVEL
 70
     5
102
SHADEPLOTCUSTOMDPI
 70
   300
  0
XRECORD
  5
2D7
102
{ACAD_REACTORS
330
2D6
102
}
330
2D6
100
AcDbXrecord
280
     1
102
SHADEPLOT
 70
     0
102
SHADEPLOTRESLEVEL
 70
     5
102
SHADEPLOTCUSTOMDPI
 70
   300
  0
XRECORD
  5
2D5
102
{ACAD_REACTORS
330
2D4
102
}
330
2D4
100
AcDbXrecord
280
     1
102
SHADEPLOT
 70
     0
102
SHADEPLOTRESLEVEL
 70
     5
102
SHADEPLOTCUSTOMDPI
 70
   300
  0
XRECORD
  5
30B
102
{ACAD_REACTORS
330
30A
102
}
330
30A
100
AcDbXrecord
280
     1
102
MATERIAL
148
0.0
149
0.0
149
0.0
 93
        0
 94
      127
282
     0
 72
     1
 77
     1
171
     1
175
     1
179
     1
273
     0
  0
XRECORD
  5
309
102
{ACAD_REACTORS
330
308
102
}
330
308
100
AcDbXrecord
280
     1
102
MATERIAL
148
0.0
149
0.0
149
0.0
 93
        0
 94
      127
282
     0
 72
     1
 77
     1
171
     1
175
     1
179
     1
273
     0
  0
XRECORD
  5
30D
102
{ACAD_REACTORS
330
30C
102
}
330
30C
100
AcDbXrecord
280
     1
102
MATERIAL
148
0.0
149
0.0
149
0.0
 93
        0
 94
      127
282
     0
 72
     1
 77
     1
171
     1
175
     1
179
     1
273
     0
  0
XRECORD
  5
310
102
{ACAD_REACTORS
330
30F
102
}
330
30F
100
AcDbXrecord
280
     1
102
ACAD_ROUNDTRIP_2010_MLEADER_STYLE
  0
XRECORD
  5
2E1
102
{ACAD_REACTORS
330
2E0
102
}
330
2E0
100
AcDbXrecord
280
     1
102
RTVSPropertyOp0
 70
     1
102
RTVSPropertyOp1
 70
     1
102
RTVSPropertyOp2
 70
     1
102
RTVSPropertyOp3
 70
     1
102
RTVSPropertyOp4
 70
     1
102
RTVSPropertyOp5
 70
     1
102
RTVSPropertyOp6
 70
     1
102
RTVSPropertyOp7
 70
     1
102
RTVSPropertyOp8
 70
     1
102
RTVSPropertyOp9
 70
     1
102
RTVSPropertyOp10
 70
     1
102
RTVSPropertyOp11
 70
     1
102
RTVSPropertyOp12
 70
     1
102
RTVSPropertyOp13
 70
     1
102
RTVSPropertyOp14
 70
     1
102
RTVSPropertyOp15
 70
     1
102
RTVSPropertyOp16
 70
     1
102
RTVSPropertyOp17
 70
     1
102
RTVSPropertyOp18
 70
     1
102
RTVSPropertyOp19
 70
     1
102
RTVSPropertyOp20
 70
     1
102
RTVSPropertyOp21
 70
     1
102
RTVSPropertyOp22
 70
     1
102
RTVSPropertyOp23
 70
     1
102
RTVSPropertyOp24
 70
     1
102
RTVSPropertyOp25
 70
     1
102
RTVSPropertyOp26
 70
     1
102
RTVSPropertyOp27
 70
     1
102
RTVSPropertyOp28
 70
     1
102
RTVSPropertyOp29
 70
     1
102
RTVSPropertyOp30
 70
     1
102
RTVSPropertyOp31
 70
     1
102
RTVSPropertyOp32
 70
     1
102
RTVSPropertyOp33
 70
     1
102
RTVSPropertyOp34
 70
     1
102
RTVSPropertyOp35
 70
     1
102
RTVSPropertyOp36
 70
     1
102
RTVSPropertyOp37
 70
     1
102
RTVSPropertyOp38
 70
     1
102
RTVSPropertyOp39
 70
     1
102
RTVSPropertyOp40
 70
     1
102
RTVSPropertyOp41
 70
     1
102
RTVSPropertyOp42
 70
     1
102
RTVSPropertyOp43
 70
     1
102
RTVSPropertyOp44
 70
     1
102
RTVSPropertyOp45
 70
     1
102
RTVSPropertyOp46
 70
     1
102
RTVSPropertyOp47
 70
     1
102
RTVSPropertyOp48
 70
     1
102
RTVSPropertyOp49
 70
     1
102
RTVSPropertyOp50
 70
     1
102
RTVSPropertyOp51
 70
     0
102
RTVSPropertyOp52
 70
     0
102
RTVSPropertyOp53
 70
     1
102
RTVSPropertyOp54
 70
     1
102
RTVSPropertyOp55
 70
     1
102
RTVSPropertyOp56
 70
     1
102
RTVSPropertyOp57
 70
     1
102
RTVSPost2010Prop28
280
     1
102
RTVSPost2010PropOp28
 70
     1
102
RTVSPost2010Prop29
280
     1
102
RTVSPost2010PropOp29
 70
     1
102
RTVSPost2010Prop30
280
     0
102
RTVSPost2010PropOp30
 70
     1
102
RTVSPost2010Prop31
280
     0
102
RTVSPost2010PropOp31
 70
     1
102
RTVSPost2010Prop32
280
     0
102
RTVSPost2010PropOp32
 70
     1
102
RTVSPost2010Prop33
280
     0
102
RTVSPost2010PropOp33
 70
     1
102
RTVSPost2010Prop34
280
     0
102
RTVSPost2010PropOp34
 70
     1
102
RTVSPost2010Prop35
280
     0
102
RTVSPost2010PropOp35
 70
     1
102
RTVSPost2010Prop36
280
     0
102
RTVSPost2010PropOp36
 70
     1
102
RTVSPost2010Prop37
 90
       50
102
RTVSPost2010PropOp37
 70
     1
102
RTVSPost2010Prop38
140
0.0
102
RTVSPost2010PropOp38
 70
     1
102
RTVSPost2010Prop39
140
1.0
102
RTVSPost2010PropOp39
 70
     1
102
RTVSPost2010Prop40
 90
        0
102
RTVSPost2010PropOp40
 70
     1
102
RTVSPost2010Prop41ColorIndex
 90
       18
102
RTVSPost2010Prop41ColorRGB
 90
        0
102
RTVSPost2010PropOp41
 70
     1
102
RTVSPost2010Prop42
 90
       50
102
RTVSPost2010PropOp42
 70
     1
102
RTVSPost2010Prop43
 90
        3
102
RTVSPost2010PropOp43
 70
     1
102
RTVSPost2010Prop44ColorIndex
 90
        5
102
RTVSPost2010Prop44ColorRGB
 90
      255
102
RTVSPost2010PropOp44
 70
     1
102
RTVSPost2010Prop45
280
     0
102
RTVSPost2010PropOp45
 70
     1
102
RTVSPost2010Prop46
 90
       50
102
RTVSPost2010PropOp46
 70
     1
102
RTVSPost2010Prop47
 90
       50
102
RTVSPost2010PropOp47
 70
     1
102
RTVSPost2010Prop48
 90
       50
102
RTVSPost2010PropOp48
 70
     1
102
RTVSPost2010Prop49
280
     0
102
RTVSPost2010PropOp49
 70
     1
102
RTVSPost2010Prop50
 90
       50
102
RTVSPost2010PropOp50
 70
     1
102
RTVSPost2010Prop51ColorIndex
 90
      256
102
RTVSPost2010Prop51ColorRGB
 90
-16777216
102
RTVSPost2010PropOp51
 70
     0
102
RTVSPost2010Prop52
140
1.0
102
RTVSPost2010PropOp52
 70
     0
102
RTVSPost2010Prop53
 90
        2
102
RTVSPost2010PropOp53
 70
     1
102
RTVSPost2010Prop54
  1
strokes_ogs.tif
102
RTVSPost2010PropOp54
 70
     1
102
RTVSPost2010Prop55
280
     0
102
RTVSPost2010PropOp55
 70
     1
102
RTVSPost2010Prop56
140
1.0
102
RTVSPost2010PropOp56
 70
     1
102
RTVSPost2010Prop57
140
1.0
102
RTVSPost2010PropOp57
 70
     1
  0
XRECORD
  5
2E7
102
{ACAD_REACTORS
330
2E6
102
}
330
2E6
100
AcDbXrecord
280
     1
102
RTVSPropertyOp0
 70
     1
102
RTVSPropertyOp1
 70
     1
102
RTVSPropertyOp2
 70
     1
102
RTVSPropertyOp3
 70
     1
102
RTVSPropertyOp4
 70
     1
102
RTVSPropertyOp5
 70
     1
102
RTVSPropertyOp6
 70
     1
102
RTVSPropertyOp7
 70
     1
102
RTVSPropertyOp8
 70
     1
102
RTVSPropertyOp9
 70
     1
102
RTVSPropertyOp10
 70
     1
102
RTVSPropertyOp11
 70
     1
102
RTVSPropertyOp12
 70
     1
102
RTVSPropertyOp13
 70
     1
102
RTVSPropertyOp14
 70
     1
102
RTVSPropertyOp15
 70
     1
102
RTVSPropertyOp16
 70
     1
102
RTVSPropertyOp17
 70
     1
102
RTVSPropertyOp18
 70
     1
102
RTVSPropertyOp19
 70
     1
102
RTVSPropertyOp20
 70
     1
102
RTVSPropertyOp21
 70
     1
102
RTVSPropertyOp22
 70
     1
102
RTVSPropertyOp23
 70
     1
102
RTVSPropertyOp24
 70
     1
102
RTVSPropertyOp25
 70
     1
102
RTVSPropertyOp26
 70
     1
102
RTVSPropertyOp27
 70
     1
102
RTVSPropertyOp28
 70
     1
102
RTVSPropertyOp29
 70
     1
102
RTVSPropertyOp30
 70
     1
102
RTVSPropertyOp31
 70
     1
102
RTVSPropertyOp32
 70
     1
102
RTVSPropertyOp33
 70
     1
102
RTVSPropertyOp34
 70
     1
102
RTVSPropertyOp35
 70
     1
102
RTVSPropertyOp36
 70
     1
102
RTVSPropertyOp37
 70
     1
102
RTVSPropertyOp38
 70
     1
102
RTVSPropertyOp39
 70
     1
102
RTVSPropertyOp40
 70
     1
102
RTVSPropertyOp41
 70
     1
102
RTVSPropertyOp42
 70
     1
102
RTVSPropertyOp43
 70
     1
102
RTVSPropertyOp44
 70
     1
102
RTVSPropertyOp45
 70
     1
102
RTVSPropertyOp46
 70
     1
102
RTVSPropertyOp47
 70
     1
102
RTVSPropertyOp48
 70
     1
102
RTVSPropertyOp49
 70
     1
102
RTVSPropertyOp50
 70
     1
102
RTVSPropertyOp51
 70
     0
102
RTVSPropertyOp52
 70
     0
102
RTVSPropertyOp53
 70
     1
102
RTVSPropertyOp54
 70
     1
102
RTVSPropertyOp55
 70
     1
102
RTVSPropertyOp56
 70
     1
102
RTVSPropertyOp57
 70
     1
102
RTVSPost2010Prop28
280
     0
102
RTVSPost2010PropOp28
 70
     1
102
RTVSPost2010Prop29
280
     1
102
RTVSPost2010PropOp29
 70
     1
102
RTVSPost2010Prop30
280
     1
102
RTVSPost2010PropOp30
 70
     1
102
RTVSPost2010Prop31
280
     0
102
RTVSPost2010PropOp31
 70
     1
102
RTVSPost2010Prop32
280
     0
102
RTVSPost2010PropOp32
 70
     1
102
RTVSPost2010Prop33
280
     0
102
RTVSPost2010PropOp33
 70
     1
102
RTVSPost2010Prop34
280
     0
102
RTVSPost2010PropOp34
 70
     1
102
RTVSPost2010Prop35
280
     0
102
RTVSPost2010PropOp35
 70
     1
102
RTVSPost2010Prop36
280
     0
102
RTVSPost2010PropOp36
 70
     1
102
RTVSPost2010Prop37
 90
       50
102
RTVSPost2010PropOp37
 70
     1
102
RTVSPost2010Prop38
140
0.0
102
RTVSPost2010PropOp38
 70
     1
102
RTVSPost2010Prop39
140
1.0
102
RTVSPost2010PropOp39
 70
     1
102
RTVSPost2010Prop40
 90
        0
102
RTVSPost2010PropOp40
 70
     1
102
RTVSPost2010Prop41ColorIndex
 90
       18
102
RTVSPost2010Prop41ColorRGB
 90
        0
102
RTVSPost2010PropOp41
 70
     1
102
RTVSPost2010Prop42
 90
       50
102
RTVSPost2010PropOp42
 70
     1
102
RTVSPost2010Prop43
 90
        3
102
RTVSPost2010PropOp43
 70
     1
102
RTVSPost2010Prop44ColorIndex
 90
        5
102
RTVSPost2010Prop44ColorRGB
 90
      255
102
RTVSPost2010PropOp44
 70
     1
102
RTVSPost2010Prop45
280
     0
102
RTVSPost2010PropOp45
 70
     1
102
RTVSPost2010Prop46
 90
       50
102
RTVSPost2010PropOp46
 70
     1
102
RTVSPost2010Prop47
 90
       50
102
RTVSPost2010PropOp47
 70
     1
102
RTVSPost2010Prop48
 90
       50
102
RTVSPost2010PropOp48
 70
     1
102
RTVSPost2010Prop49
280
     0
102
RTVSPost2010PropOp49
 70
     1
102
RTVSPost2010Prop50
 90
       50
102
RTVSPost2010PropOp50
 70
     1
102
RTVSPost2010Prop51ColorIndex
 90
      256
102
RTVSPost2010Prop51ColorRGB
 90
-16777216
102
RTVSPost2010PropOp51
 70
     0
102
RTVSPost2010Prop52
140
1.0
102
RTVSPost2010PropOp52
 70
     0
102
RTVSPost2010Prop53
 90
        2
102
RTVSPost2010PropOp53
 70
     1
102
RTVSPost2010Prop54
  1
strokes_ogs.tif
102
RTVSPost2010PropOp54
 70
     1
102
RTVSPost2010Prop55
280
     0
102
RTVSPost2010PropOp55
 70
     1
102
RTVSPost2010Prop56
140
1.0
102
RTVSPost2010PropOp56
 70
     1
102
RTVSPost2010Prop57
140
1.0
102
RTVSPost2010PropOp57
 70
     1
  0
XRECORD
  5
2EF
102
{ACAD_REACTORS
330
2EE
102
}
330
2EE
100
AcDbXrecord
280
     1
102
RTVSPropertyOp0
 70
     1
102
RTVSPropertyOp1
 70
     1
102
RTVSPropertyOp2
 70
     1
102
RTVSPropertyOp3
 70
     1
102
RTVSPropertyOp4
 70
     1
102
RTVSPropertyOp5
 70
     1
102
RTVSPropertyOp6
 70
     1
102
RTVSPropertyOp7
 70
     1
102
RTVSPropertyOp8
 70
     1
102
RTVSPropertyOp9
 70
     1
102
RTVSPropertyOp10
 70
     1
102
RTVSPropertyOp11
 70
     1
102
RTVSPropertyOp12
 70
     1
102
RTVSPropertyOp13
 70
     1
102
RTVSPropertyOp14
 70
     1
102
RTVSPropertyOp15
 70
     1
102
RTVSPropertyOp16
 70
     1
102
RTVSPropertyOp17
 70
     1
102
RTVSPropertyOp18
 70
     1
102
RTVSPropertyOp19
 70
     1
102
RTVSPropertyOp20
 70
     1
102
RTVSPropertyOp21
 70
     1
102
RTVSPropertyOp22
 70
     1
102
RTVSPropertyOp23
 70
     1
102
RTVSPropertyOp24
 70
     1
102
RTVSPropertyOp25
 70
     1
102
RTVSPropertyOp26
 70
     1
102
RTVSPropertyOp27
 70
     1
102
RTVSPropertyOp28
 70
     1
102
RTVSPropertyOp29
 70
     1
102
RTVSPropertyOp30
 70
     1
102
RTVSPropertyOp31
 70
     1
102
RTVSPropertyOp32
 70
     1
102
RTVSPropertyOp33
 70
     1
102
RTVSPropertyOp34
 70
     1
102
RTVSPropertyOp35
 70
     1
102
RTVSPropertyOp36
 70
     1
102
RTVSPropertyOp37
 70
     1
102
RTVSPropertyOp38
 70
     1
102
RTVSPropertyOp39
 70
     1
102
RTVSPropertyOp40
 70
     1
102
RTVSPropertyOp41
 70
     1
102
RTVSPropertyOp42
 70
     1
102
RTVSPropertyOp43
 70
     1
102
RTVSPropertyOp44
 70
     1
102
RTVSPropertyOp45
 70
     1
102
RTVSPropertyOp46
 70
     1
102
RTVSPropertyOp47
 70
     1
102
RTVSPropertyOp48
 70
     1
102
RTVSPropertyOp49
 70
     1
102
RTVSPropertyOp50
 70
     1
102
RTVSPropertyOp51
 70
     0
102
RTVSPropertyOp52
 70
     0
102
RTVSPropertyOp53
 70
     1
102
RTVSPropertyOp54
 70
     1
102
RTVSPropertyOp55
 70
     1
102
RTVSPropertyOp56
 70
     1
102
RTVSPropertyOp57
 70
     1
102
RTVSPost2010Prop28
280
     0
102
RTVSPost2010PropOp28
 70
     1
102
RTVSPost2010Prop29
280
     1
102
RTVSPost2010PropOp29
 70
     1
102
RTVSPost2010Prop30
280
     1
102
RTVSPost2010PropOp30
 70
     1
102
RTVSPost2010Prop31
280
     0
102
RTVSPost2010PropOp31
 70
     1
102
RTVSPost2010Prop32
280
     0
102
RTVSPost2010PropOp32
 70
     1
102
RTVSPost2010Prop33
280
     0
102
RTVSPost2010PropOp33
 70
     1
102
RTVSPost2010Prop34
280
     0
102
RTVSPost2010PropOp34
 70
     1
102
RTVSPost2010Prop35
280
     0
102
RTVSPost2010PropOp35
 70
     1
102
RTVSPost2010Prop36
280
     0
102
RTVSPost2010PropOp36
 70
     1
102
RTVSPost2010Prop37
 90
       50
102
RTVSPost2010PropOp37
 70
     1
102
RTVSPost2010Prop38
140
0.0
102
RTVSPost2010PropOp38
 70
     1
102
RTVSPost2010Prop39
140
1.0
102
RTVSPost2010PropOp39
 70
     1
102
RTVSPost2010Prop40
 90
        0
102
RTVSPost2010PropOp40
 70
     1
102
RTVSPost2010Prop41ColorIndex
 90
       18
102
RTVSPost2010Prop41ColorRGB
 90
        0
102
RTVSPost2010PropOp41
 70
     1
102
RTVSPost2010Prop42
 90
       50
102
RTVSPost2010PropOp42
 70
     1
102
RTVSPost2010Prop43
 90
        3
102
RTVSPost2010PropOp43
 70
     1
102
RTVSPost2010Prop44ColorIndex
 90
        5
102
RTVSPost2010Prop44ColorRGB
 90
      255
102
RTVSPost2010PropOp44
 70
     1
102
RTVSPost2010Prop45
280
     0
102
RTVSPost2010PropOp45
 70
     1
102
RTVSPost2010Prop46
 90
       50
102
RTVSPost2010PropOp46
 70
     1
102
RTVSPost2010Prop47
 90
       50
102
RTVSPost2010PropOp47
 70
     1
102
RTVSPost2010Prop48
 90
       50
102
RTVSPost2010PropOp48
 70
     1
102
RTVSPost2010Prop49
280
     0
102
RTVSPost2010PropOp49
 70
     1
102
RTVSPost2010Prop50
 90
       50
102
RTVSPost2010PropOp50
 70
     1
102
RTVSPost2010Prop51ColorIndex
 90
      256
102
RTVSPost2010Prop51ColorRGB
 90
-16777216
102
RTVSPost2010PropOp51
 70
     0
102
RTVSPost2010Prop52
140
1.0
102
RTVSPost2010PropOp52
 70
     0
102
RTVSPost2010Prop53
 90
        2
102
RTVSPost2010PropOp53
 70
     1
102
RTVSPost2010Prop54
  1
strokes_ogs.tif
102
RTVSPost2010PropOp54
 70
     1
102
RTVSPost2010Prop55
280
     0
102
RTVSPost2010PropOp55
 70
     1
102
RTVSPost2010Prop56
140
1.0
102
RTVSPost2010PropOp56
 70
     1
102
RTVSPost2010Prop57
140
1.0
102
RTVSPost2010PropOp57
 70
     1
  0
XRECORD
  5
2F7
102
{ACAD_REACTORS
330
2F6
102
}
330
2F6
100
AcDbXrecord
280
     1
102
RTVSPropertyOp0
 70
     1
102
RTVSPropertyOp1
 70
     1
102
RTVSPropertyOp2
 70
     1
102
RTVSPropertyOp3
 70
     1
102
RTVSPropertyOp4
 70
     1
102
RTVSPropertyOp5
 70
     1
102
RTVSPropertyOp6
 70
     1
102
RTVSPropertyOp7
 70
     1
102
RTVSPropertyOp8
 70
     1
102
RTVSPropertyOp9
 70
     1
102
RTVSPropertyOp10
 70
     1
102
RTVSPropertyOp11
 70
     1
102
RTVSPropertyOp12
 70
     1
102
RTVSPropertyOp13
 70
     1
102
RTVSPropertyOp14
 70
     1
102
RTVSPropertyOp15
 70
     1
102
RTVSPropertyOp16
 70
     1
102
RTVSPropertyOp17
 70
     1
102
RTVSPropertyOp18
 70
     1
102
RTVSPropertyOp19
 70
     1
102
RTVSPropertyOp20
 70
     1
102
RTVSPropertyOp21
 70
     1
102
RTVSPropertyOp22
 70
     1
102
RTVSPropertyOp23
 70
     1
102
RTVSPropertyOp24
 70
     1
102
RTVSPropertyOp25
 70
     1
102
RTVSPropertyOp26
 70
     1
102
RTVSPropertyOp27
 70
     1
102
RTVSPropertyOp28
 70
     1
102
RTVSPropertyOp29
 70
     1
102
RTVSPropertyOp30
 70
     1
102
RTVSPropertyOp31
 70
     1
102
RTVSPropertyOp32
 70
     1
102
RTVSPropertyOp33
 70
     1
102
RTVSPropertyOp34
 70
     1
102
RTVSPropertyOp35
 70
     1
102
RTVSPropertyOp36
 70
     1
102
RTVSPropertyOp37
 70
     1
102
RTVSPropertyOp38
 70
     1
102
RTVSPropertyOp39
 70
     1
102
RTVSPropertyOp40
 70
     1
102
RTVSPropertyOp41
 70
     1
102
RTVSPropertyOp42
 70
     1
102
RTVSPropertyOp43
 70
     1
102
RTVSPropertyOp44
 70
     1
102
RTVSPropertyOp45
 70
     1
102
RTVSPropertyOp46
 70
     1
102
RTVSPropertyOp47
 70
     1
102
RTVSPropertyOp48
 70
     1
102
RTVSPropertyOp49
 70
     1
102
RTVSPropertyOp50
 70
     1
102
RTVSPropertyOp51
 70
     0
102
RTVSPropertyOp52
 70
     0
102
RTVSPropertyOp53
 70
     1
102
RTVSPropertyOp54
 70
     1
102
RTVSPropertyOp55
 70
     1
102
RTVSPropertyOp56
 70
     1
102
RTVSPropertyOp57
 70
     1
102
RTVSPost2010Prop28
280
     0
102
RTVSPost2010PropOp28
 70
     1
102
RTVSPost2010Prop29
280
     1
102
RTVSPost2010PropOp29
 70
     1
102
RTVSPost2010Prop30
280
     1
102
RTVSPost2010PropOp30
 70
     1
102
RTVSPost2010Prop31
280
     0
102
RTVSPost2010PropOp31
 70
     1
102
RTVSPost2010Prop32
280
     0
102
RTVSPost2010PropOp32
 70
     1
102
RTVSPost2010Prop33
280
     0
102
RTVSPost2010PropOp33
 70
     1
102
RTVSPost2010Prop34
280
     0
102
RTVSPost2010PropOp34
 70
     1
102
RTVSPost2010Prop35
280
     0
102
RTVSPost2010PropOp35
 70
     1
102
RTVSPost2010Prop36
280
     0
102
RTVSPost2010PropOp36
 70
     1
102
RTVSPost2010Prop37
 90
       50
102
RTVSPost2010PropOp37
 70
     1
102
RTVSPost2010Prop38
140
0.0
102
RTVSPost2010PropOp38
 70
     1
102
RTVSPost2010Prop39
140
1.0
102
RTVSPost2010PropOp39
 70
     1
102
RTVSPost2010Prop40
 90
        0
102
RTVSPost2010PropOp40
 70
     1
102
RTVSPost2010Prop41ColorIndex
 90
       18
102
RTVSPost2010Prop41ColorRGB
 90
        0
102
RTVSPost2010PropOp41
 70
     1
102
RTVSPost2010Prop42
 90
       50
102
RTVSPost2010PropOp42
 70
     1
102
RTVSPost2010Prop43
 90
        3
102
RTVSPost2010PropOp43
 70
     1
102
RTVSPost2010Prop44ColorIndex
 90
        5
102
RTVSPost2010Prop44ColorRGB
 90
      255
102
RTVSPost2010PropOp44
 70
     1
102
RTVSPost2010Prop45
280
     0
102
RTVSPost2010PropOp45
 70
     1
102
RTVSPost2010Prop46
 90
       50
102
RTVSPost2010PropOp46
 70
     1
102
RTVSPost2010Prop47
 90
       50
102
RTVSPost2010PropOp47
 70
     1
102
RTVSPost2010Prop48
 90
       50
102
RTVSPost2010PropOp48
 70
     1
102
RTVSPost2010Prop49
280
     0
102
RTVSPost2010PropOp49
 70
     1
102
RTVSPost2010Prop50
 90
       50
102
RTVSPost2010PropOp50
 70
     1
102
RTVSPost2010Prop51ColorIndex
 90
      256
102
RTVSPost2010Prop51ColorRGB
 90
-16777216
102
RTVSPost2010PropOp51
 70
     0
102
RTVSPost2010Prop52
140
1.0
102
RTVSPost2010PropOp52
 70
     0
102
RTVSPost2010Prop53
 90
        2
102
RTVSPost2010PropOp53
 70
     1
102
RTVSPost2010Prop54
  1
strokes_ogs.tif
102
RTVSPost2010PropOp54
 70
     1
102
RTVSPost2010Prop55
280
     0
102
RTVSPost2010PropOp55
 70
     1
102
RTVSPost2010Prop56
140
1.0
102
RTVSPost2010PropOp56
 70
     1
102
RTVSPost2010Prop57
140
1.0
102
RTVSPost2010PropOp57
 70
     1
  0
XRECORD
  5
2EB
102
{ACAD_REACTORS
330
2EA
102
}
330
2EA
100
AcDbXrecord
280
     1
102
RTVSPropertyOp0
 70
     1
102
RTVSPropertyOp1
 70
     1
102
RTVSPropertyOp2
 70
     1
102
RTVSPropertyOp3
 70
     1
102
RTVSPropertyOp4
 70
     1
102
RTVSPropertyOp5
 70
     1
102
RTVSPropertyOp6
 70
     1
102
RTVSPropertyOp7
 70
     1
102
RTVSPropertyOp8
 70
     1
102
RTVSPropertyOp9
 70
     1
102
RTVSPropertyOp10
 70
     1
102
RTVSPropertyOp11
 70
     1
102
RTVSPropertyOp12
 70
     1
102
RTVSPropertyOp13
 70
     1
102
RTVSPropertyOp14
 70
     1
102
RTVSPropertyOp15
 70
     1
102
RTVSPropertyOp16
 70
     1
102
RTVSPropertyOp17
 70
     1
102
RTVSPropertyOp18
 70
     1
102
RTVSPropertyOp19
 70
     1
102
RTVSPropertyOp20
 70
     1
102
RTVSPropertyOp21
 70
     1
102
RTVSPropertyOp22
 70
     1
102
RTVSPropertyOp23
 70
     1
102
RTVSPropertyOp24
 70
     1
102
RTVSPropertyOp25
 70
     1
102
RTVSPropertyOp26
 70
     1
102
RTVSPropertyOp27
 70
     1
102
RTVSPropertyOp28
 70
     1
102
RTVSPropertyOp29
 70
     1
102
RTVSPropertyOp30
 70
     1
102
RTVSPropertyOp31
 70
     1
102
RTVSPropertyOp32
 70
     1
102
RTVSPropertyOp33
 70
     1
102
RTVSPropertyOp34
 70
     1
102
RTVSPropertyOp35
 70
     1
102
RTVSPropertyOp36
 70
     1
102
RTVSPropertyOp37
 70
     1
102
RTVSPropertyOp38
 70
     1
102
RTVSPropertyOp39
 70
     1
102
RTVSPropertyOp40
 70
     1
102
RTVSPropertyOp41
 70
     1
102
RTVSPropertyOp42
 70
     1
102
RTVSPropertyOp43
 70
     1
102
RTVSPropertyOp44
 70
     1
102
RTVSPropertyOp45
 70
     1
102
RTVSPropertyOp46
 70
     1
102
RTVSPropertyOp47
 70
     1
102
RTVSPropertyOp48
 70
     1
102
RTVSPropertyOp49
 70
     1
102
RTVSPropertyOp50
 70
     1
102
RTVSPropertyOp51
 70
     0
102
RTVSPropertyOp52
 70
     0
102
RTVSPropertyOp53
 70
     1
102
RTVSPropertyOp54
 70
     1
102
RTVSPropertyOp55
 70
     1
102
RTVSPropertyOp56
 70
     1
102
RTVSPropertyOp57
 70
     1
102
RTVSPost2010Prop28
280
     0
102
RTVSPost2010PropOp28
 70
     1
102
RTVSPost2010Prop29
280
     1
102
RTVSPost2010PropOp29
 70
     1
102
RTVSPost2010Prop30
280
     1
102
RTVSPost2010PropOp30
 70
     1
102
RTVSPost2010Prop31
280
     0
102
RTVSPost2010PropOp31
 70
     1
102
RTVSPost2010Prop32
280
     0
102
RTVSPost2010PropOp32
 70
     1
102
RTVSPost2010Prop33
280
     0
102
RTVSPost2010PropOp33
 70
     1
102
RTVSPost2010Prop34
280
     0
102
RTVSPost2010PropOp34
 70
     1
102
RTVSPost2010Prop35
280
     0
102
RTVSPost2010PropOp35
 70
     1
102
RTVSPost2010Prop36
280
     0
102
RTVSPost2010PropOp36
 70
     1
102
RTVSPost2010Prop37
 90
       50
102
RTVSPost2010PropOp37
 70
     1
102
RTVSPost2010Prop38
140
0.0
102
RTVSPost2010PropOp38
 70
     1
102
RTVSPost2010Prop39
140
1.0
102
RTVSPost2010PropOp39
 70
     1
102
RTVSPost2010Prop40
 90
        0
102
RTVSPost2010PropOp40
 70
     1
102
RTVSPost2010Prop41ColorIndex
 90
       18
102
RTVSPost2010Prop41ColorRGB
 90
        0
102
RTVSPost2010PropOp41
 70
     1
102
RTVSPost2010Prop42
 90
       50
102
RTVSPost2010PropOp42
 70
     1
102
RTVSPost2010Prop43
 90
        3
102
RTVSPost2010PropOp43
 70
     1
102
RTVSPost2010Prop44ColorIndex
 90
        5
102
RTVSPost2010Prop44ColorRGB
 90
      255
102
RTVSPost2010PropOp44
 70
     1
102
RTVSPost2010Prop45
280
     0
102
RTVSPost2010PropOp45
 70
     1
102
RTVSPost2010Prop46
 90
       50
102
RTVSPost2010PropOp46
 70
     1
102
RTVSPost2010Prop47
 90
       50
102
RTVSPost2010PropOp47
 70
     1
102
RTVSPost2010Prop48
 90
       50
102
RTVSPost2010PropOp48
 70
     1
102
RTVSPost2010Prop49
280
     0
102
RTVSPost2010PropOp49
 70
     1
102
RTVSPost2010Prop50
 90
       50
102
RTVSPost2010PropOp50
 70
     1
102
RTVSPost2010Prop51ColorIndex
 90
      256
102
RTVSPost2010Prop51ColorRGB
 90
-16777216
102
RTVSPost2010PropOp51
 70
     0
102
RTVSPost2010Prop52
140
1.0
102
RTVSPost2010PropOp52
 70
     0
102
RTVSPost2010Prop53
 90
        2
102
RTVSPost2010PropOp53
 70
     1
102
RTVSPost2010Prop54
  1
strokes_ogs.tif
102
RTVSPost2010PropOp54
 70
     1
102
RTVSPost2010Prop55
280
     0
102
RTVSPost2010PropOp55
 70
     1
102
RTVSPost2010Prop56
140
1.0
102
RTVSPost2010PropOp56
 70
     1
102
RTVSPost2010Prop57
140
1.0
102
RTVSPost2010PropOp57
 70
     1
  0
XRECORD
  5
2ED
102
{ACAD_REACTORS
330
2EC
102
}
330
2EC
100
AcDbXrecord
280
     1
102
RTVSPropertyOp0
 70
     1
102
RTVSPropertyOp1
 70
     1
102
RTVSPropertyOp2
 70
     1
102
RTVSPropertyOp3
 70
     1
102
RTVSPropertyOp4
 70
     1
102
RTVSPropertyOp5
 70
     1
102
RTVSPropertyOp6
 70
     1
102
RTVSPropertyOp7
 70
     1
102
RTVSPropertyOp8
 70
     1
102
RTVSPropertyOp9
 70
     1
102
RTVSPropertyOp10
 70
     1
102
RTVSPropertyOp11
 70
     1
102
RTVSPropertyOp12
 70
     1
102
RTVSPropertyOp13
 70
     1
102
RTVSPropertyOp14
 70
     1
102
RTVSPropertyOp15
 70
     1
102
RTVSPropertyOp16
 70
     1
102
RTVSPropertyOp17
 70
     1
102
RTVSPropertyOp18
 70
     1
102
RTVSPropertyOp19
 70
     1
102
RTVSPropertyOp20
 70
     1
102
RTVSPropertyOp21
 70
     1
102
RTVSPropertyOp22
 70
     1
102
RTVSPropertyOp23
 70
     1
102
RTVSPropertyOp24
 70
     1
102
RTVSPropertyOp25
 70
     1
102
RTVSPropertyOp26
 70
     1
102
RTVSPropertyOp27
 70
     1
102
RTVSPropertyOp28
 70
     1
102
RTVSPropertyOp29
 70
     1
102
RTVSPropertyOp30
 70
     1
102
RTVSPropertyOp31
 70
     1
102
RTVSPropertyOp32
 70
     1
102
RTVSPropertyOp33
 70
     1
102
RTVSPropertyOp34
 70
     1
102
RTVSPropertyOp35
 70
     1
102
RTVSPropertyOp36
 70
     1
102
RTVSPropertyOp37
 70
     1
102
RTVSPropertyOp38
 70
     1
102
RTVSPropertyOp39
 70
     1
102
RTVSPropertyOp40
 70
     1
102
RTVSPropertyOp41
 70
     1
102
RTVSPropertyOp42
 70
     1
102
RTVSPropertyOp43
 70
     1
102
RTVSPropertyOp44
 70
     1
102
RTVSPropertyOp45
 70
     1
102
RTVSPropertyOp46
 70
     1
102
RTVSPropertyOp47
 70
     1
102
RTVSPropertyOp48
 70
     1
102
RTVSPropertyOp49
 70
     1
102
RTVSPropertyOp50
 70
     1
102
RTVSPropertyOp51
 70
     0
102
RTVSPropertyOp52
 70
     0
102
RTVSPropertyOp53
 70
     1
102
RTVSPropertyOp54
 70
     1
102
RTVSPropertyOp55
 70
     1
102
RTVSPropertyOp56
 70
     1
102
RTVSPropertyOp57
 70
     1
102
RTVSPost2010Prop28
280
     0
102
RTVSPost2010PropOp28
 70
     1
102
RTVSPost2010Prop29
280
     1
102
RTVSPost2010PropOp29
 70
     1
102
RTVSPost2010Prop30
280
     1
102
RTVSPost2010PropOp30
 70
     1
102
RTVSPost2010Prop31
280
     0
102
RTVSPost2010PropOp31
 70
     1
102
RTVSPost2010Prop32
280
     0
102
RTVSPost2010PropOp32
 70
     1
102
RTVSPost2010Prop33
280
     0
102
RTVSPost2010PropOp33
 70
     1
102
RTVSPost2010Prop34
280
     0
102
RTVSPost2010PropOp34
 70
     1
102
RTVSPost2010Prop35
280
     0
102
RTVSPost2010PropOp35
 70
     1
102
RTVSPost2010Prop36
280
     0
102
RTVSPost2010PropOp36
 70
     1
102
RTVSPost2010Prop37
 90
       50
102
RTVSPost2010PropOp37
 70
     1
102
RTVSPost2010Prop38
140
0.0
102
RTVSPost2010PropOp38
 70
     1
102
RTVSPost2010Prop39
140
1.0
102
RTVSPost2010PropOp39
 70
     1
102
RTVSPost2010Prop40
 90
        0
102
RTVSPost2010PropOp40
 70
     1
102
RTVSPost2010Prop41ColorIndex
 90
       18
102
RTVSPost2010Prop41ColorRGB
 90
        0
102
RTVSPost2010PropOp41
 70
     1
102
RTVSPost2010Prop42
 90
       50
102
RTVSPost2010PropOp42
 70
     1
102
RTVSPost2010Prop43
 90
        3
102
RTVSPost2010PropOp43
 70
     1
102
RTVSPost2010Prop44ColorIndex
 90
        5
102
RTVSPost2010Prop44ColorRGB
 90
      255
102
RTVSPost2010PropOp44
 70
     1
102
RTVSPost2010Prop45
280
     0
102
RTVSPost2010PropOp45
 70
     1
102
RTVSPost2010Prop46
 90
       50
102
RTVSPost2010PropOp46
 70
     1
102
RTVSPost2010Prop47
 90
       50
102
RTVSPost2010PropOp47
 70
     1
102
RTVSPost2010Prop48
 90
       50
102
RTVSPost2010PropOp48
 70
     1
102
RTVSPost2010Prop49
280
     0
102
RTVSPost2010PropOp49
 70
     1
102
RTVSPost2010Prop50
 90
       50
102
RTVSPost2010PropOp50
 70
     1
102
RTVSPost2010Prop51ColorIndex
 90
      256
102
RTVSPost2010Prop51ColorRGB
 90
-16777216
102
RTVSPost2010PropOp51
 70
     0
102
RTVSPost2010Prop52
140
1.0
102
RTVSPost2010PropOp52
 70
     0
102
RTVSPost2010Prop53
 90
        2
102
RTVSPost2010PropOp53
 70
     1
102
RTVSPost2010Prop54
  1
strokes_ogs.tif
102
RTVSPost2010PropOp54
 70
     1
102
RTVSPost2010Prop55
280
     0
102
RTVSPost2010PropOp55
 70
     1
102
RTVSPost2010Prop56
140
1.0
102
RTVSPost2010PropOp56
 70
     1
102
RTVSPost2010Prop57
140
1.0
102
RTVSPost2010PropOp57
 70
     1
  0
XRECORD
  5
2FD
102
{ACAD_REACTORS
330
2FC
102
}
330
2FC
100
AcDbXrecord
280
     1
102
RTVSPropertyOp0
 70
     0
102
RTVSPropertyOp1
 70
     0
102
RTVSPropertyOp2
 70
     0
102
RTVSPropertyOp3
 70
     0
102
RTVSPropertyOp4
 70
     0
102
RTVSPropertyOp5
 70
     0
102
RTVSPropertyOp6
 70
     0
102
RTVSPropertyOp7
 70
     0
102
RTVSPropertyOp8
 70
     0
102
RTVSPropertyOp9
 70
     0
102
RTVSPropertyOp10
 70
     0
102
RTVSPropertyOp11
 70
     0
102
RTVSPropertyOp12
 70
     0
102
RTVSPropertyOp13
 70
     0
102
RTVSPropertyOp14
 70
     2
102
RTVSPropertyOp15
 70
     0
102
RTVSPropertyOp16
 70
     0
102
RTVSPropertyOp17
 70
     0
102
RTVSPropertyOp18
 70
     0
102
RTVSPropertyOp19
 70
     0
102
RTVSPropertyOp20
 70
     0
102
RTVSPropertyOp21
 70
     0
102
RTVSPropertyOp22
 70
     0
102
RTVSPropertyOp23
 70
     0
102
RTVSPropertyOp24
 70
     0
102
RTVSPropertyOp25
 70
     0
102
RTVSPropertyOp26
 70
     0
102
RTVSPropertyOp27
 70
     0
102
RTVSPropertyOp28
 70
     0
102
RTVSPropertyOp29
 70
     0
102
RTVSPropertyOp30
 70
     0
102
RTVSPropertyOp31
 70
     0
102
RTVSPropertyOp32
 70
     0
102
RTVSPropertyOp33
 70
     0
102
RTVSPropertyOp34
 70
     0
102
RTVSPropertyOp35
 70
     0
102
RTVSPropertyOp36
 70
     0
102
RTVSPropertyOp37
 70
     0
102
RTVSPropertyOp38
 70
     0
102
RTVSPropertyOp39
 70
     0
102
RTVSPropertyOp40
 70
     0
102
RTVSPropertyOp41
 70
     0
102
RTVSPropertyOp42
 70
     0
102
RTVSPropertyOp43
 70
     0
102
RTVSPropertyOp44
 70
     0
102
RTVSPropertyOp45
 70
     0
102
RTVSPropertyOp46
 70
     0
102
RTVSPropertyOp47
 70
     0
102
RTVSPropertyOp48
 70
     0
102
RTVSPropertyOp49
 70
     0
102
RTVSPropertyOp50
 70
     0
102
RTVSPropertyOp51
 70
     0
102
RTVSPropertyOp52
 70
     0
102
RTVSPropertyOp53
 70
     0
102
RTVSPropertyOp54
 70
     0
102
RTVSPropertyOp55
 70
     0
102
RTVSPropertyOp56
 70
     0
102
RTVSPropertyOp57
 70
     0
102
RTVSPost2010Prop28
280
     0
102
RTVSPost2010PropOp28
 70
     0
102
RTVSPost2010Prop29
280
     1
102
RTVSPost2010PropOp29
 70
     0
102
RTVSPost2010Prop30
280
     1
102
RTVSPost2010PropOp30
 70
     0
102
RTVSPost2010Prop31
280
     0
102
RTVSPost2010PropOp31
 70
     0
102
RTVSPost2010Prop32
280
     0
102
RTVSPost2010PropOp32
 70
     0
102
RTVSPost2010Prop33
280
     0
102
RTVSPost2010PropOp33
 70
     0
102
RTVSPost2010Prop34
280
     0
102
RTVSPost2010PropOp34
 70
     0
102
RTVSPost2010Prop35
280
     0
102
RTVSPost2010PropOp35
 70
     0
102
RTVSPost2010Prop36
280
     0
102
RTVSPost2010PropOp36
 70
     0
102
RTVSPost2010Prop37
 90
       50
102
RTVSPost2010PropOp37
 70
     0
102
RTVSPost2010Prop38
140
0.0
102
RTVSPost2010PropOp38
 70
     0
102
RTVSPost2010Prop39
140
1.0
102
RTVSPost2010PropOp39
 70
     0
102
RTVSPost2010Prop40
 90
        0
102
RTVSPost2010PropOp40
 70
     0
102
RTVSPost2010Prop41ColorIndex
 90
       18
102
RTVSPost2010Prop41ColorRGB
 90
        0
102
RTVSPost2010PropOp41
 70
     0
102
RTVSPost2010Prop42
 90
       50
102
RTVSPost2010PropOp42
 70
     0
102
RTVSPost2010Prop43
 90
        3
102
RTVSPost2010PropOp43
 70
     0
102
RTVSPost2010Prop44ColorIndex
 90
        5
102
RTVSPost2010Prop44ColorRGB
 90
      255
102
RTVSPost2010PropOp44
 70
     0
102
RTVSPost2010Prop45
280
     0
102
RTVSPost2010PropOp45
 70
     0
102
RTVSPost2010Prop46
 90
       50
102
RTVSPost2010PropOp46
 70
     0
102
RTVSPost2010Prop47
 90
       50
102
RTVSPost2010PropOp47
 70
     0
102
RTVSPost2010Prop48
 90
       50
102
RTVSPost2010PropOp48
 70
     0
102
RTVSPost2010Prop49
280
     0
102
RTVSPost2010PropOp49
 70
     0
102
RTVSPost2010Prop50
 90
       50
102
RTVSPost2010PropOp50
 70
     0
102
RTVSPost2010Prop51ColorIndex
 90
      256
102
RTVSPost2010Prop51ColorRGB
 90
-16777216
102
RTVSPost2010PropOp51
 70
     0
102
RTVSPost2010Prop52
140
1.0
102
RTVSPost2010PropOp52
 70
     0
102
RTVSPost2010Prop53
 90
        2
102
RTVSPost2010PropOp53
 70
     0
102
RTVSPost2010Prop54
  1
strokes_ogs.tif
102
RTVSPost2010PropOp54
 70
     0
102
RTVSPost2010Prop55
280
     0
102
RTVSPost2010PropOp55
 70
     0
102
RTVSPost2010Prop56
140
1.0
102
RTVSPost2010PropOp56
 70
     0
102
RTVSPost2010Prop57
140
1.0
102
RTVSPost2010PropOp57
 70
     0
  0
XRECORD
  5
2F5
102
{ACAD_REACTORS
330
2F4
102
}
330
2F4
100
AcDbXrecord
280
     1
102
RTVSPropertyOp0
 70
     1
102
RTVSPropertyOp1
 70
     1
102
RTVSPropertyOp2
 70
     1
102
RTVSPropertyOp3
 70
     1
102
RTVSPropertyOp4
 70
     1
102
RTVSPropertyOp5
 70
     1
102
RTVSPropertyOp6
 70
     1
102
RTVSPropertyOp7
 70
     1
102
RTVSPropertyOp8
 70
     1
102
RTVSPropertyOp9
 70
     1
102
RTVSPropertyOp10
 70
     1
102
RTVSPropertyOp11
 70
     1
102
RTVSPropertyOp12
 70
     1
102
RTVSPropertyOp13
 70
     1
102
RTVSPropertyOp14
 70
     1
102
RTVSPropertyOp15
 70
     1
102
RTVSPropertyOp16
 70
     1
102
RTVSPropertyOp17
 70
     1
102
RTVSPropertyOp18
 70
     1
102
RTVSPropertyOp19
 70
     1
102
RTVSPropertyOp20
 70
     1
102
RTVSPropertyOp21
 70
     1
102
RTVSPropertyOp22
 70
     1
102
RTVSPropertyOp23
 70
     1
102
RTVSPropertyOp24
 70
     1
102
RTVSPropertyOp25
 70
     1
102
RTVSPropertyOp26
 70
     1
102
RTVSPropertyOp27
 70
     1
102
RTVSPropertyOp28
 70
     1
102
RTVSPropertyOp29
 70
     1
102
RTVSPropertyOp30
 70
     1
102
RTVSPropertyOp31
 70
     1
102
RTVSPropertyOp32
 70
     1
102
RTVSPropertyOp33
 70
     1
102
RTVSPropertyOp34
 70
     1
102
RTVSPropertyOp35
 70
     1
102
RTVSPropertyOp36
 70
     1
102
RTVSPropertyOp37
 70
     1
102
RTVSPropertyOp38
 70
     1
102
RTVSPropertyOp39
 70
     1
102
RTVSPropertyOp40
 70
     1
102
RTVSPropertyOp41
 70
     1
102
RTVSPropertyOp42
 70
     1
102
RTVSPropertyOp43
 70
     1
102
RTVSPropertyOp44
 70
     1
102
RTVSPropertyOp45
 70
     1
102
RTVSPropertyOp46
 70
     1
102
RTVSPropertyOp47
 70
     1
102
RTVSPropertyOp48
 70
     1
102
RTVSPropertyOp49
 70
     1
102
RTVSPropertyOp50
 70
     1
102
RTVSPropertyOp51
 70
     0
102
RTVSPropertyOp52
 70
     0
102
RTVSPropertyOp53
 70
     1
102
RTVSPropertyOp54
 70
     1
102
RTVSPropertyOp55
 70
     1
102
RTVSPropertyOp56
 70
     1
102
RTVSPropertyOp57
 70
     1
102
RTVSPost2010Prop28
280
     0
102
RTVSPost2010PropOp28
 70
     1
102
RTVSPost2010Prop29
280
     1
102
RTVSPost2010PropOp29
 70
     1
102
RTVSPost2010Prop30
280
     1
102
RTVSPost2010PropOp30
 70
     1
102
RTVSPost2010Prop31
280
     0
102
RTVSPost2010PropOp31
 70
     1
102
RTVSPost2010Prop32
280
     0
102
RTVSPost2010PropOp32
 70
     1
102
RTVSPost2010Prop33
280
     0
102
RTVSPost2010PropOp33
 70
     1
102
RTVSPost2010Prop34
280
     0
102
RTVSPost2010PropOp34
 70
     1
102
RTVSPost2010Prop35
280
     0
102
RTVSPost2010PropOp35
 70
     1
102
RTVSPost2010Prop36
280
     0
102
RTVSPost2010PropOp36
 70
     1
102
RTVSPost2010Prop37
 90
       50
102
RTVSPost2010PropOp37
 70
     1
102
RTVSPost2010Prop38
140
0.0
102
RTVSPost2010PropOp38
 70
     1
102
RTVSPost2010Prop39
140
1.0
102
RTVSPost2010PropOp39
 70
     1
102
RTVSPost2010Prop40
 90
        0
102
RTVSPost2010PropOp40
 70
     1
102
RTVSPost2010Prop41ColorIndex
 90
       18
102
RTVSPost2010Prop41ColorRGB
 90
        0
102
RTVSPost2010PropOp41
 70
     1
102
RTVSPost2010Prop42
 90
       50
102
RTVSPost2010PropOp42
 70
     1
102
RTVSPost2010Prop43
 90
        3
102
RTVSPost2010PropOp43
 70
     1
102
RTVSPost2010Prop44ColorIndex
 90
        5
102
RTVSPost2010Prop44ColorRGB
 90
      255
102
RTVSPost2010PropOp44
 70
     1
102
RTVSPost2010Prop45
280
     0
102
RTVSPost2010PropOp45
 70
     1
102
RTVSPost2010Prop46
 90
       50
102
RTVSPost2010PropOp46
 70
     1
102
RTVSPost2010Prop47
 90
       50
102
RTVSPost2010PropOp47
 70
     1
102
RTVSPost2010Prop48
 90
       50
102
RTVSPost2010PropOp48
 70
     1
102
RTVSPost2010Prop49
280
     0
102
RTVSPost2010PropOp49
 70
     1
102
RTVSPost2010Prop50
 90
       50
102
RTVSPost2010PropOp50
 70
     1
102
RTVSPost2010Prop51ColorIndex
 90
      256
102
RTVSPost2010Prop51ColorRGB
 90
-16777216
102
RTVSPost2010PropOp51
 70
     0
102
RTVSPost2010Prop52
140
1.0
102
RTVSPost2010PropOp52
 70
     0
102
RTVSPost2010Prop53
 90
        2
102
RTVSPost2010PropOp53
 70
     1
102
RTVSPost2010Prop54
  1
strokes_ogs.tif
102
RTVSPost2010PropOp54
 70
     1
102
RTVSPost2010Prop55
280
     0
102
RTVSPost2010PropOp55
 70
     1
102
RTVSPost2010Prop56
140
1.0
102
RTVSPost2010PropOp56
 70
     1
102
RTVSPost2010Prop57
140
1.0
102
RTVSPost2010PropOp57
 70
     1
  0
XRECORD
  5
2D9
102
{ACAD_REACTORS
330
2D8
102
}
330
2D8
100
AcDbXrecord
280
     1
102
RTVSPropertyOp0
 70
     1
102
RTVSPropertyOp1
 70
     1
102
RTVSPropertyOp2
 70
     1
102
RTVSPropertyOp3
 70
     1
102
RTVSPropertyOp4
 70
     1
102
RTVSPropertyOp5
 70
     1
102
RTVSPropertyOp6
 70
     1
102
RTVSPropertyOp7
 70
     1
102
RTVSPropertyOp8
 70
     1
102
RTVSPropertyOp9
 70
     1
102
RTVSPropertyOp10
 70
     1
102
RTVSPropertyOp11
 70
     1
102
RTVSPropertyOp12
 70
     1
102
RTVSPropertyOp13
 70
     1
102
RTVSPropertyOp14
 70
     1
102
RTVSPropertyOp15
 70
     1
102
RTVSPropertyOp16
 70
     1
102
RTVSPropertyOp17
 70
     1
102
RTVSPropertyOp18
 70
     1
102
RTVSPropertyOp19
 70
     1
102
RTVSPropertyOp20
 70
     1
102
RTVSPropertyOp21
 70
     1
102
RTVSPropertyOp22
 70
     1
102
RTVSPropertyOp23
 70
     1
102
RTVSPropertyOp24
 70
     1
102
RTVSPropertyOp25
 70
     1
102
RTVSPropertyOp26
 70
     1
102
RTVSPropertyOp27
 70
     1
102
RTVSPropertyOp28
 70
     1
102
RTVSPropertyOp29
 70
     1
102
RTVSPropertyOp30
 70
     1
102
RTVSPropertyOp31
 70
     1
102
RTVSPropertyOp32
 70
     1
102
RTVSPropertyOp33
 70
     1
102
RTVSPropertyOp34
 70
     1
102
RTVSPropertyOp35
 70
     1
102
RTVSPropertyOp36
 70
     1
102
RTVSPropertyOp37
 70
     1
102
RTVSPropertyOp38
 70
     1
102
RTVSPropertyOp39
 70
     1
102
RTVSPropertyOp40
 70
     1
102
RTVSPropertyOp41
 70
     1
102
RTVSPropertyOp42
 70
     1
102
RTVSPropertyOp43
 70
     1
102
RTVSPropertyOp44
 70
     1
102
RTVSPropertyOp45
 70
     1
102
RTVSPropertyOp46
 70
     1
102
RTVSPropertyOp47
 70
     1
102
RTVSPropertyOp48
 70
     1
102
RTVSPropertyOp49
 70
     1
102
RTVSPropertyOp50
 70
     1
102
RTVSPropertyOp51
 70
     0
102
RTVSPropertyOp52
 70
     0
102
RTVSPropertyOp53
 70
     1
102
RTVSPropertyOp54
 70
     1
102
RTVSPropertyOp55
 70
     1
102
RTVSPropertyOp56
 70
     1
102
RTVSPropertyOp57
 70
     1
102
RTVSPost2010Prop28
280
     0
102
RTVSPost2010PropOp28
 70
     1
102
RTVSPost2010Prop29
280
     1
102
RTVSPost2010PropOp29
 70
     1
102
RTVSPost2010Prop30
280
     1
102
RTVSPost2010PropOp30
 70
     1
102
RTVSPost2010Prop31
280
     0
102
RTVSPost2010PropOp31
 70
     1
102
RTVSPost2010Prop32
280
     0
102
RTVSPost2010PropOp32
 70
     1
102
RTVSPost2010Prop33
280
     0
102
RTVSPost2010PropOp33
 70
     1
102
RTVSPost2010Prop34
280
     0
102
RTVSPost2010PropOp34
 70
     1
102
RTVSPost2010Prop35
280
     0
102
RTVSPost2010PropOp35
 70
     1
102
RTVSPost2010Prop36
280
     0
102
RTVSPost2010PropOp36
 70
     1
102
RTVSPost2010Prop37
 90
       50
102
RTVSPost2010PropOp37
 70
     1
102
RTVSPost2010Prop38
140
0.0
102
RTVSPost2010PropOp38
 70
     1
102
RTVSPost2010Prop39
140
1.0
102
RTVSPost2010PropOp39
 70
     1
102
RTVSPost2010Prop40
 90
        0
102
RTVSPost2010PropOp40
 70
     1
102
RTVSPost2010Prop41ColorIndex
 90
       18
102
RTVSPost2010Prop41ColorRGB
 90
        0
102
RTVSPost2010PropOp41
 70
     1
102
RTVSPost2010Prop42
 90
       50
102
RTVSPost2010PropOp42
 70
     1
102
RTVSPost2010Prop43
 90
        3
102
RTVSPost2010PropOp43
 70
     1
102
RTVSPost2010Prop44ColorIndex
 90
        5
102
RTVSPost2010Prop44ColorRGB
 90
      255
102
RTVSPost2010PropOp44
 70
     1
102
RTVSPost2010Prop45
280
     0
102
RTVSPost2010PropOp45
 70
     1
102
RTVSPost2010Prop46
 90
       50
102
RTVSPost2010PropOp46
 70
     1
102
RTVSPost2010Prop47
 90
       50
102
RTVSPost2010PropOp47
 70
     1
102
RTVSPost2010Prop48
 90
       50
102
RTVSPost2010PropOp48
 70
     1
102
RTVSPost2010Prop49
280
     0
102
RTVSPost2010PropOp49
 70
     1
102
RTVSPost2010Prop50
 90
       50
102
RTVSPost2010PropOp50
 70
     1
102
RTVSPost2010Prop51ColorIndex
 90
      256
102
RTVSPost2010Prop51ColorRGB
 90
-16777216
102
RTVSPost2010PropOp51
 70
     0
102
RTVSPost2010Prop52
140
1.0
102
RTVSPost2010PropOp52
 70
     0
102
RTVSPost2010Prop53
 90
        2
102
RTVSPost2010PropOp53
 70
     1
102
RTVSPost2010Prop54
  1
strokes_ogs.tif
102
RTVSPost2010PropOp54
 70
     1
102
RTVSPost2010Prop55
280
     0
102
RTVSPost2010PropOp55
 70
     1
102
RTVSPost2010Prop56
140
1.0
102
RTVSPost2010PropOp56
 70
     1
102
RTVSPost2010Prop57
140
1.0
102
RTVSPost2010PropOp57
 70
     1
  0
XRECORD
  5
2DB
102
{ACAD_REACTORS
330
2DA
102
}
330
2DA
100
AcDbXrecord
280
     1
102
RTVSPropertyOp0
 70
     1
102
RTVSPropertyOp1
 70
     1
102
RTVSPropertyOp2
 70
     1
102
RTVSPropertyOp3
 70
     1
102
RTVSPropertyOp4
 70
     1
102
RTVSPropertyOp5
 70
     1
102
RTVSPropertyOp6
 70
     1
102
RTVSPropertyOp7
 70
     1
102
RTVSPropertyOp8
 70
     1
102
RTVSPropertyOp9
 70
     1
102
RTVSPropertyOp10
 70
     1
102
RTVSPropertyOp11
 70
     1
102
RTVSPropertyOp12
 70
     1
102
RTVSPropertyOp13
 70
     1
102
RTVSPropertyOp14
 70
     1
102
RTVSPropertyOp15
 70
     1
102
RTVSPropertyOp16
 70
     1
102
RTVSPropertyOp17
 70
     1
102
RTVSPropertyOp18
 70
     1
102
RTVSPropertyOp19
 70
     1
102
RTVSPropertyOp20
 70
     1
102
RTVSPropertyOp21
 70
     1
102
RTVSPropertyOp22
 70
     1
102
RTVSPropertyOp23
 70
     1
102
RTVSPropertyOp24
 70
     1
102
RTVSPropertyOp25
 70
     1
102
RTVSPropertyOp26
 70
     1
102
RTVSPropertyOp27
 70
     1
102
RTVSPropertyOp28
 70
     1
102
RTVSPropertyOp29
 70
     1
102
RTVSPropertyOp30
 70
     1
102
RTVSPropertyOp31
 70
     1
102
RTVSPropertyOp32
 70
     1
102
RTVSPropertyOp33
 70
     1
102
RTVSPropertyOp34
 70
     1
102
RTVSPropertyOp35
 70
     1
102
RTVSPropertyOp36
 70
     1
102
RTVSPropertyOp37
 70
     1
102
RTVSPropertyOp38
 70
     1
102
RTVSPropertyOp39
 70
     1
102
RTVSPropertyOp40
 70
     1
102
RTVSPropertyOp41
 70
     1
102
RTVSPropertyOp42
 70
     1
102
RTVSPropertyOp43
 70
     1
102
RTVSPropertyOp44
 70
     1
102
RTVSPropertyOp45
 70
     1
102
RTVSPropertyOp46
 70
     1
102
RTVSPropertyOp47
 70
     1
102
RTVSPropertyOp48
 70
     1
102
RTVSPropertyOp49
 70
     1
102
RTVSPropertyOp50
 70
     1
102
RTVSPropertyOp51
 70
     0
102
RTVSPropertyOp52
 70
     0
102
RTVSPropertyOp53
 70
     1
102
RTVSPropertyOp54
 70
     1
102
RTVSPropertyOp55
 70
     1
102
RTVSPropertyOp56
 70
     1
102
RTVSPropertyOp57
 70
     1
102
RTVSPost2010Prop28
280
     0
102
RTVSPost2010PropOp28
 70
     1
102
RTVSPost2010Prop29
280
     1
102
RTVSPost2010PropOp29
 70
     1
102
RTVSPost2010Prop30
280
     1
102
RTVSPost2010PropOp30
 70
     1
102
RTVSPost2010Prop31
280
     0
102
RTVSPost2010PropOp31
 70
     1
102
RTVSPost2010Prop32
280
     0
102
RTVSPost2010PropOp32
 70
     1
102
RTVSPost2010Prop33
280
     0
102
RTVSPost2010PropOp33
 70
     1
102
RTVSPost2010Prop34
280
     0
102
RTVSPost2010PropOp34
 70
     1
102
RTVSPost2010Prop35
280
     0
102
RTVSPost2010PropOp35
 70
     1
102
RTVSPost2010Prop36
280
     0
102
RTVSPost2010PropOp36
 70
     1
102
RTVSPost2010Prop37
 90
       50
102
RTVSPost2010PropOp37
 70
     1
102
RTVSPost2010Prop38
140
0.0
102
RTVSPost2010PropOp38
 70
     1
102
RTVSPost2010Prop39
140
1.0
102
RTVSPost2010PropOp39
 70
     1
102
RTVSPost2010Prop40
 90
        0
102
RTVSPost2010PropOp40
 70
     1
102
RTVSPost2010Prop41ColorIndex
 90
       18
102
RTVSPost2010Prop41ColorRGB
 90
        0
102
RTVSPost2010PropOp41
 70
     1
102
RTVSPost2010Prop42
 90
       50
102
RTVSPost2010PropOp42
 70
     1
102
RTVSPost2010Prop43
 90
        3
102
RTVSPost2010PropOp43
 70
     1
102
RTVSPost2010Prop44ColorIndex
 90
        5
102
RTVSPost2010Prop44ColorRGB
 90
      255
102
RTVSPost2010PropOp44
 70
     1
102
RTVSPost2010Prop45
280
     0
102
RTVSPost2010PropOp45
 70
     1
102
RTVSPost2010Prop46
 90
       50
102
RTVSPost2010PropOp46
 70
     1
102
RTVSPost2010Prop47
 90
       50
102
RTVSPost2010PropOp47
 70
     1
102
RTVSPost2010Prop48
 90
       50
102
RTVSPost2010PropOp48
 70
     1
102
RTVSPost2010Prop49
280
     0
102
RTVSPost2010PropOp49
 70
     1
102
RTVSPost2010Prop50
 90
       50
102
RTVSPost2010PropOp50
 70
     1
102
RTVSPost2010Prop51ColorIndex
 90
      256
102
RTVSPost2010Prop51ColorRGB
 90
-16777216
102
RTVSPost2010PropOp51
 70
     0
102
RTVSPost2010Prop52
140
1.0
102
RTVSPost2010PropOp52
 70
     0
102
RTVSPost2010Prop53
 90
        2
102
RTVSPost2010PropOp53
 70
     1
102
RTVSPost2010Prop54
  1
strokes_ogs.tif
102
RTVSPost2010PropOp54
 70
     1
102
RTVSPost2010Prop55
280
     0
102
RTVSPost2010PropOp55
 70
     1
102
RTVSPost2010Prop56
140
1.0
102
RTVSPost2010PropOp56
 70
     1
102
RTVSPost2010Prop57
140
1.0
102
RTVSPost2010PropOp57
 70
     1
  0
XRECORD
  5
2DD
102
{ACAD_REACTORS
330
2DC
102
}
330
2DC
100
AcDbXrecord
280
     1
102
RTVSPropertyOp0
 70
     1
102
RTVSPropertyOp1
 70
     1
102
RTVSPropertyOp2
 70
     1
102
RTVSPropertyOp3
 70
     1
102
RTVSPropertyOp4
 70
     1
102
RTVSPropertyOp5
 70
     1
102
RTVSPropertyOp6
 70
     1
102
RTVSPropertyOp7
 70
     1
102
RTVSPropertyOp8
 70
     1
102
RTVSPropertyOp9
 70
     1
102
RTVSPropertyOp10
 70
     1
102
RTVSPropertyOp11
 70
     1
102
RTVSPropertyOp12
 70
     1
102
RTVSPropertyOp13
 70
     1
102
RTVSPropertyOp14
 70
     1
102
RTVSPropertyOp15
 70
     1
102
RTVSPropertyOp16
 70
     1
102
RTVSPropertyOp17
 70
     1
102
RTVSPropertyOp18
 70
     1
102
RTVSPropertyOp19
 70
     1
102
RTVSPropertyOp20
 70
     1
102
RTVSPropertyOp21
 70
     1
102
RTVSPropertyOp22
 70
     1
102
RTVSPropertyOp23
 70
     1
102
RTVSPropertyOp24
 70
     1
102
RTVSPropertyOp25
 70
     1
102
RTVSPropertyOp26
 70
     1
102
RTVSPropertyOp27
 70
     1
102
RTVSPropertyOp28
 70
     1
102
RTVSPropertyOp29
 70
     1
102
RTVSPropertyOp30
 70
     1
102
RTVSPropertyOp31
 70
     1
102
RTVSPropertyOp32
 70
     1
102
RTVSPropertyOp33
 70
     1
102
RTVSPropertyOp34
 70
     1
102
RTVSPropertyOp35
 70
     1
102
RTVSPropertyOp36
 70
     1
102
RTVSPropertyOp37
 70
     1
102
RTVSPropertyOp38
 70
     1
102
RTVSPropertyOp39
 70
     1
102
RTVSPropertyOp40
 70
     1
102
RTVSPropertyOp41
 70
     1
102
RTVSPropertyOp42
 70
     1
102
RTVSPropertyOp43
 70
     1
102
RTVSPropertyOp44
 70
     1
102
RTVSPropertyOp45
 70
     1
102
RTVSPropertyOp46
 70
     1
102
RTVSPropertyOp47
 70
     1
102
RTVSPropertyOp48
 70
     1
102
RTVSPropertyOp49
 70
     1
102
RTVSPropertyOp50
 70
     1
102
RTVSPropertyOp51
 70
     0
102
RTVSPropertyOp52
 70
     0
102
RTVSPropertyOp53
 70
     1
102
RTVSPropertyOp54
 70
     1
102
RTVSPropertyOp55
 70
     1
102
RTVSPropertyOp56
 70
     1
102
RTVSPropertyOp57
 70
     1
102
RTVSPost2010Prop28
280
     0
102
RTVSPost2010PropOp28
 70
     1
102
RTVSPost2010Prop29
280
     1
102
RTVSPost2010PropOp29
 70
     1
102
RTVSPost2010Prop30
280
     1
102
RTVSPost2010PropOp30
 70
     1
102
RTVSPost2010Prop31
280
     0
102
RTVSPost2010PropOp31
 70
     1
102
RTVSPost2010Prop32
280
     0
102
RTVSPost2010PropOp32
 70
     1
102
RTVSPost2010Prop33
280
     0
102
RTVSPost2010PropOp33
 70
     1
102
RTVSPost2010Prop34
280
     0
102
RTVSPost2010PropOp34
 70
     1
102
RTVSPost2010Prop35
280
     0
102
RTVSPost2010PropOp35
 70
     1
102
RTVSPost2010Prop36
280
     0
102
RTVSPost2010PropOp36
 70
     1
102
RTVSPost2010Prop37
 90
       50
102
RTVSPost2010PropOp37
 70
     1
102
RTVSPost2010Prop38
140
0.0
102
RTVSPost2010PropOp38
 70
     1
102
RTVSPost2010Prop39
140
1.0
102
RTVSPost2010PropOp39
 70
     1
102
RTVSPost2010Prop40
 90
        0
102
RTVSPost2010PropOp40
 70
     1
102
RTVSPost2010Prop41ColorIndex
 90
       18
102
RTVSPost2010Prop41ColorRGB
 90
        0
102
RTVSPost2010PropOp41
 70
     1
102
RTVSPost2010Prop42
 90
       50
102
RTVSPost2010PropOp42
 70
     1
102
RTVSPost2010Prop43
 90
        3
102
RTVSPost2010PropOp43
 70
     1
102
RTVSPost2010Prop44ColorIndex
 90
        5
102
RTVSPost2010Prop44ColorRGB
 90
      255
102
RTVSPost2010PropOp44
 70
     1
102
RTVSPost2010Prop45
280
     0
102
RTVSPost2010PropOp45
 70
     1
102
RTVSPost2010Prop46
 90
       50
102
RTVSPost2010PropOp46
 70
     1
102
RTVSPost2010Prop47
 90
       50
102
RTVSPost2010PropOp47
 70
     1
102
RTVSPost2010Prop48
 90
       50
102
RTVSPost2010PropOp48
 70
     1
102
RTVSPost2010Prop49
280
     0
102
RTVSPost2010PropOp49
 70
     1
102
RTVSPost2010Prop50
 90
       50
102
RTVSPost2010PropOp50
 70
     1
102
RTVSPost2010Prop51ColorIndex
 90
      256
102
RTVSPost2010Prop51ColorRGB
 90
-16777216
102
RTVSPost2010PropOp51
 70
     0
102
RTVSPost2010Prop52
140
1.0
102
RTVSPost2010PropOp52
 70
     0
102
RTVSPost2010Prop53
 90
        2
102
RTVSPost2010PropOp53
 70
     1
102
RTVSPost2010Prop54
  1
strokes_ogs.tif
102
RTVSPost2010PropOp54
 70
     1
102
RTVSPost2010Prop55
280
     0
102
RTVSPost2010PropOp55
 70
     1
102
RTVSPost2010Prop56
140
1.0
102
RTVSPost2010PropOp56
 70
     1
102
RTVSPost2010Prop57
140
1.0
102
RTVSPost2010PropOp57
 70
     1
  0
XRECORD
  5
2DF
102
{ACAD_REACTORS
330
2DE
102
}
330
2DE
100
AcDbXrecord
280
     1
102
RTVSPropertyOp0
 70
     1
102
RTVSPropertyOp1
 70
     1
102
RTVSPropertyOp2
 70
     1
102
RTVSPropertyOp3
 70
     1
102
RTVSPropertyOp4
 70
     1
102
RTVSPropertyOp5
 70
     1
102
RTVSPropertyOp6
 70
     1
102
RTVSPropertyOp7
 70
     1
102
RTVSPropertyOp8
 70
     1
102
RTVSPropertyOp9
 70
     1
102
RTVSPropertyOp10
 70
     1
102
RTVSPropertyOp11
 70
     1
102
RTVSPropertyOp12
 70
     1
102
RTVSPropertyOp13
 70
     1
102
RTVSPropertyOp14
 70
     1
102
RTVSPropertyOp15
 70
     1
102
RTVSPropertyOp16
 70
     1
102
RTVSPropertyOp17
 70
     1
102
RTVSPropertyOp18
 70
     1
102
RTVSPropertyOp19
 70
     1
102
RTVSPropertyOp20
 70
     1
102
RTVSPropertyOp21
 70
     1
102
RTVSPropertyOp22
 70
     1
102
RTVSPropertyOp23
 70
     1
102
RTVSPropertyOp24
 70
     1
102
RTVSPropertyOp25
 70
     1
102
RTVSPropertyOp26
 70
     1
102
RTVSPropertyOp27
 70
     1
102
RTVSPropertyOp28
 70
     1
102
RTVSPropertyOp29
 70
     1
102
RTVSPropertyOp30
 70
     1
102
RTVSPropertyOp31
 70
     1
102
RTVSPropertyOp32
 70
     1
102
RTVSPropertyOp33
 70
     1
102
RTVSPropertyOp34
 70
     1
102
RTVSPropertyOp35
 70
     1
102
RTVSPropertyOp36
 70
     1
102
RTVSPropertyOp37
 70
     1
102
RTVSPropertyOp38
 70
     1
102
RTVSPropertyOp39
 70
     1
102
RTVSPropertyOp40
 70
     1
102
RTVSPropertyOp41
 70
     1
102
RTVSPropertyOp42
 70
     1
102
RTVSPropertyOp43
 70
     1
102
RTVSPropertyOp44
 70
     1
102
RTVSPropertyOp45
 70
     1
102
RTVSPropertyOp46
 70
     1
102
RTVSPropertyOp47
 70
     1
102
RTVSPropertyOp48
 70
     1
102
RTVSPropertyOp49
 70
     1
102
RTVSPropertyOp50
 70
     1
102
RTVSPropertyOp51
 70
     0
102
RTVSPropertyOp52
 70
     0
102
RTVSPropertyOp53
 70
     1
102
RTVSPropertyOp54
 70
     1
102
RTVSPropertyOp55
 70
     1
102
RTVSPropertyOp56
 70
     1
102
RTVSPropertyOp57
 70
     1
102
RTVSPost2010Prop28
280
     0
102
RTVSPost2010PropOp28
 70
     1
102
RTVSPost2010Prop29
280
     1
102
RTVSPost2010PropOp29
 70
     1
102
RTVSPost2010Prop30
280
     1
102
RTVSPost2010PropOp30
 70
     1
102
RTVSPost2010Prop31
280
     0
102
RTVSPost2010PropOp31
 70
     1
102
RTVSPost2010Prop32
280
     0
102
RTVSPost2010PropOp32
 70
     1
102
RTVSPost2010Prop33
280
     0
102
RTVSPost2010PropOp33
 70
     1
102
RTVSPost2010Prop34
280
     0
102
RTVSPost2010PropOp34
 70
     1
102
RTVSPost2010Prop35
280
     0
102
RTVSPost2010PropOp35
 70
     1
102
RTVSPost2010Prop36
280
     0
102
RTVSPost2010PropOp36
 70
     1
102
RTVSPost2010Prop37
 90
       50
102
RTVSPost2010PropOp37
 70
     1
102
RTVSPost2010Prop38
140
0.0
102
RTVSPost2010PropOp38
 70
     1
102
RTVSPost2010Prop39
140
1.0
102
RTVSPost2010PropOp39
 70
     1
102
RTVSPost2010Prop40
 90
        0
102
RTVSPost2010PropOp40
 70
     1
102
RTVSPost2010Prop41ColorIndex
 90
       18
102
RTVSPost2010Prop41ColorRGB
 90
        0
102
RTVSPost2010PropOp41
 70
     1
102
RTVSPost2010Prop42
 90
       50
102
RTVSPost2010PropOp42
 70
     1
102
RTVSPost2010Prop43
 90
        3
102
RTVSPost2010PropOp43
 70
     1
102
RTVSPost2010Prop44ColorIndex
 90
        5
102
RTVSPost2010Prop44ColorRGB
 90
      255
102
RTVSPost2010PropOp44
 70
     1
102
RTVSPost2010Prop45
280
     0
102
RTVSPost2010PropOp45
 70
     1
102
RTVSPost2010Prop46
 90
       50
102
RTVSPost2010PropOp46
 70
     1
102
RTVSPost2010Prop47
 90
       50
102
RTVSPost2010PropOp47
 70
     1
102
RTVSPost2010Prop48
 90
       50
102
RTVSPost2010PropOp48
 70
     1
102
RTVSPost2010Prop49
280
     0
102
RTVSPost2010PropOp49
 70
     1
102
RTVSPost2010Prop50
 90
       50
102
RTVSPost2010PropOp50
 70
     1
102
RTVSPost2010Prop51ColorIndex
 90
      256
102
RTVSPost2010Prop51ColorRGB
 90
-16777216
102
RTVSPost2010PropOp51
 70
     0
102
RTVSPost2010Prop52
140
1.0
102
RTVSPost2010PropOp52
 70
     0
102
RTVSPost2010Prop53
 90
        2
102
RTVSPost2010PropOp53
 70
     1
102
RTVSPost2010Prop54
  1
strokes_ogs.tif
102
RTVSPost2010PropOp54
 70
     1
102
RTVSPost2010Prop55
280
     0
102
RTVSPost2010PropOp55
 70
     1
102
RTVSPost2010Prop56
140
1.0
102
RTVSPost2010PropOp56
 70
     1
102
RTVSPost2010Prop57
140
1.0
102
RTVSPost2010PropOp57
 70
     1
  0
XRECORD
  5
2E5
102
{ACAD_REACTORS
330
2E4
102
}
330
2E4
100
AcDbXrecord
280
     1
102
RTVSPropertyOp0
 70
     1
102
RTVSPropertyOp1
 70
     1
102
RTVSPropertyOp2
 70
     1
102
RTVSPropertyOp3
 70
     1
102
RTVSPropertyOp4
 70
     1
102
RTVSPropertyOp5
 70
     1
102
RTVSPropertyOp6
 70
     1
102
RTVSPropertyOp7
 70
     1
102
RTVSPropertyOp8
 70
     1
102
RTVSPropertyOp9
 70
     1
102
RTVSPropertyOp10
 70
     1
102
RTVSPropertyOp11
 70
     1
102
RTVSPropertyOp12
 70
     1
102
RTVSPropertyOp13
 70
     1
102
RTVSPropertyOp14
 70
     1
102
RTVSPropertyOp15
 70
     1
102
RTVSPropertyOp16
 70
     1
102
RTVSPropertyOp17
 70
     1
102
RTVSPropertyOp18
 70
     1
102
RTVSPropertyOp19
 70
     1
102
RTVSPropertyOp20
 70
     1
102
RTVSPropertyOp21
 70
     1
102
RTVSPropertyOp22
 70
     1
102
RTVSPropertyOp23
 70
     1
102
RTVSPropertyOp24
 70
     1
102
RTVSPropertyOp25
 70
     1
102
RTVSPropertyOp26
 70
     1
102
RTVSPropertyOp27
 70
     1
102
RTVSPropertyOp28
 70
     1
102
RTVSPropertyOp29
 70
     1
102
RTVSPropertyOp30
 70
     1
102
RTVSPropertyOp31
 70
     1
102
RTVSPropertyOp32
 70
     1
102
RTVSPropertyOp33
 70
     1
102
RTVSPropertyOp34
 70
     1
102
RTVSPropertyOp35
 70
     1
102
RTVSPropertyOp36
 70
     1
102
RTVSPropertyOp37
 70
     1
102
RTVSPropertyOp38
 70
     1
102
RTVSPropertyOp39
 70
     1
102
RTVSPropertyOp40
 70
     1
102
RTVSPropertyOp41
 70
     1
102
RTVSPropertyOp42
 70
     1
102
RTVSPropertyOp43
 70
     1
102
RTVSPropertyOp44
 70
     1
102
RTVSPropertyOp45
 70
     1
102
RTVSPropertyOp46
 70
     1
102
RTVSPropertyOp47
 70
     1
102
RTVSPropertyOp48
 70
     1
102
RTVSPropertyOp49
 70
     1
102
RTVSPropertyOp50
 70
     1
102
RTVSPropertyOp51
 70
     0
102
RTVSPropertyOp52
 70
     0
102
RTVSPropertyOp53
 70
     1
102
RTVSPropertyOp54
 70
     1
102
RTVSPropertyOp55
 70
     1
102
RTVSPropertyOp56
 70
     1
102
RTVSPropertyOp57
 70
     1
102
RTVSPost2010Prop28
280
     0
102
RTVSPost2010PropOp28
 70
     1
102
RTVSPost2010Prop29
280
     1
102
RTVSPost2010PropOp29
 70
     1
102
RTVSPost2010Prop30
280
     1
102
RTVSPost2010PropOp30
 70
     1
102
RTVSPost2010Prop31
280
     0
102
RTVSPost2010PropOp31
 70
     1
102
RTVSPost2010Prop32
280
     0
102
RTVSPost2010PropOp32
 70
     1
102
RTVSPost2010Prop33
280
     0
102
RTVSPost2010PropOp33
 70
     1
102
RTVSPost2010Prop34
280
     0
102
RTVSPost2010PropOp34
 70
     1
102
RTVSPost2010Prop35
280
     0
102
RTVSPost2010PropOp35
 70
     1
102
RTVSPost2010Prop36
280
     0
102
RTVSPost2010PropOp36
 70
     1
102
RTVSPost2010Prop37
 90
       50
102
RTVSPost2010PropOp37
 70
     1
102
RTVSPost2010Prop38
140
0.0
102
RTVSPost2010PropOp38
 70
     1
102
RTVSPost2010Prop39
140
1.0
102
RTVSPost2010PropOp39
 70
     1
102
RTVSPost2010Prop40
 90
        0
102
RTVSPost2010PropOp40
 70
     1
102
RTVSPost2010Prop41ColorIndex
 90
       18
102
RTVSPost2010Prop41ColorRGB
 90
        0
102
RTVSPost2010PropOp41
 70
     1
102
RTVSPost2010Prop42
 90
       50
102
RTVSPost2010PropOp42
 70
     1
102
RTVSPost2010Prop43
 90
        3
102
RTVSPost2010PropOp43
 70
     1
102
RTVSPost2010Prop44ColorIndex
 90
        5
102
RTVSPost2010Prop44ColorRGB
 90
      255
102
RTVSPost2010PropOp44
 70
     1
102
RTVSPost2010Prop45
280
     0
102
RTVSPost2010PropOp45
 70
     1
102
RTVSPost2010Prop46
 90
       50
102
RTVSPost2010PropOp46
 70
     1
102
RTVSPost2010Prop47
 90
       50
102
RTVSPost2010PropOp47
 70
     1
102
RTVSPost2010Prop48
 90
       50
102
RTVSPost2010PropOp48
 70
     1
102
RTVSPost2010Prop49
280
     0
102
RTVSPost2010PropOp49
 70
     1
102
RTVSPost2010Prop50
 90
       50
102
RTVSPost2010PropOp50
 70
     1
102
RTVSPost2010Prop51ColorIndex
 90
      256
102
RTVSPost2010Prop51ColorRGB
 90
-16777216
102
RTVSPost2010PropOp51
 70
     0
102
RTVSPost2010Prop52
140
1.0
102
RTVSPost2010PropOp52
 70
     0
102
RTVSPost2010Prop53
 90
        2
102
RTVSPost2010PropOp53
 70
     1
102
RTVSPost2010Prop54
  1
strokes_ogs.tif
102
RTVSPost2010PropOp54
 70
     1
102
RTVSPost2010Prop55
280
     0
102
RTVSPost2010PropOp55
 70
     1
102
RTVSPost2010Prop56
140
1.0
102
RTVSPost2010PropOp56
 70
     1
102
RTVSPost2010Prop57
140
1.0
102
RTVSPost2010PropOp57
 70
     1
  0
XRECORD
  5
2F9
102
{ACAD_REACTORS
330
2F8
102
}
330
2F8
100
AcDbXrecord
280
     1
102
RTVSPropertyOp0
 70
     0
102
RTVSPropertyOp1
 70
     0
102
RTVSPropertyOp2
 70
     0
102
RTVSPropertyOp3
 70
     0
102
RTVSPropertyOp4
 70
     0
102
RTVSPropertyOp5
 70
     0
102
RTVSPropertyOp6
 70
     0
102
RTVSPropertyOp7
 70
     0
102
RTVSPropertyOp8
 70
     0
102
RTVSPropertyOp9
 70
     0
102
RTVSPropertyOp10
 70
     0
102
RTVSPropertyOp11
 70
     0
102
RTVSPropertyOp12
 70
     0
102
RTVSPropertyOp13
 70
     0
102
RTVSPropertyOp14
 70
     2
102
RTVSPropertyOp15
 70
     0
102
RTVSPropertyOp16
 70
     0
102
RTVSPropertyOp17
 70
     0
102
RTVSPropertyOp18
 70
     0
102
RTVSPropertyOp19
 70
     0
102
RTVSPropertyOp20
 70
     0
102
RTVSPropertyOp21
 70
     0
102
RTVSPropertyOp22
 70
     0
102
RTVSPropertyOp23
 70
     0
102
RTVSPropertyOp24
 70
     0
102
RTVSPropertyOp25
 70
     0
102
RTVSPropertyOp26
 70
     0
102
RTVSPropertyOp27
 70
     0
102
RTVSPropertyOp28
 70
     0
102
RTVSPropertyOp29
 70
     0
102
RTVSPropertyOp30
 70
     0
102
RTVSPropertyOp31
 70
     0
102
RTVSPropertyOp32
 70
     0
102
RTVSPropertyOp33
 70
     0
102
RTVSPropertyOp34
 70
     0
102
RTVSPropertyOp35
 70
     0
102
RTVSPropertyOp36
 70
     0
102
RTVSPropertyOp37
 70
     0
102
RTVSPropertyOp38
 70
     0
102
RTVSPropertyOp39
 70
     0
102
RTVSPropertyOp40
 70
     0
102
RTVSPropertyOp41
 70
     0
102
RTVSPropertyOp42
 70
     0
102
RTVSPropertyOp43
 70
     0
102
RTVSPropertyOp44
 70
     0
102
RTVSPropertyOp45
 70
     0
102
RTVSPropertyOp46
 70
     0
102
RTVSPropertyOp47
 70
     0
102
RTVSPropertyOp48
 70
     0
102
RTVSPropertyOp49
 70
     0
102
RTVSPropertyOp50
 70
     0
102
RTVSPropertyOp51
 70
     0
102
RTVSPropertyOp52
 70
     0
102
RTVSPropertyOp53
 70
     0
102
RTVSPropertyOp54
 70
     0
102
RTVSPropertyOp55
 70
     0
102
RTVSPropertyOp56
 70
     0
102
RTVSPropertyOp57
 70
     0
102
RTVSPost2010Prop28
280
     0
102
RTVSPost2010PropOp28
 70
     0
102
RTVSPost2010Prop29
280
     1
102
RTVSPost2010PropOp29
 70
     0
102
RTVSPost2010Prop30
280
     1
102
RTVSPost2010PropOp30
 70
     0
102
RTVSPost2010Prop31
280
     0
102
RTVSPost2010PropOp31
 70
     0
102
RTVSPost2010Prop32
280
     0
102
RTVSPost2010PropOp32
 70
     0
102
RTVSPost2010Prop33
280
     0
102
RTVSPost2010PropOp33
 70
     0
102
RTVSPost2010Prop34
280
     0
102
RTVSPost2010PropOp34
 70
     0
102
RTVSPost2010Prop35
280
     0
102
RTVSPost2010PropOp35
 70
     0
102
RTVSPost2010Prop36
280
     0
102
RTVSPost2010PropOp36
 70
     0
102
RTVSPost2010Prop37
 90
       50
102
RTVSPost2010PropOp37
 70
     0
102
RTVSPost2010Prop38
140
0.0
102
RTVSPost2010PropOp38
 70
     0
102
RTVSPost2010Prop39
140
1.0
102
RTVSPost2010PropOp39
 70
     0
102
RTVSPost2010Prop40
 90
        0
102
RTVSPost2010PropOp40
 70
     0
102
RTVSPost2010Prop41ColorIndex
 90
       18
102
RTVSPost2010Prop41ColorRGB
 90
        0
102
RTVSPost2010PropOp41
 70
     0
102
RTVSPost2010Prop42
 90
       50
102
RTVSPost2010PropOp42
 70
     0
102
RTVSPost2010Prop43
 90
        3
102
RTVSPost2010PropOp43
 70
     0
102
RTVSPost2010Prop44ColorIndex
 90
        5
102
RTVSPost2010Prop44ColorRGB
 90
      255
102
RTVSPost2010PropOp44
 70
     0
102
RTVSPost2010Prop45
280
     0
102
RTVSPost2010PropOp45
 70
     0
102
RTVSPost2010Prop46
 90
       50
102
RTVSPost2010PropOp46
 70
     0
102
RTVSPost2010Prop47
 90
       50
102
RTVSPost2010PropOp47
 70
     0
102
RTVSPost2010Prop48
 90
       50
102
RTVSPost2010PropOp48
 70
     0
102
RTVSPost2010Prop49
280
     0
102
RTVSPost2010PropOp49
 70
     0
102
RTVSPost2010Prop50
 90
       50
102
RTVSPost2010PropOp50
 70
     0
102
RTVSPost2010Prop51ColorIndex
 90
      256
102
RTVSPost2010Prop51ColorRGB
 90
-16777216
102
RTVSPost2010PropOp51
 70
     0
102
RTVSPost2010Prop52
140
1.0
102
RTVSPost2010PropOp52
 70
     0
102
RTVSPost2010Prop53
 90
        2
102
RTVSPost2010PropOp53
 70
     0
102
RTVSPost2010Prop54
  1
strokes_ogs.tif
102
RTVSPost2010PropOp54
 70
     0
102
RTVSPost2010Prop55
280
     0
102
RTVSPost2010PropOp55
 70
     0
102
RTVSPost2010Prop56
140
1.0
102
RTVSPost2010PropOp56
 70
     0
102
RTVSPost2010Prop57
140
1.0
102
RTVSPost2010PropOp57
 70
     0
  0
XRECORD
  5
2F3
102
{ACAD_REACTORS
330
2F2
102
}
330
2F2
100
AcDbXrecord
280
     1
102
RTVSPropertyOp0
 70
     1
102
RTVSPropertyOp1
 70
     1
102
RTVSPropertyOp2
 70
     1
102
RTVSPropertyOp3
 70
     1
102
RTVSPropertyOp4
 70
     1
102
RTVSPropertyOp5
 70
     1
102
RTVSPropertyOp6
 70
     1
102
RTVSPropertyOp7
 70
     1
102
RTVSPropertyOp8
 70
     1
102
RTVSPropertyOp9
 70
     1
102
RTVSPropertyOp10
 70
     1
102
RTVSPropertyOp11
 70
     1
102
RTVSPropertyOp12
 70
     1
102
RTVSPropertyOp13
 70
     1
102
RTVSPropertyOp14
 70
     1
102
RTVSPropertyOp15
 70
     1
102
RTVSPropertyOp16
 70
     1
102
RTVSPropertyOp17
 70
     1
102
RTVSPropertyOp18
 70
     1
102
RTVSPropertyOp19
 70
     1
102
RTVSPropertyOp20
 70
     1
102
RTVSPropertyOp21
 70
     1
102
RTVSPropertyOp22
 70
     1
102
RTVSPropertyOp23
 70
     1
102
RTVSPropertyOp24
 70
     1
102
RTVSPropertyOp25
 70
     1
102
RTVSPropertyOp26
 70
     1
102
RTVSPropertyOp27
 70
     1
102
RTVSPropertyOp28
 70
     1
102
RTVSPropertyOp29
 70
     1
102
RTVSPropertyOp30
 70
     1
102
RTVSPropertyOp31
 70
     1
102
RTVSPropertyOp32
 70
     1
102
RTVSPropertyOp33
 70
     1
102
RTVSPropertyOp34
 70
     1
102
RTVSPropertyOp35
 70
     1
102
RTVSPropertyOp36
 70
     1
102
RTVSPropertyOp37
 70
     1
102
RTVSPropertyOp38
 70
     1
102
RTVSPropertyOp39
 70
     1
102
RTVSPropertyOp40
 70
     1
102
RTVSPropertyOp41
 70
     1
102
RTVSPropertyOp42
 70
     1
102
RTVSPropertyOp43
 70
     1
102
RTVSPropertyOp44
 70
     1
102
RTVSPropertyOp45
 70
     1
102
RTVSPropertyOp46
 70
     1
102
RTVSPropertyOp47
 70
     1
102
RTVSPropertyOp48
 70
     1
102
RTVSPropertyOp49
 70
     1
102
RTVSPropertyOp50
 70
     1
102
RTVSPropertyOp51
 70
     0
102
RTVSPropertyOp52
 70
     0
102
RTVSPropertyOp53
 70
     1
102
RTVSPropertyOp54
 70
     1
102
RTVSPropertyOp55
 70
     1
102
RTVSPropertyOp56
 70
     1
102
RTVSPropertyOp57
 70
     1
102
RTVSPost2010Prop28
280
     0
102
RTVSPost2010PropOp28
 70
     1
102
RTVSPost2010Prop29
280
     1
102
RTVSPost2010PropOp29
 70
     1
102
RTVSPost2010Prop30
280
     1
102
RTVSPost2010PropOp30
 70
     1
102
RTVSPost2010Prop31
280
     0
102
RTVSPost2010PropOp31
 70
     1
102
RTVSPost2010Prop32
280
     0
102
RTVSPost2010PropOp32
 70
     1
102
RTVSPost2010Prop33
280
     0
102
RTVSPost2010PropOp33
 70
     1
102
RTVSPost2010Prop34
280
     0
102
RTVSPost2010PropOp34
 70
     1
102
RTVSPost2010Prop35
280
     0
102
RTVSPost2010PropOp35
 70
     1
102
RTVSPost2010Prop36
280
     0
102
RTVSPost2010PropOp36
 70
     1
102
RTVSPost2010Prop37
 90
       50
102
RTVSPost2010PropOp37
 70
     1
102
RTVSPost2010Prop38
140
0.0
102
RTVSPost2010PropOp38
 70
     1
102
RTVSPost2010Prop39
140
1.0
102
RTVSPost2010PropOp39
 70
     1
102
RTVSPost2010Prop40
 90
        0
102
RTVSPost2010PropOp40
 70
     1
102
RTVSPost2010Prop41ColorIndex
 90
       18
102
RTVSPost2010Prop41ColorRGB
 90
        0
102
RTVSPost2010PropOp41
 70
     1
102
RTVSPost2010Prop42
 90
       50
102
RTVSPost2010PropOp42
 70
     1
102
RTVSPost2010Prop43
 90
        3
102
RTVSPost2010PropOp43
 70
     1
102
RTVSPost2010Prop44ColorIndex
 90
        5
102
RTVSPost2010Prop44ColorRGB
 90
      255
102
RTVSPost2010PropOp44
 70
     1
102
RTVSPost2010Prop45
280
     0
102
RTVSPost2010PropOp45
 70
     1
102
RTVSPost2010Prop46
 90
       50
102
RTVSPost2010PropOp46
 70
     1
102
RTVSPost2010Prop47
 90
       50
102
RTVSPost2010PropOp47
 70
     1
102
RTVSPost2010Prop48
 90
       50
102
RTVSPost2010PropOp48
 70
     1
102
RTVSPost2010Prop49
280
     0
102
RTVSPost2010PropOp49
 70
     1
102
RTVSPost2010Prop50
 90
       50
102
RTVSPost2010PropOp50
 70
     1
102
RTVSPost2010Prop51ColorIndex
 90
      256
102
RTVSPost2010Prop51ColorRGB
 90
-16777216
102
RTVSPost2010PropOp51
 70
     0
102
RTVSPost2010Prop52
140
1.0
102
RTVSPost2010PropOp52
 70
     0
102
RTVSPost2010Prop53
 90
        2
102
RTVSPost2010PropOp53
 70
     1
102
RTVSPost2010Prop54
  1
strokes_ogs.tif
102
RTVSPost2010PropOp54
 70
     1
102
RTVSPost2010Prop55
280
     0
102
RTVSPost2010PropOp55
 70
     1
102
RTVSPost2010Prop56
140
1.0
102
RTVSPost2010PropOp56
 70
     1
102
RTVSPost2010Prop57
140
1.0
102
RTVSPost2010PropOp57
 70
     1
  0
XRECORD
  5
2FB
102
{ACAD_REACTORS
330
2FA
102
}
330
2FA
100
AcDbXrecord
280
     1
102
RTVSPropertyOp0
 70
     0
102
RTVSPropertyOp1
 70
     0
102
RTVSPropertyOp2
 70
     0
102
RTVSPropertyOp3
 70
     0
102
RTVSPropertyOp4
 70
     0
102
RTVSPropertyOp5
 70
     0
102
RTVSPropertyOp6
 70
     0
102
RTVSPropertyOp7
 70
     0
102
RTVSPropertyOp8
 70
     0
102
RTVSPropertyOp9
 70
     0
102
RTVSPropertyOp10
 70
     0
102
RTVSPropertyOp11
 70
     0
102
RTVSPropertyOp12
 70
     0
102
RTVSPropertyOp13
 70
     0
102
RTVSPropertyOp14
 70
     2
102
RTVSPropertyOp15
 70
     0
102
RTVSPropertyOp16
 70
     0
102
RTVSPropertyOp17
 70
     0
102
RTVSPropertyOp18
 70
     0
102
RTVSPropertyOp19
 70
     0
102
RTVSPropertyOp20
 70
     0
102
RTVSPropertyOp21
 70
     0
102
RTVSPropertyOp22
 70
     0
102
RTVSPropertyOp23
 70
     0
102
RTVSPropertyOp24
 70
     0
102
RTVSPropertyOp25
 70
     0
102
RTVSPropertyOp26
 70
     0
102
RTVSPropertyOp27
 70
     0
102
RTVSPropertyOp28
 70
     0
102
RTVSPropertyOp29
 70
     0
102
RTVSPropertyOp30
 70
     0
102
RTVSPropertyOp31
 70
     0
102
RTVSPropertyOp32
 70
     0
102
RTVSPropertyOp33
 70
     0
102
RTVSPropertyOp34
 70
     0
102
RTVSPropertyOp35
 70
     0
102
RTVSPropertyOp36
 70
     0
102
RTVSPropertyOp37
 70
     0
102
RTVSPropertyOp38
 70
     0
102
RTVSPropertyOp39
 70
     0
102
RTVSPropertyOp40
 70
     0
102
RTVSPropertyOp41
 70
     0
102
RTVSPropertyOp42
 70
     0
102
RTVSPropertyOp43
 70
     0
102
RTVSPropertyOp44
 70
     0
102
RTVSPropertyOp45
 70
     0
102
RTVSPropertyOp46
 70
     0
102
RTVSPropertyOp47
 70
     0
102
RTVSPropertyOp48
 70
     0
102
RTVSPropertyOp49
 70
     0
102
RTVSPropertyOp50
 70
     0
102
RTVSPropertyOp51
 70
     0
102
RTVSPropertyOp52
 70
     0
102
RTVSPropertyOp53
 70
     0
102
RTVSPropertyOp54
 70
     0
102
RTVSPropertyOp55
 70
     0
102
RTVSPropertyOp56
 70
     0
102
RTVSPropertyOp57
 70
     0
102
RTVSPost2010Prop28
280
     0
102
RTVSPost2010PropOp28
 70
     0
102
RTVSPost2010Prop29
280
     1
102
RTVSPost2010PropOp29
 70
     0
102
RTVSPost2010Prop30
280
     1
102
RTVSPost2010PropOp30
 70
     0
102
RTVSPost2010Prop31
280
     0
102
RTVSPost2010PropOp31
 70
     0
102
RTVSPost2010Prop32
280
     0
102
RTVSPost2010PropOp32
 70
     0
102
RTVSPost2010Prop33
280
     0
102
RTVSPost2010PropOp33
 70
     0
102
RTVSPost2010Prop34
280
     0
102
RTVSPost2010PropOp34
 70
     0
102
RTVSPost2010Prop35
280
     0
102
RTVSPost2010PropOp35
 70
     0
102
RTVSPost2010Prop36
280
     0
102
RTVSPost2010PropOp36
 70
     0
102
RTVSPost2010Prop37
 90
       50
102
RTVSPost2010PropOp37
 70
     0
102
RTVSPost2010Prop38
140
0.0
102
RTVSPost2010PropOp38
 70
     0
102
RTVSPost2010Prop39
140
1.0
102
RTVSPost2010PropOp39
 70
     0
102
RTVSPost2010Prop40
 90
        0
102
RTVSPost2010PropOp40
 70
     0
102
RTVSPost2010Prop41ColorIndex
 90
       18
102
RTVSPost2010Prop41ColorRGB
 90
        0
102
RTVSPost2010PropOp41
 70
     0
102
RTVSPost2010Prop42
 90
       50
102
RTVSPost2010PropOp42
 70
     0
102
RTVSPost2010Prop43
 90
        3
102
RTVSPost2010PropOp43
 70
     0
102
RTVSPost2010Prop44ColorIndex
 90
        5
102
RTVSPost2010Prop44ColorRGB
 90
      255
102
RTVSPost2010PropOp44
 70
     0
102
RTVSPost2010Prop45
280
     0
102
RTVSPost2010PropOp45
 70
     0
102
RTVSPost2010Prop46
 90
       50
102
RTVSPost2010PropOp46
 70
     0
102
RTVSPost2010Prop47
 90
       50
102
RTVSPost2010PropOp47
 70
     0
102
RTVSPost2010Prop48
 90
       50
102
RTVSPost2010PropOp48
 70
     0
102
RTVSPost2010Prop49
280
     0
102
RTVSPost2010PropOp49
 70
     0
102
RTVSPost2010Prop50
 90
       50
102
RTVSPost2010PropOp50
 70
     0
102
RTVSPost2010Prop51ColorIndex
 90
      256
102
RTVSPost2010Prop51ColorRGB
 90
-16777216
102
RTVSPost2010PropOp51
 70
     0
102
RTVSPost2010Prop52
140
1.0
102
RTVSPost2010PropOp52
 70
     0
102
RTVSPost2010Prop53
 90
        2
102
RTVSPost2010PropOp53
 70
     0
102
RTVSPost2010Prop54
  1
strokes_ogs.tif
102
RTVSPost2010PropOp54
 70
     0
102
RTVSPost2010Prop55
280
     0
102
RTVSPost2010PropOp55
 70
     0
102
RTVSPost2010Prop56
140
1.0
102
RTVSPost2010PropOp56
 70
     0
102
RTVSPost2010Prop57
140
1.0
102
RTVSPost2010PropOp57
 70
     0
  0
XRECORD
  5
2E9
102
{ACAD_REACTORS
330
2E8
102
}
330
2E8
100
AcDbXrecord
280
     1
102
RTVSPropertyOp0
 70
     1
102
RTVSPropertyOp1
 70
     1
102
RTVSPropertyOp2
 70
     1
102
RTVSPropertyOp3
 70
     1
102
RTVSPropertyOp4
 70
     1
102
RTVSPropertyOp5
 70
     1
102
RTVSPropertyOp6
 70
     1
102
RTVSPropertyOp7
 70
     1
102
RTVSPropertyOp8
 70
     1
102
RTVSPropertyOp9
 70
     1
102
RTVSPropertyOp10
 70
     1
102
RTVSPropertyOp11
 70
     1
102
RTVSPropertyOp12
 70
     1
102
RTVSPropertyOp13
 70
     1
102
RTVSPropertyOp14
 70
     1
102
RTVSPropertyOp15
 70
     1
102
RTVSPropertyOp16
 70
     1
102
RTVSPropertyOp17
 70
     1
102
RTVSPropertyOp18
 70
     1
102
RTVSPropertyOp19
 70
     1
102
RTVSPropertyOp20
 70
     1
102
RTVSPropertyOp21
 70
     1
102
RTVSPropertyOp22
 70
     1
102
RTVSPropertyOp23
 70
     1
102
RTVSPropertyOp24
 70
     1
102
RTVSPropertyOp25
 70
     1
102
RTVSPropertyOp26
 70
     1
102
RTVSPropertyOp27
 70
     1
102
RTVSPropertyOp28
 70
     1
102
RTVSPropertyOp29
 70
     1
102
RTVSPropertyOp30
 70
     1
102
RTVSPropertyOp31
 70
     1
102
RTVSPropertyOp32
 70
     1
102
RTVSPropertyOp33
 70
     1
102
RTVSPropertyOp34
 70
     1
102
RTVSPropertyOp35
 70
     1
102
RTVSPropertyOp36
 70
     1
102
RTVSPropertyOp37
 70
     1
102
RTVSPropertyOp38
 70
     1
102
RTVSPropertyOp39
 70
     1
102
RTVSPropertyOp40
 70
     1
102
RTVSPropertyOp41
 70
     1
102
RTVSPropertyOp42
 70
     1
102
RTVSPropertyOp43
 70
     1
102
RTVSPropertyOp44
 70
     1
102
RTVSPropertyOp45
 70
     1
102
RTVSPropertyOp46
 70
     1
102
RTVSPropertyOp47
 70
     1
102
RTVSPropertyOp48
 70
     1
102
RTVSPropertyOp49
 70
     1
102
RTVSPropertyOp50
 70
     1
102
RTVSPropertyOp51
 70
     0
102
RTVSPropertyOp52
 70
     0
102
RTVSPropertyOp53
 70
     1
102
RTVSPropertyOp54
 70
     1
102
RTVSPropertyOp55
 70
     1
102
RTVSPropertyOp56
 70
     1
102
RTVSPropertyOp57
 70
     1
102
RTVSPost2010Prop28
280
     0
102
RTVSPost2010PropOp28
 70
     1
102
RTVSPost2010Prop29
280
     1
102
RTVSPost2010PropOp29
 70
     1
102
RTVSPost2010Prop30
280
     1
102
RTVSPost2010PropOp30
 70
     1
102
RTVSPost2010Prop31
280
     0
102
RTVSPost2010PropOp31
 70
     1
102
RTVSPost2010Prop32
280
     0
102
RTVSPost2010PropOp32
 70
     1
102
RTVSPost2010Prop33
280
     0
102
RTVSPost2010PropOp33
 70
     1
102
RTVSPost2010Prop34
280
     0
102
RTVSPost2010PropOp34
 70
     1
102
RTVSPost2010Prop35
280
     0
102
RTVSPost2010PropOp35
 70
     1
102
RTVSPost2010Prop36
280
     0
102
RTVSPost2010PropOp36
 70
     1
102
RTVSPost2010Prop37
 90
       50
102
RTVSPost2010PropOp37
 70
     1
102
RTVSPost2010Prop38
140
0.0
102
RTVSPost2010PropOp38
 70
     1
102
RTVSPost2010Prop39
140
1.0
102
RTVSPost2010PropOp39
 70
     1
102
RTVSPost2010Prop40
 90
        0
102
RTVSPost2010PropOp40
 70
     1
102
RTVSPost2010Prop41ColorIndex
 90
       18
102
RTVSPost2010Prop41ColorRGB
 90
        0
102
RTVSPost2010PropOp41
 70
     1
102
RTVSPost2010Prop42
 90
       50
102
RTVSPost2010PropOp42
 70
     1
102
RTVSPost2010Prop43
 90
        3
102
RTVSPost2010PropOp43
 70
     1
102
RTVSPost2010Prop44ColorIndex
 90
        5
102
RTVSPost2010Prop44ColorRGB
 90
      255
102
RTVSPost2010PropOp44
 70
     1
102
RTVSPost2010Prop45
280
     0
102
RTVSPost2010PropOp45
 70
     1
102
RTVSPost2010Prop46
 90
       50
102
RTVSPost2010PropOp46
 70
     1
102
RTVSPost2010Prop47
 90
       50
102
RTVSPost2010PropOp47
 70
     1
102
RTVSPost2010Prop48
 90
       50
102
RTVSPost2010PropOp48
 70
     1
102
RTVSPost2010Prop49
280
     0
102
RTVSPost2010PropOp49
 70
     1
102
RTVSPost2010Prop50
 90
       50
102
RTVSPost2010PropOp50
 70
     1
102
RTVSPost2010Prop51ColorIndex
 90
      256
102
RTVSPost2010Prop51ColorRGB
 90
-16777216
102
RTVSPost2010PropOp51
 70
     0
102
RTVSPost2010Prop52
140
1.0
102
RTVSPost2010PropOp52
 70
     0
102
RTVSPost2010Prop53
 90
        2
102
RTVSPost2010PropOp53
 70
     1
102
RTVSPost2010Prop54
  1
strokes_ogs.tif
102
RTVSPost2010PropOp54
 70
     1
102
RTVSPost2010Prop55
280
     0
102
RTVSPost2010PropOp55
 70
     1
102
RTVSPost2010Prop56
140
1.0
102
RTVSPost2010PropOp56
 70
     1
102
RTVSPost2010Prop57
140
1.0
102
RTVSPost2010PropOp57
 70
     1
  0
XRECORD
  5
307
102
{ACAD_REACTORS
330
306
102
}
330
306
100
AcDbXrecord
280
     1
102
RTVSPropertyOp0
 70
     1
102
RTVSPropertyOp1
 70
     1
102
RTVSPropertyOp2
 70
     1
102
RTVSPropertyOp3
 70
     1
102
RTVSPropertyOp4
 70
     1
102
RTVSPropertyOp5
 70
     1
102
RTVSPropertyOp6
 70
     1
102
RTVSPropertyOp7
 70
     1
102
RTVSPropertyOp8
 70
     1
102
RTVSPropertyOp9
 70
     1
102
RTVSPropertyOp10
 70
     1
102
RTVSPropertyOp11
 70
     1
102
RTVSPropertyOp12
 70
     1
102
RTVSPropertyOp13
 70
     1
102
RTVSPropertyOp14
 70
     1
102
RTVSPropertyOp15
 70
     1
102
RTVSPropertyOp16
 70
     1
102
RTVSPropertyOp17
 70
     1
102
RTVSPropertyOp18
 70
     1
102
RTVSPropertyOp19
 70
     1
102
RTVSPropertyOp20
 70
     1
102
RTVSPropertyOp21
 70
     1
102
RTVSPropertyOp22
 70
     1
102
RTVSPropertyOp23
 70
     1
102
RTVSPropertyOp24
 70
     1
102
RTVSPropertyOp25
 70
     1
102
RTVSPropertyOp26
 70
     1
102
RTVSPropertyOp27
 70
     1
102
RTVSPropertyOp28
 70
     1
102
RTVSPropertyOp29
 70
     1
102
RTVSPropertyOp30
 70
     1
102
RTVSPropertyOp31
 70
     1
102
RTVSPropertyOp32
 70
     1
102
RTVSPropertyOp33
 70
     1
102
RTVSPropertyOp34
 70
     1
102
RTVSPropertyOp35
 70
     1
102
RTVSPropertyOp36
 70
     1
102
RTVSPropertyOp37
 70
     1
102
RTVSPropertyOp38
 70
     1
102
RTVSPropertyOp39
 70
     1
102
RTVSPropertyOp40
 70
     1
102
RTVSPropertyOp41
 70
     1
102
RTVSPropertyOp42
 70
     1
102
RTVSPropertyOp43
 70
     1
102
RTVSPropertyOp44
 70
     1
102
RTVSPropertyOp45
 70
     1
102
RTVSPropertyOp46
 70
     1
102
RTVSPropertyOp47
 70
     1
102
RTVSPropertyOp48
 70
     1
102
RTVSPropertyOp49
 70
     1
102
RTVSPropertyOp50
 70
     1
102
RTVSPropertyOp51
 70
     0
102
RTVSPropertyOp52
 70
     0
102
RTVSPropertyOp53
 70
     1
102
RTVSPropertyOp54
 70
     1
102
RTVSPropertyOp55
 70
     1
102
RTVSPropertyOp56
 70
     1
102
RTVSPropertyOp57
 70
     1
102
RTVSPost2010Prop28
280
     0
102
RTVSPost2010PropOp28
 70
     1
102
RTVSPost2010Prop29
280
     1
102
RTVSPost2010PropOp29
 70
     1
102
RTVSPost2010Prop30
280
     1
102
RTVSPost2010PropOp30
 70
     1
102
RTVSPost2010Prop31
280
     0
102
RTVSPost2010PropOp31
 70
     1
102
RTVSPost2010Prop32
280
     0
102
RTVSPost2010PropOp32
 70
     1
102
RTVSPost2010Prop33
280
     0
102
RTVSPost2010PropOp33
 70
     1
102
RTVSPost2010Prop34
280
     0
102
RTVSPost2010PropOp34
 70
     1
102
RTVSPost2010Prop35
280
     0
102
RTVSPost2010PropOp35
 70
     1
102
RTVSPost2010Prop36
280
     0
102
RTVSPost2010PropOp36
 70
     1
102
RTVSPost2010Prop37
 90
       50
102
RTVSPost2010PropOp37
 70
     1
102
RTVSPost2010Prop38
140
0.0
102
RTVSPost2010PropOp38
 70
     1
102
RTVSPost2010Prop39
140
1.0
102
RTVSPost2010PropOp39
 70
     1
102
RTVSPost2010Prop40
 90
        0
102
RTVSPost2010PropOp40
 70
     1
102
RTVSPost2010Prop41ColorIndex
 90
       18
102
RTVSPost2010Prop41ColorRGB
 90
        0
102
RTVSPost2010PropOp41
 70
     1
102
RTVSPost2010Prop42
 90
       50
102
RTVSPost2010PropOp42
 70
     1
102
RTVSPost2010Prop43
 90
        3
102
RTVSPost2010PropOp43
 70
     1
102
RTVSPost2010Prop44ColorIndex
 90
        5
102
RTVSPost2010Prop44ColorRGB
 90
      255
102
RTVSPost2010PropOp44
 70
     1
102
RTVSPost2010Prop45
280
     0
102
RTVSPost2010PropOp45
 70
     1
102
RTVSPost2010Prop46
 90
       50
102
RTVSPost2010PropOp46
 70
     1
102
RTVSPost2010Prop47
 90
       50
102
RTVSPost2010PropOp47
 70
     1
102
RTVSPost2010Prop48
 90
       50
102
RTVSPost2010PropOp48
 70
     1
102
RTVSPost2010Prop49
280
     0
102
RTVSPost2010PropOp49
 70
     1
102
RTVSPost2010Prop50
 90
       50
102
RTVSPost2010PropOp50
 70
     1
102
RTVSPost2010Prop51ColorIndex
 90
      256
102
RTVSPost2010Prop51ColorRGB
 90
-16777216
102
RTVSPost2010PropOp51
 70
     0
102
RTVSPost2010Prop52
140
1.0
102
RTVSPost2010PropOp52
 70
     0
102
RTVSPost2010Prop53
 90
        2
102
RTVSPost2010PropOp53
 70
     1
102
RTVSPost2010Prop54
  1
strokes_ogs.tif
102
RTVSPost2010PropOp54
 70
     1
102
RTVSPost2010Prop55
280
     0
102
RTVSPost2010PropOp55
 70
     1
102
RTVSPost2010Prop56
140
1.0
102
RTVSPost2010PropOp56
 70
     1
102
RTVSPost2010Prop57
140
1.0
102
RTVSPost2010PropOp57
 70
     1
  0
XRECORD
  5
305
102
{ACAD_REACTORS
330
304
102
}
330
304
100
AcDbXrecord
280
     1
102
RTVSPropertyOp0
 70
     1
102
RTVSPropertyOp1
 70
     1
102
RTVSPropertyOp2
 70
     1
102
RTVSPropertyOp3
 70
     1
102
RTVSPropertyOp4
 70
     1
102
RTVSPropertyOp5
 70
     1
102
RTVSPropertyOp6
 70
     1
102
RTVSPropertyOp7
 70
     1
102
RTVSPropertyOp8
 70
     1
102
RTVSPropertyOp9
 70
     1
102
RTVSPropertyOp10
 70
     1
102
RTVSPropertyOp11
 70
     1
102
RTVSPropertyOp12
 70
     1
102
RTVSPropertyOp13
 70
     1
102
RTVSPropertyOp14
 70
     1
102
RTVSPropertyOp15
 70
     1
102
RTVSPropertyOp16
 70
     1
102
RTVSPropertyOp17
 70
     1
102
RTVSPropertyOp18
 70
     1
102
RTVSPropertyOp19
 70
     1
102
RTVSPropertyOp20
 70
     1
102
RTVSPropertyOp21
 70
     1
102
RTVSPropertyOp22
 70
     1
102
RTVSPropertyOp23
 70
     1
102
RTVSPropertyOp24
 70
     1
102
RTVSPropertyOp25
 70
     1
102
RTVSPropertyOp26
 70
     1
102
RTVSPropertyOp27
 70
     1
102
RTVSPropertyOp28
 70
     1
102
RTVSPropertyOp29
 70
     1
102
RTVSPropertyOp30
 70
     1
102
RTVSPropertyOp31
 70
     1
102
RTVSPropertyOp32
 70
     1
102
RTVSPropertyOp33
 70
     1
102
RTVSPropertyOp34
 70
     1
102
RTVSPropertyOp35
 70
     1
102
RTVSPropertyOp36
 70
     1
102
RTVSPropertyOp37
 70
     1
102
RTVSPropertyOp38
 70
     1
102
RTVSPropertyOp39
 70
     1
102
RTVSPropertyOp40
 70
     1
102
RTVSPropertyOp41
 70
     1
102
RTVSPropertyOp42
 70
     1
102
RTVSPropertyOp43
 70
     1
102
RTVSPropertyOp44
 70
     1
102
RTVSPropertyOp45
 70
     1
102
RTVSPropertyOp46
 70
     1
102
RTVSPropertyOp47
 70
     1
102
RTVSPropertyOp48
 70
     1
102
RTVSPropertyOp49
 70
     1
102
RTVSPropertyOp50
 70
     1
102
RTVSPropertyOp51
 70
     0
102
RTVSPropertyOp52
 70
     0
102
RTVSPropertyOp53
 70
     1
102
RTVSPropertyOp54
 70
     1
102
RTVSPropertyOp55
 70
     1
102
RTVSPropertyOp56
 70
     1
102
RTVSPropertyOp57
 70
     1
102
RTVSPost2010Prop28
280
     0
102
RTVSPost2010PropOp28
 70
     1
102
RTVSPost2010Prop29
280
     1
102
RTVSPost2010PropOp29
 70
     1
102
RTVSPost2010Prop30
280
     1
102
RTVSPost2010PropOp30
 70
     1
102
RTVSPost2010Prop31
280
     0
102
RTVSPost2010PropOp31
 70
     1
102
RTVSPost2010Prop32
280
     0
102
RTVSPost2010PropOp32
 70
     1
102
RTVSPost2010Prop33
280
     0
102
RTVSPost2010PropOp33
 70
     1
102
RTVSPost2010Prop34
280
     0
102
RTVSPost2010PropOp34
 70
     1
102
RTVSPost2010Prop35
280
     0
102
RTVSPost2010PropOp35
 70
     1
102
RTVSPost2010Prop36
280
     0
102
RTVSPost2010PropOp36
 70
     1
102
RTVSPost2010Prop37
 90
       50
102
RTVSPost2010PropOp37
 70
     1
102
RTVSPost2010Prop38
140
0.0
102
RTVSPost2010PropOp38
 70
     1
102
RTVSPost2010Prop39
140
1.0
102
RTVSPost2010PropOp39
 70
     1
102
RTVSPost2010Prop40
 90
        0
102
RTVSPost2010PropOp40
 70
     1
102
RTVSPost2010Prop41ColorIndex
 90
       18
102
RTVSPost2010Prop41ColorRGB
 90
        0
102
RTVSPost2010PropOp41
 70
     1
102
RTVSPost2010Prop42
 90
       50
102
RTVSPost2010PropOp42
 70
     1
102
RTVSPost2010Prop43
 90
        3
102
RTVSPost2010PropOp43
 70
     1
102
RTVSPost2010Prop44ColorIndex
 90
        5
102
RTVSPost2010Prop44ColorRGB
 90
      255
102
RTVSPost2010PropOp44
 70
     1
102
RTVSPost2010Prop45
280
     0
102
RTVSPost2010PropOp45
 70
     1
102
RTVSPost2010Prop46
 90
       50
102
RTVSPost2010PropOp46
 70
     1
102
RTVSPost2010Prop47
 90
       50
102
RTVSPost2010PropOp47
 70
     1
102
RTVSPost2010Prop48
 90
       50
102
RTVSPost2010PropOp48
 70
     1
102
RTVSPost2010Prop49
280
     0
102
RTVSPost2010PropOp49
 70
     1
102
RTVSPost2010Prop50
 90
       50
102
RTVSPost2010PropOp50
 70
     1
102
RTVSPost2010Prop51ColorIndex
 90
      256
102
RTVSPost2010Prop51ColorRGB
 90
-16777216
102
RTVSPost2010PropOp51
 70
     0
102
RTVSPost2010Prop52
140
1.0
102
RTVSPost2010PropOp52
 70
     0
102
RTVSPost2010Prop53
 90
        2
102
RTVSPost2010PropOp53
 70
     1
102
RTVSPost2010Prop54
  1
strokes_ogs.tif
102
RTVSPost2010PropOp54
 70
     1
102
RTVSPost2010Prop55
280
     0
102
RTVSPost2010PropOp55
 70
     1
102
RTVSPost2010Prop56
140
1.0
102
RTVSPost2010PropOp56
 70
     1
102
RTVSPost2010Prop57
140
1.0
102
RTVSPost2010PropOp57
 70
     1
  0
XRECORD
  5
2FF
102
{ACAD_REACTORS
330
2FE
102
}
330
2FE
100
AcDbXrecord
280
     1
102
RTVSPropertyOp0
 70
     1
102
RTVSPropertyOp1
 70
     1
102
RTVSPropertyOp2
 70
     1
102
RTVSPropertyOp3
 70
     1
102
RTVSPropertyOp4
 70
     1
102
RTVSPropertyOp5
 70
     1
102
RTVSPropertyOp6
 70
     1
102
RTVSPropertyOp7
 70
     1
102
RTVSPropertyOp8
 70
     1
102
RTVSPropertyOp9
 70
     1
102
RTVSPropertyOp10
 70
     1
102
RTVSPropertyOp11
 70
     1
102
RTVSPropertyOp12
 70
     1
102
RTVSPropertyOp13
 70
     1
102
RTVSPropertyOp14
 70
     1
102
RTVSPropertyOp15
 70
     1
102
RTVSPropertyOp16
 70
     1
102
RTVSPropertyOp17
 70
     1
102
RTVSPropertyOp18
 70
     1
102
RTVSPropertyOp19
 70
     1
102
RTVSPropertyOp20
 70
     1
102
RTVSPropertyOp21
 70
     1
102
RTVSPropertyOp22
 70
     1
102
RTVSPropertyOp23
 70
     1
102
RTVSPropertyOp24
 70
     1
102
RTVSPropertyOp25
 70
     1
102
RTVSPropertyOp26
 70
     1
102
RTVSPropertyOp27
 70
     1
102
RTVSPropertyOp28
 70
     1
102
RTVSPropertyOp29
 70
     1
102
RTVSPropertyOp30
 70
     1
102
RTVSPropertyOp31
 70
     1
102
RTVSPropertyOp32
 70
     1
102
RTVSPropertyOp33
 70
     1
102
RTVSPropertyOp34
 70
     1
102
RTVSPropertyOp35
 70
     1
102
RTVSPropertyOp36
 70
     1
102
RTVSPropertyOp37
 70
     1
102
RTVSPropertyOp38
 70
     1
102
RTVSPropertyOp39
 70
     1
102
RTVSPropertyOp40
 70
     1
102
RTVSPropertyOp41
 70
     1
102
RTVSPropertyOp42
 70
     1
102
RTVSPropertyOp43
 70
     1
102
RTVSPropertyOp44
 70
     1
102
RTVSPropertyOp45
 70
     1
102
RTVSPropertyOp46
 70
     1
102
RTVSPropertyOp47
 70
     1
102
RTVSPropertyOp48
 70
     1
102
RTVSPropertyOp49
 70
     1
102
RTVSPropertyOp50
 70
     1
102
RTVSPropertyOp51
 70
     0
102
RTVSPropertyOp52
 70
     0
102
RTVSPropertyOp53
 70
     1
102
RTVSPropertyOp54
 70
     1
102
RTVSPropertyOp55
 70
     1
102
RTVSPropertyOp56
 70
     1
102
RTVSPropertyOp57
 70
     1
102
RTVSPost2010Prop28
280
     0
102
RTVSPost2010PropOp28
 70
     1
102
RTVSPost2010Prop29
280
     1
102
RTVSPost2010PropOp29
 70
     1
102
RTVSPost2010Prop30
280
     1
102
RTVSPost2010PropOp30
 70
     1
102
RTVSPost2010Prop31
280
     0
102
RTVSPost2010PropOp31
 70
     1
102
RTVSPost2010Prop32
280
     0
102
RTVSPost2010PropOp32
 70
     1
102
RTVSPost2010Prop33
280
     0
102
RTVSPost2010PropOp33
 70
     1
102
RTVSPost2010Prop34
280
     0
102
RTVSPost2010PropOp34
 70
     1
102
RTVSPost2010Prop35
280
     0
102
RTVSPost2010PropOp35
 70
     1
102
RTVSPost2010Prop36
280
     0
102
RTVSPost2010PropOp36
 70
     1
102
RTVSPost2010Prop37
 90
       50
102
RTVSPost2010PropOp37
 70
     1
102
RTVSPost2010Prop38
140
0.0
102
RTVSPost2010PropOp38
 70
     1
102
RTVSPost2010Prop39
140
1.0
102
RTVSPost2010PropOp39
 70
     1
102
RTVSPost2010Prop40
 90
        0
102
RTVSPost2010PropOp40
 70
     1
102
RTVSPost2010Prop41ColorIndex
 90
       18
102
RTVSPost2010Prop41ColorRGB
 90
        0
102
RTVSPost2010PropOp41
 70
     1
102
RTVSPost2010Prop42
 90
       50
102
RTVSPost2010PropOp42
 70
     1
102
RTVSPost2010Prop43
 90
        3
102
RTVSPost2010PropOp43
 70
     1
102
RTVSPost2010Prop44ColorIndex
 90
        5
102
RTVSPost2010Prop44ColorRGB
 90
      255
102
RTVSPost2010PropOp44
 70
     1
102
RTVSPost2010Prop45
280
     0
102
RTVSPost2010PropOp45
 70
     1
102
RTVSPost2010Prop46
 90
       50
102
RTVSPost2010PropOp46
 70
     1
102
RTVSPost2010Prop47
 90
       50
102
RTVSPost2010PropOp47
 70
     1
102
RTVSPost2010Prop48
 90
       50
102
RTVSPost2010PropOp48
 70
     1
102
RTVSPost2010Prop49
280
     0
102
RTVSPost2010PropOp49
 70
     1
102
RTVSPost2010Prop50
 90
       50
102
RTVSPost2010PropOp50
 70
     1
102
RTVSPost2010Prop51ColorIndex
 90
      256
102
RTVSPost2010Prop51ColorRGB
 90
-16777216
102
RTVSPost2010PropOp51
 70
     0
102
RTVSPost2010Prop52
140
1.0
102
RTVSPost2010PropOp52
 70
     0
102
RTVSPost2010Prop53
 90
        2
102
RTVSPost2010PropOp53
 70
     1
102
RTVSPost2010Prop54
  1
strokes_ogs.tif
102
RTVSPost2010PropOp54
 70
     1
102
RTVSPost2010Prop55
280
     0
102
RTVSPost2010PropOp55
 70
     1
102
RTVSPost2010Prop56
140
1.0
102
RTVSPost2010PropOp56
 70
     1
102
RTVSPost2010Prop57
140
1.0
102
RTVSPost2010PropOp57
 70
     1
  0
XRECORD
  5
301
102
{ACAD_REACTORS
330
300
102
}
330
300
100
AcDbXrecord
280
     1
102
RTVSPropertyOp0
 70
     1
102
RTVSPropertyOp1
 70
     1
102
RTVSPropertyOp2
 70
     1
102
RTVSPropertyOp3
 70
     1
102
RTVSPropertyOp4
 70
     1
102
RTVSPropertyOp5
 70
     1
102
RTVSPropertyOp6
 70
     1
102
RTVSPropertyOp7
 70
     1
102
RTVSPropertyOp8
 70
     1
102
RTVSPropertyOp9
 70
     1
102
RTVSPropertyOp10
 70
     1
102
RTVSPropertyOp11
 70
     1
102
RTVSPropertyOp12
 70
     1
102
RTVSPropertyOp13
 70
     1
102
RTVSPropertyOp14
 70
     1
102
RTVSPropertyOp15
 70
     1
102
RTVSPropertyOp16
 70
     1
102
RTVSPropertyOp17
 70
     1
102
RTVSPropertyOp18
 70
     1
102
RTVSPropertyOp19
 70
     1
102
RTVSPropertyOp20
 70
     1
102
RTVSPropertyOp21
 70
     1
102
RTVSPropertyOp22
 70
     1
102
RTVSPropertyOp23
 70
     1
102
RTVSPropertyOp24
 70
     1
102
RTVSPropertyOp25
 70
     1
102
RTVSPropertyOp26
 70
     1
102
RTVSPropertyOp27
 70
     1
102
RTVSPropertyOp28
 70
     1
102
RTVSPropertyOp29
 70
     1
102
RTVSPropertyOp30
 70
     1
102
RTVSPropertyOp31
 70
     1
102
RTVSPropertyOp32
 70
     1
102
RTVSPropertyOp33
 70
     1
102
RTVSPropertyOp34
 70
     1
102
RTVSPropertyOp35
 70
     1
102
RTVSPropertyOp36
 70
     1
102
RTVSPropertyOp37
 70
     1
102
RTVSPropertyOp38
 70
     1
102
RTVSPropertyOp39
 70
     1
102
RTVSPropertyOp40
 70
     1
102
RTVSPropertyOp41
 70
     1
102
RTVSPropertyOp42
 70
     1
102
RTVSPropertyOp43
 70
     1
102
RTVSPropertyOp44
 70
     1
102
RTVSPropertyOp45
 70
     1
102
RTVSPropertyOp46
 70
     1
102
RTVSPropertyOp47
 70
     1
102
RTVSPropertyOp48
 70
     1
102
RTVSPropertyOp49
 70
     1
102
RTVSPropertyOp50
 70
     1
102
RTVSPropertyOp51
 70
     0
102
RTVSPropertyOp52
 70
     0
102
RTVSPropertyOp53
 70
     1
102
RTVSPropertyOp54
 70
     1
102
RTVSPropertyOp55
 70
     1
102
RTVSPropertyOp56
 70
     1
102
RTVSPropertyOp57
 70
     1
102
RTVSPost2010Prop28
280
     0
102
RTVSPost2010PropOp28
 70
     1
102
RTVSPost2010Prop29
280
     1
102
RTVSPost2010PropOp29
 70
     1
102
RTVSPost2010Prop30
280
     1
102
RTVSPost2010PropOp30
 70
     1
102
RTVSPost2010Prop31
280
     0
102
RTVSPost2010PropOp31
 70
     1
102
RTVSPost2010Prop32
280
     0
102
RTVSPost2010PropOp32
 70
     1
102
RTVSPost2010Prop33
280
     0
102
RTVSPost2010PropOp33
 70
     1
102
RTVSPost2010Prop34
280
     0
102
RTVSPost2010PropOp34
 70
     1
102
RTVSPost2010Prop35
280
     0
102
RTVSPost2010PropOp35
 70
     1
102
RTVSPost2010Prop36
280
     0
102
RTVSPost2010PropOp36
 70
     1
102
RTVSPost2010Prop37
 90
       50
102
RTVSPost2010PropOp37
 70
     1
102
RTVSPost2010Prop38
140
0.0
102
RTVSPost2010PropOp38
 70
     1
102
RTVSPost2010Prop39
140
1.0
102
RTVSPost2010PropOp39
 70
     1
102
RTVSPost2010Prop40
 90
        0
102
RTVSPost2010PropOp40
 70
     1
102
RTVSPost2010Prop41ColorIndex
 90
       18
102
RTVSPost2010Prop41ColorRGB
 90
        0
102
RTVSPost2010PropOp41
 70
     1
102
RTVSPost2010Prop42
 90
       50
102
RTVSPost2010PropOp42
 70
     1
102
RTVSPost2010Prop43
 90
        3
102
RTVSPost2010PropOp43
 70
     1
102
RTVSPost2010Prop44ColorIndex
 90
        5
102
RTVSPost2010Prop44ColorRGB
 90
      255
102
RTVSPost2010PropOp44
 70
     1
102
RTVSPost2010Prop45
280
     0
102
RTVSPost2010PropOp45
 70
     1
102
RTVSPost2010Prop46
 90
       50
102
RTVSPost2010PropOp46
 70
     1
102
RTVSPost2010Prop47
 90
       50
102
RTVSPost2010PropOp47
 70
     1
102
RTVSPost2010Prop48
 90
       50
102
RTVSPost2010PropOp48
 70
     1
102
RTVSPost2010Prop49
280
     0
102
RTVSPost2010PropOp49
 70
     1
102
RTVSPost2010Prop50
 90
       50
102
RTVSPost2010PropOp50
 70
     1
102
RTVSPost2010Prop51ColorIndex
 90
      256
102
RTVSPost2010Prop51ColorRGB
 90
-16777216
102
RTVSPost2010PropOp51
 70
     0
102
RTVSPost2010Prop52
140
1.0
102
RTVSPost2010PropOp52
 70
     0
102
RTVSPost2010Prop53
 90
        2
102
RTVSPost2010PropOp53
 70
     1
102
RTVSPost2010Prop54
  1
strokes_ogs.tif
102
RTVSPost2010PropOp54
 70
     1
102
RTVSPost2010Prop55
280
     0
102
RTVSPost2010PropOp55
 70
     1
102
RTVSPost2010Prop56
140
1.0
102
RTVSPost2010PropOp56
 70
     1
102
RTVSPost2010Prop57
140
1.0
102
RTVSPost2010PropOp57
 70
     1
  0
XRECORD
  5
2F1
102
{ACAD_REACTORS
330
2F0
102
}
330
2F0
100
AcDbXrecord
280
     1
102
RTVSPropertyOp0
 70
     1
102
RTVSPropertyOp1
 70
     1
102
RTVSPropertyOp2
 70
     1
102
RTVSPropertyOp3
 70
     1
102
RTVSPropertyOp4
 70
     1
102
RTVSPropertyOp5
 70
     1
102
RTVSPropertyOp6
 70
     1
102
RTVSPropertyOp7
 70
     1
102
RTVSPropertyOp8
 70
     1
102
RTVSPropertyOp9
 70
     1
102
RTVSPropertyOp10
 70
     1
102
RTVSPropertyOp11
 70
     1
102
RTVSPropertyOp12
 70
     1
102
RTVSPropertyOp13
 70
     1
102
RTVSPropertyOp14
 70
     1
102
RTVSPropertyOp15
 70
     1
102
RTVSPropertyOp16
 70
     1
102
RTVSPropertyOp17
 70
     1
102
RTVSPropertyOp18
 70
     1
102
RTVSPropertyOp19
 70
     1
102
RTVSPropertyOp20
 70
     1
102
RTVSPropertyOp21
 70
     1
102
RTVSPropertyOp22
 70
     1
102
RTVSPropertyOp23
 70
     1
102
RTVSPropertyOp24
 70
     1
102
RTVSPropertyOp25
 70
     1
102
RTVSPropertyOp26
 70
     1
102
RTVSPropertyOp27
 70
     1
102
RTVSPropertyOp28
 70
     1
102
RTVSPropertyOp29
 70
     1
102
RTVSPropertyOp30
 70
     1
102
RTVSPropertyOp31
 70
     1
102
RTVSPropertyOp32
 70
     1
102
RTVSPropertyOp33
 70
     1
102
RTVSPropertyOp34
 70
     1
102
RTVSPropertyOp35
 70
     1
102
RTVSPropertyOp36
 70
     1
102
RTVSPropertyOp37
 70
     1
102
RTVSPropertyOp38
 70
     1
102
RTVSPropertyOp39
 70
     1
102
RTVSPropertyOp40
 70
     1
102
RTVSPropertyOp41
 70
     1
102
RTVSPropertyOp42
 70
     1
102
RTVSPropertyOp43
 70
     1
102
RTVSPropertyOp44
 70
     1
102
RTVSPropertyOp45
 70
     1
102
RTVSPropertyOp46
 70
     1
102
RTVSPropertyOp47
 70
     1
102
RTVSPropertyOp48
 70
     1
102
RTVSPropertyOp49
 70
     1
102
RTVSPropertyOp50
 70
     1
102
RTVSPropertyOp51
 70
     0
102
RTVSPropertyOp52
 70
     0
102
RTVSPropertyOp53
 70
     1
102
RTVSPropertyOp54
 70
     1
102
RTVSPropertyOp55
 70
     1
102
RTVSPropertyOp56
 70
     1
102
RTVSPropertyOp57
 70
     1
102
RTVSPost2010Prop28
280
     0
102
RTVSPost2010PropOp28
 70
     1
102
RTVSPost2010Prop29
280
     1
102
RTVSPost2010PropOp29
 70
     1
102
RTVSPost2010Prop30
280
     1
102
RTVSPost2010PropOp30
 70
     1
102
RTVSPost2010Prop31
280
     0
102
RTVSPost2010PropOp31
 70
     1
102
RTVSPost2010Prop32
280
     0
102
RTVSPost2010PropOp32
 70
     1
102
RTVSPost2010Prop33
280
     0
102
RTVSPost2010PropOp33
 70
     1
102
RTVSPost2010Prop34
280
     0
102
RTVSPost2010PropOp34
 70
     1
102
RTVSPost2010Prop35
280
     0
102
RTVSPost2010PropOp35
 70
     1
102
RTVSPost2010Prop36
280
     0
102
RTVSPost2010PropOp36
 70
     1
102
RTVSPost2010Prop37
 90
       50
102
RTVSPost2010PropOp37
 70
     1
102
RTVSPost2010Prop38
140
0.0
102
RTVSPost2010PropOp38
 70
     1
102
RTVSPost2010Prop39
140
1.0
102
RTVSPost2010PropOp39
 70
     1
102
RTVSPost2010Prop40
 90
        0
102
RTVSPost2010PropOp40
 70
     1
102
RTVSPost2010Prop41ColorIndex
 90
       18
102
RTVSPost2010Prop41ColorRGB
 90
        0
102
RTVSPost2010PropOp41
 70
     1
102
RTVSPost2010Prop42
 90
       50
102
RTVSPost2010PropOp42
 70
     1
102
RTVSPost2010Prop43
 90
        3
102
RTVSPost2010PropOp43
 70
     1
102
RTVSPost2010Prop44ColorIndex
 90
        5
102
RTVSPost2010Prop44ColorRGB
 90
      255
102
RTVSPost2010PropOp44
 70
     1
102
RTVSPost2010Prop45
280
     0
102
RTVSPost2010PropOp45
 70
     1
102
RTVSPost2010Prop46
 90
       50
102
RTVSPost2010PropOp46
 70
     1
102
RTVSPost2010Prop47
 90
       50
102
RTVSPost2010PropOp47
 70
     1
102
RTVSPost2010Prop48
 90
       50
102
RTVSPost2010PropOp48
 70
     1
102
RTVSPost2010Prop49
280
     0
102
RTVSPost2010PropOp49
 70
     1
102
RTVSPost2010Prop50
 90
       50
102
RTVSPost2010PropOp50
 70
     1
102
RTVSPost2010Prop51ColorIndex
 90
      256
102
RTVSPost2010Prop51ColorRGB
 90
-16777216
102
RTVSPost2010PropOp51
 70
     0
102
RTVSPost2010Prop52
140
1.0
102
RTVSPost2010PropOp52
 70
     0
102
RTVSPost2010Prop53
 90
        2
102
RTVSPost2010PropOp53
 70
     1
102
RTVSPost2010Prop54
  1
strokes_ogs.tif
102
RTVSPost2010PropOp54
 70
     1
102
RTVSPost2010Prop55
280
     0
102
RTVSPost2010PropOp55
 70
     1
102
RTVSPost2010Prop56
140
1.0
102
RTVSPost2010PropOp56
 70
     1
102
RTVSPost2010Prop57
140
1.0
102
RTVSPost2010PropOp57
 70
     1
  0
XRECORD
  5
2E3
102
{ACAD_REACTORS
330
2E2
102
}
330
2E2
100
AcDbXrecord
280
     1
102
RTVSPropertyOp0
 70
     1
102
RTVSPropertyOp1
 70
     1
102
RTVSPropertyOp2
 70
     1
102
RTVSPropertyOp3
 70
     1
102
RTVSPropertyOp4
 70
     1
102
RTVSPropertyOp5
 70
     1
102
RTVSPropertyOp6
 70
     1
102
RTVSPropertyOp7
 70
     1
102
RTVSPropertyOp8
 70
     1
102
RTVSPropertyOp9
 70
     1
102
RTVSPropertyOp10
 70
     1
102
RTVSPropertyOp11
 70
     1
102
RTVSPropertyOp12
 70
     1
102
RTVSPropertyOp13
 70
     1
102
RTVSPropertyOp14
 70
     1
102
RTVSPropertyOp15
 70
     1
102
RTVSPropertyOp16
 70
     1
102
RTVSPropertyOp17
 70
     1
102
RTVSPropertyOp18
 70
     1
102
RTVSPropertyOp19
 70
     1
102
RTVSPropertyOp20
 70
     1
102
RTVSPropertyOp21
 70
     1
102
RTVSPropertyOp22
 70
     1
102
RTVSPropertyOp23
 70
     1
102
RTVSPropertyOp24
 70
     1
102
RTVSPropertyOp25
 70
     1
102
RTVSPropertyOp26
 70
     1
102
RTVSPropertyOp27
 70
     1
102
RTVSPropertyOp28
 70
     1
102
RTVSPropertyOp29
 70
     1
102
RTVSPropertyOp30
 70
     1
102
RTVSPropertyOp31
 70
     1
102
RTVSPropertyOp32
 70
     1
102
RTVSPropertyOp33
 70
     1
102
RTVSPropertyOp34
 70
     1
102
RTVSPropertyOp35
 70
     1
102
RTVSPropertyOp36
 70
     1
102
RTVSPropertyOp37
 70
     1
102
RTVSPropertyOp38
 70
     1
102
RTVSPropertyOp39
 70
     1
102
RTVSPropertyOp40
 70
     1
102
RTVSPropertyOp41
 70
     1
102
RTVSPropertyOp42
 70
     1
102
RTVSPropertyOp43
 70
     1
102
RTVSPropertyOp44
 70
     1
102
RTVSPropertyOp45
 70
     1
102
RTVSPropertyOp46
 70
     1
102
RTVSPropertyOp47
 70
     1
102
RTVSPropertyOp48
 70
     1
102
RTVSPropertyOp49
 70
     1
102
RTVSPropertyOp50
 70
     1
102
RTVSPropertyOp51
 70
     0
102
RTVSPropertyOp52
 70
     0
102
RTVSPropertyOp53
 70
     1
102
RTVSPropertyOp54
 70
     1
102
RTVSPropertyOp55
 70
     1
102
RTVSPropertyOp56
 70
     1
102
RTVSPropertyOp57
 70
     1
102
RTVSPost2010Prop28
280
     0
102
RTVSPost2010PropOp28
 70
     1
102
RTVSPost2010Prop29
280
     1
102
RTVSPost2010PropOp29
 70
     1
102
RTVSPost2010Prop30
280
     1
102
RTVSPost2010PropOp30
 70
     1
102
RTVSPost2010Prop31
280
     0
102
RTVSPost2010PropOp31
 70
     1
102
RTVSPost2010Prop32
280
     0
102
RTVSPost2010PropOp32
 70
     1
102
RTVSPost2010Prop33
280
     0
102
RTVSPost2010PropOp33
 70
     1
102
RTVSPost2010Prop34
280
     0
102
RTVSPost2010PropOp34
 70
     1
102
RTVSPost2010Prop35
280
     0
102
RTVSPost2010PropOp35
 70
     1
102
RTVSPost2010Prop36
280
     0
102
RTVSPost2010PropOp36
 70
     1
102
RTVSPost2010Prop37
 90
       50
102
RTVSPost2010PropOp37
 70
     1
102
RTVSPost2010Prop38
140
0.0
102
RTVSPost2010PropOp38
 70
     1
102
RTVSPost2010Prop39
140
1.0
102
RTVSPost2010PropOp39
 70
     1
102
RTVSPost2010Prop40
 90
        0
102
RTVSPost2010PropOp40
 70
     1
102
RTVSPost2010Prop41ColorIndex
 90
       18
102
RTVSPost2010Prop41ColorRGB
 90
        0
102
RTVSPost2010PropOp41
 70
     1
102
RTVSPost2010Prop42
 90
       50
102
RTVSPost2010PropOp42
 70
     1
102
RTVSPost2010Prop43
 90
        3
102
RTVSPost2010PropOp43
 70
     1
102
RTVSPost2010Prop44ColorIndex
 90
        5
102
RTVSPost2010Prop44ColorRGB
 90
      255
102
RTVSPost2010PropOp44
 70
     1
102
RTVSPost2010Prop45
280
     0
102
RTVSPost2010PropOp45
 70
     1
102
RTVSPost2010Prop46
 90
       50
102
RTVSPost2010PropOp46
 70
     1
102
RTVSPost2010Prop47
 90
       50
102
RTVSPost2010PropOp47
 70
     1
102
RTVSPost2010Prop48
 90
       50
102
RTVSPost2010PropOp48
 70
     1
102
RTVSPost2010Prop49
280
     0
102
RTVSPost2010PropOp49
 70
     1
102
RTVSPost2010Prop50
 90
       50
102
RTVSPost2010PropOp50
 70
     1
102
RTVSPost2010Prop51ColorIndex
 90
      256
102
RTVSPost2010Prop51ColorRGB
 90
-16777216
102
RTVSPost2010PropOp51
 70
     0
102
RTVSPost2010Prop52
140
1.0
102
RTVSPost2010PropOp52
 70
     0
102
RTVSPost2010Prop53
 90
        2
102
RTVSPost2010PropOp53
 70
     1
102
RTVSPost2010Prop54
  1
strokes_ogs.tif
102
RTVSPost2010PropOp54
 70
     1
102
RTVSPost2010Prop55
280
     0
102
RTVSPost2010PropOp55
 70
     1
102
RTVSPost2010Prop56
140
1.0
102
RTVSPost2010PropOp56
 70
     1
102
RTVSPost2010Prop57
140
1.0
102
RTVSPost2010PropOp57
 70
     1
  0
XRECORD
  5
303
102
{ACAD_REACTORS
330
302
102
}
330
302
100
AcDbXrecord
280
     1
102
RTVSPropertyOp0
 70
     1
102
RTVSPropertyOp1
 70
     1
102
RTVSPropertyOp2
 70
     1
102
RTVSPropertyOp3
 70
     1
102
RTVSPropertyOp4
 70
     1
102
RTVSPropertyOp5
 70
     1
102
RTVSPropertyOp6
 70
     1
102
RTVSPropertyOp7
 70
     1
102
RTVSPropertyOp8
 70
     1
102
RTVSPropertyOp9
 70
     1
102
RTVSPropertyOp10
 70
     1
102
RTVSPropertyOp11
 70
     1
102
RTVSPropertyOp12
 70
     1
102
RTVSPropertyOp13
 70
     1
102
RTVSPropertyOp14
 70
     1
102
RTVSPropertyOp15
 70
     1
102
RTVSPropertyOp16
 70
     1
102
RTVSPropertyOp17
 70
     1
102
RTVSPropertyOp18
 70
     1
102
RTVSPropertyOp19
 70
     1
102
RTVSPropertyOp20
 70
     1
102
RTVSPropertyOp21
 70
     1
102
RTVSPropertyOp22
 70
     1
102
RTVSPropertyOp23
 70
     1
102
RTVSPropertyOp24
 70
     1
102
RTVSPropertyOp25
 70
     1
102
RTVSPropertyOp26
 70
     1
102
RTVSPropertyOp27
 70
     1
102
RTVSPropertyOp28
 70
     1
102
RTVSPropertyOp29
 70
     1
102
RTVSPropertyOp30
 70
     1
102
RTVSPropertyOp31
 70
     1
102
RTVSPropertyOp32
 70
     1
102
RTVSPropertyOp33
 70
     1
102
RTVSPropertyOp34
 70
     1
102
RTVSPropertyOp35
 70
     1
102
RTVSPropertyOp36
 70
     1
102
RTVSPropertyOp37
 70
     1
102
RTVSPropertyOp38
 70
     1
102
RTVSPropertyOp39
 70
     1
102
RTVSPropertyOp40
 70
     1
102
RTVSPropertyOp41
 70
     1
102
RTVSPropertyOp42
 70
     1
102
RTVSPropertyOp43
 70
     1
102
RTVSPropertyOp44
 70
     1
102
RTVSPropertyOp45
 70
     1
102
RTVSPropertyOp46
 70
     1
102
RTVSPropertyOp47
 70
     1
102
RTVSPropertyOp48
 70
     1
102
RTVSPropertyOp49
 70
     1
102
RTVSPropertyOp50
 70
     1
102
RTVSPropertyOp51
 70
     0
102
RTVSPropertyOp52
 70
     0
102
RTVSPropertyOp53
 70
     1
102
RTVSPropertyOp54
 70
     1
102
RTVSPropertyOp55
 70
     1
102
RTVSPropertyOp56
 70
     1
102
RTVSPropertyOp57
 70
     1
102
RTVSPost2010Prop28
280
     0
102
RTVSPost2010PropOp28
 70
     1
102
RTVSPost2010Prop29
280
     1
102
RTVSPost2010PropOp29
 70
     1
102
RTVSPost2010Prop30
280
     1
102
RTVSPost2010PropOp30
 70
     1
102
RTVSPost2010Prop31
280
     0
102
RTVSPost2010PropOp31
 70
     1
102
RTVSPost2010Prop32
280
     0
102
RTVSPost2010PropOp32
 70
     1
102
RTVSPost2010Prop33
280
     0
102
RTVSPost2010PropOp33
 70
     1
102
RTVSPost2010Prop34
280
     0
102
RTVSPost2010PropOp34
 70
     1
102
RTVSPost2010Prop35
280
     0
102
RTVSPost2010PropOp35
 70
     1
102
RTVSPost2010Prop36
280
     0
102
RTVSPost2010PropOp36
 70
     1
102
RTVSPost2010Prop37
 90
       50
102
RTVSPost2010PropOp37
 70
     1
102
RTVSPost2010Prop38
140
0.0
102
RTVSPost2010PropOp38
 70
     1
102
RTVSPost2010Prop39
140
1.0
102
RTVSPost2010PropOp39
 70
     1
102
RTVSPost2010Prop40
 90
        0
102
RTVSPost2010PropOp40
 70
     1
102
RTVSPost2010Prop41ColorIndex
 90
       18
102
RTVSPost2010Prop41ColorRGB
 90
        0
102
RTVSPost2010PropOp41
 70
     1
102
RTVSPost2010Prop42
 90
       50
102
RTVSPost2010PropOp42
 70
     1
102
RTVSPost2010Prop43
 90
        3
102
RTVSPost2010PropOp43
 70
     1
102
RTVSPost2010Prop44ColorIndex
 90
        5
102
RTVSPost2010Prop44ColorRGB
 90
      255
102
RTVSPost2010PropOp44
 70
     1
102
RTVSPost2010Prop45
280
     0
102
RTVSPost2010PropOp45
 70
     1
102
RTVSPost2010Prop46
 90
       50
102
RTVSPost2010PropOp46
 70
     1
102
RTVSPost2010Prop47
 90
       50
102
RTVSPost2010PropOp47
 70
     1
102
RTVSPost2010Prop48
 90
       50
102
RTVSPost2010PropOp48
 70
     1
102
RTVSPost2010Prop49
280
     0
102
RTVSPost2010PropOp49
 70
     1
102
RTVSPost2010Prop50
 90
       50
102
RTVSPost2010PropOp50
 70
     1
102
RTVSPost2010Prop51ColorIndex
 90
      256
102
RTVSPost2010Prop51ColorRGB
 90
-16777216
102
RTVSPost2010PropOp51
 70
     0
102
RTVSPost2010Prop52
140
1.0
102
RTVSPost2010PropOp52
 70
     0
102
RTVSPost2010Prop53
 90
        2
102
RTVSPost2010PropOp53
 70
     1
102
RTVSPost2010Prop54
  1
strokes_ogs.tif
102
RTVSPost2010PropOp54
 70
     1
102
RTVSPost2010Prop55
280
     0
102
RTVSPost2010PropOp55
 70
     1
102
RTVSPost2010Prop56
140
1.0
102
RTVSPost2010PropOp56
 70
     1
102
RTVSPost2010Prop57
140
1.0
102
RTVSPost2010PropOp57
 70
     1
  0
ENDSEC
  0
EOF
