  0
SECTION
  2
HEADER
  9
$ACADVER
  1
AC1027
  9
$ACADMAINTVER
 70
   105
  9
$DWGCODEPAGE
  3
ANSI_932
  9
$LASTSAVEDBY
  1
a.katayama
  9
$REQUIREDVERSIONS
160
                 0
  9
$INSBASE
 10
0.0
 20
0.0
 30
0.0
  9
$EXTMIN
 10
-4205.0
 20
-2970.0
 30
0.0
  9
$EXTMAX
 10
4205.0
 20
2970.0
 30
0.0
  9
$LIMMIN
 10
-4205.0
 20
-2970.0
  9
$LIMMAX
 10
4205.0
 20
2970.0
  9
$ORTHOMODE
 70
     0
  9
$REGENMODE
 70
     1
  9
$FILLMODE
 70
     1
  9
$QTEXTMODE
 70
     0
  9
$MIRRTEXT
 70
     1
  9
$LTSCALE
 40
10.0
  9
$ATTMODE
 70
     1
  9
$TEXTSIZE
 40
2.5
  9
$TRACEWID
 40
1.0
  9
$TEXTSTYLE
  7
Standard
  9
$CLAYER
  8
0
  9
$CELTYPE
  6
ByLayer
  9
$CECOLOR
 62
   256
  9
$CELTSCALE
 40
1.0
  9
$DISPSILH
 70
     0
  9
$DIMSCALE
 40
1.0
  9
$DIMASZ
 40
2.5
  9
$DIMEXO
 40
0.625
  9
$DIMDLI
 40
3.75
  9
$DIMRND
 40
0.0
  9
$DIMDLE
 40
0.0
  9
$DIMEXE
 40
1.25
  9
$DIMTP
 40
0.0
  9
$DIMTM
 40
0.0
  9
$DIMTXT
 40
2.5
  9
$DIMCEN
 40
2.5
  9
$DIMTSZ
 40
0.0
  9
$DIMTOL
 70
     0
  9
$DIMLIM
 70
     0
  9
$DIMTIH
 70
     0
  9
$DIMTOH
 70
     0
  9
$DIMSE1
 70
     0
  9
$DIMSE2
 70
     0
  9
$DIMTAD
 70
     1
  9
$DIMZIN
 70
     8
  9
$DIMBLK
  1

  9
$DIMASO
 70
     1
  9
$DIMSHO
 70
     1
  9
$DIMPOST
  1

  9
$DIMAPOST
  1

  9
$DIMALT
 70
     0
  9
$DIMALTD
 70
     3
  9
$DIMALTF
 40
0.03937007874016
  9
$DIMLFAC
 40
1.0
  9
$DIMTOFL
 70
     1
  9
$DIMTVP
 40
0.0
  9
$DIMTIX
 70
     0
  9
$DIMSOXD
 70
     0
  9
$DIMSAH
 70
     0
  9
$DIMBLK1
  1

  9
$DIMBLK2
  1

  9
$DIMSTYLE
  2
ISO-25
  9
$DIMCLRD
 70
     0
  9
$DIMCLRE
 70
     0
  9
$DIMCLRT
 70
     0
  9
$DIMTFAC
 40
1.0
  9
$DIMGAP
 40
0.625
  9
$DIMJUST
 70
     0
  9
$DIMSD1
 70
     0
  9
$DIMSD2
 70
     0
  9
$DIMTOLJ
 70
     0
  9
$DIMTZIN
 70
     8
  9
$DIMALTZ
 70
     0
  9
$DIMALTTZ
 70
     0
  9
$DIMUPT
 70
     0
  9
$DIMDEC
 70
     2
  9
$DIMTDEC
 70
     2
  9
$DIMALTU
 70
     2
  9
$DIMALTTD
 70
     3
  9
$DIMTXSTY
  7
Standard
  9
$DIMAUNIT
 70
     0
  9
$DIMADEC
 70
     0
  9
$DIMALTRND
 40
0.0
  9
$DIMAZIN
 70
     0
  9
$DIMDSEP
 70
    44
  9
$DIMATFIT
 70
     3
  9
$DIMFRAC
 70
     0
  9
$DIMLDRBLK
  1

  9
$DIMLUNIT
 70
     2
  9
$DIMLWD
 70
    -2
  9
$DIMLWE
 70
    -2
  9
$DIMTMOVE
 70
     0
  9
$DIMFXL
 40
1.0
  9
$DIMFXLON
 70
     0
  9
$DIMJOGANG
 40
0.7853981633974483
  9
$DIMTFILL
 70
     0
  9
$DIMTFILLCLR
 70
     0
  9
$DIMARCSYM
 70
     0
  9
$DIMLTYPE
  6

  9
$DIMLTEX1
  6

  9
$DIMLTEX2
  6

  9
$DIMTXTDIRECTION
 70
     0
  9
$LUNITS
 70
     2
  9
$LUPREC
 70
     4
  9
$SKETCHINC
 40
1.0
  9
$FILLETRAD
 40
10.0
  9
$AUNITS
 70
     0
  9
$AUPREC
 70
     0
  9
$MENU
  1
.
  9
$ELEVATION
 40
0.0
  9
$PELEVATION
 40
0.0
  9
$THICKNESS
 40
0.0
  9
$LIMCHECK
 70
     0
  9
$CHAMFERA
 40
0.0
  9
$CHAMFERB
 40
0.0
  9
$CHAMFERC
 40
0.0
  9
$CHAMFERD
 40
0.0
  9
$SKPOLY
 70
     0
  9
$TDCREATE
 40
2459447.385198611
  9
$TDUCREATE
 40
2459447.010198611
  9
$TDUPDATE
 40
2459447.38519875
  9
$TDUUPDATE
 40
2459447.01019875
  9
$TDINDWG
 40
0.0000000116
  9
$TDUSRTIMER
 40
0.0000000116
  9
$USRTIMER
 70
     1
  9
$ANGBASE
 50
0.0
  9
$ANGDIR
 70
     0
  9
$PDMODE
 70
     0
  9
$PDSIZE
 40
0.0
  9
$PLINEWID
 40
0.0
  9
$SPLFRAME
 70
     0
  9
$SPLINETYPE
 70
     6
  9
$SPLINESEGS
 70
     8
  9
$HANDSEED
  5
5B7
  9
$SURFTAB1
 70
     6
  9
$SURFTAB2
 70
     6
  9
$SURFTYPE
 70
     6
  9
$SURFU
 70
     6
  9
$SURFV
 70
     6
  9
$UCSBASE
  2

  9
$UCSNAME
  2

  9
$UCSORG
 10
0.0
 20
0.0
 30
0.0
  9
$UCSXDIR
 10
1.0
 20
0.0
 30
0.0
  9
$UCSYDIR
 10
0.0
 20
1.0
 30
0.0
  9
$UCSORTHOREF
  2

  9
$UCSORTHOVIEW
 70
     0
  9
$UCSORGTOP
 10
0.0
 20
0.0
 30
0.0
  9
$UCSORGBOTTOM
 10
0.0
 20
0.0
 30
0.0
  9
$UCSORGLEFT
 10
0.0
 20
0.0
 30
0.0
  9
$UCSORGRIGHT
 10
0.0
 20
0.0
 30
0.0
  9
$UCSORGFRONT
 10
0.0
 20
0.0
 30
0.0
  9
$UCSORGBACK
 10
0.0
 20
0.0
 30
0.0
  9
$PUCSBASE
  2

  9
$PUCSNAME
  2

  9
$PUCSORG
 10
0.0
 20
0.0
 30
0.0
  9
$PUCSXDIR
 10
1.0
 20
0.0
 30
0.0
  9
$PUCSYDIR
 10
0.0
 20
1.0
 30
0.0
  9
$PUCSORTHOREF
  2

  9
$PUCSORTHOVIEW
 70
     0
  9
$PUCSORGTOP
 10
0.0
 20
0.0
 30
0.0
  9
$PUCSORGBOTTOM
 10
0.0
 20
0.0
 30
0.0
  9
$PUCSORGLEFT
 10
0.0
 20
0.0
 30
0.0
  9
$PUCSORGRIGHT
 10
0.0
 20
0.0
 30
0.0
  9
$PUCSORGFRONT
 10
0.0
 20
0.0
 30
0.0
  9
$PUCSORGBACK
 10
0.0
 20
0.0
 30
0.0
  9
$USERI1
 70
     0
  9
$USERI2
 70
     0
  9
$USERI3
 70
     0
  9
$USERI4
 70
     0
  9
$USERI5
 70
     0
  9
$USERR1
 40
0.0
  9
$USERR2
 40
0.0
  9
$USERR3
 40
0.0
  9
$USERR4
 40
0.0
  9
$USERR5
 40
0.0
  9
$WORLDVIEW
 70
     1
  9
$SHADEDGE
 70
     3
  9
$SHADEDIF
 70
    70
  9
$TILEMODE
 70
     1
  9
$MAXACTVP
 70
    64
  9
$PINSBASE
 10
0.0
 20
0.0
 30
0.0
  9
$PLIMCHECK
 70
     0
  9
$PEXTMIN
 10
1.000000000000000E+20
 20
1.000000000000000E+20
 30
1.000000000000000E+20
  9
$PEXTMAX
 10
-1.000000000000000E+20
 20
-1.000000000000000E+20
 30
-1.000000000000000E+20
  9
$PLIMMIN
 10
0.0
 20
0.0
  9
$PLIMMAX
 10
420.0
 20
297.0
  9
$UNITMODE
 70
     0
  9
$VISRETAIN
 70
     1
  9
$PLINEGEN
 70
     0
  9
$PSLTSCALE
 70
     1
  9
$TREEDEPTH
 70
  3020
  9
$CMLSTYLE
  2
Standard
  9
$CMLJUST
 70
     0
  9
$CMLSCALE
 40
20.0
  9
$PROXYGRAPHICS
 70
     1
  9
$MEASUREMENT
 70
     1
  9
$CELWEIGHT
370
    -1
  9
$ENDCAPS
280
     0
  9
$JOINSTYLE
280
     0
  9
$LWDISPLAY
290
     0
  9
$INSUNITS
 70
     4
  9
$HYPERLINKBASE
  1

  9
$STYLESHEET
  1

  9
$XEDIT
290
     1
  9
$CEPSNTYPE
380
     0
  9
$PSTYLEMODE
290
     1
  9
$FINGERPRINTGUID
  2
{deeaa77d-bd59-4c69-b8f5-fdc510aed1af}
  9
$VERSIONGUID
  2
{FAEB1C32-E019-11D5-929B-00C0DF256EC4}
  9
$EXTNAMES
290
     1
  9
$PSVPSCALE
 40
0.0
  9
$OLESTARTUP
290
     0
  9
$SORTENTS
280
   127
  9
$INDEXCTL
280
     0
  9
$HIDETEXT
280
     1
  9
$XCLIPFRAME
280
     2
  9
$HALOGAP
280
     0
  9
$OBSCOLOR
 70
   257
  9
$OBSLTYPE
280
     0
  9
$INTERSECTIONDISPLAY
280
     0
  9
$INTERSECTIONCOLOR
 70
   257
  9
$DIMASSOC
280
     2
  9
$PROJECTNAME
  1

  9
$CAMERADISPLAY
290
     0
  9
$LENSLENGTH
 40
50.0
  9
$CAMERAHEIGHT
 40
0.0
  9
$STEPSPERSEC
 40
2.0
  9
$STEPSIZE
 40
6.0
  9
$3DDWFPREC
 40
2.0
  9
$PSOLWIDTH
 40
5.0
  9
$PSOLHEIGHT
 40
80.0
  9
$LOFTANG1
 40
1.570796326794897
  9
$LOFTANG2
 40
1.570796326794897
  9
$LOFTMAG1
 40
0.0
  9
$LOFTMAG2
 40
0.0
  9
$LOFTPARAM
 70
     7
  9
$LOFTNORMALS
280
     1
  9
$LATITUDE
 40
37.795
  9
$LONGITUDE
 40
-122.394
  9
$NORTHDIRECTION
 40
0.0
  9
$TIMEZONE
 70
 -8000
  9
$LIGHTGLYPHDISPLAY
280
     1
  9
$TILEMODELIGHTSYNCH
280
     1
  9
$CMATERIAL
347
44
  9
$SOLIDHIST
280
     0
  9
$SHOWHIST
280
     1
  9
$DWFFRAME
280
     2
  9
$DGNFRAME
280
     2
  9
$REALWORLDSCALE
290
     1
  9
$INTERFERECOLOR
 62
   256
  9
$CSHADOW
280
     0
  9
$SHADOWPLANELOCATION
 40
0.0
  0
ENDSEC
  0
SECTION
  2
CLASSES
  0
CLASS
  1
ACDBDICTIONARYWDFLT
  2
AcDbDictionaryWithDefault
  3
ObjectDBX Classes
 90
        0
 91
        3
280
     0
281
     0
  0
CLASS
  1
VISUALSTYLE
  2
AcDbVisualStyle
  3
ObjectDBX Classes
 90
     4095
 91
        3
280
     0
281
     0
  0
CLASS
  1
MATERIAL
  2
AcDbMaterial
  3
ObjectDBX Classes
 90
     1153
 91
        3
280
     0
281
     0
  0
CLASS
  1
SCALE
  2
AcDbScale
  3
ObjectDBX Classes
 90
     1153
 91
        3
280
     0
281
     0
  0
CLASS
  1
TABLESTYLE
  2
AcDbTableStyle
  3
ObjectDBX Classes
 90
     4095
 91
        3
280
     0
281
     0
  0
CLASS
  1
MLEADERSTYLE
  2
AcDbMLeaderStyle
  3
ACDB_MLEADERSTYLE_CLASS
 90
     4095
 91
        3
280
     0
281
     0
  0
CLASS
  1
SUN
  2
AcDbSun
  3
SCENEOE
 90
     1153
 91
        3
280
     0
281
     0
  0
CLASS
  1
DICTIONARYVAR
  2
AcDbDictionaryVar
  3
ObjectDBX Classes
 90
        0
 91
        3
280
     0
281
     0
  0
CLASS
  1
CELLSTYLEMAP
  2
AcDbCellStyleMap
  3
ObjectDBX Classes
 90
     1152
 91
        3
280
     0
281
     0
  0
ENDSEC
  0
SECTION
  2
TABLES
  0
TABLE
  2
VPORT
  5
8
330
0
100
AcDbSymbolTable
 70
     1
  0
VPORT
  5
29
330
8
100
AcDbSymbolTableRecord
100
AcDbViewportTableRecord
  2
*Active
 70
     0
 10
0.0
 20
0.0
 11
1.0
 21
1.0
 12
0.0
 22
0.0
 13
0.0
 23
0.0
 14
10.0
 24
10.0
 15
10.0
 25
10.0
 16
0.0
 26
0.0
 36
1.0
 17
0.0
 27
0.0
 37
0.0
 40
6534.000000000001
 41
1.415824915824916
 42
50.0
 43
0.0
 44
0.0
 50
0.0
 51
0.0
 71
     0
 72
 10000
 73
     1
 74
     3
 75
     0
 76
     0
 77
     0
 78
     0
281
     0
 65
     1
110
0.0
120
0.0
130
0.0
111
1.0
121
0.0
131
0.0
112
0.0
122
1.0
132
0.0
 79
     0
146
0.0
348
2F
 60
     3
 61
     5
292
     1
282
     1
141
0.0
142
0.0
 63
   250
361
6D
  0
ENDTAB
  0
TABLE
  2
LTYPE
  5
5
330
0
100
AcDbSymbolTable
 70
     7
  0
LTYPE
  5
14
330
5
100
AcDbSymbolTableRecord
100
AcDbLinetypeTableRecord
  2
ByBlock
 70
     0
  3

 72
    65
 73
     0
 40
0.0
  0
LTYPE
  5
15
330
5
100
AcDbSymbolTableRecord
100
AcDbLinetypeTableRecord
  2
ByLayer
 70
     0
  3

 72
    65
 73
     0
 40
0.0
  0
LTYPE
  5
16
330
5
100
AcDbSymbolTableRecord
100
AcDbLinetypeTableRecord
  2
Continuous
 70
     0
  3
Solid line
 72
    65
 73
     0
 40
0.0
  0
LTYPE
  5
6F
330
5
100
AcDbSymbolTableRecord
100
AcDbLinetypeTableRecord
  2
JWW_PHANTOM1
 70
     0
  3
----  -  -  --------  -  -  ----
 72
    65
 73
    12
 40
13.54666666666667
 49
3.386666666666667
 74
     0
 49
-0.8466666666666667
 74
     0
 49
0.4233333333333333
 74
     0
 49
-0.8466666666666667
 74
     0
 49
0.4233333333333333
 74
     0
 49
-0.8466666666666667
 74
     0
 49
3.386666666666667
 74
     0
 49
-0.8466666666666667
 74
     0
 49
0.4233333333333333
 74
     0
 49
-0.8466666666666667
 74
     0
 49
0.4233333333333333
 74
     0
 49
-0.8466666666666667
 74
     0
  0
LTYPE
  5
70
330
5
100
AcDbSymbolTableRecord
100
AcDbLinetypeTableRecord
  2
JWW_CENTER2
 70
     0
  3
-------------  --  -------------
 72
    65
 73
     4
 40
13.54666666666667
 49
11.00666666666667
 74
     0
 49
-0.8466666666666667
 74
     0
 49
0.8466666666666667
 74
     0
 49
-0.8466666666666667
 74
     0
  0
LTYPE
  5
71
330
5
100
AcDbSymbolTableRecord
100
AcDbLinetypeTableRecord
  2
JWW_DASHED1
 70
     0
  3
-  --  --  --  --  --  --  --  -
 72
    65
 73
    12
 40
10.16
 49
0.8466666666666667
 74
     0
 49
-0.8466666666666667
 74
     0
 49
0.8466666666666667
 74
     0
 49
-0.8466666666666667
 74
     0
 49
0.8466666666666667
 74
     0
 49
-0.8466666666666667
 74
     0
 49
0.8466666666666667
 74
     0
 49
-0.8466666666666667
 74
     0
 49
0.8466666666666667
 74
     0
 49
-0.8466666666666667
 74
     0
 49
0.8466666666666667
 74
     0
 49
-0.8466666666666667
 74
     0
  0
LTYPE
  5
72
330
5
100
AcDbSymbolTableRecord
100
AcDbLinetypeTableRecord
  2
JWW_CENTER1
 70
     0
  3
-----  --  ----------  --  -----
 72
    65
 73
     8
 40
13.54666666666667
 49
4.233333333333333
 74
     0
 49
-0.8466666666666667
 74
     0
 49
0.8466666666666667
 74
     0
 49
-0.8466666666666667
 74
     0
 49
4.233333333333333
 74
     0
 49
-0.8466666666666667
 74
     0
 49
0.8466666666666667
 74
     0
 49
-0.8466666666666667
 74
     0
  0
LTYPE
  5
73
330
5
100
AcDbSymbolTableRecord
100
AcDbLinetypeTableRecord
  2
JWW_DASHED3
 70
     0
  3
---  ------  ------  ------  ---
 72
    65
 73
     8
 40
13.54666666666667
 49
2.54
 74
     0
 49
-0.8466666666666667
 74
     0
 49
2.54
 74
     0
 49
-0.8466666666666667
 74
     0
 49
2.54
 74
     0
 49
-0.8466666666666667
 74
     0
 49
2.54
 74
     0
 49
-0.8466666666666667
 74
     0
  0
LTYPE
  5
74
330
5
100
AcDbSymbolTableRecord
100
AcDbLinetypeTableRecord
  2
JWW_DASHED2
 70
     0
  3
--    ----    ----    ----    --
 72
    65
 73
     8
 40
13.54666666666667
 49
1.693333333333333
 74
     0
 49
-1.693333333333333
 74
     0
 49
1.693333333333333
 74
     0
 49
-1.693333333333333
 74
     0
 49
1.693333333333333
 74
     0
 49
-1.693333333333333
 74
     0
 49
1.693333333333333
 74
     0
 49
-1.693333333333333
 74
     0
  0
ENDTAB
  0
TABLE
  2
LAYER
  5
2
330
0
100
AcDbSymbolTable
 70
    20
  0
LAYER
  5
10
330
2
100
AcDbSymbolTableRecord
100
AcDbLayerTableRecord
  2
0
 70
     0
 62
     7
  6
Continuous
370
    -3
390
F
347
46
348
0
  0
LAYER
  5
75
330
2
100
AcDbSymbolTableRecord
100
AcDbLayerTableRecord
  2
3-5
 70
     0
 62
     7
  6
Continuous
370
    -3
390
F
347
46
348
0
  0
LAYER
  5
76
330
2
100
AcDbSymbolTableRecord
100
AcDbLayerTableRecord
  2
3-1
 70
     0
 62
     7
  6
Continuous
370
    -3
390
F
347
46
348
0
  0
LAYER
  5
77
330
2
100
AcDbSymbolTableRecord
100
AcDbLayerTableRecord
  2
3-6
 70
     0
 62
     7
  6
Continuous
370
    -3
390
F
347
46
348
0
  0
LAYER
  5
78
330
2
100
AcDbSymbolTableRecord
100
AcDbLayerTableRecord
  2
3-4
 70
     0
 62
     7
  6
Continuous
370
    -3
390
F
347
46
348
0
  0
LAYER
  5
79
330
2
100
AcDbSymbolTableRecord
100
AcDbLayerTableRecord
  2
3-E
 70
     0
 62
     7
  6
Continuous
370
    -3
390
F
347
46
348
0
  0
LAYER
  5
7A
330
2
100
AcDbSymbolTableRecord
100
AcDbLayerTableRecord
  2
3-2
 70
     0
 62
     7
  6
Continuous
370
    -3
390
F
347
46
348
0
  0
LAYER
  5
7B
330
2
100
AcDbSymbolTableRecord
100
AcDbLayerTableRecord
  2
3-9
 70
     0
 62
     7
  6
Continuous
370
    -3
390
F
347
46
348
0
  0
LAYER
  5
7C
330
2
100
AcDbSymbolTableRecord
100
AcDbLayerTableRecord
  2
F-Fﾚｲﾔ
 70
     0
 62
     7
  6
Continuous
370
    -3
390
F
347
46
348
0
  0
LAYER
  5
7D
330
2
100
AcDbSymbolTableRecord
100
AcDbLayerTableRecord
  2
F-5ﾚｲﾔ
 70
     0
 62
     7
  6
Continuous
370
    -3
390
F
347
46
348
0
  0
LAYER
  5
7E
330
2
100
AcDbSymbolTableRecord
100
AcDbLayerTableRecord
  2
3-3
 70
     0
 62
     7
  6
Continuous
370
    -3
390
F
347
46
348
0
  0
LAYER
  5
7F
330
2
100
AcDbSymbolTableRecord
100
AcDbLayerTableRecord
  2
3-A
 70
     0
 62
     7
  6
Continuous
370
    -3
390
F
347
46
348
0
  0
LAYER
  5
80
330
2
100
AcDbSymbolTableRecord
100
AcDbLayerTableRecord
  2
3-0
 70
     0
 62
     7
  6
Continuous
370
    -3
390
F
347
46
348
0
  0
LAYER
  5
81
330
2
100
AcDbSymbolTableRecord
100
AcDbLayerTableRecord
  2
D-1
 70
     0
 62
     7
  6
Continuous
370
    -3
390
F
347
46
348
0
  0
LAYER
  5
82
330
2
100
AcDbSymbolTableRecord
100
AcDbLayerTableRecord
  2
D-2
 70
     0
 62
     7
  6
Continuous
370
    -3
390
F
347
46
348
0
  0
LAYER
  5
83
330
2
100
AcDbSymbolTableRecord
100
AcDbLayerTableRecord
  2
D-9
 70
     0
 62
     7
  6
Continuous
370
    -3
390
F
347
46
348
0
  0
LAYER
  5
84
330
2
100
AcDbSymbolTableRecord
100
AcDbLayerTableRecord
  2
D-4
 70
     0
 62
     7
  6
Continuous
370
    -3
390
F
347
46
348
0
  0
LAYER
  5
85
330
2
100
AcDbSymbolTableRecord
100
AcDbLayerTableRecord
  2
D-5
 70
     0
 62
     7
  6
Continuous
370
    -3
390
F
347
46
348
0
  0
LAYER
  5
86
330
2
100
AcDbSymbolTableRecord
100
AcDbLayerTableRecord
  2
D-A
 70
     0
 62
     7
  6
Continuous
370
    -3
390
F
347
46
348
0
  0
LAYER
  5
87
330
2
100
AcDbSymbolTableRecord
100
AcDbLayerTableRecord
  2
D-3
 70
     0
 62
     7
  6
Continuous
370
    -3
390
F
347
46
348
0
  0
ENDTAB
  0
TABLE
  2
STYLE
  5
3
330
0
100
AcDbSymbolTable
 70
     2
  0
STYLE
  5
11
330
3
100
AcDbSymbolTableRecord
100
AcDbTextStyleTableRecord
  2
Standard
 70
     0
 40
0.0
 41
1.0
 50
0.0
 71
     0
 42
2.5
  3
txt
  4

  0
STYLE
  5
6E
330
3
100
AcDbSymbolTableRecord
100
AcDbTextStyleTableRecord
  2
ＭＳ ゴシック
 70
     0
 40
0.0
 41
1.0
 50
0.0
 71
     0
 42
2.5
  3

  4

1001
ACAD
1000
MS Gothic
1071
    32817
  0
ENDTAB
  0
TABLE
  2
VIEW
  5
6
330
0
100
AcDbSymbolTable
 70
     0
  0
ENDTAB
  0
TABLE
  2
UCS
  5
7
330
0
100
AcDbSymbolTable
 70
     0
  0
ENDTAB
  0
TABLE
  2
APPID
  5
9
330
0
100
AcDbSymbolTable
 70
     1
  0
APPID
  5
12
330
9
100
AcDbSymbolTableRecord
100
AcDbRegAppTableRecord
  2
ACAD
 70
     0
  0
ENDTAB
  0
TABLE
  2
DIMSTYLE
  5
A
330
0
100
AcDbSymbolTable
 70
     2
100
AcDbDimStyleTable
  0
DIMSTYLE
105
27
330
A
100
AcDbSymbolTableRecord
100
AcDbDimStyleTableRecord
  2
ISO-25
 70
     0
 41
2.5
 42
0.625
 43
3.75
 44
1.25
 73
     0
 74
     0
 77
     1
 78
     8
140
2.5
141
2.5
143
0.03937007874016
147
0.625
171
     3
172
     1
178
     0
271
     2
272
     2
274
     3
278
    44
283
     0
284
     8
340
11
  0
DIMSTYLE
105
88
330
A
100
AcDbSymbolTableRecord
100
AcDbDimStyleTableRecord
  2
JWAC_DIMSTYLE
 70
     0
  3
x
  4
mm
 41
0.0
 42
0.625
 43
3.75
 44
1.25
 73
     0
 74
     0
 75
     1
 76
     1
 77
     1
 78
     8
140
2.5
141
2.5
143
0.03937007874016
147
0.625
171
     3
172
     1
173
     1
178
     0
271
     2
272
     2
274
     3
278
    32
283
     0
284
     8
340
11
371
     0
372
     0
  0
ENDTAB
  0
TABLE
  2
BLOCK_RECORD
  5
1
330
0
100
AcDbSymbolTable
 70
     1
  0
BLOCK_RECORD
  5
1F
330
1
100
AcDbSymbolTableRecord
100
AcDbBlockTableRecord
  2
*Model_Space
340
22
 70
     0
280
     1
281
     0
  0
BLOCK_RECORD
  5
1B
330
1
100
AcDbSymbolTableRecord
100
AcDbBlockTableRecord
  2
*Paper_Space
340
1E
 70
     0
280
     1
281
     0
  0
BLOCK_RECORD
  5
23
330
1
100
AcDbSymbolTableRecord
100
AcDbBlockTableRecord
  2
*Paper_Space0
340
26
 70
     0
280
     1
281
     0
  0
ENDTAB
  0
ENDSEC
  0
SECTION
  2
BLOCKS
  0
BLOCK
  5
20
330
1F
100
AcDbEntity
  8
0
100
AcDbBlockBegin
  2
*Model_Space
 70
     0
 10
0.0
 20
0.0
 30
0.0
  3
*Model_Space
  1

  0
ENDBLK
  5
21
330
1F
100
AcDbEntity
  8
0
100
AcDbBlockEnd
  0
BLOCK
  5
1C
330
1B
100
AcDbEntity
 67
     1
  8
0
100
AcDbBlockBegin
  2
*Paper_Space
 70
     0
 10
0.0
 20
0.0
 30
0.0
  3
*Paper_Space
  1

  0
ENDBLK
  5
1D
330
1B
100
AcDbEntity
 67
     1
  8
0
100
AcDbBlockEnd
  0
BLOCK
  5
24
330
23
100
AcDbEntity
  8
0
100
AcDbBlockBegin
  2
*Paper_Space0
 70
     0
 10
0.0
 20
0.0
 30
0.0
  3
*Paper_Space0
  1

  0
ENDBLK
  5
25
330
23
100
AcDbEntity
  8
0
100
AcDbBlockEnd
  0
ENDSEC
  0
SECTION
  2
ENTITIES
  0
SOLID
  5
89
330
1F
100
AcDbEntity
  8
3-5
  6
Continuous
 62
     4
370
     9
100
AcDbTrace
 10
-1379.649262144146
 20
596.3561700466028
 30
0.0
 11
-1379.649262144146
 21
601.3561700466028
 31
0.0
 12
-1329.649262144146
 22
596.3561700466028
 32
0.0
 13
-1329.649262144146
 23
601.3561700466028
 33
0.0
  0
SOLID
  5
8A
330
1F
100
AcDbEntity
  8
3-5
  6
Continuous
 62
     4
370
     9
100
AcDbTrace
 10
-2923.597107949135
 20
596.3561700466028
 30
0.0
 11
-2923.597107949135
 21
601.3561700466028
 31
0.0
 12
-2873.597107949135
 22
596.3561700466028
 32
0.0
 13
-2873.597107949135
 23
601.3561700466028
 33
0.0
  0
SOLID
  5
8B
330
1F
100
AcDbEntity
  8
3-5
  6
Continuous
 62
     4
370
     9
100
AcDbTrace
 10
-2129.123010071336
 20
1414.114040737768
 30
0.0
 11
-2129.123010071336
 21
1464.114040737768
 31
0.0
 12
-2124.123010071336
 22
1414.114040737768
 32
0.0
 13
-2124.123010071336
 23
1464.114040737768
 33
0.0
  0
SOLID
  5
8C
330
1F
100
AcDbEntity
  8
3-5
  6
Continuous
 62
     4
370
     9
100
AcDbTrace
 10
-2129.123010071336
 20
-229.218620404443
 30
0.0
 11
-2129.123010071336
 21
-179.218620404443
 31
0.0
 12
-2124.123010071336
 22
-229.218620404443
 32
0.0
 13
-2124.123010071336
 23
-179.218620404443
 33
0.0
  0
LINE
  5
8D
330
1F
100
AcDbEntity
  8
3-1
  6
Continuous
 62
     2
370
     9
100
AcDbLine
 10
-2796.622910702646
 20
-1462.1793897142
 30
0.0
 11
-2796.622910702646
 21
-1152.179239943147
 31
0.0
  0
LINE
  5
8E
330
1F
100
AcDbEntity
  8
3-6
  6
JWW_PHANTOM1
 62
     6
370
     9
100
AcDbLine
 10
-1456.623109440026
 20
-1152.179239943147
 30
0.0
 11
-886.7368111379358
 21
-1152.179239943147
 31
0.0
  0
LINE
  5
8F
330
1F
100
AcDbEntity
  8
3-4
  6
Continuous
 62
     7
370
     9
100
AcDbLine
 10
-2766.62318504664
 20
1495.935250356711
 30
0.0
 11
-2766.62318504664
 21
1288.856420628518
 31
0.0
  0
LINE
  5
90
330
1F
100
AcDbEntity
  8
3-1
  6
Continuous
 62
     2
370
     9
100
AcDbLine
 10
-2783.289563819036
 20
1255.523248720213
 30
0.0
 11
-2783.289563819036
 21
-57.81038370109513
 31
0.0
  0
LINE
  5
91
330
1F
100
AcDbEntity
  8
3-1
  6
Continuous
 62
     2
370
     9
100
AcDbLine
 10
-2796.622910702646
 20
1268.856420628518
 30
0.0
 11
-2796.622910702646
 21
-71.14373058470505
 31
0.0
  0
LINE
  5
92
330
1F
100
AcDbEntity
  8
3-1
  6
Continuous
 62
     2
370
     9
100
AcDbLine
 10
-1469.956456323636
 20
1255.523248720213
 30
0.0
 11
-1469.956456323636
 21
-57.81038370109513
 31
0.0
  0
LINE
  5
93
330
1F
100
AcDbEntity
  8
3-1
  6
Continuous
 62
     2
370
     9
100
AcDbLine
 10
-1456.623109440026
 20
1268.856420628518
 30
0.0
 11
-1456.623109440026
 21
-71.14373058470505
 31
0.0
  0
LINE
  5
94
330
1F
100
AcDbEntity
  8
3-1
  6
Continuous
 62
     2
370
     9
100
AcDbLine
 10
-2783.289563819036
 20
1255.523248720213
 30
0.0
 11
-1469.956456323636
 21
1255.523248720213
 31
0.0
  0
LINE
  5
95
330
1F
100
AcDbEntity
  8
3-1
  6
Continuous
 62
     2
370
     9
100
AcDbLine
 10
-2796.622910702646
 20
1268.856420628518
 30
0.0
 11
-1456.623109440026
 21
1268.856420628518
 31
0.0
  0
LINE
  5
96
330
1F
100
AcDbEntity
  8
3-1
  6
Continuous
 62
     2
370
     9
100
AcDbLine
 10
-2783.289563819036
 20
-57.81038370109513
 30
0.0
 11
-1469.956456323636
 21
-57.81038370109513
 31
0.0
  0
LINE
  5
97
330
1F
100
AcDbEntity
  8
3-1
  6
Continuous
 62
     2
370
     9
100
AcDbLine
 10
-2796.622910702646
 20
-71.14373058470505
 30
0.0
 11
-1456.623109440026
 21
-71.14373058470505
 31
0.0
  0
ARC
  5
98
330
1F
100
AcDbEntity
  8
3-1
  6
Continuous
 62
     2
370
     9
100
AcDbCircle
 10
-2438.289598578441
 20
1265.523036236174
 30
0.0
 40
6.66666608289402
100
AcDbArc
 50
90.0
 51
149.9994903964416
  0
ARC
  5
99
330
1F
100
AcDbEntity
  8
3-1
  6
Continuous
 62
     2
370
     9
100
AcDbCircle
 10
-2488.289666133439
 20
1265.523036236174
 30
0.0
 40
6.66666608289402
100
AcDbArc
 50
30.00050960355836
 51
89.99999999999999
  0
LINE
  5
9A
330
1F
100
AcDbEntity
  8
3-1
  6
JWW_CENTER2
 62
     2
370
     9
100
AcDbLine
 10
-2463.28963235594
 20
1335.522866563152
 30
0.0
 11
-2482.543219133635
 21
1335.522866563152
 31
0.0
  0
LINE
  5
9B
330
1F
100
AcDbEntity
  8
3-1
  6
JWW_CENTER2
 62
     2
370
     9
100
AcDbLine
 10
-2463.28963235594
 20
1335.522866563152
 30
0.0
 11
-2444.036045578242
 21
1335.522866563152
 31
0.0
  0
LINE
  5
9C
330
1F
100
AcDbEntity
  8
3-1
  6
Continuous
 62
     2
370
     9
100
AcDbLine
 10
-2492.456228325516
 20
1272.189733931009
 30
0.0
 11
-2492.456228325516
 21
1368.856355037326
 31
0.0
  0
LINE
  5
9D
330
1F
100
AcDbEntity
  8
3-1
  6
Continuous
 62
     2
370
     9
100
AcDbLine
 10
-2463.28963235594
 20
1368.856355037326
 30
0.0
 11
-2492.456228325516
 21
1368.856355037326
 31
0.0
  0
LINE
  5
9E
330
1F
100
AcDbEntity
  8
3-1
  6
Continuous
 62
     2
370
     9
100
AcDbLine
 10
-2463.28963235594
 20
1368.856355037326
 30
0.0
 11
-2434.123036386364
 21
1368.856355037326
 31
0.0
  0
LINE
  5
9F
330
1F
100
AcDbEntity
  8
3-1
  6
Continuous
 62
     2
370
     9
100
AcDbLine
 10
-2434.123036386364
 20
1272.189733931009
 30
0.0
 11
-2434.123036386364
 21
1368.856355037326
 31
0.0
  0
LINE
  5
A0
330
1F
100
AcDbEntity
  8
3-1
  6
Continuous
 62
     2
370
     9
100
AcDbLine
 10
-2492.456228325516
 20
1272.189733931009
 30
0.0
 11
-2488.289666133439
 21
1272.189733931009
 31
0.0
  0
LINE
  5
A1
330
1F
100
AcDbEntity
  8
3-1
  6
JWW_DASHED1
 62
     2
370
     9
100
AcDbLine
 10
-2485.78953063068
 20
1271.703348737745
 30
0.0
 11
-2485.78953063068
 21
1368.856355037326
 31
0.0
  0
LINE
  5
A2
330
1F
100
AcDbEntity
  8
3-1
  6
Continuous
 62
     2
370
     9
100
AcDbLine
 10
-2434.123036386364
 20
1272.189733931009
 30
0.0
 11
-2438.289598578441
 21
1272.189733931009
 31
0.0
  0
LINE
  5
A3
330
1F
100
AcDbEntity
  8
3-1
  6
JWW_DASHED1
 62
     2
370
     9
100
AcDbLine
 10
-2440.789734081201
 20
1271.703348737745
 30
0.0
 11
-2440.789734081201
 21
1368.856355037326
 31
0.0
  0
CIRCLE
  5
A4
330
1F
100
AcDbEntity
  8
3-1
  6
Continuous
 62
     2
370
     9
100
AcDbCircle
 10
-2463.28963235594
 20
1335.522866563152
 30
0.0
 40
14.16666550679249
  0
LINE
  5
A5
330
1F
100
AcDbEntity
  8
3-1
  6
JWW_CENTER2
 62
     2
370
     9
100
AcDbLine
 10
-2463.28963235594
 20
1388.681571805699
 30
0.0
 11
-2463.28963235594
 21
1261.639806636274
 31
0.0
  0
ARC
  5
A6
330
1F
100
AcDbEntity
  8
3-1
  6
Continuous
 62
     2
370
     9
100
AcDbCircle
 10
-1764.955693384184
 20
1265.523036236174
 30
0.0
 40
6.66666608289402
100
AcDbArc
 50
90.0
 51
149.9994903964416
  0
ARC
  5
A7
330
1F
100
AcDbEntity
  8
3-1
  6
Continuous
 62
     2
370
     9
100
AcDbCircle
 10
-1814.955760939182
 20
1265.523036236174
 30
0.0
 40
6.66666608289402
100
AcDbArc
 50
30.00050960355836
 51
89.99999999999999
  0
LINE
  5
A8
330
1F
100
AcDbEntity
  8
3-1
  6
JWW_CENTER2
 62
     2
370
     9
100
AcDbLine
 10
-1789.955727161682
 20
1335.522866563152
 30
0.0
 11
-1809.209313939377
 21
1335.522866563152
 31
0.0
  0
LINE
  5
A9
330
1F
100
AcDbEntity
  8
3-1
  6
JWW_CENTER2
 62
     2
370
     9
100
AcDbLine
 10
-1789.955727161682
 20
1335.522866563152
 30
0.0
 11
-1770.702140383985
 21
1335.522866563152
 31
0.0
  0
LINE
  5
AA
330
1F
100
AcDbEntity
  8
3-1
  6
Continuous
 62
     2
370
     9
100
AcDbLine
 10
-1819.122323131259
 20
1272.189733931009
 30
0.0
 11
-1819.122323131259
 21
1368.856355037326
 31
0.0
  0
LINE
  5
AB
330
1F
100
AcDbEntity
  8
3-1
  6
Continuous
 62
     2
370
     9
100
AcDbLine
 10
-1789.955727161682
 20
1368.856355037326
 30
0.0
 11
-1819.122323131259
 21
1368.856355037326
 31
0.0
  0
LINE
  5
AC
330
1F
100
AcDbEntity
  8
3-1
  6
Continuous
 62
     2
370
     9
100
AcDbLine
 10
-1789.955727161682
 20
1368.856355037326
 30
0.0
 11
-1760.789131192107
 21
1368.856355037326
 31
0.0
  0
LINE
  5
AD
330
1F
100
AcDbEntity
  8
3-1
  6
Continuous
 62
     2
370
     9
100
AcDbLine
 10
-1760.789131192107
 20
1272.189733931009
 30
0.0
 11
-1760.789131192107
 21
1368.856355037326
 31
0.0
  0
LINE
  5
AE
330
1F
100
AcDbEntity
  8
3-1
  6
Continuous
 62
     2
370
     9
100
AcDbLine
 10
-1819.122323131259
 20
1272.189733931009
 30
0.0
 11
-1814.955760939182
 21
1272.189733931009
 31
0.0
  0
LINE
  5
AF
330
1F
100
AcDbEntity
  8
3-1
  6
JWW_DASHED1
 62
     2
370
     9
100
AcDbLine
 10
-1812.455625436422
 20
1271.703348737745
 30
0.0
 11
-1812.455625436422
 21
1368.856355037326
 31
0.0
  0
LINE
  5
B0
330
1F
100
AcDbEntity
  8
3-1
  6
Continuous
 62
     2
370
     9
100
AcDbLine
 10
-1760.789131192107
 20
1272.189733931009
 30
0.0
 11
-1764.955693384184
 21
1272.189733931009
 31
0.0
  0
LINE
  5
B1
330
1F
100
AcDbEntity
  8
3-1
  6
JWW_DASHED1
 62
     2
370
     9
100
AcDbLine
 10
-1767.455828886943
 20
1271.703348737745
 30
0.0
 11
-1767.455828886943
 21
1368.856355037326
 31
0.0
  0
CIRCLE
  5
B2
330
1F
100
AcDbEntity
  8
3-1
  6
Continuous
 62
     2
370
     9
100
AcDbCircle
 10
-1789.955727161682
 20
1335.522866563152
 30
0.0
 40
14.16666550679249
  0
LINE
  5
B3
330
1F
100
AcDbEntity
  8
3-1
  6
JWW_CENTER2
 62
     2
370
     9
100
AcDbLine
 10
-1789.955727161682
 20
1388.681571805699
 30
0.0
 11
-1789.955727161682
 21
1261.639806636274
 31
0.0
  0
ARC
  5
B4
330
1F
100
AcDbEntity
  8
3-1
  6
Continuous
 62
     2
370
     9
100
AcDbCircle
 10
-2438.289598578441
 20
-67.81098678656917
 30
0.0
 40
6.66666608289402
100
AcDbArc
 50
210.0005096035584
 51
270.0
  0
ARC
  5
B5
330
1F
100
AcDbEntity
  8
3-1
  6
Continuous
 62
     2
370
     9
100
AcDbCircle
 10
-2488.289666133439
 20
-67.81098678656917
 30
0.0
 40
6.66666608289402
100
AcDbArc
 50
270.0
 51
329.9994903964416
  0
LINE
  5
B6
330
1F
100
AcDbEntity
  8
3-1
  6
JWW_CENTER2
 62
     2
370
     9
100
AcDbLine
 10
-2463.28963235594
 20
-137.8108171135477
 30
0.0
 11
-2482.543219133635
 21
-137.8108171135477
 31
0.0
  0
LINE
  5
B7
330
1F
100
AcDbEntity
  8
3-1
  6
JWW_CENTER2
 62
     2
370
     9
100
AcDbLine
 10
-2463.28963235594
 20
-137.8108171135477
 30
0.0
 11
-2444.036045578242
 21
-137.8108171135477
 31
0.0
  0
LINE
  5
B8
330
1F
100
AcDbEntity
  8
3-1
  6
Continuous
 62
     2
370
     9
100
AcDbLine
 10
-2492.456228325516
 20
-74.47768448140437
 30
0.0
 11
-2492.456228325516
 21
-171.144305587722
 31
0.0
  0
LINE
  5
B9
330
1F
100
AcDbEntity
  8
3-1
  6
Continuous
 62
     2
370
     9
100
AcDbLine
 10
-2463.28963235594
 20
-171.144305587722
 30
0.0
 11
-2492.456228325516
 21
-171.144305587722
 31
0.0
  0
LINE
  5
BA
330
1F
100
AcDbEntity
  8
3-1
  6
Continuous
 62
     2
370
     9
100
AcDbLine
 10
-2463.28963235594
 20
-171.144305587722
 30
0.0
 11
-2434.123036386364
 21
-171.144305587722
 31
0.0
  0
LINE
  5
BB
330
1F
100
AcDbEntity
  8
3-1
  6
Continuous
 62
     2
370
     9
100
AcDbLine
 10
-2434.123036386364
 20
-74.47768448140437
 30
0.0
 11
-2434.123036386364
 21
-171.144305587722
 31
0.0
  0
LINE
  5
BC
330
1F
100
AcDbEntity
  8
3-1
  6
Continuous
 62
     2
370
     9
100
AcDbLine
 10
-2492.456228325516
 20
-74.47768448140437
 30
0.0
 11
-2488.289666133439
 21
-74.47768448140437
 31
0.0
  0
LINE
  5
BD
330
1F
100
AcDbEntity
  8
3-1
  6
JWW_DASHED1
 62
     2
370
     9
100
AcDbLine
 10
-2485.78953063068
 20
-73.99129928814034
 30
0.0
 11
-2485.78953063068
 21
-171.144305587722
 31
0.0
  0
LINE
  5
BE
330
1F
100
AcDbEntity
  8
3-1
  6
Continuous
 62
     2
370
     9
100
AcDbLine
 10
-2434.123036386364
 20
-74.47768448140437
 30
0.0
 11
-2438.289598578441
 21
-74.47768448140437
 31
0.0
  0
LINE
  5
BF
330
1F
100
AcDbEntity
  8
3-1
  6
JWW_DASHED1
 62
     2
370
     9
100
AcDbLine
 10
-2440.789734081201
 20
-73.99129928814034
 30
0.0
 11
-2440.789734081201
 21
-171.144305587722
 31
0.0
  0
CIRCLE
  5
C0
330
1F
100
AcDbEntity
  8
3-1
  6
Continuous
 62
     2
370
     9
100
AcDbCircle
 10
-2463.28963235594
 20
-137.8108171135477
 30
0.0
 40
14.16666550679249
  0
ARC
  5
C1
330
1F
100
AcDbEntity
  8
3-1
  6
Continuous
 62
     2
370
     9
100
AcDbCircle
 10
-1764.955693384184
 20
-67.81098678656917
 30
0.0
 40
6.66666608289402
100
AcDbArc
 50
210.0005096035584
 51
270.0
  0
ARC
  5
C2
330
1F
100
AcDbEntity
  8
3-1
  6
Continuous
 62
     2
370
     9
100
AcDbCircle
 10
-1814.955760939182
 20
-67.81098678656917
 30
0.0
 40
6.66666608289402
100
AcDbArc
 50
270.0
 51
329.9994903964416
  0
LINE
  5
C3
330
1F
100
AcDbEntity
  8
3-1
  6
JWW_CENTER2
 62
     2
370
     9
100
AcDbLine
 10
-1789.955727161682
 20
-137.8108171135477
 30
0.0
 11
-1809.209313939377
 21
-137.8108171135477
 31
0.0
  0
LINE
  5
C4
330
1F
100
AcDbEntity
  8
3-1
  6
JWW_CENTER2
 62
     2
370
     9
100
AcDbLine
 10
-1789.955727161682
 20
-137.8108171135477
 30
0.0
 11
-1770.702140383985
 21
-137.8108171135477
 31
0.0
  0
LINE
  5
C5
330
1F
100
AcDbEntity
  8
3-1
  6
Continuous
 62
     2
370
     9
100
AcDbLine
 10
-1819.122323131259
 20
-74.47768448140437
 30
0.0
 11
-1819.122323131259
 21
-171.144305587722
 31
0.0
  0
LINE
  5
C6
330
1F
100
AcDbEntity
  8
3-1
  6
Continuous
 62
     2
370
     9
100
AcDbLine
 10
-1789.955727161682
 20
-171.144305587722
 30
0.0
 11
-1819.122323131259
 21
-171.144305587722
 31
0.0
  0
LINE
  5
C7
330
1F
100
AcDbEntity
  8
3-1
  6
Continuous
 62
     2
370
     9
100
AcDbLine
 10
-1789.955727161682
 20
-171.144305587722
 30
0.0
 11
-1760.789131192107
 21
-171.144305587722
 31
0.0
  0
LINE
  5
C8
330
1F
100
AcDbEntity
  8
3-1
  6
Continuous
 62
     2
370
     9
100
AcDbLine
 10
-1760.789131192107
 20
-74.47768448140437
 30
0.0
 11
-1760.789131192107
 21
-171.144305587722
 31
0.0
  0
LINE
  5
C9
330
1F
100
AcDbEntity
  8
3-1
  6
Continuous
 62
     2
370
     9
100
AcDbLine
 10
-1819.122323131259
 20
-74.47768448140437
 30
0.0
 11
-1814.955760939182
 21
-74.47768448140437
 31
0.0
  0
LINE
  5
CA
330
1F
100
AcDbEntity
  8
3-1
  6
JWW_DASHED1
 62
     2
370
     9
100
AcDbLine
 10
-1812.455625436422
 20
-73.99129928814034
 30
0.0
 11
-1812.455625436422
 21
-171.144305587722
 31
0.0
  0
LINE
  5
CB
330
1F
100
AcDbEntity
  8
3-1
  6
Continuous
 62
     2
370
     9
100
AcDbLine
 10
-1760.789131192107
 20
-74.47768448140437
 30
0.0
 11
-1764.955693384184
 21
-74.47768448140437
 31
0.0
  0
LINE
  5
CC
330
1F
100
AcDbEntity
  8
3-1
  6
JWW_DASHED1
 62
     2
370
     9
100
AcDbLine
 10
-1767.455828886943
 20
-73.99129928814034
 30
0.0
 11
-1767.455828886943
 21
-171.144305587722
 31
0.0
  0
CIRCLE
  5
CD
330
1F
100
AcDbEntity
  8
3-1
  6
Continuous
 62
     2
370
     9
100
AcDbCircle
 10
-1789.955727161682
 20
-137.8108171135477
 30
0.0
 40
14.16666550679249
  0
LWPOLYLINE
  5
CE
330
1F
100
AcDbEntity
  8
3-4
  6
Continuous
 62
     7
370
     9
100
AcDbPolyline
 90
        4
 70
     1
 43
2.0
 10
-2795.622910702646
 20
1720.403462332861
 42
0.4142135623731
 10
-2796.622910702646
 20
1721.403462332861
 42
0.4142135623731
 10
-2797.622910702646
 20
1720.403462332861
 42
0.4142135623731
 10
-2796.622910702646
 20
1719.403462332861
 42
0.4142135623731
  0
LWPOLYLINE
  5
CF
330
1F
100
AcDbEntity
  8
3-4
  6
Continuous
 62
     7
370
     9
100
AcDbPolyline
 90
        4
 70
     1
 43
2.0
 10
-1455.623109440026
 20
1720.403462332861
 42
0.4142135623731
 10
-1456.623109440026
 20
1721.403462332861
 42
0.4142135623731
 10
-1457.623109440026
 20
1720.403462332861
 42
0.4142135623731
 10
-1456.623109440026
 20
1719.403462332861
 42
0.4142135623731
  0
LINE
  5
D0
330
1F
100
AcDbEntity
  8
3-4
  6
Continuous
 62
     7
370
     9
100
AcDbLine
 10
-2796.622910702646
 20
1723.403462332861
 30
0.0
 11
-2796.622910702646
 21
1288.856420628518
 31
0.0
  0
LINE
  5
D1
330
1F
100
AcDbEntity
  8
3-4
  6
Continuous
 62
     7
370
     9
100
AcDbLine
 10
-1456.623109440026
 20
1723.403462332861
 30
0.0
 11
-1456.623109440026
 21
1288.856420628518
 31
0.0
  0
LWPOLYLINE
  5
D2
330
1F
100
AcDbEntity
  8
3-4
  6
Continuous
 62
     7
370
     9
100
AcDbPolyline
 90
        4
 70
     1
 43
2.0
 10
-2795.622910702646
 20
-335.3991190066489
 42
0.4142135623731
 10
-2796.622910702646
 20
-334.3991190066489
 42
0.4142135623731
 10
-2797.622910702646
 20
-335.3991190066489
 42
0.4142135623731
 10
-2796.622910702646
 20
-336.3991190066489
 42
0.4142135623731
  0
LWPOLYLINE
  5
D3
330
1F
100
AcDbEntity
  8
3-4
  6
Continuous
 62
     7
370
     9
100
AcDbPolyline
 90
        4
 70
     1
 43
2.0
 10
-2462.28963235594
 20
-335.3991190066489
 42
0.4142135623731
 10
-2463.28963235594
 20
-334.3991190066489
 42
0.4142135623731
 10
-2464.289632355939
 20
-335.3991190066489
 42
0.4142135623731
 10
-2463.28963235594
 20
-336.3991190066489
 42
0.4142135623731
  0
LWPOLYLINE
  5
D4
330
1F
100
AcDbEntity
  8
3-4
  6
Continuous
 62
     7
370
     9
100
AcDbPolyline
 90
        4
 70
     1
 43
2.0
 10
-1788.955727161682
 20
-335.3991190066489
 42
0.4142135623731
 10
-1789.955727161682
 20
-334.3991190066489
 42
0.4142135623731
 10
-1790.955727161682
 20
-335.3991190066489
 42
0.4142135623731
 10
-1789.955727161682
 20
-336.3991190066489
 42
0.4142135623731
  0
LWPOLYLINE
  5
D5
330
1F
100
AcDbEntity
  8
3-4
  6
Continuous
 62
     7
370
     9
100
AcDbPolyline
 90
        4
 70
     1
 43
2.0
 10
-1455.62277873474
 20
-335.3991190066489
 42
0.4142135623731
 10
-1456.62277873474
 20
-334.3991190066489
 42
0.4142135623731
 10
-1457.62277873474
 20
-335.3991190066489
 42
0.4142135623731
 10
-1456.62277873474
 20
-336.3991190066489
 42
0.4142135623731
  0
LINE
  5
D6
330
1F
100
AcDbEntity
  8
3-4
  6
Continuous
 62
     7
370
     9
100
AcDbLine
 10
-1456.62277873474
 20
-338.399119006649
 30
0.0
 11
-1456.62277873474
 21
-91.14373058470505
 31
0.0
  0
LINE
  5
D7
330
1F
100
AcDbEntity
  8
3-4
  6
Continuous
 62
     7
370
     9
100
AcDbLine
 10
-2796.622910702646
 20
-338.399119006649
 30
0.0
 11
-2796.622910702646
 21
-91.14373058470505
 31
0.0
  0
LINE
  5
D8
330
1F
100
AcDbEntity
  8
3-5
  6
Continuous
 62
     4
370
     9
100
AcDbLine
 10
-1354.649262144146
 20
598.8561700466028
 30
0.0
 11
-1354.649262144146
 21
528.8561700466028
 31
0.0
  0
LINE
  5
D9
330
1F
100
AcDbEntity
  8
3-5
  6
Continuous
 62
     4
370
     9
100
AcDbLine
 10
-1354.649262144146
 20
598.8561700466028
 30
0.0
 11
-1362.649262144146
 21
568.8561700466028
 31
0.0
  0
LINE
  5
DA
330
1F
100
AcDbEntity
  8
3-5
  6
Continuous
 62
     4
370
     9
100
AcDbLine
 10
-1354.649262144146
 20
598.8561700466028
 30
0.0
 11
-1346.649262144145
 21
568.8561700466028
 31
0.0
  0
LINE
  5
DB
330
1F
100
AcDbEntity
  8
3-5
  6
Continuous
 62
     4
370
     9
100
AcDbLine
 10
-2898.597107949135
 20
598.8561700466028
 30
0.0
 11
-2898.597107949135
 21
528.8561700466028
 31
0.0
  0
LINE
  5
DC
330
1F
100
AcDbEntity
  8
3-5
  6
Continuous
 62
     4
370
     9
100
AcDbLine
 10
-2898.597107949135
 20
598.8561700466028
 30
0.0
 11
-2890.597107949134
 21
568.8561700466028
 31
0.0
  0
LINE
  5
DD
330
1F
100
AcDbEntity
  8
3-5
  6
Continuous
 62
     4
370
     9
100
AcDbLine
 10
-2898.597107949135
 20
598.8561700466028
 30
0.0
 11
-2906.597107949135
 21
568.8561700466028
 31
0.0
  0
TEXT
  5
DE
330
1F
100
AcDbEntity
  8
3-5
  6
Continuous
 62
     2
370
     9
100
AcDbText
 10
-2918.597107949135
 20
484.4961700466023
 30
0.0
 40
30.48000000000087
  1
Ａ
 41
0.9999999999999716
  7
ＭＳ ゴシック
100
AcDbText
  0
TEXT
  5
DF
330
1F
100
AcDbEntity
  8
3-5
  6
Continuous
 62
     2
370
     9
100
AcDbText
 10
-1374.649262144146
 20
484.4961700466023
 30
0.0
 40
30.48000000000087
  1
Ａ
  7
ＭＳ ゴシック
100
AcDbText
  0
LINE
  5
E0
330
1F
100
AcDbEntity
  8
3-5
  6
JWW_CENTER1
 62
     4
370
     9
100
AcDbLine
 10
-2898.597107949135
 20
598.8561700466028
 30
0.0
 11
-2714.755102040815
 21
598.8561700466028
 31
0.0
  0
LINE
  5
E1
330
1F
100
AcDbEntity
  8
3-5
  6
JWW_CENTER1
 62
     4
370
     9
100
AcDbLine
 10
-1533.639455782312
 20
598.8561700466028
 30
0.0
 11
-1354.649262144146
 21
598.8561700466028
 31
0.0
  0
LWPOLYLINE
  5
E2
330
1F
100
AcDbEntity
  8
3-4
  6
Continuous
 62
     7
370
     9
100
AcDbPolyline
 90
        4
 70
     1
 43
2.0
 10
-967.5113378684805
 20
1268.856420628518
 42
0.4142135623731
 10
-968.5113378684804
 20
1269.856420628518
 42
0.4142135623731
 10
-969.5113378684803
 20
1268.856420628518
 42
0.4142135623731
 10
-968.5113378684804
 20
1267.856420628518
 42
0.4142135623731
  0
LWPOLYLINE
  5
E3
330
1F
100
AcDbEntity
  8
3-4
  6
Continuous
 62
     7
370
     9
100
AcDbPolyline
 90
        4
 70
     1
 43
2.0
 10
-967.5113378684805
 20
-71.14373058470505
 42
0.4142135623731
 10
-968.5113378684804
 20
-70.14373058470505
 42
0.4142135623731
 10
-969.5113378684803
 20
-71.14373058470505
 42
0.4142135623731
 10
-968.5113378684804
 20
-72.14373058470505
 42
0.4142135623731
  0
LWPOLYLINE
  5
E4
330
1F
100
AcDbEntity
  8
3-4
  6
Continuous
 62
     7
370
     9
100
AcDbPolyline
 90
        4
 70
     1
 43
2.0
 10
-1198.131645250693
 20
1158.856232102939
 42
0.4142135623731
 10
-1199.131645250693
 20
1159.856232102939
 42
0.4142135623731
 10
-1200.131645250692
 20
1158.856232102939
 42
0.4142135623731
 10
-1199.131645250693
 20
1157.856232102939
 42
0.4142135623731
  0
LWPOLYLINE
  5
E5
330
1F
100
AcDbEntity
  8
3-4
  6
Continuous
 62
     7
370
     9
100
AcDbPolyline
 90
        4
 70
     1
 43
2.0
 10
-1198.131645250693
 20
38.85610799026836
 42
0.4142135623731
 10
-1199.131645250693
 20
39.85610799026836
 42
0.4142135623731
 10
-1200.131645250692
 20
38.85610799026836
 42
0.4142135623731
 10
-1199.131645250693
 20
37.85610799026836
 42
0.4142135623731
  0
LINE
  5
E6
330
1F
100
AcDbEntity
  8
3-4
  6
Continuous
 62
     7
370
     9
100
AcDbLine
 10
-965.5113378684803
 20
1268.856420628518
 30
0.0
 11
-1436.623109440026
 21
1268.856420628518
 31
0.0
  0
LINE
  5
E7
330
1F
100
AcDbEntity
  8
3-4
  6
Continuous
 62
     7
370
     9
100
AcDbLine
 10
-965.5113378684803
 20
-71.14373058470505
 30
0.0
 11
-1436.623109440026
 21
-71.14373058470505
 31
0.0
  0
LINE
  5
E8
330
1F
100
AcDbEntity
  8
3-4
  6
Continuous
 62
     7
370
     9
100
AcDbLine
 10
-1196.131645250692
 20
1158.856232102939
 30
0.0
 11
-1436.623109440026
 21
1158.856232102939
 31
0.0
  0
LINE
  5
E9
330
1F
100
AcDbEntity
  8
3-4
  6
Continuous
 62
     7
370
     9
100
AcDbLine
 10
-1196.131645250692
 20
38.85610799026836
 30
0.0
 11
-1436.623109440026
 21
38.85610799026836
 31
0.0
  0
LINE
  5
EA
330
1F
100
AcDbEntity
  8
3-4
  6
Continuous
 62
     7
370
     9
100
AcDbLine
 10
-1476.623185046639
 20
1291.70093440811
 30
0.0
 11
-1476.623185046639
 21
1288.856420628518
 31
0.0
  0
LWPOLYLINE
  5
EB
330
1F
100
AcDbEntity
  8
3-4
  6
Continuous
 62
     7
370
     9
100
AcDbPolyline
 90
        4
 70
     1
 43
2.0
 10
-2765.62318504664
 20
1492.935250356711
 42
0.4142135623731
 10
-2766.62318504664
 20
1493.935250356711
 42
0.4142135623731
 10
-2767.623185046641
 20
1492.935250356711
 42
0.4142135623731
 10
-2766.62318504664
 20
1491.935250356711
 42
0.4142135623731
  0
LWPOLYLINE
  5
EC
330
1F
100
AcDbEntity
  8
3-4
  6
Continuous
 62
     7
370
     9
100
AcDbPolyline
 90
        4
 70
     1
 43
2.0
 10
-1485.623185046639
 20
1492.935250356711
 42
0.4142135623731
 10
-1486.623185046639
 20
1493.935250356711
 42
0.4142135623731
 10
-1487.623185046639
 20
1492.935250356711
 42
0.4142135623731
 10
-1486.623185046639
 20
1491.935250356711
 42
0.4142135623731
  0
LINE
  5
ED
330
1F
100
AcDbEntity
  8
3-4
  6
Continuous
 62
     7
370
     9
100
AcDbLine
 10
-1486.623185046639
 20
1495.935250356711
 30
0.0
 11
-1486.623185046639
 21
1288.856420628518
 31
0.0
  0
LWPOLYLINE
  5
EE
330
1F
100
AcDbEntity
  8
3-4
  6
Continuous
 62
     7
370
     9
100
AcDbPolyline
 90
        4
 70
     1
 43
2.0
 10
-2775.62318504664
 20
1606.669356344785
 42
0.4142135623731
 10
-2776.62318504664
 20
1607.669356344785
 42
0.4142135623731
 10
-2777.623185046641
 20
1606.669356344785
 42
0.4142135623731
 10
-2776.62318504664
 20
1605.669356344785
 42
0.4142135623731
  0
LWPOLYLINE
  5
EF
330
1F
100
AcDbEntity
  8
3-4
  6
Continuous
 62
     7
370
     9
100
AcDbPolyline
 90
        4
 70
     1
 43
2.0
 10
-1475.623185046639
 20
1606.669356344785
 42
0.4142135623731
 10
-1476.623185046639
 20
1607.669356344785
 42
0.4142135623731
 10
-1477.623185046639
 20
1606.669356344785
 42
0.4142135623731
 10
-1476.623185046639
 20
1605.669356344785
 42
0.4142135623731
  0
LINE
  5
F0
330
1F
100
AcDbEntity
  8
3-4
  6
Continuous
 62
     7
370
     9
100
AcDbLine
 10
-2776.62318504664
 20
1609.669356344785
 30
0.0
 11
-2776.62318504664
 21
1288.856420628518
 31
0.0
  0
LINE
  5
F1
330
1F
100
AcDbEntity
  8
3-4
  6
Continuous
 62
     7
370
     9
100
AcDbLine
 10
-1476.623185046639
 20
1609.669356344785
 30
0.0
 11
-1476.623185046639
 21
1291.70093440811
 31
0.0
  0
LINE
  5
F2
330
1F
100
AcDbEntity
  8
3-5
  6
Continuous
 62
     7
370
     9
100
AcDbLine
 10
-2352.231899225383
 20
-629.6021756123099
 30
0.0
 11
-1900.936291219522
 21
-629.6021756123099
 31
0.0
  0
TEXT
  5
F3
330
1F
100
AcDbEntity
  8
3-5
  6
Continuous
 62
     2
370
     9
100
AcDbText
 10
-2326.66126429517
 20
-614.2592816227244
 30
0.0
 40
30.48000000000022
  1
平面図　Ｓ＝１：３
 41
1.111111111111102
  7
ＭＳ ゴシック
100
AcDbText
  0
TEXT
  5
F4
330
1F
100
AcDbEntity
  8
3-5
  6
Continuous
 62
     6
370
     9
100
AcDbText
 10
-2543.737147555123
 20
2195.905671584462
 30
0.0
 40
60.95999999999914
  1
縦断方向（側溝方向）
 41
1.112500000000015
  7
ＭＳ ゴシック
100
AcDbText
  0
LINE
  5
F5
330
1F
100
AcDbEntity
  8
3-5
  6
Continuous
 62
     7
370
     9
100
AcDbLine
 10
-2479.32489781792
 20
2381.422357943534
 30
0.0
 11
-2395.991564484585
 21
2298.089024610199
 31
0.0
  0
LINE
  5
F6
330
1F
100
AcDbEntity
  8
3-5
  6
Continuous
 62
     7
370
     9
100
AcDbLine
 10
-2479.32489781792
 20
2381.422357943534
 30
0.0
 11
-2395.991564484585
 21
2464.755691276866
 31
0.0
  0
LINE
  5
F7
330
1F
100
AcDbEntity
  8
3-5
  6
Continuous
 62
     7
370
     9
100
AcDbLine
 10
-2395.991564484585
 20
2298.089024610199
 30
0.0
 11
-2395.991564484585
 21
2339.755691276866
 31
0.0
  0
LINE
  5
F8
330
1F
100
AcDbEntity
  8
3-5
  6
Continuous
 62
     7
370
     9
100
AcDbLine
 10
-2395.991564484585
 20
2423.089024610199
 30
0.0
 11
-2395.991564484585
 21
2464.755691276866
 31
0.0
  0
LINE
  5
F9
330
1F
100
AcDbEntity
  8
3-5
  6
Continuous
 62
     7
370
     9
100
AcDbLine
 10
-1779.498294827996
 20
2381.422357943534
 30
0.0
 11
-1862.831628161329
 21
2298.089024610199
 31
0.0
  0
LINE
  5
FA
330
1F
100
AcDbEntity
  8
3-5
  6
Continuous
 62
     7
370
     9
100
AcDbLine
 10
-1779.498294827996
 20
2381.422357943534
 30
0.0
 11
-1862.831628161329
 21
2464.755691276866
 31
0.0
  0
LINE
  5
FB
330
1F
100
AcDbEntity
  8
3-5
  6
Continuous
 62
     7
370
     9
100
AcDbLine
 10
-1862.831628161329
 20
2298.089024610199
 30
0.0
 11
-1862.831628161329
 21
2339.755691276866
 31
0.0
  0
LINE
  5
FC
330
1F
100
AcDbEntity
  8
3-5
  6
Continuous
 62
     7
370
     9
100
AcDbLine
 10
-1862.831628161329
 20
2423.089024610199
 30
0.0
 11
-1862.831628161329
 21
2464.755691276866
 31
0.0
  0
LINE
  5
FD
330
1F
100
AcDbEntity
  8
3-5
  6
Continuous
 62
     7
370
     9
100
AcDbLine
 10
-2395.991564484585
 20
2423.089024610199
 30
0.0
 11
-1862.831628161329
 21
2423.089024610199
 31
0.0
  0
LINE
  5
FE
330
1F
100
AcDbEntity
  8
3-5
  6
Continuous
 62
     7
370
     9
100
AcDbLine
 10
-2395.991564484585
 20
2339.755691276866
 30
0.0
 11
-1862.831628161329
 21
2339.755691276866
 31
0.0
  0
CIRCLE
  5
FF
330
1F
100
AcDbEntity
  8
3-E
  6
Continuous
 62
     7
370
     9
100
AcDbCircle
 10
614.4938071346417
 20
-1529.774424334149
 30
0.0
 40
1.666666666666667
  0
LINE
  5
100
330
1F
100
AcDbEntity
  8
3-E
  6
Continuous
 62
     2
370
     9
100
AcDbLine
 10
1222.671842345354
 20
-1184.646573155008
 30
0.0
 11
1255.138679910458
 21
-1152.17974830557
 31
0.0
  0
LINE
  5
101
330
1F
100
AcDbEntity
  8
3-E
  6
Continuous
 62
     2
370
     9
100
AcDbLine
 10
1222.671842345354
 20
-1278.927477289122
 30
0.0
 11
1349.419584044573
 21
-1152.179748305568
 31
0.0
  0
LINE
  5
102
330
1F
100
AcDbEntity
  8
3-E
  6
Continuous
 62
     2
370
     9
100
AcDbLine
 10
1243.700488178688
 20
-1352.179748305561
 30
0.0
 11
1443.70047546303
 21
-1152.17974830556
 31
0.0
  0
LINE
  5
103
330
1F
100
AcDbEntity
  8
3-E
  6
Continuous
 62
     2
370
     9
100
AcDbLine
 10
1337.981392312802
 20
-1352.179748305561
 30
0.0
 11
1537.981379597145
 21
-1152.179748305568
 31
0.0
  0
LINE
  5
104
330
1F
100
AcDbEntity
  8
3-E
  6
Continuous
 62
     2
370
     9
100
AcDbLine
 10
1432.262283731259
 20
-1352.179748305561
 30
0.0
 11
1589.33850901202
 21
-1195.1035230248
 31
0.0
  0
LINE
  5
105
330
1F
100
AcDbEntity
  8
3-E
  6
Continuous
 62
     2
370
     9
100
AcDbLine
 10
1526.543187865374
 20
-1352.179748305561
 30
0.0
 11
1589.33850901202
 21
-1289.384427158914
 31
0.0
  0
LINE
  5
106
330
1F
100
AcDbEntity
  8
3-E
  6
Continuous
 62
     2
370
     9
100
AcDbLine
 10
1589.33850901202
 20
-1152.179748305561
 30
0.0
 11
1589.33850901202
 21
-1352.179748305561
 31
0.0
  0
LINE
  5
107
330
1F
100
AcDbEntity
  8
3-E
  6
Continuous
 62
     2
370
     9
100
AcDbLine
 10
1222.671842345354
 20
-1152.179748305561
 30
0.0
 11
1589.33850901202
 21
-1152.179748305561
 31
0.0
  0
LINE
  5
108
330
1F
100
AcDbEntity
  8
3-E
  6
Continuous
 62
     2
370
     9
100
AcDbLine
 10
1222.671842345354
 20
-1152.179748305561
 30
0.0
 11
1222.671842345354
 21
-1352.179748305561
 31
0.0
  0
LINE
  5
109
330
1F
100
AcDbEntity
  8
3-E
  6
Continuous
 62
     2
370
     9
100
AcDbLine
 10
1222.671842345354
 20
-1352.179748305561
 30
0.0
 11
1589.33850901202
 21
-1352.179748305561
 31
0.0
  0
LINE
  5
10A
330
1F
100
AcDbEntity
  8
3-E
  6
Continuous
 62
     2
370
     9
100
AcDbLine
 10
1599.33850901202
 20
-1152.179748305561
 30
0.0
 11
1599.33850901202
 21
-1352.179748305561
 31
0.0
  0
LINE
  5
10B
330
1F
100
AcDbEntity
  8
3-E
  6
Continuous
 62
     2
370
     9
100
AcDbLine
 10
1212.671842345354
 20
-1152.179748305561
 30
0.0
 11
1212.671842345354
 21
-1352.179748305561
 31
0.0
  0
CIRCLE
  5
10C
330
1F
100
AcDbEntity
  8
3-E
  6
Continuous
 62
     7
370
     9
100
AcDbCircle
 10
1628.152588751459
 20
-1372.444868799043
 30
0.0
 40
1.666666666666667
  0
CIRCLE
  5
10D
330
1F
100
AcDbEntity
  8
3-E
  6
Continuous
 62
     7
370
     9
100
AcDbCircle
 10
1586.073322787668
 20
-1357.660261838792
 30
0.0
 40
1.666666666666667
  0
CIRCLE
  5
10E
330
1F
100
AcDbEntity
  8
3-E
  6
Continuous
 62
     7
370
     9
100
AcDbCircle
 10
1544.562695553118
 20
-1392.915863051698
 30
0.0
 40
1.666666666666667
  0
CIRCLE
  5
10F
330
1F
100
AcDbEntity
  8
3-E
  6
Continuous
 62
     7
370
     9
100
AcDbCircle
 10
1593.465626267794
 20
-1393.484501780938
 30
0.0
 40
1.666666666666667
  0
CIRCLE
  5
110
330
1F
100
AcDbEntity
  8
3-E
  6
Continuous
 62
     7
370
     9
100
AcDbCircle
 10
1507.03253942325
 20
-1360.503455484994
 30
0.0
 40
1.666666666666667
  0
CIRCLE
  5
111
330
1F
100
AcDbEntity
  8
3-E
  6
Continuous
 62
     7
370
     9
100
AcDbCircle
 10
1473.482854398064
 20
-1387.798114488534
 30
0.0
 40
1.666666666666667
  0
CIRCLE
  5
112
330
1F
100
AcDbEntity
  8
3-E
  6
Continuous
 62
     7
370
     9
100
AcDbCircle
 10
1516.130759091097
 20
-1395.19041796866
 30
0.0
 40
1.666666666666667
  0
CIRCLE
  5
113
330
1F
100
AcDbEntity
  8
3-E
  6
Continuous
 62
     7
370
     9
100
AcDbCircle
 10
1383.069296448839
 20
-1369.0330364236
 30
0.0
 40
1.666666666666667
  0
CIRCLE
  5
114
330
1F
100
AcDbEntity
  8
3-E
  6
Continuous
 62
     7
370
     9
100
AcDbCircle
 10
1372.833799322511
 20
-1390.641308134736
 30
0.0
 40
1.666666666666667
  0
CIRCLE
  5
115
330
1F
100
AcDbEntity
  8
3-E
  6
Continuous
 62
     7
370
     9
100
AcDbCircle
 10
1302.322596896699
 20
-1357.660261838792
 30
0.0
 40
1.666666666666667
  0
CIRCLE
  5
116
330
1F
100
AcDbEntity
  8
3-E
  6
Continuous
 62
     7
370
     9
100
AcDbCircle
 10
1294.930293416575
 20
-1380.405811008409
 30
0.0
 40
1.666666666666667
  0
CIRCLE
  5
117
330
1F
100
AcDbEntity
  8
3-E
  6
Continuous
 62
     7
370
     9
100
AcDbCircle
 10
1329.048617170999
 20
-1390.641308134736
 30
0.0
 40
1.666666666666667
  0
CIRCLE
  5
118
330
1F
100
AcDbEntity
  8
3-E
  6
Continuous
 62
     7
370
     9
100
AcDbCircle
 10
1215.320871322916
 20
-1375.288062445245
 30
0.0
 40
1.666666666666667
  0
CIRCLE
  5
119
330
1F
100
AcDbEntity
  8
3-E
  6
Continuous
 62
     7
370
     9
100
AcDbCircle
 10
1254.556943640505
 20
-1367.89575896512
 30
0.0
 40
1.666666666666667
  0
CIRCLE
  5
11A
330
1F
100
AcDbEntity
  8
3-E
  6
Continuous
 62
     7
370
     9
100
AcDbCircle
 10
1255.125582369744
 20
-1391.778585593217
 30
0.0
 40
1.666666666666667
  0
CIRCLE
  5
11B
330
1F
100
AcDbEntity
  8
3-E
  6
Continuous
 62
     7
370
     9
100
AcDbCircle
 10
715.3083941054484
 20
-1418.191213619181
 30
0.0
 40
1.666666666666667
  0
CIRCLE
  5
11C
330
1F
100
AcDbEntity
  8
3-E
  6
Continuous
 62
     7
370
     9
100
AcDbCircle
 10
720.4982051045329
 20
-1375.898021556366
 30
0.0
 40
1.666666666666667
  0
LINE
  5
11D
330
1F
100
AcDbEntity
  8
3-1
  6
Continuous
 62
     2
370
     9
100
AcDbLine
 10
736.005131689385
 20
-1152.180188198579
 30
0.0
 11
749.3383440521393
 21
-1152.180188198579
 31
0.0
  0
CIRCLE
  5
11E
330
1F
100
AcDbEntity
  8
3-E
  6
Continuous
 62
     7
370
     9
100
AcDbCircle
 10
919.8297729836827
 20
-1365.621204048158
 30
0.0
 40
1.666666666666667
  0
CIRCLE
  5
11F
330
1F
100
AcDbEntity
  8
3-E
  6
Continuous
 62
     7
370
     9
100
AcDbCircle
 10
904.4765272941913
 20
-1386.660837030053
 30
0.0
 40
1.666666666666667
  0
CIRCLE
  5
120
330
1F
100
AcDbEntity
  8
3-E
  6
Continuous
 62
     7
370
     9
100
AcDbCircle
 10
859.5540676841995
 20
-1289.139294965321
 30
0.0
 40
1.666666666666667
  0
CIRCLE
  5
121
330
1F
100
AcDbEntity
  8
3-E
  6
Continuous
 62
     7
370
     9
100
AcDbCircle
 10
857.8481514964778
 20
-1255.589609940138
 30
0.0
 40
1.666666666666667
  0
CIRCLE
  5
122
330
1F
100
AcDbEntity
  8
3-E
  6
Continuous
 62
     7
370
     9
100
AcDbCircle
 10
860.1227064134383
 20
-1216.922176351789
 30
0.0
 40
1.666666666666667
  0
CIRCLE
  5
123
330
1F
100
AcDbEntity
  8
3-E
  6
Continuous
 62
     7
370
     9
100
AcDbCircle
 10
856.7108740379967
 20
-1187.352962431287
 30
0.0
 40
1.666666666666667
  0
CIRCLE
  5
124
330
1F
100
AcDbEntity
  8
3-E
  6
Continuous
 62
     7
370
     9
100
AcDbCircle
 10
2107.124450392267
 20
-1419.920136511728
 30
0.0
 40
1.666666666666667
  0
CIRCLE
  5
125
330
1F
100
AcDbEntity
  8
3-E
  6
Continuous
 62
     7
370
     9
100
AcDbCircle
 10
2087.411641111933
 20
-1387.649888627334
 30
0.0
 40
1.666666666666667
  0
LINE
  5
126
330
1F
100
AcDbEntity
  8
3-1
  6
Continuous
 62
     2
370
     9
100
AcDbLine
 10
2076.004664303055
 20
-1152.180188198579
 30
0.0
 11
2062.671616900182
 21
-1152.180188198579
 31
0.0
  0
CIRCLE
  5
127
330
1F
100
AcDbEntity
  8
3-E
  6
Continuous
 62
     7
370
     9
100
AcDbCircle
 10
1948.095152448029
 20
-1206.970998590082
 30
0.0
 40
1.666666666666667
  0
CIRCLE
  5
128
330
1F
100
AcDbEntity
  8
3-E
  6
Continuous
 62
     7
370
     9
100
AcDbCircle
 10
1953.212901011194
 20
-1267.815342618806
 30
0.0
 40
1.666666666666667
  0
CIRCLE
  5
129
330
1F
100
AcDbEntity
  8
3-E
  6
Continuous
 62
     7
370
     9
100
AcDbCircle
 10
1954.918817198916
 20
-1313.30644095804
 30
0.0
 40
1.666666666666667
  0
CIRCLE
  5
12A
330
1F
100
AcDbEntity
  8
3-E
  6
Continuous
 62
     7
370
     9
100
AcDbCircle
 10
1925.918242007654
 20
-1369.601675152841
 30
0.0
 40
1.666666666666667
  0
CIRCLE
  5
12B
330
1F
100
AcDbEntity
  8
3-E
  6
Continuous
 62
     7
370
     9
100
AcDbCircle
 10
1906.58452521348
 20
-1388.935391947015
 30
0.0
 40
1.666666666666667
  0
LINE
  5
12C
330
1F
100
AcDbEntity
  8
3-E
  6
Continuous
 62
     2
370
     9
100
AcDbLine
 10
872.5703634250272
 20
-1152.179748305561
 30
0.0
 11
872.5703634250272
 21
-1352.179748305561
 31
0.0
  0
LINE
  5
12D
330
1F
100
AcDbEntity
  8
3-E
  6
Continuous
 62
     2
370
     9
100
AcDbLine
 10
872.5703634250272
 20
-1352.179748305561
 30
0.0
 11
1212.671842345354
 21
-1352.179748305561
 31
0.0
  0
LINE
  5
12E
330
1F
100
AcDbEntity
  8
3-E
  6
Continuous
 62
     2
370
     9
100
AcDbLine
 10
872.5703634250272
 20
-1152.179748305561
 30
0.0
 11
1212.671842345354
 21
-1152.179748305561
 31
0.0
  0
LINE
  5
12F
330
1F
100
AcDbEntity
  8
3-E
  6
Continuous
 62
     2
370
     9
100
AcDbLine
 10
1939.439987932346
 20
-1152.179748305561
 30
0.0
 11
1939.439987932346
 21
-1352.179748305561
 31
0.0
  0
LINE
  5
130
330
1F
100
AcDbEntity
  8
3-E
  6
Continuous
 62
     2
370
     9
100
AcDbLine
 10
1599.33850901202
 20
-1352.179748305561
 30
0.0
 11
1939.439987932346
 21
-1352.179748305561
 31
0.0
  0
LINE
  5
131
330
1F
100
AcDbEntity
  8
3-E
  6
Continuous
 62
     2
370
     9
100
AcDbLine
 10
1599.33850901202
 20
-1152.179748305561
 30
0.0
 11
1939.439987932346
 21
-1152.179748305561
 31
0.0
  0
LINE
  5
132
330
1F
100
AcDbEntity
  8
3-E
  6
Continuous
 62
     2
370
     9
100
AcDbLine
 10
961.3147256461355
 20
-1352.179748305561
 30
0.0
 11
1161.314712930478
 21
-1152.179748305568
 31
0.0
  0
LINE
  5
133
330
1F
100
AcDbEntity
  8
3-E
  6
Continuous
 62
     2
370
     9
100
AcDbLine
 10
1055.595617064592
 20
-1352.179748305561
 30
0.0
 11
1212.671842345354
 21
-1195.1035230248
 31
0.0
  0
LINE
  5
134
330
1F
100
AcDbEntity
  8
3-E
  6
Continuous
 62
     2
370
     9
100
AcDbLine
 10
1149.876521198707
 20
-1352.179748305561
 30
0.0
 11
1212.671842345354
 21
-1289.384427158914
 31
0.0
  0
LINE
  5
135
330
1F
100
AcDbEntity
  8
3-E
  6
Continuous
 62
     2
370
     9
100
AcDbLine
 10
872.5703634250272
 20
-1158.081395812948
 30
0.0
 11
878.4720132437917
 21
-1152.17974830557
 31
0.0
  0
LINE
  5
136
330
1F
100
AcDbEntity
  8
3-E
  6
Continuous
 62
     2
370
     9
100
AcDbLine
 10
872.5703634250272
 20
-1252.362292207872
 30
0.0
 11
972.7529173779067
 21
-1152.179748305568
 31
0.0
  0
LINE
  5
137
330
1F
100
AcDbEntity
  8
3-E
  6
Continuous
 62
     2
370
     9
100
AcDbLine
 10
872.5703634250272
 20
-1346.643206040551
 30
0.0
 11
1067.033808796364
 21
-1152.17974830556
 31
0.0
  0
LINE
  5
138
330
1F
100
AcDbEntity
  8
3-E
  6
Continuous
 62
     2
370
     9
100
AcDbLine
 10
1688.082871233129
 20
-1352.179748305561
 30
0.0
 11
1888.082858517471
 21
-1152.179748305568
 31
0.0
  0
LINE
  5
139
330
1F
100
AcDbEntity
  8
3-E
  6
Continuous
 62
     2
370
     9
100
AcDbLine
 10
1782.363762651586
 20
-1352.179748305561
 30
0.0
 11
1939.439987932346
 21
-1195.1035230248
 31
0.0
  0
LINE
  5
13A
330
1F
100
AcDbEntity
  8
3-E
  6
Continuous
 62
     2
370
     9
100
AcDbLine
 10
1876.644666785699
 20
-1352.179748305561
 30
0.0
 11
1939.439987932346
 21
-1289.384427158914
 31
0.0
  0
LINE
  5
13B
330
1F
100
AcDbEntity
  8
3-E
  6
Continuous
 62
     2
370
     9
100
AcDbLine
 10
1599.33850901202
 20
-1158.081395812948
 30
0.0
 11
1605.240158830785
 21
-1152.17974830557
 31
0.0
  0
LINE
  5
13C
330
1F
100
AcDbEntity
  8
3-E
  6
Continuous
 62
     2
370
     9
100
AcDbLine
 10
1599.33850901202
 20
-1252.362292207872
 30
0.0
 11
1699.521062964898
 21
-1152.179748305568
 31
0.0
  0
LINE
  5
13D
330
1F
100
AcDbEntity
  8
3-E
  6
Continuous
 62
     2
370
     9
100
AcDbLine
 10
1599.33850901202
 20
-1346.643206040551
 30
0.0
 11
1793.801954383355
 21
-1152.17974830556
 31
0.0
  0
CIRCLE
  5
13E
330
1F
100
AcDbEntity
  8
3-E
  6
Continuous
 62
     7
370
     9
100
AcDbCircle
 10
953.5197399826757
 20
-1371.676405177544
 30
0.0
 40
1.666666666666667
  0
CIRCLE
  5
13F
330
1F
100
AcDbEntity
  8
3-E
  6
Continuous
 62
     7
370
     9
100
AcDbCircle
 10
993.3244510295049
 20
-1388.166928325515
 30
0.0
 40
1.666666666666667
  0
CIRCLE
  5
140
330
1F
100
AcDbEntity
  8
3-E
  6
Continuous
 62
     7
370
     9
100
AcDbCircle
 10
992.7558123002632
 20
-1364.284101697418
 30
0.0
 40
1.666666666666667
  0
CIRCLE
  5
141
330
1F
100
AcDbEntity
  8
3-E
  6
Continuous
 62
     7
370
     9
100
AcDbCircle
 10
1027.303821936971
 20
-1373.340707778016
 30
0.0
 40
1.666666666666667
  0
CIRCLE
  5
142
330
1F
100
AcDbEntity
  8
3-E
  6
Continuous
 62
     7
370
     9
100
AcDbCircle
 10
1067.1085329838
 20
-1389.831230925988
 30
0.0
 40
1.666666666666667
  0
CIRCLE
  5
143
330
1F
100
AcDbEntity
  8
3-E
  6
Continuous
 62
     7
370
     9
100
AcDbCircle
 10
1066.539894254558
 20
-1365.948404297891
 30
0.0
 40
1.666666666666667
  0
CIRCLE
  5
144
330
1F
100
AcDbEntity
  8
3-E
  6
Continuous
 62
     7
370
     9
100
AcDbCircle
 10
1129.935815632795
 20
-1370.012102577071
 30
0.0
 40
1.666666666666667
  0
CIRCLE
  5
145
330
1F
100
AcDbEntity
  8
3-E
  6
Continuous
 62
     7
370
     9
100
AcDbCircle
 10
1169.740526679623
 20
-1386.502625725043
 30
0.0
 40
1.666666666666667
  0
CIRCLE
  5
146
330
1F
100
AcDbEntity
  8
3-E
  6
Continuous
 62
     7
370
     9
100
AcDbCircle
 10
1169.171887950383
 20
-1362.619799096945
 30
0.0
 40
1.666666666666667
  0
CIRCLE
  5
147
330
1F
100
AcDbEntity
  8
3-E
  6
Continuous
 62
     7
370
     9
100
AcDbCircle
 10
1668.684436594182
 20
-1371.537713294171
 30
0.0
 40
1.666666666666667
  0
CIRCLE
  5
148
330
1F
100
AcDbEntity
  8
3-E
  6
Continuous
 62
     7
370
     9
100
AcDbCircle
 10
1708.48914764101
 20
-1388.028236442143
 30
0.0
 40
1.666666666666667
  0
CIRCLE
  5
149
330
1F
100
AcDbEntity
  8
3-E
  6
Continuous
 62
     7
370
     9
100
AcDbCircle
 10
1707.92050891177
 20
-1364.145409814045
 30
0.0
 40
1.666666666666667
  0
CIRCLE
  5
14A
330
1F
100
AcDbEntity
  8
3-E
  6
Continuous
 62
     7
370
     9
100
AcDbCircle
 10
1736.920843213567
 20
-1376.530621095589
 30
0.0
 40
1.666666666666667
  0
CIRCLE
  5
14B
330
1F
100
AcDbEntity
  8
3-E
  6
Continuous
 62
     7
370
     9
100
AcDbCircle
 10
1776.725554260395
 20
-1393.021144243562
 30
0.0
 40
1.666666666666667
  0
CIRCLE
  5
14C
330
1F
100
AcDbEntity
  8
3-E
  6
Continuous
 62
     7
370
     9
100
AcDbCircle
 10
1776.156915531155
 20
-1369.138317615464
 30
0.0
 40
1.666666666666667
  0
CIRCLE
  5
14D
330
1F
100
AcDbEntity
  8
3-E
  6
Continuous
 62
     7
370
     9
100
AcDbCircle
 10
1825.683648572117
 20
-1374.866318495117
 30
0.0
 40
1.666666666666667
  0
CIRCLE
  5
14E
330
1F
100
AcDbEntity
  8
3-E
  6
Continuous
 62
     7
370
     9
100
AcDbCircle
 10
1865.488359618946
 20
-1391.356841643088
 30
0.0
 40
1.666666666666667
  0
CIRCLE
  5
14F
330
1F
100
AcDbEntity
  8
3-E
  6
Continuous
 62
     7
370
     9
100
AcDbCircle
 10
1864.919720889704
 20
-1367.474015014991
 30
0.0
 40
1.666666666666667
  0
CIRCLE
  5
150
330
1F
100
AcDbEntity
  8
3-E
  6
Continuous
 62
     7
370
     9
100
AcDbCircle
 10
445.7396729348238
 20
-1418.191213619181
 30
0.0
 40
1.666666666666667
  0
CIRCLE
  5
151
330
1F
100
AcDbEntity
  8
3-E
  6
Continuous
 62
     7
370
     9
100
AcDbCircle
 10
384.8693165414579
 20
-1419.640507819028
 30
0.0
 40
1.666666666666667
  0
CIRCLE
  5
152
330
1F
100
AcDbEntity
  8
3-E
  6
Continuous
 62
     7
370
     9
100
AcDbCircle
 10
680.9304268615534
 20
-1378.693828641798
 30
0.0
 40
1.666666666666667
  0
CIRCLE
  5
153
330
1F
100
AcDbEntity
  8
3-E
  6
Continuous
 62
     7
370
     9
100
AcDbCircle
 10
638.6142280939123
 20
-1381.20531636261
 30
0.0
 40
1.666666666666667
  0
CIRCLE
  5
154
330
1F
100
AcDbEntity
  8
3-E
  6
Continuous
 62
     7
370
     9
100
AcDbCircle
 10
668.9416269867343
 20
-1416.081825089355
 30
0.0
 40
1.666666666666667
  0
CIRCLE
  5
155
330
1F
100
AcDbEntity
  8
3-E
  6
Continuous
 62
     7
370
     9
100
AcDbCircle
 10
488.6831498175229
 20
-1411.817034620052
 30
0.0
 40
1.666666666666667
  0
CIRCLE
  5
156
330
1F
100
AcDbEntity
  8
3-E
  6
Continuous
 62
     7
370
     9
100
AcDbCircle
 10
483.5654012543591
 20
-1376.845752771766
 30
0.0
 40
1.666666666666667
  0
CIRCLE
  5
157
330
1F
100
AcDbEntity
  8
3-E
  6
Continuous
 62
     7
370
     9
100
AcDbCircle
 10
406.7991728069023
 20
-1379.973265782589
 30
0.0
 40
1.666666666666667
  0
CIRCLE
  5
158
330
1F
100
AcDbEntity
  8
3-E
  6
Continuous
 62
     7
370
     9
100
AcDbCircle
 10
418.740586120951
 20
-1410.679757161572
 30
0.0
 40
1.666666666666667
  0
CIRCLE
  5
159
330
1F
100
AcDbEntity
  8
3-E
  6
Continuous
 62
     7
370
     9
100
AcDbCircle
 10
430.6819994350008
 20
-1382.816459428791
 30
0.0
 40
1.666666666666667
  0
CIRCLE
  5
15A
330
1F
100
AcDbEntity
  8
3-E
  6
Continuous
 62
     7
370
     9
100
AcDbCircle
 10
311.8365050237537
 20
-1383.385098158031
 30
0.0
 40
1.666666666666667
  0
CIRCLE
  5
15B
330
1F
100
AcDbEntity
  8
3-E
  6
Continuous
 62
     7
370
     9
100
AcDbCircle
 10
363.5826293846304
 20
-1391.346040367398
 30
0.0
 40
1.666666666666667
  0
CIRCLE
  5
15C
330
1F
100
AcDbEntity
  8
3-E
  6
Continuous
 62
     7
370
     9
100
AcDbCircle
 10
336.2879703810916
 20
-1420.915254287899
 30
0.0
 40
1.666666666666667
  0
CIRCLE
  5
15D
330
1F
100
AcDbEntity
  8
3-E
  6
Continuous
 62
     7
370
     9
100
AcDbCircle
 10
276.0122650816066
 20
-1397.601066389042
 30
0.0
 40
1.666666666666667
  0
CIRCLE
  5
15E
330
1F
100
AcDbEntity
  8
3-E
  6
Continuous
 62
     7
370
     9
100
AcDbCircle
 10
229.3838892838926
 20
-1377.698710865627
 30
0.0
 40
1.666666666666667
  0
CIRCLE
  5
15F
330
1F
100
AcDbEntity
  8
3-E
  6
Continuous
 62
     7
370
     9
100
AcDbCircle
 10
248.1489673488261
 20
-1423.758447934101
 30
0.0
 40
1.666666666666667
  0
CIRCLE
  5
160
330
1F
100
AcDbEntity
  8
3-E
  6
Continuous
 62
     7
370
     9
100
AcDbCircle
 10
293.0714269588191
 20
-1419.777976829418
 30
0.0
 40
1.666666666666667
  0
CIRCLE
  5
161
330
1F
100
AcDbEntity
  8
3-E
  6
Continuous
 62
     7
370
     9
100
AcDbCircle
 10
269.7572390599618
 20
-1379.973265782589
 30
0.0
 40
1.666666666666667
  0
LINE
  5
162
330
1F
100
AcDbEntity
  8
3-E
  6
Continuous
 62
     2
370
     9
100
AcDbLine
 10
359.3381241056295
 20
-1184.647013048026
 30
0.0
 11
391.8049616707344
 21
-1152.180188198588
 31
0.0
  0
LINE
  5
163
330
1F
100
AcDbEntity
  8
3-E
  6
Continuous
 62
     2
370
     9
100
AcDbLine
 10
663.209469625649
 20
-1352.180188198579
 30
0.0
 11
726.0047907722969
 21
-1289.384867051931
 31
0.0
  0
LINE
  5
164
330
1F
100
AcDbEntity
  8
3-E
  6
Continuous
 62
     2
370
     9
100
AcDbLine
 10
359.3381241056295
 20
-1152.180188198579
 30
0.0
 11
359.3381241056295
 21
-1352.180188198579
 31
0.0
  0
LINE
  5
165
330
1F
100
AcDbEntity
  8
3-E
  6
Continuous
 62
     2
370
     9
100
AcDbLine
 10
286.5428029589822
 20
-1352.180188198579
 30
0.0
 11
349.3381241056295
 21
-1289.384867051931
 31
0.0
  0
LINE
  5
166
330
1F
100
AcDbEntity
  8
3-E
  6
Continuous
 62
     2
370
     9
100
AcDbLine
 10
349.3381241056295
 20
-1152.180188198579
 30
0.0
 11
349.3381241056295
 21
-1352.180188198579
 31
0.0
  0
LINE
  5
167
330
1F
100
AcDbEntity
  8
3-E
  6
Continuous
 62
     2
370
     9
100
AcDbLine
 10
222.0048812071428
 20
-1152.180188198579
 30
0.0
 11
349.3381241056295
 21
-1152.180188198579
 31
0.0
  0
LINE
  5
168
330
1F
100
AcDbEntity
  8
3-E
  6
Continuous
 62
     2
370
     9
100
AcDbLine
 10
222.0048812071428
 20
-1352.180188198579
 30
0.0
 11
349.3381241056295
 21
-1352.180188198579
 31
0.0
  0
LINE
  5
169
330
1F
100
AcDbEntity
  8
3-E
  6
Continuous
 62
     2
370
     9
100
AcDbLine
 10
222.0048812071428
 20
-1228.156306512625
 30
0.0
 11
297.980994690754
 21
-1152.180188198585
 31
0.0
  0
LINE
  5
16A
330
1F
100
AcDbEntity
  8
3-E
  6
Continuous
 62
     2
370
     9
100
AcDbLine
 10
222.0048812071428
 20
-1322.437205816304
 30
0.0
 11
349.3381241056295
 21
-1195.103962917817
 31
0.0
  0
LINE
  5
16B
330
1F
100
AcDbEntity
  8
3-6
  6
Continuous
 62
     6
370
     9
100
AcDbLine
 10
572.6718643400045
 20
-1995.513477542611
 30
0.0
 11
222.0048812071428
 21
-1995.513477542611
 31
0.0
  0
LINE
  5
16C
330
1F
100
AcDbEntity
  8
3-6
  6
Continuous
 62
     6
370
     9
100
AcDbLine
 10
906.0051976733376
 20
-1662.180144209278
 30
0.0
 11
572.6718643400045
 21
-1662.180144209278
 31
0.0
  0
LINE
  5
16D
330
1F
100
AcDbEntity
  8
3-6
  6
Continuous
 62
     6
370
     9
100
AcDbLine
 10
572.6718643400045
 20
-1662.180144209278
 30
0.0
 11
222.0048812071428
 21
-1662.180144209278
 31
0.0
  0
LINE
  5
16E
330
1F
100
AcDbEntity
  8
3-E
  6
Continuous
 62
     2
370
     9
100
AcDbLine
 10
359.3381241056295
 20
-1352.180188198579
 30
0.0
 11
726.0047907722969
 21
-1352.180188198579
 31
0.0
  0
LINE
  5
16F
330
1F
100
AcDbEntity
  8
3-E
  6
Continuous
 62
     2
370
     9
100
AcDbLine
 10
568.9285654915352
 20
-1352.180188198579
 30
0.0
 11
726.0047907722969
 21
-1195.103962917817
 31
0.0
  0
LINE
  5
170
330
1F
100
AcDbEntity
  8
3-6
  6
Continuous
 62
     6
370
     9
100
AcDbLine
 10
487.9408607724247
 20
-1662.180144209278
 30
0.0
 11
516.3532252704636
 21
-1711.391803083047
 31
0.0
  0
LINE
  5
171
330
1F
100
AcDbEntity
  8
3-6
  6
Continuous
 62
     6
370
     9
100
AcDbLine
 10
380.7278645366671
 20
-1946.301818668841
 30
0.0
 11
409.140229034706
 21
-1995.513477542611
 31
0.0
  0
LINE
  5
172
330
1F
100
AcDbEntity
  8
3-6
  6
Continuous
 62
     6
370
     9
100
AcDbLine
 10
316.9337685738429
 20
-1662.180144209278
 30
0.0
 11
345.3461330718824
 21
-1711.391803083047
 31
0.0
  0
LINE
  5
173
330
1F
100
AcDbEntity
  8
3-6
  6
Continuous
 62
     6
370
     9
100
AcDbLine
 10
373.7584975699212
 20
-1662.180144209278
 30
0.0
 11
222.0048812071428
 21
-1925.025117981924
 31
0.0
  0
LINE
  5
174
330
1F
100
AcDbEntity
  8
3-6
  6
Continuous
 62
     6
370
     9
100
AcDbLine
 10
222.0048812071428
 20
-1967.578519355758
 30
0.0
 11
238.1331368361248
 21
-1995.513477542611
 31
0.0
  0
LINE
  5
175
330
1F
100
AcDbEntity
  8
3-6
  6
Continuous
 62
     6
370
     9
100
AcDbLine
 10
572.6718643400045
 20
-1910.038030944027
 30
0.0
 11
523.3225922372094
 21
-1995.513477542611
 31
0.0
  0
LINE
  5
176
330
1F
100
AcDbEntity
  8
3-6
  6
Continuous
 62
     6
370
     9
100
AcDbLine
 10
551.7349567352477
 20
-1946.301818668841
 30
0.0
 11
572.6718643400045
 21
-1982.565606393654
 31
0.0
  0
CIRCLE
  5
177
330
1F
100
AcDbEntity
  8
3-E
  6
Continuous
 62
     7
370
     9
100
AcDbCircle
 10
592.9827140902398
 20
-1445.748070248629
 30
0.0
 40
1.666666666666667
  0
CIRCLE
  5
178
330
1F
100
AcDbEntity
  8
3-E
  6
Continuous
 62
     7
370
     9
100
AcDbCircle
 10
587.864965527076
 20
-1410.776788400343
 30
0.0
 40
1.666666666666667
  0
CIRCLE
  5
179
330
1F
100
AcDbEntity
  8
3-E
  6
Continuous
 62
     7
370
     9
100
AcDbCircle
 10
528.9070639720376
 20
-1400.811900035863
 30
0.0
 40
1.666666666666667
  0
CIRCLE
  5
17A
330
1F
100
AcDbEntity
  8
3-E
  6
Continuous
 62
     7
370
     9
100
AcDbCircle
 10
523.7893154088738
 20
-1365.840618187577
 30
0.0
 40
1.666666666666667
  0
CIRCLE
  5
17B
330
1F
100
AcDbEntity
  8
3-E
  6
Continuous
 62
     7
370
     9
100
AcDbCircle
 10
621.2758582982781
 20
-1425.776439042955
 30
0.0
 40
1.666666666666667
  0
CIRCLE
  5
17C
330
1F
100
AcDbEntity
  8
3-E
  6
Continuous
 62
     7
370
     9
100
AcDbCircle
 10
616.1581097351137
 20
-1390.805157194669
 30
0.0
 40
1.666666666666667
  0
CIRCLE
  5
17D
330
1F
100
AcDbEntity
  8
3-E
  6
Continuous
 62
     7
370
     9
100
AcDbCircle
 10
611.2900426954411
 20
-1633.814264102057
 30
0.0
 40
1.666666666666667
  0
CIRCLE
  5
17E
330
1F
100
AcDbEntity
  8
3-E
  6
Continuous
 62
     7
370
     9
100
AcDbCircle
 10
606.1722941322773
 20
-1598.842982253771
 30
0.0
 40
1.666666666666667
  0
CIRCLE
  5
17F
330
1F
100
AcDbEntity
  8
3-E
  6
Continuous
 62
     7
370
     9
100
AcDbCircle
 10
824.3207755559615
 20
-1616.339086797092
 30
0.0
 40
1.666666666666667
  0
CIRCLE
  5
180
330
1F
100
AcDbEntity
  8
3-E
  6
Continuous
 62
     7
370
     9
100
AcDbCircle
 10
819.2030269927977
 20
-1581.367804948806
 30
0.0
 40
1.666666666666667
  0
CIRCLE
  5
181
330
1F
100
AcDbEntity
  8
3-E
  6
Continuous
 62
     7
370
     9
100
AcDbCircle
 10
751.9236124353938
 20
-1588.045942589054
 30
0.0
 40
1.666666666666667
  0
CIRCLE
  5
182
330
1F
100
AcDbEntity
  8
3-E
  6
Continuous
 62
     7
370
     9
100
AcDbCircle
 10
869.2569457687273
 20
-1566.410008782907
 30
0.0
 40
1.666666666666667
  0
CIRCLE
  5
183
330
1F
100
AcDbEntity
  8
3-E
  6
Continuous
 62
     7
370
     9
100
AcDbCircle
 10
800.1883878491054
 20
-1583.053034787636
 30
0.0
 40
1.666666666666667
  0
CIRCLE
  5
184
330
1F
100
AcDbEntity
  8
3-E
  6
Continuous
 62
     7
370
     9
100
AcDbCircle
 10
747.7628559342122
 20
-1628.821356300638
 30
0.0
 40
1.666666666666667
  0
CIRCLE
  5
185
330
1F
100
AcDbEntity
  8
3-E
  6
Continuous
 62
     7
370
     9
100
AcDbCircle
 10
742.6451073710479
 20
-1593.850074452352
 30
0.0
 40
1.666666666666667
  0
CIRCLE
  5
186
330
1F
100
AcDbEntity
  8
3-E
  6
Continuous
 62
     7
370
     9
100
AcDbCircle
 10
653.6049182457532
 20
-1433.244873506726
 30
0.0
 40
1.666666666666667
  0
CIRCLE
  5
187
330
1F
100
AcDbEntity
  8
3-E
  6
Continuous
 62
     7
370
     9
100
AcDbCircle
 10
661.9264312481164
 20
-1583.032107549279
 30
0.0
 40
1.666666666666667
  0
CIRCLE
  5
188
330
1F
100
AcDbEntity
  8
3-E
  6
Continuous
 62
     7
370
     9
100
AcDbCircle
 10
864.2640379673094
 20
-1624.660599799456
 30
0.0
 40
1.666666666666667
  0
CIRCLE
  5
189
330
1F
100
AcDbEntity
  8
3-E
  6
Continuous
 62
     7
370
     9
100
AcDbCircle
 10
859.1462894041456
 20
-1589.68931795117
 30
0.0
 40
1.666666666666667
  0
CIRCLE
  5
18A
330
1F
100
AcDbEntity
  8
3-E
  6
Continuous
 62
     7
370
     9
100
AcDbCircle
 10
787.7061183455589
 20
-1632.98211280182
 30
0.0
 40
1.666666666666667
  0
CIRCLE
  5
18B
330
1F
100
AcDbEntity
  8
3-E
  6
Continuous
 62
     7
370
     9
100
AcDbCircle
 10
782.5883697823951
 20
-1598.010830953535
 30
0.0
 40
1.666666666666667
  0
LINE
  5
18C
330
1F
100
AcDbEntity
  8
3-6
  6
Continuous
 62
     6
370
     9
100
AcDbLine
 10
572.6718643400045
 20
-1662.180144209278
 30
0.0
 11
572.6718643400045
 21
-1452.180188198579
 31
0.0
  0
LINE
  5
18D
330
1F
100
AcDbEntity
  8
3-6
  6
Continuous
 62
     6
370
     9
100
AcDbLine
 10
267.6867693394672
 20
-1662.180144209278
 30
0.0
 11
477.6867253501746
 21
-1452.180188198579
 31
0.0
  0
LINE
  5
18E
330
1F
100
AcDbEntity
  8
3-6
  6
Continuous
 62
     6
370
     9
100
AcDbLine
 10
244.1165432999179
 20
-1662.180144209278
 30
0.0
 11
454.116499310627
 21
-1452.180188198579
 31
0.0
  0
LINE
  5
18F
330
1F
100
AcDbEntity
  8
3-6
  6
Continuous
 62
     6
370
     9
100
AcDbLine
 10
222.0048812071428
 20
-1660.721580262507
 30
0.0
 11
430.5462732710714
 21
-1452.180188198579
 31
0.0
  0
CIRCLE
  5
190
330
1F
100
AcDbEntity
  8
3-E
  6
Continuous
 62
     7
370
     9
100
AcDbCircle
 10
274.5079268434813
 20
-1437.211218699916
 30
0.0
 40
1.666666666666667
  0
CIRCLE
  5
191
330
1F
100
AcDbEntity
  8
3-E
  6
Continuous
 62
     7
370
     9
100
AcDbCircle
 10
403.9536846580336
 20
-1433.142923454316
 30
0.0
 40
1.666666666666667
  0
CIRCLE
  5
192
330
1F
100
AcDbEntity
  8
3-E
  6
Continuous
 62
     7
370
     9
100
AcDbCircle
 10
389.8995738095965
 20
-1441.279513945517
 30
0.0
 40
1.666666666666667
  0
CIRCLE
  5
193
330
1F
100
AcDbEntity
  8
3-E
  6
Continuous
 62
     7
370
     9
100
AcDbCircle
 10
550.4123134996416
 20
-1425.376177985443
 30
0.0
 40
1.666666666666667
  0
CIRCLE
  5
194
330
1F
100
AcDbEntity
  8
3-E
  6
Continuous
 62
     7
370
     9
100
AcDbCircle
 10
483.470364458401
 20
-1442.389049012498
 30
0.0
 40
1.666666666666667
  0
CIRCLE
  5
195
330
1F
100
AcDbEntity
  8
3-E
  6
Continuous
 62
     7
370
     9
100
AcDbCircle
 10
331.0942152595572
 20
-1438.690598789226
 30
0.0
 40
1.666666666666667
  0
LWPOLYLINE
  5
196
330
1F
100
AcDbEntity
  8
3-4
  6
Continuous
 62
     7
370
     9
100
AcDbPolyline
 90
        4
 70
     1
 43
2.0
 10
95.45191160838931
 20
-1152.180188198579
 42
0.4142135623731
 10
94.45191160838931
 20
-1151.180188198579
 42
0.4142135623731
 10
93.45191160838931
 20
-1152.180188198579
 42
0.4142135623731
 10
94.45191160838931
 20
-1153.180188198579
 42
0.4142135623731
  0
LWPOLYLINE
  5
197
330
1F
100
AcDbEntity
  8
3-4
  6
Continuous
 62
     7
370
     9
100
AcDbPolyline
 90
        4
 70
     1
 43
2.0
 10
95.45191160838931
 20
-1352.180188198579
 42
0.4142135623731
 10
94.45191160838931
 20
-1351.180188198579
 42
0.4142135623731
 10
93.45191160838931
 20
-1352.180188198579
 42
0.4142135623731
 10
94.45191160838931
 20
-1353.180188198579
 42
0.4142135623731
  0
LINE
  5
198
330
1F
100
AcDbEntity
  8
3-4
  6
Continuous
 62
     7
370
     9
100
AcDbLine
 10
91.45191160838976
 20
-1152.180188198579
 30
0.0
 11
202.0048812071428
 21
-1152.180188198579
 31
0.0
  0
LINE
  5
199
330
1F
100
AcDbEntity
  8
3-4
  6
Continuous
 62
     7
370
     9
100
AcDbLine
 10
91.45191160838976
 20
-1352.180188198579
 30
0.0
 11
202.0048812071428
 21
-1352.180188198579
 31
0.0
  0
LWPOLYLINE
  5
19A
330
1F
100
AcDbEntity
  8
3-4
  6
Continuous
 62
     7
370
     9
100
AcDbPolyline
 90
        4
 70
     1
 43
2.0
 10
95.45191160838931
 20
-1452.180188198579
 42
0.4142135623731
 10
94.45191160838931
 20
-1451.180188198579
 42
0.4142135623731
 10
93.45191160838931
 20
-1452.180188198579
 42
0.4142135623731
 10
94.45191160838931
 20
-1453.180188198579
 42
0.4142135623731
  0
LINE
  5
19B
330
1F
100
AcDbEntity
  8
3-4
  6
Continuous
 62
     7
370
     9
100
AcDbLine
 10
91.45191160838976
 20
-1452.180188198579
 30
0.0
 11
202.0048812071428
 21
-1452.180188198579
 31
0.0
  0
LINE
  5
19C
330
1F
100
AcDbEntity
  8
3-6
  6
Continuous
 62
     6
370
     9
100
AcDbLine
 10
572.6718643400045
 20
-1662.180144209278
 30
0.0
 11
572.6718643400045
 21
-2128.846729770669
 31
0.0
  0
LINE
  5
19D
330
1F
100
AcDbEntity
  8
3-6
  6
Continuous
 62
     6
370
     9
100
AcDbLine
 10
668.3827670460232
 20
-2128.846729770669
 30
0.0
 11
906.0051976733376
 21
-1891.224299143365
 31
0.0
  0
LINE
  5
19E
330
1F
100
AcDbEntity
  8
3-6
  6
Continuous
 62
     6
370
     9
100
AcDbLine
 10
644.8125410064904
 20
-2128.846729770669
 30
0.0
 11
906.0051976733376
 21
-1867.65407310382
 31
0.0
  0
LINE
  5
19F
330
1F
100
AcDbEntity
  8
3-6
  6
Continuous
 62
     6
370
     9
100
AcDbLine
 10
691.952993085572
 20
-2128.846729770669
 30
0.0
 11
906.0051976733376
 21
-1914.794525182913
 31
0.0
  0
LINE
  5
1A0
330
1F
100
AcDbEntity
  8
3-6
  6
JWW_CENTER2
 62
     6
370
     9
100
AcDbLine
 10
696.1435603516594
 20
-1471.536708052326
 30
0.0
 11
696.1435603516594
 21
-1737.735157230111
 31
0.0
  0
LINE
  5
1A1
330
1F
100
AcDbEntity
  8
3-6
  6
JWW_DASHED3
 62
     6
370
     9
100
AcDbLine
 10
681.1434077637688
 20
-1662.180144209278
 30
0.0
 11
681.1434077637688
 21
-1737.735157230111
 31
0.0
  0
LINE
  5
1A2
330
1F
100
AcDbEntity
  8
3-6
  6
JWW_DASHED3
 62
     6
370
     9
100
AcDbLine
 10
711.14371293955
 20
-1737.735157230111
 30
0.0
 11
711.14371293955
 21
-1662.180144209278
 31
0.0
  0
LWPOLYLINE
  5
1A3
330
1F
100
AcDbEntity
  8
3-4
  6
Continuous
 62
     7
370
     9
100
AcDbPolyline
 90
        4
 70
     1
 43
2.0
 10
907.0051976733375
 20
-1819.67296835274
 42
0.4142135623731
 10
906.0051976733376
 20
-1818.67296835274
 42
0.4142135623731
 10
905.0051976733378
 20
-1819.67296835274
 42
0.4142135623731
 10
906.0051976733376
 20
-1820.67296835274
 42
0.4142135623731
  0
LWPOLYLINE
  5
1A4
330
1F
100
AcDbEntity
  8
3-4
  6
Continuous
 62
     7
370
     9
100
AcDbPolyline
 90
        4
 70
     1
 43
2.0
 10
640.3386299826
 20
-1819.67296835274
 42
0.4142135623731
 10
639.3386299826
 20
-1818.67296835274
 42
0.4142135623731
 10
638.3386299826
 20
-1819.67296835274
 42
0.4142135623731
 10
639.3386299826
 20
-1820.67296835274
 42
0.4142135623731
  0
LWPOLYLINE
  5
1A5
330
1F
100
AcDbEntity
  8
3-4
  6
Continuous
 62
     7
370
     9
100
AcDbPolyline
 90
        4
 70
     1
 43
2.0
 10
737.0051974155886
 20
-1819.67296835274
 42
0.4142135623731
 10
736.0051974155886
 20
-1818.67296835274
 42
0.4142135623731
 10
735.0051974155886
 20
-1819.67296835274
 42
0.4142135623731
 10
736.0051974155886
 20
-1820.67296835274
 42
0.4142135623731
  0
LINE
  5
1A6
330
1F
100
AcDbEntity
  8
3-6
  6
Continuous
 62
     6
370
     9
100
AcDbLine
 10
744.5147121033801
 20
-1704.878416032936
 30
0.0
 11
787.2129839270394
 21
-1662.180144209278
 31
0.0
  0
LINE
  5
1A7
330
1F
100
AcDbEntity
  8
3-6
  6
Continuous
 62
     6
370
     9
100
AcDbLine
 10
744.5147121033801
 20
-1728.44864207249
 30
0.0
 11
810.7832099665961
 21
-1662.180144209278
 31
0.0
  0
LINE
  5
1A8
330
1F
100
AcDbEntity
  8
3-6
  6
Continuous
 62
     6
370
     9
100
AcDbLine
 10
744.5147121033801
 20
-1752.018868112037
 30
0.0
 11
834.3534360061432
 21
-1662.180144209278
 31
0.0
  0
LINE
  5
1A9
330
1F
100
AcDbEntity
  8
3-6
  6
Continuous
 62
     6
370
     9
100
AcDbLine
 10
572.6718643400045
 20
-1876.721263796313
 30
0.0
 11
634.1159729386828
 21
-1815.277155197634
 31
0.0
  0
LINE
  5
1AA
330
1F
100
AcDbEntity
  8
3-6
  6
Continuous
 62
     6
370
     9
100
AcDbLine
 10
572.6718643400045
 20
-1900.291489835857
 30
0.0
 11
634.1159729386828
 21
-1838.847381237181
 31
0.0
  0
LINE
  5
1AB
330
1F
100
AcDbEntity
  8
3-6
  6
Continuous
 62
     6
370
     9
100
AcDbLine
 10
572.6718643400045
 20
-1923.861715875405
 30
0.0
 11
634.1159729386828
 21
-1862.417607276729
 31
0.0
  0
TEXT
  5
1AC
330
1F
100
AcDbEntity
  8
3-5
  6
Continuous
 62
     2
370
     9
100
AcDbText
 10
447.5565228811382
 20
-1822.430175040664
 30
0.0
 40
30.47999999999989
  1
差筋
 41
1.062499999999996
  7
ＭＳ ゴシック
100
AcDbText
  0
LINE
  5
1AD
330
1F
100
AcDbEntity
  8
3-5
  6
Continuous
 62
     7
370
     9
100
AcDbLine
 10
546.523170957372
 20
-1836.635720258835
 30
0.0
 11
440.9595961671903
 21
-1836.635720258835
 31
0.0
  0
LINE
  5
1AE
330
1F
100
AcDbEntity
  8
3-6
  6
Continuous
 62
     6
370
     9
100
AcDbLine
 10
435.6042377758695
 20
-1851.253152083428
 30
0.0
 11
352.3155000386271
 21
-1995.513477542611
 31
0.0
  0
LINE
  5
1AF
330
1F
100
AcDbEntity
  8
3-6
  6
Continuous
 62
     6
370
     9
100
AcDbLine
 10
544.7655897685019
 20
-1662.180144209278
 30
0.0
 11
479.7970820218461
 21
-1774.70890051842
 31
0.0
  0
LINE
  5
1B0
330
1F
100
AcDbEntity
  8
3-5
  6
Continuous
 62
     7
370
     9
100
AcDbLine
 10
681.1434077637688
 20
-1603.466630383201
 30
0.0
 11
546.523170957372
 21
-1836.635720258835
 31
0.0
  0
LINE
  5
1B1
330
1F
100
AcDbEntity
  8
3-5
  6
Continuous
 62
     7
370
     9
100
AcDbLine
 10
681.1434077637688
 20
-1603.466630383201
 30
0.0
 11
671.576321954642
 21
-1626.563618695983
 31
0.0
  0
LINE
  5
1B2
330
1F
100
AcDbEntity
  8
3-5
  6
Continuous
 62
     7
370
     9
100
AcDbLine
 10
681.1434077637688
 20
-1603.466630383201
 30
0.0
 11
665.9243720385513
 21
-1623.300463890482
 31
0.0
  0
CIRCLE
  5
1B3
330
1F
100
AcDbEntity
  8
3-E
  6
Continuous
 62
     7
370
     9
100
AcDbCircle
 10
2117.450385246027
 20
-1385.07716565738
 30
0.0
 40
1.666666666666667
  0
CIRCLE
  5
1B4
330
1F
100
AcDbEntity
  8
3-E
  6
Continuous
 62
     7
370
     9
100
AcDbCircle
 10
2152.994641217661
 20
-1373.765626321715
 30
0.0
 40
1.666666666666667
  0
CIRCLE
  5
1B5
330
1F
100
AcDbEntity
  8
3-E
  6
Continuous
 62
     7
370
     9
100
AcDbCircle
 10
2145.033699008295
 20
-1405.609395159178
 30
0.0
 40
1.666666666666667
  0
CIRCLE
  5
1B6
330
1F
100
AcDbEntity
  8
3-E
  6
Continuous
 62
     7
370
     9
100
AcDbCircle
 10
2185.975687513605
 20
-1422.66855703639
 30
0.0
 40
1.666666666666667
  0
CIRCLE
  5
1B7
330
1F
100
AcDbEntity
  8
3-E
  6
Continuous
 62
     7
370
     9
100
AcDbCircle
 10
2187.112964972087
 20
-1393.099343115889
 30
0.0
 40
1.666666666666667
  0
CIRCLE
  5
1B8
330
1F
100
AcDbEntity
  8
3-E
  6
Continuous
 62
     7
370
     9
100
AcDbCircle
 10
2232.983155797479
 20
-1375.661088752516
 30
0.0
 40
1.666666666666667
  0
CIRCLE
  5
1B9
330
1F
100
AcDbEntity
  8
3-E
  6
Continuous
 62
     7
370
     9
100
AcDbCircle
 10
2257.624167397898
 20
-1399.543915380613
 30
0.0
 40
1.666666666666667
  0
CIRCLE
  5
1BA
330
1F
100
AcDbEntity
  8
3-E
  6
Continuous
 62
     7
370
     9
100
AcDbCircle
 10
2233.7413407698
 20
-1419.256724660947
 30
0.0
 40
1.666666666666667
  0
CIRCLE
  5
1BB
330
1F
100
AcDbEntity
  8
3-E
  6
Continuous
 62
     7
370
     9
100
AcDbCircle
 10
2305.010728167933
 20
-1421.152187091749
 30
0.0
 40
1.666666666666667
  0
CIRCLE
  5
1BC
330
1F
100
AcDbEntity
  8
3-E
  6
Continuous
 62
     7
370
     9
100
AcDbCircle
 10
2289.467936235361
 20
-1375.281996266355
 30
0.0
 40
1.666666666666667
  0
CIRCLE
  5
1BD
330
1F
100
AcDbEntity
  8
3-E
  6
Continuous
 62
     7
370
     9
100
AcDbCircle
 10
2359.600046175012
 20
-1379.831106100279
 30
0.0
 40
1.666666666666667
  0
CIRCLE
  5
1BE
330
1F
100
AcDbEntity
  8
3-E
  6
Continuous
 62
     7
370
     9
100
AcDbCircle
 10
2328.51446230987
 20
-1399.923007866773
 30
0.0
 40
1.666666666666667
  0
CIRCLE
  5
1BF
330
1F
100
AcDbEntity
  8
3-E
  6
Continuous
 62
     7
370
     9
100
AcDbCircle
 10
2349.364549048685
 20
-1421.531279577909
 30
0.0
 40
1.666666666666667
  0
CIRCLE
  5
1C0
330
1F
100
AcDbEntity
  8
3-E
  6
Continuous
 62
     7
370
     9
100
AcDbCircle
 10
2406.607514458888
 20
-1418.119447202467
 30
0.0
 40
1.666666666666667
  0
CIRCLE
  5
1C1
330
1F
100
AcDbEntity
  8
3-E
  6
Continuous
 62
     7
370
     9
100
AcDbCircle
 10
2400.542034680323
 20
-1384.001123448042
 30
0.0
 40
1.666666666666667
  0
CIRCLE
  5
1C2
330
1F
100
AcDbEntity
  8
3-E
  6
Continuous
 62
     7
370
     9
100
AcDbCircle
 10
2384.241057775431
 20
-1404.472117700697
 30
0.0
 40
1.666666666666667
  0
CIRCLE
  5
1C3
330
1F
100
AcDbEntity
  8
3-E
  6
Continuous
 62
     7
370
     9
100
AcDbCircle
 10
2435.797635893228
 20
-1376.798366210996
 30
0.0
 40
1.666666666666667
  0
CIRCLE
  5
1C4
330
1F
100
AcDbEntity
  8
3-E
  6
Continuous
 62
     7
370
     9
100
AcDbCircle
 10
2457.026815118204
 20
-1406.367580131498
 30
0.0
 40
1.666666666666667
  0
CIRCLE
  5
1C5
330
1F
100
AcDbEntity
  8
3-E
  6
Continuous
 62
     7
370
     9
100
AcDbCircle
 10
2487.922852740267
 20
-1381.72656853108
 30
0.0
 40
1.666666666666667
  0
CIRCLE
  5
1C6
330
1F
100
AcDbEntity
  8
3-E
  6
Continuous
 62
     7
370
     9
100
AcDbCircle
 10
2499.295627325075
 20
-1419.256724660947
 30
0.0
 40
1.666666666666667
  0
CIRCLE
  5
1C7
330
1F
100
AcDbEntity
  8
3-E
  6
Continuous
 62
     7
370
     9
100
AcDbCircle
 10
2550.094020470552
 20
-1422.66855703639
 30
0.0
 40
1.666666666666667
  0
CIRCLE
  5
1C8
330
1F
100
AcDbEntity
  8
3-E
  6
Continuous
 62
     7
370
     9
100
AcDbCircle
 10
2525.073916383974
 20
-1379.831106100279
 30
0.0
 40
1.666666666666667
  0
CIRCLE
  5
1C9
330
1F
100
AcDbEntity
  8
3-E
  6
Continuous
 62
     7
370
     9
100
AcDbCircle
 10
2569.806829750887
 20
-1376.419273724836
 30
0.0
 40
1.666666666666667
  0
CIRCLE
  5
1CA
330
1F
100
AcDbEntity
  8
3-E
  6
Continuous
 62
     7
370
     9
100
AcDbCircle
 10
2527.727563787096
 20
-1409.40032002078
 30
0.0
 40
1.666666666666667
  0
CIRCLE
  5
1CB
330
1F
100
AcDbEntity
  8
3-E
  6
Continuous
 62
     7
370
     9
100
AcDbCircle
 10
2554.264037818316
 20
-1394.61571306053
 30
0.0
 40
1.666666666666667
  0
CIRCLE
  5
1CC
330
1F
100
AcDbEntity
  8
3-E
  6
Continuous
 62
     7
370
     9
100
AcDbCircle
 10
2580.042326877215
 20
-1424.184926981031
 30
0.0
 40
1.666666666666667
  0
LINE
  5
1CD
330
1F
100
AcDbEntity
  8
3-E
  6
Continuous
 62
     2
370
     9
100
AcDbLine
 10
2086.005065705432
 20
-1184.647013048026
 30
0.0
 11
2118.471903270536
 21
-1152.180188198588
 31
0.0
  0
LINE
  5
1CE
330
1F
100
AcDbEntity
  8
3-E
  6
Continuous
 62
     2
370
     9
100
AcDbLine
 10
2086.005065705432
 20
-1278.92791718214
 30
0.0
 11
2212.75280740465
 21
-1152.180188198586
 31
0.0
  0
LINE
  5
1CF
330
1F
100
AcDbEntity
  8
3-E
  6
Continuous
 62
     2
370
     9
100
AcDbLine
 10
2107.033711538766
 20
-1352.180188198579
 30
0.0
 11
2307.033698823107
 21
-1152.180188198578
 31
0.0
  0
LINE
  5
1D0
330
1F
100
AcDbEntity
  8
3-E
  6
Continuous
 62
     2
370
     9
100
AcDbLine
 10
2201.314615672879
 20
-1352.180188198579
 30
0.0
 11
2401.314602957223
 21
-1152.180188198585
 31
0.0
  0
LINE
  5
1D1
330
1F
100
AcDbEntity
  8
3-E
  6
Continuous
 62
     2
370
     9
100
AcDbLine
 10
2295.595507091336
 20
-1352.180188198579
 30
0.0
 11
2452.671732372098
 21
-1195.103962917817
 31
0.0
  0
LINE
  5
1D2
330
1F
100
AcDbEntity
  8
3-E
  6
Continuous
 62
     2
370
     9
100
AcDbLine
 10
2389.876411225451
 20
-1352.180188198579
 30
0.0
 11
2452.671732372098
 21
-1289.384867051931
 31
0.0
  0
LINE
  5
1D3
330
1F
100
AcDbEntity
  8
3-E
  6
Continuous
 62
     2
370
     9
100
AcDbLine
 10
2452.671732372098
 20
-1152.180188198579
 30
0.0
 11
2452.671732372098
 21
-1352.180188198579
 31
0.0
  0
LINE
  5
1D4
330
1F
100
AcDbEntity
  8
3-E
  6
Continuous
 62
     2
370
     9
100
AcDbLine
 10
2086.005065705432
 20
-1352.180188198579
 30
0.0
 11
2452.671732372098
 21
-1352.180188198579
 31
0.0
  0
LINE
  5
1D5
330
1F
100
AcDbEntity
  8
3-E
  6
Continuous
 62
     2
370
     9
100
AcDbLine
 10
2462.671732372098
 20
-1184.647013048026
 30
0.0
 11
2495.138569937203
 21
-1152.180188198588
 31
0.0
  0
LINE
  5
1D6
330
1F
100
AcDbEntity
  8
3-E
  6
Continuous
 62
     2
370
     9
100
AcDbLine
 10
2462.671732372098
 20
-1152.180188198579
 30
0.0
 11
2462.671732372098
 21
-1352.180188198579
 31
0.0
  0
LINE
  5
1D7
330
1F
100
AcDbEntity
  8
3-E
  6
Continuous
 62
     2
370
     9
100
AcDbLine
 10
2462.671732372098
 20
-1152.180188198579
 30
0.0
 11
2590.004975270583
 21
-1152.180188198579
 31
0.0
  0
LINE
  5
1D8
330
1F
100
AcDbEntity
  8
3-E
  6
Continuous
 62
     2
370
     9
100
AcDbLine
 10
2462.671732372098
 20
-1352.180188198579
 30
0.0
 11
2590.004975270583
 21
-1352.180188198579
 31
0.0
  0
LINE
  5
1D9
330
1F
100
AcDbEntity
  8
3-E
  6
Continuous
 62
     2
370
     9
100
AcDbLine
 10
2483.700378205432
 20
-1352.180188198579
 30
0.0
 11
2590.004975270583
 21
-1245.875584374761
 31
0.0
  0
LINE
  5
1DA
330
1F
100
AcDbEntity
  8
3-E
  6
Continuous
 62
     2
370
     9
100
AcDbLine
 10
2577.981282339547
 20
-1352.180188198579
 30
0.0
 11
2590.004975270583
 21
-1340.156494503096
 31
0.0
  0
LINE
  5
1DB
330
1F
100
AcDbEntity
  8
3-E
  6
Continuous
 62
     2
370
     9
100
AcDbLine
 10
2462.671732372098
 20
-1278.92791718214
 30
0.0
 11
2589.419474071325
 21
-1152.180188198579
 31
0.0
  0
CIRCLE
  5
1DC
330
1F
100
AcDbEntity
  8
3-E
  6
Continuous
 62
     7
370
     9
100
AcDbCircle
 10
2124.995497930317
 20
-1439.905333325723
 30
0.0
 40
1.666666666666667
  0
CIRCLE
  5
1DD
330
1F
100
AcDbEntity
  8
3-E
  6
Continuous
 62
     7
370
     9
100
AcDbCircle
 10
2199.056963651358
 20
-1475.687839235889
 30
0.0
 40
1.666666666666667
  0
CIRCLE
  5
1DE
330
1F
100
AcDbEntity
  8
3-E
  6
Continuous
 62
     7
370
     9
100
AcDbCircle
 10
2206.546325353486
 20
-1558.90296925953
 30
0.0
 40
1.666666666666667
  0
CIRCLE
  5
1DF
330
1F
100
AcDbEntity
  8
3-E
  6
Continuous
 62
     7
370
     9
100
AcDbCircle
 10
1935.265001476416
 20
-1574.713843964022
 30
0.0
 40
1.666666666666667
  0
CIRCLE
  5
1E0
330
1F
100
AcDbEntity
  8
3-E
  6
Continuous
 62
     7
370
     9
100
AcDbCircle
 10
2060.919847812113
 20
-1582.203205666149
 30
0.0
 40
1.666666666666667
  0
CIRCLE
  5
1E1
330
1F
100
AcDbEntity
  8
3-E
  6
Continuous
 62
     7
370
     9
100
AcDbCircle
 10
2185.742542847575
 20
-1588.028264767804
 30
0.0
 40
1.666666666666667
  0
CIRCLE
  5
1E2
330
1F
100
AcDbEntity
  8
3-E
  6
Continuous
 62
     7
370
     9
100
AcDbCircle
 10
2216.532140956322
 20
-1508.973891245345
 30
0.0
 40
1.666666666666667
  0
LINE
  5
1E3
330
1F
100
AcDbEntity
  8
3-6
  6
Continuous
 62
     6
370
     9
100
AcDbLine
 10
2239.338096612316
 20
-1995.513477542611
 30
0.0
 11
2590.005079745176
 21
-1995.513477542611
 31
0.0
  0
LINE
  5
1E4
330
1F
100
AcDbEntity
  8
3-6
  6
Continuous
 62
     6
370
     9
100
AcDbLine
 10
1906.004763278981
 20
-1662.180144209278
 30
0.0
 11
2239.338096612316
 21
-1662.180144209278
 31
0.0
  0
LINE
  5
1E5
330
1F
100
AcDbEntity
  8
3-6
  6
Continuous
 62
     6
370
     9
100
AcDbLine
 10
2239.338096612316
 20
-1662.180144209278
 30
0.0
 11
2590.005079745176
 21
-1662.180144209278
 31
0.0
  0
LINE
  5
1E6
330
1F
100
AcDbEntity
  8
3-6
  6
Continuous
 62
     6
370
     9
100
AcDbLine
 10
1906.004763278981
 20
-1783.447420336443
 30
0.0
 11
2027.272039406148
 21
-1662.180144209278
 31
0.0
  0
LINE
  5
1E7
330
1F
100
AcDbEntity
  8
3-6
  6
Continuous
 62
     6
370
     9
100
AcDbLine
 10
1906.004763278981
 20
-1807.017646375992
 30
0.0
 11
2050.842265445704
 21
-1662.180144209278
 31
0.0
  0
LINE
  5
1E8
330
1F
100
AcDbEntity
  8
3-6
  6
Continuous
 62
     6
370
     9
100
AcDbLine
 10
1906.004763278981
 20
-1830.58787241554
 30
0.0
 11
2074.412491485252
 21
-1662.180144209278
 31
0.0
  0
LINE
  5
1E9
330
1F
100
AcDbEntity
  8
3-6
  6
Continuous
 62
     6
370
     9
100
AcDbLine
 10
2514.783391346956
 20
-1662.180144209278
 30
0.0
 11
2322.33330161708
 21
-1995.513477542611
 31
0.0
  0
LINE
  5
1EA
330
1F
100
AcDbEntity
  8
3-6
  6
Continuous
 62
     6
370
     9
100
AcDbLine
 10
2457.958662350877
 20
-1662.180144209278
 30
0.0
 11
2486.371026848917
 21
-1711.391803083047
 31
0.0
  0
LINE
  5
1EB
330
1F
100
AcDbEntity
  8
3-6
  6
Continuous
 62
     6
370
     9
100
AcDbLine
 10
2350.74566611512
 20
-1946.301818668841
 30
0.0
 11
2379.15803061316
 21
-1995.513477542611
 31
0.0
  0
LINE
  5
1EC
330
1F
100
AcDbEntity
  8
3-6
  6
Continuous
 62
     6
370
     9
100
AcDbLine
 10
2286.951570152297
 20
-1662.180144209278
 30
0.0
 11
2315.363934650336
 21
-1711.391803083047
 31
0.0
  0
LINE
  5
1ED
330
1F
100
AcDbEntity
  8
3-6
  6
Continuous
 62
     6
370
     9
100
AcDbLine
 10
2343.776299148374
 20
-1662.180144209278
 30
0.0
 11
2239.338096612316
 21
-1843.072417252899
 31
0.0
  0
LINE
  5
1EE
330
1F
100
AcDbEntity
  8
3-6
  6
Continuous
 62
     6
370
     9
100
AcDbLine
 10
2590.005079745176
 20
-1828.085330215002
 30
0.0
 11
2493.340393815662
 21
-1995.513477542611
 31
0.0
  0
LINE
  5
1EF
330
1F
100
AcDbEntity
  8
3-6
  6
Continuous
 62
     6
370
     9
100
AcDbLine
 10
2521.752758313701
 20
-1946.301818668841
 30
0.0
 11
2550.165122811741
 21
-1995.513477542611
 31
0.0
  0
CIRCLE
  5
1F0
330
1F
100
AcDbEntity
  8
3-E
  6
Continuous
 62
     7
370
     9
100
AcDbCircle
 10
1998.583428869745
 20
-1604.876269326821
 30
0.0
 40
1.666666666666667
  0
CIRCLE
  5
1F1
330
1F
100
AcDbEntity
  8
3-E
  6
Continuous
 62
     7
370
     9
100
AcDbCircle
 10
1972.324432284506
 20
-1574.179132473655
 30
0.0
 40
1.666666666666667
  0
CIRCLE
  5
1F2
330
1F
100
AcDbEntity
  8
3-E
  6
Continuous
 62
     7
370
     9
100
AcDbCircle
 10
1924.244579381959
 20
-1634.094026090677
 30
0.0
 40
1.666666666666667
  0
CIRCLE
  5
1F3
330
1F
100
AcDbEntity
  8
3-E
  6
Continuous
 62
     7
370
     9
100
AcDbCircle
 10
1947.174970766251
 20
-1609.314409594748
 30
0.0
 40
1.666666666666667
  0
CIRCLE
  5
1F4
330
1F
100
AcDbEntity
  8
3-E
  6
Continuous
 62
     7
370
     9
100
AcDbCircle
 10
2086.976389205968
 20
-1622.628830398531
 30
0.0
 40
1.666666666666667
  0
CIRCLE
  5
1F5
330
1F
100
AcDbEntity
  8
3-E
  6
Continuous
 62
     7
370
     9
100
AcDbCircle
 10
2036.307621147128
 20
-1616.711310041294
 30
0.0
 40
1.666666666666667
  0
CIRCLE
  5
1F6
330
1F
100
AcDbEntity
  8
3-E
  6
Continuous
 62
     7
370
     9
100
AcDbCircle
 10
1985.269008065962
 20
-1642.970306626532
 30
0.0
 40
1.666666666666667
  0
CIRCLE
  5
1F7
330
1F
100
AcDbEntity
  8
3-E
  6
Continuous
 62
     7
370
     9
100
AcDbCircle
 10
2196.450515814846
 20
-1621.889140353876
 30
0.0
 40
1.666666666666667
  0
CIRCLE
  5
1F8
330
1F
100
AcDbEntity
  8
3-E
  6
Continuous
 62
     7
370
     9
100
AcDbCircle
 10
2152.438958157898
 20
-1635.943251202313
 30
0.0
 40
1.666666666666667
  0
LINE
  5
1F9
330
1F
100
AcDbEntity
  8
3-6
  6
Continuous
 62
     6
370
     9
100
AcDbLine
 10
2239.338096612316
 20
-1662.180144209278
 30
0.0
 11
2239.338096612316
 21
-1452.180188198579
 31
0.0
  0
LINE
  5
1FA
330
1F
100
AcDbEntity
  8
3-6
  6
Continuous
 62
     6
370
     9
100
AcDbLine
 10
2239.338096612316
 20
-1660.721580262507
 30
0.0
 11
2447.879488676244
 21
-1452.180188198579
 31
0.0
  0
LINE
  5
1FB
330
1F
100
AcDbEntity
  8
3-6
  6
Continuous
 62
     6
370
     9
100
AcDbLine
 10
2261.449758705091
 20
-1662.180144209278
 30
0.0
 11
2471.4497147158
 21
-1452.180188198579
 31
0.0
  0
LINE
  5
1FC
330
1F
100
AcDbEntity
  8
3-6
  6
Continuous
 62
     6
370
     9
100
AcDbLine
 10
2285.01998474464
 20
-1662.180144209278
 30
0.0
 11
2495.019940755347
 21
-1452.180188198579
 31
0.0
  0
CIRCLE
  5
1FD
330
1F
100
AcDbEntity
  8
3-E
  6
Continuous
 62
     7
370
     9
100
AcDbCircle
 10
2450.483760833499
 20
-1440.435804988333
 30
0.0
 40
1.666666666666667
  0
CIRCLE
  5
1FE
330
1F
100
AcDbEntity
  8
3-E
  6
Continuous
 62
     7
370
     9
100
AcDbCircle
 10
2277.396290384327
 20
-1437.477044809714
 30
0.0
 40
1.666666666666667
  0
CIRCLE
  5
1FF
330
1F
100
AcDbEntity
  8
3-E
  6
Continuous
 62
     7
370
     9
100
AcDbCircle
 10
2388.719642104841
 20
-1435.997664720405
 30
0.0
 40
1.666666666666667
  0
CIRCLE
  5
200
330
1F
100
AcDbEntity
  8
3-E
  6
Continuous
 62
     7
370
     9
100
AcDbCircle
 10
2329.174593510148
 20
-1441.545340055314
 30
0.0
 40
1.666666666666667
  0
CIRCLE
  5
201
330
1F
100
AcDbEntity
  8
3-E
  6
Continuous
 62
     7
370
     9
100
AcDbCircle
 10
2532.219510767832
 20
-1441.175495032987
 30
0.0
 40
1.666666666666667
  0
LINE
  5
202
330
1F
100
AcDbEntity
  8
3-6
  6
Continuous
 62
     6
370
     9
100
AcDbLine
 10
1978.145439945467
 20
-2128.846729770669
 30
0.0
 11
2239.338096612316
 21
-1867.65407310382
 31
0.0
  0
LINE
  5
203
330
1F
100
AcDbEntity
  8
3-6
  6
Continuous
 62
     6
370
     9
100
AcDbLine
 10
2001.715665985
 20
-2128.846729770669
 30
0.0
 11
2239.338096612316
 21
-1891.224299143365
 31
0.0
  0
LINE
  5
204
330
1F
100
AcDbEntity
  8
3-6
  6
Continuous
 62
     6
370
     9
100
AcDbLine
 10
2025.28589202455
 20
-2128.846729770669
 30
0.0
 11
2239.338096612316
 21
-1914.794525182913
 31
0.0
  0
LINE
  5
205
330
1F
100
AcDbEntity
  8
3-6
  6
Continuous
 62
     6
370
     9
100
AcDbLine
 10
2239.338096612316
 20
-1662.180144209278
 30
0.0
 11
2239.338096612316
 21
-2128.846729770669
 31
0.0
  0
LINE
  5
206
330
1F
100
AcDbEntity
  8
3-6
  6
JWW_DASHED3
 62
     6
370
     9
100
AcDbLine
 10
2100.866248012769
 20
-1737.735157230111
 30
0.0
 11
2100.866248012769
 21
-1662.180144209278
 31
0.0
  0
LINE
  5
207
330
1F
100
AcDbEntity
  8
3-6
  6
JWW_DASHED3
 62
     6
370
     9
100
AcDbLine
 10
2130.86655318855
 20
-1662.180144209278
 30
0.0
 11
2130.86655318855
 21
-1737.735157230111
 31
0.0
  0
LWPOLYLINE
  5
208
330
1F
100
AcDbEntity
  8
3-4
  6
Continuous
 62
     7
370
     9
100
AcDbPolyline
 90
        4
 70
     1
 43
2.0
 10
1907.004763278981
 20
-1819.67296835274
 42
0.4142135623731
 10
1906.004763278981
 20
-1818.67296835274
 42
0.4142135623731
 10
1905.004763278981
 20
-1819.67296835274
 42
0.4142135623731
 10
1906.004763278981
 20
-1820.67296835274
 42
0.4142135623731
  0
LWPOLYLINE
  5
209
330
1F
100
AcDbEntity
  8
3-4
  6
Continuous
 62
     7
370
     9
100
AcDbPolyline
 90
        4
 70
     1
 43
2.0
 10
2077.004664303055
 20
-1819.67296835274
 42
0.4142135623731
 10
2076.004664303055
 20
-1818.67296835274
 42
0.4142135623731
 10
2075.004664303055
 20
-1819.67296835274
 42
0.4142135623731
 10
2076.004664303055
 20
-1820.67296835274
 42
0.4142135623731
  0
LWPOLYLINE
  5
20A
330
1F
100
AcDbEntity
  8
3-4
  6
Continuous
 62
     7
370
     9
100
AcDbPolyline
 90
        4
 70
     1
 43
2.0
 10
2173.671459715753
 20
-1819.67296835274
 42
0.4142135623731
 10
2172.671459715753
 20
-1818.67296835274
 42
0.4142135623731
 10
2171.671459715754
 20
-1819.67296835274
 42
0.4142135623731
 10
2172.671459715753
 20
-1820.67296835274
 42
0.4142135623731
  0
LINE
  5
20B
330
1F
100
AcDbEntity
  8
3-6
  6
Continuous
 62
     6
370
     9
100
AcDbLine
 10
736.005131689385
 20
-1452.180188198579
 30
0.0
 11
222.0048812071428
 21
-1452.180188198579
 31
0.0
  0
LINE
  5
20C
330
1F
100
AcDbEntity
  8
3-6
  6
Continuous
 62
     6
370
     9
100
AcDbLine
 10
2076.004664303055
 20
-1452.180188198579
 30
0.0
 11
2590.004975270583
 21
-1452.180188198579
 31
0.0
  0
ARC
  5
20D
330
1F
100
AcDbEntity
  8
3-2
  6
Continuous
 62
     3
370
     9
100
AcDbCircle
 10
1956.005469857139
 20
-1387.179372039927
 30
0.0
 40
20.0
100
AcDbArc
 50
270.0
 51
0.0
  0
LINE
  5
20E
330
1F
100
AcDbEntity
  8
3-2
  6
Continuous
 62
     3
370
     9
100
AcDbLine
 10
1956.005469857139
 20
-1407.179372039927
 30
0.0
 11
1406.005131100239
 21
-1407.179372039927
 31
0.0
  0
LINE
  5
20F
330
1F
100
AcDbEntity
  8
3-2
  6
Continuous
 62
     3
370
     9
100
AcDbLine
 10
1956.005469857139
 20
-1397.179372039927
 30
0.0
 11
1406.005131100239
 21
-1397.179372039927
 31
0.0
  0
ARC
  5
210
330
1F
100
AcDbEntity
  8
3-2
  6
Continuous
 62
     3
370
     9
100
AcDbCircle
 10
1956.005469857139
 20
-1387.179372039927
 30
0.0
 40
10.0
100
AcDbArc
 50
270.0
 51
0.0
  0
LINE
  5
211
330
1F
100
AcDbEntity
  8
3-2
  6
Continuous
 62
     3
370
     9
100
AcDbLine
 10
1966.005469857139
 20
-1387.179372039927
 30
0.0
 11
1966.005469857139
 21
-1152.179774620593
 31
0.0
  0
LINE
  5
212
330
1F
100
AcDbEntity
  8
3-2
  6
Continuous
 62
     3
370
     9
100
AcDbLine
 10
1976.005469857139
 20
-1178.846441287256
 30
0.0
 11
1976.005469857139
 21
-1152.179774620593
 31
0.0
  0
LINE
  5
213
330
1F
100
AcDbEntity
  8
3-2
  6
JWW_DASHED1
 62
     3
370
     9
100
AcDbLine
 10
1976.005469857139
 20
-1387.179372039927
 30
0.0
 11
1976.005469857139
 21
-1178.846441287256
 31
0.0
  0
ARC
  5
214
330
1F
100
AcDbEntity
  8
3-2
  6
Continuous
 62
     3
370
     9
100
AcDbCircle
 10
856.0047923433422
 20
-1387.179372039927
 30
0.0
 40
20.0
100
AcDbArc
 50
180.0
 51
270.0
  0
LINE
  5
215
330
1F
100
AcDbEntity
  8
3-2
  6
Continuous
 62
     3
370
     9
100
AcDbLine
 10
856.0047923433422
 20
-1397.179372039927
 30
0.0
 11
1406.005131100239
 21
-1397.179372039927
 31
0.0
  0
LINE
  5
216
330
1F
100
AcDbEntity
  8
3-2
  6
Continuous
 62
     3
370
     9
100
AcDbLine
 10
856.0047923433422
 20
-1407.179372039927
 30
0.0
 11
1406.005131100239
 21
-1407.179372039927
 31
0.0
  0
ARC
  5
217
330
1F
100
AcDbEntity
  8
3-2
  6
Continuous
 62
     3
370
     9
100
AcDbCircle
 10
856.0047923433422
 20
-1387.179372039927
 30
0.0
 40
10.0
100
AcDbArc
 50
180.0
 51
270.0
  0
LINE
  5
218
330
1F
100
AcDbEntity
  8
3-2
  6
JWW_DASHED1
 62
     3
370
     9
100
AcDbLine
 10
836.0047923433422
 20
-1387.179372039927
 30
0.0
 11
836.0047923433422
 21
-1178.846441287256
 31
0.0
  0
LINE
  5
219
330
1F
100
AcDbEntity
  8
3-2
  6
Continuous
 62
     3
370
     9
100
AcDbLine
 10
846.0047923433422
 20
-1387.179372039927
 30
0.0
 11
846.0047923433422
 21
-1152.179774620593
 31
0.0
  0
LINE
  5
21A
330
1F
100
AcDbEntity
  8
3-2
  6
Continuous
 62
     3
370
     9
100
AcDbLine
 10
836.0047923433422
 20
-1178.846441287256
 30
0.0
 11
836.0047923433422
 21
-1152.179774620593
 31
0.0
  0
LINE
  5
21B
330
1F
100
AcDbEntity
  8
3-2
  6
Continuous
 62
     3
370
     9
100
AcDbLine
 10
1375.231628408343
 20
-1393.846038706593
 30
0.0
 11
1436.778633792137
 21
-1393.846038706593
 31
0.0
  0
LINE
  5
21C
330
1F
100
AcDbEntity
  8
3-2
  6
Continuous
 62
     3
370
     9
100
AcDbLine
 10
1436.778633792137
 20
-1393.846038706593
 30
0.0
 11
1493.84233256557
 21
-1368.846038706593
 31
0.0
  0
LINE
  5
21D
330
1F
100
AcDbEntity
  8
3-2
  6
Continuous
 62
     3
370
     9
100
AcDbLine
 10
1493.84233256557
 20
-1368.846038706593
 30
0.0
 11
1495.17995044711
 21
-1371.899215660866
 31
0.0
  0
LINE
  5
21E
330
1F
100
AcDbEntity
  8
3-2
  6
Continuous
 62
     3
370
     9
100
AcDbLine
 10
1437.476781304706
 20
-1397.179372039927
 30
0.0
 11
1495.17995044711
 21
-1371.899215660866
 31
0.0
  0
LINE
  5
21F
330
1F
100
AcDbEntity
  8
3-2
  6
Continuous
 62
     3
370
     9
100
AcDbLine
 10
1375.231628408343
 20
-1393.846038706593
 30
0.0
 11
1318.16792963491
 21
-1368.846038706593
 31
0.0
  0
LINE
  5
220
330
1F
100
AcDbEntity
  8
3-2
  6
Continuous
 62
     3
370
     9
100
AcDbLine
 10
1318.16792963491
 20
-1368.846038706593
 30
0.0
 11
1316.83031175337
 21
-1371.899215660866
 31
0.0
  0
LINE
  5
221
330
1F
100
AcDbEntity
  8
3-2
  6
Continuous
 62
     3
370
     9
100
AcDbLine
 10
1374.533480895773
 20
-1397.179372039927
 30
0.0
 11
1316.83031175337
 21
-1371.899215660866
 31
0.0
  0
LINE
  5
222
330
1F
100
AcDbEntity
  8
3-1
  6
Continuous
 62
     2
370
     9
100
AcDbLine
 10
756.005032713457
 20
-1468.846012391564
 30
0.0
 11
906.0051976733376
 21
-1468.846012391565
 31
0.0
  0
LINE
  5
223
330
1F
100
AcDbEntity
  8
3-1
  6
Continuous
 62
     2
370
     9
100
AcDbLine
 10
756.0051976733376
 20
-1482.1793897142
 30
0.0
 11
906.0051976733376
 21
-1482.1793897142
 31
0.0
  0
LINE
  5
224
330
1F
100
AcDbEntity
  8
3-9
  6
Continuous
 62
     4
370
     9
100
AcDbLine
 10
736.0052457866368
 20
-1493.178465285896
 30
0.0
 11
736.0052457866368
 21
-1483.845153569181
 31
0.0
  0
LINE
  5
225
330
1F
100
AcDbEntity
  8
3-9
  6
Continuous
 62
     4
370
     9
100
AcDbLine
 10
749.3386411088005
 20
-1490.511852024991
 30
0.0
 11
749.3386411088005
 21
-1483.845153569181
 31
0.0
  0
LINE
  5
226
330
1F
100
AcDbEntity
  8
3-9
  6
Continuous
 62
     4
370
     9
100
AcDbLine
 10
735.9885628439281
 20
-1490.511852024991
 30
0.0
 11
769.3384484300742
 21
-1490.511852024991
 31
0.0
  0
LINE
  5
227
330
1F
100
AcDbEntity
  8
3-9
  6
Continuous
 62
     3
370
     9
100
AcDbLine
 10
836.0053347962395
 20
-1482.1793897142
 30
0.0
 11
836.0053347962395
 21
-1497.179376998542
 31
0.0
  0
LINE
  5
228
330
1F
100
AcDbEntity
  8
3-9
  6
Continuous
 62
     3
370
     9
100
AcDbLine
 10
769.3384484300742
 20
-1497.179376998542
 30
0.0
 11
836.0053347962395
 21
-1497.179376998542
 31
0.0
  0
LINE
  5
229
330
1F
100
AcDbEntity
  8
3-9
  6
Continuous
 62
     3
370
     9
100
AcDbLine
 10
769.3384484300742
 20
-1482.1793897142
 30
0.0
 11
836.0053347962395
 21
-1482.1793897142
 31
0.0
  0
LINE
  5
22A
330
1F
100
AcDbEntity
  8
3-9
  6
Continuous
 62
     2
370
     9
100
AcDbLine
 10
793.5054015534416
 20
-1498.845140853523
 30
0.0
 11
793.5054015534416
 21
-1497.179376998542
 31
0.0
  0
LINE
  5
22B
330
1F
100
AcDbEntity
  8
3-9
  6
Continuous
 62
     2
370
     9
100
AcDbLine
 10
799.3392085450188
 20
-1503.844746668139
 30
0.0
 11
793.5054015534416
 21
-1498.845140853523
 31
0.0
  0
LINE
  5
22C
330
1F
100
AcDbEntity
  8
3-9
  6
Continuous
 62
     2
370
     9
100
AcDbLine
 10
806.0051535981194
 20
-1503.844746668139
 30
0.0
 11
799.3392085450188
 21
-1503.844746668139
 31
0.0
  0
LINE
  5
22D
330
1F
100
AcDbEntity
  8
3-9
  6
Continuous
 62
     2
370
     9
100
AcDbLine
 10
811.8387952861485
 20
-1498.845140853523
 30
0.0
 11
806.0051535981194
 21
-1503.844746668139
 31
0.0
  0
LINE
  5
22E
330
1F
100
AcDbEntity
  8
3-9
  6
Continuous
 62
     2
370
     9
100
AcDbLine
 10
811.8387952861485
 20
-1498.845140853523
 30
0.0
 11
811.8387952861485
 21
-1497.179376998542
 31
0.0
  0
LINE
  5
22F
330
1F
100
AcDbEntity
  8
3-9
  6
Continuous
 62
     2
370
     9
100
AcDbLine
 10
811.8387952861485
 20
-1498.845140853523
 30
0.0
 11
793.5054015534416
 21
-1498.845140853523
 31
0.0
  0
LINE
  5
230
330
1F
100
AcDbEntity
  8
3-9
  6
Continuous
 62
     3
370
     9
100
AcDbLine
 10
769.3384484300742
 20
-1482.1793897142
 30
0.0
 11
769.3384484300742
 21
-1497.179376998542
 31
0.0
  0
LINE
  5
231
330
1F
100
AcDbEntity
  8
3-9
  6
Continuous
 62
     3
370
     9
100
AcDbLine
 10
769.3384484300742
 20
-1488.846056380867
 30
0.0
 11
836.0053347962395
 21
-1488.846056380867
 31
0.0
  0
LINE
  5
232
330
1F
100
AcDbEntity
  8
3-9
  6
JWW_DASHED2
 62
     3
370
     9
100
AcDbLine
 10
769.3384484300742
 20
-1490.512710331876
 30
0.0
 11
836.0053347962395
 21
-1490.512710331876
 31
0.0
  0
ARC
  5
233
330
1F
100
AcDbEntity
  8
3-9
  6
Continuous
 62
     4
370
     9
100
AcDbCircle
 10
726.005198102921
 20
-1493.178465285896
 30
0.0
 40
10.00000158945719
100
AcDbArc
 50
270.0
 51
0.0000000000000254
  0
LINE
  5
234
330
1F
100
AcDbEntity
  8
3-6
  6
Continuous
 62
     6
370
     9
100
AcDbLine
 10
711.14371293955
 20
-1483.845153569181
 30
0.0
 11
711.14371293955
 21
-1460.511820235847
 31
0.0
  0
CIRCLE
  5
235
330
1F
100
AcDbEntity
  8
3-E
  6
Continuous
 62
     7
370
     9
100
AcDbCircle
 10
746.80586387223
 20
-1536.40737154693
 30
0.0
 40
1.666666666666667
  0
CIRCLE
  5
236
330
1F
100
AcDbEntity
  8
3-E
  6
Continuous
 62
     7
370
     9
100
AcDbCircle
 10
864.1391972055635
 20
-1514.771437740783
 30
0.0
 40
1.666666666666667
  0
CIRCLE
  5
237
330
1F
100
AcDbEntity
  8
3-E
  6
Continuous
 62
     7
370
     9
100
AcDbCircle
 10
795.0706392859422
 20
-1531.414463745512
 30
0.0
 40
1.666666666666667
  0
LINE
  5
238
330
1F
100
AcDbEntity
  8
3-6
  6
Continuous
 62
     6
370
     9
100
AcDbLine
 10
906.0051976733376
 20
-1482.1793897142
 30
0.0
 11
906.0051976733376
 21
-2128.846729770669
 31
0.0
  0
LINE
  5
239
330
1F
100
AcDbEntity
  8
3-9
  6
Continuous
 62
     4
370
     9
100
AcDbLine
 10
726.005198102921
 20
-1503.178509790698
 30
0.0
 11
649.3385028260246
 21
-1503.178509790698
 31
0.0
  0
LINE
  5
23A
330
1F
100
AcDbEntity
  8
3-9
  6
Continuous
 62
     4
370
     9
100
AcDbLine
 10
639.3386299826
 20
-1493.178465285896
 30
0.0
 11
639.3386299826
 21
-1483.845153569181
 31
0.0
  0
LINE
  5
23B
330
1F
100
AcDbEntity
  8
3-9
  6
Continuous
 62
     4
370
     9
100
AcDbLine
 10
639.3386299826
 20
-1483.845153569181
 30
0.0
 11
769.3384484300742
 21
-1483.845153569181
 31
0.0
  0
LINE
  5
23C
330
1F
100
AcDbEntity
  8
3-9
  6
JWW_CENTER1
 62
     4
370
     9
100
AcDbLine
 10
802.6718902009026
 20
-1509.005389927823
 30
0.0
 11
802.6718902009026
 21
-1482.1793897142
 31
0.0
  0
ARC
  5
23D
330
1F
100
AcDbEntity
  8
3-9
  6
Continuous
 62
     4
370
     9
100
AcDbCircle
 10
649.3385028260246
 20
-1493.178465285896
 30
0.0
 40
10.00000158945719
100
AcDbArc
 50
180.0
 51
270.0
  0
LINE
  5
23E
330
1F
100
AcDbEntity
  8
3-6
  6
Continuous
 62
     6
370
     9
100
AcDbLine
 10
681.1434077637688
 20
-1483.845153569181
 30
0.0
 11
681.1434077637688
 21
-1460.511820235847
 31
0.0
  0
LINE
  5
23F
330
1F
100
AcDbEntity
  8
3-6
  6
Continuous
 62
     6
370
     9
100
AcDbLine
 10
711.14371293955
 20
-1662.180144209278
 30
0.0
 11
711.14371293955
 21
-1503.178509790698
 31
0.0
  0
LINE
  5
240
330
1F
100
AcDbEntity
  8
3-6
  6
Continuous
 62
     6
370
     9
100
AcDbLine
 10
681.1434077637688
 20
-1662.180144209278
 30
0.0
 11
681.1434077637688
 21
-1503.178509790698
 31
0.0
  0
LINE
  5
241
330
1F
100
AcDbEntity
  8
3-4
  6
Continuous
 62
     7
370
     9
100
AcDbLine
 10
639.3386299826
 20
-1822.672968352741
 30
0.0
 11
639.3386299826
 21
-1503.845153569181
 31
0.0
  0
LINE
  5
242
330
1F
100
AcDbEntity
  8
3-1
  6
Continuous
 62
     2
370
     9
100
AcDbLine
 10
906.0051976733376
 20
-1468.846012391565
 30
0.0
 11
906.0051976733376
 21
-1482.1793897142
 31
0.0
  0
LINE
  5
243
330
1F
100
AcDbEntity
  8
3-1
  6
Continuous
 62
     2
370
     9
100
AcDbLine
 10
749.3383440521393
 20
-1462.17965365001
 30
0.0
 11
749.3383440521393
 21
-1152.180188198579
 31
0.0
  0
LINE
  5
244
330
1F
100
AcDbEntity
  8
3-1
  6
Continuous
 62
     2
370
     9
100
AcDbLine
 10
736.005131689385
 20
-1462.17965365001
 30
0.0
 11
736.005131689385
 21
-1152.180188198579
 31
0.0
  0
ARC
  5
245
330
1F
100
AcDbEntity
  8
3-1
  6
Continuous
 62
     2
370
     9
100
AcDbCircle
 10
756.005032713457
 20
-1462.17965365001
 30
0.0
 40
6.666666752583272
100
AcDbArc
 50
180.0
 51
270.0
  0
ARC
  5
246
330
1F
100
AcDbEntity
  8
3-1
  6
Continuous
 62
     2
370
     9
100
AcDbCircle
 10
756.0051976733376
 20
-1462.17965365001
 30
0.0
 40
20.00000025774981
100
AcDbArc
 50
180.0
 51
270.0
  0
CIRCLE
  5
247
330
1F
100
AcDbEntity
  8
3-E
  6
Continuous
 62
     7
370
     9
100
AcDbCircle
 10
619.6115556978049
 20
-1548.078416988596
 30
0.0
 40
1.666666666666667
  0
LINE
  5
248
330
1F
100
AcDbEntity
  8
3-6
  6
Continuous
 62
     6
370
     9
100
AcDbLine
 10
711.14371293955
 20
-1460.511820235847
 30
0.0
 11
681.1434077637688
 21
-1460.511820235847
 31
0.0
  0
LINE
  5
249
330
1F
100
AcDbEntity
  8
3-1
  6
Continuous
 62
     2
370
     9
100
AcDbLine
 10
2056.004928238865
 20
-1468.846012391565
 30
0.0
 11
1906.004928238865
 21
-1468.846012391565
 31
0.0
  0
LINE
  5
24A
330
1F
100
AcDbEntity
  8
3-1
  6
Continuous
 62
     2
370
     9
100
AcDbLine
 10
2062.671616900182
 20
-1462.179653650011
 30
0.0
 11
2062.671616900182
 21
-1152.180188198579
 31
0.0
  0
LINE
  5
24B
330
1F
100
AcDbEntity
  8
3-1
  6
Continuous
 62
     2
370
     9
100
AcDbLine
 10
2076.004664303055
 20
-1462.179653650011
 30
0.0
 11
2076.004664303055
 21
-1152.180188198579
 31
0.0
  0
ARC
  5
24C
330
1F
100
AcDbEntity
  8
3-1
  6
Continuous
 62
     2
370
     9
100
AcDbCircle
 10
2056.004928238865
 20
-1462.179653650011
 30
0.0
 40
6.666666752583272
100
AcDbArc
 50
270.0
 51
0.0
  0
ARC
  5
24D
330
1F
100
AcDbEntity
  8
3-1
  6
Continuous
 62
     2
370
     9
100
AcDbCircle
 10
2056.004928238865
 20
-1462.179653650011
 30
0.0
 40
20.00000025774981
100
AcDbArc
 50
270.0
 51
0.0
  0
LINE
  5
24E
330
1F
100
AcDbEntity
  8
3-1
  6
Continuous
 62
     2
370
     9
100
AcDbLine
 10
2056.107727425374
 20
-1482.1793897142
 30
0.0
 11
1906.004928238865
 21
-1482.1793897142
 31
0.0
  0
LINE
  5
24F
330
1F
100
AcDbEntity
  8
3-9
  6
Continuous
 62
     4
370
     9
100
AcDbLine
 10
2076.004715165684
 20
-1493.178465285896
 30
0.0
 11
2076.004715165684
 21
-1483.845153569181
 31
0.0
  0
LINE
  5
250
330
1F
100
AcDbEntity
  8
3-9
  6
Continuous
 62
     4
370
     9
100
AcDbLine
 10
2062.671319843519
 20
-1490.511852024991
 30
0.0
 11
2062.671319843519
 21
-1483.845153569181
 31
0.0
  0
LINE
  5
251
330
1F
100
AcDbEntity
  8
3-9
  6
Continuous
 62
     4
370
     9
100
AcDbLine
 10
2076.021398108393
 20
-1490.511852024991
 30
0.0
 11
2042.671512522245
 21
-1490.511852024991
 31
0.0
  0
LINE
  5
252
330
1F
100
AcDbEntity
  8
3-9
  6
Continuous
 62
     3
370
     9
100
AcDbLine
 10
1976.00462615608
 20
-1482.1793897142
 30
0.0
 11
1976.00462615608
 21
-1497.179376998542
 31
0.0
  0
LINE
  5
253
330
1F
100
AcDbEntity
  8
3-9
  6
Continuous
 62
     3
370
     9
100
AcDbLine
 10
2042.671512522245
 20
-1497.179376998542
 30
0.0
 11
1976.00462615608
 21
-1497.179376998542
 31
0.0
  0
LINE
  5
254
330
1F
100
AcDbEntity
  8
3-9
  6
Continuous
 62
     3
370
     9
100
AcDbLine
 10
2042.671512522245
 20
-1482.1793897142
 30
0.0
 11
1976.00462615608
 21
-1482.1793897142
 31
0.0
  0
LINE
  5
255
330
1F
100
AcDbEntity
  8
3-9
  6
Continuous
 62
     2
370
     9
100
AcDbLine
 10
2018.504559398878
 20
-1498.845140853523
 30
0.0
 11
2018.504559398878
 21
-1497.179376998542
 31
0.0
  0
LINE
  5
256
330
1F
100
AcDbEntity
  8
3-9
  6
Continuous
 62
     2
370
     9
100
AcDbLine
 10
2012.6707524073
 20
-1503.844746668139
 30
0.0
 11
2018.504559398878
 21
-1498.845140853523
 31
0.0
  0
LINE
  5
257
330
1F
100
AcDbEntity
  8
3-9
  6
Continuous
 62
     2
370
     9
100
AcDbLine
 10
2006.0048073542
 20
-1503.844746668139
 30
0.0
 11
2012.6707524073
 21
-1503.844746668139
 31
0.0
  0
LINE
  5
258
330
1F
100
AcDbEntity
  8
3-9
  6
Continuous
 62
     2
370
     9
100
AcDbLine
 10
2000.171165666172
 20
-1498.845140853523
 30
0.0
 11
2006.0048073542
 21
-1503.844746668139
 31
0.0
  0
LINE
  5
259
330
1F
100
AcDbEntity
  8
3-9
  6
Continuous
 62
     2
370
     9
100
AcDbLine
 10
2000.171165666172
 20
-1498.845140853523
 30
0.0
 11
2000.171165666172
 21
-1497.179376998542
 31
0.0
  0
LINE
  5
25A
330
1F
100
AcDbEntity
  8
3-9
  6
Continuous
 62
     2
370
     9
100
AcDbLine
 10
2000.171165666172
 20
-1498.845140853523
 30
0.0
 11
2018.504559398878
 21
-1498.845140853523
 31
0.0
  0
LINE
  5
25B
330
1F
100
AcDbEntity
  8
3-9
  6
Continuous
 62
     3
370
     9
100
AcDbLine
 10
2042.671512522245
 20
-1482.1793897142
 30
0.0
 11
2042.671512522245
 21
-1497.179376998542
 31
0.0
  0
LINE
  5
25C
330
1F
100
AcDbEntity
  8
3-9
  6
Continuous
 62
     3
370
     9
100
AcDbLine
 10
2042.671512522245
 20
-1488.846056380867
 30
0.0
 11
1976.00462615608
 21
-1488.846056380867
 31
0.0
  0
LINE
  5
25D
330
1F
100
AcDbEntity
  8
3-9
  6
JWW_DASHED2
 62
     3
370
     9
100
AcDbLine
 10
2042.671512522245
 20
-1490.512710331876
 30
0.0
 11
1976.00462615608
 21
-1490.512710331876
 31
0.0
  0
ARC
  5
25E
330
1F
100
AcDbEntity
  8
3-9
  6
Continuous
 62
     4
370
     9
100
AcDbCircle
 10
2086.0047628494
 20
-1493.178465285896
 30
0.0
 40
10.00000158945719
100
AcDbArc
 50
180.0
 51
270.0
  0
LINE
  5
25F
330
1F
100
AcDbEntity
  8
3-6
  6
Continuous
 62
     6
370
     9
100
AcDbLine
 10
2100.866248012769
 20
-1483.845153569181
 30
0.0
 11
2100.866248012769
 21
-1460.511820235847
 31
0.0
  0
CIRCLE
  5
260
330
1F
100
AcDbEntity
  8
3-E
  6
Continuous
 62
     7
370
     9
100
AcDbCircle
 10
1967.718902185636
 20
-1533.914167063327
 30
0.0
 40
1.666666666666667
  0
CIRCLE
  5
261
330
1F
100
AcDbEntity
  8
3-E
  6
Continuous
 62
     7
370
     9
100
AcDbCircle
 10
1931.936396275471
 20
-1512.278233257181
 30
0.0
 40
1.666666666666667
  0
CIRCLE
  5
262
330
1F
100
AcDbEntity
  8
3-E
  6
Continuous
 62
     7
370
     9
100
AcDbCircle
 10
2053.430486109987
 20
-1521.431897559781
 30
0.0
 40
1.666666666666667
  0
CIRCLE
  5
263
330
1F
100
AcDbEntity
  8
3-E
  6
Continuous
 62
     7
370
     9
100
AcDbCircle
 10
2010.990769797929
 20
-1543.067831365927
 30
0.0
 40
1.666666666666667
  0
CIRCLE
  5
264
330
1F
100
AcDbEntity
  8
3-E
  6
Continuous
 62
     7
370
     9
100
AcDbCircle
 10
2169.931668143083
 20
-1537.242772264273
 30
0.0
 40
1.666666666666667
  0
LINE
  5
265
330
1F
100
AcDbEntity
  8
3-6
  6
Continuous
 62
     6
370
     9
100
AcDbLine
 10
1906.004763278981
 20
-1482.1793897142
 30
0.0
 11
1906.004763278981
 21
-2128.846729770669
 31
0.0
  0
LINE
  5
266
330
1F
100
AcDbEntity
  8
3-9
  6
Continuous
 62
     4
370
     9
100
AcDbLine
 10
2086.0047628494
 20
-1503.178509790698
 30
0.0
 11
2162.671458126295
 21
-1503.178509790698
 31
0.0
  0
LINE
  5
267
330
1F
100
AcDbEntity
  8
3-9
  6
Continuous
 62
     4
370
     9
100
AcDbLine
 10
2172.671330969721
 20
-1493.178465285896
 30
0.0
 11
2172.671330969721
 21
-1483.845153569181
 31
0.0
  0
LINE
  5
268
330
1F
100
AcDbEntity
  8
3-9
  6
Continuous
 62
     4
370
     9
100
AcDbLine
 10
2172.671330969721
 20
-1483.845153569181
 30
0.0
 11
2042.671512522245
 21
-1483.845153569181
 31
0.0
  0
LINE
  5
269
330
1F
100
AcDbEntity
  8
3-9
  6
JWW_CENTER1
 62
     4
370
     9
100
AcDbLine
 10
2009.338070751417
 20
-1509.005389927823
 30
0.0
 11
2009.338070751417
 21
-1482.1793897142
 31
0.0
  0
ARC
  5
26A
330
1F
100
AcDbEntity
  8
3-9
  6
Continuous
 62
     4
370
     9
100
AcDbCircle
 10
2162.671458126295
 20
-1493.178465285896
 30
0.0
 40
10.00000158945719
100
AcDbArc
 50
270.0
 51
0.0
  0
LINE
  5
26B
330
1F
100
AcDbEntity
  8
3-6
  6
JWW_CENTER2
 62
     6
370
     9
100
AcDbLine
 10
2115.86640060066
 20
-1454.869418858487
 30
0.0
 11
2115.86640060066
 21
-1737.735157230111
 31
0.0
  0
LINE
  5
26C
330
1F
100
AcDbEntity
  8
3-6
  6
Continuous
 62
     6
370
     9
100
AcDbLine
 10
2100.866248012769
 20
-1460.511820235847
 30
0.0
 11
2130.86655318855
 21
-1460.511820235847
 31
0.0
  0
LINE
  5
26D
330
1F
100
AcDbEntity
  8
3-6
  6
Continuous
 62
     6
370
     9
100
AcDbLine
 10
2130.86655318855
 20
-1483.845153569181
 30
0.0
 11
2130.86655318855
 21
-1460.511820235847
 31
0.0
  0
LINE
  5
26E
330
1F
100
AcDbEntity
  8
3-6
  6
Continuous
 62
     6
370
     9
100
AcDbLine
 10
2130.86655318855
 20
-1662.180144209278
 30
0.0
 11
2130.86655318855
 21
-1503.178509790698
 31
0.0
  0
LINE
  5
26F
330
1F
100
AcDbEntity
  8
3-6
  6
Continuous
 62
     6
370
     9
100
AcDbLine
 10
2100.866248012769
 20
-1662.180144209278
 30
0.0
 11
2100.866248012769
 21
-1503.178509790698
 31
0.0
  0
LINE
  5
270
330
1F
100
AcDbEntity
  8
3-4
  6
Continuous
 62
     7
370
     9
100
AcDbLine
 10
2172.671459715753
 20
-1822.672968352741
 30
0.0
 11
2172.671459715753
 21
-1513.178465285896
 31
0.0
  0
LINE
  5
271
330
1F
100
AcDbEntity
  8
3-1
  6
Continuous
 62
     2
370
     9
100
AcDbLine
 10
1906.004928238865
 20
-1468.846012391565
 30
0.0
 11
1906.004928238865
 21
-1482.1793897142
 31
0.0
  0
TEXT
  5
272
330
1F
100
AcDbEntity
  8
F-Fﾚｲﾔ
  6
Continuous
 62
     3
370
     9
100
AcDbText
 10
240.8439636366609
 20
2649.588310691001
 30
0.0
 40
45.72
  1
名称
 41
1.083333333333333
  7
ＭＳ ゴシック
100
AcDbText
  0
LINE
  5
273
330
1F
100
AcDbEntity
  8
F-Fﾚｲﾔ
  6
Continuous
 62
     7
370
     9
100
AcDbLine
 10
214.2267384905097
 20
2721.128364335182
 30
0.0
 11
2001.125250331461
 21
2721.128364335182
 31
0.0
  0
TEXT
  5
274
330
1F
100
AcDbEntity
  8
F-Fﾚｲﾔ
  6
Continuous
 62
     3
370
   211
100
AcDbText
 10
2121.26962099486
 20
2649.588364335182
 30
0.0
 40
45.72
  1
強度性能
 41
1.125
  7
ＭＳ ゴシック
100
AcDbText
  0
TEXT
  5
275
330
1F
100
AcDbEntity
  8
F-Fﾚｲﾔ
  6
Continuous
 62
     3
370
     9
100
AcDbText
 10
2121.26962099486
 20
2553.178364335182
 30
0.0
 40
38.1
  1
強度
 41
1.05
  7
ＭＳ ゴシック
100
AcDbText
  0
TEXT
  5
276
330
1F
100
AcDbEntity
  8
F-Fﾚｲﾔ
  6
Continuous
 62
     3
370
     9
100
AcDbText
 10
2554.010415396062
 20
2553.178364335182
 30
0.0
 40
38.1
  1
歩行用：5.0kN/㎡(等分布荷重）
 41
1.093103448275862
  7
ＭＳ ゴシック
100
AcDbText
  0
LINE
  5
277
330
1F
100
AcDbEntity
  8
F-Fﾚｲﾔ
  6
Continuous
 62
     7
370
     9
100
AcDbLine
 10
2091.26962099486
 20
2721.128364335182
 30
0.0
 11
3798.223536915921
 21
2721.128364335182
 31
0.0
  0
LINE
  5
278
330
1F
100
AcDbEntity
  8
F-Fﾚｲﾔ
  6
Continuous
 62
     7
370
     9
100
AcDbLine
 10
2091.26962099486
 20
2621.128364335182
 30
0.0
 11
3798.223536915921
 21
2621.128364335182
 31
0.0
  0
LINE
  5
279
330
1F
100
AcDbEntity
  8
F-Fﾚｲﾔ
  6
Continuous
 62
     7
370
     9
100
AcDbLine
 10
2091.26962099486
 20
2611.128364335182
 30
0.0
 11
3798.223536915921
 21
2611.128364335182
 31
0.0
  0
LINE
  5
27A
330
1F
100
AcDbEntity
  8
F-Fﾚｲﾔ
  6
Continuous
 62
     7
370
     9
100
AcDbLine
 10
2091.26962099486
 20
2451.128364335182
 30
0.0
 11
3798.223536915921
 21
2451.128364335182
 31
0.0
  0
TEXT
  5
27B
330
1F
100
AcDbEntity
  8
F-Fﾚｲﾔ
  6
Continuous
 62
     3
370
   211
100
AcDbText
 10
2554.010415396062
 20
2473.178364335182
 30
0.0
 40
38.1
  1
　 　 　道路橋示方書　歩道等の群集荷重
 41
1.094736842105263
  7
ＭＳ ゴシック
100
AcDbText
  0
TEXT
  5
27C
330
1F
100
AcDbEntity
  8
F-Fﾚｲﾔ
  6
Continuous
 62
     3
370
     9
100
AcDbText
 10
2121.26962099486
 20
2393.178364335182
 30
0.0
 40
38.1
  1
主な使用場所
 41
1.083333333333333
  7
ＭＳ ゴシック
100
AcDbText
  0
TEXT
  5
27D
330
1F
100
AcDbEntity
  8
F-Fﾚｲﾔ
  6
Continuous
 62
     3
370
   211
100
AcDbText
 10
2554.010415396062
 20
2393.178364335182
 30
0.0
 40
38.1
  1
歩道、建物内、犬走り
 41
1.09
  7
ＭＳ ゴシック
100
AcDbText
  0
LINE
  5
27E
330
1F
100
AcDbEntity
  8
F-Fﾚｲﾔ
  6
Continuous
 62
     7
370
     9
100
AcDbLine
 10
2524.010415396064
 20
2621.128364335182
 30
0.0
 11
2524.010415396064
 21
2281.128364335182
 31
0.0
  0
LINE
  5
27F
330
1F
100
AcDbEntity
  8
F-Fﾚｲﾔ
  6
Continuous
 62
     7
370
     9
100
AcDbLine
 10
3798.223536915921
 20
2721.128364335182
 30
0.0
 11
3798.223536915921
 21
2281.128364335182
 31
0.0
  0
LINE
  5
280
330
1F
100
AcDbEntity
  8
F-Fﾚｲﾔ
  6
Continuous
 62
     7
370
     9
100
AcDbLine
 10
2091.26962099486
 20
2721.128364335182
 30
0.0
 11
2091.26962099486
 21
2281.128364335182
 31
0.0
  0
TEXT
  5
281
330
1F
100
AcDbEntity
  8
F-Fﾚｲﾔ
  6
Continuous
 62
     3
370
     9
100
AcDbText
 10
2121.26962099486
 20
2303.178432880522
 30
0.0
 40
38.1
  1
荷重
 41
1.05
  7
ＭＳ ゴシック
100
AcDbText
  0
LINE
  5
282
330
1F
100
AcDbEntity
  8
F-Fﾚｲﾔ
  6
Continuous
 62
     7
370
     9
100
AcDbLine
 10
2091.26962099486
 20
2281.128364335182
 30
0.0
 11
3798.223536915921
 21
2281.128364335182
 31
0.0
  0
LINE
  5
283
330
1F
100
AcDbEntity
  8
F-Fﾚｲﾔ
  6
Continuous
 62
     7
370
     9
100
AcDbLine
 10
2091.26962099486
 20
2361.128364335182
 30
0.0
 11
3798.223536915921
 21
2361.128364335182
 31
0.0
  0
TEXT
  5
284
330
1F
100
AcDbEntity
  8
F-Fﾚｲﾔ
  6
Continuous
 62
     3
370
   211
100
AcDbText
 10
2554.010415396062
 20
2303.178364335182
 30
0.0
 40
38.1
  1
5.0kN/㎡
 41
1.075
  7
ＭＳ ゴシック
100
AcDbText
  0
TEXT
  5
285
330
1F
100
AcDbEntity
  8
F-Fﾚｲﾔ
  6
Continuous
 62
     3
370
     9
100
AcDbText
 10
590.1375057618475
 20
2651.978382464095
 30
0.0
 40
38.1
  1
ステンレス製　集水桝用
 41
1.090909090909091
  7
ＭＳ ゴシック
100
AcDbText
  0
TEXT
  5
286
330
1F
100
AcDbEntity
  8
F-Fﾚｲﾔ
  6
Continuous
 62
     3
370
     9
100
AcDbText
 10
590.1375057618475
 20
2561.978382464096
 30
0.0
 40
38.1
  1
インターロッキングブロック用　充填深さ65mm
 41
1.097619047619048
  7
ＭＳ ゴシック
100
AcDbText
  0
LINE
  5
287
330
1F
100
AcDbEntity
  8
3-4
  6
Continuous
 62
     7
370
     9
100
AcDbLine
 10
736.0051974155886
 20
-1822.672968352741
 30
0.0
 11
736.0051974155886
 21
-1520.692497038955
 31
0.0
  0
LINE
  5
288
330
1F
100
AcDbEntity
  8
3-4
  6
Continuous
 62
     7
370
     9
100
AcDbLine
 10
2076.004664303055
 20
-1822.672968352741
 30
0.0
 11
2076.004664303055
 21
-1520.692497038955
 31
0.0
  0
TEXT
  5
289
330
1F
100
AcDbEntity
  8
F-Fﾚｲﾔ
  6
Continuous
 62
     3
370
     9
100
AcDbText
 10
590.1375057618475
 20
2258.178364335182
 30
0.0
 40
38.1
  1
充填深さ 65mm
 41
1.092307692307692
  7
ＭＳ ゴシック
100
AcDbText
  0
LINE
  5
28A
330
1F
100
AcDbEntity
  8
F-Fﾚｲﾔ
  6
Continuous
 62
     7
370
     9
100
AcDbLine
 10
214.2267384905097
 20
2421.128364335182
 30
0.0
 11
2001.125250331461
 21
2421.128364335182
 31
0.0
  0
TEXT
  5
28B
330
1F
100
AcDbEntity
  8
F-Fﾚｲﾔ
  6
Continuous
 62
     3
370
     9
100
AcDbText
 10
240.8439636366609
 20
2348.178221284034
 30
0.0
 40
38.1
  1
蓋
  7
ＭＳ ゴシック
100
AcDbText
  0
LINE
  5
28C
330
1F
100
AcDbEntity
  8
F-Fﾚｲﾔ
  6
Continuous
 62
     7
370
     9
100
AcDbLine
 10
214.2267384905097
 20
2411.128364335182
 30
0.0
 11
2001.125250331461
 21
2411.128364335182
 31
0.0
  0
LINE
  5
28D
330
1F
100
AcDbEntity
  8
F-Fﾚｲﾔ
  6
Continuous
 62
     7
370
     9
100
AcDbLine
 10
548.8026038678231
 20
2321.128364335182
 30
0.0
 11
2001.125250331461
 21
2321.128364335182
 31
0.0
  0
LINE
  5
28E
330
1F
100
AcDbEntity
  8
F-Fﾚｲﾔ
  6
Continuous
 62
     7
370
     9
100
AcDbLine
 10
548.8026038678231
 20
2231.128364335182
 30
0.0
 11
2001.125250331461
 21
2231.128364335182
 31
0.0
  0
LINE
  5
28F
330
1F
100
AcDbEntity
  8
F-Fﾚｲﾔ
  6
Continuous
 62
     7
370
     9
100
AcDbLine
 10
548.8026038678231
 20
2051.128364335182
 30
0.0
 11
2001.125250331461
 21
2051.128364335182
 31
0.0
  0
LINE
  5
290
330
1F
100
AcDbEntity
  8
F-Fﾚｲﾔ
  6
Continuous
 62
     7
370
     9
100
AcDbLine
 10
548.8026038678231
 20
2141.128364335182
 30
0.0
 11
2001.125250331461
 21
2141.128364335182
 31
0.0
  0
TEXT
  5
291
330
1F
100
AcDbEntity
  8
F-Fﾚｲﾔ
  6
Continuous
 62
     3
370
     9
100
AcDbText
 10
590.1375057618475
 20
2348.178221284034
 30
0.0
 40
38.1
  1
ステンレス製 SUS304
 41
1.094736842105263
  7
ＭＳ ゴシック
100
AcDbText
  0
TEXT
  5
292
330
1F
100
AcDbEntity
  8
F-Fﾚｲﾔ
  6
Continuous
 62
     3
370
     9
100
AcDbText
 10
240.8439636366609
 20
1808.178364335182
 30
0.0
 40
38.1
  1
受枠
 41
1.05
  7
ＭＳ ゴシック
100
AcDbText
  0
LINE
  5
293
330
1F
100
AcDbEntity
  8
F-Fﾚｲﾔ
  6
Continuous
 62
     7
370
     9
100
AcDbLine
 10
214.2267384905097
 20
1871.128364335182
 30
0.0
 11
2001.125250331461
 21
1871.128364335182
 31
0.0
  0
TEXT
  5
294
330
1F
100
AcDbEntity
  8
F-Fﾚｲﾔ
  6
Continuous
 62
     3
370
     9
100
AcDbText
 10
240.8439636366609
 20
1446.889560315755
 30
0.0
 40
38.1
  1
品番
 41
1.05
  7
ＭＳ ゴシック
100
AcDbText
  0
LINE
  5
295
330
1F
100
AcDbEntity
  8
F-Fﾚｲﾔ
  6
Continuous
 62
     7
370
     9
100
AcDbLine
 10
214.2267384905097
 20
1509.839560315755
 30
0.0
 11
2001.125250331461
 21
1509.839560315755
 31
0.0
  0
TEXT
  5
296
330
1F
100
AcDbEntity
  8
F-Fﾚｲﾔ
  6
Continuous
 62
     3
370
     9
100
AcDbText
 10
590.1375057618475
 20
1628.178364335182
 30
0.0
 40
38.1
  1
※アンカーを回転・変形させることで境界部・壁際用
 41
1.095833333333333
  7
ＭＳ ゴシック
100
AcDbText
  0
TEXT
  5
297
330
1F
100
AcDbEntity
  8
F-Fﾚｲﾔ
  6
Continuous
 62
     3
370
   211
100
AcDbText
 10
590.1375057618475
 20
1538.178364335182
 30
0.0
 40
38.1
  1
として使用できます。
 41
1.09
  7
ＭＳ ゴシック
100
AcDbText
  0
LINE
  5
298
330
1F
100
AcDbEntity
  8
F-Fﾚｲﾔ
  6
Continuous
 62
     7
370
     9
100
AcDbLine
 10
548.8026038678231
 20
1961.128364335182
 30
0.0
 11
2001.125250331461
 21
1961.128364335182
 31
0.0
  0
TEXT
  5
299
330
1F
100
AcDbEntity
  8
F-Fﾚｲﾔ
  6
Continuous
 62
     3
370
   211
100
AcDbText
 10
590.1375057618475
 20
1988.178364335182
 30
0.0
 40
38.1
  1
蓋質量　7.4kg/枚
 41
1.0875
  7
ＭＳ ゴシック
100
AcDbText
  0
TEXT
  5
29A
330
1F
100
AcDbEntity
  8
F-Fﾚｲﾔ
  6
Continuous
 62
     3
370
   211
100
AcDbText
 10
590.1375057618475
 20
1898.178364335182
 30
0.0
 40
38.1
  1
舗装材充填時の蓋質量　約31kg/枚
 41
1.093548387096774
  7
ＭＳ ゴシック
100
AcDbText
  0
LINE
  5
29B
330
1F
100
AcDbEntity
  8
F-Fﾚｲﾔ
  6
Continuous
 62
     7
370
     9
100
AcDbLine
 10
214.2267384905097
 20
2721.128364335182
 30
0.0
 11
214.2267384905097
 21
1314.839560315755
 31
0.0
  0
LINE
  5
29C
330
1F
100
AcDbEntity
  8
F-Fﾚｲﾔ
  6
Continuous
 62
     7
370
     9
100
AcDbLine
 10
548.8026038678231
 20
2721.128364335182
 30
0.0
 11
548.8026038678231
 21
1314.839560315755
 31
0.0
  0
LINE
  5
29D
330
1F
100
AcDbEntity
  8
F-Fﾚｲﾔ
  6
Continuous
 62
     7
370
     9
100
AcDbLine
 10
214.2267384905097
 20
1314.839560315755
 30
0.0
 11
2001.125250331461
 21
1314.839560315755
 31
0.0
  0
LINE
  5
29E
330
1F
100
AcDbEntity
  8
F-Fﾚｲﾔ
  6
Continuous
 62
     7
370
     9
100
AcDbLine
 10
2001.125250331461
 20
2721.128364335182
 30
0.0
 11
2001.125250331461
 21
1314.839560315755
 31
0.0
  0
TEXT
  5
29F
330
1F
100
AcDbEntity
  8
F-Fﾚｲﾔ
  6
Continuous
 62
     3
370
     9
100
AcDbText
 10
590.1375057618475
 20
1440.617743764171
 30
0.0
 40
38.1
  1
カネソウ　カラー舗装用みぞ蓋
 41
1.092857142857143
  7
ＭＳ ゴシック
100
AcDbText
  0
TEXT
  5
2A0
330
1F
100
AcDbEntity
  8
F-5ﾚｲﾔ
  6
Continuous
 62
     2
370
   211
100
AcDbText
 10
658.4813924141633
 20
-2746.829387755104
 30
0.0
 40
30.48
  1
ステンレス製受枠　クッション材なし
 41
0.898529411764706
  7
ＭＳ ゴシック
100
AcDbText
  0
TEXT
  5
2A1
330
1F
100
AcDbEntity
  8
F-Fﾚｲﾔ
  6
Continuous
 62
     3
370
     9
100
AcDbText
 10
590.1375057618475
 20
2464.988775510204
 30
0.0
 40
38.1
  1
ステンレス製受枠　クッション材なし
 41
1.094117647058824
  7
ＭＳ ゴシック
100
AcDbText
  0
LINE
  5
2A2
330
1F
100
AcDbEntity
  8
3-4
  6
Continuous
 62
     7
370
     9
100
AcDbLine
 10
-2796.622910702646
 20
1720.403462332861
 30
0.0
 11
-1456.623109440026
 21
1720.403462332861
 31
0.0
  0
TEXT
  5
2A3
330
1F
100
AcDbEntity
  8
3-4
  6
Continuous
 62
     2
370
   211
100
AcDbText
 10
-2159.123010071336
 20
1736.043462332861
 30
0.0
 40
30.47999999999957
  1
402
 41
1.083333333333344
  7
ＭＳ ゴシック
100
AcDbText
  0
LINE
  5
2A4
330
1F
100
AcDbEntity
  8
3-4
  6
Continuous
 62
     7
370
     9
100
AcDbLine
 10
-2796.622910702646
 20
-335.3991190066489
 30
0.0
 11
-2463.28963235594
 21
-335.3991190066489
 31
0.0
  0
TEXT
  5
2A5
330
1F
100
AcDbEntity
  8
3-4
  6
Continuous
 62
     2
370
   211
100
AcDbText
 10
-2662.456271529293
 20
-323.7591190066487
 30
0.0
 40
30.47999999999957
  1
100
 41
1.083333333333349
  7
ＭＳ ゴシック
100
AcDbText
  0
LINE
  5
2A6
330
1F
100
AcDbEntity
  8
3-4
  6
Continuous
 62
     7
370
     9
100
AcDbLine
 10
-2463.28963235594
 20
-335.3991190066489
 30
0.0
 11
-1789.955727161682
 21
-335.3991190066489
 31
0.0
  0
TEXT
  5
2A7
330
1F
100
AcDbEntity
  8
3-4
  6
Continuous
 62
     2
370
   211
100
AcDbText
 10
-2159.122679758811
 20
-323.7591190066487
 30
0.0
 40
30.47999999999957
  1
202
 41
1.083333333333344
  7
ＭＳ ゴシック
100
AcDbText
  0
LINE
  5
2A8
330
1F
100
AcDbEntity
  8
3-4
  6
Continuous
 62
     7
370
     9
100
AcDbLine
 10
-1789.955727161682
 20
-335.3991190066489
 30
0.0
 11
-1456.62277873474
 21
-335.3991190066489
 31
0.0
  0
TEXT
  5
2A9
330
1F
100
AcDbEntity
  8
3-4
  6
Continuous
 62
     2
370
   211
100
AcDbText
 10
-1655.78925294821
 20
-323.7591190066487
 30
0.0
 40
30.47999999999957
  1
100
 41
1.08333333333333
  7
ＭＳ ゴシック
100
AcDbText
  0
LINE
  5
2AA
330
1F
100
AcDbEntity
  8
3-4
  6
Continuous
 62
     7
370
     9
100
AcDbLine
 10
-968.5113378684804
 20
1268.856420628518
 30
0.0
 11
-968.5113378684804
 21
-71.14373058470505
 31
0.0
  0
TEXT
  5
2AB
330
1F
100
AcDbEntity
  8
3-4
  6
Continuous
 62
     2
370
   211
100
AcDbText
 10
-984.1513378684803
 20
566.3563450219061
 30
0.0
 40
30.47999999999957
  1
402
 50
90.0
 41
1.083333333333358
  7
ＭＳ ゴシック
100
AcDbText
  0
LINE
  5
2AC
330
1F
100
AcDbEntity
  8
3-4
  6
Continuous
 62
     7
370
     9
100
AcDbLine
 10
-1199.131645250693
 20
1158.856232102939
 30
0.0
 11
-1199.131645250693
 21
38.85610799026836
 31
0.0
  0
TEXT
  5
2AD
330
1F
100
AcDbEntity
  8
3-4
  6
Continuous
 62
     2
370
   211
100
AcDbText
 10
-1214.771645250692
 20
566.3561700466033
 30
0.0
 40
30.47999999999957
  1
336
 50
90.0
 41
1.083333333333358
  7
ＭＳ ゴシック
100
AcDbText
  0
LINE
  5
2AE
330
1F
100
AcDbEntity
  8
3-4
  6
Continuous
 62
     7
370
     9
100
AcDbLine
 10
-2766.62318504664
 20
1492.935250356711
 30
0.0
 11
-1486.623185046639
 21
1492.935250356711
 31
0.0
  0
TEXT
  5
2AF
330
1F
100
AcDbEntity
  8
3-4
  6
Continuous
 62
     2
370
   211
100
AcDbText
 10
-2159.12318504664
 20
1508.575250356711
 30
0.0
 40
30.47999999999957
  1
384
 41
1.083333333333358
  7
ＭＳ ゴシック
100
AcDbText
  0
LINE
  5
2B0
330
1F
100
AcDbEntity
  8
3-4
  6
Continuous
 62
     7
370
     9
100
AcDbLine
 10
-2776.62318504664
 20
1606.669356344785
 30
0.0
 11
-1476.623185046639
 21
1606.669356344785
 31
0.0
  0
TEXT
  5
2B1
330
1F
100
AcDbEntity
  8
3-4
  6
Continuous
 62
     2
370
   211
100
AcDbText
 10
-2159.12318504664
 20
1622.309356344785
 30
0.0
 40
30.47999999999957
  1
390
 41
1.083333333333358
  7
ＭＳ ゴシック
100
AcDbText
  0
LINE
  5
2B2
330
1F
100
AcDbEntity
  8
3-4
  6
Continuous
 62
     7
370
     9
100
AcDbLine
 10
94.45191160838931
 20
-1152.180188198579
 30
0.0
 11
94.45191160838931
 21
-1352.180188198579
 31
0.0
  0
TEXT
  5
2B3
330
1F
100
AcDbEntity
  8
3-4
  6
Continuous
 62
     2
370
   211
100
AcDbText
 10
82.8119116083886
 20
-1273.430188198579
 30
0.0
 40
30.47999999999957
  1
60
 50
90.0
 41
1.062500000000008
  7
ＭＳ ゴシック
100
AcDbText
  0
LINE
  5
2B4
330
1F
100
AcDbEntity
  8
3-4
  6
Continuous
 62
     7
370
     9
100
AcDbLine
 10
94.45191160838931
 20
-1352.180188198579
 30
0.0
 11
94.45191160838931
 21
-1452.180188198579
 31
0.0
  0
TEXT
  5
2B5
330
1F
100
AcDbEntity
  8
3-4
  6
Continuous
 62
     2
370
   211
100
AcDbText
 10
82.8119116083886
 20
-1423.430188198579
 30
0.0
 40
30.47999999999957
  1
30
 50
90.0
 41
1.062500000000008
  7
ＭＳ ゴシック
100
AcDbText
  0
LINE
  5
2B6
330
1F
100
AcDbEntity
  8
3-4
  6
Continuous
 62
     7
370
     9
100
AcDbLine
 10
639.3386299826
 20
-1819.67296835274
 30
0.0
 11
736.0051974155886
 21
-1819.67296835274
 31
0.0
  0
TEXT
  5
2B7
330
1F
100
AcDbEntity
  8
3-4
  6
Continuous
 62
     2
370
   211
100
AcDbText
 10
666.4219136990931
 20
-1808.03296835274
 30
0.0
 40
30.47999999999989
  1
29
 41
1.062500000000018
  7
ＭＳ ゴシック
100
AcDbText
  0
LINE
  5
2B8
330
1F
100
AcDbEntity
  8
3-4
  6
Continuous
 62
     7
370
     9
100
AcDbLine
 10
736.0051974155886
 20
-1819.67296835274
 30
0.0
 11
906.0051976733376
 21
-1819.67296835274
 31
0.0
  0
TEXT
  5
2B9
330
1F
100
AcDbEntity
  8
3-4
  6
Continuous
 62
     2
370
   211
100
AcDbText
 10
799.7551975444634
 20
-1808.03296835274
 30
0.0
 40
30.47999999999989
  1
51
 41
1.062500000000018
  7
ＭＳ ゴシック
100
AcDbText
  0
LINE
  5
2BA
330
1F
100
AcDbEntity
  8
3-4
  6
Continuous
 62
     7
370
     9
100
AcDbLine
 10
1906.004763278981
 20
-1819.67296835274
 30
0.0
 11
2076.004664303055
 21
-1819.67296835274
 31
0.0
  0
TEXT
  5
2BB
330
1F
100
AcDbEntity
  8
3-4
  6
Continuous
 62
     2
370
   211
100
AcDbText
 10
1969.754713791019
 20
-1808.03296835274
 30
0.0
 40
30.47999999999989
  1
51
 41
1.062499999999975
  7
ＭＳ ゴシック
100
AcDbText
  0
LINE
  5
2BC
330
1F
100
AcDbEntity
  8
3-4
  6
Continuous
 62
     7
370
     9
100
AcDbLine
 10
2076.004664303055
 20
-1819.67296835274
 30
0.0
 11
2172.671459715753
 21
-1819.67296835274
 31
0.0
  0
TEXT
  5
2BD
330
1F
100
AcDbEntity
  8
3-4
  6
Continuous
 62
     2
370
   211
100
AcDbText
 10
2103.088062009404
 20
-1808.03296835274
 30
0.0
 40
30.47999999999989
  1
29
 41
1.062499999999975
  7
ＭＳ ゴシック
100
AcDbText
  0
LINE
  5
2BE
330
1F
100
AcDbEntity
  8
3-4
  6
Continuous
 62
     7
370
     9
100
AcDbLine
 10
906.0051976733376
 20
-1819.67296835274
 30
0.0
 11
1906.004763278981
 21
-1819.67296835274
 31
0.0
  0
TEXT
  5
2BF
330
1F
100
AcDbEntity
  8
3-4
  6
Continuous
 62
     2
370
   211
100
AcDbText
 10
1373.504980476159
 20
-1808.03296835274
 30
0.0
 40
30.47999999999989
  1
300
 41
1.083333333333375
  7
ＭＳ ゴシック
100
AcDbText
  0
LWPOLYLINE
  5
2C0
330
1F
100
AcDbEntity
  8
3-4
  6
Continuous
 62
     7
370
     9
100
AcDbPolyline
 90
        4
 70
     1
 43
2.0
 10
-1082.821491559587
 20
1248.855998802535
 42
0.4142135623731
 10
-1083.821491559587
 20
1249.855998802535
 42
0.4142135623731
 10
-1084.821491559587
 20
1248.855998802535
 42
0.4142135623731
 10
-1083.821491559587
 20
1247.855998802536
 42
0.4142135623731
  0
LINE
  5
2C1
330
1F
100
AcDbEntity
  8
3-4
  6
Continuous
 62
     7
370
     9
100
AcDbLine
 10
-1080.821491559586
 20
1248.855998802535
 30
0.0
 11
-1436.623109440026
 21
1248.855998802535
 31
0.0
  0
LWPOLYLINE
  5
2C2
330
1F
100
AcDbEntity
  8
3-4
  6
Continuous
 62
     7
370
     9
100
AcDbPolyline
 90
        4
 70
     1
 43
2.0
 10
-1082.821491559587
 20
-51.14365870932943
 42
0.4142135623731
 10
-1083.821491559587
 20
-50.14365870932943
 42
0.4142135623731
 10
-1084.821491559587
 20
-51.14365870932943
 42
0.4142135623731
 10
-1083.821491559587
 20
-52.14365870932943
 42
0.4142135623731
  0
LINE
  5
2C3
330
1F
100
AcDbEntity
  8
3-4
  6
Continuous
 62
     7
370
     9
100
AcDbLine
 10
-1080.821491559586
 20
-51.14365870932943
 30
0.0
 11
-1436.623109440026
 21
-51.14365870932943
 31
0.0
  0
TEXT
  5
2C4
330
1F
100
AcDbEntity
  8
F-Fﾚｲﾔ
  6
Continuous
 62
     3
370
     9
100
AcDbText
 10
590.1375057618475
 20
1808.178364335182
 30
0.0
 40
38.1
  1
ステンレス製　クッション材なし
 41
1.093333333333333
  7
ＭＳ ゴシック
100
AcDbText
  0
TEXT
  5
2C5
330
1F
100
AcDbEntity
  8
3-5
  6
Continuous
 62
     2
370
     9
100
AcDbText
 10
1138.531735757628
 20
-2260.674292083649
 30
0.0
 40
30.47999999999989
  1
Ｂ－Ｂ断面図　Ｓ＝１：３
 41
1.114583333333339
  7
ＭＳ ゴシック
100
AcDbText
  0
LINE
  5
2C6
330
1F
100
AcDbEntity
  8
3-5
  6
Continuous
 62
     7
370
     9
100
AcDbLine
 10
1134.968968679733
 20
-2279.502960114861
 30
0.0
 11
1677.01423699112
 21
-2279.502960114861
 31
0.0
  0
TEXT
  5
2C7
330
1F
100
AcDbEntity
  8
3-5
  6
Continuous
 62
     2
370
     9
100
AcDbText
 10
1273.491602835426
 20
-2339.605200560376
 30
0.0
 40
30.47999999999989
  1
（納まり図）
 41
1.104166666666675
  7
ＭＳ ゴシック
100
AcDbText
  0
LINE
  5
2C8
330
1F
100
AcDbEntity
  8
3-1
  6
Continuous
 62
     2
370
     9
100
AcDbLine
 10
-1476.623109440026
 20
-1468.846056380866
 30
0.0
 11
-2776.622910702646
 21
-1468.846056380866
 31
0.0
  0
ARC
  5
2C9
330
1F
100
AcDbEntity
  8
3-2
  6
Continuous
 62
     3
370
     9
100
AcDbCircle
 10
-2756.62318504664
 20
-1387.179580925796
 30
0.0
 40
20.0
100
AcDbArc
 50
180.0
 51
270.0
  0
ARC
  5
2CA
330
1F
100
AcDbEntity
  8
3-2
  6
Continuous
 62
     3
370
     9
100
AcDbCircle
 10
-2756.623141056641
 20
-1387.179580925796
 30
0.0
 40
10.0
100
AcDbArc
 50
180.0
 51
270.0
  0
LINE
  5
2CB
330
1F
100
AcDbEntity
  8
3-2
  6
Continuous
 62
     3
370
     9
100
AcDbLine
 10
-2766.623141056641
 20
-1407.179580925796
 30
0.0
 11
-2766.623141056641
 21
-1404.500114399048
 31
0.0
  0
LINE
  5
2CC
330
1F
100
AcDbEntity
  8
3-2
  6
JWW_DASHED1
 62
     3
370
     9
100
AcDbLine
 10
-2766.623141056641
 20
-1404.500114399048
 30
0.0
 11
-2766.623141056641
 21
-1387.179580925796
 31
0.0
  0
LINE
  5
2CD
330
1F
100
AcDbEntity
  8
3-2
  6
Continuous
 62
     3
370
     9
100
AcDbLine
 10
-2776.62318504664
 20
-1387.179580925796
 30
0.0
 11
-2776.62318504664
 21
-1152.180764579331
 31
0.0
  0
LINE
  5
2CE
330
1F
100
AcDbEntity
  8
3-2
  6
Continuous
 62
     3
370
     9
100
AcDbLine
 10
-2766.623141056641
 20
-1387.179580925796
 30
0.0
 11
-2766.623141056641
 21
-1152.180764579331
 31
0.0
  0
LINE
  5
2CF
330
1F
100
AcDbEntity
  8
3-2
  6
Continuous
 62
     3
370
     9
100
AcDbLine
 10
-2493.290193755059
 20
-1393.846247592462
 30
0.0
 11
-2393.290193755059
 21
-1393.846247592462
 31
0.0
  0
LINE
  5
2D0
330
1F
100
AcDbEntity
  8
3-2
  6
Continuous
 62
     3
370
     9
100
AcDbLine
 10
-2393.290193755059
 20
-1397.179580925796
 30
0.0
 11
-2393.290193755059
 21
-1368.846247592462
 31
0.0
  0
LINE
  5
2D1
330
1F
100
AcDbEntity
  8
3-2
  6
Continuous
 62
     3
370
     9
100
AcDbLine
 10
-2393.290193755059
 20
-1368.846247592462
 30
0.0
 11
-2493.290193755059
 21
-1368.846247592462
 31
0.0
  0
LINE
  5
2D2
330
1F
100
AcDbEntity
  8
3-2
  6
Continuous
 62
     3
370
     9
100
AcDbLine
 10
-2493.290193755059
 20
-1397.179580925796
 30
0.0
 11
-2493.290193755059
 21
-1368.846247592462
 31
0.0
  0
LINE
  5
2D3
330
1F
100
AcDbEntity
  8
3-2
  6
Continuous
 62
     3
370
     9
100
AcDbLine
 10
-1859.95631184098
 20
-1393.846247592462
 30
0.0
 11
-1759.95631184098
 21
-1393.846247592462
 31
0.0
  0
LINE
  5
2D4
330
1F
100
AcDbEntity
  8
3-2
  6
Continuous
 62
     3
370
     9
100
AcDbLine
 10
-1759.95631184098
 20
-1397.179580925796
 30
0.0
 11
-1759.95631184098
 21
-1368.846247592462
 31
0.0
  0
LINE
  5
2D5
330
1F
100
AcDbEntity
  8
3-2
  6
Continuous
 62
     3
370
     9
100
AcDbLine
 10
-1759.95631184098
 20
-1368.846247592462
 30
0.0
 11
-1859.95631184098
 21
-1368.846247592462
 31
0.0
  0
LINE
  5
2D6
330
1F
100
AcDbEntity
  8
3-2
  6
Continuous
 62
     3
370
     9
100
AcDbLine
 10
-1859.95631184098
 20
-1397.179580925796
 30
0.0
 11
-1859.95631184098
 21
-1368.846247592462
 31
0.0
  0
LINE
  5
2D7
330
1F
100
AcDbEntity
  8
3-2
  6
Continuous
 62
     3
370
     9
100
AcDbLine
 10
-1476.623064076059
 20
-1387.179580925796
 30
0.0
 11
-1476.623064076059
 21
-1152.180764579331
 31
0.0
  0
LINE
  5
2D8
330
1F
100
AcDbEntity
  8
3-2
  6
Continuous
 62
     3
370
     9
100
AcDbLine
 10
-1476.623064076059
 20
-1152.180764579331
 30
0.0
 11
-2776.62318504664
 21
-1152.180764579331
 31
0.0
  0
ARC
  5
2D9
330
1F
100
AcDbEntity
  8
3-2
  6
Continuous
 62
     3
370
     9
100
AcDbCircle
 10
-1496.623064076059
 20
-1387.179580925796
 30
0.0
 40
20.0
100
AcDbArc
 50
270.0
 51
0.0
  0
ARC
  5
2DA
330
1F
100
AcDbEntity
  8
3-2
  6
Continuous
 62
     3
370
     9
100
AcDbCircle
 10
-1496.623064076059
 20
-1387.179580925796
 30
0.0
 40
10.0
100
AcDbArc
 50
270.0
 51
0.0
  0
LINE
  5
2DB
330
1F
100
AcDbEntity
  8
3-2
  6
Continuous
 62
     3
370
     9
100
AcDbLine
 10
-1486.623064076059
 20
-1407.179580925796
 30
0.0
 11
-1486.623064076059
 21
-1404.500089001484
 31
0.0
  0
LINE
  5
2DC
330
1F
100
AcDbEntity
  8
3-2
  6
JWW_DASHED1
 62
     3
370
     9
100
AcDbLine
 10
-1486.623064076059
 20
-1404.500089001484
 30
0.0
 11
-1486.623064076059
 21
-1387.179580925796
 31
0.0
  0
LINE
  5
2DD
330
1F
100
AcDbEntity
  8
3-2
  6
Continuous
 62
     3
370
     9
100
AcDbLine
 10
-2756.623141056641
 20
-1397.179580925796
 30
0.0
 11
-1496.623064076059
 21
-1397.179580925796
 31
0.0
  0
LINE
  5
2DE
330
1F
100
AcDbEntity
  8
3-2
  6
Continuous
 62
     3
370
     9
100
AcDbLine
 10
-2766.623141056641
 20
-1407.179580925796
 30
0.0
 11
-1486.623064076059
 21
-1407.179580925796
 31
0.0
  0
LINE
  5
2DF
330
1F
100
AcDbEntity
  8
3-2
  6
Continuous
 62
     3
370
     9
100
AcDbLine
 10
-1486.623064076059
 20
-1387.179580925796
 30
0.0
 11
-1486.623064076059
 21
-1152.180764579331
 31
0.0
  0
LINE
  5
2E0
330
1F
100
AcDbEntity
  8
3-3
  6
JWW_DASHED1
 62
     4
370
     9
100
AcDbLine
 10
-2713.289851713307
 20
-1178.847431245996
 30
0.0
 11
-2706.623185046641
 21
-1178.847431245996
 31
0.0
  0
LINE
  5
2E1
330
1F
100
AcDbEntity
  8
3-3
  6
JWW_DASHED1
 62
     4
370
     9
100
AcDbLine
 10
-2533.289851713307
 20
-1178.847431245996
 30
0.0
 11
-2526.623185046641
 21
-1178.847431245996
 31
0.0
  0
LINE
  5
2E2
330
1F
100
AcDbEntity
  8
3-3
  6
Continuous
 62
     4
370
     9
100
AcDbLine
 10
-2569.123185046641
 20
-1443.846221277433
 30
0.0
 11
-2670.789851713307
 21
-1443.846221277433
 31
0.0
  0
ARC
  5
2E3
330
1F
100
AcDbEntity
  8
3-3
  6
Continuous
 62
     4
370
     9
100
AcDbCircle
 10
-2699.956518379975
 20
-1447.179554610767
 30
0.0
 40
13.33333333333333
100
AcDbArc
 50
180.0
 51
270.0
  0
LINE
  5
2E4
330
1F
100
AcDbEntity
  8
3-3
  6
Continuous
 62
     4
370
     9
100
AcDbLine
 10
-2713.289851713307
 20
-1407.179580925796
 30
0.0
 11
-2706.623185046641
 21
-1407.179580925796
 31
0.0
  0
LINE
  5
2E5
330
1F
100
AcDbEntity
  8
3-3
  6
Continuous
 62
     4
370
     9
100
AcDbLine
 10
-2533.289851713307
 20
-1407.179580925796
 30
0.0
 11
-2526.623185046641
 21
-1407.179580925796
 31
0.0
  0
ARC
  5
2E6
330
1F
100
AcDbEntity
  8
3-3
  6
Continuous
 62
     4
370
     9
100
AcDbCircle
 10
-2701.623185046641
 20
-1448.846221277433
 30
0.0
 40
5.0
100
AcDbArc
 50
180.0
 51
270.0
  0
ARC
  5
2E7
330
1F
100
AcDbEntity
  8
3-3
  6
Continuous
 62
     4
370
     9
100
AcDbCircle
 10
-2538.289851713307
 20
-1448.846221277433
 30
0.0
 40
5.0
100
AcDbArc
 50
270.0
 51
0.0
  0
ARC
  5
2E8
330
1F
100
AcDbEntity
  8
3-3
  6
Continuous
 62
     4
370
     9
100
AcDbCircle
 10
-2683.699796200666
 20
-1448.846221277433
 30
0.0
 40
5.0
100
AcDbArc
 50
270.0
 51
345.5224878140696
  0
ARC
  5
2E9
330
1F
100
AcDbEntity
  8
3-3
  6
Continuous
 62
     4
370
     9
100
AcDbCircle
 10
-2670.789851713307
 20
-1452.179554610767
 30
0.0
 40
8.333333333333332
100
AcDbArc
 50
90.0
 51
165.5224878140696
  0
ARC
  5
2EA
330
1F
100
AcDbEntity
  8
3-3
  6
Continuous
 62
     4
370
     9
100
AcDbCircle
 10
-2556.213240559283
 20
-1448.846221277433
 30
0.0
 40
5.0
100
AcDbArc
 50
194.4775121859303
 51
270.0
  0
ARC
  5
2EB
330
1F
100
AcDbEntity
  8
3-3
  6
Continuous
 62
     4
370
     9
100
AcDbCircle
 10
-2569.123185046641
 20
-1452.179554610767
 30
0.0
 40
8.333333333333332
100
AcDbArc
 50
14.47751218593034
 51
90.0
  0
LINE
  5
2EC
330
1F
100
AcDbEntity
  8
3-3
  6
Continuous
 62
     4
370
     9
100
AcDbLine
 10
-2586.623185046641
 20
-1468.846056380866
 30
0.0
 11
-2653.289851713308
 21
-1468.846056380866
 31
0.0
  0
LINE
  5
2ED
330
1F
100
AcDbEntity
  8
3-3
  6
Continuous
 62
     4
370
     9
100
AcDbLine
 10
-2653.289851713308
 20
-1468.846056380866
 30
0.0
 11
-2653.289851713308
 21
-1460.512887944099
 31
0.0
  0
LINE
  5
2EE
330
1F
100
AcDbEntity
  8
3-3
  6
Continuous
 62
     4
370
     9
100
AcDbLine
 10
-2586.623185046641
 20
-1468.846056380866
 30
0.0
 11
-2586.623185046641
 21
-1460.512887944099
 31
0.0
  0
LINE
  5
2EF
330
1F
100
AcDbEntity
  8
3-3
  6
Continuous
 62
     4
370
     9
100
AcDbLine
 10
-2648.145369731641
 20
-1460.512887944099
 30
0.0
 11
-2653.289851713308
 21
-1465.657369925767
 31
0.0
  0
LINE
  5
2F0
330
1F
100
AcDbEntity
  8
3-3
  6
Continuous
 62
     4
370
     9
100
AcDbLine
 10
-2591.576827236708
 20
-1460.512887944099
 30
0.0
 11
-2599.909995673474
 21
-1468.846056380866
 31
0.0
  0
LINE
  5
2F1
330
1F
100
AcDbEntity
  8
3-3
  6
Continuous
 62
     4
370
     9
100
AcDbLine
 10
-2634.00323410791
 20
-1460.512887944099
 30
0.0
 11
-2642.336402544674
 21
-1468.846056380863
 31
0.0
  0
LINE
  5
2F2
330
1F
100
AcDbEntity
  8
3-3
  6
Continuous
 62
     4
370
     9
100
AcDbLine
 10
-2619.861098484174
 20
-1460.512887944099
 30
0.0
 11
-2628.194266920941
 21
-1468.846056380866
 31
0.0
  0
LINE
  5
2F3
330
1F
100
AcDbEntity
  8
3-3
  6
Continuous
 62
     4
370
     9
100
AcDbLine
 10
-2605.718962860442
 20
-1460.512887944099
 30
0.0
 11
-2614.052131297207
 21
-1468.846056380863
 31
0.0
  0
LINE
  5
2F4
330
1F
100
AcDbEntity
  8
3-3
  6
Continuous
 62
     4
370
     9
100
AcDbLine
 10
-2713.289851713307
 20
-1447.179554610767
 30
0.0
 11
-2713.289851713307
 21
-1407.179580925796
 31
0.0
  0
LINE
  5
2F5
330
1F
100
AcDbEntity
  8
3-3
  6
Continuous
 62
     4
370
     9
100
AcDbLine
 10
-2526.623185046641
 20
-1447.179554610767
 30
0.0
 11
-2526.623185046641
 21
-1407.179580925796
 31
0.0
  0
LINE
  5
2F6
330
1F
100
AcDbEntity
  8
3-3
  6
Continuous
 62
     4
370
     9
100
AcDbLine
 10
-2706.623185046641
 20
-1448.846221277433
 30
0.0
 11
-2706.623185046641
 21
-1407.179580925796
 31
0.0
  0
LINE
  5
2F7
330
1F
100
AcDbEntity
  8
3-3
  6
Continuous
 62
     4
370
     9
100
AcDbLine
 10
-2533.289851713307
 20
-1448.846221277433
 30
0.0
 11
-2533.289851713307
 21
-1407.179580925796
 31
0.0
  0
LINE
  5
2F8
330
1F
100
AcDbEntity
  8
3-3
  6
JWW_DASHED1
 62
     4
370
     9
100
AcDbLine
 10
-2713.289851713307
 20
-1407.179580925796
 30
0.0
 11
-2713.289851713307
 21
-1178.847431245996
 31
0.0
  0
LINE
  5
2F9
330
1F
100
AcDbEntity
  8
3-3
  6
JWW_DASHED1
 62
     4
370
     9
100
AcDbLine
 10
-2526.623185046641
 20
-1407.179580925796
 30
0.0
 11
-2526.623185046641
 21
-1178.847431245996
 31
0.0
  0
LINE
  5
2FA
330
1F
100
AcDbEntity
  8
3-3
  6
JWW_DASHED1
 62
     4
370
     9
100
AcDbLine
 10
-2706.623185046641
 20
-1407.179580925796
 30
0.0
 11
-2706.623185046641
 21
-1178.847431245996
 31
0.0
  0
LINE
  5
2FB
330
1F
100
AcDbEntity
  8
3-3
  6
JWW_DASHED1
 62
     4
370
     9
100
AcDbLine
 10
-2533.289851713307
 20
-1407.179580925796
 30
0.0
 11
-2533.289851713307
 21
-1178.847431245996
 31
0.0
  0
LINE
  5
2FC
330
1F
100
AcDbEntity
  8
3-3
  6
Continuous
 62
     4
370
     9
100
AcDbLine
 10
-2701.623185046641
 20
-1453.846221277433
 30
0.0
 11
-2538.289851713307
 21
-1453.846221277433
 31
0.0
  0
LINE
  5
2FD
330
1F
100
AcDbEntity
  8
3-3
  6
Continuous
 62
     4
370
     9
100
AcDbLine
 10
-2699.956518379975
 20
-1460.512887944099
 30
0.0
 11
-2539.956518379975
 21
-1460.512887944099
 31
0.0
  0
ARC
  5
2FE
330
1F
100
AcDbEntity
  8
3-3
  6
Continuous
 62
     4
370
     9
100
AcDbCircle
 10
-2539.956518379975
 20
-1447.179554610767
 30
0.0
 40
13.33333333333333
100
AcDbArc
 50
270.0
 51
0.0
  0
LINE
  5
2FF
330
1F
100
AcDbEntity
  8
3-3
  6
JWW_DASHED1
 62
     4
370
     9
100
AcDbLine
 10
-2219.956518379973
 20
-1178.847431245996
 30
0.0
 11
-2213.289851713307
 21
-1178.847431245996
 31
0.0
  0
LINE
  5
300
330
1F
100
AcDbEntity
  8
3-3
  6
JWW_DASHED1
 62
     4
370
     9
100
AcDbLine
 10
-2039.956518379973
 20
-1178.847431245996
 30
0.0
 11
-2033.289851713307
 21
-1178.847431245996
 31
0.0
  0
LINE
  5
301
330
1F
100
AcDbEntity
  8
3-3
  6
Continuous
 62
     4
370
     9
100
AcDbLine
 10
-2075.789851713307
 20
-1443.846221277433
 30
0.0
 11
-2177.456518379973
 21
-1443.846221277433
 31
0.0
  0
ARC
  5
302
330
1F
100
AcDbEntity
  8
3-3
  6
Continuous
 62
     4
370
     9
100
AcDbCircle
 10
-2206.623185046641
 20
-1447.179554610767
 30
0.0
 40
13.33333333333333
100
AcDbArc
 50
180.0
 51
270.0
  0
LINE
  5
303
330
1F
100
AcDbEntity
  8
3-3
  6
Continuous
 62
     4
370
     9
100
AcDbLine
 10
-2219.956518379973
 20
-1407.179580925796
 30
0.0
 11
-2213.289851713307
 21
-1407.179580925796
 31
0.0
  0
LINE
  5
304
330
1F
100
AcDbEntity
  8
3-3
  6
Continuous
 62
     4
370
     9
100
AcDbLine
 10
-2039.956518379973
 20
-1407.179580925796
 30
0.0
 11
-2033.289851713307
 21
-1407.179580925796
 31
0.0
  0
ARC
  5
305
330
1F
100
AcDbEntity
  8
3-3
  6
Continuous
 62
     4
370
     9
100
AcDbCircle
 10
-2208.289851713307
 20
-1448.846221277433
 30
0.0
 40
5.0
100
AcDbArc
 50
180.0
 51
270.0
  0
ARC
  5
306
330
1F
100
AcDbEntity
  8
3-3
  6
Continuous
 62
     4
370
     9
100
AcDbCircle
 10
-2044.956518379973
 20
-1448.846221277433
 30
0.0
 40
5.0
100
AcDbArc
 50
270.0
 51
0.0
  0
ARC
  5
307
330
1F
100
AcDbEntity
  8
3-3
  6
Continuous
 62
     4
370
     9
100
AcDbCircle
 10
-2190.366462867332
 20
-1448.846221277433
 30
0.0
 40
5.0
100
AcDbArc
 50
270.0
 51
345.5224878140696
  0
ARC
  5
308
330
1F
100
AcDbEntity
  8
3-3
  6
Continuous
 62
     4
370
     9
100
AcDbCircle
 10
-2177.456518379973
 20
-1452.179554610767
 30
0.0
 40
8.333333333333332
100
AcDbArc
 50
90.0
 51
165.5224878140696
  0
ARC
  5
309
330
1F
100
AcDbEntity
  8
3-3
  6
Continuous
 62
     4
370
     9
100
AcDbCircle
 10
-2062.879907225949
 20
-1448.846221277433
 30
0.0
 40
5.0
100
AcDbArc
 50
194.4775121859303
 51
270.0
  0
ARC
  5
30A
330
1F
100
AcDbEntity
  8
3-3
  6
Continuous
 62
     4
370
     9
100
AcDbCircle
 10
-2075.789851713307
 20
-1452.179554610767
 30
0.0
 40
8.333333333333332
100
AcDbArc
 50
14.47751218593034
 51
90.0
  0
LINE
  5
30B
330
1F
100
AcDbEntity
  8
3-3
  6
Continuous
 62
     4
370
     9
100
AcDbLine
 10
-2093.289851713307
 20
-1468.846056380866
 30
0.0
 11
-2159.956518379975
 21
-1468.846056380866
 31
0.0
  0
LINE
  5
30C
330
1F
100
AcDbEntity
  8
3-3
  6
Continuous
 62
     4
370
     9
100
AcDbLine
 10
-2159.956518379975
 20
-1468.846056380866
 30
0.0
 11
-2159.956518379975
 21
-1460.512887944099
 31
0.0
  0
LINE
  5
30D
330
1F
100
AcDbEntity
  8
3-3
  6
Continuous
 62
     4
370
     9
100
AcDbLine
 10
-2093.289851713307
 20
-1468.846056380866
 30
0.0
 11
-2093.289851713307
 21
-1460.512887944099
 31
0.0
  0
LINE
  5
30E
330
1F
100
AcDbEntity
  8
3-3
  6
Continuous
 62
     4
370
     9
100
AcDbLine
 10
-2154.812036398307
 20
-1460.512887944099
 30
0.0
 11
-2159.956518379975
 21
-1465.657369925767
 31
0.0
  0
LINE
  5
30F
330
1F
100
AcDbEntity
  8
3-3
  6
Continuous
 62
     4
370
     9
100
AcDbLine
 10
-2098.243493903374
 20
-1460.512887944099
 30
0.0
 11
-2106.57666234014
 21
-1468.846056380866
 31
0.0
  0
LINE
  5
310
330
1F
100
AcDbEntity
  8
3-3
  6
Continuous
 62
     4
370
     9
100
AcDbLine
 10
-2140.669900774576
 20
-1460.512887944099
 30
0.0
 11
-2149.00306921134
 21
-1468.846056380863
 31
0.0
  0
LINE
  5
311
330
1F
100
AcDbEntity
  8
3-3
  6
Continuous
 62
     4
370
     9
100
AcDbLine
 10
-2126.52776515084
 20
-1460.512887944099
 30
0.0
 11
-2134.860933587607
 21
-1468.846056380866
 31
0.0
  0
LINE
  5
312
330
1F
100
AcDbEntity
  8
3-3
  6
Continuous
 62
     4
370
     9
100
AcDbLine
 10
-2112.385629527108
 20
-1460.512887944099
 30
0.0
 11
-2120.718797963873
 21
-1468.846056380863
 31
0.0
  0
LINE
  5
313
330
1F
100
AcDbEntity
  8
3-3
  6
Continuous
 62
     4
370
     9
100
AcDbLine
 10
-2219.956518379973
 20
-1447.179554610767
 30
0.0
 11
-2219.956518379973
 21
-1407.179580925796
 31
0.0
  0
LINE
  5
314
330
1F
100
AcDbEntity
  8
3-3
  6
Continuous
 62
     4
370
     9
100
AcDbLine
 10
-2033.289851713307
 20
-1447.179554610767
 30
0.0
 11
-2033.289851713307
 21
-1407.179580925796
 31
0.0
  0
LINE
  5
315
330
1F
100
AcDbEntity
  8
3-3
  6
Continuous
 62
     4
370
     9
100
AcDbLine
 10
-2213.289851713307
 20
-1448.846221277433
 30
0.0
 11
-2213.289851713307
 21
-1407.179580925796
 31
0.0
  0
LINE
  5
316
330
1F
100
AcDbEntity
  8
3-3
  6
Continuous
 62
     4
370
     9
100
AcDbLine
 10
-2039.956518379973
 20
-1448.846221277433
 30
0.0
 11
-2039.956518379973
 21
-1407.179580925796
 31
0.0
  0
LINE
  5
317
330
1F
100
AcDbEntity
  8
3-3
  6
JWW_DASHED1
 62
     4
370
     9
100
AcDbLine
 10
-2219.956518379973
 20
-1407.179580925796
 30
0.0
 11
-2219.956518379973
 21
-1178.847431245996
 31
0.0
  0
LINE
  5
318
330
1F
100
AcDbEntity
  8
3-3
  6
JWW_DASHED1
 62
     4
370
     9
100
AcDbLine
 10
-2033.289851713307
 20
-1407.179580925796
 30
0.0
 11
-2033.289851713307
 21
-1178.847431245996
 31
0.0
  0
LINE
  5
319
330
1F
100
AcDbEntity
  8
3-3
  6
JWW_DASHED1
 62
     4
370
     9
100
AcDbLine
 10
-2213.289851713307
 20
-1407.179580925796
 30
0.0
 11
-2213.289851713307
 21
-1178.847431245996
 31
0.0
  0
LINE
  5
31A
330
1F
100
AcDbEntity
  8
3-3
  6
JWW_DASHED1
 62
     4
370
     9
100
AcDbLine
 10
-2039.956518379973
 20
-1407.179580925796
 30
0.0
 11
-2039.956518379973
 21
-1178.847431245996
 31
0.0
  0
LINE
  5
31B
330
1F
100
AcDbEntity
  8
3-3
  6
Continuous
 62
     4
370
     9
100
AcDbLine
 10
-2208.289851713307
 20
-1453.846221277433
 30
0.0
 11
-2044.956518379973
 21
-1453.846221277433
 31
0.0
  0
LINE
  5
31C
330
1F
100
AcDbEntity
  8
3-3
  6
Continuous
 62
     4
370
     9
100
AcDbLine
 10
-2206.623185046641
 20
-1460.512887944099
 30
0.0
 11
-2046.623185046641
 21
-1460.512887944099
 31
0.0
  0
ARC
  5
31D
330
1F
100
AcDbEntity
  8
3-3
  6
Continuous
 62
     4
370
     9
100
AcDbCircle
 10
-2046.623185046641
 20
-1447.179554610767
 30
0.0
 40
13.33333333333333
100
AcDbArc
 50
270.0
 51
0.0
  0
LINE
  5
31E
330
1F
100
AcDbEntity
  8
3-3
  6
JWW_DASHED1
 62
     4
370
     9
100
AcDbLine
 10
-1726.623185046639
 20
-1178.847431245996
 30
0.0
 11
-1719.956518379972
 21
-1178.847431245996
 31
0.0
  0
LINE
  5
31F
330
1F
100
AcDbEntity
  8
3-3
  6
JWW_DASHED1
 62
     4
370
     9
100
AcDbLine
 10
-1546.623185046639
 20
-1178.847431245996
 30
0.0
 11
-1539.956518379972
 21
-1178.847431245996
 31
0.0
  0
LINE
  5
320
330
1F
100
AcDbEntity
  8
3-3
  6
Continuous
 62
     4
370
     9
100
AcDbLine
 10
-1582.456518379972
 20
-1443.846221277433
 30
0.0
 11
-1684.123185046639
 21
-1443.846221277433
 31
0.0
  0
ARC
  5
321
330
1F
100
AcDbEntity
  8
3-3
  6
Continuous
 62
     4
370
     9
100
AcDbCircle
 10
-1713.289851713306
 20
-1447.179554610767
 30
0.0
 40
13.33333333333333
100
AcDbArc
 50
180.0
 51
270.0
  0
LINE
  5
322
330
1F
100
AcDbEntity
  8
3-3
  6
Continuous
 62
     4
370
     9
100
AcDbLine
 10
-1726.623185046639
 20
-1407.179580925796
 30
0.0
 11
-1719.956518379972
 21
-1407.179580925796
 31
0.0
  0
LINE
  5
323
330
1F
100
AcDbEntity
  8
3-3
  6
Continuous
 62
     4
370
     9
100
AcDbLine
 10
-1546.623185046639
 20
-1407.179580925796
 30
0.0
 11
-1539.956518379972
 21
-1407.179580925796
 31
0.0
  0
ARC
  5
324
330
1F
100
AcDbEntity
  8
3-3
  6
Continuous
 62
     4
370
     9
100
AcDbCircle
 10
-1714.956518379972
 20
-1448.846221277433
 30
0.0
 40
5.0
100
AcDbArc
 50
180.0
 51
270.0
  0
ARC
  5
325
330
1F
100
AcDbEntity
  8
3-3
  6
Continuous
 62
     4
370
     9
100
AcDbCircle
 10
-1551.623185046639
 20
-1448.846221277433
 30
0.0
 40
5.0
100
AcDbArc
 50
270.0
 51
0.0
  0
ARC
  5
326
330
1F
100
AcDbEntity
  8
3-3
  6
Continuous
 62
     4
370
     9
100
AcDbCircle
 10
-1697.033129533997
 20
-1448.846221277433
 30
0.0
 40
5.0
100
AcDbArc
 50
270.0
 51
345.5224878140696
  0
ARC
  5
327
330
1F
100
AcDbEntity
  8
3-3
  6
Continuous
 62
     4
370
     9
100
AcDbCircle
 10
-1684.123185046639
 20
-1452.179554610767
 30
0.0
 40
8.333333333333332
100
AcDbArc
 50
90.0
 51
165.5224878140696
  0
ARC
  5
328
330
1F
100
AcDbEntity
  8
3-3
  6
Continuous
 62
     4
370
     9
100
AcDbCircle
 10
-1569.546573892615
 20
-1448.846221277433
 30
0.0
 40
5.0
100
AcDbArc
 50
194.4775121859303
 51
270.0
  0
ARC
  5
329
330
1F
100
AcDbEntity
  8
3-3
  6
Continuous
 62
     4
370
     9
100
AcDbCircle
 10
-1582.456518379972
 20
-1452.179554610767
 30
0.0
 40
8.333333333333332
100
AcDbArc
 50
14.47751218593034
 51
90.0
  0
LINE
  5
32A
330
1F
100
AcDbEntity
  8
3-3
  6
Continuous
 62
     4
370
     9
100
AcDbLine
 10
-1599.956518379972
 20
-1468.846056380866
 30
0.0
 11
-1666.62318504664
 21
-1468.846056380866
 31
0.0
  0
LINE
  5
32B
330
1F
100
AcDbEntity
  8
3-3
  6
Continuous
 62
     4
370
     9
100
AcDbLine
 10
-1666.62318504664
 20
-1468.846056380866
 30
0.0
 11
-1666.62318504664
 21
-1460.512887944099
 31
0.0
  0
LINE
  5
32C
330
1F
100
AcDbEntity
  8
3-3
  6
Continuous
 62
     4
370
     9
100
AcDbLine
 10
-1599.956518379972
 20
-1468.846056380866
 30
0.0
 11
-1599.956518379972
 21
-1460.512887944099
 31
0.0
  0
LINE
  5
32D
330
1F
100
AcDbEntity
  8
3-3
  6
Continuous
 62
     4
370
     9
100
AcDbLine
 10
-1661.478703064972
 20
-1460.512887944099
 30
0.0
 11
-1666.62318504664
 21
-1465.657369925767
 31
0.0
  0
LINE
  5
32E
330
1F
100
AcDbEntity
  8
3-3
  6
Continuous
 62
     4
370
     9
100
AcDbLine
 10
-1604.910160570039
 20
-1460.512887944099
 30
0.0
 11
-1613.243329006805
 21
-1468.846056380866
 31
0.0
  0
LINE
  5
32F
330
1F
100
AcDbEntity
  8
3-3
  6
Continuous
 62
     4
370
     9
100
AcDbLine
 10
-1647.336567441241
 20
-1460.512887944099
 30
0.0
 11
-1655.669735878005
 21
-1468.846056380863
 31
0.0
  0
LINE
  5
330
330
1F
100
AcDbEntity
  8
3-3
  6
Continuous
 62
     4
370
     9
100
AcDbLine
 10
-1633.194431817506
 20
-1460.512887944099
 30
0.0
 11
-1641.527600254273
 21
-1468.846056380866
 31
0.0
  0
LINE
  5
331
330
1F
100
AcDbEntity
  8
3-3
  6
Continuous
 62
     4
370
     9
100
AcDbLine
 10
-1619.052296193773
 20
-1460.512887944099
 30
0.0
 11
-1627.385464630538
 21
-1468.846056380863
 31
0.0
  0
LINE
  5
332
330
1F
100
AcDbEntity
  8
3-3
  6
Continuous
 62
     4
370
     9
100
AcDbLine
 10
-1726.623185046639
 20
-1447.179554610767
 30
0.0
 11
-1726.623185046639
 21
-1407.179580925796
 31
0.0
  0
LINE
  5
333
330
1F
100
AcDbEntity
  8
3-3
  6
Continuous
 62
     4
370
     9
100
AcDbLine
 10
-1539.956518379972
 20
-1447.179554610767
 30
0.0
 11
-1539.956518379972
 21
-1407.179580925796
 31
0.0
  0
LINE
  5
334
330
1F
100
AcDbEntity
  8
3-3
  6
Continuous
 62
     4
370
     9
100
AcDbLine
 10
-1719.956518379972
 20
-1448.846221277433
 30
0.0
 11
-1719.956518379972
 21
-1407.179580925796
 31
0.0
  0
LINE
  5
335
330
1F
100
AcDbEntity
  8
3-3
  6
Continuous
 62
     4
370
     9
100
AcDbLine
 10
-1546.623185046639
 20
-1448.846221277433
 30
0.0
 11
-1546.623185046639
 21
-1407.179580925796
 31
0.0
  0
LINE
  5
336
330
1F
100
AcDbEntity
  8
3-3
  6
JWW_DASHED1
 62
     4
370
     9
100
AcDbLine
 10
-1726.623185046639
 20
-1407.179580925796
 30
0.0
 11
-1726.623185046639
 21
-1178.847431245996
 31
0.0
  0
LINE
  5
337
330
1F
100
AcDbEntity
  8
3-3
  6
JWW_DASHED1
 62
     4
370
     9
100
AcDbLine
 10
-1539.956518379972
 20
-1407.179580925796
 30
0.0
 11
-1539.956518379972
 21
-1178.847431245996
 31
0.0
  0
LINE
  5
338
330
1F
100
AcDbEntity
  8
3-3
  6
JWW_DASHED1
 62
     4
370
     9
100
AcDbLine
 10
-1719.956518379972
 20
-1407.179580925796
 30
0.0
 11
-1719.956518379972
 21
-1178.847431245996
 31
0.0
  0
LINE
  5
339
330
1F
100
AcDbEntity
  8
3-3
  6
JWW_DASHED1
 62
     4
370
     9
100
AcDbLine
 10
-1546.623185046639
 20
-1407.179580925796
 30
0.0
 11
-1546.623185046639
 21
-1178.847431245996
 31
0.0
  0
LINE
  5
33A
330
1F
100
AcDbEntity
  8
3-3
  6
Continuous
 62
     4
370
     9
100
AcDbLine
 10
-1714.956518379972
 20
-1453.846221277433
 30
0.0
 11
-1551.623185046639
 21
-1453.846221277433
 31
0.0
  0
LINE
  5
33B
330
1F
100
AcDbEntity
  8
3-3
  6
Continuous
 62
     4
370
     9
100
AcDbLine
 10
-1713.289851713306
 20
-1460.512887944099
 30
0.0
 11
-1553.289851713306
 21
-1460.512887944099
 31
0.0
  0
ARC
  5
33C
330
1F
100
AcDbEntity
  8
3-3
  6
Continuous
 62
     4
370
     9
100
AcDbCircle
 10
-1553.289851713306
 20
-1447.179554610767
 30
0.0
 40
13.33333333333333
100
AcDbArc
 50
270.0
 51
0.0
  0
LINE
  5
33D
330
1F
100
AcDbEntity
  8
3-9
  6
Continuous
 62
     3
370
     9
100
AcDbLine
 10
-2496.622965689272
 20
-1490.512710331876
 30
0.0
 11
-2424.956299022606
 21
-1490.512710331876
 31
0.0
  0
LINE
  5
33E
330
1F
100
AcDbEntity
  8
3-9
  6
Continuous
 62
     3
370
     9
100
AcDbLine
 10
-2426.33700940745
 20
-1497.179376998543
 30
0.0
 11
-2496.622965689272
 21
-1497.179376998543
 31
0.0
  0
LINE
  5
33F
330
1F
100
AcDbEntity
  8
3-9
  6
Continuous
 62
     2
370
     9
100
AcDbLine
 10
-2472.456121003401
 20
-1498.845140853523
 30
0.0
 11
-2472.456121003401
 21
-1497.179376998543
 31
0.0
  0
LINE
  5
340
330
1F
100
AcDbEntity
  8
3-9
  6
Continuous
 62
     2
370
     9
100
AcDbLine
 10
-2466.622314011824
 20
-1503.844746668139
 30
0.0
 11
-2472.456121003401
 21
-1498.845140853523
 31
0.0
  0
LINE
  5
341
330
1F
100
AcDbEntity
  8
3-9
  6
Continuous
 62
     2
370
     9
100
AcDbLine
 10
-2459.956368958723
 20
-1503.844746668139
 30
0.0
 11
-2466.622314011824
 21
-1503.844746668139
 31
0.0
  0
LINE
  5
342
330
1F
100
AcDbEntity
  8
3-9
  6
Continuous
 62
     2
370
     9
100
AcDbLine
 10
-2454.122727270694
 20
-1498.845140853523
 30
0.0
 11
-2459.956368958723
 21
-1503.844746668139
 31
0.0
  0
LINE
  5
343
330
1F
100
AcDbEntity
  8
3-9
  6
Continuous
 62
     2
370
     9
100
AcDbLine
 10
-2454.122727270694
 20
-1498.845140853523
 30
0.0
 11
-2454.122727270694
 21
-1497.179376998543
 31
0.0
  0
LINE
  5
344
330
1F
100
AcDbEntity
  8
3-9
  6
Continuous
 62
     2
370
     9
100
AcDbLine
 10
-2454.122727270694
 20
-1498.845140853523
 30
0.0
 11
-2472.456121003401
 21
-1498.845140853523
 31
0.0
  0
LINE
  5
345
330
1F
100
AcDbEntity
  8
3-9
  6
JWW_CENTER1
 62
     4
370
     9
100
AcDbLine
 10
-2463.28963235594
 20
-1480.191990913825
 30
0.0
 11
-2463.28963235594
 21
-1507.807085914263
 31
0.0
  0
LINE
  5
346
330
1F
100
AcDbEntity
  8
3-9
  6
Continuous
 62
     3
370
     9
100
AcDbLine
 10
-2329.956299022606
 20
-1482.1793897142
 30
0.0
 11
-2329.956299022606
 21
-1488.846056380867
 31
0.0
  0
LINE
  5
347
330
1F
100
AcDbEntity
  8
3-9
  6
Continuous
 62
     3
370
     9
100
AcDbLine
 10
-2496.622965689273
 20
-1490.512710331876
 30
0.0
 11
-2496.622965689273
 21
-1497.179376998543
 31
0.0
  0
LINE
  5
348
330
1F
100
AcDbEntity
  8
3-9
  6
Continuous
 62
     3
370
     9
100
AcDbLine
 10
-2413.861544919585
 20
-1488.846056380867
 30
0.0
 11
-2329.956299022606
 21
-1488.846056380867
 31
0.0
  0
LINE
  5
349
330
1F
100
AcDbEntity
  8
3-9
  6
Continuous
 62
     3
370
     9
100
AcDbLine
 10
-2419.265946990387
 20
-1494.250450205207
 30
0.0
 11
-2413.861544919585
 21
-1488.846056380867
 31
0.0
  0
ARC
  5
34A
330
1F
100
AcDbEntity
  8
3-9
  6
Continuous
 62
     3
370
     9
100
AcDbCircle
 10
-2426.33700940745
 20
-1487.179376998543
 30
0.0
 40
10.0
100
AcDbArc
 50
270.0
 51
314.9999562867555
  0
LINE
  5
34B
330
1F
100
AcDbEntity
  8
3-9
  6
Continuous
 62
     3
370
     9
100
AcDbLine
 10
-2412.48083453474
 20
-1482.1793897142
 30
0.0
 11
-2329.956299022606
 21
-1482.1793897142
 31
0.0
  0
LINE
  5
34C
330
1F
100
AcDbEntity
  8
3-9
  6
Continuous
 62
     3
370
     9
100
AcDbLine
 10
-2419.551896951803
 20
-1485.108316507536
 30
0.0
 11
-2424.956299022606
 21
-1490.512710331876
 31
0.0
  0
ARC
  5
34D
330
1F
100
AcDbEntity
  8
3-9
  6
Continuous
 62
     3
370
     9
100
AcDbCircle
 10
-2412.48083453474
 20
-1492.1793897142
 30
0.0
 40
10.0
100
AcDbArc
 50
90.0
 51
134.9999562867556
  0
ARC
  5
34E
330
1F
100
AcDbEntity
  8
3-9
  6
JWW_DASHED2
 62
     4
370
     9
100
AcDbCircle
 10
-2482.456228325515
 20
-1493.845153569181
 30
0.0
 40
3.333333333333333
100
AcDbArc
 50
90.0
 51
180.0
  0
LINE
  5
34F
330
1F
100
AcDbEntity
  8
3-9
  6
JWW_DASHED2
 62
     4
370
     9
100
AcDbLine
 10
-2485.789561658848
 20
-1497.179376998543
 30
0.0
 11
-2485.789561658848
 21
-1493.845153569181
 31
0.0
  0
ARC
  5
350
330
1F
100
AcDbEntity
  8
3-9
  6
JWW_DASHED2
 62
     4
370
     9
100
AcDbCircle
 10
-2444.123036386363
 20
-1493.845153569181
 30
0.0
 40
3.333333333333333
100
AcDbArc
 50
0.0
 51
90.0
  0
LINE
  5
351
330
1F
100
AcDbEntity
  8
3-9
  6
JWW_DASHED2
 62
     4
370
     9
100
AcDbLine
 10
-2434.123036386363
 20
-1497.179376998543
 30
0.0
 11
-2434.123036386363
 21
-1490.511820235848
 31
0.0
  0
LINE
  5
352
330
1F
100
AcDbEntity
  8
3-9
  6
JWW_DASHED2
 62
     4
370
     9
100
AcDbLine
 10
-2440.78970305303
 20
-1497.179376998543
 30
0.0
 11
-2440.78970305303
 21
-1493.845153569181
 31
0.0
  0
LINE
  5
353
330
1F
100
AcDbEntity
  8
3-9
  6
Continuous
 62
     4
370
     9
100
AcDbLine
 10
-2434.123036386363
 20
-1497.179376998543
 30
0.0
 11
-2434.123036386363
 21
-1503.178466875353
 31
0.0
  0
LINE
  5
354
330
1F
100
AcDbEntity
  8
3-9
  6
Continuous
 62
     4
370
     9
100
AcDbLine
 10
-2492.456228325515
 20
-1497.179376998543
 30
0.0
 11
-2492.456228325515
 21
-1503.178466875353
 31
0.0
  0
LINE
  5
355
330
1F
100
AcDbEntity
  8
3-9
  6
Continuous
 62
     4
370
     9
100
AcDbLine
 10
-2434.123036386363
 20
-1503.178466875353
 30
0.0
 11
-2440.78970305303
 21
-1503.178466875353
 31
0.0
  0
LINE
  5
356
330
1F
100
AcDbEntity
  8
3-9
  6
Continuous
 62
     4
370
     9
100
AcDbLine
 10
-2485.789561658848
 20
-1503.178466875353
 30
0.0
 11
-2492.456228325516
 21
-1503.178466875353
 31
0.0
  0
ARC
  5
357
330
1F
100
AcDbEntity
  8
3-9
  6
Continuous
 62
     4
370
     9
100
AcDbCircle
 10
-2485.789561658848
 20
-1490.511820235848
 30
0.0
 40
6.666666666666666
100
AcDbArc
 50
90.0
 51
180.0
  0
LINE
  5
358
330
1F
100
AcDbEntity
  8
3-9
  6
Continuous
 62
     4
370
     9
100
AcDbLine
 10
-2440.78970305303
 20
-1483.845153569181
 30
0.0
 11
-2485.789561658848
 21
-1483.845153569181
 31
0.0
  0
ARC
  5
359
330
1F
100
AcDbEntity
  8
3-9
  6
Continuous
 62
     4
370
     9
100
AcDbCircle
 10
-2440.78970305303
 20
-1490.511820235848
 30
0.0
 40
6.666666666666666
100
AcDbArc
 50
0.0
 51
90.0
  0
LINE
  5
35A
330
1F
100
AcDbEntity
  8
3-9
  6
Continuous
 62
     4
370
     9
100
AcDbLine
 10
-2485.789561658848
 20
-1497.179376998543
 30
0.0
 11
-2485.789561658848
 21
-1503.178466875353
 31
0.0
  0
LINE
  5
35B
330
1F
100
AcDbEntity
  8
3-9
  6
Continuous
 62
     4
370
     9
100
AcDbLine
 10
-2440.78970305303
 20
-1497.179376998543
 30
0.0
 11
-2440.78970305303
 21
-1503.178466875353
 31
0.0
  0
LINE
  5
35C
330
1F
100
AcDbEntity
  8
3-9
  6
JWW_DASHED2
 62
     4
370
     9
100
AcDbLine
 10
-2492.456228325515
 20
-1490.511820235848
 30
0.0
 11
-2492.456228325515
 21
-1497.179376998543
 31
0.0
  0
LINE
  5
35D
330
1F
100
AcDbEntity
  8
3-9
  6
Continuous
 62
     3
370
     9
100
AcDbLine
 10
-1823.289060495015
 20
-1490.512710331876
 30
0.0
 11
-1751.622393828349
 21
-1490.512710331876
 31
0.0
  0
LINE
  5
35E
330
1F
100
AcDbEntity
  8
3-9
  6
Continuous
 62
     3
370
     9
100
AcDbLine
 10
-1753.003104213193
 20
-1497.179376998543
 30
0.0
 11
-1823.289060495015
 21
-1497.179376998543
 31
0.0
  0
LINE
  5
35F
330
1F
100
AcDbEntity
  8
3-9
  6
Continuous
 62
     2
370
     9
100
AcDbLine
 10
-1799.122215809143
 20
-1498.845140853523
 30
0.0
 11
-1799.122215809143
 21
-1497.179376998543
 31
0.0
  0
LINE
  5
360
330
1F
100
AcDbEntity
  8
3-9
  6
Continuous
 62
     2
370
     9
100
AcDbLine
 10
-1793.288408817566
 20
-1503.844746668139
 30
0.0
 11
-1799.122215809143
 21
-1498.845140853523
 31
0.0
  0
LINE
  5
361
330
1F
100
AcDbEntity
  8
3-9
  6
Continuous
 62
     2
370
     9
100
AcDbLine
 10
-1786.622463764465
 20
-1503.844746668139
 30
0.0
 11
-1793.288408817566
 21
-1503.844746668139
 31
0.0
  0
LINE
  5
362
330
1F
100
AcDbEntity
  8
3-9
  6
Continuous
 62
     2
370
     9
100
AcDbLine
 10
-1780.788822076437
 20
-1498.845140853523
 30
0.0
 11
-1786.622463764465
 21
-1503.844746668139
 31
0.0
  0
LINE
  5
363
330
1F
100
AcDbEntity
  8
3-9
  6
Continuous
 62
     2
370
     9
100
AcDbLine
 10
-1780.788822076437
 20
-1498.845140853523
 30
0.0
 11
-1780.788822076437
 21
-1497.179376998543
 31
0.0
  0
LINE
  5
364
330
1F
100
AcDbEntity
  8
3-9
  6
Continuous
 62
     2
370
     9
100
AcDbLine
 10
-1780.788822076437
 20
-1498.845140853523
 30
0.0
 11
-1799.122215809143
 21
-1498.845140853523
 31
0.0
  0
LINE
  5
365
330
1F
100
AcDbEntity
  8
3-9
  6
JWW_CENTER1
 62
     4
370
     9
100
AcDbLine
 10
-1789.955727161682
 20
-1480.191990913825
 30
0.0
 11
-1789.955727161682
 21
-1507.807085914263
 31
0.0
  0
LINE
  5
366
330
1F
100
AcDbEntity
  8
3-9
  6
Continuous
 62
     3
370
     9
100
AcDbLine
 10
-1656.622393828349
 20
-1482.1793897142
 30
0.0
 11
-1656.622393828349
 21
-1488.846056380867
 31
0.0
  0
LINE
  5
367
330
1F
100
AcDbEntity
  8
3-9
  6
Continuous
 62
     3
370
     9
100
AcDbLine
 10
-1823.289060495016
 20
-1490.512710331876
 30
0.0
 11
-1823.289060495016
 21
-1497.179376998543
 31
0.0
  0
LINE
  5
368
330
1F
100
AcDbEntity
  8
3-9
  6
Continuous
 62
     3
370
     9
100
AcDbLine
 10
-1740.527639725327
 20
-1488.846056380867
 30
0.0
 11
-1656.622393828349
 21
-1488.846056380867
 31
0.0
  0
LINE
  5
369
330
1F
100
AcDbEntity
  8
3-9
  6
Continuous
 62
     3
370
     9
100
AcDbLine
 10
-1745.93204179613
 20
-1494.250450205207
 30
0.0
 11
-1740.527639725327
 21
-1488.846056380867
 31
0.0
  0
ARC
  5
36A
330
1F
100
AcDbEntity
  8
3-9
  6
Continuous
 62
     3
370
     9
100
AcDbCircle
 10
-1753.003104213193
 20
-1487.179376998543
 30
0.0
 40
10.0
100
AcDbArc
 50
270.0
 51
314.9999562867555
  0
LINE
  5
36B
330
1F
100
AcDbEntity
  8
3-9
  6
Continuous
 62
     3
370
     9
100
AcDbLine
 10
-1739.146929340483
 20
-1482.1793897142
 30
0.0
 11
-1656.622393828349
 21
-1482.1793897142
 31
0.0
  0
LINE
  5
36C
330
1F
100
AcDbEntity
  8
3-9
  6
Continuous
 62
     3
370
     9
100
AcDbLine
 10
-1746.217991757546
 20
-1485.108316507536
 30
0.0
 11
-1751.622393828349
 21
-1490.512710331876
 31
0.0
  0
ARC
  5
36D
330
1F
100
AcDbEntity
  8
3-9
  6
Continuous
 62
     3
370
     9
100
AcDbCircle
 10
-1739.146929340483
 20
-1492.1793897142
 30
0.0
 40
10.0
100
AcDbArc
 50
90.0
 51
134.9999562867556
  0
ARC
  5
36E
330
1F
100
AcDbEntity
  8
3-9
  6
JWW_DASHED2
 62
     4
370
     9
100
AcDbCircle
 10
-1809.122323131258
 20
-1493.845153569181
 30
0.0
 40
3.333333333333333
100
AcDbArc
 50
90.0
 51
180.0
  0
LINE
  5
36F
330
1F
100
AcDbEntity
  8
3-9
  6
JWW_DASHED2
 62
     4
370
     9
100
AcDbLine
 10
-1812.455656464591
 20
-1497.179376998543
 30
0.0
 11
-1812.455656464591
 21
-1493.845153569181
 31
0.0
  0
ARC
  5
370
330
1F
100
AcDbEntity
  8
3-9
  6
JWW_DASHED2
 62
     4
370
     9
100
AcDbCircle
 10
-1770.789131192106
 20
-1493.845153569181
 30
0.0
 40
3.333333333333333
100
AcDbArc
 50
0.0
 51
90.0
  0
LINE
  5
371
330
1F
100
AcDbEntity
  8
3-9
  6
JWW_DASHED2
 62
     4
370
     9
100
AcDbLine
 10
-1760.789131192106
 20
-1497.179376998543
 30
0.0
 11
-1760.789131192106
 21
-1490.511820235848
 31
0.0
  0
LINE
  5
372
330
1F
100
AcDbEntity
  8
3-9
  6
JWW_DASHED2
 62
     4
370
     9
100
AcDbLine
 10
-1767.455797858773
 20
-1497.179376998543
 30
0.0
 11
-1767.455797858773
 21
-1493.845153569181
 31
0.0
  0
LINE
  5
373
330
1F
100
AcDbEntity
  8
3-9
  6
Continuous
 62
     4
370
     9
100
AcDbLine
 10
-1760.789131192106
 20
-1497.179376998543
 30
0.0
 11
-1760.789131192106
 21
-1503.178466875353
 31
0.0
  0
LINE
  5
374
330
1F
100
AcDbEntity
  8
3-9
  6
Continuous
 62
     4
370
     9
100
AcDbLine
 10
-1819.122323131258
 20
-1497.179376998543
 30
0.0
 11
-1819.122323131258
 21
-1503.178466875353
 31
0.0
  0
LINE
  5
375
330
1F
100
AcDbEntity
  8
3-9
  6
Continuous
 62
     4
370
     9
100
AcDbLine
 10
-1760.789131192106
 20
-1503.178466875353
 30
0.0
 11
-1767.455797858773
 21
-1503.178466875353
 31
0.0
  0
LINE
  5
376
330
1F
100
AcDbEntity
  8
3-9
  6
Continuous
 62
     4
370
     9
100
AcDbLine
 10
-1812.455656464591
 20
-1503.178466875353
 30
0.0
 11
-1819.122323131259
 21
-1503.178466875353
 31
0.0
  0
ARC
  5
377
330
1F
100
AcDbEntity
  8
3-9
  6
Continuous
 62
     4
370
     9
100
AcDbCircle
 10
-1812.455656464591
 20
-1490.511820235848
 30
0.0
 40
6.666666666666666
100
AcDbArc
 50
90.0
 51
180.0
  0
LINE
  5
378
330
1F
100
AcDbEntity
  8
3-9
  6
Continuous
 62
     4
370
     9
100
AcDbLine
 10
-1767.455797858773
 20
-1483.845153569181
 30
0.0
 11
-1812.455656464591
 21
-1483.845153569181
 31
0.0
  0
ARC
  5
379
330
1F
100
AcDbEntity
  8
3-9
  6
Continuous
 62
     4
370
     9
100
AcDbCircle
 10
-1767.455797858773
 20
-1490.511820235848
 30
0.0
 40
6.666666666666666
100
AcDbArc
 50
0.0
 51
90.0
  0
LINE
  5
37A
330
1F
100
AcDbEntity
  8
3-9
  6
Continuous
 62
     4
370
     9
100
AcDbLine
 10
-1812.455656464591
 20
-1497.179376998543
 30
0.0
 11
-1812.455656464591
 21
-1503.178466875353
 31
0.0
  0
LINE
  5
37B
330
1F
100
AcDbEntity
  8
3-9
  6
Continuous
 62
     4
370
     9
100
AcDbLine
 10
-1767.455797858773
 20
-1497.179376998543
 30
0.0
 11
-1767.455797858773
 21
-1503.178466875353
 31
0.0
  0
LINE
  5
37C
330
1F
100
AcDbEntity
  8
3-9
  6
JWW_DASHED2
 62
     4
370
     9
100
AcDbLine
 10
-1819.122323131258
 20
-1490.511820235848
 30
0.0
 11
-1819.122323131258
 21
-1497.179376998543
 31
0.0
  0
LWPOLYLINE
  5
37D
330
1F
100
AcDbEntity
  8
3-4
  6
Continuous
 62
     7
370
     9
100
AcDbPolyline
 90
        4
 70
     1
 43
2.0
 10
-1082.821491559587
 20
-1482.1793897142
 42
0.4142135623731
 10
-1083.821491559587
 20
-1481.1793897142
 42
0.4142135623731
 10
-1084.821491559587
 20
-1482.1793897142
 42
0.4142135623731
 10
-1083.821491559587
 20
-1483.1793897142
 42
0.4142135623731
  0
LINE
  5
37E
330
1F
100
AcDbEntity
  8
3-4
  6
Continuous
 62
     7
370
     9
100
AcDbLine
 10
-1080.821491559587
 20
-1482.1793897142
 30
0.0
 11
-1436.623109440026
 21
-1482.1793897142
 31
0.0
  0
LWPOLYLINE
  5
37F
330
1F
100
AcDbEntity
  8
3-4
  6
Continuous
 62
     7
370
     9
100
AcDbPolyline
 90
        4
 70
     1
 43
2.0
 10
-1082.821491559587
 20
-1152.179239943146
 42
0.4142135623731
 10
-1083.821491559587
 20
-1151.179239943146
 42
0.4142135623731
 10
-1084.821491559587
 20
-1152.179239943146
 42
0.4142135623731
 10
-1083.821491559587
 20
-1153.179239943146
 42
0.4142135623731
  0
LWPOLYLINE
  5
380
330
1F
100
AcDbEntity
  8
3-4
  6
Continuous
 62
     7
370
     9
100
AcDbPolyline
 90
        4
 70
     1
 43
2.0
 10
-1210.268501806978
 20
-1152.179239943146
 42
0.4142135623731
 10
-1211.268501806978
 20
-1151.179239943146
 42
0.4142135623731
 10
-1212.268501806978
 20
-1152.179239943146
 42
0.4142135623731
 10
-1211.268501806978
 20
-1153.179239943146
 42
0.4142135623731
  0
LWPOLYLINE
  5
381
330
1F
100
AcDbEntity
  8
3-4
  6
Continuous
 62
     7
370
     9
100
AcDbPolyline
 90
        4
 70
     1
 43
2.0
 10
-1210.268501806978
 20
-1468.846056380866
 42
0.4142135623731
 10
-1211.268501806978
 20
-1467.846056380866
 42
0.4142135623731
 10
-1212.268501806978
 20
-1468.846056380866
 42
0.4142135623731
 10
-1211.268501806978
 20
-1469.846056380866
 42
0.4142135623731
  0
LINE
  5
382
330
1F
100
AcDbEntity
  8
3-4
  6
Continuous
 62
     7
370
     9
100
AcDbLine
 10
-1208.268501806978
 20
-1468.846056380866
 30
0.0
 11
-1436.623109440026
 21
-1468.846056380866
 31
0.0
  0
LINE
  5
383
330
1F
100
AcDbEntity
  8
3-6
  6
JWW_PHANTOM1
 62
     6
370
     9
100
AcDbLine
 10
-2796.622910702646
 20
-1152.179239943147
 30
0.0
 11
-3131.876196933406
 21
-1152.179239943147
 31
0.0
  0
LINE
  5
384
330
1F
100
AcDbEntity
  8
3-1
  6
Continuous
 62
     2
370
     9
100
AcDbLine
 10
-2783.289577369313
 20
-1152.179239943147
 30
0.0
 11
-2796.622910702646
 21
-1152.179239943147
 31
0.0
  0
LINE
  5
385
330
1F
100
AcDbEntity
  8
3-1
  6
Continuous
 62
     2
370
     9
100
AcDbLine
 10
-1456.623109440026
 20
-1152.179239943147
 30
0.0
 11
-1469.956442773359
 21
-1152.179239943147
 31
0.0
  0
LINE
  5
386
330
1F
100
AcDbEntity
  8
3-1
  6
Continuous
 62
     2
370
     9
100
AcDbLine
 10
-2783.289577369313
 20
-1462.1793897142
 30
0.0
 11
-2783.289577369313
 21
-1152.179239943147
 31
0.0
  0
ARC
  5
387
330
1F
100
AcDbEntity
  8
3-1
  6
Continuous
 62
     2
370
     9
100
AcDbCircle
 10
-2776.622910702646
 20
-1462.1793897142
 30
0.0
 40
6.666666666666666
100
AcDbArc
 50
180.0
 51
270.0
  0
LINE
  5
388
330
1F
100
AcDbEntity
  8
3-1
  6
Continuous
 62
     2
370
     9
100
AcDbLine
 10
-1469.956442773359
 20
-1462.1793897142
 30
0.0
 11
-1469.956442773359
 21
-1152.179239943147
 31
0.0
  0
ARC
  5
389
330
1F
100
AcDbEntity
  8
3-1
  6
Continuous
 62
     2
370
     9
100
AcDbCircle
 10
-1476.623109440026
 20
-1462.1793897142
 30
0.0
 40
6.666666666666666
100
AcDbArc
 50
270.0
 51
0.0
  0
ARC
  5
38A
330
1F
100
AcDbEntity
  8
3-1
  6
Continuous
 62
     2
370
     9
100
AcDbCircle
 10
-2776.622910702646
 20
-1462.1793897142
 30
0.0
 40
20.0
100
AcDbArc
 50
180.0
 51
270.0
  0
LINE
  5
38B
330
1F
100
AcDbEntity
  8
3-1
  6
Continuous
 62
     2
370
     9
100
AcDbLine
 10
-1476.623109440026
 20
-1482.1793897142
 30
0.0
 11
-2776.622910702646
 21
-1482.1793897142
 31
0.0
  0
LINE
  5
38C
330
1F
100
AcDbEntity
  8
3-1
  6
Continuous
 62
     2
370
     9
100
AcDbLine
 10
-1456.623109440026
 20
-1462.1793897142
 30
0.0
 11
-1456.623109440026
 21
-1152.179239943147
 31
0.0
  0
ARC
  5
38D
330
1F
100
AcDbEntity
  8
3-1
  6
Continuous
 62
     2
370
     9
100
AcDbCircle
 10
-1476.623109440026
 20
-1462.1793897142
 30
0.0
 40
20.0
100
AcDbArc
 50
270.0
 51
0.0
  0
LWPOLYLINE
  5
38E
330
1F
100
AcDbEntity
  8
3-4
  6
Continuous
 62
     7
370
     9
100
AcDbPolyline
 90
        4
 70
     1
 43
2.0
 10
-2625.62315146552
 20
-1723.976880445039
 42
0.4142135623731
 10
-2626.62315146552
 20
-1722.976880445039
 42
0.4142135623731
 10
-2627.623151465521
 20
-1723.976880445039
 42
0.4142135623731
 10
-2626.62315146552
 20
-1724.976880445039
 42
0.4142135623731
  0
LWPOLYLINE
  5
38F
330
1F
100
AcDbEntity
  8
3-4
  6
Continuous
 62
     7
370
     9
100
AcDbPolyline
 90
        4
 70
     1
 43
2.0
 10
-1625.623218627757
 20
-1723.976880445039
 42
0.4142135623731
 10
-1626.623218627757
 20
-1722.976880445039
 42
0.4142135623731
 10
-1627.623218627757
 20
-1723.976880445039
 42
0.4142135623731
 10
-1626.623218627757
 20
-1724.976880445039
 42
0.4142135623731
  0
LINE
  5
390
330
1F
100
AcDbEntity
  8
3-6
  6
JWW_PHANTOM1
 62
     6
370
     9
100
AcDbLine
 10
-2626.62315146552
 20
-1482.1793897142
 30
0.0
 11
-2626.62315146552
 21
-1928.71157432259
 31
0.0
  0
LINE
  5
391
330
1F
100
AcDbEntity
  8
3-6
  6
JWW_PHANTOM1
 62
     6
370
     9
100
AcDbLine
 10
-1626.623218627757
 20
-1482.1793897142
 30
0.0
 11
-1626.623218627757
 21
-1928.71157432259
 31
0.0
  0
LINE
  5
392
330
1F
100
AcDbEntity
  8
3-5
  6
Continuous
 62
     7
370
     9
100
AcDbLine
 10
-2395.841587001357
 20
-2099.428410728707
 30
0.0
 11
-1854.995945649152
 21
-2099.428410728707
 31
0.0
  0
TEXT
  5
393
330
1F
100
AcDbEntity
  8
3-5
  6
Continuous
 62
     2
370
   211
100
AcDbText
 10
-2396.532022489408
 20
-2080.599742697495
 30
0.0
 40
30.47999999999989
  1
Ａ－Ａ断面図　Ｓ＝１：３
 41
1.114583333333338
  7
ＭＳ ゴシック
100
AcDbText
  0
TEXT
  5
394
330
1F
100
AcDbEntity
  8
3-5
  6
Continuous
 62
     2
370
     9
100
AcDbText
 10
-2460.418766325254
 20
-2159.530651174222
 30
0.0
 40
30.48000000000022
  1
※Ａ－Ａ断面図は舗装材を省略。
 41
1.116666666666658
  7
ＭＳ ゴシック
100
AcDbText
  0
LINE
  5
395
330
1F
100
AcDbEntity
  8
3-4
  6
Continuous
 62
     7
370
     9
100
AcDbLine
 10
-1083.821491559587
 20
-1152.179239943146
 30
0.0
 11
-1083.821491559587
 21
-1482.1793897142
 31
0.0
  0
TEXT
  5
396
330
1F
100
AcDbEntity
  8
3-4
  6
Continuous
 62
     2
370
   211
100
AcDbText
 10
-1095.461491559587
 20
-1338.429314828673
 30
0.0
 40
30.48000000000087
  1
99
 50
90.0
 41
1.062499999999963
  7
ＭＳ ゴシック
100
AcDbText
  0
LINE
  5
397
330
1F
100
AcDbEntity
  8
3-4
  6
Continuous
 62
     7
370
     9
100
AcDbLine
 10
-1211.268501806978
 20
-1152.179239943146
 30
0.0
 11
-1211.268501806978
 21
-1468.846056380866
 31
0.0
  0
TEXT
  5
398
330
1F
100
AcDbEntity
  8
3-4
  6
Continuous
 62
     2
370
   211
100
AcDbText
 10
-1222.908501806977
 20
-1331.762648162006
 30
0.0
 40
30.48000000000087
  1
95
 50
90.0
 41
1.062499999999963
  7
ＭＳ ゴシック
100
AcDbText
  0
LINE
  5
399
330
1F
100
AcDbEntity
  8
3-4
  6
Continuous
 62
     7
370
     9
100
AcDbLine
 10
-2626.62315146552
 20
-1723.976880445039
 30
0.0
 11
-1626.623218627757
 21
-1723.976880445039
 31
0.0
  0
TEXT
  5
39A
330
1F
100
AcDbEntity
  8
3-4
  6
Continuous
 62
     2
370
   211
100
AcDbText
 10
-2159.123185046638
 20
-1712.336880445039
 30
0.0
 40
30.47999999999957
  1
300
 41
1.083333333333344
  7
ＭＳ ゴシック
100
AcDbText
  0
TEXT
  5
39B
330
1F
100
AcDbEntity
  8
F-Fﾚｲﾔ
  6
Continuous
 62
     3
370
     9
100
AcDbText
 10
590.1375057618475
 20
2078.178364335182
 30
0.0
 40
38.1
  1
寸法 幅390×長さ390×高さ95
 41
1.096296296296296
  7
ＭＳ ゴシック
100
AcDbText
  0
LINE
  5
39C
330
1F
100
AcDbEntity
  8
3-4
  6
Continuous
 62
     7
370
     9
100
AcDbLine
 10
-1083.821491559587
 20
1248.855998802535
 30
0.0
 11
-1083.821491559587
 21
-51.14365870932943
 31
0.0
  0
TEXT
  5
39D
330
1F
100
AcDbEntity
  8
3-4
  6
Continuous
 62
     2
370
   211
100
AcDbText
 10
-1099.461491559588
 20
566.3561700466028
 30
0.0
 40
30.47999999999957
  1
390
 50
90.0
 41
1.083333333333358
  7
ＭＳ ゴシック
100
AcDbText
  0
TEXT
  5
39E
330
1F
100
AcDbEntity
  8
F-Fﾚｲﾔ
  6
Continuous
 62
     3
370
     9
100
AcDbText
 10
590.1375057618475
 20
1718.178364335182
 30
0.0
 40
38.1
  1
寸法 幅402×長さ402×高さ99
 41
1.096296296296296
  7
ＭＳ ゴシック
100
AcDbText
  0
LINE
  5
39F
330
1F
100
AcDbEntity
  8
3-3
  6
Continuous
 62
     4
370
     9
100
AcDbLine
 10
-2706.62318504664
 20
1248.855998802537
 30
0.0
 11
-2713.289851713305
 21
1248.855998802537
 31
0.0
  0
LINE
  5
3A0
330
1F
100
AcDbEntity
  8
3-3
  6
Continuous
 62
     4
370
     9
100
AcDbLine
 10
-2526.62318504664
 20
1248.855998802537
 30
0.0
 11
-2533.289851713307
 21
1248.855998802537
 31
0.0
  0
LINE
  5
3A1
330
1F
100
AcDbEntity
  8
3-3
  6
JWW_DASHED1
 62
     4
370
     9
100
AcDbLine
 10
-2706.62318504664
 20
1168.856232102939
 30
0.0
 11
-2706.62318504664
 21
1088.856136465484
 31
0.0
  0
LINE
  5
3A2
330
1F
100
AcDbEntity
  8
3-3
  6
JWW_DASHED1
 62
     4
370
     9
100
AcDbLine
 10
-2713.289851713307
 20
1168.856232102939
 30
0.0
 11
-2713.289851713307
 21
1088.856136465484
 31
0.0
  0
LINE
  5
3A3
330
1F
100
AcDbEntity
  8
3-3
  6
JWW_DASHED1
 62
     4
370
     9
100
AcDbLine
 10
-2526.62318504664
 20
1168.856232102939
 30
0.0
 11
-2526.62318504664
 21
1088.856136465484
 31
0.0
  0
LINE
  5
3A4
330
1F
100
AcDbEntity
  8
3-3
  6
JWW_DASHED1
 62
     4
370
     9
100
AcDbLine
 10
-2533.289851713307
 20
1168.856232102939
 30
0.0
 11
-2533.289851713307
 21
1088.856136465484
 31
0.0
  0
LINE
  5
3A5
330
1F
100
AcDbEntity
  8
3-3
  6
JWW_DASHED1
 62
     4
370
     9
100
AcDbLine
 10
-2526.62318504664
 20
1088.856136465484
 30
0.0
 11
-2713.289851713307
 21
1088.856136465484
 31
0.0
  0
LINE
  5
3A6
330
1F
100
AcDbEntity
  8
3-1
  6
JWW_DASHED3
 62
     2
370
     9
100
AcDbLine
 10
-2626.62315146552
 20
1098.855961490182
 30
0.0
 11
-2626.62315146552
 21
98.85637860302609
 31
0.0
  0
LINE
  5
3A7
330
1F
100
AcDbEntity
  8
3-1
  6
JWW_DASHED3
 62
     2
370
     9
100
AcDbLine
 10
-1626.623218627756
 20
1098.855961490182
 30
0.0
 11
-1626.623218627756
 21
98.85637860302609
 31
0.0
  0
LINE
  5
3A8
330
1F
100
AcDbEntity
  8
3-2
  6
Continuous
 62
     3
370
     9
100
AcDbLine
 10
-2766.62318504664
 20
1168.856232102939
 30
0.0
 11
-1486.623185046639
 21
1168.856232102939
 31
0.0
  0
LINE
  5
3A9
330
1F
100
AcDbEntity
  8
3-2
  6
Continuous
 62
     3
370
     9
100
AcDbLine
 10
-2766.62318504664
 20
1158.856232102939
 30
0.0
 11
-1486.623185046639
 21
1158.856232102939
 31
0.0
  0
LINE
  5
3AA
330
1F
100
AcDbEntity
  8
3-1
  6
JWW_DASHED3
 62
     2
370
     9
100
AcDbLine
 10
-2626.62315146552
 20
1098.855961490182
 30
0.0
 11
-1626.623218627757
 21
1098.855961490182
 31
0.0
  0
LINE
  5
3AB
330
1F
100
AcDbEntity
  8
3-2
  6
Continuous
 62
     3
370
     9
100
AcDbLine
 10
-2766.62318504664
 20
38.85610799026878
 30
0.0
 11
-1486.623185046639
 21
38.85610799026878
 31
0.0
  0
LINE
  5
3AC
330
1F
100
AcDbEntity
  8
3-2
  6
Continuous
 62
     3
370
     9
100
AcDbLine
 10
-2766.62318504664
 20
28.85610799026878
 30
0.0
 11
-1486.623185046639
 21
28.85610799026878
 31
0.0
  0
LINE
  5
3AD
330
1F
100
AcDbEntity
  8
3-1
  6
JWW_DASHED3
 62
     2
370
     9
100
AcDbLine
 10
-2626.62315146552
 20
98.85637860302609
 30
0.0
 11
-1626.623218627757
 21
98.85637860302609
 31
0.0
  0
LINE
  5
3AE
330
1F
100
AcDbEntity
  8
3-2
  6
Continuous
 62
     3
370
     9
100
AcDbLine
 10
-2493.290193755059
 20
517.3409475302906
 30
0.0
 11
-2493.290193755059
 21
680.3713925629152
 31
0.0
  0
LINE
  5
3AF
330
1F
100
AcDbEntity
  8
3-2
  6
Continuous
 62
     3
370
     9
100
AcDbLine
 10
-2393.290058252299
 20
680.3713925629152
 30
0.0
 11
-2393.290058252299
 21
517.3409475302906
 31
0.0
  0
LINE
  5
3B0
330
1F
100
AcDbEntity
  8
3-2
  6
Continuous
 62
     3
370
     9
100
AcDbLine
 10
-2393.290058252299
 20
678.7047258962484
 30
0.0
 11
-2493.290193755059
 21
678.7047258962484
 31
0.0
  0
LINE
  5
3B1
330
1F
100
AcDbEntity
  8
3-2
  6
Continuous
 62
     3
370
     9
100
AcDbLine
 10
-2393.290058252299
 20
680.3713925629152
 30
0.0
 11
-2493.290193755059
 21
680.3713925629152
 31
0.0
  0
LINE
  5
3B2
330
1F
100
AcDbEntity
  8
3-2
  6
Continuous
 62
     3
370
     9
100
AcDbLine
 10
-2393.290058252299
 20
626.7429213925527
 30
0.0
 11
-2493.290193755059
 21
626.7429213925527
 31
0.0
  0
LINE
  5
3B3
330
1F
100
AcDbEntity
  8
3-2
  6
Continuous
 62
     3
370
     9
100
AcDbLine
 10
-2393.290058252299
 20
517.3409475302906
 30
0.0
 11
-2493.290193755059
 21
517.3409475302906
 31
0.0
  0
LINE
  5
3B4
330
1F
100
AcDbEntity
  8
3-2
  6
Continuous
 62
     3
370
     9
100
AcDbLine
 10
-2393.290058252299
 20
519.0076141969573
 30
0.0
 11
-2493.290193755059
 21
519.0076141969573
 31
0.0
  0
LINE
  5
3B5
330
1F
100
AcDbEntity
  8
3-2
  6
Continuous
 62
     3
370
     9
100
AcDbLine
 10
-2393.290058252299
 20
570.969418700656
 30
0.0
 11
-2493.290193755059
 21
570.969418700656
 31
0.0
  0
LINE
  5
3B6
330
1F
100
AcDbEntity
  8
3-2
  6
Continuous
 62
     3
370
     9
100
AcDbLine
 10
-1759.95617633822
 20
517.3409475302906
 30
0.0
 11
-1759.95617633822
 21
680.3713925629152
 31
0.0
  0
LINE
  5
3B7
330
1F
100
AcDbEntity
  8
3-2
  6
Continuous
 62
     3
370
     9
100
AcDbLine
 10
-1859.95631184098
 20
680.3713925629152
 30
0.0
 11
-1859.95631184098
 21
517.3409475302906
 31
0.0
  0
LINE
  5
3B8
330
1F
100
AcDbEntity
  8
3-2
  6
Continuous
 62
     3
370
     9
100
AcDbLine
 10
-1859.95631184098
 20
678.7047258962484
 30
0.0
 11
-1759.95617633822
 21
678.7047258962484
 31
0.0
  0
LINE
  5
3B9
330
1F
100
AcDbEntity
  8
3-2
  6
Continuous
 62
     3
370
     9
100
AcDbLine
 10
-1859.95631184098
 20
680.3713925629152
 30
0.0
 11
-1759.95617633822
 21
680.3713925629152
 31
0.0
  0
LINE
  5
3BA
330
1F
100
AcDbEntity
  8
3-2
  6
Continuous
 62
     3
370
     9
100
AcDbLine
 10
-1859.95631184098
 20
626.7429213925527
 30
0.0
 11
-1759.95617633822
 21
626.7429213925527
 31
0.0
  0
LINE
  5
3BB
330
1F
100
AcDbEntity
  8
3-2
  6
Continuous
 62
     3
370
     9
100
AcDbLine
 10
-1859.95631184098
 20
517.3409475302906
 30
0.0
 11
-1759.95617633822
 21
517.3409475302906
 31
0.0
  0
LINE
  5
3BC
330
1F
100
AcDbEntity
  8
3-2
  6
Continuous
 62
     3
370
     9
100
AcDbLine
 10
-1859.95631184098
 20
519.0076141969573
 30
0.0
 11
-1759.95617633822
 21
519.0076141969573
 31
0.0
  0
LINE
  5
3BD
330
1F
100
AcDbEntity
  8
3-2
  6
Continuous
 62
     3
370
     9
100
AcDbLine
 10
-1859.95631184098
 20
570.969418700656
 30
0.0
 11
-1759.95617633822
 21
570.969418700656
 31
0.0
  0
LINE
  5
3BE
330
1F
100
AcDbEntity
  8
3-A
  6
Continuous
 62
     6
370
     9
100
AcDbLine
 10
-2776.62318504664
 20
1218.856582053548
 30
0.0
 11
-1476.623185046639
 21
1218.856582053548
 31
0.0
  0
LINE
  5
3BF
330
1F
100
AcDbEntity
  8
3-A
  6
Continuous
 62
     6
370
     9
100
AcDbLine
 10
-2766.62318504664
 20
1205.523248720214
 30
0.0
 11
-1486.623185046639
 21
1205.523248720214
 31
0.0
  0
LINE
  5
3C0
330
1F
100
AcDbEntity
  8
3-A
  6
Continuous
 62
     6
370
     9
100
AcDbLine
 10
-2776.62318504664
 20
-21.14371703442828
 30
0.0
 11
-1476.623185046639
 21
-21.14371703442828
 31
0.0
  0
LINE
  5
3C1
330
1F
100
AcDbEntity
  8
3-A
  6
Continuous
 62
     6
370
     9
100
AcDbLine
 10
-2766.62318504664
 20
-7.810383701095134
 30
0.0
 11
-1486.623185046639
 21
-7.810383701095134
 31
0.0
  0
LINE
  5
3C2
330
1F
100
AcDbEntity
  8
3-2
  6
Continuous
 62
     3
370
     9
100
AcDbLine
 10
-2766.62318504664
 20
1218.856582053548
 30
0.0
 11
-2766.62318504664
 21
-21.14371703442828
 31
0.0
  0
LINE
  5
3C3
330
1F
100
AcDbEntity
  8
3-2
  6
Continuous
 62
     3
370
     9
100
AcDbLine
 10
-2776.62318504664
 20
1218.856582053548
 30
0.0
 11
-2776.62318504664
 21
-21.14371703442828
 31
0.0
  0
LINE
  5
3C4
330
1F
100
AcDbEntity
  8
3-2
  6
Continuous
 62
     3
370
     9
100
AcDbLine
 10
-1486.623185046639
 20
1218.856582053548
 30
0.0
 11
-1486.623185046639
 21
-21.14371703442828
 31
0.0
  0
LINE
  5
3C5
330
1F
100
AcDbEntity
  8
3-2
  6
Continuous
 62
     3
370
     9
100
AcDbLine
 10
-1476.623185046639
 20
1218.856582053548
 30
0.0
 11
-1476.623185046639
 21
-21.14371703442828
 31
0.0
  0
LINE
  5
3C6
330
1F
100
AcDbEntity
  8
3-3
  6
Continuous
 62
     4
370
     9
100
AcDbLine
 10
-2706.62318504664
 20
1233.856136465484
 30
0.0
 11
-2533.289851713307
 21
1233.856136465484
 31
0.0
  0
LINE
  5
3C7
330
1F
100
AcDbEntity
  8
3-3
  6
Continuous
 62
     4
370
     9
100
AcDbLine
 10
-2713.289851713305
 20
1248.855998802537
 30
0.0
 11
-2713.289851713305
 21
1218.856582053548
 31
0.0
  0
LINE
  5
3C8
330
1F
100
AcDbEntity
  8
3-3
  6
Continuous
 62
     4
370
     9
100
AcDbLine
 10
-2706.62318504664
 20
1248.855998802537
 30
0.0
 11
-2706.62318504664
 21
1218.856582053548
 31
0.0
  0
LINE
  5
3C9
330
1F
100
AcDbEntity
  8
3-3
  6
JWW_DASHED1
 62
     4
370
     9
100
AcDbLine
 10
-2713.289851713305
 20
1218.856582053548
 30
0.0
 11
-2713.289851713305
 21
1205.523248720214
 31
0.0
  0
LINE
  5
3CA
330
1F
100
AcDbEntity
  8
3-3
  6
JWW_DASHED1
 62
     4
370
     9
100
AcDbLine
 10
-2706.62318504664
 20
1218.856582053548
 30
0.0
 11
-2706.62318504664
 21
1205.523248720214
 31
0.0
  0
LINE
  5
3CB
330
1F
100
AcDbEntity
  8
3-3
  6
Continuous
 62
     4
370
     9
100
AcDbLine
 10
-2706.62318504664
 20
1205.523248720214
 30
0.0
 11
-2706.62318504664
 21
1168.856232102939
 31
0.0
  0
LINE
  5
3CC
330
1F
100
AcDbEntity
  8
3-3
  6
Continuous
 62
     4
370
     9
100
AcDbLine
 10
-2713.289851713305
 20
1205.523248720214
 30
0.0
 11
-2713.289851713305
 21
1168.856232102939
 31
0.0
  0
LINE
  5
3CD
330
1F
100
AcDbEntity
  8
3-3
  6
Continuous
 62
     4
370
     9
100
AcDbLine
 10
-2533.289851713307
 20
1248.855998802537
 30
0.0
 11
-2533.289851713307
 21
1218.856582053548
 31
0.0
  0
LINE
  5
3CE
330
1F
100
AcDbEntity
  8
3-3
  6
Continuous
 62
     4
370
     9
100
AcDbLine
 10
-2526.62318504664
 20
1248.855998802537
 30
0.0
 11
-2526.62318504664
 21
1218.856582053548
 31
0.0
  0
LINE
  5
3CF
330
1F
100
AcDbEntity
  8
3-3
  6
JWW_DASHED1
 62
     4
370
     9
100
AcDbLine
 10
-2526.62318504664
 20
1218.856582053548
 30
0.0
 11
-2526.62318504664
 21
1205.523248720214
 31
0.0
  0
LINE
  5
3D0
330
1F
100
AcDbEntity
  8
3-3
  6
JWW_DASHED1
 62
     4
370
     9
100
AcDbLine
 10
-2533.289851713307
 20
1218.856582053548
 30
0.0
 11
-2533.289851713307
 21
1205.523248720214
 31
0.0
  0
LINE
  5
3D1
330
1F
100
AcDbEntity
  8
3-3
  6
Continuous
 62
     4
370
     9
100
AcDbLine
 10
-2526.62318504664
 20
1205.523248720214
 30
0.0
 11
-2526.62318504664
 21
1168.856232102939
 31
0.0
  0
LINE
  5
3D2
330
1F
100
AcDbEntity
  8
3-3
  6
Continuous
 62
     4
370
     9
100
AcDbLine
 10
-2533.289851713307
 20
1205.523248720214
 30
0.0
 11
-2533.289851713307
 21
1168.856232102939
 31
0.0
  0
LINE
  5
3D3
330
1F
100
AcDbEntity
  8
3-3
  6
Continuous
 62
     4
370
     9
100
AcDbLine
 10
-2213.289851713307
 20
1248.855998802537
 30
0.0
 11
-2219.956518379972
 21
1248.855998802537
 31
0.0
  0
LINE
  5
3D4
330
1F
100
AcDbEntity
  8
3-3
  6
Continuous
 62
     4
370
     9
100
AcDbLine
 10
-2033.289851713307
 20
1248.855998802537
 30
0.0
 11
-2039.956518379973
 21
1248.855998802537
 31
0.0
  0
LINE
  5
3D5
330
1F
100
AcDbEntity
  8
3-3
  6
JWW_DASHED1
 62
     4
370
     9
100
AcDbLine
 10
-2213.289851713307
 20
1168.856232102939
 30
0.0
 11
-2213.289851713307
 21
1088.856136465484
 31
0.0
  0
LINE
  5
3D6
330
1F
100
AcDbEntity
  8
3-3
  6
JWW_DASHED1
 62
     4
370
     9
100
AcDbLine
 10
-2219.956518379973
 20
1168.856232102939
 30
0.0
 11
-2219.956518379973
 21
1088.856136465484
 31
0.0
  0
LINE
  5
3D7
330
1F
100
AcDbEntity
  8
3-3
  6
JWW_DASHED1
 62
     4
370
     9
100
AcDbLine
 10
-2033.289851713307
 20
1168.856232102939
 30
0.0
 11
-2033.289851713307
 21
1088.856136465484
 31
0.0
  0
LINE
  5
3D8
330
1F
100
AcDbEntity
  8
3-3
  6
JWW_DASHED1
 62
     4
370
     9
100
AcDbLine
 10
-2039.956518379973
 20
1168.856232102939
 30
0.0
 11
-2039.956518379973
 21
1088.856136465484
 31
0.0
  0
LINE
  5
3D9
330
1F
100
AcDbEntity
  8
3-3
  6
JWW_DASHED1
 62
     4
370
     9
100
AcDbLine
 10
-2033.289851713307
 20
1088.856136465484
 30
0.0
 11
-2219.956518379973
 21
1088.856136465484
 31
0.0
  0
LINE
  5
3DA
330
1F
100
AcDbEntity
  8
3-3
  6
Continuous
 62
     4
370
     9
100
AcDbLine
 10
-2213.289851713307
 20
1233.856136465484
 30
0.0
 11
-2039.956518379973
 21
1233.856136465484
 31
0.0
  0
LINE
  5
3DB
330
1F
100
AcDbEntity
  8
3-3
  6
Continuous
 62
     4
370
     9
100
AcDbLine
 10
-2219.956518379972
 20
1248.855998802537
 30
0.0
 11
-2219.956518379972
 21
1218.856582053548
 31
0.0
  0
LINE
  5
3DC
330
1F
100
AcDbEntity
  8
3-3
  6
Continuous
 62
     4
370
     9
100
AcDbLine
 10
-2213.289851713307
 20
1248.855998802537
 30
0.0
 11
-2213.289851713307
 21
1218.856582053548
 31
0.0
  0
LINE
  5
3DD
330
1F
100
AcDbEntity
  8
3-3
  6
JWW_DASHED1
 62
     4
370
     9
100
AcDbLine
 10
-2219.956518379972
 20
1218.856582053548
 30
0.0
 11
-2219.956518379972
 21
1205.523248720214
 31
0.0
  0
LINE
  5
3DE
330
1F
100
AcDbEntity
  8
3-3
  6
JWW_DASHED1
 62
     4
370
     9
100
AcDbLine
 10
-2213.289851713307
 20
1218.856582053548
 30
0.0
 11
-2213.289851713307
 21
1205.523248720214
 31
0.0
  0
LINE
  5
3DF
330
1F
100
AcDbEntity
  8
3-3
  6
Continuous
 62
     4
370
     9
100
AcDbLine
 10
-2213.289851713307
 20
1205.523248720214
 30
0.0
 11
-2213.289851713307
 21
1168.856232102939
 31
0.0
  0
LINE
  5
3E0
330
1F
100
AcDbEntity
  8
3-3
  6
Continuous
 62
     4
370
     9
100
AcDbLine
 10
-2219.956518379972
 20
1205.523248720214
 30
0.0
 11
-2219.956518379972
 21
1168.856232102939
 31
0.0
  0
LINE
  5
3E1
330
1F
100
AcDbEntity
  8
3-3
  6
Continuous
 62
     4
370
     9
100
AcDbLine
 10
-2039.956518379973
 20
1248.855998802537
 30
0.0
 11
-2039.956518379973
 21
1218.856582053548
 31
0.0
  0
LINE
  5
3E2
330
1F
100
AcDbEntity
  8
3-3
  6
Continuous
 62
     4
370
     9
100
AcDbLine
 10
-2033.289851713307
 20
1248.855998802537
 30
0.0
 11
-2033.289851713307
 21
1218.856582053548
 31
0.0
  0
LINE
  5
3E3
330
1F
100
AcDbEntity
  8
3-3
  6
JWW_DASHED1
 62
     4
370
     9
100
AcDbLine
 10
-2033.289851713307
 20
1218.856582053548
 30
0.0
 11
-2033.289851713307
 21
1205.523248720214
 31
0.0
  0
LINE
  5
3E4
330
1F
100
AcDbEntity
  8
3-3
  6
JWW_DASHED1
 62
     4
370
     9
100
AcDbLine
 10
-2039.956518379973
 20
1218.856582053548
 30
0.0
 11
-2039.956518379973
 21
1205.523248720214
 31
0.0
  0
LINE
  5
3E5
330
1F
100
AcDbEntity
  8
3-3
  6
Continuous
 62
     4
370
     9
100
AcDbLine
 10
-2033.289851713307
 20
1205.523248720214
 30
0.0
 11
-2033.289851713307
 21
1168.856232102939
 31
0.0
  0
LINE
  5
3E6
330
1F
100
AcDbEntity
  8
3-3
  6
Continuous
 62
     4
370
     9
100
AcDbLine
 10
-2039.956518379973
 20
1205.523248720214
 30
0.0
 11
-2039.956518379973
 21
1168.856232102939
 31
0.0
  0
LINE
  5
3E7
330
1F
100
AcDbEntity
  8
3-3
  6
Continuous
 62
     4
370
     9
100
AcDbLine
 10
-1719.956518379972
 20
1248.855998802537
 30
0.0
 11
-1726.623185046637
 21
1248.855998802537
 31
0.0
  0
LINE
  5
3E8
330
1F
100
AcDbEntity
  8
3-3
  6
Continuous
 62
     4
370
     9
100
AcDbLine
 10
-1539.956518379972
 20
1248.855998802537
 30
0.0
 11
-1546.623185046639
 21
1248.855998802537
 31
0.0
  0
LINE
  5
3E9
330
1F
100
AcDbEntity
  8
3-3
  6
JWW_DASHED1
 62
     4
370
     9
100
AcDbLine
 10
-1719.956518379972
 20
1168.856232102939
 30
0.0
 11
-1719.956518379972
 21
1088.856136465484
 31
0.0
  0
LINE
  5
3EA
330
1F
100
AcDbEntity
  8
3-3
  6
JWW_DASHED1
 62
     4
370
     9
100
AcDbLine
 10
-1726.623185046639
 20
1168.856232102939
 30
0.0
 11
-1726.623185046639
 21
1088.856136465484
 31
0.0
  0
LINE
  5
3EB
330
1F
100
AcDbEntity
  8
3-3
  6
JWW_DASHED1
 62
     4
370
     9
100
AcDbLine
 10
-1539.956518379972
 20
1168.856232102939
 30
0.0
 11
-1539.956518379972
 21
1088.856136465484
 31
0.0
  0
LINE
  5
3EC
330
1F
100
AcDbEntity
  8
3-3
  6
JWW_DASHED1
 62
     4
370
     9
100
AcDbLine
 10
-1546.623185046639
 20
1168.856232102939
 30
0.0
 11
-1546.623185046639
 21
1088.856136465484
 31
0.0
  0
LINE
  5
3ED
330
1F
100
AcDbEntity
  8
3-3
  6
JWW_DASHED1
 62
     4
370
     9
100
AcDbLine
 10
-1539.956518379972
 20
1088.856136465484
 30
0.0
 11
-1726.623185046639
 21
1088.856136465484
 31
0.0
  0
LINE
  5
3EE
330
1F
100
AcDbEntity
  8
3-3
  6
Continuous
 62
     4
370
     9
100
AcDbLine
 10
-1719.956518379972
 20
1233.856136465484
 30
0.0
 11
-1546.623185046639
 21
1233.856136465484
 31
0.0
  0
LINE
  5
3EF
330
1F
100
AcDbEntity
  8
3-3
  6
Continuous
 62
     4
370
     9
100
AcDbLine
 10
-1726.623185046637
 20
1248.855998802537
 30
0.0
 11
-1726.623185046637
 21
1218.856582053548
 31
0.0
  0
LINE
  5
3F0
330
1F
100
AcDbEntity
  8
3-3
  6
Continuous
 62
     4
370
     9
100
AcDbLine
 10
-1719.956518379972
 20
1248.855998802537
 30
0.0
 11
-1719.956518379972
 21
1218.856582053548
 31
0.0
  0
LINE
  5
3F1
330
1F
100
AcDbEntity
  8
3-3
  6
JWW_DASHED1
 62
     4
370
     9
100
AcDbLine
 10
-1726.623185046637
 20
1218.856582053548
 30
0.0
 11
-1726.623185046637
 21
1205.523248720214
 31
0.0
  0
LINE
  5
3F2
330
1F
100
AcDbEntity
  8
3-3
  6
JWW_DASHED1
 62
     4
370
     9
100
AcDbLine
 10
-1719.956518379972
 20
1218.856582053548
 30
0.0
 11
-1719.956518379972
 21
1205.523248720214
 31
0.0
  0
LINE
  5
3F3
330
1F
100
AcDbEntity
  8
3-3
  6
Continuous
 62
     4
370
     9
100
AcDbLine
 10
-1719.956518379972
 20
1205.523248720214
 30
0.0
 11
-1719.956518379972
 21
1168.856232102939
 31
0.0
  0
LINE
  5
3F4
330
1F
100
AcDbEntity
  8
3-3
  6
Continuous
 62
     4
370
     9
100
AcDbLine
 10
-1726.623185046637
 20
1205.523248720214
 30
0.0
 11
-1726.623185046637
 21
1168.856232102939
 31
0.0
  0
LINE
  5
3F5
330
1F
100
AcDbEntity
  8
3-3
  6
Continuous
 62
     4
370
     9
100
AcDbLine
 10
-1546.623185046639
 20
1248.855998802537
 30
0.0
 11
-1546.623185046639
 21
1218.856582053548
 31
0.0
  0
LINE
  5
3F6
330
1F
100
AcDbEntity
  8
3-3
  6
Continuous
 62
     4
370
     9
100
AcDbLine
 10
-1539.956518379972
 20
1248.855998802537
 30
0.0
 11
-1539.956518379972
 21
1218.856582053548
 31
0.0
  0
LINE
  5
3F7
330
1F
100
AcDbEntity
  8
3-3
  6
JWW_DASHED1
 62
     4
370
     9
100
AcDbLine
 10
-1539.956518379972
 20
1218.856582053548
 30
0.0
 11
-1539.956518379972
 21
1205.523248720214
 31
0.0
  0
LINE
  5
3F8
330
1F
100
AcDbEntity
  8
3-3
  6
JWW_DASHED1
 62
     4
370
     9
100
AcDbLine
 10
-1546.623185046639
 20
1218.856582053548
 30
0.0
 11
-1546.623185046639
 21
1205.523248720214
 31
0.0
  0
LINE
  5
3F9
330
1F
100
AcDbEntity
  8
3-3
  6
Continuous
 62
     4
370
     9
100
AcDbLine
 10
-1539.956518379972
 20
1205.523248720214
 30
0.0
 11
-1539.956518379972
 21
1168.856232102939
 31
0.0
  0
LINE
  5
3FA
330
1F
100
AcDbEntity
  8
3-3
  6
Continuous
 62
     4
370
     9
100
AcDbLine
 10
-1546.623185046639
 20
1205.523248720214
 30
0.0
 11
-1546.623185046639
 21
1168.856232102939
 31
0.0
  0
LINE
  5
3FB
330
1F
100
AcDbEntity
  8
3-3
  6
Continuous
 62
     4
370
     9
100
AcDbLine
 10
-2706.62318504664
 20
-51.14365870932971
 30
0.0
 11
-2713.289851713305
 21
-51.14365870932971
 31
0.0
  0
LINE
  5
3FC
330
1F
100
AcDbEntity
  8
3-3
  6
Continuous
 62
     4
370
     9
100
AcDbLine
 10
-2526.62318504664
 20
-51.14365870932971
 30
0.0
 11
-2533.289851713307
 21
-51.14365870932971
 31
0.0
  0
LINE
  5
3FD
330
1F
100
AcDbEntity
  8
3-3
  6
JWW_DASHED1
 62
     4
370
     9
100
AcDbLine
 10
-2706.62318504664
 20
28.85610799026722
 30
0.0
 11
-2706.62318504664
 21
108.8562036277219
 31
0.0
  0
LINE
  5
3FE
330
1F
100
AcDbEntity
  8
3-3
  6
JWW_DASHED1
 62
     4
370
     9
100
AcDbLine
 10
-2713.289851713307
 20
28.85610799026722
 30
0.0
 11
-2713.289851713307
 21
108.8562036277219
 31
0.0
  0
LINE
  5
3FF
330
1F
100
AcDbEntity
  8
3-3
  6
JWW_DASHED1
 62
     4
370
     9
100
AcDbLine
 10
-2526.62318504664
 20
28.85610799026722
 30
0.0
 11
-2526.62318504664
 21
108.8562036277219
 31
0.0
  0
LINE
  5
400
330
1F
100
AcDbEntity
  8
3-3
  6
JWW_DASHED1
 62
     4
370
     9
100
AcDbLine
 10
-2533.289851713307
 20
28.85610799026722
 30
0.0
 11
-2533.289851713307
 21
108.8562036277219
 31
0.0
  0
LINE
  5
401
330
1F
100
AcDbEntity
  8
3-3
  6
JWW_DASHED1
 62
     4
370
     9
100
AcDbLine
 10
-2526.62318504664
 20
108.8562036277219
 30
0.0
 11
-2713.289851713307
 21
108.8562036277219
 31
0.0
  0
LINE
  5
402
330
1F
100
AcDbEntity
  8
3-3
  6
Continuous
 62
     4
370
     9
100
AcDbLine
 10
-2706.62318504664
 20
-36.14379637227813
 30
0.0
 11
-2533.289851713307
 21
-36.14379637227813
 31
0.0
  0
LINE
  5
403
330
1F
100
AcDbEntity
  8
3-3
  6
Continuous
 62
     4
370
     9
100
AcDbLine
 10
-2713.289851713305
 20
-51.14365870932971
 30
0.0
 11
-2713.289851713305
 21
-21.1442419603398
 31
0.0
  0
LINE
  5
404
330
1F
100
AcDbEntity
  8
3-3
  6
Continuous
 62
     4
370
     9
100
AcDbLine
 10
-2706.62318504664
 20
-51.14365870932971
 30
0.0
 11
-2706.62318504664
 21
-21.1442419603398
 31
0.0
  0
LINE
  5
405
330
1F
100
AcDbEntity
  8
3-3
  6
JWW_DASHED1
 62
     4
370
     9
100
AcDbLine
 10
-2713.289851713305
 20
-21.1442419603398
 30
0.0
 11
-2713.289851713305
 21
-7.810908627006512
 31
0.0
  0
LINE
  5
406
330
1F
100
AcDbEntity
  8
3-3
  6
JWW_DASHED1
 62
     4
370
     9
100
AcDbLine
 10
-2706.62318504664
 20
-21.1442419603398
 30
0.0
 11
-2706.62318504664
 21
-7.810908627006512
 31
0.0
  0
LINE
  5
407
330
1F
100
AcDbEntity
  8
3-3
  6
Continuous
 62
     4
370
     9
100
AcDbLine
 10
-2706.62318504664
 20
-7.810908627006512
 30
0.0
 11
-2706.62318504664
 21
28.85610799026722
 31
0.0
  0
LINE
  5
408
330
1F
100
AcDbEntity
  8
3-3
  6
Continuous
 62
     4
370
     9
100
AcDbLine
 10
-2713.289851713305
 20
-7.810908627006512
 30
0.0
 11
-2713.289851713305
 21
28.85610799026722
 31
0.0
  0
LINE
  5
409
330
1F
100
AcDbEntity
  8
3-3
  6
Continuous
 62
     4
370
     9
100
AcDbLine
 10
-2533.289851713307
 20
-51.14365870932971
 30
0.0
 11
-2533.289851713307
 21
-21.1442419603398
 31
0.0
  0
LINE
  5
40A
330
1F
100
AcDbEntity
  8
3-3
  6
Continuous
 62
     4
370
     9
100
AcDbLine
 10
-2526.62318504664
 20
-51.14365870932971
 30
0.0
 11
-2526.62318504664
 21
-21.1442419603398
 31
0.0
  0
LINE
  5
40B
330
1F
100
AcDbEntity
  8
3-3
  6
JWW_DASHED1
 62
     4
370
     9
100
AcDbLine
 10
-2526.62318504664
 20
-21.1442419603398
 30
0.0
 11
-2526.62318504664
 21
-7.810908627006512
 31
0.0
  0
LINE
  5
40C
330
1F
100
AcDbEntity
  8
3-3
  6
JWW_DASHED1
 62
     4
370
     9
100
AcDbLine
 10
-2533.289851713307
 20
-21.1442419603398
 30
0.0
 11
-2533.289851713307
 21
-7.810908627006512
 31
0.0
  0
LINE
  5
40D
330
1F
100
AcDbEntity
  8
3-3
  6
Continuous
 62
     4
370
     9
100
AcDbLine
 10
-2526.62318504664
 20
-7.810908627006512
 30
0.0
 11
-2526.62318504664
 21
28.85610799026722
 31
0.0
  0
LINE
  5
40E
330
1F
100
AcDbEntity
  8
3-3
  6
Continuous
 62
     4
370
     9
100
AcDbLine
 10
-2533.289851713307
 20
-7.810908627006512
 30
0.0
 11
-2533.289851713307
 21
28.85610799026722
 31
0.0
  0
LINE
  5
40F
330
1F
100
AcDbEntity
  8
3-3
  6
Continuous
 62
     4
370
     9
100
AcDbLine
 10
-2213.289851713307
 20
-51.14365870932971
 30
0.0
 11
-2219.956518379972
 21
-51.14365870932971
 31
0.0
  0
LINE
  5
410
330
1F
100
AcDbEntity
  8
3-3
  6
Continuous
 62
     4
370
     9
100
AcDbLine
 10
-2033.289851713307
 20
-51.14365870932971
 30
0.0
 11
-2039.956518379973
 21
-51.14365870932971
 31
0.0
  0
LINE
  5
411
330
1F
100
AcDbEntity
  8
3-3
  6
JWW_DASHED1
 62
     4
370
     9
100
AcDbLine
 10
-2213.289851713307
 20
28.85610799026722
 30
0.0
 11
-2213.289851713307
 21
108.8562036277219
 31
0.0
  0
LINE
  5
412
330
1F
100
AcDbEntity
  8
3-3
  6
JWW_DASHED1
 62
     4
370
     9
100
AcDbLine
 10
-2219.956518379973
 20
28.85610799026722
 30
0.0
 11
-2219.956518379973
 21
108.8562036277219
 31
0.0
  0
LINE
  5
413
330
1F
100
AcDbEntity
  8
3-3
  6
JWW_DASHED1
 62
     4
370
     9
100
AcDbLine
 10
-2033.289851713307
 20
28.85610799026722
 30
0.0
 11
-2033.289851713307
 21
108.8562036277219
 31
0.0
  0
LINE
  5
414
330
1F
100
AcDbEntity
  8
3-3
  6
JWW_DASHED1
 62
     4
370
     9
100
AcDbLine
 10
-2039.956518379973
 20
28.85610799026722
 30
0.0
 11
-2039.956518379973
 21
108.8562036277219
 31
0.0
  0
LINE
  5
415
330
1F
100
AcDbEntity
  8
3-3
  6
JWW_DASHED1
 62
     4
370
     9
100
AcDbLine
 10
-2033.289851713307
 20
108.8562036277219
 30
0.0
 11
-2219.956518379973
 21
108.8562036277219
 31
0.0
  0
LINE
  5
416
330
1F
100
AcDbEntity
  8
3-3
  6
Continuous
 62
     4
370
     9
100
AcDbLine
 10
-2213.289851713307
 20
-36.14379637227813
 30
0.0
 11
-2039.956518379973
 21
-36.14379637227813
 31
0.0
  0
LINE
  5
417
330
1F
100
AcDbEntity
  8
3-3
  6
Continuous
 62
     4
370
     9
100
AcDbLine
 10
-2219.956518379972
 20
-51.14365870932971
 30
0.0
 11
-2219.956518379972
 21
-21.1442419603398
 31
0.0
  0
LINE
  5
418
330
1F
100
AcDbEntity
  8
3-3
  6
Continuous
 62
     4
370
     9
100
AcDbLine
 10
-2213.289851713307
 20
-51.14365870932971
 30
0.0
 11
-2213.289851713307
 21
-21.1442419603398
 31
0.0
  0
LINE
  5
419
330
1F
100
AcDbEntity
  8
3-3
  6
JWW_DASHED1
 62
     4
370
     9
100
AcDbLine
 10
-2219.956518379972
 20
-21.1442419603398
 30
0.0
 11
-2219.956518379972
 21
-7.810908627006512
 31
0.0
  0
LINE
  5
41A
330
1F
100
AcDbEntity
  8
3-3
  6
JWW_DASHED1
 62
     4
370
     9
100
AcDbLine
 10
-2213.289851713307
 20
-21.1442419603398
 30
0.0
 11
-2213.289851713307
 21
-7.810908627006512
 31
0.0
  0
LINE
  5
41B
330
1F
100
AcDbEntity
  8
3-3
  6
Continuous
 62
     4
370
     9
100
AcDbLine
 10
-2213.289851713307
 20
-7.810908627006512
 30
0.0
 11
-2213.289851713307
 21
28.85610799026722
 31
0.0
  0
LINE
  5
41C
330
1F
100
AcDbEntity
  8
3-3
  6
Continuous
 62
     4
370
     9
100
AcDbLine
 10
-2219.956518379972
 20
-7.810908627006512
 30
0.0
 11
-2219.956518379972
 21
28.85610799026722
 31
0.0
  0
LINE
  5
41D
330
1F
100
AcDbEntity
  8
3-3
  6
Continuous
 62
     4
370
     9
100
AcDbLine
 10
-2039.956518379973
 20
-51.14365870932971
 30
0.0
 11
-2039.956518379973
 21
-21.1442419603398
 31
0.0
  0
LINE
  5
41E
330
1F
100
AcDbEntity
  8
3-3
  6
Continuous
 62
     4
370
     9
100
AcDbLine
 10
-2033.289851713307
 20
-51.14365870932971
 30
0.0
 11
-2033.289851713307
 21
-21.1442419603398
 31
0.0
  0
LINE
  5
41F
330
1F
100
AcDbEntity
  8
3-3
  6
JWW_DASHED1
 62
     4
370
     9
100
AcDbLine
 10
-2033.289851713307
 20
-21.1442419603398
 30
0.0
 11
-2033.289851713307
 21
-7.810908627006512
 31
0.0
  0
LINE
  5
420
330
1F
100
AcDbEntity
  8
3-3
  6
JWW_DASHED1
 62
     4
370
     9
100
AcDbLine
 10
-2039.956518379973
 20
-21.1442419603398
 30
0.0
 11
-2039.956518379973
 21
-7.810908627006512
 31
0.0
  0
LINE
  5
421
330
1F
100
AcDbEntity
  8
3-3
  6
Continuous
 62
     4
370
     9
100
AcDbLine
 10
-2033.289851713307
 20
-7.810908627006512
 30
0.0
 11
-2033.289851713307
 21
28.85610799026722
 31
0.0
  0
LINE
  5
422
330
1F
100
AcDbEntity
  8
3-3
  6
Continuous
 62
     4
370
     9
100
AcDbLine
 10
-2039.956518379973
 20
-7.810908627006512
 30
0.0
 11
-2039.956518379973
 21
28.85610799026722
 31
0.0
  0
LINE
  5
423
330
1F
100
AcDbEntity
  8
3-3
  6
Continuous
 62
     4
370
     9
100
AcDbLine
 10
-1719.956518379972
 20
-51.14365870932971
 30
0.0
 11
-1726.623185046637
 21
-51.14365870932971
 31
0.0
  0
LINE
  5
424
330
1F
100
AcDbEntity
  8
3-3
  6
Continuous
 62
     4
370
     9
100
AcDbLine
 10
-1539.956518379972
 20
-51.14365870932971
 30
0.0
 11
-1546.623185046639
 21
-51.14365870932971
 31
0.0
  0
LINE
  5
425
330
1F
100
AcDbEntity
  8
3-3
  6
JWW_DASHED1
 62
     4
370
     9
100
AcDbLine
 10
-1719.956518379972
 20
28.85610799026722
 30
0.0
 11
-1719.956518379972
 21
108.8562036277219
 31
0.0
  0
LINE
  5
426
330
1F
100
AcDbEntity
  8
3-3
  6
JWW_DASHED1
 62
     4
370
     9
100
AcDbLine
 10
-1726.623185046639
 20
28.85610799026722
 30
0.0
 11
-1726.623185046639
 21
108.8562036277219
 31
0.0
  0
LINE
  5
427
330
1F
100
AcDbEntity
  8
3-3
  6
JWW_DASHED1
 62
     4
370
     9
100
AcDbLine
 10
-1539.956518379972
 20
28.85610799026722
 30
0.0
 11
-1539.956518379972
 21
108.8562036277219
 31
0.0
  0
LINE
  5
428
330
1F
100
AcDbEntity
  8
3-3
  6
JWW_DASHED1
 62
     4
370
     9
100
AcDbLine
 10
-1546.623185046639
 20
28.85610799026722
 30
0.0
 11
-1546.623185046639
 21
108.8562036277219
 31
0.0
  0
LINE
  5
429
330
1F
100
AcDbEntity
  8
3-3
  6
JWW_DASHED1
 62
     4
370
     9
100
AcDbLine
 10
-1539.956518379972
 20
108.8562036277219
 30
0.0
 11
-1726.623185046639
 21
108.8562036277219
 31
0.0
  0
LINE
  5
42A
330
1F
100
AcDbEntity
  8
3-3
  6
Continuous
 62
     4
370
     9
100
AcDbLine
 10
-1719.956518379972
 20
-36.14379637227813
 30
0.0
 11
-1546.623185046639
 21
-36.14379637227813
 31
0.0
  0
LINE
  5
42B
330
1F
100
AcDbEntity
  8
3-3
  6
Continuous
 62
     4
370
     9
100
AcDbLine
 10
-1726.623185046637
 20
-51.14365870932971
 30
0.0
 11
-1726.623185046637
 21
-21.1442419603398
 31
0.0
  0
LINE
  5
42C
330
1F
100
AcDbEntity
  8
3-3
  6
Continuous
 62
     4
370
     9
100
AcDbLine
 10
-1719.956518379972
 20
-51.14365870932971
 30
0.0
 11
-1719.956518379972
 21
-21.1442419603398
 31
0.0
  0
LINE
  5
42D
330
1F
100
AcDbEntity
  8
3-3
  6
JWW_DASHED1
 62
     4
370
     9
100
AcDbLine
 10
-1726.623185046637
 20
-21.1442419603398
 30
0.0
 11
-1726.623185046637
 21
-7.810908627006512
 31
0.0
  0
LINE
  5
42E
330
1F
100
AcDbEntity
  8
3-3
  6
JWW_DASHED1
 62
     4
370
     9
100
AcDbLine
 10
-1719.956518379972
 20
-21.1442419603398
 30
0.0
 11
-1719.956518379972
 21
-7.810908627006512
 31
0.0
  0
LINE
  5
42F
330
1F
100
AcDbEntity
  8
3-3
  6
Continuous
 62
     4
370
     9
100
AcDbLine
 10
-1719.956518379972
 20
-7.810908627006512
 30
0.0
 11
-1719.956518379972
 21
28.85610799026722
 31
0.0
  0
LINE
  5
430
330
1F
100
AcDbEntity
  8
3-3
  6
Continuous
 62
     4
370
     9
100
AcDbLine
 10
-1726.623185046637
 20
-7.810908627006512
 30
0.0
 11
-1726.623185046637
 21
28.85610799026722
 31
0.0
  0
LINE
  5
431
330
1F
100
AcDbEntity
  8
3-3
  6
Continuous
 62
     4
370
     9
100
AcDbLine
 10
-1546.623185046639
 20
-51.14365870932971
 30
0.0
 11
-1546.623185046639
 21
-21.1442419603398
 31
0.0
  0
LINE
  5
432
330
1F
100
AcDbEntity
  8
3-3
  6
Continuous
 62
     4
370
     9
100
AcDbLine
 10
-1539.956518379972
 20
-51.14365870932971
 30
0.0
 11
-1539.956518379972
 21
-21.1442419603398
 31
0.0
  0
LINE
  5
433
330
1F
100
AcDbEntity
  8
3-3
  6
JWW_DASHED1
 62
     4
370
     9
100
AcDbLine
 10
-1539.956518379972
 20
-21.1442419603398
 30
0.0
 11
-1539.956518379972
 21
-7.810908627006512
 31
0.0
  0
LINE
  5
434
330
1F
100
AcDbEntity
  8
3-3
  6
JWW_DASHED1
 62
     4
370
     9
100
AcDbLine
 10
-1546.623185046639
 20
-21.1442419603398
 30
0.0
 11
-1546.623185046639
 21
-7.810908627006512
 31
0.0
  0
LINE
  5
435
330
1F
100
AcDbEntity
  8
3-3
  6
Continuous
 62
     4
370
     9
100
AcDbLine
 10
-1539.956518379972
 20
-7.810908627006512
 30
0.0
 11
-1539.956518379972
 21
28.85610799026722
 31
0.0
  0
LINE
  5
436
330
1F
100
AcDbEntity
  8
3-3
  6
Continuous
 62
     4
370
     9
100
AcDbLine
 10
-1546.623185046639
 20
-7.810908627006512
 30
0.0
 11
-1546.623185046639
 21
28.85610799026722
 31
0.0
  0
LINE
  5
437
330
1F
100
AcDbEntity
  8
3-0
  6
JWW_CENTER2
 62
     7
370
     9
100
AcDbLine
 10
-2548.664001373169
 20
598.8561700466028
 30
0.0
 11
-1704.582368720108
 21
598.8561700466028
 31
0.0
  0
LINE
  5
438
330
1F
100
AcDbEntity
  8
3-3
  6
Continuous
 62
     4
370
     9
100
AcDbLine
 10
860.242608396893
 20
-1452.179345724898
 30
0.0
 11
843.5759417302309
 21
-1468.846012391562
 31
0.0
  0
LINE
  5
439
330
1F
100
AcDbEntity
  8
3-3
  6
Continuous
 62
     4
370
     9
100
AcDbLine
 10
846.1004727731613
 20
-1452.179345724898
 30
0.0
 11
829.4338061064961
 21
-1468.846012391562
 31
0.0
  0
LINE
  5
43A
330
1F
100
AcDbEntity
  8
3-3
  6
Continuous
 62
     4
370
     9
100
AcDbLine
 10
831.958337149428
 20
-1452.179345724898
 30
0.0
 11
815.2916704827642
 21
-1468.846012391562
 31
0.0
  0
LINE
  5
43B
330
1F
100
AcDbEntity
  8
3-3
  6
Continuous
 62
     4
370
     9
100
AcDbLine
 10
871.0048879807953
 20
-1455.559201764729
 30
0.0
 11
857.7180773539642
 21
-1468.846012391562
 31
0.0
  0
LINE
  5
43C
330
1F
100
AcDbEntity
  8
3-3
  6
Continuous
 62
     4
370
     9
100
AcDbLine
 10
817.8162015256946
 20
-1452.179345724898
 30
0.0
 11
804.3382213141301
 21
-1465.657325936463
 31
0.0
  0
LINE
  5
43D
330
1F
100
AcDbEntity
  8
3-3
  6
Continuous
 62
     4
370
     9
100
AcDbLine
 10
771.0048879807966
 20
-1460.512679058231
 30
0.0
 11
771.0048879807966
 21
-1453.846012391565
 31
0.0
  0
LINE
  5
43E
330
1F
100
AcDbEntity
  8
3-3
  6
Continuous
 62
     4
370
     9
100
AcDbLine
 10
871.0048879807966
 20
-1460.512679058231
 30
0.0
 11
916.0048879807966
 21
-1460.512679058231
 31
0.0
  0
LINE
  5
43F
330
1F
100
AcDbEntity
  8
3-3
  6
Continuous
 62
     4
370
     9
100
AcDbLine
 10
916.0048879807966
 20
-1460.512679058231
 30
0.0
 11
916.0048879807966
 21
-1407.179372039927
 31
0.0
  0
ARC
  5
440
330
1F
100
AcDbEntity
  8
3-3
  6
Continuous
 62
     4
370
     9
100
AcDbCircle
 10
793.5048879807966
 20
-1452.179345724898
 30
0.0
 40
1.666666666666667
100
AcDbArc
 50
270.0
 51
0.0
  0
ARC
  5
441
330
1F
100
AcDbEntity
  8
3-3
  6
Continuous
 62
     4
370
     9
100
AcDbCircle
 10
881.8382213141301
 20
-1452.179345724898
 30
0.0
 40
1.666666666666667
100
AcDbArc
 50
180.0
 51
270.0
  0
ARC
  5
442
330
1F
100
AcDbEntity
  8
3-3
  6
Continuous
 62
     4
370
     9
100
AcDbCircle
 10
793.5048879807966
 20
-1452.179345724898
 30
0.0
 40
8.333333333333332
100
AcDbArc
 50
270.0
 51
0.0
  0
ARC
  5
443
330
1F
100
AcDbEntity
  8
3-3
  6
Continuous
 62
     4
370
     9
100
AcDbCircle
 10
803.5048879807966
 20
-1452.179345724898
 30
0.0
 40
8.333333333333332
100
AcDbArc
 50
90.0
 51
180.0
  0
ARC
  5
444
330
1F
100
AcDbEntity
  8
3-3
  6
Continuous
 62
     4
370
     9
100
AcDbCircle
 10
881.8382213141301
 20
-1452.179345724898
 30
0.0
 40
8.333333333333332
100
AcDbArc
 50
180.0
 51
270.0
  0
ARC
  5
445
330
1F
100
AcDbEntity
  8
3-3
  6
Continuous
 62
     4
370
     9
100
AcDbCircle
 10
871.8382213141301
 20
-1452.179345724898
 30
0.0
 40
8.333333333333332
100
AcDbArc
 50
0.0
 51
90.0
  0
LINE
  5
446
330
1F
100
AcDbEntity
  8
3-3
  6
Continuous
 62
     4
370
     9
100
AcDbLine
 10
793.5048879807966
 20
-1460.512679058231
 30
0.0
 11
804.3382213141301
 21
-1460.512679058231
 31
0.0
  0
LINE
  5
447
330
1F
100
AcDbEntity
  8
3-3
  6
Continuous
 62
     4
370
     9
100
AcDbLine
 10
804.3382213141301
 20
-1452.179345724898
 30
0.0
 11
871.0048879807966
 21
-1452.179345724898
 31
0.0
  0
LINE
  5
448
330
1F
100
AcDbEntity
  8
3-3
  6
Continuous
 62
     4
370
     9
100
AcDbLine
 10
871.0048879807966
 20
-1450.512679058231
 30
0.0
 11
871.0048879807966
 21
-1468.846012391565
 31
0.0
  0
LINE
  5
449
330
1F
100
AcDbEntity
  8
3-3
  6
Continuous
 62
     4
370
     9
100
AcDbLine
 10
804.3382213141301
 20
-1450.512679058231
 30
0.0
 11
804.3382213141301
 21
-1468.846012391565
 31
0.0
  0
LINE
  5
44A
330
1F
100
AcDbEntity
  8
3-3
  6
Continuous
 62
     4
370
     9
100
AcDbLine
 10
804.3382213141301
 20
-1451.846012391563
 30
0.0
 11
871.0048879807966
 21
-1451.846012391563
 31
0.0
  0
LINE
  5
44B
330
1F
100
AcDbEntity
  8
3-3
  6
Continuous
 62
     4
370
     9
100
AcDbLine
 10
804.3382213141301
 20
-1451.512679058232
 30
0.0
 11
871.0048879807966
 21
-1451.512679058232
 31
0.0
  0
LINE
  5
44C
330
1F
100
AcDbEntity
  8
3-3
  6
Continuous
 62
     4
370
     9
100
AcDbLine
 10
804.3382213141301
 20
-1451.179345724897
 30
0.0
 11
871.0048879807966
 21
-1451.179345724897
 31
0.0
  0
LINE
  5
44D
330
1F
100
AcDbEntity
  8
3-3
  6
Continuous
 62
     4
370
     9
100
AcDbLine
 10
804.3382213141301
 20
-1450.846012391566
 30
0.0
 11
871.0048879807966
 21
-1450.846012391566
 31
0.0
  0
LINE
  5
44E
330
1F
100
AcDbEntity
  8
3-3
  6
Continuous
 62
     4
370
     9
100
AcDbLine
 10
871.0048879807966
 20
-1468.846012391565
 30
0.0
 11
804.3382213141301
 21
-1468.846012391565
 31
0.0
  0
ARC
  5
44F
330
1F
100
AcDbEntity
  8
3-3
  6
Continuous
 62
     4
370
     9
100
AcDbCircle
 10
803.5048879807966
 20
-1452.179345724898
 30
0.0
 40
1.666666666666667
100
AcDbArc
 50
90.0
 51
180.0
  0
LINE
  5
450
330
1F
100
AcDbEntity
  8
3-3
  6
Continuous
 62
     4
370
     9
100
AcDbLine
 10
871.8382213141301
 20
-1450.512679058231
 30
0.0
 11
803.5048879807966
 21
-1450.512679058231
 31
0.0
  0
ARC
  5
451
330
1F
100
AcDbEntity
  8
3-3
  6
Continuous
 62
     4
370
     9
100
AcDbCircle
 10
871.8382213141301
 20
-1452.179345724898
 30
0.0
 40
1.666666666666667
100
AcDbArc
 50
0.0
 51
90.0
  0
LINE
  5
452
330
1F
100
AcDbEntity
  8
3-3
  6
Continuous
 62
     4
370
     9
100
AcDbLine
 10
871.8382213141301
 20
-1443.846012391565
 30
0.0
 11
803.5048879807966
 21
-1443.846012391565
 31
0.0
  0
LINE
  5
453
330
1F
100
AcDbEntity
  8
3-3
  6
Continuous
 62
     4
370
     9
100
AcDbLine
 10
881.8382213141301
 20
-1453.846012391565
 30
0.0
 11
916.0048879807966
 21
-1453.846012391565
 31
0.0
  0
LINE
  5
454
330
1F
100
AcDbEntity
  8
3-3
  6
Continuous
 62
     4
370
     9
100
AcDbLine
 10
793.5048879807966
 20
-1460.512679058231
 30
0.0
 11
771.0048879807966
 21
-1460.512679058231
 31
0.0
  0
LINE
  5
455
330
1F
100
AcDbEntity
  8
3-3
  6
Continuous
 62
     4
370
     9
100
AcDbLine
 10
793.5048879807966
 20
-1453.846012391565
 30
0.0
 11
771.0048879807966
 21
-1453.846012391565
 31
0.0
  0
LINE
  5
456
330
1F
100
AcDbEntity
  8
3-3
  6
Continuous
 62
     4
370
     9
100
AcDbLine
 10
836.0047923433422
 20
-1407.179372039927
 30
0.0
 11
916.0048879807966
 21
-1407.179372039927
 31
0.0
  0
LINE
  5
457
330
1F
100
AcDbEntity
  8
3-3
  6
Continuous
 62
     4
370
     9
100
AcDbLine
 10
756.0050107188029
 20
-1228.846441287256
 30
0.0
 11
771.0048879807966
 21
-1460.512679058231
 31
0.0
  0
LINE
  5
458
330
1F
100
AcDbEntity
  8
3-3
  6
Continuous
 62
     4
370
     9
100
AcDbLine
 10
756.0050107188029
 20
-1228.846441287256
 30
0.0
 11
756.0050107188029
 21
-1178.846441287256
 31
0.0
  0
LINE
  5
459
330
1F
100
AcDbEntity
  8
3-3
  6
Continuous
 62
     4
370
     9
100
AcDbLine
 10
836.0047923433422
 20
-1407.179372039927
 30
0.0
 11
836.0047923433422
 21
-1178.846441287256
 31
0.0
  0
ARC
  5
45A
330
1F
100
AcDbEntity
  8
3-3
  6
Continuous
 62
     4
370
     9
100
AcDbCircle
 10
809.338125676674
 20
-1395.513510534588
 30
0.0
 40
6.666666666666666
100
AcDbArc
 50
270.0
 51
0.0000000000000127
  0
LINE
  5
45B
330
1F
100
AcDbEntity
  8
3-3
  6
Continuous
 62
     4
370
     9
100
AcDbLine
 10
816.0047923433406
 20
-1395.513510534588
 30
0.0
 11
816.0047923433406
 21
-1342.180177201254
 31
0.0
  0
LINE
  5
45C
330
1F
100
AcDbEntity
  8
3-3
  6
Continuous
 62
     4
370
     9
100
AcDbLine
 10
809.338125676674
 20
-1402.180177201254
 30
0.0
 11
793.5188145282739
 21
-1402.180177201254
 31
0.0
  0
ARC
  5
45D
330
1F
100
AcDbEntity
  8
3-3
  6
Continuous
 62
     4
370
     9
100
AcDbCircle
 10
793.5188145282739
 20
-1395.513510534587
 30
0.0
 40
6.666666666666666
100
AcDbArc
 50
183.7046040526654
 51
270.0
  0
LINE
  5
45E
330
1F
100
AcDbEntity
  8
3-3
  6
Continuous
 62
     4
370
     9
100
AcDbLine
 10
786.8660783316068
 20
-1395.944260510788
 30
0.0
 11
783.4128627846621
 21
-1342.610927177454
 31
0.0
  0
ARC
  5
45F
330
1F
100
AcDbEntity
  8
3-3
  6
Continuous
 62
     4
370
     9
100
AcDbCircle
 10
790.0655989813299
 20
-1342.180177201254
 30
0.0
 40
6.666666666666666
100
AcDbArc
 50
90.0
 51
183.7046040526654
  0
LINE
  5
460
330
1F
100
AcDbEntity
  8
3-3
  6
Continuous
 62
     4
370
     9
100
AcDbLine
 10
790.0655989813299
 20
-1335.513510534587
 30
0.0
 11
809.338125676674
 21
-1335.513510534587
 31
0.0
  0
ARC
  5
461
330
1F
100
AcDbEntity
  8
3-3
  6
Continuous
 62
     4
370
     9
100
AcDbCircle
 10
809.338125676674
 20
-1342.180177201254
 30
0.0
 40
6.666666666666666
100
AcDbArc
 50
0.0
 51
90.0
  0
LINE
  5
462
330
1F
100
AcDbEntity
  8
3-3
  6
Continuous
 62
     4
370
     9
100
AcDbLine
 10
786.0050107188044
 20
-1202.179774620593
 30
0.0
 11
786.0050107188044
 21
-1178.846441287256
 31
0.0
  0
LINE
  5
463
330
1F
100
AcDbEntity
  8
3-3
  6
Continuous
 62
     4
370
     9
100
AcDbLine
 10
786.0050107188044
 20
-1178.846441287256
 30
0.0
 11
756.0050107188029
 21
-1178.846441287256
 31
0.0
  0
LINE
  5
464
330
1F
100
AcDbEntity
  8
3-A
  6
Continuous
 62
     6
370
     9
100
AcDbLine
 10
786.0050107188044
 20
-1152.179774620593
 30
0.0
 11
786.0050107188044
 21
-1202.179774620593
 31
0.0
  0
LINE
  5
465
330
1F
100
AcDbEntity
  8
3-3
  6
Continuous
 62
     4
370
     9
100
AcDbLine
 10
846.0047923433422
 20
-1152.179774620593
 30
0.0
 11
786.0050107188044
 21
-1152.179774620593
 31
0.0
  0
LINE
  5
466
330
1F
100
AcDbEntity
  8
3-A
  6
Continuous
 62
     6
370
     9
100
AcDbLine
 10
799.3383440521377
 20
-1202.179774620593
 30
0.0
 11
799.3383440521377
 21
-1152.179774620593
 31
0.0
  0
LINE
  5
467
330
1F
100
AcDbEntity
  8
3-A
  6
Continuous
 62
     6
370
     9
100
AcDbLine
 10
799.3383440521377
 20
-1152.179774620593
 30
0.0
 11
786.0050107188044
 21
-1152.179774620593
 31
0.0
  0
LINE
  5
468
330
1F
100
AcDbEntity
  8
3-3
  6
Continuous
 62
     4
370
     9
100
AcDbLine
 10
786.0050107188044
 20
-1202.179774620593
 30
0.0
 11
799.3383440521377
 21
-1202.179774620593
 31
0.0
  0
LINE
  5
469
330
1F
100
AcDbEntity
  8
3-3
  6
Continuous
 62
     4
370
     9
100
AcDbLine
 10
799.3383440521377
 20
-1178.846441287256
 30
0.0
 11
799.3383440521377
 21
-1202.179774620593
 31
0.0
  0
LINE
  5
46A
330
1F
100
AcDbEntity
  8
3-A
  6
Continuous
 62
     6
370
     9
100
AcDbLine
 10
786.0050107188044
 20
-1202.179774620593
 30
0.0
 11
799.3383440521377
 21
-1202.179774620593
 31
0.0
  0
LINE
  5
46B
330
1F
100
AcDbEntity
  8
3-3
  6
Continuous
 62
     4
370
     9
100
AcDbLine
 10
836.0047923433422
 20
-1178.846441287256
 30
0.0
 11
799.3383440521377
 21
-1178.846441287256
 31
0.0
  0
LINE
  5
46C
330
1F
100
AcDbEntity
  8
3-2
  6
Continuous
 62
     3
370
     9
100
AcDbLine
 10
836.0047923433422
 20
-1152.179774620593
 30
0.0
 11
1406.005131100239
 21
-1152.179774620593
 31
0.0
  0
LINE
  5
46D
330
1F
100
AcDbEntity
  8
3-3
  6
Continuous
 62
     4
370
     9
100
AcDbLine
 10
1951.767653803586
 20
-1452.179345724898
 30
0.0
 11
1968.434320470248
 21
-1468.846012391562
 31
0.0
  0
LINE
  5
46E
330
1F
100
AcDbEntity
  8
3-3
  6
Continuous
 62
     4
370
     9
100
AcDbLine
 10
1965.909789427317
 20
-1452.179345724898
 30
0.0
 11
1982.576456093982
 21
-1468.846012391562
 31
0.0
  0
LINE
  5
46F
330
1F
100
AcDbEntity
  8
3-3
  6
Continuous
 62
     4
370
     9
100
AcDbLine
 10
1980.051925051051
 20
-1452.179345724898
 30
0.0
 11
1996.718591717714
 21
-1468.846012391562
 31
0.0
  0
LINE
  5
470
330
1F
100
AcDbEntity
  8
3-3
  6
Continuous
 62
     4
370
     9
100
AcDbLine
 10
1941.005374219683
 20
-1455.559201764729
 30
0.0
 11
1954.292184846514
 21
-1468.846012391562
 31
0.0
  0
LINE
  5
471
330
1F
100
AcDbEntity
  8
3-3
  6
Continuous
 62
     4
370
     9
100
AcDbLine
 10
1994.194060674784
 20
-1452.179345724898
 30
0.0
 11
2007.672040886348
 21
-1465.657325936463
 31
0.0
  0
LINE
  5
472
330
1F
100
AcDbEntity
  8
3-3
  6
Continuous
 62
     4
370
     9
100
AcDbLine
 10
2041.005374219682
 20
-1460.512679058231
 30
0.0
 11
2041.005374219682
 21
-1453.846012391565
 31
0.0
  0
LINE
  5
473
330
1F
100
AcDbEntity
  8
3-3
  6
Continuous
 62
     4
370
     9
100
AcDbLine
 10
1941.005374219682
 20
-1460.512679058231
 30
0.0
 11
1896.005374219682
 21
-1460.512679058231
 31
0.0
  0
LINE
  5
474
330
1F
100
AcDbEntity
  8
3-3
  6
Continuous
 62
     4
370
     9
100
AcDbLine
 10
1896.005374219682
 20
-1460.512679058231
 30
0.0
 11
1896.005374219682
 21
-1407.179372039927
 31
0.0
  0
ARC
  5
475
330
1F
100
AcDbEntity
  8
3-3
  6
Continuous
 62
     4
370
     9
100
AcDbCircle
 10
2018.505374219682
 20
-1452.179345724898
 30
0.0
 40
1.666666666666667
100
AcDbArc
 50
180.0
 51
270.0
  0
ARC
  5
476
330
1F
100
AcDbEntity
  8
3-3
  6
Continuous
 62
     4
370
     9
100
AcDbCircle
 10
1930.172040886348
 20
-1452.179345724898
 30
0.0
 40
1.666666666666667
100
AcDbArc
 50
270.0
 51
0.0
  0
ARC
  5
477
330
1F
100
AcDbEntity
  8
3-3
  6
Continuous
 62
     4
370
     9
100
AcDbCircle
 10
2018.505374219682
 20
-1452.179345724898
 30
0.0
 40
8.333333333333332
100
AcDbArc
 50
180.0
 51
270.0
  0
ARC
  5
478
330
1F
100
AcDbEntity
  8
3-3
  6
Continuous
 62
     4
370
     9
100
AcDbCircle
 10
2008.505374219682
 20
-1452.179345724898
 30
0.0
 40
8.333333333333332
100
AcDbArc
 50
0.0
 51
90.0
  0
ARC
  5
479
330
1F
100
AcDbEntity
  8
3-3
  6
Continuous
 62
     4
370
     9
100
AcDbCircle
 10
1930.172040886348
 20
-1452.179345724898
 30
0.0
 40
8.333333333333332
100
AcDbArc
 50
270.0
 51
0.0
  0
ARC
  5
47A
330
1F
100
AcDbEntity
  8
3-3
  6
Continuous
 62
     4
370
     9
100
AcDbCircle
 10
1940.172040886348
 20
-1452.179345724898
 30
0.0
 40
8.333333333333332
100
AcDbArc
 50
90.0
 51
180.0
  0
LINE
  5
47B
330
1F
100
AcDbEntity
  8
3-3
  6
Continuous
 62
     4
370
     9
100
AcDbLine
 10
2018.505374219682
 20
-1460.512679058231
 30
0.0
 11
2007.672040886348
 21
-1460.512679058231
 31
0.0
  0
LINE
  5
47C
330
1F
100
AcDbEntity
  8
3-3
  6
Continuous
 62
     4
370
     9
100
AcDbLine
 10
2007.672040886348
 20
-1452.179345724898
 30
0.0
 11
1941.005374219682
 21
-1452.179345724898
 31
0.0
  0
LINE
  5
47D
330
1F
100
AcDbEntity
  8
3-3
  6
Continuous
 62
     4
370
     9
100
AcDbLine
 10
1941.005374219682
 20
-1450.512679058231
 30
0.0
 11
1941.005374219682
 21
-1468.846012391565
 31
0.0
  0
LINE
  5
47E
330
1F
100
AcDbEntity
  8
3-3
  6
Continuous
 62
     4
370
     9
100
AcDbLine
 10
2007.672040886348
 20
-1450.512679058231
 30
0.0
 11
2007.672040886348
 21
-1468.846012391565
 31
0.0
  0
LINE
  5
47F
330
1F
100
AcDbEntity
  8
3-3
  6
Continuous
 62
     4
370
     9
100
AcDbLine
 10
2007.672040886348
 20
-1451.846012391563
 30
0.0
 11
1941.005374219682
 21
-1451.846012391563
 31
0.0
  0
LINE
  5
480
330
1F
100
AcDbEntity
  8
3-3
  6
Continuous
 62
     4
370
     9
100
AcDbLine
 10
2007.672040886348
 20
-1451.512679058232
 30
0.0
 11
1941.005374219682
 21
-1451.512679058232
 31
0.0
  0
LINE
  5
481
330
1F
100
AcDbEntity
  8
3-3
  6
Continuous
 62
     4
370
     9
100
AcDbLine
 10
2007.672040886348
 20
-1451.179345724897
 30
0.0
 11
1941.005374219682
 21
-1451.179345724897
 31
0.0
  0
LINE
  5
482
330
1F
100
AcDbEntity
  8
3-3
  6
Continuous
 62
     4
370
     9
100
AcDbLine
 10
2007.672040886348
 20
-1450.846012391566
 30
0.0
 11
1941.005374219682
 21
-1450.846012391566
 31
0.0
  0
LINE
  5
483
330
1F
100
AcDbEntity
  8
3-3
  6
Continuous
 62
     4
370
     9
100
AcDbLine
 10
1941.005374219682
 20
-1468.846012391565
 30
0.0
 11
2007.672040886348
 21
-1468.846012391565
 31
0.0
  0
ARC
  5
484
330
1F
100
AcDbEntity
  8
3-3
  6
Continuous
 62
     4
370
     9
100
AcDbCircle
 10
2008.505374219682
 20
-1452.179345724898
 30
0.0
 40
1.666666666666667
100
AcDbArc
 50
0.0
 51
90.0
  0
LINE
  5
485
330
1F
100
AcDbEntity
  8
3-3
  6
Continuous
 62
     4
370
     9
100
AcDbLine
 10
1940.172040886348
 20
-1450.512679058231
 30
0.0
 11
2008.505374219682
 21
-1450.512679058231
 31
0.0
  0
ARC
  5
486
330
1F
100
AcDbEntity
  8
3-3
  6
Continuous
 62
     4
370
     9
100
AcDbCircle
 10
1940.172040886348
 20
-1452.179345724898
 30
0.0
 40
1.666666666666667
100
AcDbArc
 50
90.0
 51
180.0
  0
LINE
  5
487
330
1F
100
AcDbEntity
  8
3-3
  6
Continuous
 62
     4
370
     9
100
AcDbLine
 10
1940.172040886348
 20
-1443.846012391565
 30
0.0
 11
2008.505374219682
 21
-1443.846012391565
 31
0.0
  0
LINE
  5
488
330
1F
100
AcDbEntity
  8
3-3
  6
Continuous
 62
     4
370
     9
100
AcDbLine
 10
1930.172040886348
 20
-1453.846012391565
 30
0.0
 11
1896.005374219682
 21
-1453.846012391565
 31
0.0
  0
LINE
  5
489
330
1F
100
AcDbEntity
  8
3-3
  6
Continuous
 62
     4
370
     9
100
AcDbLine
 10
2018.505374219682
 20
-1460.512679058231
 30
0.0
 11
2041.005374219682
 21
-1460.512679058231
 31
0.0
  0
LINE
  5
48A
330
1F
100
AcDbEntity
  8
3-3
  6
Continuous
 62
     4
370
     9
100
AcDbLine
 10
2018.505374219682
 20
-1453.846012391565
 30
0.0
 11
2041.005374219682
 21
-1453.846012391565
 31
0.0
  0
LINE
  5
48B
330
1F
100
AcDbEntity
  8
3-3
  6
Continuous
 62
     4
370
     9
100
AcDbLine
 10
1976.005469857137
 20
-1407.179372039927
 30
0.0
 11
1896.005374219682
 21
-1407.179372039927
 31
0.0
  0
LINE
  5
48C
330
1F
100
AcDbEntity
  8
3-3
  6
Continuous
 62
     4
370
     9
100
AcDbLine
 10
2056.005251481676
 20
-1228.846441287256
 30
0.0
 11
2041.005374219682
 21
-1460.512679058231
 31
0.0
  0
LINE
  5
48D
330
1F
100
AcDbEntity
  8
3-3
  6
Continuous
 62
     4
370
     9
100
AcDbLine
 10
2056.005251481676
 20
-1228.846441287256
 30
0.0
 11
2056.005251481676
 21
-1178.846441287256
 31
0.0
  0
LINE
  5
48E
330
1F
100
AcDbEntity
  8
3-3
  6
Continuous
 62
     4
370
     9
100
AcDbLine
 10
1976.005469857137
 20
-1407.179372039927
 30
0.0
 11
1976.005469857137
 21
-1178.846441287256
 31
0.0
  0
ARC
  5
48F
330
1F
100
AcDbEntity
  8
3-3
  6
Continuous
 62
     4
370
     9
100
AcDbCircle
 10
2002.672136523805
 20
-1395.513510534588
 30
0.0
 40
6.666666666666666
100
AcDbArc
 50
180.0
 51
270.0
  0
LINE
  5
490
330
1F
100
AcDbEntity
  8
3-3
  6
Continuous
 62
     4
370
     9
100
AcDbLine
 10
1996.005469857138
 20
-1395.513510534588
 30
0.0
 11
1996.005469857138
 21
-1342.180177201254
 31
0.0
  0
LINE
  5
491
330
1F
100
AcDbEntity
  8
3-3
  6
Continuous
 62
     4
370
     9
100
AcDbLine
 10
2002.672136523805
 20
-1402.180177201254
 30
0.0
 11
2018.491447672205
 21
-1402.180177201254
 31
0.0
  0
ARC
  5
492
330
1F
100
AcDbEntity
  8
3-3
  6
Continuous
 62
     4
370
     9
100
AcDbCircle
 10
2018.491447672205
 20
-1395.513510534587
 30
0.0
 40
6.666666666666666
100
AcDbArc
 50
270.0
 51
356.2953959473346
  0
LINE
  5
493
330
1F
100
AcDbEntity
  8
3-3
  6
Continuous
 62
     4
370
     9
100
AcDbLine
 10
2025.144183868872
 20
-1395.944260510788
 30
0.0
 11
2028.597399415817
 21
-1342.610927177454
 31
0.0
  0
ARC
  5
494
330
1F
100
AcDbEntity
  8
3-3
  6
Continuous
 62
     4
370
     9
100
AcDbCircle
 10
2021.944663219149
 20
-1342.180177201254
 30
0.0
 40
6.666666666666666
100
AcDbArc
 50
356.2953959473346
 51
89.99999999999999
  0
LINE
  5
495
330
1F
100
AcDbEntity
  8
3-3
  6
Continuous
 62
     4
370
     9
100
AcDbLine
 10
2021.944663219149
 20
-1335.513510534587
 30
0.0
 11
2002.672136523805
 21
-1335.513510534587
 31
0.0
  0
ARC
  5
496
330
1F
100
AcDbEntity
  8
3-3
  6
Continuous
 62
     4
370
     9
100
AcDbCircle
 10
2002.672136523805
 20
-1342.180177201254
 30
0.0
 40
6.666666666666666
100
AcDbArc
 50
90.0
 51
180.0
  0
LINE
  5
497
330
1F
100
AcDbEntity
  8
3-3
  6
Continuous
 62
     4
370
     9
100
AcDbLine
 10
2026.005251481674
 20
-1202.179774620593
 30
0.0
 11
2026.005251481674
 21
-1178.846441287256
 31
0.0
  0
LINE
  5
498
330
1F
100
AcDbEntity
  8
3-3
  6
Continuous
 62
     4
370
     9
100
AcDbLine
 10
2026.005251481674
 20
-1178.846441287256
 30
0.0
 11
2056.005251481676
 21
-1178.846441287256
 31
0.0
  0
LINE
  5
499
330
1F
100
AcDbEntity
  8
3-A
  6
Continuous
 62
     6
370
     9
100
AcDbLine
 10
2026.005251481674
 20
-1152.179774620593
 30
0.0
 11
2026.005251481674
 21
-1202.179774620593
 31
0.0
  0
LINE
  5
49A
330
1F
100
AcDbEntity
  8
3-3
  6
Continuous
 62
     4
370
     9
100
AcDbLine
 10
1966.005469857137
 20
-1152.179774620593
 30
0.0
 11
2026.005251481674
 21
-1152.179774620593
 31
0.0
  0
LINE
  5
49B
330
1F
100
AcDbEntity
  8
3-A
  6
Continuous
 62
     6
370
     9
100
AcDbLine
 10
2012.671918148341
 20
-1202.179774620593
 30
0.0
 11
2012.671918148341
 21
-1152.179774620593
 31
0.0
  0
LINE
  5
49C
330
1F
100
AcDbEntity
  8
3-A
  6
Continuous
 62
     6
370
     9
100
AcDbLine
 10
2012.671918148341
 20
-1152.179774620593
 30
0.0
 11
2026.005251481674
 21
-1152.179774620593
 31
0.0
  0
LINE
  5
49D
330
1F
100
AcDbEntity
  8
3-3
  6
Continuous
 62
     4
370
     9
100
AcDbLine
 10
2026.005251481674
 20
-1202.179774620593
 30
0.0
 11
2012.671918148341
 21
-1202.179774620593
 31
0.0
  0
LINE
  5
49E
330
1F
100
AcDbEntity
  8
3-3
  6
Continuous
 62
     4
370
     9
100
AcDbLine
 10
2012.671918148341
 20
-1178.846441287256
 30
0.0
 11
2012.671918148341
 21
-1202.179774620593
 31
0.0
  0
LINE
  5
49F
330
1F
100
AcDbEntity
  8
3-A
  6
Continuous
 62
     6
370
     9
100
AcDbLine
 10
2026.005251481674
 20
-1202.179774620593
 30
0.0
 11
2012.671918148341
 21
-1202.179774620593
 31
0.0
  0
LINE
  5
4A0
330
1F
100
AcDbEntity
  8
3-3
  6
Continuous
 62
     4
370
     9
100
AcDbLine
 10
1976.005469857137
 20
-1178.846441287256
 30
0.0
 11
2012.671918148341
 21
-1178.846441287256
 31
0.0
  0
LINE
  5
4A1
330
1F
100
AcDbEntity
  8
3-2
  6
Continuous
 62
     3
370
     9
100
AcDbLine
 10
1976.005469857139
 20
-1152.179774620593
 30
0.0
 11
1406.005131100239
 21
-1152.179774620593
 31
0.0
  0
TEXT
  5
4A2
330
1F
100
AcDbEntity
  8
F-5ﾚｲﾔ
  6
Continuous
 62
     2
370
   211
100
AcDbText
 10
658.4813924141633
 20
-2701.995990546151
 30
0.0
 40
30.48
  1
ステンレス製 集水桝用 インターロッキングブロック用 充填深さ６５ｍｍ　ＳＳＢＷ－Ｍ－３００（Ｐ＝１５）
 41
0.8995049504950497
  7
ＭＳ ゴシック
100
AcDbText
  0
TEXT
  5
4A3
330
1F
100
AcDbEntity
  8
F-Fﾚｲﾔ
  6
Continuous
 62
     3
370
     9
100
AcDbText
 10
590.1375057618475
 20
1350.617743764171
 30
0.0
 40
38.1
  1
SSBW-M-300 (P=15)
 41
1.094117647058824
  7
ＭＳ ゴシック
100
AcDbText
  0
TEXT
  5
4A4
330
1F
100
AcDbEntity
  8
F-Fﾚｲﾔ
  6
Continuous
 62
     3
370
     9
100
AcDbText
 10
590.1375057618475
 20
2168.178364335182
 30
0.0
 40
38.1
  1
目地すきま 11mm
 41
1.093333333333333
  7
ＭＳ ゴシック
100
AcDbText
  0
LINE
  5
4A5
330
1F
100
AcDbEntity
  8
3-4
  6
Continuous
 62
     7
370
     9
100
AcDbLine
 10
2056.005175678688
 20
-988.8924752805631
 30
0.0
 11
2056.005175678688
 21
-1135.513477542611
 31
0.0
  0
LINE
  5
4A6
330
1F
100
AcDbEntity
  8
3-4
  6
Continuous
 62
     7
370
     9
100
AcDbLine
 10
756.0050107188056
 20
-988.8924752805631
 30
0.0
 11
756.0050107188056
 21
-1135.513477542611
 31
0.0
  0
LWPOLYLINE
  5
4A7
330
1F
100
AcDbEntity
  8
3-4
  6
Continuous
 62
     7
370
     9
100
AcDbPolyline
 90
        4
 70
     1
 43
2.0
 10
737.005131689385
 20
-856.4388679052795
 42
0.4142135623731
 10
736.005131689385
 20
-855.4388679052795
 42
0.4142135623731
 10
735.005131689385
 20
-856.4388679052795
 42
0.4142135623731
 10
736.005131689385
 20
-857.4388679052794
 42
0.4142135623731
  0
LINE
  5
4A8
330
1F
100
AcDbEntity
  8
3-4
  6
Continuous
 62
     7
370
     9
100
AcDbLine
 10
736.005131689385
 20
-853.4388679052793
 30
0.0
 11
736.005131689385
 21
-1135.513477542611
 31
0.0
  0
LWPOLYLINE
  5
4A9
330
1F
100
AcDbEntity
  8
3-4
  6
Continuous
 62
     7
370
     9
100
AcDbPolyline
 90
        4
 70
     1
 43
2.0
 10
757.0050107188056
 20
-991.8924752805628
 42
0.4142135623731
 10
756.0050107188056
 20
-990.8924752805628
 42
0.4142135623731
 10
755.0050107188056
 20
-991.8924752805628
 42
0.4142135623731
 10
756.0050107188056
 20
-992.8924752805628
 42
0.4142135623731
  0
LWPOLYLINE
  5
4AA
330
1F
100
AcDbEntity
  8
3-4
  6
Continuous
 62
     7
370
     9
100
AcDbPolyline
 90
        4
 70
     1
 43
2.0
 10
2057.005175678688
 20
-991.8924752805628
 42
0.4142135623731
 10
2056.005175678688
 20
-990.8924752805628
 42
0.4142135623731
 10
2055.005175678688
 20
-991.8924752805628
 42
0.4142135623731
 10
2056.005175678688
 20
-992.8924752805628
 42
0.4142135623731
  0
LWPOLYLINE
  5
4AB
330
1F
100
AcDbEntity
  8
3-4
  6
Continuous
 62
     7
370
     9
100
AcDbPolyline
 90
        4
 70
     1
 43
2.0
 10
2077.004664303055
 20
-856.4388679052795
 42
0.4142135623731
 10
2076.004664303055
 20
-855.4388679052795
 42
0.4142135623731
 10
2075.004664303055
 20
-856.4388679052795
 42
0.4142135623731
 10
2076.004664303055
 20
-857.4388679052794
 42
0.4142135623731
  0
LINE
  5
4AC
330
1F
100
AcDbEntity
  8
3-4
  6
Continuous
 62
     7
370
     9
100
AcDbLine
 10
2076.004664303055
 20
-853.4388679052793
 30
0.0
 11
2076.004664303055
 21
-1135.513477542611
 31
0.0
  0
LINE
  5
4AD
330
1F
100
AcDbEntity
  8
3-4
  6
Continuous
 62
     7
370
     9
100
AcDbLine
 10
736.005131689385
 20
-856.4388679052795
 30
0.0
 11
2076.004664303055
 21
-856.4388679052795
 31
0.0
  0
TEXT
  5
4AE
330
1F
100
AcDbEntity
  8
3-4
  6
Continuous
 62
     2
370
   211
100
AcDbText
 10
1373.50489799622
 20
-844.7988679052795
 30
0.0
 40
30.48000000000022
  1
402
 41
1.083333333333307
  7
ＭＳ ゴシック
100
AcDbText
  0
LINE
  5
4AF
330
1F
100
AcDbEntity
  8
3-4
  6
Continuous
 62
     7
370
     9
100
AcDbLine
 10
2056.005175678688
 20
-991.8924752805628
 30
0.0
 11
756.0050107188056
 21
-991.8924752805628
 31
0.0
  0
TEXT
  5
4B0
330
1F
100
AcDbEntity
  8
3-4
  6
Continuous
 62
     2
370
   211
100
AcDbText
 10
1373.505093198746
 20
-980.2524752805627
 30
0.0
 40
30.47999999999957
  1
390
 41
1.08333333333333
  7
ＭＳ ゴシック
100
AcDbText
  0
LINE
  5
4B1
330
1F
100
AcDbEntity
  8
3-E
  6
Continuous
 62
     2
370
     9
100
AcDbLine
 10
359.3381241056295
 20
-1278.927917182143
 30
0.0
 11
486.0858658048483
 21
-1152.180188198586
 31
0.0
  0
LINE
  5
4B2
330
1F
100
AcDbEntity
  8
3-E
  6
Continuous
 62
     2
370
     9
100
AcDbLine
 10
474.6476740730793
 20
-1352.180188198579
 30
0.0
 11
674.6476613574197
 21
-1152.180188198585
 31
0.0
  0
LINE
  5
4B3
330
1F
100
AcDbEntity
  8
3-E
  6
Continuous
 62
     2
370
     9
100
AcDbLine
 10
380.3667699389604
 20
-1352.180188198579
 30
0.0
 11
580.3667572233053
 21
-1152.180188198578
 31
0.0
  0
LINE
  5
4B4
330
1F
100
AcDbEntity
  8
3-5
  6
Continuous
 62
     7
370
     9
100
AcDbLine
 10
2202.186166435496
 20
-1039.174702305853
 30
0.0
 11
2076.678623179334
 21
-1256.560143958672
 31
0.0
  0
LINE
  5
4B5
330
1F
100
AcDbEntity
  8
3-5
  6
Continuous
 62
     7
370
     9
100
AcDbLine
 10
2076.678623179334
 20
-1256.560143958672
 30
0.0
 11
2091.897658904553
 21
-1236.72631045139
 31
0.0
  0
LINE
  5
4B6
330
1F
100
AcDbEntity
  8
3-5
  6
Continuous
 62
     7
370
     9
100
AcDbLine
 10
2076.678623179334
 20
-1256.560143958672
 30
0.0
 11
2086.245708988462
 21
-1233.46315564589
 31
0.0
  0
LINE
  5
4B7
330
1F
100
AcDbEntity
  8
3-5
  6
Continuous
 62
     7
370
     9
100
AcDbLine
 10
2140.760547550325
 20
-866.819896016764
 30
0.0
 11
1976.005168608975
 21
-1152.184583163444
 31
0.0
  0
LINE
  5
4B8
330
1F
100
AcDbEntity
  8
3-5
  6
Continuous
 62
     7
370
     9
100
AcDbLine
 10
1976.005168608975
 20
-1152.184583163444
 30
0.0
 11
1991.224204334193
 21
-1132.350749656163
 31
0.0
  0
LINE
  5
4B9
330
1F
100
AcDbEntity
  8
3-5
  6
Continuous
 62
     7
370
     9
100
AcDbLine
 10
1976.005168608975
 20
-1152.184583163444
 30
0.0
 11
1985.572254418103
 21
-1129.087594850662
 31
0.0
  0
TEXT
  5
4BA
330
1F
100
AcDbEntity
  8
3-5
  6
Continuous
 62
     2
370
   211
100
AcDbText
 10
2205.528239310326
 20
-1026.842617430668
 30
0.0
 40
30.47999999999957
  1
ステンレス製受枠：ＴＬ９５
 41
1.115384615384645
  7
ＭＳ ゴシック
100
AcDbText
  0
LINE
  5
4BB
330
1F
100
AcDbEntity
  8
3-5
  6
Continuous
 62
     7
370
     9
100
AcDbLine
 10
2785.528239310333
 20
-1039.174702305853
 30
0.0
 11
2202.186166435496
 21
-1039.174702305853
 31
0.0
  0
TEXT
  5
4BC
330
1F
100
AcDbEntity
  8
3-5
  6
Continuous
 62
     2
370
   211
100
AcDbText
 10
2141.223122032683
 20
-801.721559009438
 30
0.0
 40
30.48000000000087
  1
インターロッキングブロック用　集水桝
 41
1.118055555555494
  7
ＭＳ ゴシック
100
AcDbText
  0
LINE
  5
4BD
330
1F
100
AcDbEntity
  8
3-5
  6
Continuous
 62
     7
370
     9
100
AcDbLine
 10
3210.268302242282
 20
-866.819896016764
 30
0.0
 11
2140.760547550325
 21
-866.819896016764
 31
0.0
  0
TEXT
  5
4BE
330
1F
100
AcDbEntity
  8
3-5
  6
Continuous
 62
     2
370
   211
100
AcDbText
 10
2141.223122032683
 20
-854.4878111415786
 30
0.0
 40
30.48000000000087
  1
ステンレス製蓋　ＳＳＢＷ－Ｍ－３００（Ｐ＝１５）
 41
1.119791666666604
  7
ＭＳ ゴシック
100
AcDbText
  0
ARC
  5
4BF
330
1F
100
AcDbEntity
  8
D-1
  6
Continuous
 62
     2
370
     9
100
AcDbCircle
 10
1779.27069392182
 20
249.7422729342061
 30
0.0
 40
40.00000051549964
100
AcDbArc
 50
270.0
 51
0.0
  0
ARC
  5
4C0
330
1F
100
AcDbEntity
  8
D-1
  6
Continuous
 62
     2
370
     9
100
AcDbCircle
 10
1779.270941361643
 20
249.7432626934967
 30
0.0
 40
20.00000025774982
100
AcDbArc
 50
270.0
 51
0.0
  0
LINE
  5
4C1
330
1F
100
AcDbEntity
  8
D-1
  6
Continuous
 62
     2
370
     9
100
AcDbLine
 10
1799.271007345596
 20
704.742536870017
 30
0.0
 11
1819.270825889726
 21
704.742536870017
 31
0.0
  0
LINE
  5
4C2
330
1F
100
AcDbEntity
  8
D-1
  6
Continuous
 62
     2
370
     9
100
AcDbLine
 10
1819.270825889726
 20
249.7422729342061
 30
0.0
 11
1819.270825889726
 21
704.742536870017
 31
0.0
  0
LINE
  5
4C3
330
1F
100
AcDbEntity
  8
D-1
  6
Continuous
 62
     2
370
     9
100
AcDbLine
 10
1779.270941361643
 20
229.7431967095436
 30
0.0
 11
1564.270726913797
 21
229.7431967095436
 31
0.0
  0
LINE
  5
4C4
330
1F
100
AcDbEntity
  8
D-1
  6
Continuous
 62
     2
370
     9
100
AcDbLine
 10
1799.271007345596
 20
249.7432626934967
 30
0.0
 11
1799.271007345596
 21
704.742536870017
 31
0.0
  0
ARC
  5
4C5
330
1F
100
AcDbEntity
  8
D-2
  6
Continuous
 62
     3
370
     9
100
AcDbCircle
 10
1639.271334908789
 20
352.243157237
 30
0.0
 40
15.0
100
AcDbArc
 50
270.0
 51
0.0
  0
ARC
  5
4C6
330
1F
100
AcDbEntity
  8
D-2
  6
Continuous
 62
     3
370
     9
100
AcDbCircle
 10
1639.271334908789
 20
352.243157237
 30
0.0
 40
30.0
100
AcDbArc
 50
270.0
 51
0.0
  0
LINE
  5
4C7
330
1F
100
AcDbEntity
  8
D-2
  6
Continuous
 62
     3
370
     9
100
AcDbLine
 10
1669.271334908789
 20
664.7431572370006
 30
0.0
 11
1669.271334908789
 21
704.743157237
 31
0.0
  0
LINE
  5
4C8
330
1F
100
AcDbEntity
  8
D-2
  6
Continuous
 62
     3
370
     9
100
AcDbLine
 10
1654.271334908789
 20
352.243157237
 30
0.0
 11
1654.271334908789
 21
704.743157237
 31
0.0
  0
LINE
  5
4C9
330
1F
100
AcDbEntity
  8
D-1
  6
Continuous
 62
     2
370
     9
100
AcDbLine
 10
1779.27069392182
 20
209.7422724187074
 30
0.0
 11
1564.270726913797
 21
209.7422724187074
 31
0.0
  0
LINE
  5
4CA
330
1F
100
AcDbEntity
  8
D-1
  6
Continuous
 62
     2
370
     9
100
AcDbLine
 10
1564.270726913797
 20
209.7422724187074
 30
0.0
 11
1564.270726913797
 21
229.7431967095436
 31
0.0
  0
LINE
  5
4CB
330
1F
100
AcDbEntity
  8
D-9
  6
Continuous
 62
     4
370
     9
100
AcDbLine
 10
1834.270726269423
 20
178.2435923039613
 30
0.0
 11
1949.270769184766
 21
178.2435923039613
 31
0.0
  0
LINE
  5
4CC
330
1F
100
AcDbEntity
  8
D-9
  6
Continuous
 62
     4
370
     9
100
AcDbLine
 10
1819.270654743849
 20
193.2436590611634
 30
0.0
 11
1819.270654743849
 21
207.2436266362367
 31
0.0
  0
LINE
  5
4CD
330
1F
100
AcDbEntity
  8
D-9
  6
Continuous
 62
     4
370
     9
100
AcDbLine
 10
1964.270578449903
 20
193.2436590611634
 30
0.0
 11
1964.270578449903
 21
207.2436266362367
 31
0.0
  0
LINE
  5
4CE
330
1F
100
AcDbEntity
  8
D-9
  6
Continuous
 62
     4
370
     9
100
AcDbLine
 10
1799.270561760602
 20
197.2435789525208
 30
0.0
 11
1799.270561760602
 21
207.2436266362367
 31
0.0
  0
LINE
  5
4CF
330
1F
100
AcDbEntity
  8
D-9
  6
Continuous
 62
     4
370
     9
100
AcDbLine
 10
1819.295679157911
 20
197.2435789525208
 30
0.0
 11
1769.270850778691
 21
197.2435789525208
 31
0.0
  0
LINE
  5
4D0
330
1F
100
AcDbEntity
  8
D-9
  6
Continuous
 62
     4
370
     9
100
AcDbLine
 10
1964.270578449903
 20
207.2436266362367
 30
0.0
 11
1769.270850778691
 21
207.2436266362367
 31
0.0
  0
LINE
  5
4D1
330
1F
100
AcDbEntity
  8
D-9
  6
Continuous
 62
     3
370
     9
100
AcDbLine
 10
1669.270521229443
 20
209.7422724187074
 30
0.0
 11
1669.270521229443
 21
187.2422914921937
 31
0.0
  0
LINE
  5
4D2
330
1F
100
AcDbEntity
  8
D-9
  6
Continuous
 62
     3
370
     9
100
AcDbLine
 10
1769.270850778691
 20
187.2422914921937
 30
0.0
 11
1669.270521229443
 21
187.2422914921937
 31
0.0
  0
LINE
  5
4D3
330
1F
100
AcDbEntity
  8
D-9
  6
Continuous
 62
     3
370
     9
100
AcDbLine
 10
1769.270850778691
 20
209.7422724187074
 30
0.0
 11
1669.270521229443
 21
209.7422724187074
 31
0.0
  0
LINE
  5
4D4
330
1F
100
AcDbEntity
  8
D-9
  6
Continuous
 62
     2
370
     9
100
AcDbLine
 10
1733.02042109364
 20
184.743645709723
 30
0.0
 11
1733.02042109364
 21
187.2422914921937
 31
0.0
  0
LINE
  5
4D5
330
1F
100
AcDbEntity
  8
D-9
  6
Continuous
 62
     2
370
     9
100
AcDbLine
 10
1724.269710606274
 20
177.2442369877992
 30
0.0
 11
1733.02042109364
 21
184.743645709723
 31
0.0
  0
LINE
  5
4D6
330
1F
100
AcDbEntity
  8
D-9
  6
Continuous
 62
     2
370
     9
100
AcDbLine
 10
1714.270793026624
 20
177.2442369877992
 30
0.0
 11
1724.269710606274
 21
177.2442369877992
 31
0.0
  0
LINE
  5
4D7
330
1F
100
AcDbEntity
  8
D-9
  6
Continuous
 62
     2
370
     9
100
AcDbLine
 10
1705.520330494581
 20
184.743645709723
 30
0.0
 11
1714.270793026624
 21
177.2442369877992
 31
0.0
  0
LINE
  5
4D8
330
1F
100
AcDbEntity
  8
D-9
  6
Continuous
 62
     2
370
     9
100
AcDbLine
 10
1705.520330494581
 20
184.743645709723
 30
0.0
 11
1705.520330494581
 21
187.2422914921937
 31
0.0
  0
LINE
  5
4D9
330
1F
100
AcDbEntity
  8
D-9
  6
Continuous
 62
     2
370
     9
100
AcDbLine
 10
1705.520330494581
 20
184.743645709723
 30
0.0
 11
1733.02042109364
 21
184.743645709723
 31
0.0
  0
LINE
  5
4DA
330
1F
100
AcDbEntity
  8
D-9
  6
Continuous
 62
     3
370
     9
100
AcDbLine
 10
1769.270850778691
 20
209.7422724187074
 30
0.0
 11
1769.270850778691
 21
187.2422914921937
 31
0.0
  0
LINE
  5
4DB
330
1F
100
AcDbEntity
  8
D-9
  6
Continuous
 62
     3
370
     9
100
AcDbLine
 10
1769.270850778691
 20
199.7422724187074
 30
0.0
 11
1669.270521229443
 21
199.7422724187074
 31
0.0
  0
LINE
  5
4DC
330
1F
100
AcDbEntity
  8
D-9
  6
JWW_DASHED2
 62
     3
370
     9
100
AcDbLine
 10
1769.270850778691
 20
197.2422914921937
 30
0.0
 11
1669.270521229443
 21
197.2422914921937
 31
0.0
  0
LINE
  5
4DD
330
1F
100
AcDbEntity
  8
D-9
  6
JWW_CENTER1
 62
     4
370
     9
100
AcDbLine
 10
1719.270688122449
 20
169.5032720982728
 30
0.0
 11
1719.270688122449
 21
209.7422724187074
 31
0.0
  0
ARC
  5
4DE
330
1F
100
AcDbEntity
  8
D-9
  6
Continuous
 62
     4
370
     9
100
AcDbCircle
 10
1834.270726269423
 20
193.2436590611634
 30
0.0
 40
15.00000238418579
100
AcDbArc
 50
180.0
 51
270.0
  0
ARC
  5
4DF
330
1F
100
AcDbEntity
  8
D-9
  6
Continuous
 62
     4
370
     9
100
AcDbCircle
 10
1949.270769184766
 20
193.2436590611634
 30
0.0
 40
15.00000238418579
100
AcDbArc
 50
270.0
 51
0.0000000000000127
  0
LINE
  5
4E0
330
1F
100
AcDbEntity
  8
D-2
  6
Continuous
 62
     3
370
     9
100
AcDbLine
 10
1235.431588946634
 20
342.243157237
 30
0.0
 11
1321.027137106784
 21
379.743157237
 31
0.0
  0
LINE
  5
4E1
330
1F
100
AcDbEntity
  8
D-2
  6
Continuous
 62
     3
370
     9
100
AcDbLine
 10
1321.027137106784
 20
379.743157237
 30
0.0
 11
1323.033563929095
 21
375.1633918055917
 31
0.0
  0
LINE
  5
4E2
330
1F
100
AcDbEntity
  8
D-2
  6
Continuous
 62
     3
370
     9
100
AcDbLine
 10
1236.478810215491
 20
337.243157237
 30
0.0
 11
1323.033563929095
 21
375.1633918055917
 31
0.0
  0
LINE
  5
4E3
330
1F
100
AcDbEntity
  8
D-2
  6
Continuous
 62
     3
370
     9
100
AcDbLine
 10
1143.111080870944
 20
342.243157237
 30
0.0
 11
1057.515532710794
 21
379.743157237
 31
0.0
  0
LINE
  5
4E4
330
1F
100
AcDbEntity
  8
D-2
  6
Continuous
 62
     3
370
     9
100
AcDbLine
 10
1057.515532710794
 20
379.743157237
 30
0.0
 11
1055.509105888483
 21
375.1633918055917
 31
0.0
  0
LINE
  5
4E5
330
1F
100
AcDbEntity
  8
D-2
  6
Continuous
 62
     3
370
     9
100
AcDbLine
 10
1142.063859602089
 20
337.243157237
 30
0.0
 11
1055.509105888483
 21
375.1633918055917
 31
0.0
  0
LINE
  5
4E6
330
1F
100
AcDbEntity
  8
D-2
  6
Continuous
 62
     3
370
     9
100
AcDbLine
 10
1235.431588946634
 20
342.243157237
 30
0.0
 11
1143.111080870944
 21
342.243157237
 31
0.0
  0
LINE
  5
4E7
330
1F
100
AcDbEntity
  8
D-2
  6
Continuous
 62
     3
370
     9
100
AcDbLine
 10
1639.271334908789
 20
337.243157237
 30
0.0
 11
1050.467787201827
 21
337.243157237
 31
0.0
  0
LINE
  5
4E8
330
1F
100
AcDbEntity
  8
D-2
  6
Continuous
 62
     3
370
     9
100
AcDbLine
 10
1639.271334908789
 20
322.243157237
 30
0.0
 11
1050.467787201827
 21
322.243157237
 31
0.0
  0
LWPOLYLINE
  5
4E9
330
1F
100
AcDbEntity
  8
D-4
  6
Continuous
 62
     7
370
     9
100
AcDbPolyline
 90
        4
 70
     1
 43
2.0
 10
1962.981286709062
 20
704.742536870017
 42
0.4142135623731
 10
1961.981286709062
 20
705.742536870017
 42
0.4142135623731
 10
1960.981286709062
 20
704.742536870017
 42
0.4142135623731
 10
1961.981286709062
 20
703.7425368700171
 42
0.4142135623731
  0
LWPOLYLINE
  5
4EA
330
1F
100
AcDbEntity
  8
D-4
  6
Continuous
 62
     7
370
     9
100
AcDbPolyline
 90
        4
 70
     1
 43
2.0
 10
1962.981286709062
 20
229.7432624357469
 42
0.4142135623731
 10
1961.981286709062
 20
230.7432624357469
 42
0.4142135623731
 10
1960.981286709062
 20
229.7432624357469
 42
0.4142135623731
 10
1961.981286709062
 20
228.7432624357469
 42
0.4142135623731
  0
LWPOLYLINE
  5
4EB
330
1F
100
AcDbEntity
  8
D-4
  6
Continuous
 62
     7
370
     9
100
AcDbPolyline
 90
        4
 70
     1
 43
2.0
 10
2071.582401952471
 20
704.742536870017
 42
0.4142135623731
 10
2070.582401952471
 20
705.742536870017
 42
0.4142135623731
 10
2069.582401952471
 20
704.742536870017
 42
0.4142135623731
 10
2070.582401952471
 20
703.7425368700171
 42
0.4142135623731
  0
LWPOLYLINE
  5
4EC
330
1F
100
AcDbEntity
  8
D-4
  6
Continuous
 62
     7
370
     9
100
AcDbPolyline
 90
        4
 70
     1
 43
2.0
 10
2071.582401952471
 20
209.7422724187064
 42
0.4142135623731
 10
2070.582401952471
 20
210.7422724187064
 42
0.4142135623731
 10
2069.582401952471
 20
209.7422724187064
 42
0.4142135623731
 10
2070.582401952471
 20
208.7422724187064
 42
0.4142135623731
  0
LINE
  5
4ED
330
1F
100
AcDbEntity
  8
D-4
  6
Continuous
 62
     7
370
     9
100
AcDbLine
 10
2073.582401952471
 20
704.742536870017
 30
0.0
 11
1839.270825889726
 21
704.742536870017
 31
0.0
  0
LWPOLYLINE
  5
4EE
330
1F
100
AcDbEntity
  8
D-4
  6
Continuous
 62
     7
370
     9
100
AcDbPolyline
 90
        4
 70
     1
 43
2.0
 10
2071.582401952471
 20
177.244236987799
 42
0.4142135623731
 10
2070.582401952471
 20
178.244236987799
 42
0.4142135623731
 10
2069.582401952471
 20
177.244236987799
 42
0.4142135623731
 10
2070.582401952471
 20
176.244236987799
 42
0.4142135623731
  0
LWPOLYLINE
  5
4EF
330
1F
100
AcDbEntity
  8
D-4
  6
Continuous
 62
     7
370
     9
100
AcDbPolyline
 90
        4
 70
     1
 43
2.0
 10
1800.271007345596
 20
799.1110754358394
 42
0.4142135623731
 10
1799.271007345596
 20
800.1110754358393
 42
0.4142135623731
 10
1798.271007345596
 20
799.1110754358394
 42
0.4142135623731
 10
1799.271007345596
 20
798.1110754358394
 42
0.4142135623731
  0
LINE
  5
4F0
330
1F
100
AcDbEntity
  8
D-4
  6
Continuous
 62
     7
370
     9
100
AcDbLine
 10
1799.271007345596
 20
942.1443008353729
 30
0.0
 11
1799.271007345596
 21
724.742536870017
 31
0.0
  0
LWPOLYLINE
  5
4F1
330
1F
100
AcDbEntity
  8
D-4
  6
Continuous
 62
     7
370
     9
100
AcDbPolyline
 90
        4
 70
     1
 43
2.0
 10
1655.271334908789
 20
799.1110754358394
 42
0.4142135623731
 10
1654.271334908789
 20
800.1110754358393
 42
0.4142135623731
 10
1653.271334908789
 20
799.1110754358394
 42
0.4142135623731
 10
1654.271334908789
 20
798.1110754358394
 42
0.4142135623731
  0
LINE
  5
4F2
330
1F
100
AcDbEntity
  8
D-4
  6
Continuous
 62
     7
370
     9
100
AcDbLine
 10
1654.271334908789
 20
802.1110754358393
 30
0.0
 11
1654.271334908789
 21
724.743157237
 31
0.0
  0
LINE
  5
4F3
330
1F
100
AcDbEntity
  8
D-4
  6
Continuous
 62
     7
370
     9
100
AcDbLine
 10
1654.271334908789
 20
799.1110754358394
 30
0.0
 11
1050.467787201827
 21
799.1110754358394
 31
0.0
  0
LWPOLYLINE
  5
4F4
330
1F
100
AcDbEntity
  8
D-4
  6
Continuous
 62
     7
370
     9
100
AcDbPolyline
 90
        4
 70
     1
 43
2.0
 10
1820.270825889726
 20
939.1443008353729
 42
0.4142135623731
 10
1819.270825889726
 20
940.1443008353727
 42
0.4142135623731
 10
1818.270825889726
 20
939.1443008353729
 42
0.4142135623731
 10
1819.270825889726
 20
938.1443008353729
 42
0.4142135623731
  0
LINE
  5
4F5
330
1F
100
AcDbEntity
  8
D-4
  6
Continuous
 62
     7
370
     9
100
AcDbLine
 10
1964.981286709062
 20
229.7432624357469
 30
0.0
 11
1839.270825889726
 21
229.7432624357469
 31
0.0
  0
LINE
  5
4F6
330
1F
100
AcDbEntity
  8
D-4
  6
Continuous
 62
     7
370
     9
100
AcDbLine
 10
2073.582401952471
 20
177.244236987799
 30
0.0
 11
1976.457759890214
 21
177.244236987799
 31
0.0
  0
LINE
  5
4F7
330
1F
100
AcDbEntity
  8
D-4
  6
Continuous
 62
     7
370
     9
100
AcDbLine
 10
2073.582401952471
 20
209.7422724187064
 30
0.0
 11
1976.457759890214
 21
209.7422724187064
 31
0.0
  0
LWPOLYLINE
  5
4F8
330
1F
100
AcDbEntity
  8
D-4
  6
Continuous
 62
     7
370
     9
100
AcDbPolyline
 90
        4
 70
     1
 43
2.0
 10
1965.270771568951
 20
60.60014881612332
 42
0.4142135623731
 10
1964.270771568951
 20
61.60014881612332
 42
0.4142135623731
 10
1963.270771568951
 20
60.60014881612332
 42
0.4142135623731
 10
1964.270771568951
 20
59.60014881612332
 42
0.4142135623731
  0
LWPOLYLINE
  5
4F9
330
1F
100
AcDbEntity
  8
D-4
  6
Continuous
 62
     7
370
     9
100
AcDbPolyline
 90
        4
 70
     1
 43
2.0
 10
1820.270825889726
 20
60.60014881612332
 42
0.4142135623731
 10
1819.270825889726
 20
61.60014881612332
 42
0.4142135623731
 10
1818.270825889726
 20
60.60014881612332
 42
0.4142135623731
 10
1819.270825889726
 20
59.60014881612332
 42
0.4142135623731
  0
LINE
  5
4FA
330
1F
100
AcDbEntity
  8
D-4
  6
Continuous
 62
     7
370
     9
100
AcDbLine
 10
1964.270771568951
 20
57.60014881612335
 30
0.0
 11
1964.270771568951
 21
173.2436590611634
 31
0.0
  0
LWPOLYLINE
  5
4FB
330
1F
100
AcDbEntity
  8
D-4
  6
Continuous
 62
     7
370
     9
100
AcDbPolyline
 90
        4
 70
     1
 43
2.0
 10
1565.270726913797
 20
60.60014881612332
 42
0.4142135623731
 10
1564.270726913797
 20
61.60014881612332
 42
0.4142135623731
 10
1563.270726913797
 20
60.60014881612332
 42
0.4142135623731
 10
1564.270726913797
 20
59.60014881612332
 42
0.4142135623731
  0
LINE
  5
4FC
330
1F
100
AcDbEntity
  8
D-4
  6
Continuous
 62
     7
370
     9
100
AcDbLine
 10
1564.270726913797
 20
57.60014881612335
 30
0.0
 11
1564.270726913797
 21
189.7422724187074
 31
0.0
  0
LINE
  5
4FD
330
1F
100
AcDbEntity
  8
D-4
  6
Continuous
 62
     7
370
     9
100
AcDbLine
 10
1819.270825889726
 20
57.60014881612335
 30
0.0
 11
1819.270825889726
 21
173.2436590609612
 31
0.0
  0
LWPOLYLINE
  5
4FE
330
1F
100
AcDbEntity
  8
D-4
  6
Continuous
 62
     7
370
     9
100
AcDbPolyline
 90
        4
 70
     1
 43
2.0
 10
627.5244540292153
 20
704.743157237
 42
0.4142135623731
 10
626.5244540292153
 20
705.743157237
 42
0.4142135623731
 10
625.5244540292152
 20
704.743157237
 42
0.4142135623731
 10
626.5244540292153
 20
703.7431572370001
 42
0.4142135623731
  0
LWPOLYLINE
  5
4FF
330
1F
100
AcDbEntity
  8
D-4
  6
Continuous
 62
     7
370
     9
100
AcDbPolyline
 90
        4
 70
     1
 43
2.0
 10
627.5244540292153
 20
322.243157237
 42
0.4142135623731
 10
626.5244540292153
 20
323.243157237
 42
0.4142135623731
 10
625.5244540292152
 20
322.243157237
 42
0.4142135623731
 10
626.5244540292153
 20
321.243157237
 42
0.4142135623731
  0
LINE
  5
500
330
1F
100
AcDbEntity
  8
D-4
  6
Continuous
 62
     7
370
     9
100
AcDbLine
 10
623.5244540292151
 20
704.743157237
 30
0.0
 11
1030.467787201827
 21
704.743157237
 31
0.0
  0
LINE
  5
501
330
1F
100
AcDbEntity
  8
D-4
  6
Continuous
 62
     7
370
     9
100
AcDbLine
 10
623.5244540292151
 20
322.243157237
 30
0.0
 11
1030.467787201827
 21
322.243157237
 31
0.0
  0
LWPOLYLINE
  5
502
330
1F
100
AcDbEntity
  8
D-4
  6
Continuous
 62
     7
370
     9
100
AcDbPolyline
 90
        4
 70
     1
 43
2.0
 10
742.777805037145
 20
704.743157237
 42
0.4142135623731
 10
741.7778050371451
 20
705.743157237
 42
0.4142135623731
 10
740.7778050371451
 20
704.743157237
 42
0.4142135623731
 10
741.7778050371451
 20
703.7431572370001
 42
0.4142135623731
  0
LWPOLYLINE
  5
503
330
1F
100
AcDbEntity
  8
D-4
  6
Continuous
 62
     7
370
     9
100
AcDbPolyline
 90
        4
 70
     1
 43
2.0
 10
742.777805037145
 20
337.243157237
 42
0.4142135623731
 10
741.7778050371451
 20
338.243157237
 42
0.4142135623731
 10
740.7778050371451
 20
337.243157237
 42
0.4142135623731
 10
741.7778050371451
 20
336.243157237
 42
0.4142135623731
  0
LINE
  5
504
330
1F
100
AcDbEntity
  8
D-4
  6
Continuous
 62
     7
370
     9
100
AcDbLine
 10
738.7778050371448
 20
337.243157237
 30
0.0
 11
1030.467787201827
 21
337.243157237
 31
0.0
  0
LWPOLYLINE
  5
505
330
1F
100
AcDbEntity
  8
D-4
  6
Continuous
 62
     7
370
     9
100
AcDbPolyline
 90
        4
 70
     1
 43
2.0
 10
742.777805037145
 20
322.243157237
 42
0.4142135623731
 10
741.7778050371451
 20
323.243157237
 42
0.4142135623731
 10
740.7778050371451
 20
322.243157237
 42
0.4142135623731
 10
741.7778050371451
 20
321.243157237
 42
0.4142135623731
  0
LWPOLYLINE
  5
506
330
1F
100
AcDbEntity
  8
D-4
  6
Continuous
 62
     7
370
     9
100
AcDbPolyline
 90
        4
 70
     1
 43
2.0
 10
860.8873760040522
 20
704.743157237
 42
0.4142135623731
 10
859.8873760040522
 20
705.743157237
 42
0.4142135623731
 10
858.8873760040522
 20
704.743157237
 42
0.4142135623731
 10
859.8873760040522
 20
703.7431572370001
 42
0.4142135623731
  0
LWPOLYLINE
  5
507
330
1F
100
AcDbEntity
  8
D-4
  6
Continuous
 62
     7
370
     9
100
AcDbPolyline
 90
        4
 70
     1
 43
2.0
 10
860.8873760040522
 20
379.743157237
 42
0.4142135623731
 10
859.8873760040522
 20
380.743157237
 42
0.4142135623731
 10
858.8873760040522
 20
379.743157237
 42
0.4142135623731
 10
859.8873760040522
 20
378.743157237
 42
0.4142135623731
  0
LINE
  5
508
330
1F
100
AcDbEntity
  8
D-4
  6
Continuous
 62
     7
370
     9
100
AcDbLine
 10
856.887376004052
 20
379.743157237
 30
0.0
 11
1037.515532710794
 21
379.743157237
 31
0.0
  0
LINE
  5
509
330
1F
100
AcDbEntity
  8
D-5
  6
Continuous
 62
     7
370
     9
100
AcDbLine
 10
897.34658924103
 20
815.9748014130885
 30
0.0
 11
1170.855681529737
 21
342.243157237
 31
0.0
  0
LINE
  5
50A
330
1F
100
AcDbEntity
  8
D-5
  6
Continuous
 62
     7
370
     9
100
AcDbLine
 10
1170.855681529737
 20
342.243157237
 30
0.0
 11
1155.636645804519
 21
362.0769907442809
 31
0.0
  0
LINE
  5
50B
330
1F
100
AcDbEntity
  8
D-5
  6
Continuous
 62
     7
370
     9
100
AcDbLine
 10
1170.855681529737
 20
342.243157237
 30
0.0
 11
1161.28859572061
 21
365.3401455497823
 31
0.0
  0
LINE
  5
50C
330
1F
100
AcDbEntity
  8
D-5
  6
Continuous
 62
     7
370
     9
100
AcDbLine
 10
1431.62091492785
 20
-119.4043849840548
 30
0.0
 11
1633.201365205558
 21
229.7431967095487
 31
0.0
  0
LINE
  5
50D
330
1F
100
AcDbEntity
  8
D-5
  6
Continuous
 62
     7
370
     9
100
AcDbLine
 10
1633.201365205558
 20
229.7431967095487
 30
0.0
 11
1623.634279396431
 21
206.6462083967663
 31
0.0
  0
LINE
  5
50E
330
1F
100
AcDbEntity
  8
D-5
  6
Continuous
 62
     7
370
     9
100
AcDbLine
 10
1633.201365205558
 20
229.7431967095487
 30
0.0
 11
1617.98232948034
 21
209.9093632022677
 31
0.0
  0
LWPOLYLINE
  5
50F
330
1F
100
AcDbEntity
  8
D-4
  6
Continuous
 62
     7
370
     9
100
AcDbPolyline
 90
        4
 70
     1
 43
2.0
 10
1800.271007345596
 20
939.1443008353729
 42
0.4142135623731
 10
1799.271007345596
 20
940.1443008353727
 42
0.4142135623731
 10
1798.271007345596
 20
939.1443008353729
 42
0.4142135623731
 10
1799.271007345596
 20
938.1443008353729
 42
0.4142135623731
  0
LINE
  5
510
330
1F
100
AcDbEntity
  8
D-4
  6
Continuous
 62
     7
370
     9
100
AcDbLine
 10
1819.270825889726
 20
942.1443008353729
 30
0.0
 11
1819.270825889726
 21
724.742536870017
 31
0.0
  0
LINE
  5
511
330
1F
100
AcDbEntity
  8
D-4
  6
Continuous
 62
     7
370
     9
100
AcDbLine
 10
1799.271007345596
 20
939.1443008353729
 30
0.0
 11
1789.271007345595
 21
939.1443008353729
 31
0.0
  0
LWPOLYLINE
  5
512
330
1F
100
AcDbEntity
  8
D-4
  6
Continuous
 62
     7
370
     9
100
AcDbPolyline
 90
        4
 70
     1
 43
2.0
 10
1790.271007345595
 20
939.1443008353729
 42
0.4142135623731
 10
1789.271007345595
 20
940.1443008353727
 42
0.4142135623731
 10
1788.271007345595
 20
939.1443008353729
 42
0.4142135623731
 10
1789.271007345595
 20
938.1443008353729
 42
0.4142135623731
  0
LINE
  5
513
330
1F
100
AcDbEntity
  8
D-4
  6
Continuous
 62
     7
370
     9
100
AcDbLine
 10
1789.271007345595
 20
939.1443008353729
 30
0.0
 11
1050.467787201827
 21
939.1443008353729
 31
0.0
  0
TEXT
  5
514
330
1F
100
AcDbEntity
  8
D-4
  6
Continuous
 62
     2
370
   211
100
AcDbText
 10
1753.903023656289
 20
950.7843008353727
 30
0.0
 40
30.48
  1
2
 41
0.9999999999999998
  7
ＭＳ ゴシック
100
AcDbText
  0
LINE
  5
515
330
1F
100
AcDbEntity
  8
D-4
  6
Continuous
 62
     7
370
     9
100
AcDbLine
 10
1861.90872933526
 20
939.1443008353729
 30
0.0
 11
1799.271007345596
 21
939.1443008353729
 31
0.0
  0
TEXT
  5
516
330
1F
100
AcDbEntity
  8
D-4
  6
Continuous
 62
     2
370
   211
100
AcDbText
 10
1832.568099571368
 20
950.7843008353727
 30
0.0
 40
30.48
  1
4
 41
0.9999999999999998
  7
ＭＳ ゴシック
100
AcDbText
  0
LINE
  5
517
330
1F
100
AcDbEntity
  8
D-4
  6
Continuous
 62
     7
370
     9
100
AcDbLine
 10
1789.271007345595
 20
791.8633161348583
 30
0.0
 11
1789.271007345595
 21
684.7431572370006
 31
0.0
  0
LINE
  5
518
330
1F
100
AcDbEntity
  8
D-5
  6
Continuous
 62
     7
370
     9
100
AcDbLine
 10
1891.770747727094
 20
178.2435923039611
 30
0.0
 11
1901.337833536221
 21
155.1466039911789
 31
0.0
  0
LINE
  5
519
330
1F
100
AcDbEntity
  8
D-5
  6
Continuous
 62
     7
370
     9
100
AcDbLine
 10
1891.770747727094
 20
178.2435923039611
 30
0.0
 11
1906.989783452311
 21
158.4097587966802
 31
0.0
  0
LINE
  5
51A
330
1F
100
AcDbEntity
  8
D-5
  6
Continuous
 62
     7
370
     9
100
AcDbLine
 10
1322.360780541818
 20
-337.4124360101405
 30
0.0
 11
1856.520627741269
 21
-337.4124360101405
 31
0.0
  0
TEXT
  5
51B
330
1F
100
AcDbEntity
  8
D-5
  6
Continuous
 62
     2
370
   211
100
AcDbText
 10
1344.440704141544
 20
-317.402035139718
 30
0.0
 40
30.48
  1
拡大詳細図　Ｓ＝１：２
 41
1.113636363636364
  7
ＭＳ ゴシック
100
AcDbText
  0
LINE
  5
51C
330
1F
100
AcDbEntity
  8
D-A
  6
Continuous
 62
     6
370
     9
100
AcDbLine
 10
1699.271334908789
 20
704.743157237
 30
0.0
 11
1719.27133490879
 21
704.743157237
 31
0.0
  0
TEXT
  5
51D
330
1F
100
AcDbEntity
  8
D-5
  6
Continuous
 62
     2
370
   211
100
AcDbText
 10
384.84658924103
 20
836.8199374425111
 30
0.0
 40
30.48
  1
モルタル止め：ｔ＝１.０
 41
1.114130434782609
  7
ＭＳ ゴシック
100
AcDbText
  0
LINE
  5
51E
330
1F
100
AcDbEntity
  8
D-5
  6
Continuous
 62
     7
370
     9
100
AcDbLine
 10
897.34658924103
 20
815.9748014130885
 30
0.0
 11
384.84658924103
 21
815.9748014130885
 31
0.0
  0
TEXT
  5
51F
330
1F
100
AcDbEntity
  8
D-5
  6
Continuous
 62
     2
370
   211
100
AcDbText
 10
964.1209149278501
 20
-98.55924895463225
 30
0.0
 40
30.48
  1
クッション：ｔ＝５.０
 41
1.113095238095238
  7
ＭＳ ゴシック
100
AcDbText
  0
TEXT
  5
520
330
1F
100
AcDbEntity
  8
D-5
  6
Continuous
 62
     2
370
     9
100
AcDbText
 10
964.1209149278501
 20
-168.9695210134774
 30
0.0
 40
30.48
  1
クロロプレンゴム
 41
1.109375
  7
ＭＳ ゴシック
100
AcDbText
  0
LINE
  5
521
330
1F
100
AcDbEntity
  8
D-5
  6
Continuous
 62
     7
370
     9
100
AcDbLine
 10
1431.62091492785
 20
-119.4043849840548
 30
0.0
 11
964.1209149278501
 21
-119.4043849840548
 31
0.0
  0
LINE
  5
522
330
1F
100
AcDbEntity
  8
D-4
  6
Continuous
 62
     7
370
     9
100
AcDbLine
 10
1961.981286709062
 20
704.742536870017
 30
0.0
 11
1961.981286709062
 21
229.7432624357469
 31
0.0
  0
TEXT
  5
523
330
1F
100
AcDbEntity
  8
D-4
  6
Continuous
 62
     2
370
   211
100
AcDbText
 10
1950.341286709062
 20
445.9928996528819
 30
0.0
 40
30.48
  1
95
 50
90.0
 41
1.0625
  7
ＭＳ ゴシック
100
AcDbText
  0
LINE
  5
524
330
1F
100
AcDbEntity
  8
D-4
  6
Continuous
 62
     7
370
     9
100
AcDbLine
 10
2070.582401952471
 20
704.742536870017
 30
0.0
 11
2070.582401952471
 21
209.7422724187064
 31
0.0
  0
TEXT
  5
525
330
1F
100
AcDbEntity
  8
D-4
  6
Continuous
 62
     2
370
   211
100
AcDbText
 10
2058.942401952471
 20
435.9924046443618
 30
0.0
 40
30.48
  1
99
 50
90.0
 41
1.0625
  7
ＭＳ ゴシック
100
AcDbText
  0
LINE
  5
526
330
1F
100
AcDbEntity
  8
D-4
  6
Continuous
 62
     7
370
     9
100
AcDbLine
 10
2070.582401952471
 20
209.7422724187064
 30
0.0
 11
2070.582401952471
 21
177.244236987799
 31
0.0
  0
TEXT
  5
527
330
1F
100
AcDbEntity
  8
D-4
  6
Continuous
 62
     2
370
   211
100
AcDbText
 10
2110.942401952472
 20
160.9932547032528
 30
0.0
 40
30.48
  1
6.5
 50
90.0
 41
1.083333333333333
  7
ＭＳ ゴシック
100
AcDbText
  0
LINE
  5
528
330
1F
100
AcDbEntity
  8
D-4
  6
Continuous
 62
     7
370
     9
100
AcDbLine
 10
1964.270771568951
 20
60.60014881612332
 30
0.0
 11
1819.270825889726
 21
60.60014881612332
 31
0.0
  0
TEXT
  5
529
330
1F
100
AcDbEntity
  8
D-4
  6
Continuous
 62
     2
370
   211
100
AcDbText
 10
1870.520798729339
 20
72.24014881612327
 30
0.0
 40
30.48
  1
29
 41
1.0625
  7
ＭＳ ゴシック
100
AcDbText
  0
LINE
  5
52A
330
1F
100
AcDbEntity
  8
D-4
  6
Continuous
 62
     7
370
     9
100
AcDbLine
 10
1819.270825889726
 20
60.60014881612332
 30
0.0
 11
1564.270726913797
 21
60.60014881612332
 31
0.0
  0
TEXT
  5
52B
330
1F
100
AcDbEntity
  8
D-4
  6
Continuous
 62
     2
370
   211
100
AcDbText
 10
1670.520776401762
 20
72.24014881612327
 30
0.0
 40
30.48
  1
51
 41
1.0625
  7
ＭＳ ゴシック
100
AcDbText
  0
LINE
  5
52C
330
1F
100
AcDbEntity
  8
D-4
  6
Continuous
 62
     7
370
     9
100
AcDbLine
 10
626.5244540292153
 20
704.743157237
 30
0.0
 11
626.5244540292153
 21
322.243157237
 31
0.0
  0
TEXT
  5
52D
330
1F
100
AcDbEntity
  8
D-4
  6
Continuous
 62
     2
370
   211
100
AcDbText
 10
614.8844540292151
 20
469.743157237
 30
0.0
 40
30.48
  1
76.5
 50
90.0
 41
1.09375
  7
ＭＳ ゴシック
100
AcDbText
  0
LINE
  5
52E
330
1F
100
AcDbEntity
  8
D-4
  6
Continuous
 62
     7
370
     9
100
AcDbLine
 10
741.7778050371451
 20
704.743157237
 30
0.0
 11
741.7778050371451
 21
337.243157237
 31
0.0
  0
TEXT
  5
52F
330
1F
100
AcDbEntity
  8
D-4
  6
Continuous
 62
     2
370
   211
100
AcDbText
 10
730.1378050371451
 20
477.243157237
 30
0.0
 40
30.48
  1
73.5
 50
90.0
 41
1.09375
  7
ＭＳ ゴシック
100
AcDbText
  0
LINE
  5
530
330
1F
100
AcDbEntity
  8
D-4
  6
Continuous
 62
     7
370
     9
100
AcDbLine
 10
741.7778050371451
 20
337.243157237
 30
0.0
 11
741.7778050371451
 21
322.243157237
 31
0.0
  0
TEXT
  5
531
330
1F
100
AcDbEntity
  8
D-4
  6
Continuous
 62
     2
370
   211
100
AcDbText
 10
730.1378050371451
 20
326.7757149014008
 30
0.0
 40
30.48
  1
3
 50
90.0
 41
0.9999999999999998
  7
ＭＳ ゴシック
100
AcDbText
  0
LINE
  5
532
330
1F
100
AcDbEntity
  8
D-4
  6
Continuous
 62
     7
370
     9
100
AcDbLine
 10
859.8873760040522
 20
704.743157237
 30
0.0
 11
859.8873760040522
 21
379.743157237
 31
0.0
  0
TEXT
  5
533
330
1F
100
AcDbEntity
  8
D-4
  6
Continuous
 62
     2
370
   211
100
AcDbText
 10
848.2473760040522
 20
520.993157237
 30
0.0
 40
30.48
  1
65
 50
90.0
 41
1.0625
  7
ＭＳ ゴシック
100
AcDbText
  0
TEXT
  5
534
330
1F
100
AcDbEntity
  8
D-4
  6
Continuous
 62
     2
370
   211
100
AcDbText
 10
1062.527641658814
 20
950.7843008353727
 30
0.0
 40
30.48
  1
390
 41
1.083333333333333
  7
ＭＳ ゴシック
100
AcDbText
  0
TEXT
  5
535
330
1F
100
AcDbEntity
  8
D-4
  6
Continuous
 62
     2
370
   211
100
AcDbText
 10
1062.527641658814
 20
810.7510754358393
 30
0.0
 40
30.48
  1
336
 41
1.083333333333333
  7
ＭＳ ゴシック
100
AcDbText
  0
LINE
  5
536
330
1F
100
AcDbEntity
  8
D-3
  6
Continuous
 62
     4
370
     9
100
AcDbLine
 10
1632.915062700702
 20
254.7438005805391
 30
0.0
 11
1657.915062700695
 21
229.7438005805439
 31
0.0
  0
LINE
  5
537
330
1F
100
AcDbEntity
  8
D-3
  6
Continuous
 62
     4
370
     9
100
AcDbLine
 10
1654.1282661363
 20
254.7438005805391
 30
0.0
 11
1679.128266136297
 21
229.7438005805439
 31
0.0
  0
LINE
  5
538
330
1F
100
AcDbEntity
  8
D-3
  6
Continuous
 62
     4
370
     9
100
AcDbLine
 10
1675.3414695719
 20
254.7438005805391
 30
0.0
 11
1700.341469571895
 21
229.7438005805439
 31
0.0
  0
LINE
  5
539
330
1F
100
AcDbEntity
  8
D-3
  6
Continuous
 62
     4
370
     9
100
AcDbLine
 10
1616.771643324849
 20
249.6740165207926
 30
0.0
 11
1636.701859265095
 21
229.7438005805439
 31
0.0
  0
LINE
  5
53A
330
1F
100
AcDbEntity
  8
D-3
  6
Continuous
 62
     4
370
     9
100
AcDbLine
 10
1696.5546730075
 20
254.7438005805391
 30
0.0
 11
1716.771643324847
 21
234.5268302631924
 31
0.0
  0
LINE
  5
53B
330
1F
100
AcDbEntity
  8
D-3
  6
Continuous
 62
     4
370
     9
100
AcDbLine
 10
1766.771643324847
 20
242.2438005805394
 30
0.0
 11
1766.771643324847
 21
252.2438005805392
 31
0.0
  0
LINE
  5
53C
330
1F
100
AcDbEntity
  8
D-3
  6
Continuous
 62
     4
370
     9
100
AcDbLine
 10
1616.771643324847
 20
242.2438005805394
 30
0.0
 11
1549.271643324847
 21
242.2438005805394
 31
0.0
  0
LINE
  5
53D
330
1F
100
AcDbEntity
  8
D-3
  6
Continuous
 62
     4
370
     9
100
AcDbLine
 10
1549.271643324847
 20
242.2438005805394
 30
0.0
 11
1549.271643324847
 21
322.2437611079961
 31
0.0
  0
ARC
  5
53E
330
1F
100
AcDbEntity
  8
D-3
  6
Continuous
 62
     4
370
     9
100
AcDbCircle
 10
1733.021643324847
 20
254.7438005805395
 30
0.0
 40
2.5
100
AcDbArc
 50
180.0
 51
270.0
  0
ARC
  5
53F
330
1F
100
AcDbEntity
  8
D-3
  6
Continuous
 62
     4
370
     9
100
AcDbCircle
 10
1600.521643324847
 20
254.7438005805391
 30
0.0
 40
2.5
100
AcDbArc
 50
270.0
 51
0.0
  0
ARC
  5
540
330
1F
100
AcDbEntity
  8
D-3
  6
Continuous
 62
     4
370
     9
100
AcDbCircle
 10
1733.021643324847
 20
254.7438005805395
 30
0.0
 40
12.5
100
AcDbArc
 50
180.0
 51
270.0
  0
ARC
  5
541
330
1F
100
AcDbEntity
  8
D-3
  6
Continuous
 62
     4
370
     9
100
AcDbCircle
 10
1718.021643324847
 20
254.7438005805391
 30
0.0
 40
12.5
100
AcDbArc
 50
0.0
 51
90.0
  0
ARC
  5
542
330
1F
100
AcDbEntity
  8
D-3
  6
Continuous
 62
     4
370
     9
100
AcDbCircle
 10
1600.521643324847
 20
254.7438005805391
 30
0.0
 40
12.5
100
AcDbArc
 50
270.0
 51
0.0
  0
ARC
  5
543
330
1F
100
AcDbEntity
  8
D-3
  6
Continuous
 62
     4
370
     9
100
AcDbCircle
 10
1615.521643324847
 20
254.7438005805391
 30
0.0
 40
12.5
100
AcDbArc
 50
90.0
 51
180.0
  0
LINE
  5
544
330
1F
100
AcDbEntity
  8
D-3
  6
Continuous
 62
     4
370
     9
100
AcDbLine
 10
1733.021643324847
 20
242.2438005805394
 30
0.0
 11
1716.771643324847
 21
242.2438005805394
 31
0.0
  0
LINE
  5
545
330
1F
100
AcDbEntity
  8
D-3
  6
Continuous
 62
     4
370
     9
100
AcDbLine
 10
1716.771643324847
 20
254.7438005805391
 30
0.0
 11
1616.771643324847
 21
254.7438005805391
 31
0.0
  0
LINE
  5
546
330
1F
100
AcDbEntity
  8
D-3
  6
Continuous
 62
     4
370
     9
100
AcDbLine
 10
1616.771643324847
 20
257.2438005805394
 30
0.0
 11
1616.771643324847
 21
229.7438005805392
 31
0.0
  0
LINE
  5
547
330
1F
100
AcDbEntity
  8
D-3
  6
Continuous
 62
     4
370
     9
100
AcDbLine
 10
1716.771643324847
 20
257.2438005805394
 30
0.0
 11
1716.771643324847
 21
229.7438005805392
 31
0.0
  0
LINE
  5
548
330
1F
100
AcDbEntity
  8
D-3
  6
Continuous
 62
     4
370
     9
100
AcDbLine
 10
1716.771643324847
 20
255.2438005805412
 30
0.0
 11
1616.771643324847
 21
255.2438005805412
 31
0.0
  0
LINE
  5
549
330
1F
100
AcDbEntity
  8
D-3
  6
Continuous
 62
     4
370
     9
100
AcDbLine
 10
1716.771643324847
 20
255.7438005805382
 30
0.0
 11
1616.771643324847
 21
255.7438005805382
 31
0.0
  0
LINE
  5
54A
330
1F
100
AcDbEntity
  8
D-3
  6
Continuous
 62
     4
370
     9
100
AcDbLine
 10
1716.771643324847
 20
256.2438005805403
 30
0.0
 11
1616.771643324847
 21
256.2438005805403
 31
0.0
  0
LINE
  5
54B
330
1F
100
AcDbEntity
  8
D-3
  6
Continuous
 62
     4
370
     9
100
AcDbLine
 10
1716.771643324847
 20
256.7438005805373
 30
0.0
 11
1616.771643324847
 21
256.7438005805373
 31
0.0
  0
LINE
  5
54C
330
1F
100
AcDbEntity
  8
D-3
  6
Continuous
 62
     4
370
     9
100
AcDbLine
 10
1616.771643324847
 20
229.7438005805392
 30
0.0
 11
1716.771643324847
 21
229.7438005805392
 31
0.0
  0
ARC
  5
54D
330
1F
100
AcDbEntity
  8
D-3
  6
Continuous
 62
     4
370
     9
100
AcDbCircle
 10
1718.021643324847
 20
254.7438005805391
 30
0.0
 40
2.5
100
AcDbArc
 50
0.0
 51
90.0
  0
LINE
  5
54E
330
1F
100
AcDbEntity
  8
D-3
  6
Continuous
 62
     4
370
     9
100
AcDbLine
 10
1615.521643324847
 20
257.2438005805394
 30
0.0
 11
1718.021643324847
 21
257.2438005805394
 31
0.0
  0
ARC
  5
54F
330
1F
100
AcDbEntity
  8
D-3
  6
Continuous
 62
     4
370
     9
100
AcDbCircle
 10
1615.521643324847
 20
254.7438005805391
 30
0.0
 40
2.5
100
AcDbArc
 50
90.0
 51
180.0
  0
LINE
  5
550
330
1F
100
AcDbEntity
  8
D-3
  6
Continuous
 62
     4
370
     9
100
AcDbLine
 10
1615.521643324847
 20
267.2438005805392
 30
0.0
 11
1718.021643324847
 21
267.2438005805392
 31
0.0
  0
LINE
  5
551
330
1F
100
AcDbEntity
  8
D-3
  6
Continuous
 62
     4
370
     9
100
AcDbLine
 10
1600.521643324847
 20
252.2438005805392
 30
0.0
 11
1549.271643324847
 21
252.2438005805392
 31
0.0
  0
LINE
  5
552
330
1F
100
AcDbEntity
  8
D-3
  6
Continuous
 62
     4
370
     9
100
AcDbLine
 10
1733.021643324847
 20
242.2438005805394
 30
0.0
 11
1766.771643324847
 21
242.2438005805394
 31
0.0
  0
LINE
  5
553
330
1F
100
AcDbEntity
  8
D-3
  6
Continuous
 62
     4
370
     9
100
AcDbLine
 10
1733.021643324847
 20
252.2438005805392
 30
0.0
 11
1766.771643324847
 21
252.2438005805392
 31
0.0
  0
LINE
  5
554
330
1F
100
AcDbEntity
  8
D-3
  6
Continuous
 62
     4
370
     9
100
AcDbLine
 10
1669.271786781029
 20
322.2437611079961
 30
0.0
 11
1549.271643324847
 21
322.2437611079961
 31
0.0
  0
LINE
  5
555
330
1F
100
AcDbEntity
  8
D-3
  6
Continuous
 62
     4
370
     9
100
AcDbLine
 10
1789.271459217837
 20
589.7431572370019
 30
0.0
 11
1766.771643324847
 21
242.2438005805394
 31
0.0
  0
LINE
  5
556
330
1F
100
AcDbEntity
  8
D-3
  6
Continuous
 62
     4
370
     9
100
AcDbLine
 10
1789.271459217837
 20
589.7431572370019
 30
0.0
 11
1789.271459217837
 21
664.7431572370019
 31
0.0
  0
LINE
  5
557
330
1F
100
AcDbEntity
  8
D-3
  6
Continuous
 62
     4
370
     9
100
AcDbLine
 10
1669.271786781029
 20
322.2437611079961
 30
0.0
 11
1669.271786781029
 21
664.7431572370019
 31
0.0
  0
ARC
  5
558
330
1F
100
AcDbEntity
  8
D-3
  6
Continuous
 62
     4
370
     9
100
AcDbCircle
 10
1709.271786781031
 20
339.742553366005
 30
0.0
 40
10.0
100
AcDbArc
 50
180.0
 51
270.0
  0
LINE
  5
559
330
1F
100
AcDbEntity
  8
D-3
  6
Continuous
 62
     4
370
     9
100
AcDbLine
 10
1699.271786781031
 20
339.742553366005
 30
0.0
 11
1699.271786781031
 21
419.7425533660052
 31
0.0
  0
LINE
  5
55A
330
1F
100
AcDbEntity
  8
D-3
  6
Continuous
 62
     4
370
     9
100
AcDbLine
 10
1709.271786781031
 20
329.7425533660052
 30
0.0
 11
1733.000753503631
 21
329.7425533660052
 31
0.0
  0
ARC
  5
55B
330
1F
100
AcDbEntity
  8
D-3
  6
Continuous
 62
     4
370
     9
100
AcDbCircle
 10
1733.000753503631
 20
339.7425533660055
 30
0.0
 40
10.0
100
AcDbArc
 50
270.0
 51
356.2953959473346
  0
LINE
  5
55C
330
1F
100
AcDbEntity
  8
D-3
  6
Continuous
 62
     4
370
     9
100
AcDbLine
 10
1742.979857798632
 20
339.0964284017036
 30
0.0
 11
1748.159681119049
 21
419.0964284017047
 31
0.0
  0
ARC
  5
55D
330
1F
100
AcDbEntity
  8
D-3
  6
Continuous
 62
     4
370
     9
100
AcDbCircle
 10
1738.180576824047
 20
419.7425533660052
 30
0.0
 40
10.0
100
AcDbArc
 50
356.2953959473346
 51
89.99999999999999
  0
LINE
  5
55E
330
1F
100
AcDbEntity
  8
D-3
  6
Continuous
 62
     4
370
     9
100
AcDbLine
 10
1738.180576824047
 20
429.7425533660055
 30
0.0
 11
1709.271786781031
 21
429.7425533660055
 31
0.0
  0
ARC
  5
55F
330
1F
100
AcDbEntity
  8
D-3
  6
Continuous
 62
     4
370
     9
100
AcDbCircle
 10
1709.271786781031
 20
419.7425533660052
 30
0.0
 40
10.0
100
AcDbArc
 50
90.0
 51
180.0
  0
LINE
  5
560
330
1F
100
AcDbEntity
  8
D-3
  6
Continuous
 62
     4
370
     9
100
AcDbLine
 10
1744.271459217835
 20
629.7431572369975
 30
0.0
 11
1744.271459217835
 21
664.7431572370019
 31
0.0
  0
LINE
  5
561
330
1F
100
AcDbEntity
  8
D-3
  6
Continuous
 62
     4
370
     9
100
AcDbLine
 10
1744.271459217835
 20
664.7431572370019
 30
0.0
 11
1789.271459217837
 21
664.7431572370019
 31
0.0
  0
LINE
  5
562
330
1F
100
AcDbEntity
  8
D-A
  6
Continuous
 62
     6
370
     9
100
AcDbLine
 10
1744.271459217835
 20
704.7431572369975
 30
0.0
 11
1744.271459217835
 21
629.7431572369975
 31
0.0
  0
LINE
  5
563
330
1F
100
AcDbEntity
  8
D-3
  6
Continuous
 62
     4
370
     9
100
AcDbLine
 10
1654.271786781029
 20
704.7431572369975
 30
0.0
 11
1744.271459217835
 21
704.7431572369975
 31
0.0
  0
LINE
  5
564
330
1F
100
AcDbEntity
  8
D-A
  6
Continuous
 62
     6
370
     9
100
AcDbLine
 10
1724.271459217835
 20
629.7431572369975
 30
0.0
 11
1724.271459217835
 21
704.7431572369975
 31
0.0
  0
LINE
  5
565
330
1F
100
AcDbEntity
  8
D-A
  6
Continuous
 62
     6
370
     9
100
AcDbLine
 10
1724.271459217835
 20
704.7431572369975
 30
0.0
 11
1744.271459217835
 21
704.7431572369975
 31
0.0
  0
LINE
  5
566
330
1F
100
AcDbEntity
  8
D-3
  6
Continuous
 62
     4
370
     9
100
AcDbLine
 10
1744.271459217835
 20
629.7431572369975
 30
0.0
 11
1724.271459217835
 21
629.7431572369975
 31
0.0
  0
LINE
  5
567
330
1F
100
AcDbEntity
  8
D-3
  6
Continuous
 62
     4
370
     9
100
AcDbLine
 10
1724.271459217835
 20
664.7431572370019
 30
0.0
 11
1724.271459217835
 21
629.7431572369975
 31
0.0
  0
LINE
  5
568
330
1F
100
AcDbEntity
  8
D-A
  6
Continuous
 62
     6
370
     9
100
AcDbLine
 10
1744.271459217835
 20
629.7431572369975
 30
0.0
 11
1724.271459217835
 21
629.7431572369975
 31
0.0
  0
LINE
  5
569
330
1F
100
AcDbEntity
  8
D-3
  6
Continuous
 62
     4
370
     9
100
AcDbLine
 10
1669.271786781029
 20
664.7431572370019
 30
0.0
 11
1724.271459217835
 21
664.7431572370019
 31
0.0
  0
LINE
  5
56A
330
1F
100
AcDbEntity
  8
D-2
  6
Continuous
 62
     3
370
     9
100
AcDbLine
 10
1669.271334908789
 20
704.743157237
 30
0.0
 11
1050.467787201827
 21
704.743157237
 31
0.0
  0
LINE
  5
56B
330
1F
100
AcDbEntity
  8
D-5
  6
Continuous
 62
     7
370
     9
100
AcDbLine
 10
1910.388086949441
 20
992.4655964501482
 30
0.0
 11
2381.161662224368
 21
992.4655964501482
 31
0.0
  0
TEXT
  5
56C
330
1F
100
AcDbEntity
  8
D-5
  6
Continuous
 62
     2
370
   211
100
AcDbText
 10
1923.274874586905
 20
1013.310732479571
 30
0.0
 40
30.48
  1
目地（ＳＵＳ３０４）
 41
1.1125
  7
ＭＳ ゴシック
100
AcDbText
  0
LINE
  5
56D
330
1F
100
AcDbEntity
  8
D-5
  6
Continuous
 62
     7
370
     9
100
AcDbLine
 10
1910.388086949441
 20
992.4655964501482
 30
0.0
 11
1744.271459217835
 21
704.743157237
 31
0.0
  0
LINE
  5
56E
330
1F
100
AcDbEntity
  8
D-5
  6
Continuous
 62
     7
370
     9
100
AcDbLine
 10
1744.271459217835
 20
704.743157237
 30
0.0
 11
1753.838545026963
 21
727.8401455497824
 31
0.0
  0
LINE
  5
56F
330
1F
100
AcDbEntity
  8
D-5
  6
Continuous
 62
     7
370
     9
100
AcDbLine
 10
1744.271459217835
 20
704.743157237
 30
0.0
 11
1759.490494943053
 21
724.576990744281
 31
0.0
  0
LINE
  5
570
330
1F
100
AcDbEntity
  8
D-4
  6
Continuous
 62
     7
370
     9
100
AcDbLine
 10
1654.271334908789
 20
799.1110754358394
 30
0.0
 11
1669.271334908789
 21
799.1110754358394
 31
0.0
  0
LWPOLYLINE
  5
571
330
1F
100
AcDbEntity
  8
D-4
  6
Continuous
 62
     7
370
     9
100
AcDbPolyline
 90
        4
 70
     1
 43
2.0
 10
1655.271334908789
 20
799.1110754358394
 42
0.4142135623731
 10
1654.271334908789
 20
800.1110754358393
 42
0.4142135623731
 10
1653.271334908789
 20
799.1110754358394
 42
0.4142135623731
 10
1654.271334908789
 20
798.1110754358394
 42
0.4142135623731
  0
LWPOLYLINE
  5
572
330
1F
100
AcDbEntity
  8
D-4
  6
Continuous
 62
     7
370
     9
100
AcDbPolyline
 90
        4
 70
     1
 43
2.0
 10
1670.271334908789
 20
799.1110754358394
 42
0.4142135623731
 10
1669.271334908789
 20
800.1110754358393
 42
0.4142135623731
 10
1668.271334908789
 20
799.1110754358394
 42
0.4142135623731
 10
1669.271334908789
 20
798.1110754358394
 42
0.4142135623731
  0
LINE
  5
573
330
1F
100
AcDbEntity
  8
D-4
  6
Continuous
 62
     7
370
     9
100
AcDbLine
 10
1669.271334908789
 20
802.1110754358393
 30
0.0
 11
1669.271334908789
 21
724.7431572369975
 31
0.0
  0
TEXT
  5
574
330
1F
100
AcDbEntity
  8
D-4
  6
Continuous
 62
     2
370
   211
100
AcDbText
 10
1651.771334908789
 20
810.7510754358393
 30
0.0
 40
30.48
  1
3
 41
0.9999999999999998
  7
ＭＳ ゴシック
100
AcDbText
  0
LINE
  5
575
330
1F
100
AcDbEntity
  8
D-4
  6
Continuous
 62
     7
370
     9
100
AcDbLine
 10
1669.271334908789
 20
799.1110754358394
 30
0.0
 11
1724.271459217835
 21
799.1110754358394
 31
0.0
  0
LWPOLYLINE
  5
576
330
1F
100
AcDbEntity
  8
D-4
  6
Continuous
 62
     7
370
     9
100
AcDbPolyline
 90
        4
 70
     1
 43
2.0
 10
1725.271459217835
 20
799.1110754358394
 42
0.4142135623731
 10
1724.271459217835
 20
800.1110754358393
 42
0.4142135623731
 10
1723.271459217835
 20
799.1110754358394
 42
0.4142135623731
 10
1724.271459217835
 20
798.1110754358394
 42
0.4142135623731
  0
LINE
  5
577
330
1F
100
AcDbEntity
  8
D-4
  6
Continuous
 62
     7
370
     9
100
AcDbLine
 10
1724.271459217835
 20
802.1110754358393
 30
0.0
 11
1724.271459217835
 21
724.7431572369975
 31
0.0
  0
LINE
  5
578
330
1F
100
AcDbEntity
  8
D-4
  6
Continuous
 62
     7
370
     9
100
AcDbLine
 10
1724.271459217835
 20
799.1110754358394
 30
0.0
 11
1744.271459217835
 21
799.1110754358394
 31
0.0
  0
LWPOLYLINE
  5
579
330
1F
100
AcDbEntity
  8
D-4
  6
Continuous
 62
     7
370
     9
100
AcDbPolyline
 90
        4
 70
     1
 43
2.0
 10
1745.271459217835
 20
799.1110754358394
 42
0.4142135623731
 10
1744.271459217835
 20
800.1110754358393
 42
0.4142135623731
 10
1743.271459217835
 20
799.1110754358394
 42
0.4142135623731
 10
1744.271459217835
 20
798.1110754358394
 42
0.4142135623731
  0
LINE
  5
57A
330
1F
100
AcDbEntity
  8
D-4
  6
Continuous
 62
     7
370
     9
100
AcDbLine
 10
1744.271459217835
 20
802.1110754358393
 30
0.0
 11
1744.271459217835
 21
724.7431572369975
 31
0.0
  0
TEXT
  5
57B
330
1F
100
AcDbEntity
  8
D-4
  6
Continuous
 62
     2
370
   211
100
AcDbText
 10
1724.271459217835
 20
810.7510754358393
 30
0.0
 40
30.48
  1
4
 41
0.9999999999999998
  7
ＭＳ ゴシック
100
AcDbText
  0
LINE
  5
57C
330
1F
100
AcDbEntity
  8
D-4
  6
Continuous
 62
     7
370
     9
100
AcDbLine
 10
1744.271459217835
 20
799.1110754358394
 30
0.0
 11
1799.271007345596
 21
799.1110754358394
 31
0.0
  0
LWPOLYLINE
  5
57D
330
1F
100
AcDbEntity
  8
D-4
  6
Continuous
 62
     7
370
     9
100
AcDbPolyline
 90
        4
 70
     1
 43
2.0
 10
1800.271007345596
 20
799.1110754358394
 42
0.4142135623731
 10
1799.271007345596
 20
800.1110754358393
 42
0.4142135623731
 10
1798.271007345596
 20
799.1110754358394
 42
0.4142135623731
 10
1799.271007345596
 20
798.1110754358394
 42
0.4142135623731
  0
LINE
  5
57E
330
1F
100
AcDbEntity
  8
D-4
  6
Continuous
 62
     7
370
     9
100
AcDbLine
 10
1799.271007345596
 20
802.1110754358393
 30
0.0
 11
1799.271007345596
 21
724.742536870017
 31
0.0
  0
TEXT
  5
57F
330
1F
100
AcDbEntity
  8
D-5
  6
Continuous
 62
     2
370
   211
100
AcDbText
 10
45.70593998137127
 20
-1014.313953991655
 30
0.0
 40
30.48000000000087
  1
舗装材
 41
1.083333333333284
  7
ＭＳ ゴシック
100
AcDbText
  0
LINE
  5
580
330
1F
100
AcDbEntity
  8
D-5
  6
Continuous
 62
     7
370
     9
100
AcDbLine
 10
7.824714654816773
 20
-1038.331580428456
 30
0.0
 11
217.4462063416686
 21
-1038.331580428456
 31
0.0
  0
LINE
  5
581
330
1F
100
AcDbEntity
  8
D-5
  6
Continuous
 62
     7
370
     9
100
AcDbLine
 10
217.4462063416686
 20
-1038.331580428456
 30
0.0
 11
283.1767306846135
 21
-1152.180188198578
 31
0.0
  0
LINE
  5
582
330
1F
100
AcDbEntity
  8
D-5
  6
Continuous
 62
     7
370
     9
100
AcDbLine
 10
283.1767306846135
 20
-1152.180188198578
 30
0.0
 11
260.3481770967863
 21
-1122.429437937657
 31
0.0
  0
LINE
  5
583
330
1F
100
AcDbEntity
  8
D-5
  6
Continuous
 62
     7
370
     9
100
AcDbLine
 10
283.1767306846135
 20
-1152.180188198578
 30
0.0
 11
268.8261019709225
 21
-1117.534705729404
 31
0.0
  0
LINE
  5
584
330
1F
100
AcDbEntity
  8
3-E
  6
Continuous
 62
     2
370
     9
100
AcDbLine
 10
349.3381241056295
 20
-1155.513521531912
 30
0.0
 11
359.3381241056295
 21
-1155.513521531912
 31
0.0
  0
LINE
  5
585
330
1F
100
AcDbEntity
  8
3-E
  6
Continuous
 62
     2
370
     9
100
AcDbLine
 10
726.0047907722969
 20
-1155.513521531912
 30
0.0
 11
736.005131689385
 21
-1155.513521531912
 31
0.0
  0
LINE
  5
586
330
1F
100
AcDbEntity
  8
3-E
  6
Continuous
 62
     2
370
     9
100
AcDbLine
 10
726.0047907722969
 20
-1152.180188198579
 30
0.0
 11
726.0047907722969
 21
-1352.180188198579
 31
0.0
  0
LINE
  5
587
330
1F
100
AcDbEntity
  8
3-E
  6
Continuous
 62
     2
370
     9
100
AcDbLine
 10
359.3381241056295
 20
-1152.180188198579
 30
0.0
 11
726.0047907722969
 21
-1152.180188198579
 31
0.0
  0
LINE
  5
588
330
1F
100
AcDbEntity
  8
3-E
  6
Continuous
 62
     2
370
     9
100
AcDbLine
 10
846.0047923433422
 20
-1155.513107953926
 30
0.0
 11
872.5703634250272
 21
-1155.513107953926
 31
0.0
  0
LINE
  5
589
330
1F
100
AcDbEntity
  8
3-E
  6
Continuous
 62
     2
370
     9
100
AcDbLine
 10
1212.671842345354
 20
-1155.513107953926
 30
0.0
 11
1222.671842345354
 21
-1155.513107953926
 31
0.0
  0
LINE
  5
58A
330
1F
100
AcDbEntity
  8
3-E
  6
Continuous
 62
     2
370
     9
100
AcDbLine
 10
1599.33850901202
 20
-1155.513107953926
 30
0.0
 11
1589.33850901202
 21
-1155.513107953926
 31
0.0
  0
LINE
  5
58B
330
1F
100
AcDbEntity
  8
3-E
  6
Continuous
 62
     2
370
     9
100
AcDbLine
 10
1966.005469857139
 20
-1155.513107953926
 30
0.0
 11
1939.439987932346
 21
-1155.513107953926
 31
0.0
  0
LINE
  5
58C
330
1F
100
AcDbEntity
  8
3-E
  6
Continuous
 62
     2
370
     9
100
AcDbLine
 10
2086.005065705432
 20
-1155.513521531913
 30
0.0
 11
2076.004664303055
 21
-1155.513521531913
 31
0.0
  0
LINE
  5
58D
330
1F
100
AcDbEntity
  8
3-E
  6
Continuous
 62
     2
370
     9
100
AcDbLine
 10
2086.005065705432
 20
-1152.180188198579
 30
0.0
 11
2086.005065705432
 21
-1352.180188198579
 31
0.0
  0
LINE
  5
58E
330
1F
100
AcDbEntity
  8
3-E
  6
Continuous
 62
     2
370
     9
100
AcDbLine
 10
2086.005065705432
 20
-1152.180188198579
 30
0.0
 11
2452.671732372098
 21
-1152.180188198579
 31
0.0
  0
LINE
  5
58F
330
1F
100
AcDbEntity
  8
3-E
  6
Continuous
 62
     2
370
     9
100
AcDbLine
 10
2452.671732372098
 20
-1155.513521531912
 30
0.0
 11
2462.671732372098
 21
-1155.513521531912
 31
0.0
  0
TEXT
  5
590
330
1F
100
AcDbEntity
  8
3-5
  6
Continuous
 62
     2
370
   211
100
AcDbText
 10
-2421.935962198376
 20
1423.494779627081
 30
0.0
 40
30.48000000000087
  1
Φ8.5
 41
1.099999999999969
  7
ＭＳ ゴシック
100
AcDbText
  0
LINE
  5
591
330
1F
100
AcDbEntity
  8
3-5
  6
Continuous
 62
     7
370
     9
100
AcDbLine
 10
-2417.958732867883
 20
1414.038287629264
 30
0.0
 11
-2313.201525634151
 21
1414.038287629264
 31
0.0
  0
LINE
  5
592
330
1F
100
AcDbEntity
  8
3-5
  6
Continuous
 62
     7
370
     9
100
AcDbLine
 10
-2456.206299602543
 20
1347.791558778952
 30
0.0
 11
-2440.987263877325
 21
1367.625392286232
 31
0.0
  0
LINE
  5
593
330
1F
100
AcDbEntity
  8
3-5
  6
Continuous
 62
     7
370
     9
100
AcDbLine
 10
-2456.206299602543
 20
1347.791558778952
 30
0.0
 11
-2446.639213793416
 21
1370.888547091733
 31
0.0
  0
LINE
  5
594
330
1F
100
AcDbEntity
  8
3-5
  6
Continuous
 62
     7
370
     9
100
AcDbLine
 10
-2456.206299602543
 20
1347.791558778952
 30
0.0
 11
-2417.958732867883
 21
1414.038287629264
 31
0.0
  0
LINE
  5
595
330
1F
100
AcDbEntity
  8
3-1
  6
JWW_CENTER2
 62
     2
370
     9
100
AcDbLine
 10
-1789.955727161682
 20
-190.9695223560942
 30
0.0
 11
-1789.955727161682
 21
-63.9277571866694
 31
0.0
  0
LINE
  5
596
330
1F
100
AcDbEntity
  8
3-1
  6
JWW_CENTER2
 62
     2
370
     9
100
AcDbLine
 10
-2463.289632495016
 20
-190.9695223560942
 30
0.0
 11
-2463.289632495016
 21
-63.9277571866694
 31
0.0
  0
LINE
  5
597
330
1F
100
AcDbEntity
  8
3-4
  6
Continuous
 62
     7
370
     9
100
AcDbLine
 10
-2463.28963235594
 20
-338.399119006649
 30
0.0
 11
-2463.28963235594
 21
-190.9695223560942
 31
0.0
  0
LINE
  5
598
330
1F
100
AcDbEntity
  8
3-4
  6
Continuous
 62
     7
370
     9
100
AcDbLine
 10
-1789.955727161682
 20
-338.399119006649
 30
0.0
 11
-1789.955727161682
 21
-256.9598088530327
 31
0.0
  0
LINE
  5
599
330
1F
100
AcDbEntity
  8
D-5
  6
Continuous
 62
     7
370
     9
100
AcDbLine
 10
2019.131837640125
 20
-42.35228633275879
 30
0.0
 11
1891.770747727094
 21
178.2435923039611
 31
0.0
  0
TEXT
  5
59A
330
1F
100
AcDbEntity
  8
D-5
  6
Continuous
 62
     2
370
   211
100
AcDbText
 10
2019.131837640126
 20
-21.5071503033362
 30
0.0
 40
30.48
  1
回転アンカー：ｔ＝２.０
 41
1.114130434782607
  7
ＭＳ ゴシック
100
AcDbText
  0
TEXT
  5
59B
330
1F
100
AcDbEntity
  8
D-5
  6
Continuous
 62
     2
370
     9
100
AcDbText
 10
2019.131837640125
 20
-91.91742236218138
 30
0.0
 40
30.48
  1
ＳＥＣＣ
 41
1.09375
  7
ＭＳ ゴシック
100
AcDbText
  0
LINE
  5
59C
330
1F
100
AcDbEntity
  8
D-5
  6
Continuous
 62
     7
370
     9
100
AcDbLine
 10
2019.131837640125
 20
-42.35228633275879
 30
0.0
 11
2531.631837640125
 21
-42.35228633275879
 31
0.0
  0
TEXT
  5
59D
330
1F
100
AcDbEntity
  8
D-4
  6
Continuous
 62
     2
370
   211
100
AcDbText
 10
1675.521397063312
 20
840.1570501651119
 30
0.0
 40
30.48
  1
11
 41
1.0625
  7
ＭＳ ゴシック
100
AcDbText
  0
TEXT
  5
59E
330
1F
100
AcDbEntity
  8
D-4
  6
Continuous
 62
     2
370
   211
100
AcDbText
 10
1750.521233281716
 20
840.1570501651119
 30
0.0
 40
30.48
  1
11
 41
1.0625
  7
ＭＳ ゴシック
100
AcDbText
  0
LINE
  5
59F
330
1F
100
AcDbEntity
  8
D-4
  6
Continuous
 62
     7
370
     9
100
AcDbLine
 10
1789.271007345595
 20
942.1443008353729
 30
0.0
 11
1789.271007345595
 21
887.1290336823249
 31
0.0
  0
LINE
  5
5A0
330
1F
100
AcDbEntity
  8
3-0
  6
JWW_CENTER2
 62
     7
370
     9
100
AcDbLine
 10
-2897.930441282468
 20
598.8561700466033
 30
0.0
 11
-1353.982595477479
 21
598.8561700466033
 31
0.0
  0
LINE
  5
5A1
330
1F
100
AcDbEntity
  8
3-0
  6
JWW_CENTER2
 62
     7
370
     9
100
AcDbLine
 10
-2126.623010071336
 20
-151.934734305581
 30
0.0
 11
-2126.623010071336
 21
1362.519790959234
 31
0.0
  0
LINE
  5
5A2
330
1F
100
AcDbEntity
  8
3-5
  6
JWW_CENTER1
 62
     4
370
     9
100
AcDbLine
 10
-2126.623010071336
 20
-64.96361062558096
 30
0.0
 11
-2126.623010071336
 21
-204.218620404443
 31
0.0
  0
LINE
  5
5A3
330
1F
100
AcDbEntity
  8
3-5
  6
Continuous
 62
     4
370
     9
100
AcDbLine
 10
-2126.623010071336
 20
-204.218620404443
 30
0.0
 11
-2096.623010071336
 21
-212.2186204044431
 31
0.0
  0
LINE
  5
5A4
330
1F
100
AcDbEntity
  8
3-5
  6
Continuous
 62
     4
370
     9
100
AcDbLine
 10
-2126.623010071336
 20
-204.218620404443
 30
0.0
 11
-2056.623010071336
 21
-204.218620404443
 31
0.0
  0
LINE
  5
5A5
330
1F
100
AcDbEntity
  8
3-5
  6
Continuous
 62
     4
370
     9
100
AcDbLine
 10
-2126.623010071336
 20
-204.218620404443
 30
0.0
 11
-2096.623010071336
 21
-196.2186204044434
 31
0.0
  0
LINE
  5
5A6
330
1F
100
AcDbEntity
  8
3-5
  6
Continuous
 62
     4
370
     9
100
AcDbLine
 10
-2126.623010071336
 20
1439.114040737768
 30
0.0
 11
-2056.623010071336
 21
1439.114040737768
 31
0.0
  0
LINE
  5
5A7
330
1F
100
AcDbEntity
  8
3-5
  6
Continuous
 62
     4
370
     9
100
AcDbLine
 10
-2126.623010071336
 20
1439.114040737768
 30
0.0
 11
-2096.623010071336
 21
1447.114040737769
 31
0.0
  0
LINE
  5
5A8
330
1F
100
AcDbEntity
  8
3-5
  6
Continuous
 62
     4
370
     9
100
AcDbLine
 10
-2126.623010071336
 20
1439.114040737768
 30
0.0
 11
-2096.623010071336
 21
1431.114040737768
 31
0.0
  0
LINE
  5
5A9
330
1F
100
AcDbEntity
  8
3-5
  6
JWW_CENTER1
 62
     4
370
     9
100
AcDbLine
 10
-2126.623010071336
 20
1439.114040737768
 30
0.0
 11
-2126.623010071336
 21
1298.172527462965
 31
0.0
  0
TEXT
  5
5AA
330
1F
100
AcDbEntity
  8
3-5
  6
Continuous
 62
     2
370
     9
100
AcDbText
 10
-2041.623010071336
 20
-218.5786204044425
 30
0.0
 40
30.47999999999957
  1
Ｂ
 41
1.000000000000021
  7
ＭＳ ゴシック
100
AcDbText
  0
TEXT
  5
5AB
330
1F
100
AcDbEntity
  8
3-5
  6
Continuous
 62
     2
370
     9
100
AcDbText
 10
-2041.623010071336
 20
1424.754040737768
 30
0.0
 40
30.47999999999957
  1
Ｂ
 41
1.000000000000021
  7
ＭＳ ゴシック
100
AcDbText
  0
ENDSEC
  0
SECTION
  2
OBJECTS
  0
DICTIONARY
  5
C
330
0
100
AcDbDictionary
281
     1
  3
ACAD_DETAILVIEWSTYLE
350
5B3
  3
ACAD_GROUP
350
D
  3
ACAD_LAYOUT
350
1A
  3
ACAD_MATERIAL
350
43
  3
ACAD_MLEADERSTYLE
350
6B
  3
ACAD_MLINESTYLE
350
17
  3
ACAD_PLOTSETTINGS
350
19
  3
ACAD_PLOTSTYLENAME
350
E
  3
ACAD_SCALELIST
350
47
  3
ACAD_SECTIONVIEWSTYLE
350
5B4
  3
ACAD_TABLESTYLE
350
69
  3
ACAD_VISUALSTYLE
350
2A
  3
ACDB_RECOMPOSE_DATA
350
5B0
  3
AcDbVariableDictionary
350
5AC
  0
SUN
  5
6D
330
29
100
AcDbSun
 90
        1
290
     0
 63
     7
421
 16777215
 40
1.0
291
     1
 91
  2455826
 92
 54000000
292
     0
 70
     2
 71
   256
280
     1
  0
DICTIONARY
  5
5B3
102
{ACAD_REACTORS
330
C
102
}
330
C
100
AcDbDictionary
281
     1
  0
DICTIONARY
  5
D
102
{ACAD_REACTORS
330
C
102
}
330
C
100
AcDbDictionary
281
     1
  0
DICTIONARY
  5
1A
102
{ACAD_REACTORS
330
C
102
}
330
C
100
AcDbDictionary
281
     1
  3
Layout1
350
1E
  3
Layout2
350
26
  3
Model
350
22
  0
DICTIONARY
  5
43
102
{ACAD_REACTORS
330
C
102
}
330
C
100
AcDbDictionary
281
     1
  3
ByBlock
350
45
  3
ByLayer
350
44
  3
Global
350
46
  0
DICTIONARY
  5
6B
102
{ACAD_REACTORS
330
C
102
}
330
C
100
AcDbDictionary
281
     1
  3
Standard
350
6C
  0
DICTIONARY
  5
17
102
{ACAD_REACTORS
330
C
102
}
330
C
100
AcDbDictionary
281
     1
  3
Standard
350
18
  0
DICTIONARY
  5
19
102
{ACAD_REACTORS
330
C
102
}
330
C
100
AcDbDictionary
281
     1
  0
ACDBDICTIONARYWDFLT
  5
E
102
{ACAD_REACTORS
330
C
102
}
330
C
100
AcDbDictionary
281
     1
  3
Normal
350
F
100
AcDbDictionaryWithDefault
340
F
  0
DICTIONARY
  5
47
102
{ACAD_REACTORS
330
C
102
}
330
C
100
AcDbDictionary
281
     1
  3
A0
350
48
  3
A1
350
49
  3
A2
350
4A
  3
A3
350
4B
  3
A4
350
4C
  3
A5
350
4D
  3
A6
350
4E
  3
A7
350
4F
  3
A8
350
50
  3
A9
350
51
  3
B0
350
52
  3
B1
350
53
  3
B2
350
54
  3
B3
350
55
  3
B4
350
56
  3
B5
350
57
  3
B6
350
58
  3
B7
350
59
  3
B8
350
5A
  3
B9
350
5B
  3
C0
350
5C
  3
C1
350
5D
  3
C2
350
5E
  3
C3
350
5F
  3
C4
350
60
  3
C5
350
61
  3
C6
350
62
  3
C7
350
63
  3
C8
350
64
  3
C9
350
65
  3
D0
350
66
  3
D1
350
67
  3
D2
350
68
  0
DICTIONARY
  5
5B4
102
{ACAD_REACTORS
330
C
102
}
330
C
100
AcDbDictionary
281
     1
  0
DICTIONARY
  5
69
102
{ACAD_REACTORS
330
C
102
}
330
C
100
AcDbDictionary
281
     1
  3
Standard
350
6A
  0
DICTIONARY
  5
2A
102
{ACAD_REACTORS
330
C
102
}
330
C
100
AcDbDictionary
281
     1
  3
2dWireframe
350
2F
  3
Basic
350
32
  3
Brighten
350
36
  3
ColorChange
350
3A
  3
Conceptual
350
34
  3
Dim
350
35
  3
EdgeColorOff
350
3D
  3
Facepattern
350
39
  3
Flat
350
2B
  3
FlatWithEdges
350
2C
  3
Gouraud
350
2D
  3
GouraudWithEdges
350
2E
  3
Hidden
350
31
  3
JitterOff
350
3B
  3
Linepattern
350
38
  3
OverhangOff
350
3C
  3
Realistic
350
33
  3
Shaded
350
42
  3
Shaded with edges
350
41
  3
Shades of Gray
350
3E
  3
Sketchy
350
3F
  3
Thicken
350
37
  3
Wireframe
350
30
  3
X-Ray
350
40
  0
XRECORD
  5
5B0
102
{ACAD_REACTORS
330
C
102
}
330
C
100
AcDbXrecord
280
     1
 90
        1
330
6A
  0
DICTIONARY
  5
5AC
102
{ACAD_REACTORS
330
C
102
}
330
C
100
AcDbDictionary
281
     1
  3
CANNOSCALE
350
5AD
  3
CENTEREXE
350
5B5
  3
CENTERLTYPEFILE
350
5B6
  3
CMLEADERSTYLE
350
5B2
  3
CTABLESTYLE
350
5B1
  0
LAYOUT
  5
1E
102
{ACAD_REACTORS
330
1A
102
}
330
1A
100
AcDbPlotSettings
  1

  2
none_device
  4

  6

 40
0.0
 41
0.0
 42
0.0
 43
0.0
 44
0.0
 45
0.0
 46
0.0
 47
0.0
 48
0.0
 49
0.0
140
0.0
141
0.0
142
1.0
143
1.0
 70
   688
 72
     1
 73
     0
 74
     5
  7

 75
    16
 76
     0
 77
     5
 78
   300
147
1.0
148
0.0
149
0.0
100
AcDbLayout
  1
Layout1
 70
     1
 71
     1
 10
0.0
 20
0.0
 11
420.0
 21
297.0
 12
0.0
 22
0.0
 32
0.0
 14
1.000000000000000E+20
 24
1.000000000000000E+20
 34
1.000000000000000E+20
 15
-1.000000000000000E+20
 25
-1.000000000000000E+20
 35
-1.000000000000000E+20
146
0.0
 13
0.0
 23
0.0
 33
0.0
 16
1.0
 26
0.0
 36
0.0
 17
0.0
 27
1.0
 37
0.0
 76
     0
330
1B
  0
LAYOUT
  5
26
102
{ACAD_REACTORS
330
1A
102
}
330
1A
100
AcDbPlotSettings
  1

  2
none_device
  4

  6

 40
0.0
 41
0.0
 42
0.0
 43
0.0
 44
0.0
 45
0.0
 46
0.0
 47
0.0
 48
0.0
 49
0.0
140
0.0
141
0.0
142
1.0
143
1.0
 70
   688
 72
     1
 73
     0
 74
     5
  7

 75
    16
 76
     0
 77
     5
 78
   300
147
1.0
148
0.0
149
0.0
100
AcDbLayout
  1
Layout2
 70
     1
 71
     2
 10
0.0
 20
0.0
 11
0.0
 21
0.0
 12
0.0
 22
0.0
 32
0.0
 14
0.0
 24
0.0
 34
0.0
 15
0.0
 25
0.0
 35
0.0
146
0.0
 13
0.0
 23
0.0
 33
0.0
 16
1.0
 26
0.0
 36
0.0
 17
0.0
 27
1.0
 37
0.0
 76
     0
330
23
  0
LAYOUT
  5
22
102
{ACAD_REACTORS
330
1A
102
}
330
1A
100
AcDbPlotSettings
  1

  2
none_device
  4
Letter_(8.50_x_11.00_Inches)
  6

 40
6.35
 41
6.35
 42
6.35000508
 43
6.35000508
 44
215.9
 45
279.4
 46
0.0
 47
0.0
 48
0.0
 49
0.0
140
0.0
141
0.0
142
1.0
143
1.0
 70
  1712
 72
     1
 73
     0
 74
     0
  7

 75
     0
 76
     0
 77
     5
 78
   300
147
1.0
148
0.0
149
0.0
100
AcDbLayout
  1
Model
 70
     1
 71
     0
 10
-4205.0
 20
-2970.0
 11
4205.0
 21
2970.0
 12
0.0
 22
0.0
 32
0.0
 14
-4205.0
 24
-2970.0
 34
0.0
 15
4205.0
 25
2970.0
 35
0.0
146
0.0
 13
0.0
 23
0.0
 33
0.0
 16
1.0
 26
0.0
 36
0.0
 17
0.0
 27
1.0
 37
0.0
 76
     0
330
1F
331
29
  0
MATERIAL
  5
45
102
{ACAD_REACTORS
330
43
102
}
330
43
100
AcDbMaterial
  1
ByBlock
 72
     1
 94
      127
  0
MATERIAL
  5
44
102
{ACAD_REACTORS
330
43
102
}
330
43
100
AcDbMaterial
  1
ByLayer
 72
     1
 94
      127
  0
MATERIAL
  5
46
102
{ACAD_REACTORS
330
43
102
}
330
43
100
AcDbMaterial
  1
Global
 72
     1
 94
      127
  0
MLEADERSTYLE
  5
6C
102
{ACAD_REACTORS
330
6B
102
}
330
6B
100
AcDbMLeaderStyle
179
     2
170
     2
171
     1
172
     0
 90
        2
 40
0.0
 41
0.0
173
     1
 91
-1056964608
340
14
 92
       -2
290
     1
 42
2.0
291
     1
 43
8.0
  3
Standard
341
0
 44
4.0
300

342
11
174
     1
178
     6
175
     1
176
     0
 93
-1056964608
 45
4.0
292
     0
297
     0
 46
4.0
343
0
 94
-1056964608
 47
1.0
 49
1.0
140
1.0
293
     1
141
0.0
294
     1
177
     0
142
1.0
295
     0
296
     0
143
3.75
271
     0
272
     9
273
     9
298
     0
  0
MLINESTYLE
  5
18
102
{ACAD_REACTORS
330
17
102
}
330
17
100
AcDbMlineStyle
  2
Standard
 70
     0
  3

 62
   256
 51
90.0
 52
90.0
 71
     2
 49
0.5
 62
   256
  6
BYLAYER
 49
-0.5
 62
   256
  6
BYLAYER
  0
ACDBPLACEHOLDER
  5
F
102
{ACAD_REACTORS
330
E
102
}
330
E
  0
SCALE
  5
48
102
{ACAD_REACTORS
330
47
102
}
330
47
100
AcDbScale
 70
     0
300
1:1
140
1.0
141
1.0
290
     1
  0
SCALE
  5
49
102
{ACAD_REACTORS
330
47
102
}
330
47
100
AcDbScale
 70
     0
300
1:2
140
1.0
141
2.0
290
     0
  0
SCALE
  5
4A
102
{ACAD_REACTORS
330
47
102
}
330
47
100
AcDbScale
 70
     0
300
1:4
140
1.0
141
4.0
290
     0
  0
SCALE
  5
4B
102
{ACAD_REACTORS
330
47
102
}
330
47
100
AcDbScale
 70
     0
300
1:5
140
1.0
141
5.0
290
     0
  0
SCALE
  5
4C
102
{ACAD_REACTORS
330
47
102
}
330
47
100
AcDbScale
 70
     0
300
1:8
140
1.0
141
8.0
290
     0
  0
SCALE
  5
4D
102
{ACAD_REACTORS
330
47
102
}
330
47
100
AcDbScale
 70
     0
300
1:10
140
1.0
141
10.0
290
     0
  0
SCALE
  5
4E
102
{ACAD_REACTORS
330
47
102
}
330
47
100
AcDbScale
 70
     0
300
1:16
140
1.0
141
16.0
290
     0
  0
SCALE
  5
4F
102
{ACAD_REACTORS
330
47
102
}
330
47
100
AcDbScale
 70
     0
300
1:20
140
1.0
141
20.0
290
     0
  0
SCALE
  5
50
102
{ACAD_REACTORS
330
47
102
}
330
47
100
AcDbScale
 70
     0
300
1:30
140
1.0
141
30.0
290
     0
  0
SCALE
  5
51
102
{ACAD_REACTORS
330
47
102
}
330
47
100
AcDbScale
 70
     0
300
1:40
140
1.0
141
40.0
290
     0
  0
SCALE
  5
52
102
{ACAD_REACTORS
330
47
102
}
330
47
100
AcDbScale
 70
     0
300
1:50
140
1.0
141
50.0
290
     0
  0
SCALE
  5
53
102
{ACAD_REACTORS
330
47
102
}
330
47
100
AcDbScale
 70
     0
300
1:100
140
1.0
141
100.0
290
     0
  0
SCALE
  5
54
102
{ACAD_REACTORS
330
47
102
}
330
47
100
AcDbScale
 70
     0
300
2:1
140
2.0
141
1.0
290
     0
  0
SCALE
  5
55
102
{ACAD_REACTORS
330
47
102
}
330
47
100
AcDbScale
 70
     0
300
4:1
140
4.0
141
1.0
290
     0
  0
SCALE
  5
56
102
{ACAD_REACTORS
330
47
102
}
330
47
100
AcDbScale
 70
     0
300
8:1
140
8.0
141
1.0
290
     0
  0
SCALE
  5
57
102
{ACAD_REACTORS
330
47
102
}
330
47
100
AcDbScale
 70
     0
300
10:1
140
10.0
141
1.0
290
     0
  0
SCALE
  5
58
102
{ACAD_REACTORS
330
47
102
}
330
47
100
AcDbScale
 70
     0
300
100:1
140
100.0
141
1.0
290
     0
  0
SCALE
  5
59
102
{ACAD_REACTORS
330
47
102
}
330
47
100
AcDbScale
 70
     0
300
1/128" = 1'-0"
140
0.0078125
141
12.0
290
     0
  0
SCALE
  5
5A
102
{ACAD_REACTORS
330
47
102
}
330
47
100
AcDbScale
 70
     0
300
1/64" = 1'-0"
140
0.015625
141
12.0
290
     0
  0
SCALE
  5
5B
102
{ACAD_REACTORS
330
47
102
}
330
47
100
AcDbScale
 70
     0
300
1/32" = 1'-0"
140
0.03125
141
12.0
290
     0
  0
SCALE
  5
5C
102
{ACAD_REACTORS
330
47
102
}
330
47
100
AcDbScale
 70
     0
300
1/16" = 1'-0"
140
0.0625
141
12.0
290
     0
  0
SCALE
  5
5D
102
{ACAD_REACTORS
330
47
102
}
330
47
100
AcDbScale
 70
     0
300
3/32" = 1'-0"
140
0.09375
141
12.0
290
     0
  0
SCALE
  5
5E
102
{ACAD_REACTORS
330
47
102
}
330
47
100
AcDbScale
 70
     0
300
1/8" = 1'-0"
140
0.125
141
12.0
290
     0
  0
SCALE
  5
5F
102
{ACAD_REACTORS
330
47
102
}
330
47
100
AcDbScale
 70
     0
300
3/16" = 1'-0"
140
0.1875
141
12.0
290
     0
  0
SCALE
  5
60
102
{ACAD_REACTORS
330
47
102
}
330
47
100
AcDbScale
 70
     0
300
1/4" = 1'-0"
140
0.25
141
12.0
290
     0
  0
SCALE
  5
61
102
{ACAD_REACTORS
330
47
102
}
330
47
100
AcDbScale
 70
     0
300
3/8" = 1'-0"
140
0.375
141
12.0
290
     0
  0
SCALE
  5
62
102
{ACAD_REACTORS
330
47
102
}
330
47
100
AcDbScale
 70
     0
300
1/2" = 1'-0"
140
0.5
141
12.0
290
     0
  0
SCALE
  5
63
102
{ACAD_REACTORS
330
47
102
}
330
47
100
AcDbScale
 70
     0
300
3/4" = 1'-0"
140
0.75
141
12.0
290
     0
  0
SCALE
  5
64
102
{ACAD_REACTORS
330
47
102
}
330
47
100
AcDbScale
 70
     0
300
1" = 1'-0"
140
1.0
141
12.0
290
     0
  0
SCALE
  5
65
102
{ACAD_REACTORS
330
47
102
}
330
47
100
AcDbScale
 70
     0
300
1-1/2" = 1'-0"
140
1.5
141
12.0
290
     0
  0
SCALE
  5
66
102
{ACAD_REACTORS
330
47
102
}
330
47
100
AcDbScale
 70
     0
300
3" = 1'-0"
140
3.0
141
12.0
290
     0
  0
SCALE
  5
67
102
{ACAD_REACTORS
330
47
102
}
330
47
100
AcDbScale
 70
     0
300
6" = 1'-0"
140
6.0
141
12.0
290
     0
  0
SCALE
  5
68
102
{ACAD_REACTORS
330
47
102
}
330
47
100
AcDbScale
 70
     0
300
1'-0" = 1'-0"
140
12.0
141
12.0
290
     0
  0
TABLESTYLE
  5
6A
102
{ACAD_REACTORS
330
69
102
}
102
{ACAD_XDICTIONARY
360
5AE
102
}
330
69
100
AcDbTableStyle
  3
Standard
 70
     0
 71
     0
 40
0.06
 41
0.06
280
     0
281
     0
  7
Standard
140
4.5
170
     2
 62
     0
 63
   257
283
     0
 90
        4
 91
        0
  1

274
    -2
284
     1
 64
     0
275
    -2
285
     1
 65
     0
276
    -2
286
     1
 66
     0
277
    -2
287
     1
 67
     0
278
    -2
288
     1
 68
     0
279
    -2
289
     1
 69
     0
  7
Standard
140
6.0
170
     5
 62
     0
 63
   257
283
     0
 90
        4
 91
        0
  1

274
    -2
284
     1
 64
     0
275
    -2
285
     1
 65
     0
276
    -2
286
     1
 66
     0
277
    -2
287
     1
 67
     0
278
    -2
288
     1
 68
     0
279
    -2
289
     1
 69
     0
  7
Standard
140
4.5
170
     5
 62
     0
 63
   257
283
     0
 90
        4
 91
        0
  1

274
    -2
284
     1
 64
     0
275
    -2
285
     1
 65
     0
276
    -2
286
     1
 66
     0
277
    -2
287
     1
 67
     0
278
    -2
288
     1
 68
     0
279
    -2
289
     1
 69
     0
  0
VISUALSTYLE
  5
2F
102
{ACAD_REACTORS
330
2A
102
}
330
2A
100
AcDbVisualStyle
  2
2dWireframe
 70
     4
177
     3
291
     0
 70
    58
 90
        0
176
     1
 90
        2
176
     1
 90
        0
176
     1
 90
        0
176
     1
 40
0.6
176
     1
 40
30.0
176
     1
 62
     7
420
 16777215
176
     1
 90
        1
176
     1
 90
        4
176
     1
 62
     7
176
     1
 62
   257
176
     1
 90
        1
176
     1
 90
        1
176
     1
 40
1.0
176
     1
 90
        0
176
     1
 62
   257
176
     1
 40
1.0
176
     1
 90
        1
176
     1
 90
        6
176
     1
 90
        2
176
     1
 62
     7
176
     1
 90
        5
176
     1
 90
        0
176
     1
 90
        0
176
     1
290
     0
176
     1
 90
        1
176
     1
 40
0.0
176
     1
 90
        0
176
     1
290
     1
176
     1
290
     1
176
     1
290
     0
176
     1
290
     0
176
     1
290
     0
176
     1
290
     0
176
     1
290
     0
176
     1
290
     0
176
     1
290
     0
176
     1
 90
       50
176
     1
 40
0.0
176
     1
 40
1.0
176
     1
 90
        0
176
     1
 62
    18
420
        0
176
     1
 90
       50
176
     1
 90
        3
176
     1
 62
     5
420
      255
176
     1
290
     0
176
     1
 90
       50
176
     1
 90
       50
176
     1
 90
       50
176
     1
290
     0
176
     1
 90
       50
176
     1
 62
   256
176
     0
 40
1.0
176
     0
 90
        2
176
     1
  1
strokes_ogs.tif
176
     1
290
     0
176
     1
 40
1.0
176
     1
 40
1.0
176
     1
  0
VISUALSTYLE
  5
32
102
{ACAD_REACTORS
330
2A
102
}
330
2A
100
AcDbVisualStyle
  2
Basic
 70
     7
177
     3
291
     1
 70
    58
 90
        1
176
     1
 90
        0
176
     1
 90
        1
176
     1
 90
        0
176
     1
 40
0.6
176
     1
 40
30.0
176
     1
 62
     7
420
 16777215
176
     1
 90
        0
176
     1
 90
        4
176
     1
 62
     7
176
     1
 62
   257
176
     1
 90
        1
176
     1
 90
        1
176
     1
 40
1.0
176
     1
 90
        8
176
     1
 62
     7
176
     1
 40
1.0
176
     1
 90
        1
176
     1
 90
        6
176
     1
 90
        2
176
     1
 62
     7
176
     1
 90
        5
176
     1
 90
        0
176
     1
 90
        0
176
     1
290
     0
176
     1
 90
        1
176
     1
 40
0.0
176
     1
 90
        0
176
     1
290
     0
176
     1
290
     1
176
     1
290
     1
176
     1
290
     0
176
     1
290
     0
176
     1
290
     0
176
     1
290
     0
176
     1
290
     0
176
     1
290
     0
176
     1
 90
       50
176
     1
 40
0.0
176
     1
 40
1.0
176
     1
 90
        0
176
     1
 62
    18
420
        0
176
     1
 90
       50
176
     1
 90
        3
176
     1
 62
     5
420
      255
176
     1
290
     0
176
     1
 90
       50
176
     1
 90
       50
176
     1
 90
       50
176
     1
290
     0
176
     1
 90
       50
176
     1
 62
   256
176
     0
 40
1.0
176
     0
 90
        2
176
     1
  1
strokes_ogs.tif
176
     1
290
     0
176
     1
 40
1.0
176
     1
 40
1.0
176
     1
  0
VISUALSTYLE
  5
36
102
{ACAD_REACTORS
330
2A
102
}
330
2A
100
AcDbVisualStyle
  2
Brighten
 70
    12
177
     3
291
     1
 70
    58
 90
        2
176
     1
 90
        2
176
     1
 90
        0
176
     1
 90
        0
176
     1
 40
0.6
176
     1
 40
30.0
176
     1
 62
     7
420
 16777215
176
     1
 90
        1
176
     1
 90
        4
176
     1
 62
     7
176
     1
 62
   257
176
     1
 90
        1
176
     1
 90
        1
176
     1
 40
1.0
176
     1
 90
        8
176
     1
 62
     7
176
     1
 40
1.0
176
     1
 90
        1
176
     1
 90
        6
176
     1
 90
        2
176
     1
 62
     7
176
     1
 90
        5
176
     1
 90
        0
176
     1
 90
        0
176
     1
290
     0
176
     1
 90
        1
176
     1
 40
50.0
176
     1
 90
        0
176
     1
290
     0
176
     1
290
     1
176
     1
290
     1
176
     1
290
     0
176
     1
290
     0
176
     1
290
     0
176
     1
290
     0
176
     1
290
     0
176
     1
290
     0
176
     1
 90
       50
176
     1
 40
0.0
176
     1
 40
1.0
176
     1
 90
        0
176
     1
 62
    18
420
        0
176
     1
 90
       50
176
     1
 90
        3
176
     1
 62
     5
420
      255
176
     1
290
     0
176
     1
 90
       50
176
     1
 90
       50
176
     1
 90
       50
176
     1
290
     0
176
     1
 90
       50
176
     1
 62
   256
176
     0
 40
1.0
176
     0
 90
        2
176
     1
  1
strokes_ogs.tif
176
     1
290
     0
176
     1
 40
1.0
176
     1
 40
1.0
176
     1
  0
VISUALSTYLE
  5
3A
102
{ACAD_REACTORS
330
2A
102
}
330
2A
100
AcDbVisualStyle
  2
ColorChange
 70
    16
177
     3
291
     1
 70
    58
 90
        2
176
     1
 90
        2
176
     1
 90
        3
176
     1
 90
        0
176
     1
 40
0.6
176
     1
 40
30.0
176
     1
 62
     8
420
  8421504
176
     1
 90
        1
176
     1
 90
        4
176
     1
 62
     7
176
     1
 62
   257
176
     1
 90
        1
176
     1
 90
        1
176
     1
 40
1.0
176
     1
 90
        8
176
     1
 62
     8
420
  8421504
176
     1
 40
1.0
176
     1
 90
        1
176
     1
 90
        6
176
     1
 90
        2
176
     1
 62
     7
176
     1
 90
        5
176
     1
 90
        0
176
     1
 90
        0
176
     1
290
     0
176
     1
 90
        1
176
     1
 40
0.0
176
     1
 90
        0
176
     1
290
     0
176
     1
290
     1
176
     1
290
     1
176
     1
290
     0
176
     1
290
     0
176
     1
290
     0
176
     1
290
     0
176
     1
290
     0
176
     1
290
     0
176
     1
 90
       50
176
     1
 40
0.0
176
     1
 40
1.0
176
     1
 90
        0
176
     1
 62
    18
420
        0
176
     1
 90
       50
176
     1
 90
        3
176
     1
 62
     5
420
      255
176
     1
290
     0
176
     1
 90
       50
176
     1
 90
       50
176
     1
 90
       50
176
     1
290
     0
176
     1
 90
       50
176
     1
 62
   256
176
     0
 40
1.0
176
     0
 90
        2
176
     1
  1
strokes_ogs.tif
176
     1
290
     0
176
     1
 40
1.0
176
     1
 40
1.0
176
     1
  0
VISUALSTYLE
  5
34
102
{ACAD_REACTORS
330
2A
102
}
330
2A
100
AcDbVisualStyle
  2
Conceptual
 70
     9
177
     3
291
     0
 70
    58
 90
        3
176
     1
 90
        2
176
     1
 90
        0
176
     1
 90
        0
176
     1
 40
0.6
176
     1
 40
30.0
176
     1
 62
     7
420
 16777215
176
     1
 90
        2
176
     1
 90
        2
176
     1
 62
     7
176
     1
 62
   257
176
     1
 90
        1
176
     1
 90
        1
176
     1
 40
179.0
176
     1
 90
        8
176
     1
 62
     7
176
     1
 40
1.0
176
     1
 90
        1
176
     1
 90
        6
176
     1
 90
        2
176
     1
 62
     7
176
     1
 90
        3
176
     1
 90
        0
176
     1
 90
        0
176
     1
290
     0
176
     1
 90
        1
176
     1
 40
0.0
176
     1
 90
        0
176
     1
290
     0
176
     1
290
     1
176
     1
290
     1
176
     1
290
     0
176
     1
290
     0
176
     1
290
     0
176
     1
290
     0
176
     1
290
     0
176
     1
290
     0
176
     1
 90
       50
176
     1
 40
0.0
176
     1
 40
1.0
176
     1
 90
        0
176
     1
 62
    18
420
        0
176
     1
 90
       50
176
     1
 90
        3
176
     1
 62
     5
420
      255
176
     1
290
     0
176
     1
 90
       50
176
     1
 90
       50
176
     1
 90
       50
176
     1
290
     0
176
     1
 90
       50
176
     1
 62
   256
176
     0
 40
1.0
176
     0
 90
        2
176
     1
  1
strokes_ogs.tif
176
     1
290
     0
176
     1
 40
1.0
176
     1
 40
1.0
176
     1
  0
VISUALSTYLE
  5
35
102
{ACAD_REACTORS
330
2A
102
}
330
2A
100
AcDbVisualStyle
  2
Dim
 70
    11
177
     3
291
     1
 70
    58
 90
        2
176
     1
 90
        2
176
     1
 90
        0
176
     1
 90
        0
176
     1
 40
0.6
176
     1
 40
30.0
176
     1
 62
     7
420
 16777215
176
     1
 90
        1
176
     1
 90
        4
176
     1
 62
     7
176
     1
 62
   257
176
     1
 90
        1
176
     1
 90
        1
176
     1
 40
1.0
176
     1
 90
        8
176
     1
 62
     7
176
     1
 40
1.0
176
     1
 90
        1
176
     1
 90
        6
176
     1
 90
        2
176
     1
 62
     7
176
     1
 90
        5
176
     1
 90
        0
176
     1
 90
        0
176
     1
290
     0
176
     1
 90
        1
176
     1
 40
-50.0
176
     1
 90
        0
176
     1
290
     0
176
     1
290
     1
176
     1
290
     1
176
     1
290
     0
176
     1
290
     0
176
     1
290
     0
176
     1
290
     0
176
     1
290
     0
176
     1
290
     0
176
     1
 90
       50
176
     1
 40
0.0
176
     1
 40
1.0
176
     1
 90
        0
176
     1
 62
    18
420
        0
176
     1
 90
       50
176
     1
 90
        3
176
     1
 62
     5
420
      255
176
     1
290
     0
176
     1
 90
       50
176
     1
 90
       50
176
     1
 90
       50
176
     1
290
     0
176
     1
 90
       50
176
     1
 62
   256
176
     0
 40
1.0
176
     0
 90
        2
176
     1
  1
strokes_ogs.tif
176
     1
290
     0
176
     1
 40
1.0
176
     1
 40
1.0
176
     1
  0
VISUALSTYLE
  5
3D
102
{ACAD_REACTORS
330
2A
102
}
330
2A
100
AcDbVisualStyle
  2
EdgeColorOff
 70
    22
177
     3
291
     1
 70
    58
 90
        2
176
     0
 90
        2
176
     0
 90
        0
176
     0
 90
        0
176
     0
 40
0.6
176
     0
 40
30.0
176
     0
 62
     7
420
 16777215
176
     0
 90
        1
176
     0
 90
        4
176
     0
 62
     7
176
     0
 62
   257
176
     0
 90
        1
176
     0
 90
        1
176
     0
 40
1.0
176
     0
 90
        8
176
     2
 62
     7
176
     0
 40
1.0
176
     0
 90
        1
176
     0
 90
        6
176
     0
 90
        2
176
     0
 62
     7
176
     0
 90
        5
176
     0
 90
        0
176
     0
 90
        0
176
     0
290
     0
176
     0
 90
        1
176
     0
 40
0.0
176
     0
 90
        0
176
     0
290
     0
176
     0
290
     1
176
     0
290
     1
176
     0
290
     0
176
     0
290
     0
176
     0
290
     0
176
     0
290
     0
176
     0
290
     0
176
     0
290
     0
176
     0
 90
       50
176
     0
 40
0.0
176
     0
 40
1.0
176
     0
 90
        0
176
     0
 62
    18
420
        0
176
     0
 90
       50
176
     0
 90
        3
176
     0
 62
     5
420
      255
176
     0
290
     0
176
     0
 90
       50
176
     0
 90
       50
176
     0
 90
       50
176
     0
290
     0
176
     0
 90
       50
176
     0
 62
   256
176
     0
 40
1.0
176
     0
 90
        2
176
     0
  1
strokes_ogs.tif
176
     0
290
     0
176
     0
 40
1.0
176
     0
 40
1.0
176
     0
  0
VISUALSTYLE
  5
39
102
{ACAD_REACTORS
330
2A
102
}
330
2A
100
AcDbVisualStyle
  2
Facepattern
 70
    15
177
     3
291
     1
 70
    58
 90
        2
176
     1
 90
        2
176
     1
 90
        0
176
     1
 90
        0
176
     1
 40
0.6
176
     1
 40
30.0
176
     1
 62
     7
420
 16777215
176
     1
 90
        1
176
     1
 90
        4
176
     1
 62
     7
176
     1
 62
   257
176
     1
 90
        1
176
     1
 90
        1
176
     1
 40
1.0
176
     1
 90
        8
176
     1
 62
     7
176
     1
 40
1.0
176
     1
 90
        1
176
     1
 90
        6
176
     1
 90
        2
176
     1
 62
     7
176
     1
 90
        5
176
     1
 90
        0
176
     1
 90
        0
176
     1
290
     0
176
     1
 90
        1
176
     1
 40
0.0
176
     1
 90
        0
176
     1
290
     0
176
     1
290
     1
176
     1
290
     1
176
     1
290
     0
176
     1
290
     0
176
     1
290
     0
176
     1
290
     0
176
     1
290
     0
176
     1
290
     0
176
     1
 90
       50
176
     1
 40
0.0
176
     1
 40
1.0
176
     1
 90
        0
176
     1
 62
    18
420
        0
176
     1
 90
       50
176
     1
 90
        3
176
     1
 62
     5
420
      255
176
     1
290
     0
176
     1
 90
       50
176
     1
 90
       50
176
     1
 90
       50
176
     1
290
     0
176
     1
 90
       50
176
     1
 62
   256
176
     0
 40
1.0
176
     0
 90
        2
176
     1
  1
strokes_ogs.tif
176
     1
290
     0
176
     1
 40
1.0
176
     1
 40
1.0
176
     1
  0
VISUALSTYLE
  5
2B
102
{ACAD_REACTORS
330
2A
102
}
330
2A
100
AcDbVisualStyle
  2
Flat
 70
     0
177
     3
291
     1
 70
    58
 90
        2
176
     1
 90
        1
176
     1
 90
        1
176
     1
 90
        2
176
     1
 40
0.6
176
     1
 40
30.0
176
     1
 62
     7
420
 16777215
176
     1
 90
        0
176
     1
 90
        0
176
     1
 62
     7
176
     1
 62
   257
176
     1
 90
        1
176
     1
 90
        1
176
     1
 40
1.0
176
     1
 90
        8
176
     1
 62
     7
176
     1
 40
1.0
176
     1
 90
        1
176
     1
 90
        6
176
     1
 90
        2
176
     1
 62
     7
176
     1
 90
        5
176
     1
 90
        0
176
     1
 90
        0
176
     1
290
     0
176
     1
 90
       13
176
     1
 40
0.0
176
     1
 90
        0
176
     1
290
     0
176
     1
290
     1
176
     1
290
     1
176
     1
290
     0
176
     1
290
     0
176
     1
290
     0
176
     1
290
     0
176
     1
290
     0
176
     1
290
     0
176
     1
 90
       50
176
     1
 40
0.0
176
     1
 40
1.0
176
     1
 90
        0
176
     1
 62
    18
420
        0
176
     1
 90
       50
176
     1
 90
        3
176
     1
 62
     5
420
      255
176
     1
290
     0
176
     1
 90
       50
176
     1
 90
       50
176
     1
 90
       50
176
     1
290
     0
176
     1
 90
       50
176
     1
 62
   256
176
     0
 40
1.0
176
     0
 90
        2
176
     1
  1
strokes_ogs.tif
176
     1
290
     0
176
     1
 40
1.0
176
     1
 40
1.0
176
     1
  0
VISUALSTYLE
  5
2C
102
{ACAD_REACTORS
330
2A
102
}
330
2A
100
AcDbVisualStyle
  2
FlatWithEdges
 70
     1
177
     3
291
     1
 70
    58
 90
        2
176
     1
 90
        1
176
     1
 90
        1
176
     1
 90
        2
176
     1
 40
0.6
176
     1
 40
30.0
176
     1
 62
     7
420
 16777215
176
     1
 90
        1
176
     1
 90
        0
176
     1
 62
     7
176
     1
 62
   257
176
     1
 90
        1
176
     1
 90
        1
176
     1
 40
1.0
176
     1
 90
        0
176
     1
 62
   257
176
     1
 40
1.0
176
     1
 90
        1
176
     1
 90
        6
176
     1
 90
        2
176
     1
 62
     7
176
     1
 90
        5
176
     1
 90
        0
176
     1
 90
        0
176
     1
290
     0
176
     1
 90
       13
176
     1
 40
0.0
176
     1
 90
        0
176
     1
290
     0
176
     1
290
     1
176
     1
290
     1
176
     1
290
     0
176
     1
290
     0
176
     1
290
     0
176
     1
290
     0
176
     1
290
     0
176
     1
290
     0
176
     1
 90
       50
176
     1
 40
0.0
176
     1
 40
1.0
176
     1
 90
        0
176
     1
 62
    18
420
        0
176
     1
 90
       50
176
     1
 90
        3
176
     1
 62
     5
420
      255
176
     1
290
     0
176
     1
 90
       50
176
     1
 90
       50
176
     1
 90
       50
176
     1
290
     0
176
     1
 90
       50
176
     1
 62
   256
176
     0
 40
1.0
176
     0
 90
        2
176
     1
  1
strokes_ogs.tif
176
     1
290
     0
176
     1
 40
1.0
176
     1
 40
1.0
176
     1
  0
VISUALSTYLE
  5
2D
102
{ACAD_REACTORS
330
2A
102
}
330
2A
100
AcDbVisualStyle
  2
Gouraud
 70
     2
177
     3
291
     1
 70
    58
 90
        2
176
     1
 90
        2
176
     1
 90
        1
176
     1
 90
        2
176
     1
 40
0.6
176
     1
 40
30.0
176
     1
 62
     7
420
 16777215
176
     1
 90
        0
176
     1
 90
        0
176
     1
 62
     7
176
     1
 62
   257
176
     1
 90
        1
176
     1
 90
        1
176
     1
 40
1.0
176
     1
 90
        0
176
     1
 62
     7
176
     1
 40
1.0
176
     1
 90
        1
176
     1
 90
        6
176
     1
 90
        2
176
     1
 62
     7
176
     1
 90
        5
176
     1
 90
        0
176
     1
 90
        0
176
     1
290
     0
176
     1
 90
       13
176
     1
 40
0.0
176
     1
 90
        0
176
     1
290
     0
176
     1
290
     1
176
     1
290
     1
176
     1
290
     0
176
     1
290
     0
176
     1
290
     0
176
     1
290
     0
176
     1
290
     0
176
     1
290
     0
176
     1
 90
       50
176
     1
 40
0.0
176
     1
 40
1.0
176
     1
 90
        0
176
     1
 62
    18
420
        0
176
     1
 90
       50
176
     1
 90
        3
176
     1
 62
     5
420
      255
176
     1
290
     0
176
     1
 90
       50
176
     1
 90
       50
176
     1
 90
       50
176
     1
290
     0
176
     1
 90
       50
176
     1
 62
   256
176
     0
 40
1.0
176
     0
 90
        2
176
     1
  1
strokes_ogs.tif
176
     1
290
     0
176
     1
 40
1.0
176
     1
 40
1.0
176
     1
  0
VISUALSTYLE
  5
2E
102
{ACAD_REACTORS
330
2A
102
}
330
2A
100
AcDbVisualStyle
  2
GouraudWithEdges
 70
     3
177
     3
291
     1
 70
    58
 90
        2
176
     1
 90
        2
176
     1
 90
        1
176
     1
 90
        2
176
     1
 40
0.6
176
     1
 40
30.0
176
     1
 62
     7
420
 16777215
176
     1
 90
        1
176
     1
 90
        0
176
     1
 62
     7
176
     1
 62
   257
176
     1
 90
        1
176
     1
 90
        1
176
     1
 40
1.0
176
     1
 90
        0
176
     1
 62
   257
176
     1
 40
1.0
176
     1
 90
        1
176
     1
 90
        6
176
     1
 90
        2
176
     1
 62
     7
176
     1
 90
        5
176
     1
 90
        0
176
     1
 90
        0
176
     1
290
     0
176
     1
 90
       13
176
     1
 40
0.0
176
     1
 90
        0
176
     1
290
     0
176
     1
290
     1
176
     1
290
     1
176
     1
290
     0
176
     1
290
     0
176
     1
290
     0
176
     1
290
     0
176
     1
290
     0
176
     1
290
     0
176
     1
 90
       50
176
     1
 40
0.0
176
     1
 40
1.0
176
     1
 90
        0
176
     1
 62
    18
420
        0
176
     1
 90
       50
176
     1
 90
        3
176
     1
 62
     5
420
      255
176
     1
290
     0
176
     1
 90
       50
176
     1
 90
       50
176
     1
 90
       50
176
     1
290
     0
176
     1
 90
       50
176
     1
 62
   256
176
     0
 40
1.0
176
     0
 90
        2
176
     1
  1
strokes_ogs.tif
176
     1
290
     0
176
     1
 40
1.0
176
     1
 40
1.0
176
     1
  0
VISUALSTYLE
  5
31
102
{ACAD_REACTORS
330
2A
102
}
330
2A
100
AcDbVisualStyle
  2
Hidden
 70
     6
177
     3
291
     0
 70
    58
 90
        1
176
     1
 90
        2
176
     1
 90
        2
176
     1
 90
        0
176
     1
 40
0.6
176
     1
 40
30.0
176
     1
 62
     7
420
 16777215
176
     1
 90
        2
176
     1
 90
        2
176
     1
 62
     7
176
     1
 62
   257
176
     1
 90
        2
176
     1
 90
        1
176
     1
 40
40.0
176
     1
 90
        0
176
     1
 62
   257
176
     1
 40
1.0
176
     1
 90
        1
176
     1
 90
        6
176
     1
 90
        2
176
     1
 62
     7
176
     1
 90
        3
176
     1
 90
        0
176
     1
 90
        0
176
     1
290
     0
176
     1
 90
        1
176
     1
 40
0.0
176
     1
 90
        0
176
     1
290
     0
176
     1
290
     1
176
     1
290
     1
176
     1
290
     0
176
     1
290
     0
176
     1
290
     0
176
     1
290
     0
176
     1
290
     0
176
     1
290
     0
176
     1
 90
       50
176
     1
 40
0.0
176
     1
 40
1.0
176
     1
 90
        0
176
     1
 62
    18
420
        0
176
     1
 90
       50
176
     1
 90
        3
176
     1
 62
     5
420
      255
176
     1
290
     0
176
     1
 90
       50
176
     1
 90
       50
176
     1
 90
       50
176
     1
290
     0
176
     1
 90
       50
176
     1
 62
   256
176
     0
 40
1.0
176
     0
 90
        2
176
     1
  1
strokes_ogs.tif
176
     1
290
     0
176
     1
 40
1.0
176
     1
 40
1.0
176
     1
  0
VISUALSTYLE
  5
3B
102
{ACAD_REACTORS
330
2A
102
}
330
2A
100
AcDbVisualStyle
  2
JitterOff
 70
    20
177
     3
291
     1
 70
    58
 90
        2
176
     0
 90
        2
176
     0
 90
        0
176
     0
 90
        0
176
     0
 40
0.6
176
     0
 40
30.0
176
     0
 62
     7
420
 16777215
176
     0
 90
        1
176
     0
 90
        4
176
     0
 62
     7
176
     0
 62
   257
176
     0
 90
        1
176
     0
 90
        1
176
     0
 40
1.0
176
     0
 90
       10
176
     2
 62
     7
176
     0
 40
1.0
176
     0
 90
        1
176
     0
 90
        6
176
     0
 90
        2
176
     0
 62
     7
176
     0
 90
        5
176
     0
 90
        0
176
     0
 90
        0
176
     0
290
     0
176
     0
 90
        1
176
     0
 40
0.0
176
     0
 90
        0
176
     0
290
     0
176
     0
290
     1
176
     0
290
     1
176
     0
290
     0
176
     0
290
     0
176
     0
290
     0
176
     0
290
     0
176
     0
290
     0
176
     0
290
     0
176
     0
 90
       50
176
     0
 40
0.0
176
     0
 40
1.0
176
     0
 90
        0
176
     0
 62
    18
420
        0
176
     0
 90
       50
176
     0
 90
        3
176
     0
 62
     5
420
      255
176
     0
290
     0
176
     0
 90
       50
176
     0
 90
       50
176
     0
 90
       50
176
     0
290
     0
176
     0
 90
       50
176
     0
 62
   256
176
     0
 40
1.0
176
     0
 90
        2
176
     0
  1
strokes_ogs.tif
176
     0
290
     0
176
     0
 40
1.0
176
     0
 40
1.0
176
     0
  0
VISUALSTYLE
  5
38
102
{ACAD_REACTORS
330
2A
102
}
330
2A
100
AcDbVisualStyle
  2
Linepattern
 70
    14
177
     3
291
     1
 70
    58
 90
        2
176
     1
 90
        2
176
     1
 90
        0
176
     1
 90
        0
176
     1
 40
0.6
176
     1
 40
30.0
176
     1
 62
     7
420
 16777215
176
     1
 90
        1
176
     1
 90
        4
176
     1
 62
     7
176
     1
 62
   257
176
     1
 90
        7
176
     1
 90
        7
176
     1
 40
1.0
176
     1
 90
        8
176
     1
 62
     7
176
     1
 40
1.0
176
     1
 90
        1
176
     1
 90
        6
176
     1
 90
        2
176
     1
 62
     7
176
     1
 90
        5
176
     1
 90
        0
176
     1
 90
        0
176
     1
290
     0
176
     1
 90
        1
176
     1
 40
0.0
176
     1
 90
        0
176
     1
290
     0
176
     1
290
     1
176
     1
290
     1
176
     1
290
     0
176
     1
290
     0
176
     1
290
     0
176
     1
290
     0
176
     1
290
     0
176
     1
290
     0
176
     1
 90
       50
176
     1
 40
0.0
176
     1
 40
1.0
176
     1
 90
        0
176
     1
 62
    18
420
        0
176
     1
 90
       50
176
     1
 90
        3
176
     1
 62
     5
420
      255
176
     1
290
     0
176
     1
 90
       50
176
     1
 90
       50
176
     1
 90
       50
176
     1
290
     0
176
     1
 90
       50
176
     1
 62
   256
176
     0
 40
1.0
176
     0
 90
        2
176
     1
  1
strokes_ogs.tif
176
     1
290
     0
176
     1
 40
1.0
176
     1
 40
1.0
176
     1
  0
VISUALSTYLE
  5
3C
102
{ACAD_REACTORS
330
2A
102
}
330
2A
100
AcDbVisualStyle
  2
OverhangOff
 70
    21
177
     3
291
     1
 70
    58
 90
        2
176
     0
 90
        2
176
     0
 90
        0
176
     0
 90
        0
176
     0
 40
0.6
176
     0
 40
30.0
176
     0
 62
     7
420
 16777215
176
     0
 90
        1
176
     0
 90
        4
176
     0
 62
     7
176
     0
 62
   257
176
     0
 90
        1
176
     0
 90
        1
176
     0
 40
1.0
176
     0
 90
        9
176
     2
 62
     7
176
     0
 40
1.0
176
     0
 90
        1
176
     0
 90
        6
176
     0
 90
        2
176
     0
 62
     7
176
     0
 90
        5
176
     0
 90
        0
176
     0
 90
        0
176
     0
290
     0
176
     0
 90
        1
176
     0
 40
0.0
176
     0
 90
        0
176
     0
290
     0
176
     0
290
     1
176
     0
290
     1
176
     0
290
     0
176
     0
290
     0
176
     0
290
     0
176
     0
290
     0
176
     0
290
     0
176
     0
290
     0
176
     0
 90
       50
176
     0
 40
0.0
176
     0
 40
1.0
176
     0
 90
        0
176
     0
 62
    18
420
        0
176
     0
 90
       50
176
     0
 90
        3
176
     0
 62
     5
420
      255
176
     0
290
     0
176
     0
 90
       50
176
     0
 90
       50
176
     0
 90
       50
176
     0
290
     0
176
     0
 90
       50
176
     0
 62
   256
176
     0
 40
1.0
176
     0
 90
        2
176
     0
  1
strokes_ogs.tif
176
     0
290
     0
176
     0
 40
1.0
176
     0
 40
1.0
176
     0
  0
VISUALSTYLE
  5
33
102
{ACAD_REACTORS
330
2A
102
}
330
2A
100
AcDbVisualStyle
  2
Realistic
 70
     8
177
     3
291
     0
 70
    58
 90
        2
176
     1
 90
        3
176
     1
 90
        0
176
     1
 90
        2
176
     1
 40
0.6
176
     1
 40
30.0
176
     1
 62
     7
420
 16777215
176
     1
 90
        0
176
     1
 90
        0
176
     1
 62
     7
176
     1
 62
   257
176
     1
 90
        1
176
     1
 90
        1
176
     1
 40
1.0
176
     1
 90
        8
176
     1
 62
   257
176
     1
 40
1.0
176
     1
 90
        1
176
     1
 90
        6
176
     1
 90
        2
176
     1
 62
     7
176
     1
 90
        3
176
     1
 90
        0
176
     1
 90
        0
176
     1
290
     0
176
     1
 90
       13
176
     1
 40
0.0
176
     1
 90
        0
176
     1
290
     0
176
     1
290
     1
176
     1
290
     1
176
     1
290
     0
176
     1
290
     0
176
     1
290
     0
176
     1
290
     0
176
     1
290
     0
176
     1
290
     0
176
     1
 90
       50
176
     1
 40
0.0
176
     1
 40
1.0
176
     1
 90
        0
176
     1
 62
    18
420
        0
176
     1
 90
       50
176
     1
 90
        3
176
     1
 62
     5
420
      255
176
     1
290
     0
176
     1
 90
       50
176
     1
 90
       50
176
     1
 90
       50
176
     1
290
     0
176
     1
 90
       50
176
     1
 62
   256
176
     0
 40
1.0
176
     0
 90
        2
176
     1
  1
strokes_ogs.tif
176
     1
290
     0
176
     1
 40
1.0
176
     1
 40
1.0
176
     1
  0
VISUALSTYLE
  5
42
102
{ACAD_REACTORS
330
2A
102
}
330
2A
100
AcDbVisualStyle
  2
Shaded
 70
    27
177
     3
291
     0
 70
    58
 90
        2
176
     1
 90
        2
176
     1
 90
        1
176
     1
 90
        2
176
     1
 40
0.6
176
     1
 40
30.0
176
     1
 62
     7
420
 16777215
176
     1
 90
        0
176
     1
 90
        4
176
     1
 62
     7
176
     1
 62
   257
176
     1
 90
        1
176
     1
 90
        1
176
     1
 40
1.0
176
     1
 90
        8
176
     1
 62
   257
176
     1
 40
1.0
176
     1
 90
        1
176
     1
 90
        6
176
     1
 90
        2
176
     1
 62
     8
420
  7895160
176
     1
 90
        3
176
     1
 90
        0
176
     1
 90
        0
176
     1
290
     0
176
     1
 90
        5
176
     1
 40
0.0
176
     1
 90
        0
176
     1
290
     0
176
     1
290
     1
176
     1
290
     1
176
     1
290
     0
176
     1
290
     0
176
     1
290
     0
176
     1
290
     0
176
     1
290
     0
176
     1
290
     0
176
     1
 90
       50
176
     1
 40
0.0
176
     1
 40
1.0
176
     1
 90
        0
176
     1
 62
    18
420
        0
176
     1
 90
       50
176
     1
 90
        3
176
     1
 62
     5
420
      255
176
     1
290
     0
176
     1
 90
       50
176
     1
 90
       50
176
     1
 90
       50
176
     1
290
     0
176
     1
 90
       50
176
     1
 62
   256
176
     0
 40
1.0
176
     0
 90
        2
176
     1
  1
strokes_ogs.tif
176
     1
290
     0
176
     1
 40
1.0
176
     1
 40
1.0
176
     1
  0
VISUALSTYLE
  5
41
102
{ACAD_REACTORS
330
2A
102
}
330
2A
100
AcDbVisualStyle
  2
Shaded with edges
 70
    26
177
     3
291
     0
 70
    58
 90
        2
176
     1
 90
        2
176
     1
 90
        1
176
     1
 90
        2
176
     1
 40
0.6
176
     1
 40
30.0
176
     1
 62
     7
420
 16777215
176
     1
 90
        1
176
     1
 90
       10
176
     1
 62
     7
176
     1
 62
   257
176
     1
 90
        2
176
     1
 90
        1
176
     1
 40
1.0
176
     1
 90
        8
176
     1
 62
   257
176
     1
 40
1.0
176
     1
 90
        1
176
     1
 90
        6
176
     1
 90
        2
176
     1
 62
     7
176
     1
 90
        3
176
     1
 90
        0
176
     1
 90
        0
176
     1
290
     0
176
     1
 90
        5
176
     1
 40
0.0
176
     1
 90
        0
176
     1
290
     0
176
     1
290
     1
176
     1
290
     1
176
     1
290
     0
176
     1
290
     0
176
     1
290
     0
176
     1
290
     0
176
     1
290
     0
176
     1
290
     0
176
     1
 90
       50
176
     1
 40
0.0
176
     1
 40
1.0
176
     1
 90
        0
176
     1
 62
    18
420
        0
176
     1
 90
       50
176
     1
 90
        3
176
     1
 62
     5
420
      255
176
     1
290
     0
176
     1
 90
       50
176
     1
 90
       50
176
     1
 90
       50
176
     1
290
     0
176
     1
 90
       50
176
     1
 62
   256
176
     0
 40
1.0
176
     0
 90
        2
176
     1
  1
strokes_ogs.tif
176
     1
290
     0
176
     1
 40
1.0
176
     1
 40
1.0
176
     1
  0
VISUALSTYLE
  5
3E
102
{ACAD_REACTORS
330
2A
102
}
330
2A
100
AcDbVisualStyle
  2
Shades of Gray
 70
    23
177
     3
291
     0
 70
    58
 90
        2
176
     1
 90
        2
176
     1
 90
        3
176
     1
 90
        0
176
     1
 40
0.6
176
     1
 40
30.0
176
     1
 62
     7
420
 16777215
176
     1
 90
        2
176
     1
 90
        2
176
     1
 62
     7
176
     1
 62
     7
176
     1
 90
        1
176
     1
 90
        1
176
     1
 40
40.0
176
     1
 90
        8
176
     1
 62
     7
176
     1
 40
1.0
176
     1
 90
        1
176
     1
 90
        6
176
     1
 90
        2
176
     1
 62
     7
176
     1
 90
        3
176
     1
 90
        0
176
     1
 90
        0
176
     1
290
     0
176
     1
 90
        1
176
     1
 40
0.0
176
     1
 90
        0
176
     1
290
     0
176
     1
290
     1
176
     1
290
     1
176
     1
290
     0
176
     1
290
     0
176
     1
290
     0
176
     1
290
     0
176
     1
290
     0
176
     1
290
     0
176
     1
 90
       50
176
     1
 40
0.0
176
     1
 40
1.0
176
     1
 90
        0
176
     1
 62
    18
420
        0
176
     1
 90
       50
176
     1
 90
        3
176
     1
 62
     5
420
      255
176
     1
290
     0
176
     1
 90
       50
176
     1
 90
       50
176
     1
 90
       50
176
     1
290
     0
176
     1
 90
       50
176
     1
 62
   256
176
     0
 40
1.0
176
     0
 90
        2
176
     1
  1
strokes_ogs.tif
176
     1
290
     0
176
     1
 40
1.0
176
     1
 40
1.0
176
     1
  0
VISUALSTYLE
  5
3F
102
{ACAD_REACTORS
330
2A
102
}
330
2A
100
AcDbVisualStyle
  2
Sketchy
 70
    24
177
     3
291
     0
 70
    58
 90
        1
176
     1
 90
        2
176
     1
 90
        2
176
     1
 90
        0
176
     1
 40
0.6
176
     1
 40
30.0
176
     1
 62
     7
420
 16777215
176
     1
 90
        2
176
     1
 90
        2
176
     1
 62
     7
176
     1
 62
     7
176
     1
 90
        1
176
     1
 90
        1
176
     1
 40
40.0
176
     1
 90
       11
176
     1
 62
     7
176
     1
 40
1.0
176
     1
 90
        1
176
     1
 90
        6
176
     1
 90
        2
176
     1
 62
     7
176
     1
 90
        6
176
     1
 90
        0
176
     1
 90
        0
176
     1
290
     0
176
     1
 90
        1
176
     1
 40
0.0
176
     1
 90
        0
176
     1
290
     0
176
     1
290
     1
176
     1
290
     1
176
     1
290
     0
176
     1
290
     0
176
     1
290
     0
176
     1
290
     0
176
     1
290
     0
176
     1
290
     0
176
     1
 90
       50
176
     1
 40
0.0
176
     1
 40
1.0
176
     1
 90
        0
176
     1
 62
    18
420
        0
176
     1
 90
       50
176
     1
 90
        3
176
     1
 62
     5
420
      255
176
     1
290
     0
176
     1
 90
       50
176
     1
 90
       50
176
     1
 90
       50
176
     1
290
     0
176
     1
 90
       50
176
     1
 62
   256
176
     0
 40
1.0
176
     0
 90
        2
176
     1
  1
strokes_ogs.tif
176
     1
290
     0
176
     1
 40
1.0
176
     1
 40
1.0
176
     1
  0
VISUALSTYLE
  5
37
102
{ACAD_REACTORS
330
2A
102
}
330
2A
100
AcDbVisualStyle
  2
Thicken
 70
    13
177
     3
291
     1
 70
    58
 90
        2
176
     1
 90
        2
176
     1
 90
        0
176
     1
 90
        0
176
     1
 40
0.6
176
     1
 40
30.0
176
     1
 62
     7
420
 16777215
176
     1
 90
        1
176
     1
 90
        4
176
     1
 62
     7
176
     1
 62
   257
176
     1
 90
        1
176
     1
 90
        1
176
     1
 40
1.0
176
     1
 90
       12
176
     1
 62
     7
176
     1
 40
1.0
176
     1
 90
        1
176
     1
 90
        6
176
     1
 90
        2
176
     1
 62
     7
176
     1
 90
        5
176
     1
 90
        0
176
     1
 90
        0
176
     1
290
     0
176
     1
 90
        1
176
     1
 40
0.0
176
     1
 90
        0
176
     1
290
     0
176
     1
290
     1
176
     1
290
     1
176
     1
290
     0
176
     1
290
     0
176
     1
290
     0
176
     1
290
     0
176
     1
290
     0
176
     1
290
     0
176
     1
 90
       50
176
     1
 40
0.0
176
     1
 40
1.0
176
     1
 90
        0
176
     1
 62
    18
420
        0
176
     1
 90
       50
176
     1
 90
        3
176
     1
 62
     5
420
      255
176
     1
290
     0
176
     1
 90
       50
176
     1
 90
       50
176
     1
 90
       50
176
     1
290
     0
176
     1
 90
       50
176
     1
 62
   256
176
     0
 40
1.0
176
     0
 90
        2
176
     1
  1
strokes_ogs.tif
176
     1
290
     0
176
     1
 40
1.0
176
     1
 40
1.0
176
     1
  0
VISUALSTYLE
  5
30
102
{ACAD_REACTORS
330
2A
102
}
330
2A
100
AcDbVisualStyle
  2
Wireframe
 70
     5
177
     3
291
     0
 70
    58
 90
        0
176
     1
 90
        2
176
     1
 90
        0
176
     1
 90
        0
176
     1
 40
0.6
176
     1
 40
30.0
176
     1
 62
     7
420
 16777215
176
     1
 90
        1
176
     1
 90
        4
176
     1
 62
     7
176
     1
 62
   257
176
     1
 90
        1
176
     1
 90
        1
176
     1
 40
1.0
176
     1
 90
        0
176
     1
 62
   257
176
     1
 40
1.0
176
     1
 90
        1
176
     1
 90
        6
176
     1
 90
        2
176
     1
 62
     7
176
     1
 90
        3
176
     1
 90
        0
176
     1
 90
        0
176
     1
290
     0
176
     1
 90
        1
176
     1
 40
0.0
176
     1
 90
        0
176
     1
290
     0
176
     1
290
     1
176
     1
290
     1
176
     1
290
     0
176
     1
290
     0
176
     1
290
     0
176
     1
290
     0
176
     1
290
     0
176
     1
290
     0
176
     1
 90
       50
176
     1
 40
0.0
176
     1
 40
1.0
176
     1
 90
        0
176
     1
 62
    18
420
        0
176
     1
 90
       50
176
     1
 90
        3
176
     1
 62
     5
420
      255
176
     1
290
     0
176
     1
 90
       50
176
     1
 90
       50
176
     1
 90
       50
176
     1
290
     0
176
     1
 90
       50
176
     1
 62
   256
176
     0
 40
1.0
176
     0
 90
        2
176
     1
  1
strokes_ogs.tif
176
     1
290
     0
176
     1
 40
1.0
176
     1
 40
1.0
176
     1
  0
VISUALSTYLE
  5
40
102
{ACAD_REACTORS
330
2A
102
}
330
2A
100
AcDbVisualStyle
  2
X-Ray
 70
    25
177
     3
291
     0
 70
    58
 90
        2
176
     1
 90
        2
176
     1
 90
        1
176
     1
 90
        1
176
     1
 40
0.5
176
     1
 40
30.0
176
     1
 62
     7
420
 16777215
176
     1
 90
        1
176
     1
 90
        0
176
     1
 62
     7
176
     1
 62
   257
176
     1
 90
        1
176
     1
 90
        1
176
     1
 40
1.0
176
     1
 90
        8
176
     1
 62
     7
176
     1
 40
1.0
176
     1
 90
        1
176
     1
 90
        6
176
     1
 90
        2
176
     1
 62
     7
176
     1
 90
        3
176
     1
 90
        0
176
     1
 90
        0
176
     1
290
     0
176
     1
 90
       13
176
     1
 40
0.0
176
     1
 90
        0
176
     1
290
     0
176
     1
290
     1
176
     1
290
     1
176
     1
290
     0
176
     1
290
     0
176
     1
290
     0
176
     1
290
     0
176
     1
290
     0
176
     1
290
     0
176
     1
 90
       50
176
     1
 40
0.0
176
     1
 40
1.0
176
     1
 90
        0
176
     1
 62
    18
420
        0
176
     1
 90
       50
176
     1
 90
        3
176
     1
 62
     5
420
      255
176
     1
290
     0
176
     1
 90
       50
176
     1
 90
       50
176
     1
 90
       50
176
     1
290
     0
176
     1
 90
       50
176
     1
 62
   256
176
     0
 40
1.0
176
     0
 90
        2
176
     1
  1
strokes_ogs.tif
176
     1
290
     0
176
     1
 40
1.0
176
     1
 40
1.0
176
     1
  0
DICTIONARYVAR
  5
5AD
102
{ACAD_REACTORS
330
5AC
102
}
330
5AC
100
DictionaryVariables
280
     0
  1
1:1
  0
DICTIONARYVAR
  5
5B5
102
{ACAD_REACTORS
330
5AC
102
}
330
5AC
100
DictionaryVariables
280
     0
  1
3.500000
  0
DICTIONARYVAR
  5
5B6
102
{ACAD_REACTORS
330
5AC
102
}
330
5AC
100
DictionaryVariables
280
     0
  1
acadiso.lin
  0
DICTIONARYVAR
  5
5B2
102
{ACAD_REACTORS
330
5AC
102
}
330
5AC
100
DictionaryVariables
280
     0
  1
Standard
  0
DICTIONARYVAR
  5
5B1
102
{ACAD_REACTORS
330
5AC
102
}
330
5AC
100
DictionaryVariables
280
     0
  1
Standard
  0
DICTIONARY
  5
5AE
330
6A
100
AcDbDictionary
280
     1
281
     1
  3
ACAD_ROUNDTRIP_2008_TABLESTYLE_CELLSTYLEMAP
360
5AF
  0
CELLSTYLEMAP
  5
5AF
102
{ACAD_REACTORS
330
5AE
102
}
330
5AE
100
AcDbCellStyleMap
 90
        3
300
CELLSTYLE
  1
TABLEFORMAT_BEGIN
 90
        5
170
     1
 91
        0
 92
    32768
 62
   257
 93
        1
300
CONTENTFORMAT
  1
CONTENTFORMAT_BEGIN
 90
        0
 91
        0
 92
        4
 93
        0
300

 40
0.0
140
1.0
 94
        5
 62
     0
340
11
144
6.0
309
CONTENTFORMAT_END
171
     1
301
MARGIN
  1
CELLMARGIN_BEGIN
 40
1.5
 40
1.5
 40
1.5
 40
1.5
 40
1.5
 40
1.5
309
CELLMARGIN_END
 94
        6
 95
        1
302
GRIDFORMAT
  1
GRIDFORMAT_BEGIN
 90
        0
 91
        1
 62
     0
 92
       -2
340
14
 93
        0
 40
0.045
309
GRIDFORMAT_END
 95
        2
302
GRIDFORMAT
  1
GRIDFORMAT_BEGIN
 90
        0
 91
        1
 62
     0
 92
       -2
340
14
 93
        0
 40
0.045
309
GRIDFORMAT_END
 95
        4
302
GRIDFORMAT
  1
GRIDFORMAT_BEGIN
 90
        0
 91
        1
 62
     0
 92
       -2
340
14
 93
        0
 40
0.045
309
GRIDFORMAT_END
 95
        8
302
GRIDFORMAT
  1
GRIDFORMAT_BEGIN
 90
        0
 91
        1
 62
     0
 92
       -2
340
14
 93
        0
 40
0.045
309
GRIDFORMAT_END
 95
       16
302
GRIDFORMAT
  1
GRIDFORMAT_BEGIN
 90
        0
 91
        1
 62
     0
 92
       -2
340
14
 93
        0
 40
0.045
309
GRIDFORMAT_END
 95
       32
302
GRIDFORMAT
  1
GRIDFORMAT_BEGIN
 90
        0
 91
        1
 62
     0
 92
       -2
340
14
 93
        0
 40
0.045
309
GRIDFORMAT_END
309
TABLEFORMAT_END
  1
CELLSTYLE_BEGIN
 90
        1
 91
        1
300
_TITLE
309
CELLSTYLE_END
300
CELLSTYLE
  1
TABLEFORMAT_BEGIN
 90
        5
170
     1
 91
        0
 92
        0
 62
   257
 93
        1
300
CONTENTFORMAT
  1
CONTENTFORMAT_BEGIN
 90
        0
 91
        0
 92
        4
 93
        0
300

 40
0.0
140
1.0
 94
        5
 62
     0
340
11
144
4.5
309
CONTENTFORMAT_END
171
     1
301
MARGIN
  1
CELLMARGIN_BEGIN
 40
1.5
 40
1.5
 40
1.5
 40
1.5
 40
1.5
 40
1.5
309
CELLMARGIN_END
 94
        6
 95
        1
302
GRIDFORMAT
  1
GRIDFORMAT_BEGIN
 90
        0
 91
        1
 62
     0
 92
       -2
340
14
 93
        0
 40
0.045
309
GRIDFORMAT_END
 95
        2
302
GRIDFORMAT
  1
GRIDFORMAT_BEGIN
 90
        0
 91
        1
 62
     0
 92
       -2
340
14
 93
        0
 40
0.045
309
GRIDFORMAT_END
 95
        4
302
GRIDFORMAT
  1
GRIDFORMAT_BEGIN
 90
        0
 91
        1
 62
     0
 92
       -2
340
14
 93
        0
 40
0.045
309
GRIDFORMAT_END
 95
        8
302
GRIDFORMAT
  1
GRIDFORMAT_BEGIN
 90
        0
 91
        1
 62
     0
 92
       -2
340
14
 93
        0
 40
0.045
309
GRIDFORMAT_END
 95
       16
302
GRIDFORMAT
  1
GRIDFORMAT_BEGIN
 90
        0
 91
        1
 62
     0
 92
       -2
340
14
 93
        0
 40
0.045
309
GRIDFORMAT_END
 95
       32
302
GRIDFORMAT
  1
GRIDFORMAT_BEGIN
 90
        0
 91
        1
 62
     0
 92
       -2
340
14
 93
        0
 40
0.045
309
GRIDFORMAT_END
309
TABLEFORMAT_END
  1
CELLSTYLE_BEGIN
 90
        2
 91
        1
300
_HEADER
309
CELLSTYLE_END
300
CELLSTYLE
  1
TABLEFORMAT_BEGIN
 90
        5
170
     1
 91
        0
 92
        0
 62
   257
 93
        1
300
CONTENTFORMAT
  1
CONTENTFORMAT_BEGIN
 90
        0
 91
        0
 92
        4
 93
        0
300

 40
0.0
140
1.0
 94
        2
 62
     0
340
11
144
4.5
309
CONTENTFORMAT_END
171
     1
301
MARGIN
  1
CELLMARGIN_BEGIN
 40
1.5
 40
1.5
 40
1.5
 40
1.5
 40
1.5
 40
1.5
309
CELLMARGIN_END
 94
        6
 95
        1
302
GRIDFORMAT
  1
GRIDFORMAT_BEGIN
 90
        0
 91
        1
 62
     0
 92
       -2
340
14
 93
        0
 40
0.045
309
GRIDFORMAT_END
 95
        2
302
GRIDFORMAT
  1
GRIDFORMAT_BEGIN
 90
        0
 91
        1
 62
     0
 92
       -2
340
14
 93
        0
 40
0.045
309
GRIDFORMAT_END
 95
        4
302
GRIDFORMAT
  1
GRIDFORMAT_BEGIN
 90
        0
 91
        1
 62
     0
 92
       -2
340
14
 93
        0
 40
0.045
309
GRIDFORMAT_END
 95
        8
302
GRIDFORMAT
  1
GRIDFORMAT_BEGIN
 90
        0
 91
        1
 62
     0
 92
       -2
340
14
 93
        0
 40
0.045
309
GRIDFORMAT_END
 95
       16
302
GRIDFORMAT
  1
GRIDFORMAT_BEGIN
 90
        0
 91
        1
 62
     0
 92
       -2
340
14
 93
        0
 40
0.045
309
GRIDFORMAT_END
 95
       32
302
GRIDFORMAT
  1
GRIDFORMAT_BEGIN
 90
        0
 91
        1
 62
     0
 92
       -2
340
14
 93
        0
 40
0.045
309
GRIDFORMAT_END
309
TABLEFORMAT_END
  1
CELLSTYLE_BEGIN
 90
        3
 91
        2
300
_DATA
309
CELLSTYLE_END
  0
ENDSEC
  0
EOF
