  0
SECTION
  2
HEADER
  9
$ACADVER
  1
AC1015
  9
$ACADMAINTVER
 70
     6
  9
$DWGCODEPAGE
  3
ANSI_932
  9
$INSBASE
 10
0.0
 20
0.0
 30
0.0
  9
$EXTMIN
 10
-2100.0
 20
-1485.0
 30
0.0
  9
$EXTMAX
 10
2100.0
 20
1485.0
 30
0.0
  9
$LIMMIN
 10
-2100.0
 20
-1485.0
  9
$LIMMAX
 10
2100.0
 20
1485.0
  9
$ORTHOMODE
 70
     0
  9
$REGENMODE
 70
     1
  9
$FILLMODE
 70
     1
  9
$QTEXTMODE
 70
     0
  9
$MIRRTEXT
 70
     1
  9
$LTSCALE
 40
10.0
  9
$ATTMODE
 70
     1
  9
$TEXTSIZE
 40
2.5
  9
$TRACEWID
 40
1.0
  9
$TEXTSTYLE
  7
Standard
  9
$CLAYER
  8
0
  9
$CELTYPE
  6
ByLayer
  9
$CECOLOR
 62
   256
  9
$CELTSCALE
 40
1.0
  9
$DISPSILH
 70
     0
  9
$DIMSCALE
 40
1.0
  9
$DIMASZ
 40
2.5
  9
$DIMEXO
 40
0.625
  9
$DIMDLI
 40
3.75
  9
$DIMRND
 40
0.0
  9
$DIMDLE
 40
0.0
  9
$DIMEXE
 40
1.25
  9
$DIMTP
 40
0.0
  9
$DIMTM
 40
0.0
  9
$DIMTXT
 40
2.5
  9
$DIMCEN
 40
2.5
  9
$DIMTSZ
 40
0.0
  9
$DIMTOL
 70
     0
  9
$DIMLIM
 70
     0
  9
$DIMTIH
 70
     0
  9
$DIMTOH
 70
     0
  9
$DIMSE1
 70
     0
  9
$DIMSE2
 70
     0
  9
$DIMTAD
 70
     1
  9
$DIMZIN
 70
     8
  9
$DIMBLK
  1

  9
$DIMASO
 70
     1
  9
$DIMSHO
 70
     1
  9
$DIMPOST
  1

  9
$DIMAPOST
  1

  9
$DIMALT
 70
     0
  9
$DIMALTD
 70
     3
  9
$DIMALTF
 40
0.03937007874016
  9
$DIMLFAC
 40
1.0
  9
$DIMTOFL
 70
     1
  9
$DIMTVP
 40
0.0
  9
$DIMTIX
 70
     0
  9
$DIMSOXD
 70
     0
  9
$DIMSAH
 70
     0
  9
$DIMBLK1
  1

  9
$DIMBLK2
  1

  9
$DIMSTYLE
  2
ISO-25
  9
$DIMCLRD
 70
     0
  9
$DIMCLRE
 70
     0
  9
$DIMCLRT
 70
     0
  9
$DIMTFAC
 40
1.0
  9
$DIMGAP
 40
0.625
  9
$DIMJUST
 70
     0
  9
$DIMSD1
 70
     0
  9
$DIMSD2
 70
     0
  9
$DIMTOLJ
 70
     0
  9
$DIMTZIN
 70
     8
  9
$DIMALTZ
 70
     0
  9
$DIMALTTZ
 70
     0
  9
$DIMUPT
 70
     0
  9
$DIMDEC
 70
     2
  9
$DIMTDEC
 70
     2
  9
$DIMALTU
 70
     2
  9
$DIMALTTD
 70
     3
  9
$DIMTXSTY
  7
Standard
  9
$DIMAUNIT
 70
     0
  9
$DIMADEC
 70
     0
  9
$DIMALTRND
 40
0.0
  9
$DIMAZIN
 70
     0
  9
$DIMDSEP
 70
    44
  9
$DIMATFIT
 70
     3
  9
$DIMFRAC
 70
     0
  9
$DIMLDRBLK
  1

  9
$DIMLUNIT
 70
     2
  9
$DIMLWD
 70
    -2
  9
$DIMLWE
 70
    -2
  9
$DIMTMOVE
 70
     0
  9
$LUNITS
 70
     2
  9
$LUPREC
 70
     4
  9
$SKETCHINC
 40
1.0
  9
$FILLETRAD
 40
10.0
  9
$AUNITS
 70
     0
  9
$AUPREC
 70
     0
  9
$MENU
  1
.
  9
$ELEVATION
 40
0.0
  9
$PELEVATION
 40
0.0
  9
$THICKNESS
 40
0.0
  9
$LIMCHECK
 70
     0
  9
$CHAMFERA
 40
10.0
  9
$CHAMFERB
 40
10.0
  9
$CHAMFERC
 40
20.0
  9
$CHAMFERD
 40
0.0
  9
$SKPOLY
 70
     0
  9
$TDCREATE
 40
2456905.40059647
  9
$TDUCREATE
 40
2456905.02559647
  9
$TDUPDATE
 40
2456905.400596481
  9
$TDUUPDATE
 40
2456905.025596481
  9
$TDINDWG
 40
0.0000000116
  9
$TDUSRTIMER
 40
0.0000000116
  9
$USRTIMER
 70
     1
  9
$ANGBASE
 50
0.0
  9
$ANGDIR
 70
     0
  9
$PDMODE
 70
     0
  9
$PDSIZE
 40
0.0
  9
$PLINEWID
 40
0.0
  9
$SPLFRAME
 70
     0
  9
$SPLINETYPE
 70
     6
  9
$SPLINESEGS
 70
     8
  9
$HANDSEED
  5
1B9
  9
$SURFTAB1
 70
     6
  9
$SURFTAB2
 70
     6
  9
$SURFTYPE
 70
     6
  9
$SURFU
 70
     6
  9
$SURFV
 70
     6
  9
$UCSBASE
  2

  9
$UCSNAME
  2

  9
$UCSORG
 10
0.0
 20
0.0
 30
0.0
  9
$UCSXDIR
 10
1.0
 20
0.0
 30
0.0
  9
$UCSYDIR
 10
0.0
 20
1.0
 30
0.0
  9
$UCSORTHOREF
  2

  9
$UCSORTHOVIEW
 70
     0
  9
$UCSORGTOP
 10
0.0
 20
0.0
 30
0.0
  9
$UCSORGBOTTOM
 10
0.0
 20
0.0
 30
0.0
  9
$UCSORGLEFT
 10
0.0
 20
0.0
 30
0.0
  9
$UCSORGRIGHT
 10
0.0
 20
0.0
 30
0.0
  9
$UCSORGFRONT
 10
0.0
 20
0.0
 30
0.0
  9
$UCSORGBACK
 10
0.0
 20
0.0
 30
0.0
  9
$PUCSBASE
  2

  9
$PUCSNAME
  2

  9
$PUCSORG
 10
0.0
 20
0.0
 30
0.0
  9
$PUCSXDIR
 10
1.0
 20
0.0
 30
0.0
  9
$PUCSYDIR
 10
0.0
 20
1.0
 30
0.0
  9
$PUCSORTHOREF
  2

  9
$PUCSORTHOVIEW
 70
     0
  9
$PUCSORGTOP
 10
0.0
 20
0.0
 30
0.0
  9
$PUCSORGBOTTOM
 10
0.0
 20
0.0
 30
0.0
  9
$PUCSORGLEFT
 10
0.0
 20
0.0
 30
0.0
  9
$PUCSORGRIGHT
 10
0.0
 20
0.0
 30
0.0
  9
$PUCSORGFRONT
 10
0.0
 20
0.0
 30
0.0
  9
$PUCSORGBACK
 10
0.0
 20
0.0
 30
0.0
  9
$USERI1
 70
     0
  9
$USERI2
 70
     0
  9
$USERI3
 70
     0
  9
$USERI4
 70
     0
  9
$USERI5
 70
     0
  9
$USERR1
 40
0.0
  9
$USERR2
 40
0.0
  9
$USERR3
 40
0.0
  9
$USERR4
 40
0.0
  9
$USERR5
 40
0.0
  9
$WORLDVIEW
 70
     1
  9
$SHADEDGE
 70
     3
  9
$SHADEDIF
 70
    70
  9
$TILEMODE
 70
     1
  9
$MAXACTVP
 70
    64
  9
$PINSBASE
 10
0.0
 20
0.0
 30
0.0
  9
$PLIMCHECK
 70
     0
  9
$PEXTMIN
 10
1.000000000000000E+20
 20
1.000000000000000E+20
 30
1.000000000000000E+20
  9
$PEXTMAX
 10
-1.000000000000000E+20
 20
-1.000000000000000E+20
 30
-1.000000000000000E+20
  9
$PLIMMIN
 10
0.0
 20
0.0
  9
$PLIMMAX
 10
420.0
 20
297.0
  9
$UNITMODE
 70
     0
  9
$VISRETAIN
 70
     1
  9
$PLINEGEN
 70
     0
  9
$PSLTSCALE
 70
     1
  9
$TREEDEPTH
 70
  3020
  9
$CMLSTYLE
  2
Standard
  9
$CMLJUST
 70
     0
  9
$CMLSCALE
 40
20.0
  9
$PROXYGRAPHICS
 70
     1
  9
$MEASUREMENT
 70
     1
  9
$CELWEIGHT
370
    -1
  9
$ENDCAPS
280
     0
  9
$JOINSTYLE
280
     0
  9
$LWDISPLAY
290
     0
  9
$INSUNITS
 70
     4
  9
$HYPERLINKBASE
  1

  9
$STYLESHEET
  1

  9
$XEDIT
290
     1
  9
$CEPSNTYPE
380
     0
  9
$PSTYLEMODE
290
     1
  9
$FINGERPRINTGUID
  2
{DE3E9633-A7EA-4367-97D7-474B5D04A870}
  9
$VERSIONGUID
  2
{FAEB1C32-E019-11D5-929B-00C0DF256EC4}
  9
$EXTNAMES
290
     1
  9
$PSVPSCALE
 40
0.0
  9
$OLESTARTUP
290
     0
  0
ENDSEC
  0
SECTION
  2
CLASSES
  0
CLASS
  1
ACDBDICTIONARYWDFLT
  2
AcDbDictionaryWithDefault
  3
ObjectDBX Classes
 90
        0
280
     0
281
     0
  0
CLASS
  1
VISUALSTYLE
  2
AcDbVisualStyle
  3
ObjectDBX Classes
 90
     4095
280
     0
281
     0
  0
CLASS
  1
DICTIONARYVAR
  2
AcDbDictionaryVar
  3
ObjectDBX Classes
 90
        0
280
     0
281
     0
  0
CLASS
  1
ACDBPLACEHOLDER
  2
AcDbPlaceHolder
  3
ObjectDBX Classes
 90
        0
280
     0
281
     0
  0
CLASS
  1
LAYOUT
  2
AcDbLayout
  3
ObjectDBX Classes
 90
        0
280
     0
281
     0
  0
ENDSEC
  0
SECTION
  2
TABLES
  0
TABLE
  2
VPORT
  5
8
330
0
100
AcDbSymbolTable
 70
     1
  0
VPORT
  5
29
330
8
100
AcDbSymbolTableRecord
100
AcDbViewportTableRecord
  2
*Active
 70
     0
 10
0.0
 20
0.0
 11
1.0
 21
1.0
 12
0.0
 22
0.0
 13
0.0
 23
0.0
 14
10.0
 24
10.0
 15
10.0
 25
10.0
 16
0.0
 26
0.0
 36
1.0
 17
0.0
 27
0.0
 37
0.0
 40
3267.0
 41
1.414141414141414
 42
50.0
 43
0.0
 44
0.0
 50
0.0
 51
0.0
 71
     0
 72
 10000
 73
     1
 74
     3
 75
     0
 76
     0
 77
     0
 78
     0
281
     0
 65
     1
110
0.0
120
0.0
130
0.0
111
1.0
121
0.0
131
0.0
112
0.0
122
1.0
132
0.0
 79
     0
146
0.0
  0
ENDTAB
  0
TABLE
  2
LTYPE
  5
5
330
0
100
AcDbSymbolTable
 70
     3
  0
LTYPE
  5
14
330
5
100
AcDbSymbolTableRecord
100
AcDbLinetypeTableRecord
  2
ByBlock
 70
     0
  3

 72
    65
 73
     0
 40
0.0
  0
LTYPE
  5
15
330
5
100
AcDbSymbolTableRecord
100
AcDbLinetypeTableRecord
  2
ByLayer
 70
     0
  3

 72
    65
 73
     0
 40
0.0
  0
LTYPE
  5
16
330
5
100
AcDbSymbolTableRecord
100
AcDbLinetypeTableRecord
  2
Continuous
 70
     0
  3
Solid line
 72
    65
 73
     0
 40
0.0
  0
LTYPE
  5
3C
330
5
100
AcDbSymbolTableRecord
100
AcDbLinetypeTableRecord
  2
JWW_PHANTOM2
 70
     0
  3
------------  -  -  ------------
 72
    65
 73
     6
 40
13.54666666666667
 49
10.16
 74
     0
 49
-0.8466666666666667
 74
     0
 49
0.4233333333333333
 74
     0
 49
-0.8466666666666667
 74
     0
 49
0.4233333333333333
 74
     0
 49
-0.8466666666666667
 74
     0
  0
LTYPE
  5
3D
330
5
100
AcDbSymbolTableRecord
100
AcDbLinetypeTableRecord
  2
JWW_CENTER2
 70
     0
  3
-------------  --  -------------
 72
    65
 73
     4
 40
13.54666666666667
 49
11.00666666666667
 74
     0
 49
-0.8466666666666667
 74
     0
 49
0.8466666666666667
 74
     0
 49
-0.8466666666666667
 74
     0
  0
ENDTAB
  0
TABLE
  2
LAYER
  5
2
330
0
100
AcDbSymbolTable
 70
    11
  0
LAYER
  5
10
330
2
100
AcDbSymbolTableRecord
100
AcDbLayerTableRecord
  2
0
 70
     0
 62
     7
  6
Continuous
370
    -3
390
F
  0
LAYER
  5
3E
330
2
100
AcDbSymbolTableRecord
100
AcDbLayerTableRecord
  2
通り芯
 70
     0
 62
     7
  6
Continuous
370
    -3
390
F
  0
LAYER
  5
3F
330
2
100
AcDbSymbolTableRecord
100
AcDbLayerTableRecord
  2
092
 70
     0
 62
     7
  6
Continuous
370
    -3
390
F
  0
LAYER
  5
40
330
2
100
AcDbSymbolTableRecord
100
AcDbLayerTableRecord
  2
1-1ﾚｲﾔ
 70
     0
 62
     7
  6
Continuous
370
    -3
390
F
  0
LAYER
  5
41
330
2
100
AcDbSymbolTableRecord
100
AcDbLayerTableRecord
  2
1-0ﾚｲﾔ
 70
     0
 62
     7
  6
Continuous
370
    -3
390
F
  0
LAYER
  5
42
330
2
100
AcDbSymbolTableRecord
100
AcDbLayerTableRecord
  2
Hojo
 70
     0
 62
     7
  6
Continuous
370
    -3
390
F
  0
LAYER
  5
43
330
2
100
AcDbSymbolTableRecord
100
AcDbLayerTableRecord
  2
_2-c_Shi
 70
     0
 62
     7
  6
Continuous
370
    -3
390
F
  0
LAYER
  5
44
330
2
100
AcDbSymbolTableRecord
100
AcDbLayerTableRecord
  2
_2-a_N_s
 70
     0
 62
     7
  6
Continuous
370
    -3
390
F
  0
LAYER
  5
45
330
2
100
AcDbSymbolTableRecord
100
AcDbLayerTableRecord
  2
2-Fﾚｲﾔ
 70
     0
 62
     7
  6
Continuous
370
    -3
390
F
  0
LAYER
  5
46
330
2
100
AcDbSymbolTableRecord
100
AcDbLayerTableRecord
  2
3-F
 70
     0
 62
     7
  6
Continuous
370
    -3
390
F
  0
LAYER
  5
47
330
2
100
AcDbSymbolTableRecord
100
AcDbLayerTableRecord
  2
F-Fﾚｲﾔ
 70
     0
 62
     7
  6
Continuous
370
    -3
390
F
  0
ENDTAB
  0
TABLE
  2
STYLE
  5
3
330
0
100
AcDbSymbolTable
 70
     2
  0
STYLE
  5
11
330
3
100
AcDbSymbolTableRecord
100
AcDbTextStyleTableRecord
  2
Standard
 70
     0
 40
0.0
 41
1.0
 50
0.0
 71
     0
 42
2.5
  3
txt
  4

1001
ACAD
1000

1071
        0
  0
STYLE
  5
3B
330
3
100
AcDbSymbolTableRecord
100
AcDbTextStyleTableRecord
  2
ＭＳ ゴシック
 70
     0
 40
1.0
 41
1.0
 50
0.0
 71
     0
 42
10.0
  3

  4

1001
ACAD
1000
MS Gothic
1071
    32817
  0
ENDTAB
  0
TABLE
  2
VIEW
  5
6
330
0
100
AcDbSymbolTable
 70
     0
  0
ENDTAB
  0
TABLE
  2
UCS
  5
7
330
0
100
AcDbSymbolTable
 70
     0
  0
ENDTAB
  0
TABLE
  2
APPID
  5
9
330
0
100
AcDbSymbolTable
 70
     1
  0
APPID
  5
12
330
9
100
AcDbSymbolTableRecord
100
AcDbRegAppTableRecord
  2
ACAD
 70
     0
  0
ENDTAB
  0
TABLE
  2
DIMSTYLE
  5
A
330
0
100
AcDbSymbolTable
 70
     1
100
AcDbDimStyleTable
  0
DIMSTYLE
105
27
330
A
100
AcDbSymbolTableRecord
100
AcDbDimStyleTableRecord
  2
ISO-25
 70
     0
 41
2.5
 42
0.625
 43
3.75
 44
1.25
 73
     0
 74
     0
 77
     1
 78
     8
140
2.5
141
2.5
143
0.03937007874016
147
0.625
171
     3
172
     1
271
     2
272
     2
274
     3
278
    44
283
     0
284
     8
340
11
  0
ENDTAB
  0
TABLE
  2
BLOCK_RECORD
  5
1
330
0
100
AcDbSymbolTable
 70
     1
  0
BLOCK_RECORD
  5
1F
330
1
100
AcDbSymbolTableRecord
100
AcDbBlockTableRecord
  2
*Model_Space
340
22
  0
BLOCK_RECORD
  5
1B
330
1
100
AcDbSymbolTableRecord
100
AcDbBlockTableRecord
  2
*Paper_Space
340
1E
  0
BLOCK_RECORD
  5
23
330
1
100
AcDbSymbolTableRecord
100
AcDbBlockTableRecord
  2
*Paper_Space0
340
26
  0
ENDTAB
  0
ENDSEC
  0
SECTION
  2
BLOCKS
  0
BLOCK
  5
20
330
1F
100
AcDbEntity
  8
0
100
AcDbBlockBegin
  2
*Model_Space
 70
     0
 10
0.0
 20
0.0
 30
0.0
  3
*Model_Space
  1

  0
ENDBLK
  5
21
330
1F
100
AcDbEntity
  8
0
100
AcDbBlockEnd
  0
BLOCK
  5
1C
330
1B
100
AcDbEntity
 67
     1
  8
0
100
AcDbBlockBegin
  2
*Paper_Space
 70
     0
 10
0.0
 20
0.0
 30
0.0
  3
*Paper_Space
  1

  0
ENDBLK
  5
1D
330
1B
100
AcDbEntity
 67
     1
  8
0
100
AcDbBlockEnd
  0
BLOCK
  5
24
330
23
100
AcDbEntity
  8
0
100
AcDbBlockBegin
  2
*Paper_Space0
 70
     0
 10
0.0
 20
0.0
 30
0.0
  3
*Paper_Space0
  1

  0
ENDBLK
  5
25
330
23
100
AcDbEntity
  8
0
100
AcDbBlockEnd
  0
ENDSEC
  0
SECTION
  2
ENTITIES
  0
LINE
  5
48
330
1F
100
AcDbEntity
  8
通り芯
  6
JWW_PHANTOM2
 62
     4
370
     9
100
AcDbLine
 10
-1256.023279396263
 20
914.1740226745605
 30
0.0
 11
-1186.023790771897
 21
914.1740226745605
 31
0.0
  0
LINE
  5
49
330
1F
100
AcDbEntity
  8
通り芯
  6
JWW_PHANTOM2
 62
     4
370
     9
100
AcDbLine
 10
-1263.523180420334
 20
906.6743690903124
 30
0.0
 11
-1263.523180420334
 21
881.6737917307262
 31
0.0
  0
LINE
  5
4A
330
1F
100
AcDbEntity
  8
通り芯
  6
JWW_PHANTOM2
 62
     4
370
     9
100
AcDbLine
 10
-1178.523642308003
 20
851.673692754797
 30
0.0
 11
-1178.523642308003
 21
906.6743690903124
 31
0.0
  0
LINE
  5
4B
330
1F
100
AcDbEntity
  8
通り芯
  6
JWW_PHANTOM2
 62
     4
370
     9
100
AcDbLine
 10
-526.0232216603047
 20
836.6741381464777
 30
0.0
 11
-418.5232381562926
 21
836.6741381464777
 31
0.0
  0
LINE
  5
4C
330
1F
100
AcDbEntity
  8
通り芯
  6
JWW_PHANTOM2
 62
     4
370
     9
100
AcDbLine
 10
-326.0235515800679
 20
914.1740226745605
 30
0.0
 11
-396.0235350840799
 21
914.1740226745605
 31
0.0
  0
LINE
  5
4D
330
1F
100
AcDbEntity
  8
通り芯
  6
JWW_PHANTOM2
 62
     4
370
     9
100
AcDbLine
 10
-318.5231556763517
 20
906.6743690903124
 30
0.0
 11
-318.5231556763517
 21
881.6737917307262
 31
0.0
  0
LINE
  5
4E
330
1F
100
AcDbEntity
  8
092
  6
Continuous
 62
     7
370
     9
100
AcDbLine
 10
-1613.246583938598
 20
921.6734288189864
 30
0.0
 11
-1613.246583938598
 21
121.6738824586611
 31
0.0
  0
LINE
  5
4F
330
1F
100
AcDbEntity
  8
092
  6
Continuous
 62
     7
370
     9
100
AcDbLine
 10
-1301.023180420334
 20
121.6738824586611
 30
0.0
 11
-1616.246420628315
 21
121.6738824586611
 31
0.0
  0
LINE
  5
50
330
1F
100
AcDbEntity
  8
092
  6
Continuous
 62
     7
370
     9
100
AcDbLine
 10
-1301.023180420334
 20
921.6734288189864
 30
0.0
 11
-1616.246420628315
 21
921.6734288189864
 31
0.0
  0
LINE
  5
51
330
1F
100
AcDbEntity
  8
092
  6
Continuous
 62
     7
370
     9
100
AcDbLine
 10
-1534.41188528731
 20
921.6734288189864
 30
0.0
 11
-1534.41188528731
 21
296.6737174987793
 31
0.0
  0
LINE
  5
52
330
1F
100
AcDbEntity
  8
通り芯
  6
JWW_PHANTOM2
 62
     4
370
     9
100
AcDbLine
 10
-1056.022743276647
 20
836.6741381464777
 30
0.0
 11
-1163.523345380216
 21
836.6741381464777
 31
0.0
  0
LINE
  5
53
330
1F
100
AcDbEntity
  8
通り芯
  6
JWW_PHANTOM2
 62
     4
370
     9
100
AcDbLine
 10
-403.5236835479733
 20
906.6743690903124
 30
0.0
 11
-403.5236835479733
 21
851.673692754797
 31
0.0
  0
LINE
  5
54
330
1F
100
AcDbEntity
  8
通り芯
  6
Continuous
 62
     4
370
     9
100
AcDbLine
 10
500.3789373346279
 20
121.6735112989272
 30
0.0
 11
500.3789373346279
 21
921.6734288189864
 31
0.0
  0
LINE
  5
55
330
1F
100
AcDbEntity
  8
092
  6
Continuous
 62
     4
370
     9
100
AcDbLine
 10
500.3789373346279
 20
921.6734288189864
 30
0.0
 11
510.3787228867816
 21
921.6734288189864
 31
0.0
  0
LINE
  5
56
330
1F
100
AcDbEntity
  8
通り芯
  6
Continuous
 62
     4
370
     9
100
AcDbLine
 10
510.3787228867816
 20
921.6734288189864
 30
0.0
 11
510.3787228867816
 21
121.6735112989272
 31
0.0
  0
LINE
  5
57
330
1F
100
AcDbEntity
  8
通り芯
  6
Continuous
 62
     4
370
     9
100
AcDbLine
 10
510.3787228867816
 20
121.6735112989272
 30
0.0
 11
500.3789373346279
 21
121.6735112989272
 31
0.0
  0
LINE
  5
58
330
1F
100
AcDbEntity
  8
092
  6
Continuous
 62
     7
370
     9
100
AcDbLine
 10
-1271.023205164316
 20
944.1743690903124
 30
0.0
 11
-1271.023205164316
 21
1030.879015020422
 31
0.0
  0
LINE
  5
59
330
1F
100
AcDbEntity
  8
092
  6
Continuous
 62
     7
370
     9
100
AcDbLine
 10
-311.0232546522809
 20
944.1743690903124
 30
0.0
 11
-311.0232546522809
 21
1030.879015020422
 31
0.0
  0
LINE
  5
5A
330
1F
100
AcDbEntity
  8
092
  6
Continuous
 62
     7
370
     9
100
AcDbLine
 10
-1271.023205164316
 20
1170.011952889932
 30
0.0
 11
-311.0232546522809
 21
1170.011952889932
 31
0.0
  0
LINE
  5
5B
330
1F
100
AcDbEntity
  8
092
  6
Continuous
 62
     7
370
     9
100
AcDbLine
 10
-311.0232546522809
 20
1037.140727172027
 30
0.0
 11
-311.0232546522809
 21
1170.011952889932
 31
0.0
  0
LINE
  5
5C
330
1F
100
AcDbEntity
  8
092
  6
Continuous
 62
     7
370
     9
100
AcDbLine
 10
-1271.023205164316
 20
1037.140727172027
 30
0.0
 11
-1271.023205164316
 21
1170.011952889932
 31
0.0
  0
LINE
  5
5D
330
1F
100
AcDbEntity
  8
092
  6
Continuous
 62
     7
370
     9
100
AcDbLine
 10
500.3789373346279
 20
1061.304215611638
 30
0.0
 11
510.3787228867816
 21
1061.304215611638
 31
0.0
  0
LINE
  5
5E
330
1F
100
AcDbEntity
  8
通り芯
  6
JWW_CENTER2
 62
     7
370
     9
100
AcDbLine
 10
-791.0229824684759
 20
976.0829714182262
 30
0.0
 11
-791.0229824684759
 21
60.50403646520664
 31
0.0
  0
LINE
  5
5F
330
1F
100
AcDbEntity
  8
通り芯
  6
Continuous
 62
     4
370
     9
100
AcDbLine
 10
-1271.023205164316
 20
911.6736432668326
 30
0.0
 11
-1271.023205164316
 21
131.6737917307262
 31
0.0
  0
LINE
  5
60
330
1F
100
AcDbEntity
  8
通り芯
  6
Continuous
 62
     4
370
     9
100
AcDbLine
 10
-1261.023295892252
 20
921.6739236986316
 30
0.0
 11
-321.0230402044346
 21
921.6739236986316
 31
0.0
  0
LINE
  5
61
330
1F
100
AcDbEntity
  8
通り芯
  6
Continuous
 62
     4
370
     9
100
AcDbLine
 10
-311.0232546522809
 20
131.6739154506374
 30
0.0
 11
-311.0232546522809
 21
911.6736432668326
 31
0.0
  0
LINE
  5
62
330
1F
100
AcDbEntity
  8
通り芯
  6
Continuous
 62
     4
370
     9
100
AcDbLine
 10
-321.0230402044346
 20
121.6738824586611
 30
0.0
 11
-1261.023419612163
 21
121.6738824586611
 31
0.0
  0
LINE
  5
63
330
1F
100
AcDbEntity
  8
092
  6
Continuous
 62
     7
370
     9
100
AcDbLine
 10
-312.1750870266473
 20
916.3334300066975
 30
0.0
 11
-182.9516191740291
 21
1024.023694734316
 31
0.0
  0
LINE
  5
64
330
1F
100
AcDbEntity
  8
092
  6
Continuous
 62
     7
370
     9
100
AcDbLine
 10
-312.1750870266473
 20
916.3334300066975
 30
0.0
 11
-295.2232322177369
 21
934.70806379576
 31
0.0
  0
LINE
  5
65
330
1F
100
AcDbEntity
  8
092
  6
Continuous
 62
     7
370
     9
100
AcDbLine
 10
-312.1750870266473
 20
916.3334300066975
 30
0.0
 11
-291.0452108125426
 21
929.6946855493493
 31
0.0
  0
LINE
  5
66
330
1F
100
AcDbEntity
  8
092
  6
Continuous
 62
     7
370
     9
100
AcDbLine
 10
-866.7443932713686
 20
296.6737174987793
 30
0.0
 11
-1537.412093136761
 21
296.6737174987793
 31
0.0
  0
LINE
  5
67
330
1F
100
AcDbEntity
  8
通り芯
  6
JWW_PHANTOM2
 62
     4
370
     9
100
AcDbLine
 10
-1005.90467324128
 20
352.2228442011652
 30
0.0
 11
-805.9056217606002
 21
298.6329460144043
 31
0.0
  0
LINE
  5
68
330
1F
100
AcDbEntity
  8
通り芯
  6
JWW_PHANTOM2
 62
     4
370
     9
100
AcDbLine
 10
-576.1411679757606
 20
352.2230916409879
 30
0.0
 11
-776.1413329356424
 21
298.6329460144043
 31
0.0
  0
LINE
  5
69
330
1F
100
AcDbEntity
  8
通り芯
  6
JWW_PHANTOM2
 62
     4
370
     9
100
AcDbLine
 10
-533.5233701241981
 20
407.7638053894043
 30
0.0
 11
-533.5233701241981
 21
829.1739896825843
 31
0.0
  0
LINE
  5
6A
330
1F
100
AcDbEntity
  8
通り芯
  6
JWW_PHANTOM2
 62
     4
370
     9
100
AcDbLine
 10
-1048.522594812754
 20
407.7635579495816
 30
0.0
 11
-1048.522594812754
 21
829.1739896825843
 31
0.0
  0
LINE
  5
6B
330
1F
100
AcDbEntity
  8
1-1ﾚｲﾔ
  6
JWW_CENTER2
 62
     7
370
     9
100
AcDbLine
 10
-1114.557850038683
 20
-678.6761624104269
 30
0.0
 11
-1114.557850038683
 21
-468.0531584249961
 31
0.0
  0
LINE
  5
6C
330
1F
100
AcDbEntity
  8
1-0ﾚｲﾔ
  6
Continuous
 62
     4
370
     9
100
AcDbLine
 10
-1306.557852513081
 20
-651.6155248074917
 30
0.0
 11
-1306.557852513081
 21
-489.6154357291557
 31
0.0
  0
LINE
  5
6D
330
1F
100
AcDbEntity
  8
1-0ﾚｲﾔ
  6
Continuous
 62
     4
370
     9
100
AcDbLine
 10
-1302.557740340361
 20
-655.6153895403888
 30
0.0
 11
-926.5577741571373
 21
-655.6153895403888
 31
0.0
  0
LINE
  5
6E
330
1F
100
AcDbEntity
  8
1-0ﾚｲﾔ
  6
Continuous
 62
     4
370
     9
100
AcDbLine
 10
-926.5577741571373
 20
-485.6155709962587
 30
0.0
 11
-1302.557740340361
 21
-485.6155709962587
 31
0.0
  0
LINE
  5
6F
330
1F
100
AcDbEntity
  8
1-0ﾚｲﾔ
  6
Continuous
 62
     4
370
     9
100
AcDbLine
 10
-922.5576619844178
 20
-651.6155248074917
 30
0.0
 11
-922.5576619844178
 21
-489.6154357291557
 31
0.0
  0
LINE
  5
70
330
1F
100
AcDbEntity
  8
Hojo
  6
JWW_PHANTOM2
 62
     4
370
     9
100
AcDbLine
 10
-1303.557892103453
 20
-491.6149969358702
 30
0.0
 11
-1303.557892103453
 21
-501.6152773676691
 31
0.0
  0
LINE
  5
71
330
1F
100
AcDbEntity
  8
Hojo
  6
JWW_PHANTOM2
 62
     4
370
     9
100
AcDbLine
 10
-1300.557931693824
 20
-488.6152839660645
 30
0.0
 11
-1272.557888804255
 21
-488.6152839660645
 31
0.0
  0
LINE
  5
72
330
1F
100
AcDbEntity
  8
Hojo
  6
JWW_PHANTOM2
 62
     4
370
     9
100
AcDbLine
 10
-1269.557928394627
 20
-513.6154901659166
 30
0.0
 11
-1269.557928394627
 21
-491.6149969358702
 31
0.0
  0
LINE
  5
73
330
1F
100
AcDbEntity
  8
Hojo
  6
JWW_PHANTOM2
 62
     4
370
     9
100
AcDbLine
 10
-1220.557729617969
 20
-519.6152872652622
 30
0.0
 11
-1263.557760135547
 21
-519.6152872652622
 31
0.0
  0
LINE
  5
74
330
1F
100
AcDbEntity
  8
Hojo
  6
JWW_PHANTOM2
 62
     4
370
     9
100
AcDbLine
 10
-1008.557723019574
 20
-519.6152872652622
 30
0.0
 11
-965.5577543619515
 21
-519.6152872652622
 31
0.0
  0
LINE
  5
75
330
1F
100
AcDbEntity
  8
Hojo
  6
JWW_PHANTOM2
 62
     4
370
     9
100
AcDbLine
 10
-959.5578335426947
 20
-491.6149969358702
 30
0.0
 11
-959.5578335426947
 21
-513.6154901659166
 31
0.0
  0
LINE
  5
76
330
1F
100
AcDbEntity
  8
Hojo
  6
JWW_PHANTOM2
 62
     4
370
     9
100
AcDbLine
 10
-928.557830243497
 20
-488.6152839660645
 30
0.0
 11
-956.5578731330663
 21
-488.6152839660645
 31
0.0
  0
LINE
  5
77
330
1F
100
AcDbEntity
  8
Hojo
  6
JWW_PHANTOM2
 62
     4
370
     9
100
AcDbLine
 10
-925.557622394046
 20
-491.6149969358702
 30
0.0
 11
-925.557622394046
 21
-501.6152773676691
 31
0.0
  0
LINE
  5
78
330
1F
100
AcDbEntity
  8
Hojo
  6
JWW_PHANTOM2
 62
     4
370
     9
100
AcDbLine
 10
-1200.510402627893
 20
-563.3958048433872
 30
0.0
 11
-1120.510633571728
 21
-584.8316403981802
 31
0.0
  0
LINE
  5
79
330
1F
100
AcDbEntity
  8
Hojo
  6
JWW_PHANTOM2
 62
     4
370
     9
100
AcDbLine
 10
-1028.604926289739
 20
-563.3956811234758
 30
0.0
 11
-1108.605066505638
 21
-584.8316403981802
 31
0.0
  0
LINE
  5
7A
330
1F
100
AcDbEntity
  8
Hojo
  6
JWW_PHANTOM2
 62
     4
370
     9
100
AcDbLine
 10
-1217.557769208341
 20
-541.1794203680915
 30
0.0
 11
-1217.557769208341
 21
-522.6153713948019
 31
0.0
  0
LINE
  5
7B
330
1F
100
AcDbEntity
  8
Hojo
  6
JWW_PHANTOM2
 62
     4
370
     9
100
AcDbLine
 10
-1011.557807149114
 20
-541.1794203680915
 30
0.0
 11
-1011.557807149114
 21
-522.6153713948019
 31
0.0
  0
LINE
  5
7C
330
1F
100
AcDbEntity
  8
Hojo
  6
JWW_PHANTOM2
 62
     4
370
     9
100
AcDbLine
 10
-125.4360882011616
 20
-488.6155314058871
 30
0.0
 11
-97.43616903150382
 21
-488.6155314058871
 31
0.0
  0
LINE
  5
7D
330
1F
100
AcDbEntity
  8
Hojo
  6
JWW_PHANTOM2
 62
     4
370
     9
100
AcDbLine
 10
-128.4359248908788
 20
-491.6154918155155
 30
0.0
 11
-128.4359248908788
 21
-501.6155248074918
 31
0.0
  0
LINE
  5
7E
330
1F
100
AcDbEntity
  8
Hojo
  6
JWW_PHANTOM2
 62
     4
370
     9
100
AcDbLine
 10
-94.43608490196397
 20
-513.615613885828
 30
0.0
 11
-94.43608490196397
 21
-491.6154918155155
 31
0.0
  0
LINE
  5
7F
330
1F
100
AcDbEntity
  8
Hojo
  6
JWW_PHANTOM2
 62
     4
370
     9
100
AcDbLine
 10
166.5640586131332
 20
-519.6155347050848
 30
0.0
 11
209.5641509906667
 21
-519.6155347050848
 31
0.0
  0
LINE
  5
80
330
1F
100
AcDbEntity
  8
Hojo
  6
JWW_PHANTOM2
 62
     4
370
     9
100
AcDbLine
 10
246.5638276692985
 20
-488.6155314058871
 30
0.0
 11
218.5640322195519
 21
-488.6155314058871
 31
0.0
  0
LINE
  5
81
330
1F
100
AcDbEntity
  8
Hojo
  6
JWW_PHANTOM2
 62
     4
370
     9
100
AcDbLine
 10
249.5640355187496
 20
-491.6154918155155
 30
0.0
 11
249.5640355187496
 21
-501.6155248074918
 31
0.0
  0
LINE
  5
82
330
1F
100
AcDbEntity
  8
Hojo
  6
JWW_PHANTOM2
 62
     4
370
     9
100
AcDbLine
 10
-45.43582426535096
 20
-519.6155347050848
 30
0.0
 11
-88.43591664288482
 21
-519.6155347050848
 31
0.0
  0
LINE
  5
83
330
1F
100
AcDbEntity
  8
Hojo
  6
JWW_PHANTOM2
 62
     4
370
     9
100
AcDbLine
 10
215.5638243701009
 20
-491.6154918155155
 30
0.0
 11
215.5638243701009
 21
-513.615613885828
 31
0.0
  0
LINE
  5
84
330
1F
100
AcDbEntity
  8
1-1ﾚｲﾔ
  6
JWW_CENTER2
 62
     7
370
     9
100
AcDbLine
 10
60.56380787411285
 20
-984.1071572174897
 30
0.0
 11
60.56380787411285
 21
-462.4460483241725
 31
0.0
  0
LINE
  5
85
330
1F
100
AcDbEntity
  8
1-0ﾚｲﾔ
  6
Continuous
 62
     4
370
     9
100
AcDbLine
 10
248.5641311954811
 20
-485.6155709962587
 30
0.0
 11
-127.4360205676103
 21
-485.6155709962587
 31
0.0
  0
LINE
  5
86
330
1F
100
AcDbEntity
  8
1-0ﾚｲﾔ
  6
Continuous
 62
     4
370
     9
100
AcDbLine
 10
-131.4360090204184
 20
-489.6156831689783
 30
0.0
 11
-131.4360090204184
 21
-951.6157722473145
 31
0.0
  0
LINE
  5
87
330
1F
100
AcDbEntity
  8
1-0ﾚｲﾔ
  6
Continuous
 62
     4
370
     9
100
AcDbLine
 10
-127.4360205676103
 20
-955.6157607001228
 30
0.0
 11
248.5641311954811
 21
-955.6157607001228
 31
0.0
  0
LINE
  5
88
330
1F
100
AcDbEntity
  8
1-0ﾚｲﾔ
  6
Continuous
 62
     4
370
     9
100
AcDbLine
 10
252.5639959283779
 20
-489.6156831689783
 30
0.0
 11
252.5639959283779
 21
-951.6157722473145
 31
0.0
  0
LINE
  5
89
330
1F
100
AcDbEntity
  8
Hojo
  6
JWW_PHANTOM2
 62
     4
370
     9
100
AcDbLine
 10
-25.38849727527491
 20
-863.3961141431655
 30
0.0
 11
54.61114806097925
 21
-884.8319496979584
 31
0.0
  0
LINE
  5
8A
330
1F
100
AcDbEntity
  8
Hojo
  6
JWW_PHANTOM2
 62
     4
370
     9
100
AcDbLine
 10
146.5169790628798
 20
-863.395990423254
 30
0.0
 11
66.51671512706884
 21
-884.8319496979584
 31
0.0
  0
LINE
  5
8B
330
1F
100
AcDbEntity
  8
Hojo
  6
JWW_PHANTOM2
 62
     4
370
     9
100
AcDbLine
 10
-42.4357401358111
 20
-841.1798533877811
 30
0.0
 11
-42.4357401358111
 21
-522.6154951147132
 31
0.0
  0
LINE
  5
8C
330
1F
100
AcDbEntity
  8
Hojo
  6
JWW_PHANTOM2
 62
     4
370
     9
100
AcDbLine
 10
163.5640982035048
 20
-841.1797296678698
 30
0.0
 11
163.5640982035048
 21
-522.6154951147132
 31
0.0
  0
LINE
  5
8D
330
1F
100
AcDbEntity
  8
Hojo
  6
JWW_PHANTOM2
 62
     4
370
     9
100
AcDbLine
 10
-731.2062611451017
 20
-488.6154695459314
 30
0.0
 11
-703.2064656953551
 21
-488.6154695459314
 31
0.0
  0
LINE
  5
8E
330
1F
100
AcDbEntity
  8
Hojo
  6
JWW_PHANTOM2
 62
     4
370
     9
100
AcDbLine
 10
-734.2062215547301
 20
-491.6153680956041
 30
0.0
 11
-734.2062215547301
 21
-501.6155248074918
 31
0.0
  0
LINE
  5
8F
330
1F
100
AcDbEntity
  8
Hojo
  6
JWW_PHANTOM2
 62
     4
370
     9
100
AcDbLine
 10
-700.206257845904
 20
-513.615613885828
 30
0.0
 11
-700.206257845904
 21
-491.6153680956041
 31
0.0
  0
LINE
  5
90
330
1F
100
AcDbEntity
  8
Hojo
  6
JWW_PHANTOM2
 62
     4
370
     9
100
AcDbLine
 10
-439.2062380507184
 20
-519.615472845129
 30
0.0
 11
-396.2061456731846
 21
-519.615472845129
 31
0.0
  0
LINE
  5
91
330
1F
100
AcDbEntity
  8
Hojo
  6
JWW_PHANTOM2
 62
     4
370
     9
100
AcDbLine
 10
-359.2062215547301
 20
-488.6154695459314
 30
0.0
 11
-387.2062644442994
 21
-488.6154695459314
 31
0.0
  0
LINE
  5
92
330
1F
100
AcDbEntity
  8
Hojo
  6
JWW_PHANTOM2
 62
     4
370
     9
100
AcDbLine
 10
-356.2061374251905
 20
-491.6153680956041
 30
0.0
 11
-356.2061374251905
 21
-501.6155248074918
 31
0.0
  0
LINE
  5
93
330
1F
100
AcDbEntity
  8
Hojo
  6
JWW_PHANTOM2
 62
     4
370
     9
100
AcDbLine
 10
-651.2059972092911
 20
-519.615472845129
 30
0.0
 11
-694.2062133067361
 21
-519.615472845129
 31
0.0
  0
LINE
  5
94
330
1F
100
AcDbEntity
  8
Hojo
  6
JWW_PHANTOM2
 62
     4
370
     9
100
AcDbLine
 10
-390.2063485738393
 20
-491.6153680956041
 30
0.0
 11
-390.2063485738393
 21
-513.615613885828
 31
0.0
  0
LINE
  5
95
330
1F
100
AcDbEntity
  8
1-1ﾚｲﾔ
  6
JWW_CENTER2
 62
     7
370
     9
100
AcDbLine
 10
-545.2059939100934
 20
-463.8519395364297
 30
0.0
 11
-545.2059939100934
 21
-830.0834764016643
 31
0.0
  0
LINE
  5
96
330
1F
100
AcDbEntity
  8
1-0ﾚｲﾔ
  6
Continuous
 62
     4
370
     9
100
AcDbLine
 10
-737.2061819643585
 20
-489.6156213090227
 30
0.0
 11
-737.2061819643585
 21
-801.6156485274031
 31
0.0
  0
LINE
  5
97
330
1F
100
AcDbEntity
  8
1-0ﾚｲﾔ
  6
Continuous
 62
     4
370
     9
100
AcDbLine
 10
-733.2061935115502
 20
-485.6155709962587
 30
0.0
 11
-357.2061654683705
 21
-485.6155709962587
 31
0.0
  0
LINE
  5
98
330
1F
100
AcDbEntity
  8
1-0ﾚｲﾔ
  6
Continuous
 62
     4
370
     9
100
AcDbLine
 10
-353.2061770155622
 20
-801.6155248074917
 30
0.0
 11
-353.2061770155622
 21
-489.6156213090227
 31
0.0
  0
LINE
  5
99
330
1F
100
AcDbEntity
  8
1-0ﾚｲﾔ
  6
Continuous
 62
     4
370
     9
100
AcDbLine
 10
-357.2061654683705
 20
-805.6155132603001
 30
0.0
 11
-733.2063172314616
 21
-805.6155132603001
 31
0.0
  0
LINE
  5
9A
330
1F
100
AcDbEntity
  8
Hojo
  6
JWW_PHANTOM2
 62
     4
370
     9
100
AcDbLine
 10
-631.1586702192151
 20
-713.3959285632984
 30
0.0
 11
-551.159148602872
 21
-734.8318878380029
 31
0.0
  0
LINE
  5
9B
330
1F
100
AcDbEntity
  8
Hojo
  6
JWW_PHANTOM2
 62
     4
370
     9
100
AcDbLine
 10
-459.2533176009718
 20
-713.3958667033427
 30
0.0
 11
-539.2533340969599
 21
-734.8318878380029
 31
0.0
  0
LINE
  5
9C
330
1F
100
AcDbEntity
  8
Hojo
  6
JWW_PHANTOM2
 62
     4
370
     9
100
AcDbLine
 10
-442.2061984603468
 20
-691.1795440880029
 30
0.0
 11
-442.2061984603468
 21
-522.6154951147132
 31
0.0
  0
LINE
  5
9D
330
1F
100
AcDbEntity
  8
Hojo
  6
JWW_PHANTOM2
 62
     4
370
     9
100
AcDbLine
 10
-648.2059130797512
 20
-691.1796678079143
 30
0.0
 11
-648.2059130797512
 21
-522.6154951147132
 31
0.0
  0
LINE
  5
9E
330
1F
100
AcDbEntity
  8
_2-c_Shi
  6
Continuous
 62
     7
370
     9
100
AcDbLine
 10
1765.888135497635
 20
910.0489533914104
 30
0.0
 11
1069.733515301267
 21
910.0489533914104
 31
0.0
  0
LINE
  5
9F
330
1F
100
AcDbEntity
  8
_2-c_Shi
  6
Continuous
 62
     7
370
     9
100
AcDbLine
 10
1765.888135497635
 20
975.0486729596114
 30
0.0
 11
1069.733515301267
 21
975.0486729596114
 31
0.0
  0
LINE
  5
A0
330
1F
100
AcDbEntity
  8
_2-c_Shi
  6
Continuous
 62
     7
370
     9
100
AcDbLine
 10
1765.888135497635
 20
780.0487719355402
 30
0.0
 11
1069.733515301267
 21
780.0487719355402
 31
0.0
  0
LINE
  5
A1
330
1F
100
AcDbEntity
  8
_2-c_Shi
  6
Continuous
 62
     7
370
     9
100
AcDbLine
 10
1765.888135497635
 20
845.0484915037413
 30
0.0
 11
1069.733515301267
 21
845.0484915037413
 31
0.0
  0
LINE
  5
A2
330
1F
100
AcDbEntity
  8
_2-c_Shi
  6
Continuous
 62
     7
370
     9
100
AcDbLine
 10
1069.733515301267
 20
1049.494160317086
 30
0.0
 11
1765.888135497635
 21
1049.494160317086
 31
0.0
  0
LINE
  5
A3
330
1F
100
AcDbEntity
  8
_2-c_Shi
  6
Continuous
 62
     7
370
     9
100
AcDbLine
 10
1765.888135497635
 20
1040.04913484728
 30
0.0
 11
1069.733515301267
 21
1040.04913484728
 31
0.0
  0
LINE
  5
A4
330
1F
100
AcDbEntity
  8
_2-c_Shi
  6
Continuous
 62
     7
370
     9
100
AcDbLine
 10
1765.888135497635
 20
1114.49412732511
 30
0.0
 11
1069.733515301267
 21
1114.49412732511
 31
0.0
  0
LINE
  5
A5
330
1F
100
AcDbEntity
  8
_2-c_Shi
  6
Continuous
 62
     7
370
     9
100
AcDbLine
 10
1069.733515301267
 20
1144.380403982627
 30
0.0
 11
1254.138537999746
 21
1144.380403982627
 31
0.0
  0
LINE
  5
A6
330
1F
100
AcDbEntity
  8
_2-c_Shi
  6
Continuous
 62
     7
370
     9
100
AcDbLine
 10
1765.888135497635
 20
585.049118351292
 30
0.0
 11
1069.733515301267
 21
585.049118351292
 31
0.0
  0
LINE
  5
A7
330
1F
100
AcDbEntity
  8
_2-c_Shi
  6
Continuous
 62
     7
370
     9
100
AcDbLine
 10
1765.888135497635
 20
650.0490853593158
 30
0.0
 11
1069.733515301267
 21
650.0490853593158
 31
0.0
  0
LINE
  5
A8
330
1F
100
AcDbEntity
  8
_2-c_Shi
  6
Continuous
 62
     7
370
     9
100
AcDbLine
 10
1765.888135497635
 20
455.0493080551561
 30
0.0
 11
1069.733515301267
 21
455.0493080551561
 31
0.0
  0
LINE
  5
A9
330
1F
100
AcDbEntity
  8
_2-c_Shi
  6
Continuous
 62
     7
370
     9
100
AcDbLine
 10
1765.888135497635
 20
520.0490276233572
 30
0.0
 11
1069.733515301267
 21
520.0490276233572
 31
0.0
  0
LINE
  5
AA
330
1F
100
AcDbEntity
  8
_2-c_Shi
  6
Continuous
 62
     7
370
     9
100
AcDbLine
 10
1765.888135497635
 20
390.0490936073098
 30
0.0
 11
1069.733515301267
 21
390.0490936073098
 31
0.0
  0
LINE
  5
AB
330
1F
100
AcDbEntity
  8
_2-c_Shi
  6
Continuous
 62
     7
370
     9
100
AcDbLine
 10
1069.733515301267
 20
260.0490358713512
 30
0.0
 11
1069.733515301267
 21
650.0490853593158
 31
0.0
  0
LINE
  5
AC
330
1F
100
AcDbEntity
  8
_2-c_Shi
  6
Continuous
 62
     7
370
     9
100
AcDbLine
 10
1290.064573287964
 20
260.0490358713512
 30
0.0
 11
1290.064573287964
 21
650.0490853593158
 31
0.0
  0
LINE
  5
AD
330
1F
100
AcDbEntity
  8
_2-c_Shi
  6
Continuous
 62
     7
370
     9
100
AcDbLine
 10
1527.978210191469
 20
650.0490853593158
 30
0.0
 11
1527.978210191469
 21
260.0490358713512
 31
0.0
  0
LINE
  5
AE
330
1F
100
AcDbEntity
  8
_2-c_Shi
  6
Continuous
 62
     7
370
     9
100
AcDbLine
 10
1765.888135497635
 20
260.0490358713512
 30
0.0
 11
1765.888135497635
 21
650.0490853593158
 31
0.0
  0
LINE
  5
AF
330
1F
100
AcDbEntity
  8
_2-c_Shi
  6
Continuous
 62
     7
370
     9
100
AcDbLine
 10
1765.888135497635
 20
715.0490523673392
 30
0.0
 11
1069.733515301267
 21
715.0490523673392
 31
0.0
  0
LINE
  5
B0
330
1F
100
AcDbEntity
  8
_2-c_Shi
  6
Continuous
 62
     7
370
     9
100
AcDbLine
 10
1069.733515301267
 20
650.0490853593158
 30
0.0
 11
1069.733515301267
 21
1114.49412732511
 31
0.0
  0
LINE
  5
B1
330
1F
100
AcDbEntity
  8
_2-c_Shi
  6
Continuous
 62
     7
370
     9
100
AcDbLine
 10
1765.888135497635
 20
650.0490853593158
 30
0.0
 11
1765.888135497635
 21
1114.49412732511
 31
0.0
  0
LINE
  5
B2
330
1F
100
AcDbEntity
  8
_2-c_Shi
  6
Continuous
 62
     7
370
     9
100
AcDbLine
 10
1290.064573287964
 20
650.0490853593158
 30
0.0
 11
1290.064573287964
 21
1114.49412732511
 31
0.0
  0
LINE
  5
B3
330
1F
100
AcDbEntity
  8
_2-c_Shi
  6
Continuous
 62
     7
370
     9
100
AcDbLine
 10
1527.978210191469
 20
1114.49412732511
 30
0.0
 11
1527.978210191469
 21
650.0490853593158
 31
0.0
  0
LINE
  5
B4
330
1F
100
AcDbEntity
  8
_2-c_Shi
  6
Continuous
 62
     7
370
     9
100
AcDbLine
 10
1765.888135497635
 20
260.0490358713512
 30
0.0
 11
1069.733515301267
 21
260.0490358713512
 31
0.0
  0
LINE
  5
B5
330
1F
100
AcDbEntity
  8
_2-c_Shi
  6
Continuous
 62
     7
370
     9
100
AcDbLine
 10
1765.888135497635
 20
195.0488214235048
 30
0.0
 11
1069.733515301267
 21
195.0488214235048
 31
0.0
  0
LINE
  5
B6
330
1F
100
AcDbEntity
  8
_2-c_Shi
  6
Continuous
 62
     7
370
     9
100
AcDbLine
 10
1765.888135497635
 20
130.0489781353926
 30
0.0
 11
1069.733515301267
 21
130.0489781353926
 31
0.0
  0
LINE
  5
B7
330
1F
100
AcDbEntity
  8
_2-c_Shi
  6
Continuous
 62
     7
370
     9
100
AcDbLine
 10
1765.888135497635
 20
65.04888740745741
 30
0.0
 11
1069.733515301267
 21
65.04888740745741
 31
0.0
  0
LINE
  5
B8
330
1F
100
AcDbEntity
  8
_2-c_Shi
  6
Continuous
 62
     7
370
     9
100
AcDbLine
 10
1765.888135497635
 20
-64.95117032850118
 30
0.0
 11
1069.733515301267
 21
-64.95117032850118
 31
0.0
  0
LINE
  5
B9
330
1F
100
AcDbEntity
  8
_2-c_Shi
  6
Continuous
 62
     7
370
     9
100
AcDbLine
 10
1765.888135497635
 20
0.0490441193451829
 30
0.0
 11
1069.733515301267
 21
0.0490441193451829
 31
0.0
  0
LINE
  5
BA
330
1F
100
AcDbEntity
  8
_2-c_Shi
  6
Continuous
 62
     7
370
     9
100
AcDbLine
 10
1765.888135497635
 20
-129.9510136166134
 30
0.0
 11
1069.733515301267
 21
-129.9510136166134
 31
0.0
  0
LINE
  5
BB
330
1F
100
AcDbEntity
  8
_2-c_Shi
  6
Continuous
 62
     7
370
     9
100
AcDbLine
 10
1765.888135497635
 20
-194.9512280644598
 30
0.0
 11
1069.733515301267
 21
-194.9512280644598
 31
0.0
  0
LINE
  5
BC
330
1F
100
AcDbEntity
  8
_2-c_Shi
  6
Continuous
 62
     7
370
     9
100
AcDbLine
 10
1069.733515301267
 20
260.0490358713512
 30
0.0
 11
1069.733515301267
 21
-194.9512280644598
 31
0.0
  0
LINE
  5
BD
330
1F
100
AcDbEntity
  8
_2-c_Shi
  6
Continuous
 62
     7
370
     9
100
AcDbLine
 10
1290.064325848142
 20
-194.9512280644598
 30
0.0
 11
1290.064325848142
 21
260.0490358713512
 31
0.0
  0
LINE
  5
BE
330
1F
100
AcDbEntity
  8
_2-c_Shi
  6
Continuous
 62
     7
370
     9
100
AcDbLine
 10
1527.978210191469
 20
260.0490358713512
 30
0.0
 11
1527.978210191469
 21
-194.9512280644598
 31
0.0
  0
LINE
  5
BF
330
1F
100
AcDbEntity
  8
_2-c_Shi
  6
Continuous
 62
     7
370
     9
100
AcDbLine
 10
1765.888135497635
 20
-194.9512280644598
 30
0.0
 11
1765.888135497635
 21
260.0490358713512
 31
0.0
  0
LINE
  5
C0
330
1F
100
AcDbEntity
  8
_2-c_Shi
  6
Continuous
 62
     7
370
     9
100
AcDbLine
 10
1765.888135497635
 20
325.0492503191975
 30
0.0
 11
1069.733515301267
 21
325.0492503191975
 31
0.0
  0
LINE
  5
C1
330
1F
100
AcDbEntity
  8
_2-a_N_s
  6
Continuous
 62
     2
370
     9
100
AcDbLine
 10
742.4203653593324
 20
-596.6789972459948
 30
0.0
 11
517.4196230398647
 21
-596.6789972459948
 31
0.0
  0
LINE
  5
C2
330
1F
100
AcDbEntity
  8
_2-a_N_s
  6
Continuous
 62
     2
370
     9
100
AcDbLine
 10
742.4203653593324
 20
-546.6787704261574
 30
0.0
 11
742.4203653593324
 21
-596.6789972459948
 31
0.0
  0
LINE
  5
C3
330
1F
100
AcDbEntity
  8
_2-a_N_s
  6
Continuous
 62
     2
370
     9
100
AcDbLine
 10
517.4196230398647
 20
-546.6787704261574
 30
0.0
 11
742.4203653593324
 21
-546.6787704261574
 31
0.0
  0
LINE
  5
C4
330
1F
100
AcDbEntity
  8
_2-a_N_s
  6
Continuous
 62
     2
370
     9
100
AcDbLine
 10
517.4196230398647
 20
-596.6789972459948
 30
0.0
 11
517.4196230398647
 21
-546.6787704261574
 31
0.0
  0
LINE
  5
C5
330
1F
100
AcDbEntity
  8
092
  6
Continuous
 62
     7
370
     9
100
AcDbLine
 10
510.3787228867816
 20
942.932221180684
 30
0.0
 11
510.3787228867816
 21
1064.304176021267
 31
0.0
  0
LINE
  5
C6
330
1F
100
AcDbEntity
  8
092
  6
Continuous
 62
     7
370
     9
100
AcDbLine
 10
500.3789373346279
 20
942.932221180684
 30
0.0
 11
500.3789373346279
 21
1064.304176021267
 31
0.0
  0
LINE
  5
C7
330
1F
100
AcDbEntity
  8
1-0ﾚｲﾔ
  6
JWW_CENTER2
 62
     4
370
     9
100
AcDbLine
 10
-1289.817806192346
 20
-555.6154307803592
 30
0.0
 11
-1263.297700881958
 21
-555.6154307803592
 31
0.0
  0
LINE
  5
C8
330
1F
100
AcDbEntity
  8
1-0ﾚｲﾔ
  6
JWW_CENTER2
 62
     4
370
     9
100
AcDbLine
 10
-1276.557753537152
 20
-542.3456042521708
 30
0.0
 11
-1276.557753537152
 21
-568.8754834355535
 31
0.0
  0
LINE
  5
C9
330
1F
100
AcDbEntity
  8
1-0ﾚｲﾔ
  6
JWW_CENTER2
 62
     4
370
     9
100
AcDbLine
 10
-965.8178136155411
 20
-555.6154307803592
 30
0.0
 11
-939.2977083051526
 21
-555.6154307803592
 31
0.0
  0
LINE
  5
CA
330
1F
100
AcDbEntity
  8
1-0ﾚｲﾔ
  6
JWW_CENTER2
 62
     4
370
     9
100
AcDbLine
 10
-952.5577609603467
 20
-542.3456042521708
 30
0.0
 11
-952.5577609603467
 21
-568.8754834355535
 31
0.0
  0
LINE
  5
CB
330
1F
100
AcDbEntity
  8
1-0ﾚｲﾔ
  6
JWW_CENTER2
 62
     4
370
     9
100
AcDbLine
 10
-1044.557866534671
 20
-602.3456784841177
 30
0.0
 11
-1044.557866534671
 21
-628.8755576675003
 31
0.0
  0
LINE
  5
CC
330
1F
100
AcDbEntity
  8
1-0ﾚｲﾔ
  6
JWW_CENTER2
 62
     4
370
     9
100
AcDbLine
 10
-1057.817919189865
 20
-615.615505012306
 30
0.0
 11
-1031.297813879477
 21
-615.615505012306
 31
0.0
  0
LINE
  5
CD
330
1F
100
AcDbEntity
  8
1-0ﾚｲﾔ
  6
JWW_CENTER2
 62
     4
370
     9
100
AcDbLine
 10
-1197.8180099178
 20
-615.615505012306
 30
0.0
 11
-1171.297904607412
 21
-615.615505012306
 31
0.0
  0
LINE
  5
CE
330
1F
100
AcDbEntity
  8
1-0ﾚｲﾔ
  6
JWW_CENTER2
 62
     4
370
     9
100
AcDbLine
 10
-1184.557957262606
 20
-602.3456784841177
 30
0.0
 11
-1184.557957262606
 21
-628.8755576675003
 31
0.0
  0
LINE
  5
CF
330
1F
100
AcDbEntity
  8
1-0ﾚｲﾔ
  6
JWW_CENTER2
 62
     4
370
     9
100
AcDbLine
 10
-720.4661356436238
 20
-555.6155545002706
 30
0.0
 11
-693.9460303332353
 21
-555.6155545002706
 31
0.0
  0
LINE
  5
D0
330
1F
100
AcDbEntity
  8
1-0ﾚｲﾔ
  6
JWW_CENTER2
 62
     4
370
     9
100
AcDbLine
 10
-707.2060829884297
 20
-542.3457279720822
 30
0.0
 11
-707.2060829884297
 21
-568.8756071554649
 31
0.0
  0
LINE
  5
D1
330
1F
100
AcDbEntity
  8
1-0ﾚｲﾔ
  6
JWW_CENTER2
 62
     4
370
     9
100
AcDbLine
 10
-720.4661356436238
 20
-695.6157689481167
 30
0.0
 11
-693.9460303332353
 21
-695.6157689481167
 31
0.0
  0
LINE
  5
D2
330
1F
100
AcDbEntity
  8
1-0ﾚｲﾔ
  6
JWW_CENTER2
 62
     4
370
     9
100
AcDbLine
 10
-707.2060829884297
 20
-682.3459424199285
 30
0.0
 11
-707.2060829884297
 21
-708.8758216033111
 31
0.0
  0
LINE
  5
D3
330
1F
100
AcDbEntity
  8
1-0ﾚｲﾔ
  6
JWW_CENTER2
 62
     4
370
     9
100
AcDbLine
 10
-628.4664012290335
 20
-765.6156287322174
 30
0.0
 11
-601.946295918645
 21
-765.6156287322174
 31
0.0
  0
LINE
  5
D4
330
1F
100
AcDbEntity
  8
1-0ﾚｲﾔ
  6
JWW_CENTER2
 62
     4
370
     9
100
AcDbLine
 10
-615.2063485738393
 20
-752.345802204029
 30
0.0
 11
-615.2063485738393
 21
-778.8756813874115
 31
0.0
  0
LINE
  5
D5
330
1F
100
AcDbEntity
  8
1-0ﾚｲﾔ
  6
JWW_CENTER2
 62
     4
370
     9
100
AcDbLine
 10
-488.4663105010983
 20
-765.6156287322174
 30
0.0
 11
-461.9462051907098
 21
-765.6156287322174
 31
0.0
  0
LINE
  5
D6
330
1F
100
AcDbEntity
  8
1-0ﾚｲﾔ
  6
JWW_CENTER2
 62
     4
370
     9
100
AcDbLine
 10
-475.2062578459041
 20
-752.345802204029
 30
0.0
 11
-475.2062578459041
 21
-778.8756813874115
 31
0.0
  0
LINE
  5
D7
330
1F
100
AcDbEntity
  8
1-0ﾚｲﾔ
  6
JWW_CENTER2
 62
     4
370
     9
100
AcDbLine
 10
-396.4662049267741
 20
-695.6157689481167
 30
0.0
 11
-369.9460996163856
 21
-695.6157689481167
 31
0.0
  0
LINE
  5
D8
330
1F
100
AcDbEntity
  8
1-0ﾚｲﾔ
  6
JWW_CENTER2
 62
     4
370
     9
100
AcDbLine
 10
-383.2061522715799
 20
-682.3459424199285
 30
0.0
 11
-383.2061522715799
 21
-708.8758216033111
 31
0.0
  0
LINE
  5
D9
330
1F
100
AcDbEntity
  8
1-0ﾚｲﾔ
  6
JWW_CENTER2
 62
     4
370
     9
100
AcDbLine
 10
-396.4662049267741
 20
-555.6155545002706
 30
0.0
 11
-369.9460996163856
 21
-555.6155545002706
 31
0.0
  0
LINE
  5
DA
330
1F
100
AcDbEntity
  8
1-0ﾚｲﾔ
  6
JWW_CENTER2
 62
     4
370
     9
100
AcDbLine
 10
-383.2061522715799
 20
-542.3457279720822
 30
0.0
 11
-383.2061522715799
 21
-568.8756071554649
 31
0.0
  0
LINE
  5
DB
330
1F
100
AcDbEntity
  8
1-0ﾚｲﾔ
  6
JWW_CENTER2
 62
     4
370
     9
100
AcDbLine
 10
-114.6959626996838
 20
-555.6158019400932
 30
0.0
 11
-88.17585738929523
 21
-555.6158019400932
 31
0.0
  0
LINE
  5
DC
330
1F
100
AcDbEntity
  8
1-0ﾚｲﾔ
  6
JWW_CENTER2
 62
     4
370
     9
100
AcDbLine
 10
-101.4359100444895
 20
-542.3459754119049
 30
0.0
 11
-101.4359100444895
 21
-568.8758545952875
 31
0.0
  0
LINE
  5
DD
330
1F
100
AcDbEntity
  8
1-0ﾚｲﾔ
  6
JWW_CENTER2
 62
     4
370
     9
100
AcDbLine
 10
-114.6959626996838
 20
-700.615599864238
 30
0.0
 11
-88.17585738929523
 21
-700.615599864238
 31
0.0
  0
LINE
  5
DE
330
1F
100
AcDbEntity
  8
1-0ﾚｲﾔ
  6
JWW_CENTER2
 62
     4
370
     9
100
AcDbLine
 10
-101.4359100444895
 20
-687.3457733360498
 30
0.0
 11
-101.4359100444895
 21
-713.8756525194323
 31
0.0
  0
LINE
  5
DF
330
1F
100
AcDbEntity
  8
1-0ﾚｲﾔ
  6
JWW_CENTER2
 62
     4
370
     9
100
AcDbLine
 10
-114.6959626996838
 20
-845.6158308080726
 30
0.0
 11
-88.17585738929523
 21
-845.6158308080726
 31
0.0
  0
LINE
  5
E0
330
1F
100
AcDbEntity
  8
1-0ﾚｲﾔ
  6
JWW_CENTER2
 62
     4
370
     9
100
AcDbLine
 10
-101.4359100444895
 20
-832.3460042798843
 30
0.0
 11
-101.4359100444895
 21
-858.8758834632667
 31
0.0
  0
LINE
  5
E1
330
1F
100
AcDbEntity
  8
1-0ﾚｲﾔ
  6
JWW_CENTER2
 62
     4
370
     9
100
AcDbLine
 10
-22.69598084527075
 20
-915.6157524521286
 30
0.0
 11
3.824124465117791
 21
-915.6157524521286
 31
0.0
  0
LINE
  5
E2
330
1F
100
AcDbEntity
  8
1-0ﾚｲﾔ
  6
JWW_CENTER2
 62
     4
370
     9
100
AcDbLine
 10
-9.435928190076481
 20
-902.3459259239403
 30
0.0
 11
-9.435928190076481
 21
-928.8758051073229
 31
0.0
  0
LINE
  5
E3
330
1F
100
AcDbEntity
  8
1-0ﾚｲﾔ
  6
JWW_CENTER2
 62
     4
370
     9
100
AcDbLine
 10
117.3039861627529
 20
-915.6157524521286
 30
0.0
 11
143.8240914731415
 21
-915.6157524521286
 31
0.0
  0
LINE
  5
E4
330
1F
100
AcDbEntity
  8
1-0ﾚｲﾔ
  6
JWW_CENTER2
 62
     4
370
     9
100
AcDbLine
 10
130.5640388179472
 20
-902.3459259239403
 30
0.0
 11
130.5640388179472
 21
-928.8758051073229
 31
0.0
  0
LINE
  5
E5
330
1F
100
AcDbEntity
  8
1-0ﾚｲﾔ
  6
JWW_CENTER2
 62
     4
370
     9
100
AcDbLine
 10
209.3040917370772
 20
-700.615599864238
 30
0.0
 11
235.8241970474657
 21
-700.615599864238
 31
0.0
  0
LINE
  5
E6
330
1F
100
AcDbEntity
  8
1-0ﾚｲﾔ
  6
JWW_CENTER2
 62
     4
370
     9
100
AcDbLine
 10
222.5641443922714
 20
-687.3457733360498
 30
0.0
 11
222.5641443922714
 21
-713.8756525194323
 31
0.0
  0
LINE
  5
E7
330
1F
100
AcDbEntity
  8
1-0ﾚｲﾔ
  6
JWW_CENTER2
 62
     4
370
     9
100
AcDbLine
 10
209.3040917370772
 20
-845.6158308080726
 30
0.0
 11
235.8241970474657
 21
-845.6158308080726
 31
0.0
  0
LINE
  5
E8
330
1F
100
AcDbEntity
  8
1-0ﾚｲﾔ
  6
JWW_CENTER2
 62
     4
370
     9
100
AcDbLine
 10
222.5641443922714
 20
-832.3460042798843
 30
0.0
 11
222.5641443922714
 21
-858.8758834632667
 31
0.0
  0
LINE
  5
E9
330
1F
100
AcDbEntity
  8
1-0ﾚｲﾔ
  6
JWW_CENTER2
 62
     4
370
     9
100
AcDbLine
 10
209.3040917370772
 20
-555.6158019400932
 30
0.0
 11
235.8241970474657
 21
-555.6158019400932
 31
0.0
  0
LINE
  5
EA
330
1F
100
AcDbEntity
  8
1-0ﾚｲﾔ
  6
JWW_CENTER2
 62
     4
370
     9
100
AcDbLine
 10
222.5641443922714
 20
-542.3459754119049
 30
0.0
 11
222.5641443922714
 21
-568.8758545952875
 31
0.0
  0
LINE
  5
EB
330
1F
100
AcDbEntity
  8
通り芯
  6
JWW_CENTER2
 62
     4
370
     9
100
AcDbLine
 10
-1229.172965642568
 20
746.6738412186908
 30
0.0
 11
-1162.872826086508
 21
746.6738412186908
 31
0.0
  0
LINE
  5
EC
330
1F
100
AcDbEntity
  8
通り芯
  6
JWW_CENTER2
 62
     4
370
     9
100
AcDbLine
 10
-1196.022834004582
 20
713.5243281802616
 30
0.0
 11
-1196.022834004582
 21
779.8488405588512
 31
0.0
  0
LINE
  5
ED
330
1F
100
AcDbEntity
  8
092
  6
Continuous
 62
     7
370
     9
100
AcDbLine
 10
-180.2750626125848
 20
449.7602818463301
 30
0.0
 11
-372.4081258516051
 21
730.3584016335979
 31
0.0
  0
LINE
  5
EE
330
1F
100
AcDbEntity
  8
092
  6
Continuous
 62
     7
370
     9
100
AcDbLine
 10
-372.4081258516051
 20
730.3584016335979
 30
0.0
 11
-355.7121238192994
 21
711.7509269714355
 31
0.0
  0
LINE
  5
EF
330
1F
100
AcDbEntity
  8
092
  6
Continuous
 62
     7
370
     9
100
AcDbLine
 10
-372.4081258516051
 20
730.3584016335979
 30
0.0
 11
-361.097156679308
 21
708.0635787345267
 31
0.0
  0
LINE
  5
F0
330
1F
100
AcDbEntity
  8
通り芯
  6
JWW_CENTER2
 62
     4
370
     9
100
AcDbLine
 10
-1229.172965642568
 20
396.6734288189863
 30
0.0
 11
-1162.872826086508
 21
396.6734288189863
 31
0.0
  0
LINE
  5
F1
330
1F
100
AcDbEntity
  8
通り芯
  6
JWW_CENTER2
 62
     4
370
     9
100
AcDbLine
 10
-1196.022834004582
 20
363.5239157805572
 30
0.0
 11
-1196.022834004582
 21
429.8484281591467
 31
0.0
  0
LINE
  5
F2
330
1F
100
AcDbEntity
  8
通り芯
  6
JWW_CENTER2
 62
     4
370
     9
100
AcDbLine
 10
-999.173815185959
 20
221.6735937788681
 30
0.0
 11
-932.8736756298991
 21
221.6735937788681
 31
0.0
  0
LINE
  5
F3
330
1F
100
AcDbEntity
  8
通り芯
  6
JWW_CENTER2
 62
     4
370
     9
100
AcDbLine
 10
-966.0236835479735
 20
188.5240807404389
 30
0.0
 11
-966.0236835479735
 21
254.8485931190285
 31
0.0
  0
LINE
  5
F4
330
1F
100
AcDbEntity
  8
通り芯
  6
JWW_CENTER2
 62
     4
370
     9
100
AcDbLine
 10
-649.1736502260773
 20
221.6735937788681
 30
0.0
 11
-582.8735106700174
 21
221.6735937788681
 31
0.0
  0
LINE
  5
F5
330
1F
100
AcDbEntity
  8
通り芯
  6
JWW_CENTER2
 62
     4
370
     9
100
AcDbLine
 10
-616.0235185880915
 20
188.5240807404389
 30
0.0
 11
-616.0235185880915
 21
254.8485931190285
 31
0.0
  0
LINE
  5
F6
330
1F
100
AcDbEntity
  8
通り芯
  6
JWW_CENTER2
 62
     4
370
     9
100
AcDbLine
 10
-419.1733862902666
 20
396.6734288189863
 30
0.0
 11
-352.8732467342064
 21
396.6734288189863
 31
0.0
  0
LINE
  5
F7
330
1F
100
AcDbEntity
  8
通り芯
  6
JWW_CENTER2
 62
     4
370
     9
100
AcDbLine
 10
-386.0232546522809
 20
363.5239157805572
 30
0.0
 11
-386.0232546522809
 21
429.8484281591467
 31
0.0
  0
LINE
  5
F8
330
1F
100
AcDbEntity
  8
通り芯
  6
JWW_CENTER2
 62
     4
370
     9
100
AcDbLine
 10
-419.1733862902666
 20
746.6738412186908
 30
0.0
 11
-352.8732467342064
 21
746.6738412186908
 31
0.0
  0
LINE
  5
F9
330
1F
100
AcDbEntity
  8
通り芯
  6
JWW_CENTER2
 62
     4
370
     9
100
AcDbLine
 10
-386.0232546522809
 20
713.5243281802616
 30
0.0
 11
-386.0232546522809
 21
779.8488405588512
 31
0.0
  0
LINE
  5
FA
330
1F
100
AcDbEntity
  8
092
  6
Continuous
 62
     7
370
     9
100
AcDbLine
 10
185.4867716093324
 20
1024.023694734316
 30
0.0
 11
-182.9516191740291
 21
1024.023694734316
 31
0.0
  0
LINE
  5
FB
330
1F
100
AcDbEntity
  8
092
  6
Continuous
 62
     7
370
     9
100
AcDbLine
 10
152.3877362947209
 20
449.7602818463301
 30
0.0
 11
-180.2750626125848
 21
449.7602818463301
 31
0.0
  0
LINE
  5
FC
330
1F
100
AcDbEntity
  8
Hojo
  6
Continuous
 62
     7
370
     9
100
AcDbLine
 10
-1487.344933844901
 20
-259.0423486039446
 30
0.0
 11
-1081.566203607095
 21
-259.0423486039446
 31
0.0
  0
LINE
  5
FD
330
1F
100
AcDbEntity
  8
Hojo
  6
Continuous
 62
     7
370
     9
100
AcDbLine
 10
-1487.344933844901
 20
-194.0422578760095
 30
0.0
 11
-1081.566203607095
 21
-194.0422578760095
 31
0.0
  0
LINE
  5
FE
330
1F
100
AcDbEntity
  8
Hojo
  6
Continuous
 62
     7
370
     9
100
AcDbLine
 10
-1487.344933844901
 20
-194.0422578760095
 30
0.0
 11
-1487.344933844901
 21
-259.0423486039446
 31
0.0
  0
LINE
  5
FF
330
1F
100
AcDbEntity
  8
Hojo
  6
Continuous
 62
     7
370
     9
100
AcDbLine
 10
-1081.566203607095
 20
-194.0422578760095
 30
0.0
 11
-1081.566203607095
 21
-259.0423486039446
 31
0.0
  0
CIRCLE
  5
100
330
1F
100
AcDbEntity
  8
通り芯
  6
Continuous
 62
     4
370
     9
100
AcDbCircle
 10
-1196.022834004582
 20
746.6738412186908
 30
0.0
 40
21.25000244862325
  0
CIRCLE
  5
101
330
1F
100
AcDbEntity
  8
通り芯
  6
Continuous
 62
     4
370
     9
100
AcDbCircle
 10
-966.0236835479735
 20
221.6735937788681
 30
0.0
 40
21.25000244862325
  0
CIRCLE
  5
102
330
1F
100
AcDbEntity
  8
通り芯
  6
Continuous
 62
     4
370
     9
100
AcDbCircle
 10
-616.0235185880915
 20
221.6735937788681
 30
0.0
 40
21.25000244862325
  0
CIRCLE
  5
103
330
1F
100
AcDbEntity
  8
通り芯
  6
Continuous
 62
     4
370
     9
100
AcDbCircle
 10
-386.0232546522809
 20
746.6738412186908
 30
0.0
 40
21.25000244862325
  0
ARC
  5
104
330
1F
100
AcDbEntity
  8
通り芯
  6
JWW_PHANTOM2
 62
     4
370
     9
100
AcDbCircle
 10
-1186.023790771897
 20
906.6743690903124
 30
0.0
 40
7.500000096656181
100
AcDbArc
 50
0.0
 51
90.0
  0
ARC
  5
105
330
1F
100
AcDbEntity
  8
通り芯
  6
JWW_PHANTOM2
 62
     4
370
     9
100
AcDbCircle
 10
-1256.023279396263
 20
906.6743690903124
 30
0.0
 40
7.500000096656181
100
AcDbArc
 50
90.0
 51
180.0
  0
ARC
  5
106
330
1F
100
AcDbEntity
  8
通り芯
  6
JWW_PHANTOM2
 62
     4
370
     9
100
AcDbCircle
 10
-1163.523345380216
 20
851.673692754797
 30
0.0
 40
15.00000019331236
100
AcDbArc
 50
180.0
 51
270.0
  0
ARC
  5
107
330
1F
100
AcDbEntity
  8
通り芯
  6
JWW_PHANTOM2
 62
     4
370
     9
100
AcDbCircle
 10
-418.5232381562926
 20
851.673692754797
 30
0.0
 40
15.00000019331236
100
AcDbArc
 50
270.0
 51
0.0
  0
ARC
  5
108
330
1F
100
AcDbEntity
  8
通り芯
  6
JWW_PHANTOM2
 62
     4
370
     9
100
AcDbCircle
 10
-526.0232216603047
 20
829.1739896825843
 30
0.0
 40
7.500000096656181
100
AcDbArc
 50
90.0
 51
180.0
  0
ARC
  5
109
330
1F
100
AcDbEntity
  8
通り芯
  6
JWW_PHANTOM2
 62
     4
370
     9
100
AcDbCircle
 10
-396.0235350840799
 20
906.6743690903124
 30
0.0
 40
7.500000096656181
100
AcDbArc
 50
90.0
 51
180.0
  0
ARC
  5
10A
330
1F
100
AcDbEntity
  8
通り芯
  6
JWW_PHANTOM2
 62
     4
370
     9
100
AcDbCircle
 10
-326.0235515800679
 20
906.6743690903124
 30
0.0
 40
7.500000096656181
100
AcDbArc
 50
0.0
 51
90.0
  0
ARC
  5
10B
330
1F
100
AcDbEntity
  8
通り芯
  6
JWW_PHANTOM2
 62
     4
370
     9
100
AcDbCircle
 10
-1056.022743276647
 20
829.1739896825843
 30
0.0
 40
7.500000096656181
100
AcDbArc
 50
0.0
 51
90.0
  0
CIRCLE
  5
10C
330
1F
100
AcDbEntity
  8
通り芯
  6
Continuous
 62
     4
370
     9
100
AcDbCircle
 10
-1196.022834004582
 20
396.6734288189863
 30
0.0
 40
21.25000244862325
  0
CIRCLE
  5
10D
330
1F
100
AcDbEntity
  8
通り芯
  6
Continuous
 62
     4
370
     9
100
AcDbCircle
 10
-386.0232546522809
 20
396.6734288189863
 30
0.0
 40
21.25000244862325
  0
ARC
  5
10E
330
1F
100
AcDbEntity
  8
通り芯
  6
Continuous
 62
     4
370
     9
100
AcDbCircle
 10
-1261.023419612163
 20
131.6737917307262
 30
0.0
 40
10.00000012887491
100
AcDbArc
 50
180.0
 51
270.0
  0
ARC
  5
10F
330
1F
100
AcDbEntity
  8
通り芯
  6
Continuous
 62
     4
370
     9
100
AcDbCircle
 10
-321.0230402044346
 20
911.6736432668326
 30
0.0
 40
10.00000012887491
100
AcDbArc
 50
0.0
 51
90.0
  0
ARC
  5
110
330
1F
100
AcDbEntity
  8
通り芯
  6
Continuous
 62
     4
370
     9
100
AcDbCircle
 10
-1261.023295892252
 20
911.6736432668326
 30
0.0
 40
10.00000012887491
100
AcDbArc
 50
90.0
 51
180.0
  0
ARC
  5
111
330
1F
100
AcDbEntity
  8
通り芯
  6
Continuous
 62
     4
370
     9
100
AcDbCircle
 10
-321.0230402044346
 20
131.6739154506374
 30
0.0
 40
10.00000012887491
100
AcDbArc
 50
270.0
 51
0.0
  0
ARC
  5
112
330
1F
100
AcDbEntity
  8
通り芯
  6
JWW_PHANTOM2
 62
     4
370
     9
100
AcDbCircle
 10
-791.0234773481213
 20
354.1737834827322
 30
0.0
 40
57.50000412399704
100
AcDbArc
 50
254.9999237060547
 51
285.0000762939453
  0
ARC
  5
113
330
1F
100
AcDbEntity
  8
通り芯
  6
JWW_PHANTOM2
 62
     4
370
     9
100
AcDbCircle
 10
-591.0234361081507
 20
407.7638053894043
 30
0.0
 40
57.50000412399704
100
AcDbArc
 50
285.0000762939453
 51
0.0000000000000127
  0
ARC
  5
114
330
1F
100
AcDbEntity
  8
通り芯
  6
JWW_PHANTOM2
 62
     4
370
     9
100
AcDbCircle
 10
-991.0225288288011
 20
407.7635579495816
 30
0.0
 40
57.50000412399704
100
AcDbArc
 50
180.0
 51
254.9999237060547
  0
CIRCLE
  5
115
330
1F
100
AcDbEntity
  8
1-0ﾚｲﾔ
  6
Continuous
 62
     4
370
     9
100
AcDbCircle
 10
-1184.557957262606
 20
-615.615505012306
 30
0.0
 40
8.500001559386384
  0
CIRCLE
  5
116
330
1F
100
AcDbEntity
  8
1-0ﾚｲﾔ
  6
Continuous
 62
     4
370
     9
100
AcDbCircle
 10
-1044.557866534671
 20
-615.615505012306
 30
0.0
 40
8.500001559386384
  0
ARC
  5
117
330
1F
100
AcDbEntity
  8
Hojo
  6
JWW_PHANTOM2
 62
     4
370
     9
100
AcDbCircle
 10
-1272.557888804255
 20
-491.6149969358702
 30
0.0
 40
3.000000038662472
100
AcDbArc
 50
0.0
 51
90.0
  0
ARC
  5
118
330
1F
100
AcDbEntity
  8
Hojo
  6
JWW_PHANTOM2
 62
     4
370
     9
100
AcDbCircle
 10
-1300.557931693824
 20
-491.6149969358702
 30
0.0
 40
3.000000038662472
100
AcDbArc
 50
90.0
 51
180.0
  0
ARC
  5
119
330
1F
100
AcDbEntity
  8
Hojo
  6
JWW_PHANTOM2
 62
     4
370
     9
100
AcDbCircle
 10
-1263.557760135547
 20
-513.6154901659166
 30
0.0
 40
6.000000077324945
100
AcDbArc
 50
180.0
 51
270.0
  0
ARC
  5
11A
330
1F
100
AcDbEntity
  8
Hojo
  6
JWW_PHANTOM2
 62
     4
370
     9
100
AcDbCircle
 10
-965.5577543619515
 20
-513.6154901659166
 30
0.0
 40
6.000000077324945
100
AcDbArc
 50
270.0
 51
0.0
  0
ARC
  5
11B
330
1F
100
AcDbEntity
  8
Hojo
  6
JWW_PHANTOM2
 62
     4
370
     9
100
AcDbCircle
 10
-1008.557723019574
 20
-522.6153713948019
 30
0.0
 40
3.000000038662472
100
AcDbArc
 50
90.0
 51
180.0
  0
ARC
  5
11C
330
1F
100
AcDbEntity
  8
Hojo
  6
JWW_PHANTOM2
 62
     4
370
     9
100
AcDbCircle
 10
-956.5578731330663
 20
-491.6149969358702
 30
0.0
 40
3.000000038662472
100
AcDbArc
 50
90.0
 51
180.0
  0
ARC
  5
11D
330
1F
100
AcDbEntity
  8
Hojo
  6
JWW_PHANTOM2
 62
     4
370
     9
100
AcDbCircle
 10
-928.557830243497
 20
-491.6149969358702
 30
0.0
 40
3.000000038662472
100
AcDbArc
 50
0.0
 51
90.0
  0
ARC
  5
11E
330
1F
100
AcDbEntity
  8
Hojo
  6
JWW_PHANTOM2
 62
     4
370
     9
100
AcDbCircle
 10
-1220.557729617969
 20
-522.6153713948019
 30
0.0
 40
3.000000038662472
100
AcDbArc
 50
0.0
 51
90.0
  0
CIRCLE
  5
11F
330
1F
100
AcDbEntity
  8
1-0ﾚｲﾔ
  6
Continuous
 62
     4
370
     9
100
AcDbCircle
 10
-1276.557753537152
 20
-555.6154307803592
 30
0.0
 40
8.500001559386384
  0
CIRCLE
  5
120
330
1F
100
AcDbEntity
  8
1-0ﾚｲﾔ
  6
Continuous
 62
     4
370
     9
100
AcDbCircle
 10
-952.5577609603467
 20
-555.6154307803592
 30
0.0
 40
8.500001559386384
  0
ARC
  5
121
330
1F
100
AcDbEntity
  8
1-0ﾚｲﾔ
  6
Continuous
 62
     4
370
     9
100
AcDbCircle
 10
-1302.557740340361
 20
-489.6154357291557
 30
0.0
 40
4.000000293190415
100
AcDbArc
 50
90.0
 51
180.0
  0
ARC
  5
122
330
1F
100
AcDbEntity
  8
1-0ﾚｲﾔ
  6
Continuous
 62
     4
370
     9
100
AcDbCircle
 10
-926.5577741571373
 20
-489.6154357291557
 30
0.0
 40
4.000000293190415
100
AcDbArc
 50
0.0
 51
90.0
  0
ARC
  5
123
330
1F
100
AcDbEntity
  8
1-0ﾚｲﾔ
  6
Continuous
 62
     4
370
     9
100
AcDbCircle
 10
-926.5577741571373
 20
-651.6155248074917
 30
0.0
 40
4.000000293190415
100
AcDbArc
 50
270.0
 51
0.0
  0
ARC
  5
124
330
1F
100
AcDbEntity
  8
1-0ﾚｲﾔ
  6
Continuous
 62
     4
370
     9
100
AcDbCircle
 10
-1302.557740340361
 20
-651.6155248074917
 30
0.0
 40
4.000000293190415
100
AcDbArc
 50
180.0
 51
270.0
  0
ARC
  5
125
330
1F
100
AcDbEntity
  8
Hojo
  6
JWW_PHANTOM2
 62
     4
370
     9
100
AcDbCircle
 10
-1114.557850038683
 20
-562.6153796427958
 30
0.0
 40
23.0000012629741
100
AcDbArc
 50
254.9999847412109
 51
285.0000915527344
  0
ARC
  5
126
330
1F
100
AcDbEntity
  8
Hojo
  6
JWW_PHANTOM2
 62
     4
370
     9
100
AcDbCircle
 10
-1194.55774281476
 20
-541.1794203680915
 30
0.0
 40
23.0000012629741
100
AcDbArc
 50
180.0
 51
255.0
  0
ARC
  5
127
330
1F
100
AcDbEntity
  8
Hojo
  6
JWW_PHANTOM2
 62
     4
370
     9
100
AcDbCircle
 10
-1034.557833542695
 20
-541.1794203680915
 30
0.0
 40
23.0000012629741
100
AcDbArc
 50
285.0000915527344
 51
0.0
  0
CIRCLE
  5
128
330
1F
100
AcDbEntity
  8
1-0ﾚｲﾔ
  6
Continuous
 62
     4
370
     9
100
AcDbCircle
 10
-101.4359100444895
 20
-555.6158019400932
 30
0.0
 40
8.500001559386384
  0
CIRCLE
  5
129
330
1F
100
AcDbEntity
  8
1-0ﾚｲﾔ
  6
Continuous
 62
     4
370
     9
100
AcDbCircle
 10
-101.4359100444895
 20
-700.615599864238
 30
0.0
 40
8.500001559386384
  0
CIRCLE
  5
12A
330
1F
100
AcDbEntity
  8
1-0ﾚｲﾔ
  6
Continuous
 62
     4
370
     9
100
AcDbCircle
 10
-9.435928190076481
 20
-915.6157524521286
 30
0.0
 40
8.500001559386384
  0
CIRCLE
  5
12B
330
1F
100
AcDbEntity
  8
1-0ﾚｲﾔ
  6
Continuous
 62
     4
370
     9
100
AcDbCircle
 10
130.5640388179472
 20
-915.6157524521286
 30
0.0
 40
8.500001559386384
  0
CIRCLE
  5
12C
330
1F
100
AcDbEntity
  8
1-0ﾚｲﾔ
  6
Continuous
 62
     4
370
     9
100
AcDbCircle
 10
222.5641443922714
 20
-700.615599864238
 30
0.0
 40
8.500001559386384
  0
CIRCLE
  5
12D
330
1F
100
AcDbEntity
  8
1-0ﾚｲﾔ
  6
Continuous
 62
     4
370
     9
100
AcDbCircle
 10
222.5641443922714
 20
-555.6158019400932
 30
0.0
 40
8.500001559386384
  0
ARC
  5
12E
330
1F
100
AcDbEntity
  8
Hojo
  6
JWW_PHANTOM2
 62
     4
370
     9
100
AcDbCircle
 10
-97.43616903150382
 20
-491.6154918155155
 30
0.0
 40
3.000000038662472
100
AcDbArc
 50
0.0
 51
90.0
  0
ARC
  5
12F
330
1F
100
AcDbEntity
  8
Hojo
  6
JWW_PHANTOM2
 62
     4
370
     9
100
AcDbCircle
 10
-125.4360882011616
 20
-491.6154918155155
 30
0.0
 40
3.000000038662472
100
AcDbArc
 50
90.0
 51
180.0
  0
ARC
  5
130
330
1F
100
AcDbEntity
  8
Hojo
  6
JWW_PHANTOM2
 62
     4
370
     9
100
AcDbCircle
 10
-88.43591664288482
 20
-513.615613885828
 30
0.0
 40
6.000000077324945
100
AcDbArc
 50
180.0
 51
270.0
  0
ARC
  5
131
330
1F
100
AcDbEntity
  8
Hojo
  6
JWW_PHANTOM2
 62
     4
370
     9
100
AcDbCircle
 10
209.5641509906667
 20
-513.615613885828
 30
0.0
 40
6.000000077324945
100
AcDbArc
 50
270.0
 51
0.0
  0
ARC
  5
132
330
1F
100
AcDbEntity
  8
Hojo
  6
JWW_PHANTOM2
 62
     4
370
     9
100
AcDbCircle
 10
166.5640586131332
 20
-522.6154951147132
 30
0.0
 40
3.000000038662472
100
AcDbArc
 50
90.0
 51
180.0
  0
ARC
  5
133
330
1F
100
AcDbEntity
  8
Hojo
  6
JWW_PHANTOM2
 62
     4
370
     9
100
AcDbCircle
 10
218.5640322195519
 20
-491.6154918155155
 30
0.0
 40
3.000000038662472
100
AcDbArc
 50
90.0
 51
180.0
  0
ARC
  5
134
330
1F
100
AcDbEntity
  8
Hojo
  6
JWW_PHANTOM2
 62
     4
370
     9
100
AcDbCircle
 10
246.5638276692985
 20
-491.6154918155155
 30
0.0
 40
3.000000038662472
100
AcDbArc
 50
0.0
 51
90.0
  0
ARC
  5
135
330
1F
100
AcDbEntity
  8
Hojo
  6
JWW_PHANTOM2
 62
     4
370
     9
100
AcDbCircle
 10
-45.43582426535096
 20
-522.6154951147132
 30
0.0
 40
3.000000038662472
100
AcDbArc
 50
0.0
 51
90.0
  0
CIRCLE
  5
136
330
1F
100
AcDbEntity
  8
1-0ﾚｲﾔ
  6
Continuous
 62
     4
370
     9
100
AcDbCircle
 10
-101.4359100444895
 20
-845.6158308080726
 30
0.0
 40
8.500001559386384
  0
CIRCLE
  5
137
330
1F
100
AcDbEntity
  8
1-0ﾚｲﾔ
  6
Continuous
 62
     4
370
     9
100
AcDbCircle
 10
222.5641443922714
 20
-845.6158308080726
 30
0.0
 40
8.500001559386384
  0
ARC
  5
138
330
1F
100
AcDbEntity
  8
1-0ﾚｲﾔ
  6
Continuous
 62
     4
370
     9
100
AcDbCircle
 10
248.5641311954811
 20
-951.6157722473145
 30
0.0
 40
4.000000293190415
100
AcDbArc
 50
270.0
 51
0.0
  0
ARC
  5
139
330
1F
100
AcDbEntity
  8
1-0ﾚｲﾔ
  6
Continuous
 62
     4
370
     9
100
AcDbCircle
 10
-127.4360205676103
 20
-951.6157722473145
 30
0.0
 40
4.000000293190415
100
AcDbArc
 50
180.0
 51
270.0
  0
ARC
  5
13A
330
1F
100
AcDbEntity
  8
1-0ﾚｲﾔ
  6
Continuous
 62
     4
370
     9
100
AcDbCircle
 10
-127.4360205676103
 20
-489.6156831689783
 30
0.0
 40
4.000000293190415
100
AcDbArc
 50
90.0
 51
180.0
  0
ARC
  5
13B
330
1F
100
AcDbEntity
  8
1-0ﾚｲﾔ
  6
Continuous
 62
     4
370
     9
100
AcDbCircle
 10
248.5641311954811
 20
-489.6156831689783
 30
0.0
 40
4.000000293190415
100
AcDbArc
 50
0.0
 51
90.0
  0
ARC
  5
13C
330
1F
100
AcDbEntity
  8
Hojo
  6
JWW_PHANTOM2
 62
     4
370
     9
100
AcDbCircle
 10
60.56380787411285
 20
-862.6156889425743
 30
0.0
 40
23.0000012629741
100
AcDbArc
 50
255.0000762939453
 51
284.9999237060547
  0
ARC
  5
13D
330
1F
100
AcDbEntity
  8
Hojo
  6
JWW_PHANTOM2
 62
     4
370
     9
100
AcDbCircle
 10
-19.43571374223012
 20
-841.1798533877811
 30
0.0
 40
23.0000012629741
100
AcDbArc
 50
180.0
 51
255.0000762939453
  0
ARC
  5
13E
330
1F
100
AcDbEntity
  8
Hojo
  6
JWW_PHANTOM2
 62
     4
370
     9
100
AcDbCircle
 10
140.5640718099235
 20
-841.1797296678698
 30
0.0
 40
23.0000012629741
100
AcDbArc
 50
284.9998779296875
 51
0.0000000000000127
  0
CIRCLE
  5
13F
330
1F
100
AcDbEntity
  8
1-0ﾚｲﾔ
  6
Continuous
 62
     4
370
     9
100
AcDbCircle
 10
-707.2060829884297
 20
-555.6155545002706
 30
0.0
 40
8.500001559386384
  0
CIRCLE
  5
140
330
1F
100
AcDbEntity
  8
1-0ﾚｲﾔ
  6
Continuous
 62
     4
370
     9
100
AcDbCircle
 10
-615.2063485738393
 20
-765.6156287322174
 30
0.0
 40
8.500001559386384
  0
CIRCLE
  5
141
330
1F
100
AcDbEntity
  8
1-0ﾚｲﾔ
  6
Continuous
 62
     4
370
     9
100
AcDbCircle
 10
-475.2062578459041
 20
-765.6156287322174
 30
0.0
 40
8.500001559386384
  0
CIRCLE
  5
142
330
1F
100
AcDbEntity
  8
1-0ﾚｲﾔ
  6
Continuous
 62
     4
370
     9
100
AcDbCircle
 10
-383.2061522715799
 20
-555.6155545002706
 30
0.0
 40
8.500001559386384
  0
ARC
  5
143
330
1F
100
AcDbEntity
  8
Hojo
  6
JWW_PHANTOM2
 62
     4
370
     9
100
AcDbCircle
 10
-703.2064656953551
 20
-491.6153680956041
 30
0.0
 40
3.000000038662472
100
AcDbArc
 50
0.0
 51
90.0
  0
ARC
  5
144
330
1F
100
AcDbEntity
  8
Hojo
  6
JWW_PHANTOM2
 62
     4
370
     9
100
AcDbCircle
 10
-731.2062611451017
 20
-491.6153680956041
 30
0.0
 40
3.000000038662472
100
AcDbArc
 50
90.0
 51
180.0
  0
ARC
  5
145
330
1F
100
AcDbEntity
  8
Hojo
  6
JWW_PHANTOM2
 62
     4
370
     9
100
AcDbCircle
 10
-694.2062133067361
 20
-513.615613885828
 30
0.0
 40
6.000000077324945
100
AcDbArc
 50
180.0
 51
270.0
  0
ARC
  5
146
330
1F
100
AcDbEntity
  8
Hojo
  6
JWW_PHANTOM2
 62
     4
370
     9
100
AcDbCircle
 10
-396.2061456731846
 20
-513.615613885828
 30
0.0
 40
6.000000077324945
100
AcDbArc
 50
270.0
 51
0.0
  0
ARC
  5
147
330
1F
100
AcDbEntity
  8
Hojo
  6
JWW_PHANTOM2
 62
     4
370
     9
100
AcDbCircle
 10
-439.2062380507184
 20
-522.6154951147132
 30
0.0
 40
3.000000038662472
100
AcDbArc
 50
90.0
 51
180.0
  0
ARC
  5
148
330
1F
100
AcDbEntity
  8
Hojo
  6
JWW_PHANTOM2
 62
     4
370
     9
100
AcDbCircle
 10
-387.2062644442994
 20
-491.6153680956041
 30
0.0
 40
3.000000038662472
100
AcDbArc
 50
90.0
 51
180.0
  0
ARC
  5
149
330
1F
100
AcDbEntity
  8
Hojo
  6
JWW_PHANTOM2
 62
     4
370
     9
100
AcDbCircle
 10
-359.2062215547301
 20
-491.6153680956041
 30
0.0
 40
3.000000038662472
100
AcDbArc
 50
0.0
 51
90.0
  0
ARC
  5
14A
330
1F
100
AcDbEntity
  8
Hojo
  6
JWW_PHANTOM2
 62
     4
370
     9
100
AcDbCircle
 10
-651.2059972092911
 20
-522.6154951147132
 30
0.0
 40
3.000000038662472
100
AcDbArc
 50
0.0
 51
90.0
  0
CIRCLE
  5
14B
330
1F
100
AcDbEntity
  8
1-0ﾚｲﾔ
  6
Continuous
 62
     4
370
     9
100
AcDbCircle
 10
-707.2060829884297
 20
-695.6157689481167
 30
0.0
 40
8.500001559386384
  0
CIRCLE
  5
14C
330
1F
100
AcDbEntity
  8
1-0ﾚｲﾔ
  6
Continuous
 62
     4
370
     9
100
AcDbCircle
 10
-383.2061522715799
 20
-695.6157689481167
 30
0.0
 40
8.500001559386384
  0
ARC
  5
14D
330
1F
100
AcDbEntity
  8
1-0ﾚｲﾔ
  6
Continuous
 62
     4
370
     9
100
AcDbCircle
 10
-733.2063172314616
 20
-801.6156485274031
 30
0.0
 40
4.000000293190415
100
AcDbArc
 50
180.0
 51
270.0
  0
ARC
  5
14E
330
1F
100
AcDbEntity
  8
1-0ﾚｲﾔ
  6
Continuous
 62
     4
370
     9
100
AcDbCircle
 10
-357.2061654683705
 20
-489.6156213090227
 30
0.0
 40
4.000000293190415
100
AcDbArc
 50
0.0
 51
90.0
  0
ARC
  5
14F
330
1F
100
AcDbEntity
  8
1-0ﾚｲﾔ
  6
Continuous
 62
     4
370
     9
100
AcDbCircle
 10
-733.2061935115502
 20
-489.6156213090227
 30
0.0
 40
4.000000293190415
100
AcDbArc
 50
90.0
 51
180.0
  0
ARC
  5
150
330
1F
100
AcDbEntity
  8
1-0ﾚｲﾔ
  6
Continuous
 62
     4
370
     9
100
AcDbCircle
 10
-357.2061654683705
 20
-801.6155248074917
 30
0.0
 40
4.000000293190415
100
AcDbArc
 50
270.0
 51
0.0
  0
ARC
  5
151
330
1F
100
AcDbEntity
  8
Hojo
  6
JWW_PHANTOM2
 62
     4
370
     9
100
AcDbCircle
 10
-545.2062413499161
 20
-712.6156270826185
 30
0.0
 40
23.0000012629741
100
AcDbArc
 50
254.9999237060547
 51
285.0000762939453
  0
ARC
  5
152
330
1F
100
AcDbEntity
  8
Hojo
  6
JWW_PHANTOM2
 62
     4
370
     9
100
AcDbCircle
 10
-465.2062248539278
 20
-691.1795440880029
 30
0.0
 40
23.0000012629741
100
AcDbArc
 50
285.0000762939453
 51
0.0000000000000127
  0
ARC
  5
153
330
1F
100
AcDbEntity
  8
Hojo
  6
JWW_PHANTOM2
 62
     4
370
     9
100
AcDbCircle
 10
-625.2058866861703
 20
-691.1796678079143
 30
0.0
 40
23.0000012629741
100
AcDbArc
 50
180.0
 51
254.9999237060547
  0
TEXT
  5
154
330
1F
100
AcDbEntity
  8
092
  6
Continuous
 62
     2
370
     9
100
AcDbText
 10
-131.5092470839214
 20
470.4855743531923
 30
0.0
 40
30.48
  1
ジョイント穴
 41
1.104166666666667
  7
ＭＳ ゴシック
100
AcDbText
  0
TEXT
  5
155
330
1F
100
AcDbEntity
  8
092
  6
Continuous
 62
     2
370
     9
100
AcDbText
 10
-823.5236225379715
 20
1184.651834118711
 30
0.0
 40
30.48
  1
192
 50
0.0002181117696755
 41
1.083333333333334
  7
ＭＳ ゴシック
100
AcDbText
  0
TEXT
  5
156
330
1F
100
AcDbEntity
  8
092
  6
Continuous
 62
     2
370
     9
100
AcDbText
 10
-162.0203340375743
 20
975.9910279268832
 30
0.0
 40
30.48
  1
Ｒ２程度
 41
1.09375
  7
ＭＳ ゴシック
100
AcDbText
  0
TEXT
  5
157
330
1F
100
AcDbEntity
  8
092
  6
Continuous
 62
     2
370
     9
100
AcDbText
 10
495.3789538306162
 20
1071.944232107626
 30
0.0
 40
30.48
  1
2
 41
0.9999999999999998
  7
ＭＳ ゴシック
100
AcDbText
  0
TEXT
  5
158
330
1F
100
AcDbEntity
  8
092
  6
Continuous
 62
     2
370
     9
100
AcDbText
 10
-1623.886352120536
 20
501.6737791122028
 30
0.0
 40
30.48
  1
ｈ
 50
90.00000250447816
 41
1.000000000000001
  7
ＭＳ ゴシック
100
AcDbText
  0
TEXT
  5
159
330
1F
100
AcDbEntity
  8
092
  6
Continuous
 62
     2
370
     9
100
AcDbText
 10
-1544.202316278053
 20
592.9238327241642
 30
0.0
 40
30.48
  1
Ｈ
 50
90.00000250447816
 41
1.000000000000001
  7
ＭＳ ゴシック
100
AcDbText
  0
TEXT
  5
15A
330
1F
100
AcDbEntity
  8
Hojo
  6
Continuous
 62
     7
370
     9
100
AcDbText
 10
-164.4361921258871
 20
-391.3268782703296
 30
0.0
 40
22.86
  1
ジョイント穴：８－Φ８．５
 41
1.153846153846154
  7
ＭＳ ゴシック
100
AcDbText
  0
TEXT
  5
15B
330
1F
100
AcDbEntity
  8
Hojo
  6
Continuous
 62
     2
370
     9
100
AcDbText
 10
-1269.557973758594
 20
-337.5435179715543
 30
0.0
 40
30.48
  1
Ｅ００～Ｅ０４
 41
1.107142857142857
  7
ＭＳ ゴシック
100
AcDbText
  0
TEXT
  5
15C
330
1F
100
AcDbEntity
  8
Hojo
  6
Continuous
 62
     2
370
     9
100
AcDbText
 10
-700.2059939100933
 20
-337.5435179715543
 30
0.0
 40
30.48
  1
Ｅ０５～Ｅ１１
 41
1.107142857142857
  7
ＭＳ ゴシック
100
AcDbText
  0
TEXT
  5
15D
330
1F
100
AcDbEntity
  8
Hojo
  6
Continuous
 62
     2
370
     9
100
AcDbText
 10
-94.43619212588729
 20
-337.5435179715543
 30
0.0
 40
30.48
  1
Ｅ１２～Ｅ１８
 41
1.107142857142857
  7
ＭＳ ゴシック
100
AcDbText
  0
TEXT
  5
15E
330
1F
100
AcDbEntity
  8
Hojo
  6
Continuous
 62
     7
370
     9
100
AcDbText
 10
-770.2059939100934
 20
-391.3268782703296
 30
0.0
 40
22.86
  1
ジョイント穴：６－Φ８．５
 41
1.153846153846154
  7
ＭＳ ゴシック
100
AcDbText
  0
TEXT
  5
15F
330
1F
100
AcDbEntity
  8
2-Fﾚｲﾔ
  6
Continuous
 62
     2
370
     9
100
AcDbText
 10
1092.399044294616
 20
1067.634325276968
 30
0.0
 40
30.48
  1
製品符号
 41
1.09375
  7
ＭＳ ゴシック
100
AcDbText
  0
TEXT
  5
160
330
1F
100
AcDbEntity
  8
2-Fﾚｲﾔ
  6
Continuous
 62
     2
370
     9
100
AcDbText
 10
1389.021391739716
 20
1067.634325276968
 30
0.0
 40
30.48
  1
Ｈ
 41
0.9999999999999998
  7
ＭＳ ゴシック
100
AcDbText
  0
TEXT
  5
161
330
1F
100
AcDbEntity
  8
2-Fﾚｲﾔ
  6
Continuous
 62
     2
370
     9
100
AcDbText
 10
1626.933296564463
 20
1067.634325276968
 30
0.0
 40
30.48
  1
ｈ
 41
0.9999999999999998
  7
ＭＳ ゴシック
100
AcDbText
  0
TEXT
  5
162
330
1F
100
AcDbEntity
  8
2-Fﾚｲﾔ
  6
Continuous
 62
     2
370
     9
100
AcDbText
 10
1092.398970062668
 20
1162.77048316337
 30
0.0
 40
30.48
  1
寸法表
 41
1.083333333333333
  7
ＭＳ ゴシック
100
AcDbText
  0
TEXT
  5
163
330
1F
100
AcDbEntity
  8
2-Fﾚｲﾔ
  6
Continuous
 62
     2
370
     9
100
AcDbText
 10
1593.772005390477
 20
1150.020403982627
 30
0.0
 40
30.48
  1
［ｍｍ］
 41
1.09375
  7
ＭＳ ゴシック
100
AcDbText
  0
TEXT
  5
164
330
1F
100
AcDbEntity
  8
2-Fﾚｲﾔ
  6
Continuous
 62
     2
370
     9
100
AcDbText
 10
1114.899157279557
 20
993.1888379194173
 30
0.0
 40
30.48
  1
Ｅ００
 50
0.0001090558848377
 41
1.083333333333333
  7
ＭＳ ゴシック
100
AcDbText
  0
TEXT
  5
165
330
1F
100
AcDbEntity
  8
2-Fﾚｲﾔ
  6
Continuous
 62
     2
370
     9
100
AcDbText
 10
1114.899157279557
 20
928.188623471571
 30
0.0
 40
30.48
  1
Ｅ０１
 50
0.0001090558848377
 41
1.083333333333333
  7
ＭＳ ゴシック
100
AcDbText
  0
TEXT
  5
166
330
1F
100
AcDbEntity
  8
2-Fﾚｲﾔ
  6
Continuous
 62
     2
370
     9
100
AcDbText
 10
1114.899178749732
 20
863.188903903501
 30
0.0
 40
30.48
  1
Ｅ０２
 50
359.9998909441152
 41
1.083333333333333
  7
ＭＳ ゴシック
100
AcDbText
  0
TEXT
  5
167
330
1F
100
AcDbEntity
  8
2-Fﾚｲﾔ
  6
Continuous
 62
     2
370
     9
100
AcDbText
 10
1114.899157279557
 20
798.1886894555236
 30
0.0
 40
30.48
  1
Ｅ０３
 50
0.0001090558848377
 41
1.083333333333333
  7
ＭＳ ゴシック
100
AcDbText
  0
TEXT
  5
168
330
1F
100
AcDbEntity
  8
2-Fﾚｲﾔ
  6
Continuous
 62
     2
370
     9
100
AcDbText
 10
1114.899178749732
 20
733.1887224476312
 30
0.0
 40
30.48
  1
Ｅ０４
 50
359.9998909441152
 41
1.083333333333333
  7
ＭＳ ゴシック
100
AcDbText
  0
TEXT
  5
169
330
1F
100
AcDbEntity
  8
2-Fﾚｲﾔ
  6
Continuous
 62
     2
370
     9
100
AcDbText
 10
1536.935028643222
 20
798.188936895422
 30
0.0
 40
30.48
  1
１２２．５
 41
1.1
  7
ＭＳ ゴシック
100
AcDbText
  0
TEXT
  5
16A
330
1F
100
AcDbEntity
  8
2-Fﾚｲﾔ
  6
Continuous
 62
     2
370
     9
100
AcDbText
 10
1536.935003899239
 20
733.189217327221
 30
0.0
 40
30.48
  1
１３５
 41
1.083333333333333
  7
ＭＳ ゴシック
100
AcDbText
  0
TEXT
  5
16B
330
1F
100
AcDbEntity
  8
2-Fﾚｲﾔ
  6
Continuous
 62
     2
370
     9
100
AcDbText
 10
1299.019387477153
 20
733.189217327221
 30
0.0
 40
30.48
  1
１００
 41
1.083333333333333
  7
ＭＳ ゴシック
100
AcDbText
  0
TEXT
  5
16C
330
1F
100
AcDbEntity
  8
2-Fﾚｲﾔ
  6
Continuous
 62
     2
370
     9
100
AcDbText
 10
1581.93544929092
 20
993.1890853593158
 30
0.0
 40
30.48
  1
８５
 41
1.0625
  7
ＭＳ ゴシック
100
AcDbText
  0
TEXT
  5
16D
330
1F
100
AcDbEntity
  8
2-Fﾚｲﾔ
  6
Continuous
 62
     2
370
     9
100
AcDbText
 10
1581.935474034902
 20
928.189118351292
 30
0.0
 40
30.48
  1
９７．５
 41
1.09375
  7
ＭＳ ゴシック
100
AcDbText
  0
TEXT
  5
16E
330
1F
100
AcDbEntity
  8
2-Fﾚｲﾔ
  6
Continuous
 62
     2
370
     9
100
AcDbText
 10
1536.935003899239
 20
863.1891513432683
 30
0.0
 40
30.48
  1
１１０
 41
1.083333333333333
  7
ＭＳ ゴシック
100
AcDbText
  0
TEXT
  5
16F
330
1F
100
AcDbEntity
  8
2-Fﾚｲﾔ
  6
Continuous
 62
     2
370
     9
100
AcDbText
 10
1344.019337989189
 20
993.1890853593158
 30
0.0
 40
30.48
  1
５０
 41
1.0625
  7
ＭＳ ゴシック
100
AcDbText
  0
TEXT
  5
170
330
1F
100
AcDbEntity
  8
2-Fﾚｲﾔ
  6
Continuous
 62
     2
370
     9
100
AcDbText
 10
1344.019362733171
 20
928.1888709114694
 30
0.0
 40
30.48
  1
６２．５
 41
1.09375
  7
ＭＳ ゴシック
100
AcDbText
  0
TEXT
  5
171
330
1F
100
AcDbEntity
  8
2-Fﾚｲﾔ
  6
Continuous
 62
     2
370
     9
100
AcDbText
 10
1344.019337989189
 20
863.1891513432683
 30
0.0
 40
30.48
  1
７５
 41
1.0625
  7
ＭＳ ゴシック
100
AcDbText
  0
TEXT
  5
172
330
1F
100
AcDbEntity
  8
2-Fﾚｲﾔ
  6
Continuous
 62
     2
370
     9
100
AcDbText
 10
1344.019362733171
 20
798.188936895422
 30
0.0
 40
30.48
  1
８７．５
 41
1.09375
  7
ＭＳ ゴシック
100
AcDbText
  0
TEXT
  5
173
330
1F
100
AcDbEntity
  8
2-Fﾚｲﾔ
  6
Continuous
 62
     2
370
     9
100
AcDbText
 10
1536.935003899239
 20
603.1892833111739
 30
0.0
 40
30.48
  1
１６０
 41
1.083333333333333
  7
ＭＳ ゴシック
100
AcDbText
  0
TEXT
  5
174
330
1F
100
AcDbEntity
  8
2-Fﾚｲﾔ
  6
Continuous
 62
     2
370
     9
100
AcDbText
 10
1536.935028643222
 20
538.1893163031501
 30
0.0
 40
30.48
  1
１７２．５
 41
1.1
  7
ＭＳ ゴシック
100
AcDbText
  0
TEXT
  5
175
330
1F
100
AcDbEntity
  8
2-Fﾚｲﾔ
  6
Continuous
 62
     2
370
     9
100
AcDbText
 10
1536.935003899239
 20
473.1891018553038
 30
0.0
 40
30.48
  1
１８５
 41
1.083333333333333
  7
ＭＳ ゴシック
100
AcDbText
  0
TEXT
  5
176
330
1F
100
AcDbEntity
  8
2-Fﾚｲﾔ
  6
Continuous
 62
     2
370
     9
100
AcDbText
 10
1536.935028643222
 20
408.1892585671915
 30
0.0
 40
30.48
  1
１９７．５
 41
1.1
  7
ＭＳ ゴシック
100
AcDbText
  0
TEXT
  5
177
330
1F
100
AcDbEntity
  8
2-Fﾚｲﾔ
  6
Continuous
 62
     2
370
     9
100
AcDbText
 10
1536.935003899239
 20
343.1891678392566
 30
0.0
 40
30.48
  1
２１０
 41
1.083333333333333
  7
ＭＳ ゴシック
100
AcDbText
  0
TEXT
  5
178
330
1F
100
AcDbEntity
  8
2-Fﾚｲﾔ
  6
Continuous
 62
     2
370
     9
100
AcDbText
 10
1536.935028643222
 20
278.1893245511441
 30
0.0
 40
30.48
  1
２２２．５
 41
1.1
  7
ＭＳ ゴシック
100
AcDbText
  0
TEXT
  5
179
330
1F
100
AcDbEntity
  8
2-Fﾚｲﾔ
  6
Continuous
 62
     2
370
     9
100
AcDbText
 10
1299.019907100781
 20
668.1892503191975
 30
0.0
 40
30.48
  1
１１２．５
 41
1.1
  7
ＭＳ ゴシック
100
AcDbText
  0
TEXT
  5
17A
330
1F
100
AcDbEntity
  8
2-Fﾚｲﾔ
  6
Continuous
 62
     2
370
     9
100
AcDbText
 10
1299.019882356799
 20
603.1892833111739
 30
0.0
 40
30.48
  1
１２５
 41
1.083333333333333
  7
ＭＳ ゴシック
100
AcDbText
  0
TEXT
  5
17B
330
1F
100
AcDbEntity
  8
2-Fﾚｲﾔ
  6
Continuous
 62
     2
370
     9
100
AcDbText
 10
1299.019910272527
 20
538.1893163031515
 30
0.0
 40
30.48
  1
１３７．５
 50
359.9999677789589
 41
1.1
  7
ＭＳ ゴシック
100
AcDbText
  0
TEXT
  5
17C
330
1F
100
AcDbEntity
  8
2-Fﾚｲﾔ
  6
Continuous
 62
     2
370
     9
100
AcDbText
 10
1299.019882356799
 20
473.1891018553038
 30
0.0
 40
30.48
  1
１５０
 41
1.083333333333333
  7
ＭＳ ゴシック
100
AcDbText
  0
TEXT
  5
17D
330
1F
100
AcDbEntity
  8
2-Fﾚｲﾔ
  6
Continuous
 62
     2
370
     9
100
AcDbText
 10
1299.019910272527
 20
408.189258567193
 30
0.0
 40
30.48
  1
１６２．５
 50
359.9999677789589
 41
1.1
  7
ＭＳ ゴシック
100
AcDbText
  0
TEXT
  5
17E
330
1F
100
AcDbEntity
  8
2-Fﾚｲﾔ
  6
Continuous
 62
     2
370
     9
100
AcDbText
 10
1299.019882356799
 20
343.1891678392566
 30
0.0
 40
30.48
  1
１７５
 41
1.083333333333333
  7
ＭＳ ゴシック
100
AcDbText
  0
TEXT
  5
17F
330
1F
100
AcDbEntity
  8
2-Fﾚｲﾔ
  6
Continuous
 62
     2
370
     9
100
AcDbText
 10
1299.019910272527
 20
278.1893245511457
 30
0.0
 40
30.48
  1
１８７．５
 50
359.9999677789589
 41
1.1
  7
ＭＳ ゴシック
100
AcDbText
  0
TEXT
  5
180
330
1F
100
AcDbEntity
  8
2-Fﾚｲﾔ
  6
Continuous
 62
     2
370
     9
100
AcDbText
 10
1536.935028643222
 20
668.1892503191975
 30
0.0
 40
30.48
  1
１４７．５
 41
1.1
  7
ＭＳ ゴシック
100
AcDbText
  0
TEXT
  5
181
330
1F
100
AcDbEntity
  8
2-Fﾚｲﾔ
  6
Continuous
 62
     2
370
     9
100
AcDbText
 10
1114.899168014527
 20
668.1892503191975
 30
0.0
 40
30.48
  1
Ｅ０５
 41
1.083333333333333
  7
ＭＳ ゴシック
100
AcDbText
  0
TEXT
  5
182
330
1F
100
AcDbEntity
  8
2-Fﾚｲﾔ
  6
Continuous
 62
     2
370
     9
100
AcDbText
 10
1114.899168014527
 20
603.1892833111739
 30
0.0
 40
30.48
  1
Ｅ０６
 41
1.083333333333333
  7
ＭＳ ゴシック
100
AcDbText
  0
TEXT
  5
183
330
1F
100
AcDbEntity
  8
2-Fﾚｲﾔ
  6
Continuous
 62
     2
370
     9
100
AcDbText
 10
1114.8991733821
 20
538.1893163031804
 30
0.0
 40
30.48
  1
Ｅ０７
 50
359.9999454720576
 41
1.083333333333335
  7
ＭＳ ゴシック
100
AcDbText
  0
TEXT
  5
184
330
1F
100
AcDbEntity
  8
2-Fﾚｲﾔ
  6
Continuous
 62
     2
370
     9
100
AcDbText
 10
1114.899162647013
 20
473.1891018552685
 30
0.0
 40
30.48
  1
Ｅ０８
 50
0.0000545279424189
 41
1.083333333333335
  7
ＭＳ ゴシック
100
AcDbText
  0
TEXT
  5
185
330
1F
100
AcDbEntity
  8
2-Fﾚｲﾔ
  6
Continuous
 62
     2
370
     9
100
AcDbText
 10
1114.8991733821
 20
408.1892585672217
 30
0.0
 40
30.48
  1
Ｅ０９
 50
359.9999454720576
 41
1.083333333333335
  7
ＭＳ ゴシック
100
AcDbText
  0
TEXT
  5
186
330
1F
100
AcDbEntity
  8
2-Fﾚｲﾔ
  6
Continuous
 62
     2
370
     9
100
AcDbText
 10
1114.899162647013
 20
343.1891678392213
 30
0.0
 40
30.48
  1
Ｅ１０
 50
0.0000545279424189
 41
1.083333333333335
  7
ＭＳ ゴシック
100
AcDbText
  0
TEXT
  5
187
330
1F
100
AcDbEntity
  8
2-Fﾚｲﾔ
  6
Continuous
 62
     2
370
     9
100
AcDbText
 10
1114.899168014527
 20
278.1893245511441
 30
0.0
 40
30.48
  1
Ｅ１１
 41
1.083333333333333
  7
ＭＳ ゴシック
100
AcDbText
  0
TEXT
  5
188
330
1F
100
AcDbEntity
  8
2-Fﾚｲﾔ
  6
Continuous
 62
     2
370
     9
100
AcDbText
 10
1536.935003899239
 20
213.1891101032978
 30
0.0
 40
30.48
  1
２３５
 41
1.083333333333333
  7
ＭＳ ゴシック
100
AcDbText
  0
TEXT
  5
189
330
1F
100
AcDbEntity
  8
2-Fﾚｲﾔ
  6
Continuous
 62
     2
370
     9
100
AcDbText
 10
1536.935028643222
 20
148.1888956554517
 30
0.0
 40
30.48
  1
２４７．５
 41
1.1
  7
ＭＳ ゴシック
100
AcDbText
  0
TEXT
  5
18A
330
1F
100
AcDbEntity
  8
2-Fﾚｲﾔ
  6
Continuous
 62
     2
370
     9
100
AcDbText
 10
1536.935003899239
 20
83.18905236733919
 30
0.0
 40
30.48
  1
２６０
 41
1.083333333333333
  7
ＭＳ ゴシック
100
AcDbText
  0
TEXT
  5
18B
330
1F
100
AcDbEntity
  8
2-Fﾚｲﾔ
  6
Continuous
 62
     2
370
     9
100
AcDbText
 10
1536.935028643222
 20
18.18883791949311
 30
0.0
 40
30.48
  1
２７２．５
 41
1.1
  7
ＭＳ ゴシック
100
AcDbText
  0
TEXT
  5
18C
330
1F
100
AcDbEntity
  8
2-Fﾚｲﾔ
  6
Continuous
 62
     2
370
     9
100
AcDbText
 10
1536.935003899239
 20
-46.81088164870793
 30
0.0
 40
30.48
  1
２８５
 41
1.083333333333333
  7
ＭＳ ゴシック
100
AcDbText
  0
TEXT
  5
18D
330
1F
100
AcDbEntity
  8
2-Fﾚｲﾔ
  6
Continuous
 62
     2
370
     9
100
AcDbText
 10
1299.019882356799
 20
213.1891101032978
 30
0.0
 40
30.48
  1
２００
 41
1.083333333333333
  7
ＭＳ ゴシック
100
AcDbText
  0
TEXT
  5
18E
330
1F
100
AcDbEntity
  8
2-Fﾚｲﾔ
  6
Continuous
 62
     2
370
     9
100
AcDbText
 10
1299.019907100781
 20
148.1888956554517
 30
0.0
 40
30.48
  1
２１２．５
 41
1.1
  7
ＭＳ ゴシック
100
AcDbText
  0
TEXT
  5
18F
330
1F
100
AcDbEntity
  8
2-Fﾚｲﾔ
  6
Continuous
 62
     2
370
     9
100
AcDbText
 10
1299.019882356799
 20
83.18905236733919
 30
0.0
 40
30.48
  1
２２５
 41
1.083333333333333
  7
ＭＳ ゴシック
100
AcDbText
  0
TEXT
  5
190
330
1F
100
AcDbEntity
  8
2-Fﾚｲﾔ
  6
Continuous
 62
     2
370
     9
100
AcDbText
 10
1299.019907100781
 20
18.18883791949311
 30
0.0
 40
30.48
  1
２３７．５
 41
1.1
  7
ＭＳ ゴシック
100
AcDbText
  0
TEXT
  5
191
330
1F
100
AcDbEntity
  8
2-Fﾚｲﾔ
  6
Continuous
 62
     2
370
     9
100
AcDbText
 10
1299.019882356799
 20
-46.81088164870793
 30
0.0
 40
30.48
  1
２５０
 41
1.083333333333333
  7
ＭＳ ゴシック
100
AcDbText
  0
TEXT
  5
192
330
1F
100
AcDbEntity
  8
2-Fﾚｲﾔ
  6
Continuous
 62
     2
370
     9
100
AcDbText
 10
1299.019907100781
 20
-111.8110960965543
 30
0.0
 40
30.48
  1
２６２．５
 41
1.1
  7
ＭＳ ゴシック
100
AcDbText
  0
TEXT
  5
193
330
1F
100
AcDbEntity
  8
2-Fﾚｲﾔ
  6
Continuous
 62
     2
370
     9
100
AcDbText
 10
1299.019882356799
 20
-176.8109393846665
 30
0.0
 40
30.48
  1
２７５
 41
1.083333333333333
  7
ＭＳ ゴシック
100
AcDbText
  0
TEXT
  5
194
330
1F
100
AcDbEntity
  8
2-Fﾚｲﾔ
  6
Continuous
 62
     2
370
     9
100
AcDbText
 10
1536.935003899239
 20
-176.8109393846665
 30
0.0
 40
30.48
  1
３１０
 41
1.083333333333333
  7
ＭＳ ゴシック
100
AcDbText
  0
TEXT
  5
195
330
1F
100
AcDbEntity
  8
2-Fﾚｲﾔ
  6
Continuous
 62
     2
370
     9
100
AcDbText
 10
1114.898673134882
 20
213.1891101032978
 30
0.0
 40
30.48
  1
Ｅ１２
 41
1.083333333333333
  7
ＭＳ ゴシック
100
AcDbText
  0
TEXT
  5
196
330
1F
100
AcDbEntity
  8
2-Fﾚｲﾔ
  6
Continuous
 62
     2
370
     9
100
AcDbText
 10
1114.898673134882
 20
148.1888956554517
 30
0.0
 40
30.48
  1
Ｅ１３
 41
1.083333333333333
  7
ＭＳ ゴシック
100
AcDbText
  0
TEXT
  5
197
330
1F
100
AcDbEntity
  8
2-Fﾚｲﾔ
  6
Continuous
 62
     2
370
     9
100
AcDbText
 10
1114.898673134882
 20
83.18905236733919
 30
0.0
 40
30.48
  1
Ｅ１４
 41
1.083333333333333
  7
ＭＳ ゴシック
100
AcDbText
  0
TEXT
  5
198
330
1F
100
AcDbEntity
  8
2-Fﾚｲﾔ
  6
Continuous
 62
     2
370
     9
100
AcDbText
 10
1114.898673134882
 20
18.18883791949311
 30
0.0
 40
30.48
  1
Ｅ１５
 41
1.083333333333333
  7
ＭＳ ゴシック
100
AcDbText
  0
TEXT
  5
199
330
1F
100
AcDbEntity
  8
2-Fﾚｲﾔ
  6
Continuous
 62
     2
370
     9
100
AcDbText
 10
1114.898673134882
 20
-46.81088164870793
 30
0.0
 40
30.48
  1
Ｅ１６
 41
1.083333333333333
  7
ＭＳ ゴシック
100
AcDbText
  0
TEXT
  5
19A
330
1F
100
AcDbEntity
  8
2-Fﾚｲﾔ
  6
Continuous
 62
     2
370
     9
100
AcDbText
 10
1114.898673134882
 20
-111.8110960965543
 30
0.0
 40
30.48
  1
Ｅ１７
 41
1.083333333333333
  7
ＭＳ ゴシック
100
AcDbText
  0
TEXT
  5
19B
330
1F
100
AcDbEntity
  8
2-Fﾚｲﾔ
  6
Continuous
 62
     2
370
     9
100
AcDbText
 10
1114.898673134882
 20
-176.8109393846665
 30
0.0
 40
30.48
  1
Ｅ１８
 41
1.083333333333333
  7
ＭＳ ゴシック
100
AcDbText
  0
TEXT
  5
19C
330
1F
100
AcDbEntity
  8
2-Fﾚｲﾔ
  6
Continuous
 62
     2
370
     9
100
AcDbText
 10
1536.935028643222
 20
-111.8110960965543
 30
0.0
 40
30.48
  1
２９７．５
 41
1.1
  7
ＭＳ ゴシック
100
AcDbText
  0
TEXT
  5
19D
330
1F
100
AcDbEntity
  8
3-F
  6
Continuous
 62
     2
370
     9
100
AcDbText
 10
564.9196230398644
 20
-586.0388570300953
 30
0.0
 40
30.48
  1
仕　様
 41
1.083333333333333
  7
ＭＳ ゴシック
100
AcDbText
  0
TEXT
  5
19E
330
1F
100
AcDbEntity
  8
3-F
  6
Continuous
 62
     2
370
     9
100
AcDbText
 10
559.3562602996828
 20
-713.9590593368943
 30
0.0
 40
30.48
  1
材質：ステンレス鋼板　ｔ＝２．０（ＳＵＳ３０４）
 41
1.119791666666667
  7
ＭＳ ゴシック
100
AcDbText
  0
TEXT
  5
19F
330
1F
100
AcDbEntity
  8
Hojo
  6
Continuous
 62
     7
370
     9
100
AcDbText
 10
-1339.557850038683
 20
-391.3268782703296
 30
0.0
 40
22.86
  1
ジョイント穴：４－Φ８．５
 41
1.153846153846154
  7
ＭＳ ゴシック
100
AcDbText
  0
TEXT
  5
1A0
330
1F
100
AcDbEntity
  8
3-F
  6
Continuous
 62
     2
370
     9
100
AcDbText
 10
517.4194168400123
 20
-648.9592779087376
 30
0.0
 40
30.48
  1
サニタリートラフ　ＳＴＶ－１００　エンドプレート
 41
1.119791666666667
  7
ＭＳ ゴシック
100
AcDbText
  0
TEXT
  5
1A1
330
1F
100
AcDbEntity
  8
F-Fﾚｲﾔ
  6
Continuous
 62
     7
370
     9
100
AcDbText
 10
-775.5002328511829
 20
-1323.769873290191
 30
0.0
 40
22.86
  1
サニタリートラフ　ＳＴＶ－１００　エンドプレート　Ｅ００～Ｅ１８
 41
1.161458333333333
  7
ＭＳ ゴシック
100
AcDbText
  0
TEXT
  5
1A2
330
1F
100
AcDbEntity
  8
092
  6
Continuous
 62
     2
370
     9
100
AcDbText
 10
-162.0202806184105
 20
1044.362362518292
 30
0.0
 40
30.48
  1
Ｇ仕上げ（四隅）
 50
359.9999600640687
 41
1.109375
  7
ＭＳ ゴシック
100
AcDbText
  0
TEXT
  5
1A3
330
1F
100
AcDbEntity
  8
092
  6
Continuous
 62
     2
370
     9
100
AcDbText
 10
-131.5093336878594
 20
402.9286879379686
 30
0.0
 40
30.48
  1
Φ８．５
 41
1.09375
  7
ＭＳ ゴシック
100
AcDbText
  0
TEXT
  5
1A4
330
1F
100
AcDbEntity
  8
Hojo
  6
Continuous
 62
     2
370
     9
100
AcDbText
 10
-1461.955414076109
 20
-240.9023073639741
 30
0.0
 40
30.48
  1
ジョイント穴詳細
 41
1.109375
  7
ＭＳ ゴシック
100
AcDbText
  0
LWPOLYLINE
  5
1A5
330
1F
100
AcDbEntity
  8
092
  6
Continuous
 62
     7
370
     9
100
AcDbPolyline
 90
        4
 70
     1
 43
1.0
 10
-1270.523205164316
 20
1170.011952889932
 42
0.4142135623731
 10
-1271.023205164316
 20
1170.511952889932
 42
0.4142135623731
 10
-1271.523205164316
 20
1170.011952889932
 42
0.4142135623731
 10
-1271.023205164316
 20
1169.511952889932
 42
0.4142135623731
  0
LWPOLYLINE
  5
1A6
330
1F
100
AcDbEntity
  8
092
  6
Continuous
 62
     7
370
     9
100
AcDbPolyline
 90
        4
 70
     1
 43
1.0
 10
-310.5232546522809
 20
1170.011952889932
 42
0.4142135623731
 10
-311.0232546522809
 20
1170.511952889932
 42
0.4142135623731
 10
-311.5232546522809
 20
1170.011952889932
 42
0.4142135623731
 10
-311.0232546522809
 20
1169.511952889932
 42
0.4142135623731
  0
LWPOLYLINE
  5
1A7
330
1F
100
AcDbEntity
  8
092
  6
Continuous
 62
     7
370
     9
100
AcDbPolyline
 90
        4
 70
     1
 43
1.0
 10
-1533.91188528731
 20
921.6734288189864
 42
0.4142135623731
 10
-1534.41188528731
 20
922.1734288189863
 42
0.4142135623731
 10
-1534.91188528731
 20
921.6734288189864
 42
0.4142135623731
 10
-1534.41188528731
 20
921.1734288189864
 42
0.4142135623731
  0
LWPOLYLINE
  5
1A8
330
1F
100
AcDbEntity
  8
092
  6
Continuous
 62
     7
370
     9
100
AcDbPolyline
 90
        4
 70
     1
 43
1.0
 10
-1533.91188528731
 20
921.6734288189864
 42
0.4142135623731
 10
-1534.41188528731
 20
922.1734288189863
 42
0.4142135623731
 10
-1534.91188528731
 20
921.6734288189864
 42
0.4142135623731
 10
-1534.41188528731
 20
921.1734288189864
 42
0.4142135623731
  0
LWPOLYLINE
  5
1A9
330
1F
100
AcDbEntity
  8
092
  6
Continuous
 62
     7
370
     9
100
AcDbPolyline
 90
        4
 70
     1
 43
1.0
 10
-1533.91188528731
 20
296.6737174987793
 42
0.4142135623731
 10
-1534.41188528731
 20
297.1737174987793
 42
0.4142135623731
 10
-1534.91188528731
 20
296.6737174987793
 42
0.4142135623731
 10
-1534.41188528731
 20
296.1737174987793
 42
0.4142135623731
  0
LWPOLYLINE
  5
1AA
330
1F
100
AcDbEntity
  8
092
  6
Continuous
 62
     7
370
     9
100
AcDbPolyline
 90
        4
 70
     1
 43
1.0
 10
-1612.746583938598
 20
921.6734288189864
 42
0.4142135623731
 10
-1613.246583938598
 20
922.1734288189863
 42
0.4142135623731
 10
-1613.746583938598
 20
921.6734288189864
 42
0.4142135623731
 10
-1613.246583938598
 20
921.1734288189864
 42
0.4142135623731
  0
LWPOLYLINE
  5
1AB
330
1F
100
AcDbEntity
  8
092
  6
Continuous
 62
     7
370
     9
100
AcDbPolyline
 90
        4
 70
     1
 43
1.0
 10
-1612.746583938598
 20
121.6738824586611
 42
0.4142135623731
 10
-1613.246583938598
 20
122.1738824586611
 42
0.4142135623731
 10
-1613.746583938598
 20
121.6738824586611
 42
0.4142135623731
 10
-1613.246583938598
 20
121.1738824586611
 42
0.4142135623731
  0
LWPOLYLINE
  5
1AC
330
1F
100
AcDbEntity
  8
092
  6
Continuous
 62
     7
370
     9
100
AcDbPolyline
 90
        4
 70
     1
 43
1.0
 10
500.8789373346279
 20
1061.304215611638
 42
0.4142135623731
 10
500.3789373346279
 20
1061.804215611638
 42
0.4142135623731
 10
499.8789373346279
 20
1061.304215611638
 42
0.4142135623731
 10
500.3789373346279
 20
1060.804215611638
 42
0.4142135623731
  0
LWPOLYLINE
  5
1AD
330
1F
100
AcDbEntity
  8
092
  6
Continuous
 62
     7
370
     9
100
AcDbPolyline
 90
        4
 70
     1
 43
1.0
 10
510.8787228867816
 20
1061.304215611638
 42
0.4142135623731
 10
510.3787228867816
 20
1061.804215611638
 42
0.4142135623731
 10
509.8787228867816
 20
1061.304215611638
 42
0.4142135623731
 10
510.3787228867816
 20
1060.804215611638
 42
0.4142135623731
  0
ENDSEC
  0
SECTION
  2
OBJECTS
  0
DICTIONARY
  5
C
330
0
100
AcDbDictionary
281
     1
  3
ACAD_GROUP
350
D
  3
ACAD_LAYOUT
350
1A
  3
ACAD_MLEADERSTYLE
350
1AF
  3
ACAD_MLINESTYLE
350
17
  3
ACAD_PLOTSETTINGS
350
19
  3
ACAD_PLOTSTYLENAME
350
E
  3
ACAD_TABLESTYLE
350
1AE
  3
ACAD_VISUALSTYLE
350
2A
  3
AcDbVariableDictionary
350
1B0
  0
DICTIONARY
  5
D
102
{ACAD_REACTORS
330
C
102
}
330
C
100
AcDbDictionary
281
     1
  0
DICTIONARY
  5
1A
102
{ACAD_REACTORS
330
C
102
}
330
C
100
AcDbDictionary
281
     1
  3
Layout1
350
1E
  3
Layout2
350
26
  3
Model
350
22
  0
DICTIONARY
  5
1AF
102
{ACAD_REACTORS
330
C
102
}
330
C
100
AcDbDictionary
281
     1
  0
DICTIONARY
  5
17
102
{ACAD_REACTORS
330
C
102
}
330
C
100
AcDbDictionary
281
     1
  3
Standard
350
18
  0
DICTIONARY
  5
19
102
{ACAD_REACTORS
330
C
102
}
330
C
100
AcDbDictionary
281
     1
  0
ACDBDICTIONARYWDFLT
  5
E
102
{ACAD_REACTORS
330
C
102
}
330
C
100
AcDbDictionary
281
     1
  3
Normal
350
F
100
AcDbDictionaryWithDefault
340
F
  0
DICTIONARY
  5
1AE
102
{ACAD_REACTORS
330
C
102
}
330
C
100
AcDbDictionary
281
     1
  0
DICTIONARY
  5
2A
102
{ACAD_REACTORS
330
C
102
}
330
C
100
AcDbDictionary
281
     1
  3
2dWireframe
350
2F
  3
3D Hidden
350
31
  3
3dWireframe
350
30
  3
Basic
350
32
  3
Brighten
350
36
  3
ColorChange
350
3A
  3
Conceptual
350
34
  3
Dim
350
35
  3
Facepattern
350
39
  3
Flat
350
2B
  3
FlatWithEdges
350
2C
  3
Gouraud
350
2D
  3
GouraudWithEdges
350
2E
  3
Linepattern
350
38
  3
Realistic
350
33
  3
Thicken
350
37
  0
DICTIONARY
  5
1B0
102
{ACAD_REACTORS
330
C
102
}
330
C
100
AcDbDictionary
281
     1
  3
PSOLHEIGHT
350
1B2
  3
PSOLWIDTH
350
1B1
  0
LAYOUT
  5
1E
102
{ACAD_REACTORS
330
1A
102
}
102
{ACAD_XDICTIONARY
360
1B3
102
}
330
1A
100
AcDbPlotSettings
  1

  2
none_device
  4

  6

 40
0.0
 41
0.0
 42
0.0
 43
0.0
 44
0.0
 45
0.0
 46
0.0
 47
0.0
 48
0.0
 49
0.0
140
0.0
141
0.0
142
1.0
143
1.0
 70
   688
 72
     0
 73
     0
 74
     5
  7

 75
    16
147
1.0
148
0.0
149
0.0
100
AcDbLayout
  1
Layout1
 70
     1
 71
     1
 10
0.0
 20
0.0
 11
420.0
 21
297.0
 12
0.0
 22
0.0
 32
0.0
 14
1.000000000000000E+20
 24
1.000000000000000E+20
 34
1.000000000000000E+20
 15
-1.000000000000000E+20
 25
-1.000000000000000E+20
 35
-1.000000000000000E+20
146
0.0
 13
0.0
 23
0.0
 33
0.0
 16
1.0
 26
0.0
 36
0.0
 17
0.0
 27
1.0
 37
0.0
 76
     0
330
1B
  0
LAYOUT
  5
26
102
{ACAD_REACTORS
330
1A
102
}
102
{ACAD_XDICTIONARY
360
1B7
102
}
330
1A
100
AcDbPlotSettings
  1

  2
none_device
  4

  6

 40
0.0
 41
0.0
 42
0.0
 43
0.0
 44
0.0
 45
0.0
 46
0.0
 47
0.0
 48
0.0
 49
0.0
140
0.0
141
0.0
142
1.0
143
1.0
 70
   688
 72
     0
 73
     0
 74
     5
  7

 75
    16
147
1.0
148
0.0
149
0.0
100
AcDbLayout
  1
Layout2
 70
     1
 71
     2
 10
0.0
 20
0.0
 11
0.0
 21
0.0
 12
0.0
 22
0.0
 32
0.0
 14
0.0
 24
0.0
 34
0.0
 15
0.0
 25
0.0
 35
0.0
146
0.0
 13
0.0
 23
0.0
 33
0.0
 16
1.0
 26
0.0
 36
0.0
 17
0.0
 27
1.0
 37
0.0
 76
     0
330
23
  0
LAYOUT
  5
22
102
{ACAD_REACTORS
330
1A
102
}
102
{ACAD_XDICTIONARY
360
1B5
102
}
330
1A
100
AcDbPlotSettings
  1

  2
none_device
  4

  6

 40
0.0
 41
0.0
 42
0.0
 43
0.0
 44
0.0
 45
0.0
 46
0.0
 47
0.0
 48
0.0
 49
0.0
140
0.0
141
0.0
142
1.0
143
1.0
 70
  1712
 72
     0
 73
     0
 74
     0
  7

 75
     0
147
1.0
148
0.0
149
0.0
100
AcDbLayout
  1
Model
 70
     1
 71
     0
 10
-2100.0
 20
-1485.0
 11
2100.0
 21
1485.0
 12
0.0
 22
0.0
 32
0.0
 14
-2100.0
 24
-1485.0
 34
0.0
 15
2100.0
 25
1485.0
 35
0.0
146
0.0
 13
0.0
 23
0.0
 33
0.0
 16
1.0
 26
0.0
 36
0.0
 17
0.0
 27
1.0
 37
0.0
 76
     0
330
1F
331
29
  0
MLINESTYLE
  5
18
102
{ACAD_REACTORS
330
17
102
}
330
17
100
AcDbMlineStyle
  2
Standard
 70
     0
  3

 62
   256
 51
90.0
 52
90.0
 71
     2
 49
0.5
 62
   256
  6
BYLAYER
 49
-0.5
 62
   256
  6
BYLAYER
  0
ACDBPLACEHOLDER
  5
F
102
{ACAD_REACTORS
330
E
102
}
330
E
  0
VISUALSTYLE
  5
2F
102
{ACAD_REACTORS
330
2A
102
}
330
2A
100
AcDbVisualStyle
  2
2dWireframe
 70
     4
 71
     0
 72
     2
 73
     0
 90
        0
 40
-0.6
 41
-30.0
 62
     5
 63
     7
 74
     1
 91
        4
 64
     7
 65
   257
 75
     1
175
     1
 42
1.0
 92
        0
 66
   257
 43
1.0
 76
     1
 77
     6
 78
     2
 67
     7
 79
     5
170
     0
171
     0
290
     0
174
     0
 93
        1
 44
0.0
173
     0
291
     0
 45
0.0
1001
ACAD
1000
AcDbSavedByObjectVersion
1070
     0
  0
VISUALSTYLE
  5
31
102
{ACAD_REACTORS
330
2A
102
}
330
2A
100
AcDbVisualStyle
  2
3D Hidden
 70
     6
 71
     1
 72
     2
 73
     2
 90
        0
 40
-0.6
 41
-30.0
 62
     5
 63
     7
 74
     2
 91
        2
 64
     7
 65
   257
 75
     2
175
     1
 42
40.0
 92
        0
 66
   257
 43
1.0
 76
     1
 77
     6
 78
     2
 67
     7
 79
     3
170
     0
171
     0
290
     0
174
     0
 93
        1
 44
0.0
173
     0
291
     0
 45
0.0
1001
ACAD
1000
AcDbSavedByObjectVersion
1070
     0
  0
VISUALSTYLE
  5
30
102
{ACAD_REACTORS
330
2A
102
}
330
2A
100
AcDbVisualStyle
  2
3dWireframe
 70
     5
 71
     0
 72
     2
 73
     0
 90
        0
 40
-0.6
 41
-30.0
 62
     5
 63
     7
 74
     1
 91
        4
 64
     7
 65
   257
 75
     1
175
     1
 42
1.0
 92
        0
 66
   257
 43
1.0
 76
     1
 77
     6
 78
     2
 67
     7
 79
     5
170
     0
171
     0
290
     0
174
     0
 93
        1
 44
0.0
173
     0
291
     0
 45
0.0
1001
ACAD
1000
AcDbSavedByObjectVersion
1070
     0
  0
VISUALSTYLE
  5
32
102
{ACAD_REACTORS
330
2A
102
}
330
2A
100
AcDbVisualStyle
  2
Basic
 70
     7
 71
     1
 72
     0
 73
     1
 90
        0
 40
-0.6
 41
-30.0
 62
     5
 63
     7
 74
     0
 91
        4
 64
     7
 65
   257
 75
     1
175
     1
 42
1.0
 92
        8
 66
     7
 43
1.0
 76
     1
 77
     6
 78
     2
 67
     7
 79
     5
170
     0
171
     0
290
     0
174
     0
 93
        1
 44
0.0
173
     0
291
     1
 45
0.0
1001
ACAD
1000
AcDbSavedByObjectVersion
1070
     0
  0
VISUALSTYLE
  5
36
102
{ACAD_REACTORS
330
2A
102
}
330
2A
100
AcDbVisualStyle
  2
Brighten
 70
    12
 71
     2
 72
     2
 73
     0
 90
        0
 40
-0.6
 41
-30.0
 62
     5
 63
     7
 74
     1
 91
        4
 64
     7
 65
   257
 75
     1
175
     1
 42
1.0
 92
        8
 66
     7
 43
1.0
 76
     1
 77
     6
 78
     2
 67
     7
 79
     5
170
     0
171
     0
290
     0
174
     0
 93
        1
 44
50.0
173
     0
291
     1
 45
0.0
1001
ACAD
1000
AcDbSavedByObjectVersion
1070
     0
  0
VISUALSTYLE
  5
3A
102
{ACAD_REACTORS
330
2A
102
}
330
2A
100
AcDbVisualStyle
  2
ColorChange
 70
    16
 71
     2
 72
     2
 73
     3
 90
        0
 40
-0.6
 41
-30.0
 62
     5
 63
     8
 74
     1
 91
        4
 64
     7
 65
   257
 75
     1
175
     1
 42
1.0
 92
        8
 66
     8
 43
1.0
 76
     1
 77
     6
 78
     2
 67
     7
 79
     5
170
     0
171
     0
290
     0
174
     0
 93
        1
 44
0.0
173
     0
291
     1
 45
0.0
1001
ACAD
1000
AcDbSavedByObjectVersion
1070
     0
  0
VISUALSTYLE
  5
34
102
{ACAD_REACTORS
330
2A
102
}
330
2A
100
AcDbVisualStyle
  2
Conceptual
 70
     9
 71
     3
 72
     2
 73
     0
 90
        0
 40
-0.6
 41
-30.0
 62
     5
 63
     7
 74
     2
 91
        2
 64
     7
 65
   257
 75
     1
175
     1
 42
40.0
 92
        8
 66
     7
 43
1.0
 76
     1
 77
     6
 78
     2
 67
     7
 79
     3
170
     0
171
     0
290
     0
174
     0
 93
        1
 44
0.0
173
     0
291
     0
 45
0.0
1001
ACAD
1000
AcDbSavedByObjectVersion
1070
     0
  0
VISUALSTYLE
  5
35
102
{ACAD_REACTORS
330
2A
102
}
330
2A
100
AcDbVisualStyle
  2
Dim
 70
    11
 71
     2
 72
     2
 73
     0
 90
        0
 40
-0.6
 41
-30.0
 62
     5
 63
     7
 74
     1
 91
        4
 64
     7
 65
   257
 75
     1
175
     1
 42
1.0
 92
        8
 66
     7
 43
1.0
 76
     1
 77
     6
 78
     2
 67
     7
 79
     5
170
     0
171
     0
290
     0
174
     0
 93
        1
 44
-50.0
173
     0
291
     1
 45
0.0
1001
ACAD
1000
AcDbSavedByObjectVersion
1070
     0
  0
VISUALSTYLE
  5
39
102
{ACAD_REACTORS
330
2A
102
}
330
2A
100
AcDbVisualStyle
  2
Facepattern
 70
    15
 71
     2
 72
     2
 73
     0
 90
        0
 40
-0.6
 41
-30.0
 62
     5
 63
     7
 74
     1
 91
        4
 64
     7
 65
   257
 75
     1
175
     1
 42
1.0
 92
        8
 66
     7
 43
1.0
 76
     1
 77
     6
 78
     2
 67
     7
 79
     5
170
     0
171
     0
290
     0
174
     0
 93
        1
 44
0.0
173
     0
291
     1
 45
0.0
1001
ACAD
1000
AcDbSavedByObjectVersion
1070
     0
  0
VISUALSTYLE
  5
2B
102
{ACAD_REACTORS
330
2A
102
}
330
2A
100
AcDbVisualStyle
  2
Flat
 70
     0
 71
     2
 72
     1
 73
     1
 90
        2
 40
-0.6
 41
30.0
 62
     5
 63
     7
 74
     0
 91
        4
 64
     7
 65
   257
 75
     1
175
     1
 42
1.0
 92
        8
 66
     7
 43
1.0
 76
     1
 77
     6
 78
     2
 67
     7
 79
     5
170
     0
171
     0
290
     0
174
     0
 93
       13
 44
0.0
173
     0
291
     1
 45
0.0
1001
ACAD
1000
AcDbSavedByObjectVersion
1070
     0
  0
VISUALSTYLE
  5
2C
102
{ACAD_REACTORS
330
2A
102
}
330
2A
100
AcDbVisualStyle
  2
FlatWithEdges
 70
     1
 71
     2
 72
     1
 73
     1
 90
        2
 40
-0.6
 41
30.0
 62
     5
 63
     7
 74
     1
 91
        4
 64
     7
 65
   257
 75
     1
175
     1
 42
1.0
 92
        0
 66
   257
 43
1.0
 76
     1
 77
     6
 78
     2
 67
     7
 79
     5
170
     0
171
     0
290
     0
174
     0
 93
       13
 44
0.0
173
     0
291
     1
 45
0.0
1001
ACAD
1000
AcDbSavedByObjectVersion
1070
     0
  0
VISUALSTYLE
  5
2D
102
{ACAD_REACTORS
330
2A
102
}
330
2A
100
AcDbVisualStyle
  2
Gouraud
 70
     2
 71
     2
 72
     2
 73
     1
 90
        2
 40
-0.6
 41
30.0
 62
     5
 63
     7
 74
     0
 91
        4
 64
     7
 65
   257
 75
     1
175
     1
 42
1.0
 92
        0
 66
     7
 43
1.0
 76
     1
 77
     6
 78
     2
 67
     7
 79
     5
170
     0
171
     0
290
     0
174
     0
 93
       13
 44
0.0
173
     0
291
     1
 45
0.0
1001
ACAD
1000
AcDbSavedByObjectVersion
1070
     0
  0
VISUALSTYLE
  5
2E
102
{ACAD_REACTORS
330
2A
102
}
330
2A
100
AcDbVisualStyle
  2
GouraudWithEdges
 70
     3
 71
     2
 72
     2
 73
     1
 90
        2
 40
-0.6
 41
30.0
 62
     5
 63
     7
 74
     1
 91
        4
 64
     7
 65
   257
 75
     1
175
     1
 42
1.0
 92
        0
 66
   257
 43
1.0
 76
     1
 77
     6
 78
     2
 67
     7
 79
     5
170
     0
171
     0
290
     0
174
     0
 93
       13
 44
0.0
173
     0
291
     1
 45
0.0
1001
ACAD
1000
AcDbSavedByObjectVersion
1070
     0
  0
VISUALSTYLE
  5
38
102
{ACAD_REACTORS
330
2A
102
}
330
2A
100
AcDbVisualStyle
  2
Linepattern
 70
    14
 71
     2
 72
     2
 73
     0
 90
        0
 40
-0.6
 41
-30.0
 62
     5
 63
     7
 74
     1
 91
        4
 64
     7
 65
   257
 75
     7
175
     7
 42
1.0
 92
        8
 66
     7
 43
1.0
 76
     1
 77
     6
 78
     2
 67
     7
 79
     5
170
     0
171
     0
290
     0
174
     0
 93
        1
 44
0.0
173
     0
291
     1
 45
0.0
1001
ACAD
1000
AcDbSavedByObjectVersion
1070
     0
  0
VISUALSTYLE
  5
33
102
{ACAD_REACTORS
330
2A
102
}
330
2A
100
AcDbVisualStyle
  2
Realistic
 70
     8
 71
     2
 72
     2
 73
     0
 90
        0
 40
-0.6
 41
-30.0
 62
     5
 63
     7
 74
     1
 91
        0
 64
     7
 65
   257
 75
     1
175
     1
 42
1.0
 92
        8
 66
     8
 43
1.0
 76
     1
 77
     6
 78
     2
 67
     7
 79
     5
170
     0
171
     0
290
     0
174
     0
 93
       13
 44
0.0
173
     0
291
     0
 45
0.0
1001
ACAD
1000
AcDbSavedByObjectVersion
1070
     0
  0
VISUALSTYLE
  5
37
102
{ACAD_REACTORS
330
2A
102
}
330
2A
100
AcDbVisualStyle
  2
Thicken
 70
    13
 71
     2
 72
     2
 73
     0
 90
        0
 40
-0.6
 41
-30.0
 62
     5
 63
     7
 74
     1
 91
        4
 64
     7
 65
   257
 75
     1
175
     1
 42
1.0
 92
       12
 66
     7
 43
1.0
 76
     1
 77
     6
 78
     2
 67
     7
 79
     5
170
     0
171
     0
290
     0
174
     0
 93
        1
 44
0.0
173
     0
291
     1
 45
0.0
1001
ACAD
1000
AcDbSavedByObjectVersion
1070
     0
  0
DICTIONARYVAR
  5
1B2
102
{ACAD_REACTORS
330
1B0
102
}
330
1B0
100
DictionaryVariables
280
     0
  1
80.000000
  0
DICTIONARYVAR
  5
1B1
102
{ACAD_REACTORS
330
1B0
102
}
330
1B0
100
DictionaryVariables
280
     0
  1
5.000000
  0
DICTIONARY
  5
1B3
330
1E
100
AcDbDictionary
280
     1
281
     1
  3
ACAD_XREC_ROUNDTRIP
360
1B4
  0
DICTIONARY
  5
1B7
330
26
100
AcDbDictionary
280
     1
281
     1
  3
ACAD_XREC_ROUNDTRIP
360
1B8
  0
DICTIONARY
  5
1B5
330
22
100
AcDbDictionary
280
     1
281
     1
  3
ACAD_XREC_ROUNDTRIP
360
1B6
  0
XRECORD
  5
1B4
102
{ACAD_REACTORS
330
1B3
102
}
330
1B3
100
AcDbXrecord
280
     1
102
SHADEPLOT
 70
     0
102
SHADEPLOTRESLEVEL
 70
     5
102
SHADEPLOTCUSTOMDPI
 70
   300
  0
XRECORD
  5
1B8
102
{ACAD_REACTORS
330
1B7
102
}
330
1B7
100
AcDbXrecord
280
     1
102
SHADEPLOT
 70
     0
102
SHADEPLOTRESLEVEL
 70
     5
102
SHADEPLOTCUSTOMDPI
 70
   300
  0
XRECORD
  5
1B6
102
{ACAD_REACTORS
330
1B5
102
}
330
1B5
100
AcDbXrecord
280
     1
102
SHADEPLOT
 70
     0
102
SHADEPLOTRESLEVEL
 70
     5
102
SHADEPLOTCUSTOMDPI
 70
   300
  0
ENDSEC
  0
EOF
