  0
SECTION
  2
HEADER
  9
$ACADVER
  1
AC1015
  9
$ACADMAINTVER
 70
     6
  9
$DWGCODEPAGE
  3
ANSI_932
  9
$INSBASE
 10
0.0
 20
0.0
 30
0.0
  9
$EXTMIN
 10
-2970.0
 20
-2100.0
 30
0.0
  9
$EXTMAX
 10
2970.0
 20
2100.0
 30
0.0
  9
$LIMMIN
 10
-2970.0
 20
-2100.0
  9
$LIMMAX
 10
2970.0
 20
2100.0
  9
$ORTHOMODE
 70
     0
  9
$REGENMODE
 70
     1
  9
$FILLMODE
 70
     1
  9
$QTEXTMODE
 70
     0
  9
$MIRRTEXT
 70
     1
  9
$LTSCALE
 40
10.0
  9
$ATTMODE
 70
     1
  9
$TEXTSIZE
 40
2.5
  9
$TRACEWID
 40
1.0
  9
$TEXTSTYLE
  7
Standard
  9
$CLAYER
  8
0
  9
$CELTYPE
  6
ByLayer
  9
$CECOLOR
 62
   256
  9
$CELTSCALE
 40
1.0
  9
$DISPSILH
 70
     0
  9
$DIMSCALE
 40
1.0
  9
$DIMASZ
 40
2.5
  9
$DIMEXO
 40
0.625
  9
$DIMDLI
 40
3.75
  9
$DIMRND
 40
0.0
  9
$DIMDLE
 40
0.0
  9
$DIMEXE
 40
1.25
  9
$DIMTP
 40
0.0
  9
$DIMTM
 40
0.0
  9
$DIMTXT
 40
2.5
  9
$DIMCEN
 40
2.5
  9
$DIMTSZ
 40
0.0
  9
$DIMTOL
 70
     0
  9
$DIMLIM
 70
     0
  9
$DIMTIH
 70
     0
  9
$DIMTOH
 70
     0
  9
$DIMSE1
 70
     0
  9
$DIMSE2
 70
     0
  9
$DIMTAD
 70
     1
  9
$DIMZIN
 70
     8
  9
$DIMBLK
  1

  9
$DIMASO
 70
     1
  9
$DIMSHO
 70
     1
  9
$DIMPOST
  1

  9
$DIMAPOST
  1

  9
$DIMALT
 70
     0
  9
$DIMALTD
 70
     3
  9
$DIMALTF
 40
0.03937007874016
  9
$DIMLFAC
 40
1.0
  9
$DIMTOFL
 70
     1
  9
$DIMTVP
 40
0.0
  9
$DIMTIX
 70
     0
  9
$DIMSOXD
 70
     0
  9
$DIMSAH
 70
     0
  9
$DIMBLK1
  1

  9
$DIMBLK2
  1

  9
$DIMSTYLE
  2
ISO-25
  9
$DIMCLRD
 70
     0
  9
$DIMCLRE
 70
     0
  9
$DIMCLRT
 70
     0
  9
$DIMTFAC
 40
1.0
  9
$DIMGAP
 40
0.625
  9
$DIMJUST
 70
     0
  9
$DIMSD1
 70
     0
  9
$DIMSD2
 70
     0
  9
$DIMTOLJ
 70
     0
  9
$DIMTZIN
 70
     8
  9
$DIMALTZ
 70
     0
  9
$DIMALTTZ
 70
     0
  9
$DIMUPT
 70
     0
  9
$DIMDEC
 70
     2
  9
$DIMTDEC
 70
     2
  9
$DIMALTU
 70
     2
  9
$DIMALTTD
 70
     3
  9
$DIMTXSTY
  7
Standard
  9
$DIMAUNIT
 70
     0
  9
$DIMADEC
 70
     0
  9
$DIMALTRND
 40
0.0
  9
$DIMAZIN
 70
     0
  9
$DIMDSEP
 70
    44
  9
$DIMATFIT
 70
     3
  9
$DIMFRAC
 70
     0
  9
$DIMLDRBLK
  1

  9
$DIMLUNIT
 70
     2
  9
$DIMLWD
 70
    -2
  9
$DIMLWE
 70
    -2
  9
$DIMTMOVE
 70
     0
  9
$LUNITS
 70
     2
  9
$LUPREC
 70
     4
  9
$SKETCHINC
 40
1.0
  9
$FILLETRAD
 40
10.0
  9
$AUNITS
 70
     0
  9
$AUPREC
 70
     0
  9
$MENU
  1
.
  9
$ELEVATION
 40
0.0
  9
$PELEVATION
 40
0.0
  9
$THICKNESS
 40
0.0
  9
$LIMCHECK
 70
     0
  9
$CHAMFERA
 40
10.0
  9
$CHAMFERB
 40
10.0
  9
$CHAMFERC
 40
20.0
  9
$CHAMFERD
 40
0.0
  9
$SKPOLY
 70
     0
  9
$TDCREATE
 40
2456905.400890394
  9
$TDUCREATE
 40
2456905.025890394
  9
$TDUPDATE
 40
2456905.400890405
  9
$TDUUPDATE
 40
2456905.025890405
  9
$TDINDWG
 40
0.0000000116
  9
$TDUSRTIMER
 40
0.0000000116
  9
$USRTIMER
 70
     1
  9
$ANGBASE
 50
0.0
  9
$ANGDIR
 70
     0
  9
$PDMODE
 70
     0
  9
$PDSIZE
 40
0.0
  9
$PLINEWID
 40
0.0
  9
$SPLFRAME
 70
     0
  9
$SPLINETYPE
 70
     6
  9
$SPLINESEGS
 70
     8
  9
$HANDSEED
  5
27A
  9
$SURFTAB1
 70
     6
  9
$SURFTAB2
 70
     6
  9
$SURFTYPE
 70
     6
  9
$SURFU
 70
     6
  9
$SURFV
 70
     6
  9
$UCSBASE
  2

  9
$UCSNAME
  2

  9
$UCSORG
 10
0.0
 20
0.0
 30
0.0
  9
$UCSXDIR
 10
1.0
 20
0.0
 30
0.0
  9
$UCSYDIR
 10
0.0
 20
1.0
 30
0.0
  9
$UCSORTHOREF
  2

  9
$UCSORTHOVIEW
 70
     0
  9
$UCSORGTOP
 10
0.0
 20
0.0
 30
0.0
  9
$UCSORGBOTTOM
 10
0.0
 20
0.0
 30
0.0
  9
$UCSORGLEFT
 10
0.0
 20
0.0
 30
0.0
  9
$UCSORGRIGHT
 10
0.0
 20
0.0
 30
0.0
  9
$UCSORGFRONT
 10
0.0
 20
0.0
 30
0.0
  9
$UCSORGBACK
 10
0.0
 20
0.0
 30
0.0
  9
$PUCSBASE
  2

  9
$PUCSNAME
  2

  9
$PUCSORG
 10
0.0
 20
0.0
 30
0.0
  9
$PUCSXDIR
 10
1.0
 20
0.0
 30
0.0
  9
$PUCSYDIR
 10
0.0
 20
1.0
 30
0.0
  9
$PUCSORTHOREF
  2

  9
$PUCSORTHOVIEW
 70
     0
  9
$PUCSORGTOP
 10
0.0
 20
0.0
 30
0.0
  9
$PUCSORGBOTTOM
 10
0.0
 20
0.0
 30
0.0
  9
$PUCSORGLEFT
 10
0.0
 20
0.0
 30
0.0
  9
$PUCSORGRIGHT
 10
0.0
 20
0.0
 30
0.0
  9
$PUCSORGFRONT
 10
0.0
 20
0.0
 30
0.0
  9
$PUCSORGBACK
 10
0.0
 20
0.0
 30
0.0
  9
$USERI1
 70
     0
  9
$USERI2
 70
     0
  9
$USERI3
 70
     0
  9
$USERI4
 70
     0
  9
$USERI5
 70
     0
  9
$USERR1
 40
0.0
  9
$USERR2
 40
0.0
  9
$USERR3
 40
0.0
  9
$USERR4
 40
0.0
  9
$USERR5
 40
0.0
  9
$WORLDVIEW
 70
     1
  9
$SHADEDGE
 70
     3
  9
$SHADEDIF
 70
    70
  9
$TILEMODE
 70
     1
  9
$MAXACTVP
 70
    64
  9
$PINSBASE
 10
0.0
 20
0.0
 30
0.0
  9
$PLIMCHECK
 70
     0
  9
$PEXTMIN
 10
1.000000000000000E+20
 20
1.000000000000000E+20
 30
1.000000000000000E+20
  9
$PEXTMAX
 10
-1.000000000000000E+20
 20
-1.000000000000000E+20
 30
-1.000000000000000E+20
  9
$PLIMMIN
 10
0.0
 20
0.0
  9
$PLIMMAX
 10
420.0
 20
297.0
  9
$UNITMODE
 70
     0
  9
$VISRETAIN
 70
     1
  9
$PLINEGEN
 70
     0
  9
$PSLTSCALE
 70
     1
  9
$TREEDEPTH
 70
  3020
  9
$CMLSTYLE
  2
Standard
  9
$CMLJUST
 70
     0
  9
$CMLSCALE
 40
20.0
  9
$PROXYGRAPHICS
 70
     1
  9
$MEASUREMENT
 70
     1
  9
$CELWEIGHT
370
    -1
  9
$ENDCAPS
280
     0
  9
$JOINSTYLE
280
     0
  9
$LWDISPLAY
290
     0
  9
$INSUNITS
 70
     4
  9
$HYPERLINKBASE
  1

  9
$STYLESHEET
  1

  9
$XEDIT
290
     1
  9
$CEPSNTYPE
380
     0
  9
$PSTYLEMODE
290
     1
  9
$FINGERPRINTGUID
  2
{6B804151-CB4C-408B-867E-0ECB5C43DF8B}
  9
$VERSIONGUID
  2
{FAEB1C32-E019-11D5-929B-00C0DF256EC4}
  9
$EXTNAMES
290
     1
  9
$PSVPSCALE
 40
0.0
  9
$OLESTARTUP
290
     0
  0
ENDSEC
  0
SECTION
  2
CLASSES
  0
CLASS
  1
ACDBDICTIONARYWDFLT
  2
AcDbDictionaryWithDefault
  3
ObjectDBX Classes
 90
        0
280
     0
281
     0
  0
CLASS
  1
VISUALSTYLE
  2
AcDbVisualStyle
  3
ObjectDBX Classes
 90
     4095
280
     0
281
     0
  0
CLASS
  1
DICTIONARYVAR
  2
AcDbDictionaryVar
  3
ObjectDBX Classes
 90
        0
280
     0
281
     0
  0
CLASS
  1
ACDBPLACEHOLDER
  2
AcDbPlaceHolder
  3
ObjectDBX Classes
 90
        0
280
     0
281
     0
  0
CLASS
  1
LAYOUT
  2
AcDbLayout
  3
ObjectDBX Classes
 90
        0
280
     0
281
     0
  0
ENDSEC
  0
SECTION
  2
TABLES
  0
TABLE
  2
VPORT
  5
8
330
0
100
AcDbSymbolTable
 70
     1
  0
VPORT
  5
29
330
8
100
AcDbSymbolTableRecord
100
AcDbViewportTableRecord
  2
*Active
 70
     0
 10
0.0
 20
0.0
 11
1.0
 21
1.0
 12
0.0
 22
0.0
 13
0.0
 23
0.0
 14
10.0
 24
10.0
 15
10.0
 25
10.0
 16
0.0
 26
0.0
 36
1.0
 17
0.0
 27
0.0
 37
0.0
 40
4620.0
 41
1.414285714285715
 42
50.0
 43
0.0
 44
0.0
 50
0.0
 51
0.0
 71
     0
 72
 10000
 73
     1
 74
     3
 75
     0
 76
     0
 77
     0
 78
     0
281
     0
 65
     1
110
0.0
120
0.0
130
0.0
111
1.0
121
0.0
131
0.0
112
0.0
122
1.0
132
0.0
 79
     0
146
0.0
  0
ENDTAB
  0
TABLE
  2
LTYPE
  5
5
330
0
100
AcDbSymbolTable
 70
     5
  0
LTYPE
  5
14
330
5
100
AcDbSymbolTableRecord
100
AcDbLinetypeTableRecord
  2
ByBlock
 70
     0
  3

 72
    65
 73
     0
 40
0.0
  0
LTYPE
  5
15
330
5
100
AcDbSymbolTableRecord
100
AcDbLinetypeTableRecord
  2
ByLayer
 70
     0
  3

 72
    65
 73
     0
 40
0.0
  0
LTYPE
  5
16
330
5
100
AcDbSymbolTableRecord
100
AcDbLinetypeTableRecord
  2
Continuous
 70
     0
  3
Solid line
 72
    65
 73
     0
 40
0.0
  0
LTYPE
  5
3C
330
5
100
AcDbSymbolTableRecord
100
AcDbLinetypeTableRecord
  2
JWW_DASHED1
 70
     0
  3
-  --  --  --  --  --  --  --  -
 72
    65
 73
     2
 40
1.693333333333333
 49
0.8466666666666667
 74
     0
 49
-0.8466666666666667
 74
     0
  0
LTYPE
  5
3D
330
5
100
AcDbSymbolTableRecord
100
AcDbLinetypeTableRecord
  2
JWW_CENTER2
 70
     0
  3
-------------  --  -------------
 72
    65
 73
     4
 40
13.54666666666667
 49
11.00666666666667
 74
     0
 49
-0.8466666666666667
 74
     0
 49
0.8466666666666667
 74
     0
 49
-0.8466666666666667
 74
     0
  0
LTYPE
  5
3E
330
5
100
AcDbSymbolTableRecord
100
AcDbLinetypeTableRecord
  2
JWW_CENTER1
 70
     0
  3
-----  --  ----------  --  -----
 72
    65
 73
     4
 40
6.773333333333333
 49
4.233333333333333
 74
     0
 49
-0.8466666666666667
 74
     0
 49
0.8466666666666667
 74
     0
 49
-0.8466666666666667
 74
     0
  0
LTYPE
  5
3F
330
5
100
AcDbSymbolTableRecord
100
AcDbLinetypeTableRecord
  2
JWW_DASHED2
 70
     0
  3
--    ----    ----    ----    --
 72
    65
 73
     2
 40
3.386666666666667
 49
1.693333333333333
 74
     0
 49
-1.693333333333333
 74
     0
  0
ENDTAB
  0
TABLE
  2
LAYER
  5
2
330
0
100
AcDbSymbolTable
 70
    14
  0
LAYER
  5
10
330
2
100
AcDbSymbolTableRecord
100
AcDbLayerTableRecord
  2
0
 70
     0
 62
     7
  6
Continuous
370
    -3
390
F
  0
LAYER
  5
40
330
2
100
AcDbSymbolTableRecord
100
AcDbLayerTableRecord
  2
通り芯
 70
     0
 62
     7
  6
Continuous
370
    -3
390
F
  0
LAYER
  5
41
330
2
100
AcDbSymbolTableRecord
100
AcDbLayerTableRecord
  2
092
 70
     0
 62
     7
  6
Continuous
370
    -3
390
F
  0
LAYER
  5
42
330
2
100
AcDbSymbolTableRecord
100
AcDbLayerTableRecord
  2
1-0ﾚｲﾔ
 70
     0
 62
     7
  6
Continuous
370
    -3
390
F
  0
LAYER
  5
43
330
2
100
AcDbSymbolTableRecord
100
AcDbLayerTableRecord
  2
Hojo
 70
     0
 62
     7
  6
Continuous
370
    -3
390
F
  0
LAYER
  5
44
330
2
100
AcDbSymbolTableRecord
100
AcDbLayerTableRecord
  2
_2-c_Shi
 70
     0
 62
     7
  6
Continuous
370
    -3
390
F
  0
LAYER
  5
45
330
2
100
AcDbSymbolTableRecord
100
AcDbLayerTableRecord
  2
躯体
 70
     0
 62
     7
  6
Continuous
370
    -3
390
F
  0
LAYER
  5
46
330
2
100
AcDbSymbolTableRecord
100
AcDbLayerTableRecord
  2
1-1ﾚｲﾔ
 70
     0
 62
     7
  6
Continuous
370
    -3
390
F
  0
LAYER
  5
47
330
2
100
AcDbSymbolTableRecord
100
AcDbLayerTableRecord
  2
_2-a_N_s
 70
     0
 62
     7
  6
Continuous
370
    -3
390
F
  0
LAYER
  5
48
330
2
100
AcDbSymbolTableRecord
100
AcDbLayerTableRecord
  2
Yobi_3
 70
     0
 62
     7
  6
Continuous
370
    -3
390
F
  0
LAYER
  5
49
330
2
100
AcDbSymbolTableRecord
100
AcDbLayerTableRecord
  2
4-F
 70
     0
 62
     7
  6
Continuous
370
    -3
390
F
  0
LAYER
  5
4A
330
2
100
AcDbSymbolTableRecord
100
AcDbLayerTableRecord
  2
2-Fﾚｲﾔ
 70
     0
 62
     7
  6
Continuous
370
    -3
390
F
  0
LAYER
  5
4B
330
2
100
AcDbSymbolTableRecord
100
AcDbLayerTableRecord
  2
3-F
 70
     0
 62
     7
  6
Continuous
370
    -3
390
F
  0
LAYER
  5
4C
330
2
100
AcDbSymbolTableRecord
100
AcDbLayerTableRecord
  2
F-Fﾚｲﾔ
 70
     0
 62
     7
  6
Continuous
370
    -3
390
F
  0
ENDTAB
  0
TABLE
  2
STYLE
  5
3
330
0
100
AcDbSymbolTable
 70
     2
  0
STYLE
  5
11
330
3
100
AcDbSymbolTableRecord
100
AcDbTextStyleTableRecord
  2
Standard
 70
     0
 40
0.0
 41
1.0
 50
0.0
 71
     0
 42
2.5
  3
txt
  4

1001
ACAD
1000

1071
        0
  0
STYLE
  5
3B
330
3
100
AcDbSymbolTableRecord
100
AcDbTextStyleTableRecord
  2
ＭＳ ゴシック
 70
     0
 40
1.0
 41
1.0
 50
0.0
 71
     0
 42
10.0
  3

  4

1001
ACAD
1000
MS Gothic
1071
    32817
  0
ENDTAB
  0
TABLE
  2
VIEW
  5
6
330
0
100
AcDbSymbolTable
 70
     0
  0
ENDTAB
  0
TABLE
  2
UCS
  5
7
330
0
100
AcDbSymbolTable
 70
     0
  0
ENDTAB
  0
TABLE
  2
APPID
  5
9
330
0
100
AcDbSymbolTable
 70
     1
  0
APPID
  5
12
330
9
100
AcDbSymbolTableRecord
100
AcDbRegAppTableRecord
  2
ACAD
 70
     0
  0
ENDTAB
  0
TABLE
  2
DIMSTYLE
  5
A
330
0
100
AcDbSymbolTable
 70
     1
100
AcDbDimStyleTable
  0
DIMSTYLE
105
27
330
A
100
AcDbSymbolTableRecord
100
AcDbDimStyleTableRecord
  2
ISO-25
 70
     0
 41
2.5
 42
0.625
 43
3.75
 44
1.25
 73
     0
 74
     0
 77
     1
 78
     8
140
2.5
141
2.5
143
0.03937007874016
147
0.625
171
     3
172
     1
271
     2
272
     2
274
     3
278
    44
283
     0
284
     8
340
11
  0
ENDTAB
  0
TABLE
  2
BLOCK_RECORD
  5
1
330
0
100
AcDbSymbolTable
 70
     1
  0
BLOCK_RECORD
  5
1F
330
1
100
AcDbSymbolTableRecord
100
AcDbBlockTableRecord
  2
*Model_Space
340
22
  0
BLOCK_RECORD
  5
1B
330
1
100
AcDbSymbolTableRecord
100
AcDbBlockTableRecord
  2
*Paper_Space
340
1E
  0
BLOCK_RECORD
  5
23
330
1
100
AcDbSymbolTableRecord
100
AcDbBlockTableRecord
  2
*Paper_Space0
340
26
  0
ENDTAB
  0
ENDSEC
  0
SECTION
  2
BLOCKS
  0
BLOCK
  5
20
330
1F
100
AcDbEntity
  8
0
100
AcDbBlockBegin
  2
*Model_Space
 70
     0
 10
0.0
 20
0.0
 30
0.0
  3
*Model_Space
  1

  0
ENDBLK
  5
21
330
1F
100
AcDbEntity
  8
0
100
AcDbBlockEnd
  0
BLOCK
  5
1C
330
1B
100
AcDbEntity
 67
     1
  8
0
100
AcDbBlockBegin
  2
*Paper_Space
 70
     0
 10
0.0
 20
0.0
 30
0.0
  3
*Paper_Space
  1

  0
ENDBLK
  5
1D
330
1B
100
AcDbEntity
 67
     1
  8
0
100
AcDbBlockEnd
  0
BLOCK
  5
24
330
23
100
AcDbEntity
  8
0
100
AcDbBlockBegin
  2
*Paper_Space0
 70
     0
 10
0.0
 20
0.0
 30
0.0
  3
*Paper_Space0
  1

  0
ENDBLK
  5
25
330
23
100
AcDbEntity
  8
0
100
AcDbBlockEnd
  0
ENDSEC
  0
SECTION
  2
ENTITIES
  0
LINE
  5
4D
330
1F
100
AcDbEntity
  8
通り芯
  6
Continuous
 62
     4
370
     9
100
AcDbLine
 10
-2092.555762690467
 20
1081.2161072847
 30
0.0
 11
903.4438176044625
 21
1081.2161072847
 31
0.0
  0
LINE
  5
4E
330
1F
100
AcDbEntity
  8
通り芯
  6
Continuous
 62
     4
370
     9
100
AcDbLine
 10
813.4438706272817
 20
761.2163735770812
 30
0.0
 11
813.4438706272817
 21
765.2163090070703
 31
0.0
  0
LINE
  5
4F
330
1F
100
AcDbEntity
  8
通り芯
  6
Continuous
 62
     4
370
     9
100
AcDbLine
 10
-2002.555815713286
 20
761.2160236264745
 30
0.0
 11
-2002.555815713286
 21
760.7939831952788
 31
0.0
  0
LINE
  5
50
330
1F
100
AcDbEntity
  8
通り芯
  6
Continuous
 62
     4
370
     9
100
AcDbLine
 10
-2002.555815713286
 20
764.7939186252679
 30
0.0
 11
-2002.555815713286
 21
760.7939831952788
 31
0.0
  0
LINE
  5
51
330
1F
100
AcDbEntity
  8
通り芯
  6
Continuous
 62
     4
370
     9
100
AcDbLine
 10
-660.5557820143389
 20
779.2220321723394
 30
0.0
 11
-660.5557820143389
 21
775.2220967423502
 31
0.0
  0
LINE
  5
52
330
1F
100
AcDbEntity
  8
092
  6
Continuous
 62
     7
370
     9
100
AcDbLine
 10
-2092.555762690467
 20
1331.334904321833
 30
0.0
 11
903.4438176044625
 21
1331.334904321833
 31
0.0
  0
LINE
  5
53
330
1F
100
AcDbEntity
  8
092
  6
Continuous
 62
     7
370
     9
100
AcDbLine
 10
-2092.555762690467
 20
1111.216322910832
 30
0.0
 11
-2092.555762690467
 21
1337.334807466816
 31
0.0
  0
LINE
  5
54
330
1F
100
AcDbEntity
  8
092
  6
Continuous
 62
     7
370
     9
100
AcDbLine
 10
903.4438176044625
 20
1111.216322910832
 30
0.0
 11
903.4438176044625
 21
1337.334807466816
 31
0.0
  0
LINE
  5
55
330
1F
100
AcDbEntity
  8
092
  6
Continuous
 62
     7
370
     9
100
AcDbLine
 10
-309.9269714410701
 20
979.0077834561985
 30
0.0
 11
-158.7220632247482
 21
1176.232246252561
 31
0.0
  0
LINE
  5
56
330
1F
100
AcDbEntity
  8
092
  6
Continuous
 62
     7
370
     9
100
AcDbLine
 10
-2003.238219395568
 20
760.7939831952788
 30
0.0
 11
-1769.448817549525
 21
631.8461085148297
 31
0.0
  0
LINE
  5
57
330
1F
100
AcDbEntity
  8
092
  6
Continuous
 62
     7
370
     9
100
AcDbLine
 10
-625.2704373565882
 20
775.2220967423502
 30
0.0
 11
-401.2604052035505
 21
631.8461085148297
 31
0.0
  0
LINE
  5
58
330
1F
100
AcDbEntity
  8
092
  6
Continuous
 62
     7
370
     9
100
AcDbLine
 10
-309.9269714410701
 20
979.0077834561985
 30
0.0
 11
-297.4358344998603
 21
1000.663776825754
 31
0.0
  0
LINE
  5
59
330
1F
100
AcDbEntity
  8
092
  6
Continuous
 62
     7
370
     9
100
AcDbLine
 10
-309.9269714410701
 20
979.0077834561985
 30
0.0
 11
-292.2569154772521
 21
996.6928872960873
 31
0.0
  0
LINE
  5
5A
330
1F
100
AcDbEntity
  8
092
  6
Continuous
 62
     7
370
     9
100
AcDbLine
 10
-2122.555978316598
 20
1081.2161072847
 30
0.0
 11
-2250.298098183047
 21
1081.2161072847
 31
0.0
  0
LINE
  5
5B
330
1F
100
AcDbEntity
  8
092
  6
Continuous
 62
     7
370
     9
100
AcDbLine
 10
-2122.555978316598
 20
831.2162934537096
 30
0.0
 11
-2250.298098183047
 21
831.2162934537096
 31
0.0
  0
LINE
  5
5C
330
1F
100
AcDbEntity
  8
092
  6
Continuous
 62
     7
370
     9
100
AcDbLine
 10
-2414.103327929744
 20
1081.2161072847
 30
0.0
 11
-2414.103327929744
 21
761.2160236264745
 31
0.0
  0
LINE
  5
5D
330
1F
100
AcDbEntity
  8
092
  6
Continuous
 62
     7
370
     9
100
AcDbLine
 10
-2122.555978316598
 20
761.2160236264745
 30
0.0
 11
-2417.103454477538
 21
761.2160236264745
 31
0.0
  0
LINE
  5
5E
330
1F
100
AcDbEntity
  8
1-0ﾚｲﾔ
  6
JWW_DASHED1
 62
     4
370
     9
100
AcDbLine
 10
-56.55643337021502
 20
194.4253481723166
 30
0.0
 11
-49.05629197603048
 21
194.4253481723166
 31
0.0
  0
LINE
  5
5F
330
1F
100
AcDbEntity
  8
1-0ﾚｲﾔ
  6
JWW_DASHED1
 62
     4
370
     9
100
AcDbLine
 10
895.943676210278
 20
194.4253481723166
 30
0.0
 11
903.4438176044625
 21
194.4253481723166
 31
0.0
  0
LINE
  5
60
330
1F
100
AcDbEntity
  8
Hojo
  6
Continuous
 62
     7
370
     9
100
AcDbLine
 10
43.44370213254535
 20
397.2201497444314
 30
0.0
 11
803.443332151096
 21
397.2201497444314
 31
0.0
  0
LINE
  5
61
330
1F
100
AcDbEntity
  8
Hojo
  6
Continuous
 62
     7
370
     9
100
AcDbLine
 10
43.44370213254535
 20
256.9256515806705
 30
0.0
 11
43.44370213254535
 21
401.7203395661238
 31
0.0
  0
LINE
  5
62
330
1F
100
AcDbEntity
  8
Hojo
  6
Continuous
 62
     7
370
     9
100
AcDbLine
 10
803.443332151096
 20
256.9256515806705
 30
0.0
 11
803.443332151096
 21
401.7203395661238
 31
0.0
  0
LINE
  5
63
330
1F
100
AcDbEntity
  8
Hojo
  6
Continuous
 62
     7
370
     9
100
AcDbLine
 10
-56.55643337021502
 20
482.7634757504038
 30
0.0
 11
903.4438176044625
 21
482.7634757504038
 31
0.0
  0
LINE
  5
64
330
1F
100
AcDbEntity
  8
Hojo
  6
Continuous
 62
     7
370
     9
100
AcDbLine
 10
-56.55643337021502
 20
256.9256515806705
 30
0.0
 11
-56.55643337021502
 21
487.2638405473995
 31
0.0
  0
LINE
  5
65
330
1F
100
AcDbEntity
  8
Hojo
  6
Continuous
 62
     7
370
     9
100
AcDbLine
 10
903.4438176044625
 20
256.9256515806705
 30
0.0
 11
903.4438176044625
 21
487.2638405473995
 31
0.0
  0
LINE
  5
66
330
1F
100
AcDbEntity
  8
Hojo
  6
Continuous
 62
     7
370
     9
100
AcDbLine
 10
195.9434275921706
 20
156.9251661273043
 30
0.0
 11
322.2584488861349
 21
156.9251661273043
 31
0.0
  0
LINE
  5
67
330
1F
100
AcDbEntity
  8
Hojo
  6
Continuous
 62
     7
370
     9
100
AcDbLine
 10
609.512604461213
 20
-483.7140109962479
 30
0.0
 11
687.6268290460797
 21
-834.2775557814417
 31
0.0
  0
LINE
  5
68
330
1F
100
AcDbEntity
  8
1-0ﾚｲﾔ
  6
JWW_DASHED1
 62
     4
370
     9
100
AcDbLine
 10
-41.55650053245267
 20
226.9256109298425
 30
0.0
 11
28.44341934417628
 21
226.9256109298425
 31
0.0
  0
LINE
  5
69
330
1F
100
AcDbEntity
  8
1-0ﾚｲﾔ
  6
JWW_DASHED1
 62
     4
370
     9
100
AcDbLine
 10
-49.05629197603048
 20
219.4256445109613
 30
0.0
 11
-49.05629197603048
 21
194.4253481723166
 31
0.0
  0
LINE
  5
6A
330
1F
100
AcDbEntity
  8
1-0ﾚｲﾔ
  6
Continuous
 62
     4
370
     9
100
AcDbLine
 10
173.4440532614366
 20
141.9252332895419
 30
0.0
 11
173.4440532614366
 21
-124.5516548883961
 31
0.0
  0
LINE
  5
6B
330
1F
100
AcDbEntity
  8
1-0ﾚｲﾔ
  6
Continuous
 62
     4
370
     9
100
AcDbLine
 10
158.4441204236737
 20
156.9251661273043
 30
0.0
 11
50.94349357612316
 21
156.9251661273043
 31
0.0
  0
LINE
  5
6C
330
1F
100
AcDbEntity
  8
1-0ﾚｲﾔ
  6
JWW_DASHED1
 62
     4
370
     9
100
AcDbLine
 10
35.94356073836082
 20
164.4254824967916
 30
0.0
 11
35.94356073836082
 21
219.4256445109613
 31
0.0
  0
LINE
  5
6D
330
1F
100
AcDbEntity
  8
1-0ﾚｲﾔ
  6
Continuous
 62
     4
370
     9
100
AcDbLine
 10
43.44370213254535
 20
219.4252945603552
 30
0.0
 11
43.44370213254535
 21
164.4251325461855
 31
0.0
  0
LINE
  5
6E
330
1F
100
AcDbEntity
  8
1-0ﾚｲﾔ
  6
JWW_DASHED1
 62
     4
370
     9
100
AcDbLine
 10
688.44361376118
 20
149.4255496590293
 30
0.0
 11
795.9435407075182
 21
149.4255496590293
 31
0.0
  0
LINE
  5
6F
330
1F
100
AcDbEntity
  8
1-0ﾚｲﾔ
  6
JWW_DASHED1
 62
     4
370
     9
100
AcDbLine
 10
810.9434735452805
 20
219.4256445109613
 30
0.0
 11
810.9434735452805
 21
164.4254824967916
 31
0.0
  0
LINE
  5
70
330
1F
100
AcDbEntity
  8
1-0ﾚｲﾔ
  6
JWW_DASHED1
 62
     4
370
     9
100
AcDbLine
 10
888.4435348160935
 20
226.9256109298425
 30
0.0
 11
818.4436149394645
 21
226.9256109298425
 31
0.0
  0
LINE
  5
71
330
1F
100
AcDbEntity
  8
1-0ﾚｲﾔ
  6
JWW_DASHED1
 62
     4
370
     9
100
AcDbLine
 10
895.943676210278
 20
219.4256445109613
 30
0.0
 11
895.943676210278
 21
194.4253481723166
 31
0.0
  0
LINE
  5
72
330
1F
100
AcDbEntity
  8
1-0ﾚｲﾔ
  6
Continuous
 62
     4
370
     9
100
AcDbLine
 10
795.9431907569115
 20
156.9251661273043
 30
0.0
 11
688.4432638105739
 21
156.9251661273043
 31
0.0
  0
LINE
  5
73
330
1F
100
AcDbEntity
  8
1-0ﾚｲﾔ
  6
Continuous
 62
     4
370
     9
100
AcDbLine
 10
803.443332151096
 20
164.4251325461855
 30
0.0
 11
803.443332151096
 21
219.4252945603552
 31
0.0
  0
LINE
  5
74
330
1F
100
AcDbEntity
  8
Hojo
  6
Continuous
 62
     7
370
     9
100
AcDbLine
 10
687.6268290460797
 20
-834.2775557814417
 30
0.0
 11
1010.587844784195
 21
-834.2775557814417
 31
0.0
  0
LINE
  5
75
330
1F
100
AcDbEntity
  8
Hojo
  6
Continuous
 62
     7
370
     9
100
AcDbLine
 10
317.7587839903515
 20
234.4252273981175
 30
0.0
 11
88.17718823443954
 21
234.4252273981175
 31
0.0
  0
LINE
  5
76
330
1F
100
AcDbEntity
  8
Hojo
  6
Continuous
 62
     7
370
     9
100
AcDbLine
 10
-398.7796053555024
 20
234.4252273981175
 30
0.0
 11
-398.7796053555024
 21
-565.5748067721436
 31
0.0
  0
LINE
  5
77
330
1F
100
AcDbEntity
  8
Hojo
  6
Continuous
 62
     7
370
     9
100
AcDbLine
 10
-86.5562990457397
 20
-565.5748067721436
 30
0.0
 11
-401.779556927994
 21
-565.5748067721436
 31
0.0
  0
LINE
  5
78
330
1F
100
AcDbEntity
  8
092
  6
Continuous
 62
     7
370
     9
100
AcDbLine
 10
-2244.141767117047
 20
1081.2161072847
 30
0.0
 11
-2417.103454477538
 21
1081.2161072847
 31
0.0
  0
LINE
  5
79
330
1F
100
AcDbEntity
  8
Hojo
  6
Continuous
 62
     7
370
     9
100
AcDbLine
 10
-86.5562990457397
 20
234.4252273981175
 30
0.0
 11
-401.779556927994
 21
234.4252273981175
 31
0.0
  0
LINE
  5
7A
330
1F
100
AcDbEntity
  8
1-0ﾚｲﾔ
  6
Continuous
 62
     4
370
     9
100
AcDbLine
 10
-56.55643337021502
 20
219.4252945603552
 30
0.0
 11
-56.55643337021502
 21
-565.5748067721436
 31
0.0
  0
LINE
  5
7B
330
1F
100
AcDbEntity
  8
1-0ﾚｲﾔ
  6
Continuous
 62
     4
370
     9
100
AcDbLine
 10
-41.55650053245267
 20
234.4252273981175
 30
0.0
 11
28.44341934417628
 21
234.4252273981175
 31
0.0
  0
LINE
  5
7C
330
1F
100
AcDbEntity
  8
1-0ﾚｲﾔ
  6
Continuous
 62
     4
370
     9
100
AcDbLine
 10
888.4438847667002
 20
234.4252273981175
 30
0.0
 11
818.4432649888583
 21
234.4252273981175
 31
0.0
  0
LINE
  5
7D
330
1F
100
AcDbEntity
  8
1-0ﾚｲﾔ
  6
Continuous
 62
     4
370
     9
100
AcDbLine
 10
903.4438176044625
 20
219.4252945603552
 30
0.0
 11
903.4438176044625
 21
-565.5746317968405
 31
0.0
  0
LINE
  5
7E
330
1F
100
AcDbEntity
  8
通り芯
  6
Continuous
 62
     4
370
     9
100
AcDbLine
 10
-598.5559079729912
 20
775.2220967423502
 30
0.0
 11
-660.5557820143389
 21
775.2220967423502
 31
0.0
  0
LINE
  5
7F
330
1F
100
AcDbEntity
  8
通り芯
  6
Continuous
 62
     4
370
     9
100
AcDbLine
 10
903.4438176044625
 20
769.2164194123623
 30
0.0
 11
903.4438176044625
 21
1081.2161072847
 31
0.0
  0
LINE
  5
80
330
1F
100
AcDbEntity
  8
通り芯
  6
Continuous
 62
     4
370
     9
100
AcDbLine
 10
-598.5559079729912
 20
779.2220321723394
 30
0.0
 11
-660.5557820143389
 21
779.2220321723394
 31
0.0
  0
LINE
  5
81
330
1F
100
AcDbEntity
  8
通り芯
  6
Continuous
 62
     4
370
     9
100
AcDbLine
 10
899.4438821744734
 20
769.2162444370595
 30
0.0
 11
899.4438821744734
 21
1081.2161072847
 31
0.0
  0
LINE
  5
82
330
1F
100
AcDbEntity
  8
通り芯
  6
Continuous
 62
     4
370
     9
100
AcDbLine
 10
895.4439467444843
 20
765.2163090070703
 30
0.0
 11
813.4438706272817
 21
765.2163090070703
 31
0.0
  0
LINE
  5
83
330
1F
100
AcDbEntity
  8
通り芯
  6
Continuous
 62
     4
370
     9
100
AcDbLine
 10
-2092.555762690467
 20
768.7940290305605
 30
0.0
 11
-2092.555762690467
 21
1081.2161072847
 31
0.0
  0
LINE
  5
84
330
1F
100
AcDbEntity
  8
通り芯
  6
Continuous
 62
     4
370
     9
100
AcDbLine
 10
-2088.555827260478
 20
768.793854055257
 30
0.0
 11
-2088.555827260478
 21
1081.2161072847
 31
0.0
  0
LINE
  5
85
330
1F
100
AcDbEntity
  8
通り芯
  6
Continuous
 62
     4
370
     9
100
AcDbLine
 10
-2084.555891830489
 20
764.7939186252679
 30
0.0
 11
-2002.555815713286
 21
764.7939186252679
 31
0.0
  0
LINE
  5
86
330
1F
100
AcDbEntity
  8
Hojo
  6
Continuous
 62
     7
370
     9
100
AcDbLine
 10
280.4627981241146
 20
-390.5746571299653
 30
0.0
 11
-223.0566327360145
 21
-390.5746571299653
 31
0.0
  0
LINE
  5
87
330
1F
100
AcDbEntity
  8
Hojo
  6
Continuous
 62
     7
370
     9
100
AcDbLine
 10
80.72778967816816
 20
-807.1301374978541
 30
0.0
 11
555.442436183281
 21
-807.1301374978541
 31
0.0
  0
LINE
  5
88
330
1F
100
AcDbEntity
  8
092
  6
Continuous
 62
     7
370
     9
100
AcDbLine
 10
-2247.297971635252
 20
1081.2161072847
 30
0.0
 11
-2247.297971635252
 21
831.2162934537096
 31
0.0
  0
LINE
  5
89
330
1F
100
AcDbEntity
  8
Hojo
  6
Continuous
 62
     7
370
     9
100
AcDbLine
 10
-220.0565061882196
 20
234.4252273981175
 30
0.0
 11
-220.0565061882196
 21
-390.5746571299653
 31
0.0
  0
LINE
  5
8A
330
1F
100
AcDbEntity
  8
092
  6
Continuous
 62
     7
370
     9
100
AcDbLine
 10
-401.2604052035505
 20
631.8461085148297
 30
0.0
 11
10.69602429636632
 21
631.8461085148297
 31
0.0
  0
LINE
  5
8B
330
1F
100
AcDbEntity
  8
092
  6
Continuous
 62
     7
370
     9
100
AcDbLine
 10
212.58952808196
 20
1176.232246252561
 30
0.0
 11
-158.7220632247482
 21
1176.232246252561
 31
0.0
  0
LINE
  5
8C
330
1F
100
AcDbEntity
  8
1-0ﾚｲﾔ
  6
JWW_DASHED1
 62
     4
370
     9
100
AcDbLine
 10
158.4441204236737
 20
149.4255496590293
 30
0.0
 11
50.94349357612316
 21
149.4255496590293
 31
0.0
  0
LINE
  5
8D
330
1F
100
AcDbEntity
  8
_2-c_Shi
  6
Continuous
 62
     7
370
     9
100
AcDbLine
 10
-1813.958247775737
 20
-173.9828779292384
 30
0.0
 11
-1117.80351888259
 21
-173.9828779292384
 31
0.0
  0
LINE
  5
8E
330
1F
100
AcDbEntity
  8
_2-c_Shi
  6
Continuous
 62
     7
370
     9
100
AcDbLine
 10
-1117.80351888259
 20
-183.4280447932284
 30
0.0
 11
-1813.958247775737
 21
-183.4280447932284
 31
0.0
  0
LINE
  5
8F
330
1F
100
AcDbEntity
  8
_2-c_Shi
  6
Continuous
 62
     7
370
     9
100
AcDbLine
 10
-1117.80351888259
 20
-248.428220357674
 30
0.0
 11
-1813.958247775737
 21
-248.428220357674
 31
0.0
  0
LINE
  5
90
330
1F
100
AcDbEntity
  8
_2-c_Shi
  6
Continuous
 62
     7
370
     9
100
AcDbLine
 10
-1117.80351888259
 20
-313.4280459715134
 30
0.0
 11
-1813.958247775737
 21
-313.4280459715134
 31
0.0
  0
LINE
  5
91
330
1F
100
AcDbEntity
  8
_2-c_Shi
  6
Continuous
 62
     7
370
     9
100
AcDbLine
 10
-1117.80351888259
 20
-378.4282215359588
 30
0.0
 11
-1813.958247775737
 21
-378.4282215359588
 31
0.0
  0
LINE
  5
92
330
1F
100
AcDbEntity
  8
_2-c_Shi
  6
Continuous
 62
     7
370
     9
100
AcDbLine
 10
-1117.80351888259
 20
-443.4280471497982
 30
0.0
 11
-1813.958247775737
 21
-443.4280471497982
 31
0.0
  0
LINE
  5
93
330
1F
100
AcDbEntity
  8
_2-c_Shi
  6
Continuous
 62
     7
370
     9
100
AcDbLine
 10
-1117.80351888259
 20
-573.4280483280829
 30
0.0
 11
-1813.958247775737
 21
-573.4280483280829
 31
0.0
  0
LINE
  5
94
330
1F
100
AcDbEntity
  8
_2-c_Shi
  6
Continuous
 62
     7
370
     9
100
AcDbLine
 10
-1117.80351888259
 20
-508.4282227142438
 30
0.0
 11
-1813.958247775737
 21
-508.4282227142438
 31
0.0
  0
LINE
  5
95
330
1F
100
AcDbEntity
  8
_2-c_Shi
  6
Continuous
 62
     7
370
     9
100
AcDbLine
 10
-1117.80351888259
 20
-703.4280495063678
 30
0.0
 11
-1813.958247775737
 21
-703.4280495063678
 31
0.0
  0
LINE
  5
96
330
1F
100
AcDbEntity
  8
_2-c_Shi
  6
Continuous
 62
     7
370
     9
100
AcDbLine
 10
-1117.80351888259
 20
-638.4282238925286
 30
0.0
 11
-1813.958247775737
 21
-638.4282238925286
 31
0.0
  0
LINE
  5
97
330
1F
100
AcDbEntity
  8
_2-c_Shi
  6
Continuous
 62
     7
370
     9
100
AcDbLine
 10
-1117.80351888259
 20
-768.4282250708134
 30
0.0
 11
-1813.958247775737
 21
-768.4282250708134
 31
0.0
  0
LINE
  5
98
330
1F
100
AcDbEntity
  8
_2-c_Shi
  6
Continuous
 62
     7
370
     9
100
AcDbLine
 10
-1117.80351888259
 20
-833.4280506846527
 30
0.0
 11
-1813.958247775737
 21
-833.4280506846527
 31
0.0
  0
LINE
  5
99
330
1F
100
AcDbEntity
  8
_2-c_Shi
  6
Continuous
 62
     7
370
     9
100
AcDbLine
 10
-1117.80351888259
 20
-898.4281387614467
 30
0.0
 11
-1813.958247775737
 21
-898.4281387614467
 31
0.0
  0
LINE
  5
9A
330
1F
100
AcDbEntity
  8
_2-c_Shi
  6
Continuous
 62
     7
370
     9
100
AcDbLine
 10
-1117.80351888259
 20
-963.4281393505892
 30
0.0
 11
-1813.958247775737
 21
-963.4281393505892
 31
0.0
  0
LINE
  5
9B
330
1F
100
AcDbEntity
  8
_2-c_Shi
  6
Continuous
 62
     7
370
     9
100
AcDbLine
 10
-1117.80351888259
 20
-1028.428139939732
 30
0.0
 11
-1813.958247775737
 21
-1028.428139939732
 31
0.0
  0
LINE
  5
9C
330
1F
100
AcDbEntity
  8
_2-c_Shi
  6
Continuous
 62
     7
370
     9
100
AcDbLine
 10
-1117.80351888259
 20
-1158.428141118016
 30
0.0
 11
-1813.958247775737
 21
-1158.428141118016
 31
0.0
  0
LINE
  5
9D
330
1F
100
AcDbEntity
  8
_2-c_Shi
  6
Continuous
 62
     7
370
     9
100
AcDbLine
 10
-1117.80351888259
 20
-1093.428140528874
 30
0.0
 11
-1813.958247775737
 21
-1093.428140528874
 31
0.0
  0
LINE
  5
9E
330
1F
100
AcDbEntity
  8
_2-c_Shi
  6
Continuous
 62
     7
370
     9
100
AcDbLine
 10
-1117.80351888259
 20
-1223.428141707159
 30
0.0
 11
-1813.958247775737
 21
-1223.428141707159
 31
0.0
  0
LINE
  5
9F
330
1F
100
AcDbEntity
  8
_2-c_Shi
  6
Continuous
 62
     7
370
     9
100
AcDbLine
 10
-1117.80351888259
 20
-1288.428142296301
 30
0.0
 11
-1813.958247775737
 21
-1288.428142296301
 31
0.0
  0
LINE
  5
A0
330
1F
100
AcDbEntity
  8
_2-c_Shi
  6
Continuous
 62
     7
370
     9
100
AcDbLine
 10
-1117.80351888259
 20
-1353.428142885444
 30
0.0
 11
-1813.958247775737
 21
-1353.428142885444
 31
0.0
  0
LINE
  5
A1
330
1F
100
AcDbEntity
  8
_2-c_Shi
  6
Continuous
 62
     7
370
     9
100
AcDbLine
 10
-1117.80351888259
 20
-108.9828773400959
 30
0.0
 11
-1813.958247775737
 21
-108.9828773400959
 31
0.0
  0
LINE
  5
A2
330
1F
100
AcDbEntity
  8
_2-c_Shi
  6
Continuous
 62
     7
370
     9
100
AcDbLine
 10
-1813.958247775737
 20
-108.9828773400959
 30
0.0
 11
-1813.958247775737
 21
-1353.428142885444
 31
0.0
  0
LINE
  5
A3
330
1F
100
AcDbEntity
  8
_2-c_Shi
  6
Continuous
 62
     7
370
     9
100
AcDbLine
 10
-1593.627508809668
 20
-1353.428142885444
 30
0.0
 11
-1593.627508809668
 21
-108.9828773400959
 31
0.0
  0
LINE
  5
A4
330
1F
100
AcDbEntity
  8
_2-c_Shi
  6
Continuous
 62
     7
370
     9
100
AcDbLine
 10
-1355.713764093097
 20
-108.9828773400959
 30
0.0
 11
-1355.713764093097
 21
-1353.428142885444
 31
0.0
  0
LINE
  5
A5
330
1F
100
AcDbEntity
  8
_2-c_Shi
  6
Continuous
 62
     7
370
     9
100
AcDbLine
 10
-1117.80351888259
 20
-108.9828773400959
 30
0.0
 11
-1117.80351888259
 21
-1353.428142885444
 31
0.0
  0
LINE
  5
A6
330
1F
100
AcDbEntity
  8
_2-c_Shi
  6
Continuous
 62
     7
370
     9
100
AcDbLine
 10
-1813.958247775737
 20
-79.09674561161808
 30
0.0
 11
-1629.55361302755
 21
-79.09674561161808
 31
0.0
  0
LINE
  5
A7
330
1F
100
AcDbEntity
  8
通り芯
  6
Continuous
 62
     4
370
     9
100
AcDbLine
 10
-2092.556112641073
 20
1524.122693331545
 30
0.0
 11
-2092.556112641073
 21
1908.12244377081
 31
0.0
  0
LINE
  5
A8
330
1F
100
AcDbEntity
  8
通り芯
  6
Continuous
 62
     4
370
     9
100
AcDbLine
 10
-2092.556112641073
 20
1908.12244377081
 30
0.0
 11
903.4438176044625
 21
1908.12244377081
 31
0.0
  0
LINE
  5
A9
330
1F
100
AcDbEntity
  8
通り芯
  6
Continuous
 62
     4
370
     9
100
AcDbLine
 10
903.4438176044625
 20
1908.12244377081
 30
0.0
 11
903.4438176044625
 21
1524.122693331545
 31
0.0
  0
LINE
  5
AA
330
1F
100
AcDbEntity
  8
通り芯
  6
Continuous
 62
     4
370
     9
100
AcDbLine
 10
903.4438176044625
 20
1524.122693331545
 30
0.0
 11
-2092.556112641073
 21
1524.122693331545
 31
0.0
  0
LINE
  5
AB
330
1F
100
AcDbEntity
  8
通り芯
  6
Continuous
 62
     4
370
     9
100
AcDbLine
 10
903.4438176044625
 20
1564.122747532649
 30
0.0
 11
-2092.556112641073
 21
1564.122747532649
 31
0.0
  0
LINE
  5
AC
330
1F
100
AcDbEntity
  8
通り芯
  6
Continuous
 62
     4
370
     9
100
AcDbLine
 10
903.4438176044625
 20
1616.12260802372
 30
0.0
 11
-2092.556112641073
 21
1616.12260802372
 31
0.0
  0
LINE
  5
AD
330
1F
100
AcDbEntity
  8
通り芯
  6
Continuous
 62
     4
370
     9
100
AcDbLine
 10
-2092.556112641073
 20
1716.122393575874
 30
0.0
 11
903.4438176044625
 21
1716.122393575874
 31
0.0
  0
LINE
  5
AE
330
1F
100
AcDbEntity
  8
躯体
  6
JWW_DASHED1
 62
     7
370
     9
100
AcDbLine
 10
813.4442205778879
 20
1908.12244377081
 30
0.0
 11
813.4442205778879
 21
1524.122693331545
 31
0.0
  0
LINE
  5
AF
330
1F
100
AcDbEntity
  8
躯体
  6
JWW_DASHED1
 62
     7
370
     9
100
AcDbLine
 10
899.4438821744734
 20
1908.12244377081
 30
0.0
 11
899.4438821744734
 21
1524.122693331545
 31
0.0
  0
LINE
  5
B0
330
1F
100
AcDbEntity
  8
躯体
  6
JWW_DASHED1
 62
     7
370
     9
100
AcDbLine
 10
-2088.556177211084
 20
1524.122693331545
 30
0.0
 11
-2088.556177211084
 21
1908.12244377081
 31
0.0
  0
LINE
  5
B1
330
1F
100
AcDbEntity
  8
躯体
  6
JWW_DASHED1
 62
     7
370
     9
100
AcDbLine
 10
-2002.55546576268
 20
1524.122693331545
 30
0.0
 11
-2002.55546576268
 21
1908.12244377081
 31
0.0
  0
LINE
  5
B2
330
1F
100
AcDbEntity
  8
躯体
  6
JWW_DASHED1
 62
     7
370
     9
100
AcDbLine
 10
-590.5556871624069
 20
1908.12244377081
 30
0.0
 11
-590.5556871624069
 21
1524.122693331545
 31
0.0
  0
LINE
  5
B3
330
1F
100
AcDbEntity
  8
躯体
  6
JWW_DASHED1
 62
     7
370
     9
100
AcDbLine
 10
-660.5556070390357
 20
1908.12244377081
 30
0.0
 11
-660.5556070390357
 21
1524.122693331545
 31
0.0
  0
LINE
  5
B4
330
1F
100
AcDbEntity
  8
通り芯
  6
Continuous
 62
     4
370
     9
100
AcDbLine
 10
-2092.556112641073
 20
1816.122529078634
 30
0.0
 11
903.4438176044625
 21
1816.122529078634
 31
0.0
  0
LINE
  5
B5
330
1F
100
AcDbEntity
  8
通り芯
  6
Continuous
 62
     4
370
     9
100
AcDbLine
 10
-2092.556112641073
 20
1868.122389569706
 30
0.0
 11
903.4438176044625
 21
1868.122389569706
 31
0.0
  0
LINE
  5
B6
330
1F
100
AcDbEntity
  8
092
  6
Continuous
 62
     7
370
     9
100
AcDbLine
 10
-2174.241233212607
 20
1716.122393575874
 30
0.0
 11
-2250.508068546826
 21
1740.394267727509
 31
0.0
  0
LINE
  5
B7
330
1F
100
AcDbEntity
  8
092
  6
Continuous
 62
     7
370
     9
100
AcDbLine
 10
-2250.508068546826
 20
1740.394267727509
 30
0.0
 11
-2250.508068546826
 21
1690.116164219425
 31
0.0
  0
LINE
  5
B8
330
1F
100
AcDbEntity
  8
092
  6
Continuous
 62
     7
370
     9
100
AcDbLine
 10
-2174.241233212607
 20
1716.122393575874
 30
0.0
 11
-2337.97787264047
 21
1716.122393575874
 31
0.0
  0
LINE
  5
B9
330
1F
100
AcDbEntity
  8
092
  6
Continuous
 62
     7
370
     9
100
AcDbLine
 10
981.1293526966136
 20
1716.122393575874
 30
0.0
 11
1057.396188030832
 21
1740.394267727509
 31
0.0
  0
LINE
  5
BA
330
1F
100
AcDbEntity
  8
092
  6
Continuous
 62
     7
370
     9
100
AcDbLine
 10
1057.396188030832
 20
1740.394267727509
 30
0.0
 11
1057.396188030832
 21
1690.116164219425
 31
0.0
  0
LINE
  5
BB
330
1F
100
AcDbEntity
  8
092
  6
Continuous
 62
     7
370
     9
100
AcDbLine
 10
981.1293526966136
 20
1716.122393575874
 30
0.0
 11
1144.86564217387
 21
1716.122393575874
 31
0.0
  0
LINE
  5
BC
330
1F
100
AcDbEntity
  8
躯体
  6
JWW_DASHED1
 62
     7
370
     9
100
AcDbLine
 10
-594.5557975676991
 20
1908.12244377081
 30
0.0
 11
-594.5557975676991
 21
1524.122693331545
 31
0.0
  0
LINE
  5
BD
330
1F
100
AcDbEntity
  8
通り芯
  6
JWW_DASHED1
 62
     4
370
     9
100
AcDbLine
 10
1408.17722711784
 20
1905.122667173621
 30
0.0
 11
1408.17722711784
 21
1908.12244377081
 31
0.0
  0
LINE
  5
BE
330
1F
100
AcDbEntity
  8
通り芯
  6
JWW_DASHED1
 62
     4
370
     9
100
AcDbLine
 10
1408.17722711784
 20
1527.122469928734
 30
0.0
 11
1408.17722711784
 21
1524.122693331545
 31
0.0
  0
LINE
  5
BF
330
1F
100
AcDbEntity
  8
通り芯
  6
Continuous
 62
     4
370
     9
100
AcDbLine
 10
1408.17722711784
 20
1908.12244377081
 30
0.0
 11
1712.177219105503
 21
1908.12244377081
 31
0.0
  0
LINE
  5
C0
330
1F
100
AcDbEntity
  8
通り芯
  6
Continuous
 62
     4
370
     9
100
AcDbLine
 10
1408.17722711784
 20
1524.122693331545
 30
0.0
 11
1712.177219105503
 21
1524.122693331545
 31
0.0
  0
LINE
  5
C1
330
1F
100
AcDbEntity
  8
092
  6
Continuous
 62
     7
370
     9
100
AcDbLine
 10
1303.790110814525
 20
1908.12244377081
 30
0.0
 11
1303.790110814525
 21
1524.122693331545
 31
0.0
  0
LINE
  5
C2
330
1F
100
AcDbEntity
  8
092
  6
Continuous
 62
     7
370
     9
100
AcDbLine
 10
1362.177269771752
 20
1908.12244377081
 30
0.0
 11
1297.790207669541
 21
1908.12244377081
 31
0.0
  0
LINE
  5
C3
330
1F
100
AcDbEntity
  8
092
  6
Continuous
 62
     7
370
     9
100
AcDbLine
 10
1362.177269771752
 20
1524.122693331545
 30
0.0
 11
1297.790207669541
 21
1524.122693331545
 31
0.0
  0
LINE
  5
C4
330
1F
100
AcDbEntity
  8
通り芯
  6
JWW_DASHED1
 62
     4
370
     9
100
AcDbLine
 10
1395.177261995073
 20
1902.122540625826
 30
0.0
 11
1395.177261995073
 21
1874.122292714689
 31
0.0
  0
LINE
  5
C5
330
1F
100
AcDbEntity
  8
通り芯
  6
JWW_DASHED1
 62
     4
370
     9
100
AcDbLine
 10
1398.177388542867
 20
1905.122667173621
 30
0.0
 11
1408.17722711784
 21
1905.122667173621
 31
0.0
  0
LINE
  5
C6
330
1F
100
AcDbEntity
  8
通り芯
  6
JWW_DASHED1
 62
     4
370
     9
100
AcDbLine
 10
1395.177261995073
 20
1530.122596476529
 30
0.0
 11
1395.177261995073
 21
1558.122494437059
 31
0.0
  0
LINE
  5
C7
330
1F
100
AcDbEntity
  8
通り芯
  6
JWW_DASHED1
 62
     4
370
     9
100
AcDbLine
 10
1398.177388542867
 20
1527.122469928734
 30
0.0
 11
1408.17722711784
 21
1527.122469928734
 31
0.0
  0
LINE
  5
C8
330
1F
100
AcDbEntity
  8
通り芯
  6
Continuous
 62
     4
370
     9
100
AcDbLine
 10
1398.177038592261
 20
1908.12244377081
 30
0.0
 11
1408.17722711784
 21
1908.12244377081
 31
0.0
  0
LINE
  5
C9
330
1F
100
AcDbEntity
  8
通り芯
  6
Continuous
 62
     4
370
     9
100
AcDbLine
 10
1392.177135447277
 20
1874.122292714689
 30
0.0
 11
1392.177135447277
 21
1902.122540625826
 31
0.0
  0
LINE
  5
CA
330
1F
100
AcDbEntity
  8
通り芯
  6
JWW_DASHED1
 62
     4
370
     9
100
AcDbLine
 10
1426.177286503398
 20
1865.122263021911
 30
0.0
 11
1426.177286503398
 21
1822.122432223618
 31
0.0
  0
LINE
  5
CB
330
1F
100
AcDbEntity
  8
通り芯
  6
Continuous
 62
     4
370
     9
100
AcDbLine
 10
1423.177159955603
 20
1822.122432223618
 30
0.0
 11
1423.177159955603
 21
1865.122263021911
 31
0.0
  0
LINE
  5
CC
330
1F
100
AcDbEntity
  8
通り芯
  6
Continuous
 62
     4
370
     9
100
AcDbLine
 10
1423.177159955603
 20
1610.122704878737
 30
0.0
 11
1423.177159955603
 21
1567.122874080444
 31
0.0
  0
LINE
  5
CD
330
1F
100
AcDbEntity
  8
通り芯
  6
JWW_DASHED1
 62
     4
370
     9
100
AcDbLine
 10
1426.177286503398
 20
1567.122524129838
 30
0.0
 11
1426.177286503398
 21
1610.122704878737
 31
0.0
  0
LINE
  5
CE
330
1F
100
AcDbEntity
  8
通り芯
  6
Continuous
 62
     4
370
     9
100
AcDbLine
 10
1392.177135447277
 20
1530.122596476529
 30
0.0
 11
1392.177135447277
 21
1558.122844387666
 31
0.0
  0
LINE
  5
CF
330
1F
100
AcDbEntity
  8
通り芯
  6
Continuous
 62
     4
370
     9
100
AcDbLine
 10
1398.177038592261
 20
1524.122693331545
 30
0.0
 11
1408.17722711784
 21
1524.122693331545
 31
0.0
  0
LINE
  5
D0
330
1F
100
AcDbEntity
  8
通り芯
  6
JWW_CENTER2
 62
     4
370
     9
100
AcDbLine
 10
1475.623207469705
 20
1878.122228144679
 30
0.0
 11
1448.73160307932
 21
1878.122228144679
 31
0.0
  0
LINE
  5
D1
330
1F
100
AcDbEntity
  8
通り芯
  6
JWW_CENTER2
 62
     4
370
     9
100
AcDbLine
 10
1587.737933061297
 20
1878.122928045891
 30
0.0
 11
1617.085140856076
 21
1878.122928045891
 31
0.0
  0
LINE
  5
D2
330
1F
100
AcDbEntity
  8
通り芯
  6
JWW_CENTER2
 62
     4
370
     9
100
AcDbLine
 10
1602.17724502777
 20
1892.561890061757
 30
0.0
 11
1602.17724502777
 21
1863.683266128812
 31
0.0
  0
LINE
  5
D3
330
1F
100
AcDbEntity
  8
通り芯
  6
JWW_CENTER2
 62
     4
370
     9
100
AcDbLine
 10
1685.633115667174
 20
1786.213300610141
 30
0.0
 11
1658.741161326183
 21
1786.213300610141
 31
0.0
  0
LINE
  5
D4
330
1F
100
AcDbEntity
  8
通り芯
  6
JWW_CENTER2
 62
     4
370
     9
100
AcDbLine
 10
1672.186963521376
 20
1772.767498414949
 30
0.0
 11
1672.186963521376
 21
1799.659102805333
 31
0.0
  0
LINE
  5
D5
330
1F
100
AcDbEntity
  8
通り芯
  6
JWW_CENTER2
 62
     4
370
     9
100
AcDbLine
 10
1685.633115667174
 20
1646.213810807489
 30
0.0
 11
1658.741161326183
 21
1646.213810807489
 31
0.0
  0
LINE
  5
D6
330
1F
100
AcDbEntity
  8
通り芯
  6
JWW_CENTER2
 62
     4
370
     9
100
AcDbLine
 10
1672.186963521376
 20
1632.768008612298
 30
0.0
 11
1672.186963521376
 21
1659.659613002681
 31
0.0
  0
LINE
  5
D7
330
1F
100
AcDbEntity
  8
通り芯
  6
JWW_CENTER2
 62
     4
370
     9
100
AcDbLine
 10
1587.737933061297
 20
1554.12255900707
 30
0.0
 11
1616.616556994243
 21
1554.12255900707
 31
0.0
  0
LINE
  5
D8
330
1F
100
AcDbEntity
  8
通り芯
  6
JWW_CENTER2
 62
     4
370
     9
100
AcDbLine
 10
1602.17724502777
 20
1539.683596991204
 30
0.0
 11
1602.17724502777
 21
1568.561870973542
 31
0.0
  0
LINE
  5
D9
330
1F
100
AcDbEntity
  8
通り芯
  6
JWW_DASHED1
 62
     4
370
     9
100
AcDbLine
 10
1641.488246485073
 20
1710.169733762741
 30
0.0
 11
1620.052721997486
 21
1630.169975311139
 31
0.0
  0
LINE
  5
DA
330
1F
100
AcDbEntity
  8
通り芯
  6
JWW_DASHED1
 62
     4
370
     9
100
AcDbLine
 10
1641.487896534467
 20
1722.075053389008
 30
0.0
 11
1620.052721997486
 21
1802.075161791216
 31
0.0
  0
LINE
  5
DB
330
1F
100
AcDbEntity
  8
通り芯
  6
Continuous
 62
     4
370
     9
100
AcDbLine
 10
1638.590305514317
 20
1721.298862944238
 30
0.0
 11
1617.154431076123
 21
1801.29862139584
 31
0.0
  0
LINE
  5
DC
330
1F
100
AcDbEntity
  8
通り芯
  6
Continuous
 62
     4
370
     9
100
AcDbLine
 10
1638.590305514317
 20
1710.945924207511
 30
0.0
 11
1617.154431076123
 21
1630.946515706515
 31
0.0
  0
LINE
  5
DD
330
1F
100
AcDbEntity
  8
通り芯
  6
JWW_CENTER2
 62
     4
370
     9
100
AcDbLine
 10
1462.177055323906
 20
1540.676406861272
 30
0.0
 11
1462.177055323906
 21
1567.568361202262
 31
0.0
  0
LINE
  5
DE
330
1F
100
AcDbEntity
  8
通り芯
  6
JWW_CENTER2
 62
     4
370
     9
100
AcDbLine
 10
1475.622857519098
 20
1554.12255900707
 30
0.0
 11
1448.731253128714
 21
1554.12255900707
 31
0.0
  0
LINE
  5
DF
330
1F
100
AcDbEntity
  8
通り芯
  6
Continuous
 62
     4
370
     9
100
AcDbLine
 10
-2088.555827260478
 20
1065.21671551535
 30
0.0
 11
899.4438821744734
 21
1065.21671551535
 31
0.0
  0
LINE
  5
E0
330
1F
100
AcDbEntity
  8
通り芯
  6
Continuous
 62
     4
370
     9
100
AcDbLine
 10
-590.5558621377099
 20
783.2221425776313
 30
0.0
 11
-590.5558621377099
 21
1065.21671551535
 31
0.0
  0
LINE
  5
E1
330
1F
100
AcDbEntity
  8
通り芯
  6
Continuous
 62
     4
370
     9
100
AcDbLine
 10
-2088.555827260478
 20
1047.216306179186
 30
0.0
 11
-594.5559725430021
 21
1047.216306179186
 31
0.0
  0
LINE
  5
E2
330
1F
100
AcDbEntity
  8
通り芯
  6
Continuous
 62
     4
370
     9
100
AcDbLine
 10
-590.5558621377099
 20
1047.216306179186
 30
0.0
 11
899.4438821744734
 21
1047.216306179186
 31
0.0
  0
LINE
  5
E3
330
1F
100
AcDbEntity
  8
通り芯
  6
JWW_CENTER2
 62
     4
370
     9
100
AcDbLine
 10
1462.177405274512
 20
1864.676425949487
 30
0.0
 11
1462.177405274512
 21
1891.568380290477
 31
0.0
  0
LINE
  5
E4
330
1F
100
AcDbEntity
  8
1-0ﾚｲﾔ
  6
JWW_CENTER2
 62
     4
370
     9
100
AcDbLine
 10
18.44393071981017
 20
92.60022025771121
 30
0.0
 11
18.44393071981017
 21
26.2758315990331
 31
0.0
  0
LINE
  5
E5
330
1F
100
AcDbEntity
  8
1-0ﾚｲﾔ
  6
JWW_CENTER2
 62
     4
370
     9
100
AcDbLine
 10
-14.70619031361196
 20
59.42542770654541
 30
0.0
 11
51.59405175323172
 21
59.42542770654541
 31
0.0
  0
LINE
  5
E6
330
1F
100
AcDbEntity
  8
1-0ﾚｲﾔ
  6
JWW_CENTER2
 62
     4
370
     9
100
AcDbLine
 10
18.44393071981017
 20
-257.3999040513425
 30
0.0
 11
18.44393071981017
 21
-323.7242927100209
 31
0.0
  0
LINE
  5
E7
330
1F
100
AcDbEntity
  8
1-0ﾚｲﾔ
  6
JWW_CENTER2
 62
     4
370
     9
100
AcDbLine
 10
-14.70619031361196
 20
-290.5748715778117
 30
0.0
 11
51.59405175323172
 21
-290.5748715778117
 31
0.0
  0
LINE
  5
E8
330
1F
100
AcDbEntity
  8
1-0ﾚｲﾔ
  6
JWW_CENTER2
 62
     4
370
     9
100
AcDbLine
 10
248.4433674996421
 20
-432.399878718218
 30
0.0
 11
248.4433674996421
 21
-498.7242673768961
 31
0.0
  0
LINE
  5
E9
330
1F
100
AcDbEntity
  8
1-0ﾚｲﾔ
  6
JWW_CENTER2
 62
     4
370
     9
100
AcDbLine
 10
215.2932464662206
 20
-465.5746712693838
 30
0.0
 11
281.5934885330643
 21
-465.5746712693838
 31
0.0
  0
LINE
  5
EA
330
1F
100
AcDbEntity
  8
1-0ﾚｲﾔ
  6
JWW_CENTER2
 62
     4
370
     9
100
AcDbLine
 10
598.4433168333925
 20
-432.399878718218
 30
0.0
 11
598.4433168333925
 21
-498.7242673768961
 31
0.0
  0
LINE
  5
EB
330
1F
100
AcDbEntity
  8
1-0ﾚｲﾔ
  6
JWW_CENTER2
 62
     4
370
     9
100
AcDbLine
 10
565.2931957999709
 20
-465.5746712693838
 30
0.0
 11
631.5934378668146
 21
-465.5746712693838
 31
0.0
  0
LINE
  5
EC
330
1F
100
AcDbEntity
  8
1-0ﾚｲﾔ
  6
JWW_CENTER2
 62
     4
370
     9
100
AcDbLine
 10
828.4434535144374
 20
-257.3999040513425
 30
0.0
 11
828.4434535144374
 21
-323.7242927100209
 31
0.0
  0
LINE
  5
ED
330
1F
100
AcDbEntity
  8
1-0ﾚｲﾔ
  6
JWW_CENTER2
 62
     4
370
     9
100
AcDbLine
 10
795.2933324810158
 20
-290.5748715778117
 30
0.0
 11
861.5935745478595
 21
-290.5748715778117
 31
0.0
  0
LINE
  5
EE
330
1F
100
AcDbEntity
  8
1-0ﾚｲﾔ
  6
JWW_CENTER2
 62
     4
370
     9
100
AcDbLine
 10
828.4434535144374
 20
92.60022025771121
 30
0.0
 11
828.4434535144374
 21
26.2758315990331
 31
0.0
  0
LINE
  5
EF
330
1F
100
AcDbEntity
  8
1-0ﾚｲﾔ
  6
JWW_CENTER2
 62
     4
370
     9
100
AcDbLine
 10
795.2933324810158
 20
59.42542770654541
 30
0.0
 11
861.5935745478595
 21
59.42542770654541
 31
0.0
  0
LINE
  5
F0
330
1F
100
AcDbEntity
  8
1-0ﾚｲﾔ
  6
Continuous
 62
     4
370
     9
100
AcDbLine
 10
410.5016438196981
 20
-381.3706062337147
 30
0.0
 11
210.5027726166037
 21
-327.7812700888364
 31
0.0
  0
LINE
  5
F1
330
1F
100
AcDbEntity
  8
1-0ﾚｲﾔ
  6
Continuous
 62
     4
370
     9
100
AcDbLine
 10
636.3842616670377
 20
-327.7805701876238
 30
0.0
 11
436.3832907603052
 21
-381.3706062337147
 31
0.0
  0
LINE
  5
F2
330
1F
100
AcDbEntity
  8
通り芯
  6
Continuous
 62
     4
370
     9
100
AcDbLine
 10
1398.177038592261
 20
1868.122389569706
 30
0.0
 11
1420.177033407808
 21
1868.122389569706
 31
0.0
  0
LINE
  5
F3
330
1F
100
AcDbEntity
  8
通り芯
  6
Continuous
 62
     4
370
     9
100
AcDbLine
 10
1420.177033407808
 20
1564.122747532649
 30
0.0
 11
1398.177038592261
 21
1564.122747532649
 31
0.0
  0
LINE
  5
F4
330
1F
100
AcDbEntity
  8
通り芯
  6
JWW_DASHED1
 62
     4
370
     9
100
AcDbLine
 10
1398.177388542867
 20
1561.122620984854
 30
0.0
 11
1420.177383358414
 21
1561.122620984854
 31
0.0
  0
LINE
  5
F5
330
1F
100
AcDbEntity
  8
通り芯
  6
JWW_DASHED1
 62
     4
370
     9
100
AcDbLine
 10
1420.177383358414
 20
1871.122166166894
 30
0.0
 11
1398.177388542867
 21
1871.122166166894
 31
0.0
  0
LINE
  5
F6
330
1F
100
AcDbEntity
  8
通り芯
  6
JWW_DASHED1
 62
     4
370
     9
100
AcDbLine
 10
1708.177283675514
 20
1524.122693331545
 30
0.0
 11
1708.177283675514
 21
1908.12244377081
 31
0.0
  0
LINE
  5
F7
330
1F
100
AcDbEntity
  8
1-0ﾚｲﾔ
  6
JWW_DASHED1
 62
     4
370
     9
100
AcDbLine
 10
-56.55643337021502
 20
-555.5747932218676
 30
0.0
 11
903.4438176044625
 21
-555.5747932218676
 31
0.0
  0
LINE
  5
F8
330
1F
100
AcDbEntity
  8
通り芯
  6
Continuous
 62
     4
370
     9
100
AcDbLine
 10
1429.177063100586
 20
1616.12260802372
 30
0.0
 11
1597.835757806034
 21
1616.12260802372
 31
0.0
  0
LINE
  5
F9
330
1F
100
AcDbEntity
  8
通り芯
  6
JWW_DASHED1
 62
     4
370
     9
100
AcDbLine
 10
1429.177413051193
 20
1613.122831426532
 30
0.0
 11
1597.83610775664
 21
1613.122831426532
 31
0.0
  0
LINE
  5
FA
330
1F
100
AcDbEntity
  8
通り芯
  6
Continuous
 62
     4
370
     9
100
AcDbLine
 10
1429.177063100586
 20
1816.122529078634
 30
0.0
 11
1597.835757806034
 21
1816.122529078634
 31
0.0
  0
LINE
  5
FB
330
1F
100
AcDbEntity
  8
通り芯
  6
JWW_DASHED1
 62
     4
370
     9
100
AcDbLine
 10
1596.83594892384
 20
1819.122305675823
 30
0.0
 11
1429.177063100586
 21
1819.122305675823
 31
0.0
  0
LINE
  5
FC
330
1F
100
AcDbEntity
  8
1-0ﾚｲﾔ
  6
JWW_DASHED1
 62
     4
370
     9
100
AcDbLine
 10
208.5622965046798
 20
-335.0255975898168
 30
0.0
 11
408.5611677077742
 21
-388.6152836853012
 31
0.0
  0
LINE
  5
FD
330
1F
100
AcDbEntity
  8
1-0ﾚｲﾔ
  6
JWW_DASHED1
 62
     4
370
     9
100
AcDbLine
 10
638.3254376801744
 20
-335.0254226145137
 30
0.0
 11
438.3251666746543
 21
-388.6152836853012
 31
0.0
  0
LINE
  5
FE
330
1F
100
AcDbEntity
  8
092
  6
Continuous
 62
     7
370
     9
100
AcDbLine
 10
704.7198164601122
 20
631.8461085148297
 30
0.0
 11
813.4438706272817
 21
761.2163735770812
 31
0.0
  0
LINE
  5
FF
330
1F
100
AcDbEntity
  8
通り芯
  6
Continuous
 62
     4
370
     9
100
AcDbLine
 10
-2084.555891830489
 20
760.7939831952788
 30
0.0
 11
-2002.555815713286
 21
760.7939831952788
 31
0.0
  0
LINE
  5
100
330
1F
100
AcDbEntity
  8
通り芯
  6
Continuous
 62
     4
370
     9
100
AcDbLine
 10
895.4439467444843
 20
761.2163735770812
 30
0.0
 11
813.4438706272817
 21
761.2163735770812
 31
0.0
  0
LINE
  5
101
330
1F
100
AcDbEntity
  8
躯体
  6
JWW_CENTER2
 62
     7
370
     9
100
AcDbLine
 10
1392.177135447277
 20
1716.122393575874
 30
0.0
 11
1748.242778639996
 21
1716.122393575874
 31
0.0
  0
LINE
  5
102
330
1F
100
AcDbEntity
  8
通り芯
  6
Continuous
 62
     4
370
     9
100
AcDbLine
 10
1712.177219105503
 20
1908.12244377081
 30
0.0
 11
1712.177219105503
 21
1524.122693331545
 31
0.0
  0
LINE
  5
103
330
1F
100
AcDbEntity
  8
1-0ﾚｲﾔ
  6
Continuous
 62
     4
370
     9
100
AcDbLine
 10
-56.55643337021502
 20
-565.5748067721436
 30
0.0
 11
903.4438176044625
 21
-565.5748067721436
 31
0.0
  0
LINE
  5
104
330
1F
100
AcDbEntity
  8
1-1ﾚｲﾔ
  6
JWW_CENTER2
 62
     7
370
     9
100
AcDbLine
 10
423.4438670924271
 20
234.4252273981175
 30
0.0
 11
423.4438670924271
 21
-648.8885974653899
 31
0.0
  0
LINE
  5
105
330
1F
100
AcDbEntity
  8
1-0ﾚｲﾔ
  6
JWW_DASHED1
 62
     4
370
     9
100
AcDbLine
 10
165.9442618178582
 20
-279.4849368642195
 30
0.0
 11
165.9442618178582
 21
141.9255832401481
 31
0.0
  0
LINE
  5
106
330
1F
100
AcDbEntity
  8
1-0ﾚｲﾔ
  6
Continuous
 62
     4
370
     9
100
AcDbLine
 10
173.4440532614366
 20
-124.5516548883961
 30
0.0
 11
173.4440532614366
 21
-279.4849368642195
 31
0.0
  0
LINE
  5
107
330
1F
100
AcDbEntity
  8
1-0ﾚｲﾔ
  6
Continuous
 62
     4
370
     9
100
AcDbLine
 10
673.4433309728109
 20
-279.4842369630069
 30
0.0
 11
673.4433309728109
 21
141.9252332895419
 31
0.0
  0
LINE
  5
108
330
1F
100
AcDbEntity
  8
1-0ﾚｲﾔ
  6
JWW_DASHED1
 62
     4
370
     9
100
AcDbLine
 10
680.9434723669955
 20
-279.4845869136134
 30
0.0
 11
680.9434723669955
 21
141.9255832401481
 31
0.0
  0
LINE
  5
109
330
1F
100
AcDbEntity
  8
092
  6
Continuous
 62
     7
370
     9
100
AcDbLine
 10
-1769.448817549525
 20
631.8461085148297
 30
0.0
 11
-1309.557203850691
 21
631.8461085148297
 31
0.0
  0
LINE
  5
10A
330
1F
100
AcDbEntity
  8
092
  6
Continuous
 62
     7
370
     9
100
AcDbLine
 10
219.2305407376818
 20
631.8461085148297
 30
0.0
 11
704.7198164601122
 21
631.8461085148297
 31
0.0
  0
LINE
  5
10B
330
1F
100
AcDbEntity
  8
通り芯
  6
Continuous
 62
     4
370
     9
100
AcDbLine
 10
-594.5559725430021
 20
783.2219676023285
 30
0.0
 11
-594.5559725430021
 21
1065.21671551535
 31
0.0
  0
LINE
  5
10C
330
1F
100
AcDbEntity
  8
通り芯
  6
Continuous
 62
     4
370
     9
100
AcDbLine
 10
-2088.555827260478
 20
858.816197871241
 30
0.0
 11
-594.5559725430021
 21
858.816197871241
 31
0.0
  0
LINE
  5
10D
330
1F
100
AcDbEntity
  8
通り芯
  6
Continuous
 62
     4
370
     9
100
AcDbLine
 10
-2088.555827260478
 20
831.2162934537096
 30
0.0
 11
-594.5559725430021
 21
831.2162934537096
 31
0.0
  0
LINE
  5
10E
330
1F
100
AcDbEntity
  8
通り芯
  6
Continuous
 62
     4
370
     9
100
AcDbLine
 10
-590.5558621377099
 20
831.2162934537096
 30
0.0
 11
899.4438821744734
 21
831.2162934537096
 31
0.0
  0
LINE
  5
10F
330
1F
100
AcDbEntity
  8
通り芯
  6
Continuous
 62
     4
370
     9
100
AcDbLine
 10
-590.5558621377099
 20
858.816197871241
 30
0.0
 11
899.4438821744734
 21
858.816197871241
 31
0.0
  0
LINE
  5
110
330
1F
100
AcDbEntity
  8
Hojo
  6
Continuous
 62
     7
370
     9
100
AcDbLine
 10
173.4440532614366
 20
307.8824842896699
 30
0.0
 11
673.4433309728109
 21
307.8824842896699
 31
0.0
  0
LINE
  5
111
330
1F
100
AcDbEntity
  8
Hojo
  6
Continuous
 62
     7
370
     9
100
AcDbLine
 10
173.4440532614366
 20
171.9392719646217
 30
0.0
 11
173.4440532614366
 21
310.8824358621618
 31
0.0
  0
LINE
  5
112
330
1F
100
AcDbEntity
  8
Hojo
  6
Continuous
 62
     7
370
     9
100
AcDbLine
 10
673.4433309728109
 20
171.9392719646217
 30
0.0
 11
673.4433309728109
 21
310.8824358621618
 31
0.0
  0
LINE
  5
113
330
1F
100
AcDbEntity
  8
Hojo
  6
Continuous
 62
     7
370
     9
100
AcDbLine
 10
317.7587839903515
 20
234.4252273981175
 30
0.0
 11
317.7587839903515
 21
43.98893148742587
 31
0.0
  0
LINE
  5
114
330
1F
100
AcDbEntity
  8
Hojo
  6
Continuous
 62
     7
370
     9
100
AcDbLine
 10
183.7833439245185
 20
-309.9329142911094
 30
0.0
 11
200.7167538620786
 21
-291.5412601771041
 31
0.0
  0
LINE
  5
115
330
1F
100
AcDbEntity
  8
Hojo
  6
Continuous
 62
     7
370
     9
100
AcDbLine
 10
183.7833439245185
 20
-309.9329142911094
 30
0.0
 11
204.9000634097683
 21
-296.5506281309607
 31
0.0
  0
LINE
  5
116
330
1F
100
AcDbEntity
  8
Hojo
  6
Continuous
 62
     7
370
     9
100
AcDbLine
 10
289.8344753607819
 20
-221.3747638118772
 30
0.0
 11
183.7833439245185
 21
-309.9329142911094
 31
0.0
  0
LINE
  5
117
330
1F
100
AcDbEntity
  8
Hojo
  6
Continuous
 62
     7
370
     9
100
AcDbLine
 10
552.7761625138947
 20
-241.0783827488947
 30
0.0
 11
664.8282469469603
 21
-307.5432765760016
 31
0.0
  0
LINE
  5
118
330
1F
100
AcDbEntity
  8
Hojo
  6
Continuous
 62
     7
370
     9
100
AcDbLine
 10
664.8282469469603
 20
-307.5432765760016
 30
0.0
 11
641.8452408783224
 21
-297.7058150823513
 31
0.0
  0
LINE
  5
119
330
1F
100
AcDbEntity
  8
Hojo
  6
Continuous
 62
     7
370
     9
100
AcDbLine
 10
664.8282469469603
 20
-307.5432765760016
 30
0.0
 11
645.1743209960375
 21
-292.092607357327
 31
0.0
  0
LINE
  5
11A
330
1F
100
AcDbEntity
  8
Hojo
  6
Continuous
 62
     7
370
     9
100
AcDbLine
 10
423.4438670924271
 20
-383.0741657851746
 30
0.0
 11
435.418476938741
 21
-361.1284133136041
 31
0.0
  0
LINE
  5
11B
330
1F
100
AcDbEntity
  8
Hojo
  6
Continuous
 62
     7
370
     9
100
AcDbLine
 10
423.4438670924271
 20
-383.0741657851746
 30
0.0
 11
440.6901328720181
 21
-364.9754203286412
 31
0.0
  0
LINE
  5
11C
330
1F
100
AcDbEntity
  8
Hojo
  6
Continuous
 62
     7
370
     9
100
AcDbLine
 10
511.5694786222741
 20
-262.3067364775537
 30
0.0
 11
423.4438670924271
 21
-383.0741657851746
 31
0.0
  0
LINE
  5
11D
330
1F
100
AcDbEntity
  8
Hojo
  6
Continuous
 62
     7
370
     9
100
AcDbLine
 10
80.72778967816816
 20
-742.1301369087115
 30
0.0
 11
555.442436183281
 21
-742.1301369087115
 31
0.0
  0
LINE
  5
11E
330
1F
100
AcDbEntity
  8
Hojo
  6
Continuous
 62
     7
370
     9
100
AcDbLine
 10
80.72778967816816
 20
-807.1301374978541
 30
0.0
 11
80.72778967816816
 21
-742.1301369087115
 31
0.0
  0
LINE
  5
11F
330
1F
100
AcDbEntity
  8
Hojo
  6
Continuous
 62
     7
370
     9
100
AcDbLine
 10
555.442436183281
 20
-807.1301374978541
 30
0.0
 11
555.442436183281
 21
-742.1301369087115
 31
0.0
  0
LINE
  5
120
330
1F
100
AcDbEntity
  8
_2-a_N_s
  6
Continuous
 62
     2
370
     9
100
AcDbLine
 10
1399.430561664021
 20
87.63984538873643
 30
0.0
 11
1174.429819344554
 21
87.63984538873643
 31
0.0
  0
LINE
  5
121
330
1F
100
AcDbEntity
  8
_2-a_N_s
  6
Continuous
 62
     2
370
     9
100
AcDbLine
 10
1399.430561664021
 20
137.6400881154197
 30
0.0
 11
1399.430561664021
 21
87.63984538873643
 31
0.0
  0
LINE
  5
122
330
1F
100
AcDbEntity
  8
_2-a_N_s
  6
Continuous
 62
     2
370
     9
100
AcDbLine
 10
1174.429819344554
 20
137.6400881154197
 30
0.0
 11
1399.430561664021
 21
137.6400881154197
 31
0.0
  0
LINE
  5
123
330
1F
100
AcDbEntity
  8
_2-a_N_s
  6
Continuous
 62
     2
370
     9
100
AcDbLine
 10
1174.429819344554
 20
87.63984538873643
 30
0.0
 11
1174.429819344554
 21
137.6400881154197
 31
0.0
  0
LINE
  5
124
330
1F
100
AcDbEntity
  8
Yobi_3
  6
JWW_CENTER1
 62
     4
370
     9
100
AcDbLine
 10
737.5227864920862
 20
-1272.500577888894
 30
0.0
 11
709.3769591287293
 21
-1272.500577888894
 31
0.0
  0
LINE
  5
125
330
1F
100
AcDbEntity
  8
Yobi_3
  6
JWW_CENTER1
 62
     4
370
     9
100
AcDbLine
 10
723.4505727116203
 20
-1286.573841521179
 30
0.0
 11
723.4505727116203
 21
-1258.427489231912
 31
0.0
  0
LINE
  5
126
330
1F
100
AcDbEntity
  8
Yobi_3
  6
JWW_CENTER1
 62
     4
370
     9
100
AcDbLine
 10
737.5227864920862
 20
-1562.493796859469
 30
0.0
 11
709.3769591287293
 21
-1562.493796859469
 31
0.0
  0
LINE
  5
127
330
1F
100
AcDbEntity
  8
Yobi_3
  6
JWW_CENTER1
 62
     4
370
     9
100
AcDbLine
 10
723.4505727116203
 20
-1576.56688551645
 30
0.0
 11
723.4505727116203
 21
-1548.420708202487
 31
0.0
  0
LINE
  5
128
330
1F
100
AcDbEntity
  8
Yobi_3
  6
JWW_CENTER1
 62
     4
370
     9
100
AcDbLine
 10
829.6227870576627
 20
-1632.494504124962
 30
0.0
 11
801.4769596943063
 21
-1632.494504124962
 31
0.0
  0
LINE
  5
129
330
1F
100
AcDbEntity
  8
Yobi_3
  6
JWW_CENTER1
 62
     4
370
     9
100
AcDbLine
 10
815.5491734747716
 20
-1646.567680269595
 30
0.0
 11
815.5491734747716
 21
-1618.421502955632
 31
0.0
  0
LINE
  5
12A
330
1F
100
AcDbEntity
  8
Yobi_3
  6
Continuous
 62
     4
370
     9
100
AcDbLine
 10
693.5479933046463
 20
-1672.495214483453
 30
0.0
 11
1077.54879359573
 21
-1672.495214483453
 31
0.0
  0
LINE
  5
12B
330
1F
100
AcDbEntity
  8
Yobi_3
  6
JWW_DASHED2
 62
     4
370
     9
100
AcDbLine
 10
693.5479933046463
 20
-1668.494929102857
 30
0.0
 11
1077.54879359573
 21
-1668.494929102857
 31
0.0
  0
LINE
  5
12C
330
1F
100
AcDbEntity
  8
Yobi_3
  6
JWW_CENTER2
 62
     7
370
     9
100
AcDbLine
 10
885.5490933514005
 20
-1205.031325821711
 30
0.0
 11
885.5490933514005
 21
-1704.284421352806
 31
0.0
  0
LINE
  5
12D
330
1F
100
AcDbEntity
  8
Yobi_3
  6
Continuous
 62
     4
370
     9
100
AcDbLine
 10
880.3726239830365
 20
-1598.002235028735
 30
0.0
 11
800.3711157784034
 21
-1576.565485714025
 31
0.0
  0
LINE
  5
12E
330
1F
100
AcDbEntity
  8
Yobi_3
  6
Continuous
 62
     4
370
     9
100
AcDbLine
 10
890.7255627197645
 20
-1598.001272664567
 30
0.0
 11
970.7277708256106
 21
-1576.564435862206
 31
0.0
  0
LINE
  5
12F
330
1F
100
AcDbEntity
  8
Yobi_3
  6
JWW_CENTER1
 62
     4
370
     9
100
AcDbLine
 10
185.3231265922307
 20
-1272.500577888894
 30
0.0
 11
157.1765993276614
 21
-1272.500577888894
 31
0.0
  0
LINE
  5
130
330
1F
100
AcDbEntity
  8
Yobi_3
  6
JWW_CENTER1
 62
     4
370
     9
100
AcDbLine
 10
171.2502129105525
 20
-1286.573841521179
 30
0.0
 11
171.2502129105525
 21
-1258.427489231912
 31
0.0
  0
LINE
  5
131
330
1F
100
AcDbEntity
  8
Yobi_3
  6
JWW_CENTER1
 62
     4
370
     9
100
AcDbLine
 10
185.3231265922307
 20
-1387.493822192593
 30
0.0
 11
157.1765993276614
 21
-1387.493822192593
 31
0.0
  0
LINE
  5
132
330
1F
100
AcDbEntity
  8
Yobi_3
  6
JWW_CENTER1
 62
     4
370
     9
100
AcDbLine
 10
171.2502129105525
 20
-1401.566910849575
 30
0.0
 11
171.2502129105525
 21
-1373.420733535612
 31
0.0
  0
LINE
  5
133
330
1F
100
AcDbEntity
  8
Yobi_3
  6
JWW_CENTER1
 62
     4
370
     9
100
AcDbLine
 10
277.4224272565948
 20
-1457.494616945738
 30
0.0
 11
249.2765998932384
 21
-1457.494616945738
 31
0.0
  0
LINE
  5
134
330
1F
100
AcDbEntity
  8
Yobi_3
  6
JWW_CENTER1
 62
     4
370
     9
100
AcDbLine
 10
263.3495135749166
 20
-1471.56770560272
 30
0.0
 11
263.3495135749166
 21
-1443.421528288756
 31
0.0
  0
LINE
  5
135
330
1F
100
AcDbEntity
  8
Yobi_3
  6
Continuous
 62
     4
370
     9
100
AcDbLine
 10
141.3483334047913
 20
-1497.495196072751
 30
0.0
 11
525.3491336958746
 21
-1497.495196072751
 31
0.0
  0
LINE
  5
136
330
1F
100
AcDbEntity
  8
Yobi_3
  6
JWW_DASHED2
 62
     4
370
     9
100
AcDbLine
 10
141.3483334047913
 20
-1493.494910692156
 30
0.0
 11
525.3491336958746
 21
-1493.494910692156
 31
0.0
  0
LINE
  5
137
330
1F
100
AcDbEntity
  8
Yobi_3
  6
JWW_CENTER2
 62
     7
370
     9
100
AcDbLine
 10
333.3487335503327
 20
-1205.031325821711
 30
0.0
 11
333.3487335503327
 21
-1529.284534173582
 31
0.0
  0
LINE
  5
138
330
1F
100
AcDbEntity
  8
Yobi_3
  6
Continuous
 62
     4
370
     9
100
AcDbLine
 10
328.1729640831816
 20
-1423.002260361859
 30
0.0
 11
248.1707559773361
 21
-1401.56551104715
 31
0.0
  0
LINE
  5
139
330
1F
100
AcDbEntity
  8
Yobi_3
  6
Continuous
 62
     4
370
     9
100
AcDbLine
 10
338.5259028199096
 20
-1423.001297997692
 30
0.0
 11
418.5274110245427
 21
-1401.564461195331
 31
0.0
  0
LINE
  5
13A
330
1F
100
AcDbEntity
  8
Yobi_3
  6
JWW_CENTER1
 62
     4
370
     9
100
AcDbLine
 10
-366.8772332088372
 20
-1272.500577888894
 30
0.0
 11
-395.0237604734059
 21
-1272.500577888894
 31
0.0
  0
LINE
  5
13B
330
1F
100
AcDbEntity
  8
Yobi_3
  6
JWW_CENTER1
 62
     4
370
     9
100
AcDbLine
 10
-380.9508467917277
 20
-1286.573841521179
 30
0.0
 11
-380.9508467917277
 21
-1258.427489231912
 31
0.0
  0
LINE
  5
13C
330
1F
100
AcDbEntity
  8
Yobi_3
  6
JWW_CENTER1
 62
     4
370
     9
100
AcDbLine
 10
-274.7779325444731
 20
-1382.49460280632
 30
0.0
 11
-302.9237599078294
 21
-1382.49460280632
 31
0.0
  0
LINE
  5
13D
330
1F
100
AcDbEntity
  8
Yobi_3
  6
JWW_CENTER1
 62
     4
370
     9
100
AcDbLine
 10
-288.8508462261512
 20
-1396.567691463301
 30
0.0
 11
-288.8508462261512
 21
-1368.421514149338
 31
0.0
  0
LINE
  5
13E
330
1F
100
AcDbEntity
  8
Yobi_3
  6
Continuous
 62
     4
370
     9
100
AcDbLine
 10
-410.8520263962765
 20
-1422.495181933333
 30
0.0
 11
-26.85122610519329
 21
-1422.495181933333
 31
0.0
  0
LINE
  5
13F
330
1F
100
AcDbEntity
  8
Yobi_3
  6
JWW_DASHED2
 62
     4
370
     9
100
AcDbLine
 10
-410.8520263962765
 20
-1418.494896552737
 30
0.0
 11
-26.85122610519329
 21
-1418.494896552737
 31
0.0
  0
LINE
  5
140
330
1F
100
AcDbEntity
  8
Yobi_3
  6
JWW_CENTER2
 62
     7
370
     9
100
AcDbLine
 10
-218.8516262507346
 20
-1205.031325821711
 30
0.0
 11
-218.8516262507346
 21
-1454.284520034164
 31
0.0
  0
LINE
  5
141
330
1F
100
AcDbEntity
  8
Yobi_3
  6
Continuous
 62
     4
370
     9
100
AcDbLine
 10
-224.0280956190986
 20
-1348.002246222441
 30
0.0
 11
-304.0296038237318
 21
-1326.565496907731
 31
0.0
  0
LINE
  5
142
330
1F
100
AcDbEntity
  8
Yobi_3
  6
Continuous
 62
     4
370
     9
100
AcDbLine
 10
-213.6744569811583
 20
-1348.001371345925
 30
0.0
 11
-133.673648677738
 21
-1326.564622031216
 31
0.0
  0
LINE
  5
143
330
1F
100
AcDbEntity
  8
Yobi_3
  6
JWW_CENTER1
 62
     4
370
     9
100
AcDbLine
 10
737.5227864920862
 20
-1417.497187374181
 30
0.0
 11
709.3769591287293
 21
-1417.497187374181
 31
0.0
  0
LINE
  5
144
330
1F
100
AcDbEntity
  8
Yobi_3
  6
JWW_CENTER1
 62
     4
370
     9
100
AcDbLine
 10
723.4505727116203
 20
-1431.570451006466
 30
0.0
 11
723.4505727116203
 21
-1403.4240987172
 31
0.0
  0
LINE
  5
145
330
1F
100
AcDbEntity
  8
Yobi_3
  6
JWW_CENTER1
 62
     4
370
     9
100
AcDbLine
 10
1033.575400210716
 20
-1272.500577888894
 30
0.0
 11
1061.722627376497
 21
-1272.500577888894
 31
0.0
  0
LINE
  5
146
330
1F
100
AcDbEntity
  8
Yobi_3
  6
JWW_CENTER1
 62
     4
370
     9
100
AcDbLine
 10
1047.649013793607
 20
-1286.573841521179
 30
0.0
 11
1047.649013793607
 21
-1258.427489231912
 31
0.0
  0
LINE
  5
147
330
1F
100
AcDbEntity
  8
Yobi_3
  6
JWW_CENTER1
 62
     4
370
     9
100
AcDbLine
 10
1033.575400210716
 20
-1562.493796859469
 30
0.0
 11
1061.722627376497
 21
-1562.493796859469
 31
0.0
  0
LINE
  5
148
330
1F
100
AcDbEntity
  8
Yobi_3
  6
JWW_CENTER1
 62
     4
370
     9
100
AcDbLine
 10
1047.649013793607
 20
-1576.56688551645
 30
0.0
 11
1047.649013793607
 21
-1548.420708202487
 31
0.0
  0
LINE
  5
149
330
1F
100
AcDbEntity
  8
Yobi_3
  6
JWW_CENTER1
 62
     4
370
     9
100
AcDbLine
 10
941.4760995463513
 20
-1632.494504124962
 30
0.0
 11
969.6219269097077
 21
-1632.494504124962
 31
0.0
  0
LINE
  5
14A
330
1F
100
AcDbEntity
  8
Yobi_3
  6
JWW_CENTER1
 62
     4
370
     9
100
AcDbLine
 10
955.5490132280295
 20
-1646.567680269595
 30
0.0
 11
955.5490132280295
 21
-1618.421502955632
 31
0.0
  0
LINE
  5
14B
330
1F
100
AcDbEntity
  8
Yobi_3
  6
JWW_CENTER1
 62
     4
370
     9
100
AcDbLine
 10
1033.575400210716
 20
-1417.497187374181
 30
0.0
 11
1061.722627376497
 21
-1417.497187374181
 31
0.0
  0
LINE
  5
14C
330
1F
100
AcDbEntity
  8
Yobi_3
  6
JWW_CENTER1
 62
     4
370
     9
100
AcDbLine
 10
1047.649013793607
 20
-1431.570451006466
 30
0.0
 11
1047.649013793607
 21
-1403.4240987172
 31
0.0
  0
LINE
  5
14D
330
1F
100
AcDbEntity
  8
Yobi_3
  6
JWW_CENTER1
 62
     4
370
     9
100
AcDbLine
 10
481.3750404096476
 20
-1272.500577888894
 30
0.0
 11
509.5215676742168
 21
-1272.500577888894
 31
0.0
  0
LINE
  5
14E
330
1F
100
AcDbEntity
  8
Yobi_3
  6
JWW_CENTER1
 62
     4
370
     9
100
AcDbLine
 10
495.4479540913258
 20
-1286.573841521179
 30
0.0
 11
495.4479540913258
 21
-1258.427489231912
 31
0.0
  0
LINE
  5
14F
330
1F
100
AcDbEntity
  8
Yobi_3
  6
JWW_CENTER1
 62
     4
370
     9
100
AcDbLine
 10
481.3750404096476
 20
-1387.493822192593
 30
0.0
 11
509.5215676742168
 21
-1387.493822192593
 31
0.0
  0
LINE
  5
150
330
1F
100
AcDbEntity
  8
Yobi_3
  6
JWW_CENTER1
 62
     4
370
     9
100
AcDbLine
 10
495.4479540913258
 20
-1401.566910849575
 30
0.0
 11
495.4479540913258
 21
-1373.420733535612
 31
0.0
  0
LINE
  5
151
330
1F
100
AcDbEntity
  8
Yobi_3
  6
JWW_CENTER1
 62
     4
370
     9
100
AcDbLine
 10
389.2757397452834
 20
-1457.494616945738
 30
0.0
 11
417.4215671086404
 21
-1457.494616945738
 31
0.0
  0
LINE
  5
152
330
1F
100
AcDbEntity
  8
Yobi_3
  6
JWW_CENTER1
 62
     4
370
     9
100
AcDbLine
 10
403.3486534269616
 20
-1471.56770560272
 30
0.0
 11
403.3486534269616
 21
-1443.421528288756
 31
0.0
  0
LINE
  5
153
330
1F
100
AcDbEntity
  8
Yobi_3
  6
JWW_CENTER1
 62
     4
370
     9
100
AcDbLine
 10
-70.8253193914203
 20
-1272.500577888894
 30
0.0
 11
-42.67879212685102
 21
-1272.500577888894
 31
0.0
  0
LINE
  5
154
330
1F
100
AcDbEntity
  8
Yobi_3
  6
JWW_CENTER1
 62
     4
370
     9
100
AcDbLine
 10
-56.75170580852921
 20
-1286.573841521179
 30
0.0
 11
-56.75170580852921
 21
-1258.427489231912
 31
0.0
  0
LINE
  5
155
330
1F
100
AcDbEntity
  8
Yobi_3
  6
JWW_CENTER1
 62
     4
370
     9
100
AcDbLine
 10
-162.9246200557844
 20
-1382.49460280632
 30
0.0
 11
-134.7787926924275
 21
-1382.49460280632
 31
0.0
  0
LINE
  5
156
330
1F
100
AcDbEntity
  8
Yobi_3
  6
JWW_CENTER1
 62
     4
370
     9
100
AcDbLine
 10
-148.8517063741062
 20
-1396.567691463301
 30
0.0
 11
-148.8517063741062
 21
-1368.421514149338
 31
0.0
  0
LINE
  5
157
330
1F
100
AcDbEntity
  8
092
  6
Continuous
 62
     7
370
     9
100
AcDbLine
 10
-2003.238219395568
 20
760.7939831952788
 30
0.0
 11
-1979.95854270044
 21
751.6805695060598
 31
0.0
  0
LINE
  5
158
330
1F
100
AcDbEntity
  8
092
  6
Continuous
 62
     7
370
     9
100
AcDbLine
 10
-2003.238219395568
 20
760.7939831952788
 30
0.0
 11
-1983.110460323717
 21
745.9658761052092
 31
0.0
  0
LINE
  5
159
330
1F
100
AcDbEntity
  8
092
  6
Continuous
 62
     7
370
     9
100
AcDbLine
 10
-625.2704373565882
 20
775.2220967423502
 30
0.0
 11
-602.635107215307
 21
764.6087947545366
 31
0.0
  0
LINE
  5
15A
330
1F
100
AcDbEntity
  8
092
  6
Continuous
 62
     7
370
     9
100
AcDbLine
 10
-625.2704373565882
 20
775.2220967423502
 30
0.0
 11
-606.1533356357268
 21
759.1119456061065
 31
0.0
  0
LINE
  5
15B
330
1F
100
AcDbEntity
  8
092
  6
Continuous
 62
     7
370
     9
100
AcDbLine
 10
813.4438706272817
 20
761.2163735770812
 30
0.0
 11
799.995268827239
 21
740.1419981151932
 31
0.0
  0
LINE
  5
15C
330
1F
100
AcDbEntity
  8
092
  6
Continuous
 62
     7
370
     9
100
AcDbLine
 10
813.4438706272817
 20
761.2163735770812
 30
0.0
 11
794.999024021119
 21
744.3407054895599
 31
0.0
  0
LINE
  5
15D
330
1F
100
AcDbEntity
  8
Yobi_3
  6
Continuous
 62
     4
370
     9
100
AcDbLine
 10
-410.8520263962765
 20
-1208.494349533987
 30
0.0
 11
-410.8520263962765
 21
-1422.495181933333
 31
0.0
  0
LINE
  5
15E
330
1F
100
AcDbEntity
  8
Yobi_3
  6
Continuous
 62
     4
370
     9
100
AcDbLine
 10
-376.8520503154593
 20
-1202.494358901352
 30
0.0
 11
-404.8519482759895
 21
-1202.494358901352
 31
0.0
  0
LINE
  5
15F
330
1F
100
AcDbEntity
  8
Yobi_3
  6
Continuous
 62
     4
370
     9
100
AcDbLine
 10
-118.8527155750967
 20
-1239.49428655466
 30
0.0
 11
-118.8539404022191
 21
-1307.247173588248
 31
0.0
  0
LINE
  5
160
330
1F
100
AcDbEntity
  8
Yobi_3
  6
Continuous
 62
     4
370
     9
100
AcDbLine
 10
-32.851129250177
 20
-1202.494358901352
 30
0.0
 11
-60.85050228479759
 21
-1202.494358901352
 31
0.0
  0
LINE
  5
161
330
1F
100
AcDbEntity
  8
Yobi_3
  6
Continuous
 62
     4
370
     9
100
AcDbLine
 10
-26.85122610519329
 20
-1208.494349533987
 30
0.0
 11
-26.85122610519329
 21
-1422.495181933333
 31
0.0
  0
LINE
  5
162
330
1F
100
AcDbEntity
  8
Yobi_3
  6
Continuous
 62
     4
370
     9
100
AcDbLine
 10
141.3483334047913
 20
-1208.494349533987
 30
0.0
 11
141.3483334047913
 21
-1497.495196072751
 31
0.0
  0
LINE
  5
163
330
1F
100
AcDbEntity
  8
Yobi_3
  6
Continuous
 62
     4
370
     9
100
AcDbLine
 10
175.3484844609113
 20
-1202.494358901352
 30
0.0
 11
147.348236549775
 21
-1202.494358901352
 31
0.0
  0
LINE
  5
164
330
1F
100
AcDbEntity
  8
Yobi_3
  6
Continuous
 62
     4
370
     9
100
AcDbLine
 10
233.3482480969667
 20
-1239.494374042312
 30
0.0
 11
233.3475481957538
 21
-1382.24683777706
 31
0.0
  0
LINE
  5
165
330
1F
100
AcDbEntity
  8
Yobi_3
  6
Continuous
 62
     4
370
     9
100
AcDbLine
 10
433.347819201274
 20
-1239.494374042312
 30
0.0
 11
433.3471193000616
 21
-1382.247012752364
 31
0.0
  0
LINE
  5
166
330
1F
100
AcDbEntity
  8
Yobi_3
  6
Continuous
 62
     4
370
     9
100
AcDbLine
 10
-318.8522866794045
 20
-1239.494461529964
 30
0.0
 11
-318.8535115065264
 21
-1307.246823637642
 31
0.0
  0
LINE
  5
167
330
1F
100
AcDbEntity
  8
Yobi_3
  6
Continuous
 62
     4
370
     9
100
AcDbLine
 10
519.3492305508909
 20
-1202.494358901352
 30
0.0
 11
491.3496825409669
 21
-1202.494358901352
 31
0.0
  0
LINE
  5
168
330
1F
100
AcDbEntity
  8
Yobi_3
  6
Continuous
 62
     4
370
     9
100
AcDbLine
 10
525.3491336958746
 20
-1208.494349533987
 30
0.0
 11
525.3491336958746
 21
-1497.495196072751
 31
0.0
  0
LINE
  5
169
330
1F
100
AcDbEntity
  8
Yobi_3
  6
Continuous
 62
     4
370
     9
100
AcDbLine
 10
693.5479933046463
 20
-1208.494349533987
 30
0.0
 11
693.5479933046463
 21
-1672.495214483453
 31
0.0
  0
LINE
  5
16A
330
1F
100
AcDbEntity
  8
Yobi_3
  6
Continuous
 62
     4
370
     9
100
AcDbLine
 10
727.5488442619792
 20
-1202.494358901352
 30
0.0
 11
699.54789644963
 21
-1202.494358901352
 31
0.0
  0
LINE
  5
16B
330
1F
100
AcDbEntity
  8
Yobi_3
  6
Continuous
 62
     4
370
     9
100
AcDbLine
 10
785.5486078980346
 20
-1239.494374042312
 30
0.0
 11
785.5472080956093
 21
-1557.246812443936
 31
0.0
  0
LINE
  5
16C
330
1F
100
AcDbEntity
  8
Yobi_3
  6
Continuous
 62
     4
370
     9
100
AcDbLine
 10
985.5481790023418
 20
-1239.494374042312
 30
0.0
 11
985.5467791999166
 21
-1557.247162394542
 31
0.0
  0
LINE
  5
16D
330
1F
100
AcDbEntity
  8
Yobi_3
  6
Continuous
 62
     4
370
     9
100
AcDbLine
 10
1071.548890450747
 20
-1202.494358901352
 30
0.0
 11
1043.550042342035
 21
-1202.494358901352
 31
0.0
  0
LINE
  5
16E
330
1F
100
AcDbEntity
  8
Yobi_3
  6
Continuous
 62
     4
370
     9
100
AcDbLine
 10
1077.54879359573
 20
-1208.494349533987
 30
0.0
 11
1077.54879359573
 21
-1672.495214483453
 31
0.0
  0
LINE
  5
16F
330
1F
100
AcDbEntity
  8
Yobi_3
  6
Continuous
 62
     4
370
     9
100
AcDbLine
 10
-370.8519721951728
 20
-1230.494344349533
 30
0.0
 11
-370.8519721951728
 21
-1208.494349533987
 31
0.0
  0
LINE
  5
170
330
1F
100
AcDbEntity
  8
Yobi_3
  6
Continuous
 62
     4
370
     9
100
AcDbLine
 10
-367.8520206226807
 20
-1233.494383409677
 30
0.0
 11
-324.8521898243882
 21
-1233.494383409677
 31
0.0
  0
LINE
  5
171
330
1F
100
AcDbEntity
  8
Yobi_3
  6
Continuous
 62
     4
370
     9
100
AcDbLine
 10
-69.85263168121435
 20
-1233.494383409677
 30
0.0
 11
-112.8526374548102
 21
-1233.494383409677
 31
0.0
  0
LINE
  5
172
330
1F
100
AcDbEntity
  8
Yobi_3
  6
Continuous
 62
     4
370
     9
100
AcDbLine
 10
-66.85268010872221
 20
-1230.494344349533
 30
0.0
 11
-66.85268010872221
 21
-1208.494349533987
 31
0.0
  0
LINE
  5
173
330
1F
100
AcDbEntity
  8
Yobi_3
  6
Continuous
 62
     4
370
     9
100
AcDbLine
 10
181.348387605895
 20
-1230.494344349533
 30
0.0
 11
181.348387605895
 21
-1208.494349533987
 31
0.0
  0
LINE
  5
174
330
1F
100
AcDbEntity
  8
Yobi_3
  6
Continuous
 62
     4
370
     9
100
AcDbLine
 10
184.34851415369
 20
-1233.494383409677
 30
0.0
 11
227.348344951983
 21
-1233.494383409677
 31
0.0
  0
LINE
  5
175
330
1F
100
AcDbEntity
  8
Yobi_3
  6
Continuous
 62
     4
370
     9
100
AcDbLine
 10
482.3496528481883
 20
-1233.494383409677
 30
0.0
 11
439.3477223462577
 21
-1233.494383409677
 31
0.0
  0
LINE
  5
176
330
1F
100
AcDbEntity
  8
Yobi_3
  6
Continuous
 62
     4
370
     9
100
AcDbLine
 10
485.3497793959832
 20
-1230.494344349533
 30
0.0
 11
485.3497793959832
 21
-1208.494349533987
 31
0.0
  0
LINE
  5
177
330
1F
100
AcDbEntity
  8
Yobi_3
  6
Continuous
 62
     4
370
     9
100
AcDbLine
 10
733.5487474069629
 20
-1230.494344349533
 30
0.0
 11
733.5487474069629
 21
-1208.494349533987
 31
0.0
  0
LINE
  5
178
330
1F
100
AcDbEntity
  8
Yobi_3
  6
Continuous
 62
     4
370
     9
100
AcDbLine
 10
736.5488739547578
 20
-1233.494383409677
 30
0.0
 11
779.5487047530509
 21
-1233.494383409677
 31
0.0
  0
LINE
  5
179
330
1F
100
AcDbEntity
  8
Yobi_3
  6
Continuous
 62
     4
370
     9
100
AcDbLine
 10
1034.550012649256
 20
-1233.494383409677
 30
0.0
 11
991.5480821473255
 21
-1233.494383409677
 31
0.0
  0
LINE
  5
17A
330
1F
100
AcDbEntity
  8
Yobi_3
  6
Continuous
 62
     4
370
     9
100
AcDbLine
 10
1037.550139197051
 20
-1230.494344349533
 30
0.0
 11
1037.550139197051
 21
-1208.494349533987
 31
0.0
  0
LINE
  5
17B
330
1F
100
AcDbEntity
  8
Hojo
  6
Continuous
 62
     7
370
     9
100
AcDbLine
 10
609.512604461213
 20
-483.7140109962479
 30
0.0
 11
618.0884940191584
 21
-507.1970964812866
 31
0.0
  0
LINE
  5
17C
330
1F
100
AcDbEntity
  8
Hojo
  6
Continuous
 62
     7
370
     9
100
AcDbLine
 10
609.512604461213
 20
-483.7140109962479
 30
0.0
 11
611.7183431327112
 21
-508.6164961404322
 31
0.0
  0
LINE
  5
17D
330
1F
100
AcDbEntity
  8
4-F
  6
Continuous
 62
     7
370
     9
100
AcDbLine
 10
-605.764190561523
 20
-1036.405351497952
 30
0.0
 11
-199.9854391145891
 21
-1036.405351497952
 31
0.0
  0
LINE
  5
17E
330
1F
100
AcDbEntity
  8
4-F
  6
Continuous
 62
     7
370
     9
100
AcDbLine
 10
-605.764190561523
 20
-971.4053509088096
 30
0.0
 11
-199.9854391145891
 21
-971.4053509088096
 31
0.0
  0
LINE
  5
17F
330
1F
100
AcDbEntity
  8
4-F
  6
Continuous
 62
     7
370
     9
100
AcDbLine
 10
-605.764190561523
 20
-971.4053509088096
 30
0.0
 11
-605.764190561523
 21
-1036.405351497952
 31
0.0
  0
LINE
  5
180
330
1F
100
AcDbEntity
  8
4-F
  6
Continuous
 62
     7
370
     9
100
AcDbLine
 10
-199.9854391145891
 20
-971.4053509088096
 30
0.0
 11
-199.9854391145891
 21
-1036.405351497952
 31
0.0
  0
ARC
  5
181
330
1F
100
AcDbEntity
  8
1-0ﾚｲﾔ
  6
JWW_DASHED1
 62
     4
370
     9
100
AcDbCircle
 10
28.44341934417628
 20
219.4256445109613
 30
0.0
 40
7.499999910247832
100
AcDbArc
 50
0.0
 51
90.0
  0
ARC
  5
182
330
1F
100
AcDbEntity
  8
1-0ﾚｲﾔ
  6
JWW_DASHED1
 62
     4
370
     9
100
AcDbCircle
 10
-41.55650053245267
 20
219.4256445109613
 30
0.0
 40
7.499999910247832
100
AcDbArc
 50
90.0
 51
180.0
  0
ARC
  5
183
330
1F
100
AcDbEntity
  8
1-0ﾚｲﾔ
  6
Continuous
 62
     4
370
     9
100
AcDbCircle
 10
50.94349357612316
 20
164.4251325461855
 30
0.0
 40
7.499999910247832
100
AcDbArc
 50
180.0
 51
270.0
  0
ARC
  5
184
330
1F
100
AcDbEntity
  8
1-0ﾚｲﾔ
  6
Continuous
 62
     4
370
     9
100
AcDbCircle
 10
158.4441204236737
 20
141.9252332895419
 30
0.0
 40
14.99999982049566
100
AcDbArc
 50
0.0
 51
90.0
  0
ARC
  5
185
330
1F
100
AcDbEntity
  8
1-0ﾚｲﾔ
  6
JWW_DASHED1
 62
     4
370
     9
100
AcDbCircle
 10
50.94349357612316
 20
164.4254824967916
 30
0.0
 40
14.99999982049566
100
AcDbArc
 50
180.0
 51
270.0
  0
ARC
  5
186
330
1F
100
AcDbEntity
  8
1-0ﾚｲﾔ
  6
Continuous
 62
     4
370
     9
100
AcDbCircle
 10
28.44341934417628
 20
219.4252945603552
 30
0.0
 40
14.99999982049566
100
AcDbArc
 50
0.0
 51
90.0
  0
ARC
  5
187
330
1F
100
AcDbEntity
  8
1-0ﾚｲﾔ
  6
Continuous
 62
     4
370
     9
100
AcDbCircle
 10
688.4432638105739
 20
141.9252332895419
 30
0.0
 40
14.99999982049566
100
AcDbArc
 50
90.0
 51
180.0
  0
ARC
  5
188
330
1F
100
AcDbEntity
  8
1-0ﾚｲﾔ
  6
Continuous
 62
     4
370
     9
100
AcDbCircle
 10
818.4432649888583
 20
219.4252945603552
 30
0.0
 40
14.99999982049566
100
AcDbArc
 50
90.0
 51
180.0
  0
ARC
  5
189
330
1F
100
AcDbEntity
  8
1-0ﾚｲﾔ
  6
JWW_DASHED1
 62
     4
370
     9
100
AcDbCircle
 10
795.9435407075182
 20
164.4254824967916
 30
0.0
 40
14.99999982049566
100
AcDbArc
 50
270.0
 51
0.0
  0
ARC
  5
18A
330
1F
100
AcDbEntity
  8
1-0ﾚｲﾔ
  6
JWW_DASHED1
 62
     4
370
     9
100
AcDbCircle
 10
688.44361376118
 20
141.9255832401481
 30
0.0
 40
7.499999910247832
100
AcDbArc
 50
90.0
 51
180.0
  0
ARC
  5
18B
330
1F
100
AcDbEntity
  8
1-0ﾚｲﾔ
  6
JWW_DASHED1
 62
     4
370
     9
100
AcDbCircle
 10
818.4436149394645
 20
219.4256445109613
 30
0.0
 40
7.499999910247832
100
AcDbArc
 50
90.0
 51
180.0
  0
ARC
  5
18C
330
1F
100
AcDbEntity
  8
1-0ﾚｲﾔ
  6
JWW_DASHED1
 62
     4
370
     9
100
AcDbCircle
 10
888.4435348160935
 20
219.4256445109613
 30
0.0
 40
7.499999910247832
100
AcDbArc
 50
0.0
 51
90.0
  0
ARC
  5
18D
330
1F
100
AcDbEntity
  8
1-0ﾚｲﾔ
  6
Continuous
 62
     4
370
     9
100
AcDbCircle
 10
795.9431907569115
 20
164.4251325461855
 30
0.0
 40
7.499999910247832
100
AcDbArc
 50
270.0
 51
0.0
  0
ARC
  5
18E
330
1F
100
AcDbEntity
  8
1-0ﾚｲﾔ
  6
Continuous
 62
     4
370
     9
100
AcDbCircle
 10
-41.55650053245267
 20
219.4252945603552
 30
0.0
 40
14.99999982049566
100
AcDbArc
 50
90.0
 51
180.0
  0
ARC
  5
18F
330
1F
100
AcDbEntity
  8
1-0ﾚｲﾔ
  6
Continuous
 62
     4
370
     9
100
AcDbCircle
 10
888.4438847667002
 20
219.4252945603552
 30
0.0
 40
14.99999982049566
100
AcDbArc
 50
0.0
 51
90.0
  0
ARC
  5
190
330
1F
100
AcDbEntity
  8
通り芯
  6
Continuous
 62
     4
370
     9
100
AcDbCircle
 10
-598.5559079729912
 20
783.2221425776313
 30
0.0
 40
8.00000004096381
100
AcDbArc
 50
270.0
 51
0.0
  0
ARC
  5
191
330
1F
100
AcDbEntity
  8
通り芯
  6
Continuous
 62
     4
370
     9
100
AcDbCircle
 10
895.4439467444843
 20
769.2164194123623
 30
0.0
 40
8.00000004096381
100
AcDbArc
 50
270.0
 51
0.0
  0
ARC
  5
192
330
1F
100
AcDbEntity
  8
通り芯
  6
Continuous
 62
     4
370
     9
100
AcDbCircle
 10
-598.5559079729912
 20
783.2219676023285
 30
0.0
 40
4.000000020481905
100
AcDbArc
 50
270.0
 51
0.0
  0
ARC
  5
193
330
1F
100
AcDbEntity
  8
通り芯
  6
Continuous
 62
     4
370
     9
100
AcDbCircle
 10
895.4439467444843
 20
769.2162444370595
 30
0.0
 40
4.000000020481905
100
AcDbArc
 50
270.0
 51
0.0
  0
ARC
  5
194
330
1F
100
AcDbEntity
  8
通り芯
  6
Continuous
 62
     4
370
     9
100
AcDbCircle
 10
-2084.555891830489
 20
768.7940290305605
 30
0.0
 40
8.00000004096381
100
AcDbArc
 50
180.0
 51
270.0
  0
ARC
  5
195
330
1F
100
AcDbEntity
  8
通り芯
  6
Continuous
 62
     4
370
     9
100
AcDbCircle
 10
-2084.555891830489
 20
768.793854055257
 30
0.0
 40
4.000000020481905
100
AcDbArc
 50
180.0
 51
270.0
  0
ARC
  5
196
330
1F
100
AcDbEntity
  8
1-0ﾚｲﾔ
  6
JWW_DASHED1
 62
     4
370
     9
100
AcDbCircle
 10
158.4441204236737
 20
141.9255832401481
 30
0.0
 40
7.499999910247832
100
AcDbArc
 50
0.0
 51
90.0
  0
ARC
  5
197
330
1F
100
AcDbEntity
  8
通り芯
  6
Continuous
 62
     4
370
     9
100
AcDbCircle
 10
1597.835757806034
 20
1796.122152027476
 30
0.0
 40
19.99999839366633
100
AcDbArc
 50
15.00009155273437
 51
90.0
  0
ARC
  5
198
330
1F
100
AcDbEntity
  8
通り芯
  6
Continuous
 62
     4
370
     9
100
AcDbCircle
 10
1597.835757806034
 20
1636.122635124273
 30
0.0
 40
19.99999839366633
100
AcDbArc
 50
270.0
 51
344.9999084472656
  0
CIRCLE
  5
199
330
1F
100
AcDbEntity
  8
通り芯
  6
Continuous
 62
     4
370
     9
100
AcDbCircle
 10
1462.177405274512
 20
1878.122228144679
 30
0.0
 40
8.499998804685232
  0
CIRCLE
  5
19A
330
1F
100
AcDbEntity
  8
通り芯
  6
Continuous
 62
     4
370
     9
100
AcDbCircle
 10
1672.186963521376
 20
1786.213300610141
 30
0.0
 40
8.499998804685232
  0
CIRCLE
  5
19B
330
1F
100
AcDbEntity
  8
通り芯
  6
Continuous
 62
     4
370
     9
100
AcDbCircle
 10
1672.186963521376
 20
1646.213810807489
 30
0.0
 40
8.499998804685232
  0
CIRCLE
  5
19C
330
1F
100
AcDbEntity
  8
通り芯
  6
Continuous
 62
     4
370
     9
100
AcDbCircle
 10
1462.177055323906
 20
1554.12255900707
 30
0.0
 40
8.499998804685232
  0
ARC
  5
19D
330
1F
100
AcDbEntity
  8
通り芯
  6
JWW_DASHED1
 62
     4
370
     9
100
AcDbCircle
 10
1429.177413051193
 20
1822.122432223618
 30
0.0
 40
3.000000100798588
100
AcDbArc
 50
180.0
 51
270.0
  0
ARC
  5
19E
330
1F
100
AcDbEntity
  8
通り芯
  6
Continuous
 62
     4
370
     9
100
AcDbCircle
 10
1420.177033407808
 20
1865.122263021911
 30
0.0
 40
3.000000100798588
100
AcDbArc
 50
0.0
 51
90.0
  0
ARC
  5
19F
330
1F
100
AcDbEntity
  8
通り芯
  6
JWW_DASHED1
 62
     4
370
     9
100
AcDbCircle
 10
1398.177388542867
 20
1874.122292714689
 30
0.0
 40
3.000000100798588
100
AcDbArc
 50
180.0
 51
270.0
  0
ARC
  5
1A0
330
1F
100
AcDbEntity
  8
通り芯
  6
JWW_DASHED1
 62
     4
370
     9
100
AcDbCircle
 10
1398.177388542867
 20
1902.122540625826
 30
0.0
 40
3.000000100798588
100
AcDbArc
 50
90.0
 51
180.0
  0
ARC
  5
1A1
330
1F
100
AcDbEntity
  8
通り芯
  6
Continuous
 62
     4
370
     9
100
AcDbCircle
 10
1420.177033407808
 20
1567.122874080444
 30
0.0
 40
3.000000100798588
100
AcDbArc
 50
270.0
 51
0.0
  0
ARC
  5
1A2
330
1F
100
AcDbEntity
  8
通り芯
  6
JWW_DASHED1
 62
     4
370
     9
100
AcDbCircle
 10
1429.177413051193
 20
1610.122704878737
 30
0.0
 40
3.000000100798588
100
AcDbArc
 50
90.0
 51
180.0
  0
ARC
  5
1A3
330
1F
100
AcDbEntity
  8
通り芯
  6
JWW_DASHED1
 62
     4
370
     9
100
AcDbCircle
 10
1398.177388542867
 20
1558.122494437059
 30
0.0
 40
3.000000100798588
100
AcDbArc
 50
90.0
 51
180.0
  0
ARC
  5
1A4
330
1F
100
AcDbEntity
  8
通り芯
  6
JWW_DASHED1
 62
     4
370
     9
100
AcDbCircle
 10
1398.177388542867
 20
1530.122596476529
 30
0.0
 40
3.000000100798588
100
AcDbArc
 50
180.0
 51
270.0
  0
ARC
  5
1A5
330
1F
100
AcDbEntity
  8
通り芯
  6
Continuous
 62
     4
370
     9
100
AcDbCircle
 10
1398.177038592261
 20
1902.122540625826
 30
0.0
 40
6.000000201597176
100
AcDbArc
 50
90.0
 51
180.0
  0
ARC
  5
1A6
330
1F
100
AcDbEntity
  8
通り芯
  6
Continuous
 62
     4
370
     9
100
AcDbCircle
 10
1398.177038592261
 20
1874.122292714689
 30
0.0
 40
6.000000201597176
100
AcDbArc
 50
180.0
 51
270.0
  0
ARC
  5
1A7
330
1F
100
AcDbEntity
  8
通り芯
  6
JWW_DASHED1
 62
     4
370
     9
100
AcDbCircle
 10
1420.177383358414
 20
1865.122263021911
 30
0.0
 40
6.000000201597176
100
AcDbArc
 50
0.0
 51
90.0
  0
ARC
  5
1A8
330
1F
100
AcDbEntity
  8
通り芯
  6
Continuous
 62
     4
370
     9
100
AcDbCircle
 10
1429.177063100586
 20
1822.122432223618
 30
0.0
 40
6.000000201597176
100
AcDbArc
 50
180.0
 51
270.0
  0
ARC
  5
1A9
330
1F
100
AcDbEntity
  8
通り芯
  6
Continuous
 62
     4
370
     9
100
AcDbCircle
 10
1429.177063100586
 20
1610.122704878737
 30
0.0
 40
6.000000201597176
100
AcDbArc
 50
90.0
 51
180.0
  0
ARC
  5
1AA
330
1F
100
AcDbEntity
  8
通り芯
  6
JWW_DASHED1
 62
     4
370
     9
100
AcDbCircle
 10
1420.177383358414
 20
1567.122524129838
 30
0.0
 40
6.000000201597176
100
AcDbArc
 50
270.0
 51
0.0
  0
ARC
  5
1AB
330
1F
100
AcDbEntity
  8
通り芯
  6
Continuous
 62
     4
370
     9
100
AcDbCircle
 10
1398.177038592261
 20
1558.122844387666
 30
0.0
 40
6.000000201597176
100
AcDbArc
 50
90.0
 51
180.0
  0
ARC
  5
1AC
330
1F
100
AcDbEntity
  8
通り芯
  6
Continuous
 62
     4
370
     9
100
AcDbCircle
 10
1398.177038592261
 20
1530.122596476529
 30
0.0
 40
6.000000201597176
100
AcDbArc
 50
180.0
 51
270.0
  0
CIRCLE
  5
1AD
330
1F
100
AcDbEntity
  8
通り芯
  6
Continuous
 62
     4
370
     9
100
AcDbCircle
 10
1602.17724502777
 20
1554.12255900707
 30
0.0
 40
8.500000171679787
  0
CIRCLE
  5
1AE
330
1F
100
AcDbEntity
  8
通り芯
  6
Continuous
 62
     4
370
     9
100
AcDbCircle
 10
1602.17724502777
 20
1878.122928045891
 30
0.0
 40
8.500000171679787
  0
ARC
  5
1AF
330
1F
100
AcDbEntity
  8
通り芯
  6
JWW_DASHED1
 62
     4
370
     9
100
AcDbCircle
 10
1597.83610775664
 20
1636.122985074879
 30
0.0
 40
23.00000054495675
100
AcDbArc
 50
270.0
 51
344.9997863769531
  0
ARC
  5
1B0
330
1F
100
AcDbEntity
  8
通り芯
  6
JWW_DASHED1
 62
     4
370
     9
100
AcDbCircle
 10
1597.83610775664
 20
1796.122152027476
 30
0.0
 40
23.00000054495675
100
AcDbArc
 50
15.00021362304688
 51
90.0
  0
ARC
  5
1B1
330
1F
100
AcDbEntity
  8
通り芯
  6
Continuous
 62
     4
370
     9
100
AcDbCircle
 10
1619.271982194834
 20
1716.122393575874
 30
0.0
 40
19.99999976066088
100
AcDbArc
 50
344.9996032714844
 51
15.00036621093749
  0
ARC
  5
1B2
330
1F
100
AcDbEntity
  8
通り芯
  6
Continuous
 62
     4
370
     9
100
AcDbCircle
 10
1619.271632244228
 20
1716.122393575874
 30
0.0
 40
23.00000054495675
100
AcDbArc
 50
345.0006408691406
 51
14.9995880126953
  0
CIRCLE
  5
1B3
330
1F
100
AcDbEntity
  8
1-0ﾚｲﾔ
  6
Continuous
 62
     4
370
     9
100
AcDbCircle
 10
18.44393071981017
 20
59.42542770654541
 30
0.0
 40
21.25000145444539
  0
CIRCLE
  5
1B4
330
1F
100
AcDbEntity
  8
1-0ﾚｲﾔ
  6
Continuous
 62
     4
370
     9
100
AcDbCircle
 10
18.44393071981017
 20
-290.5748715778117
 30
0.0
 40
21.25000145444539
  0
CIRCLE
  5
1B5
330
1F
100
AcDbEntity
  8
1-0ﾚｲﾔ
  6
Continuous
 62
     4
370
     9
100
AcDbCircle
 10
248.4433674996421
 20
-465.5746712693838
 30
0.0
 40
21.25000145444539
  0
CIRCLE
  5
1B6
330
1F
100
AcDbEntity
  8
1-0ﾚｲﾔ
  6
Continuous
 62
     4
370
     9
100
AcDbCircle
 10
598.4433168333925
 20
-465.5746712693838
 30
0.0
 40
21.25000145444539
  0
CIRCLE
  5
1B7
330
1F
100
AcDbEntity
  8
1-0ﾚｲﾔ
  6
Continuous
 62
     4
370
     9
100
AcDbCircle
 10
828.4434535144374
 20
-290.5748715778117
 30
0.0
 40
21.25000145444539
  0
CIRCLE
  5
1B8
330
1F
100
AcDbEntity
  8
1-0ﾚｲﾔ
  6
Continuous
 62
     4
370
     9
100
AcDbCircle
 10
828.4434535144374
 20
59.42542770654541
 30
0.0
 40
21.25000145444539
  0
ARC
  5
1B9
330
1F
100
AcDbEntity
  8
1-0ﾚｲﾔ
  6
Continuous
 62
     4
370
     9
100
AcDbCircle
 10
423.4424672900019
 20
-333.0742730090978
 30
0.0
 40
50.00000213564132
100
AcDbArc
 50
255.0001525878906
 51
284.9998474121094
  0
ARC
  5
1BA
330
1F
100
AcDbEntity
  8
1-0ﾚｲﾔ
  6
JWW_DASHED1
 62
     4
370
     9
100
AcDbCircle
 10
423.4431671912142
 20
-333.074622959704
 30
0.0
 40
57.50000136239188
100
AcDbArc
 50
255.0000762939453
 51
284.9999237060547
  0
ARC
  5
1BB
330
1F
100
AcDbEntity
  8
1-0ﾚｲﾔ
  6
JWW_DASHED1
 62
     4
370
     9
100
AcDbCircle
 10
223.4442959881193
 20
-279.4849368642195
 30
0.0
 40
57.50000136239188
100
AcDbArc
 50
180.0
 51
255.0000915527344
  0
ARC
  5
1BC
330
1F
100
AcDbEntity
  8
1-0ﾚｲﾔ
  6
Continuous
 62
     4
370
     9
100
AcDbCircle
 10
223.4432461363008
 20
-279.4849368642195
 30
0.0
 40
50.00000213564132
100
AcDbArc
 50
180.0
 51
254.9998779296875
  0
ARC
  5
1BD
330
1F
100
AcDbEntity
  8
1-0ﾚｲﾔ
  6
Continuous
 62
     4
370
     9
100
AcDbCircle
 10
623.4434381967344
 20
-279.4842369630069
 30
0.0
 40
50.00000213564132
100
AcDbArc
 50
284.9998474121094
 51
0.0
  0
ARC
  5
1BE
330
1F
100
AcDbEntity
  8
1-0ﾚｲﾔ
  6
JWW_DASHED1
 62
     4
370
     9
100
AcDbCircle
 10
623.4434381967344
 20
-279.4845869136134
 30
0.0
 40
57.50000136239188
100
AcDbArc
 50
284.9999084472657
 51
0.0000000000000382
  0
ARC
  5
1BF
330
1F
100
AcDbEntity
  8
Yobi_3
  6
Continuous
 62
     4
370
     9
100
AcDbCircle
 10
805.5475851467673
 20
-1557.246987419239
 30
0.0
 40
19.99999976066088
100
AcDbArc
 50
179.9994964599609
 51
254.9997406005859
  0
ARC
  5
1C0
330
1F
100
AcDbEntity
  8
Yobi_3
  6
Continuous
 62
     4
370
     9
100
AcDbCircle
 10
965.5478019511833
 20
-1557.246987419239
 30
0.0
 40
19.99999976066088
100
AcDbArc
 50
285.0002899169922
 51
359.9998931884766
  0
ARC
  5
1C1
330
1F
100
AcDbEntity
  8
Yobi_3
  6
Continuous
 62
     4
370
     9
100
AcDbCircle
 10
885.5490933514005
 20
-1578.682949345084
 30
0.0
 40
19.99999976066088
100
AcDbArc
 50
254.9997406005859
 51
285.0002899169922
  0
ARC
  5
1C2
330
1F
100
AcDbEntity
  8
Yobi_3
  6
Continuous
 62
     4
370
     9
100
AcDbCircle
 10
253.3472253456995
 20
-1382.247012752364
 30
0.0
 40
19.99999976066088
100
AcDbArc
 50
179.9994964599609
 51
254.9997406005859
  0
ARC
  5
1C3
330
1F
100
AcDbEntity
  8
Yobi_3
  6
Continuous
 62
     4
370
     9
100
AcDbCircle
 10
413.347442150116
 20
-1382.247012752364
 30
0.0
 40
19.99999976066088
100
AcDbArc
 50
285.0002899169922
 51
359.9998931884766
  0
ARC
  5
1C4
330
1F
100
AcDbEntity
  8
Yobi_3
  6
Continuous
 62
     4
370
     9
100
AcDbCircle
 10
333.3487335503327
 20
-1403.682887190557
 30
0.0
 40
19.99999976066088
100
AcDbArc
 50
254.9997100830078
 51
285.0002899169922
  0
ARC
  5
1C5
330
1F
100
AcDbEntity
  8
Yobi_3
  6
Continuous
 62
     4
370
     9
100
AcDbCircle
 10
-298.8531344553678
 20
-1307.246998612945
 30
0.0
 40
19.99999976066088
100
AcDbArc
 50
179.9994964599609
 51
254.9997406005859
  0
ARC
  5
1C6
330
1F
100
AcDbEntity
  8
Yobi_3
  6
Continuous
 62
     4
370
     9
100
AcDbCircle
 10
-138.8529176509519
 20
-1307.246998612945
 30
0.0
 40
19.99999976066088
100
AcDbArc
 50
285.0002899169922
 51
359.9998931884766
  0
ARC
  5
1C7
330
1F
100
AcDbEntity
  8
Yobi_3
  6
Continuous
 62
     4
370
     9
100
AcDbCircle
 10
-218.8516262507346
 20
-1328.68296053879
 30
0.0
 40
19.99999976066088
100
AcDbArc
 50
254.9997100830078
 51
285.0002899169922
  0
CIRCLE
  5
1C8
330
1F
100
AcDbEntity
  8
Yobi_3
  6
Continuous
 62
     4
370
     9
100
AcDbCircle
 10
171.2502129105525
 20
-1272.500577888894
 30
0.0
 40
8.500000171679787
  0
CIRCLE
  5
1C9
330
1F
100
AcDbEntity
  8
Yobi_3
  6
Continuous
 62
     4
370
     9
100
AcDbCircle
 10
171.2502129105525
 20
-1387.493822192593
 30
0.0
 40
8.500000171679787
  0
CIRCLE
  5
1CA
330
1F
100
AcDbEntity
  8
Yobi_3
  6
Continuous
 62
     4
370
     9
100
AcDbCircle
 10
263.3495135749166
 20
-1457.494616945738
 30
0.0
 40
8.500000171679787
  0
CIRCLE
  5
1CB
330
1F
100
AcDbEntity
  8
Yobi_3
  6
Continuous
 62
     4
370
     9
100
AcDbCircle
 10
-380.9508467917277
 20
-1272.500577888894
 30
0.0
 40
8.500000171679787
  0
CIRCLE
  5
1CC
330
1F
100
AcDbEntity
  8
Yobi_3
  6
Continuous
 62
     4
370
     9
100
AcDbCircle
 10
-288.8508462261512
 20
-1382.49460280632
 30
0.0
 40
8.500000171679787
  0
CIRCLE
  5
1CD
330
1F
100
AcDbEntity
  8
Yobi_3
  6
Continuous
 62
     4
370
     9
100
AcDbCircle
 10
723.4505727116203
 20
-1272.500577888894
 30
0.0
 40
8.500000171679787
  0
CIRCLE
  5
1CE
330
1F
100
AcDbEntity
  8
Yobi_3
  6
Continuous
 62
     4
370
     9
100
AcDbCircle
 10
723.4505727116203
 20
-1417.497187374181
 30
0.0
 40
8.500000171679787
  0
CIRCLE
  5
1CF
330
1F
100
AcDbEntity
  8
Yobi_3
  6
Continuous
 62
     4
370
     9
100
AcDbCircle
 10
723.4505727116203
 20
-1562.493796859469
 30
0.0
 40
8.500000171679787
  0
CIRCLE
  5
1D0
330
1F
100
AcDbEntity
  8
Yobi_3
  6
Continuous
 62
     4
370
     9
100
AcDbCircle
 10
815.5491734747716
 20
-1632.494504124962
 30
0.0
 40
8.500000171679787
  0
ARC
  5
1D1
330
1F
100
AcDbEntity
  8
Yobi_3
  6
Continuous
 62
     4
370
     9
100
AcDbCircle
 10
965.5513014572466
 20
-1557.246987419239
 30
0.0
 40
19.99999976066088
100
AcDbArc
 50
285.0002593994141
 51
0.0005035400390676
  0
CIRCLE
  5
1D2
330
1F
100
AcDbEntity
  8
Yobi_3
  6
Continuous
 62
     4
370
     9
100
AcDbCircle
 10
1047.649013793607
 20
-1272.500577888894
 30
0.0
 40
8.500000171679787
  0
CIRCLE
  5
1D3
330
1F
100
AcDbEntity
  8
Yobi_3
  6
Continuous
 62
     4
370
     9
100
AcDbCircle
 10
1047.649013793607
 20
-1417.497187374181
 30
0.0
 40
8.500000171679787
  0
CIRCLE
  5
1D4
330
1F
100
AcDbEntity
  8
Yobi_3
  6
Continuous
 62
     4
370
     9
100
AcDbCircle
 10
1047.649013793607
 20
-1562.493796859469
 30
0.0
 40
8.500000171679787
  0
CIRCLE
  5
1D5
330
1F
100
AcDbEntity
  8
Yobi_3
  6
Continuous
 62
     4
370
     9
100
AcDbCircle
 10
955.5490132280295
 20
-1632.494504124962
 30
0.0
 40
8.500000171679787
  0
ARC
  5
1D6
330
1F
100
AcDbEntity
  8
Yobi_3
  6
Continuous
 62
     4
370
     9
100
AcDbCircle
 10
413.3509416561787
 20
-1382.247012752364
 30
0.0
 40
19.99999976066088
100
AcDbArc
 50
285.0002593994141
 51
0.0005035400390676
  0
CIRCLE
  5
1D7
330
1F
100
AcDbEntity
  8
Yobi_3
  6
Continuous
 62
     4
370
     9
100
AcDbCircle
 10
495.4479540913258
 20
-1272.500577888894
 30
0.0
 40
8.500000171679787
  0
CIRCLE
  5
1D8
330
1F
100
AcDbEntity
  8
Yobi_3
  6
Continuous
 62
     4
370
     9
100
AcDbCircle
 10
495.4479540913258
 20
-1387.493822192593
 30
0.0
 40
8.500000171679787
  0
CIRCLE
  5
1D9
330
1F
100
AcDbEntity
  8
Yobi_3
  6
Continuous
 62
     4
370
     9
100
AcDbCircle
 10
403.3486534269616
 20
-1457.494616945738
 30
0.0
 40
8.500000171679787
  0
ARC
  5
1DA
330
1F
100
AcDbEntity
  8
Yobi_3
  6
Continuous
 62
     4
370
     9
100
AcDbCircle
 10
-138.8494181448891
 20
-1307.246998612945
 30
0.0
 40
19.99999976066088
100
AcDbArc
 50
285.0002593994141
 51
0.0005035400390676
  0
CIRCLE
  5
1DB
330
1F
100
AcDbEntity
  8
Yobi_3
  6
Continuous
 62
     4
370
     9
100
AcDbCircle
 10
-56.75170580852921
 20
-1272.500577888894
 30
0.0
 40
8.500000171679787
  0
CIRCLE
  5
1DC
330
1F
100
AcDbEntity
  8
Yobi_3
  6
Continuous
 62
     4
370
     9
100
AcDbCircle
 10
-148.8517063741062
 20
-1382.49460280632
 30
0.0
 40
8.500000171679787
  0
ARC
  5
1DD
330
1F
100
AcDbEntity
  8
Yobi_3
  6
Continuous
 62
     4
370
     9
100
AcDbCircle
 10
-404.8519482759895
 20
-1208.494349533987
 30
0.0
 40
6.000000201597176
100
AcDbArc
 50
90.0
 51
180.0
  0
ARC
  5
1DE
330
1F
100
AcDbEntity
  8
Yobi_3
  6
Continuous
 62
     4
370
     9
100
AcDbCircle
 10
-376.8520503154593
 20
-1208.494349533987
 30
0.0
 40
6.000000201597176
100
AcDbArc
 50
0.0
 51
90.0
  0
ARC
  5
1DF
330
1F
100
AcDbEntity
  8
Yobi_3
  6
Continuous
 62
     4
370
     9
100
AcDbCircle
 10
-324.8521898243882
 20
-1239.494374042312
 30
0.0
 40
6.000000201597176
100
AcDbArc
 50
359.9991607666016
 51
89.99999999999999
  0
ARC
  5
1E0
330
1F
100
AcDbEntity
  8
Yobi_3
  6
Continuous
 62
     4
370
     9
100
AcDbCircle
 10
-112.8526374548102
 20
-1239.494374042312
 30
0.0
 40
6.000000201597176
100
AcDbArc
 50
90.0
 51
179.9991607666016
  0
ARC
  5
1E1
330
1F
100
AcDbEntity
  8
Yobi_3
  6
Continuous
 62
     4
370
     9
100
AcDbCircle
 10
-32.851129250177
 20
-1208.494349533987
 30
0.0
 40
6.000000201597176
100
AcDbArc
 50
0.0
 51
90.0
  0
ARC
  5
1E2
330
1F
100
AcDbEntity
  8
Yobi_3
  6
Continuous
 62
     4
370
     9
100
AcDbCircle
 10
147.348236549775
 20
-1208.494349533987
 30
0.0
 40
6.000000201597176
100
AcDbArc
 50
90.0
 51
180.0
  0
ARC
  5
1E3
330
1F
100
AcDbEntity
  8
Yobi_3
  6
Continuous
 62
     4
370
     9
100
AcDbCircle
 10
175.3484844609113
 20
-1208.494349533987
 30
0.0
 40
6.000000201597176
100
AcDbArc
 50
0.0
 51
90.0
  0
ARC
  5
1E4
330
1F
100
AcDbEntity
  8
Yobi_3
  6
Continuous
 62
     4
370
     9
100
AcDbCircle
 10
227.348344951983
 20
-1239.494374042312
 30
0.0
 40
6.000000201597176
100
AcDbArc
 50
0.0
 51
90.0
  0
ARC
  5
1E5
330
1F
100
AcDbEntity
  8
Yobi_3
  6
Continuous
 62
     4
370
     9
100
AcDbCircle
 10
439.3477223462577
 20
-1239.494374042312
 30
0.0
 40
6.000000201597176
100
AcDbArc
 50
90.0
 51
180.0
  0
ARC
  5
1E6
330
1F
100
AcDbEntity
  8
Yobi_3
  6
Continuous
 62
     4
370
     9
100
AcDbCircle
 10
491.3496825409669
 20
-1208.494349533987
 30
0.0
 40
6.000000201597176
100
AcDbArc
 50
90.0
 51
180.0
  0
ARC
  5
1E7
330
1F
100
AcDbEntity
  8
Yobi_3
  6
Continuous
 62
     4
370
     9
100
AcDbCircle
 10
-60.85050228479759
 20
-1208.494349533987
 30
0.0
 40
6.000000201597176
100
AcDbArc
 50
90.0
 51
180.0
  0
ARC
  5
1E8
330
1F
100
AcDbEntity
  8
Yobi_3
  6
Continuous
 62
     4
370
     9
100
AcDbCircle
 10
519.3492305508909
 20
-1208.494349533987
 30
0.0
 40
6.000000201597176
100
AcDbArc
 50
0.0
 51
90.0
  0
ARC
  5
1E9
330
1F
100
AcDbEntity
  8
Yobi_3
  6
Continuous
 62
     4
370
     9
100
AcDbCircle
 10
699.54789644963
 20
-1208.494349533987
 30
0.0
 40
6.000000201597176
100
AcDbArc
 50
90.0
 51
180.0
  0
ARC
  5
1EA
330
1F
100
AcDbEntity
  8
Yobi_3
  6
Continuous
 62
     4
370
     9
100
AcDbCircle
 10
727.5488442619792
 20
-1208.494349533987
 30
0.0
 40
6.000000201597176
100
AcDbArc
 50
0.0
 51
90.0
  0
ARC
  5
1EB
330
1F
100
AcDbEntity
  8
Yobi_3
  6
Continuous
 62
     4
370
     9
100
AcDbCircle
 10
779.5487047530509
 20
-1239.494374042312
 30
0.0
 40
6.000000201597176
100
AcDbArc
 50
0.0
 51
90.0
  0
ARC
  5
1EC
330
1F
100
AcDbEntity
  8
Yobi_3
  6
Continuous
 62
     4
370
     9
100
AcDbCircle
 10
991.5480821473255
 20
-1239.494374042312
 30
0.0
 40
6.000000201597176
100
AcDbArc
 50
90.0
 51
180.0
  0
ARC
  5
1ED
330
1F
100
AcDbEntity
  8
Yobi_3
  6
Continuous
 62
     4
370
     9
100
AcDbCircle
 10
1043.550042342035
 20
-1208.494349533987
 30
0.0
 40
6.000000201597176
100
AcDbArc
 50
90.0
 51
180.0
  0
ARC
  5
1EE
330
1F
100
AcDbEntity
  8
Yobi_3
  6
Continuous
 62
     4
370
     9
100
AcDbCircle
 10
1071.548890450747
 20
-1208.494349533987
 30
0.0
 40
6.000000201597176
100
AcDbArc
 50
0.0
 51
90.0
  0
ARC
  5
1EF
330
1F
100
AcDbEntity
  8
Yobi_3
  6
Continuous
 62
     4
370
     9
100
AcDbCircle
 10
-367.8520206226807
 20
-1230.494344349533
 30
0.0
 40
3.000000100798588
100
AcDbArc
 50
180.0
 51
270.0
  0
ARC
  5
1F0
330
1F
100
AcDbEntity
  8
Yobi_3
  6
Continuous
 62
     4
370
     9
100
AcDbCircle
 10
-69.85263168121435
 20
-1230.494344349533
 30
0.0
 40
3.000000100798588
100
AcDbArc
 50
270.0
 51
0.0
  0
ARC
  5
1F1
330
1F
100
AcDbEntity
  8
Yobi_3
  6
Continuous
 62
     4
370
     9
100
AcDbCircle
 10
184.34851415369
 20
-1230.494344349533
 30
0.0
 40
3.000000100798588
100
AcDbArc
 50
180.0
 51
270.0
  0
ARC
  5
1F2
330
1F
100
AcDbEntity
  8
Yobi_3
  6
Continuous
 62
     4
370
     9
100
AcDbCircle
 10
482.3496528481883
 20
-1230.494344349533
 30
0.0
 40
3.000000100798588
100
AcDbArc
 50
270.0
 51
0.0
  0
ARC
  5
1F3
330
1F
100
AcDbEntity
  8
Yobi_3
  6
Continuous
 62
     4
370
     9
100
AcDbCircle
 10
736.5488739547578
 20
-1230.494344349533
 30
0.0
 40
3.000000100798588
100
AcDbArc
 50
180.0
 51
270.0
  0
ARC
  5
1F4
330
1F
100
AcDbEntity
  8
Yobi_3
  6
Continuous
 62
     4
370
     9
100
AcDbCircle
 10
1034.550012649256
 20
-1230.494344349533
 30
0.0
 40
3.000000100798588
100
AcDbArc
 50
270.0
 51
0.0
  0
TEXT
  5
1F5
330
1F
100
AcDbEntity
  8
092
  6
Continuous
 62
     2
370
     9
100
AcDbText
 10
-638.3060600306538
 20
1348.9747106118
 30
0.0
 40
30.48
  1
1498
 41
1.09375
  7
ＭＳ ゴシック
100
AcDbText
  0
TEXT
  5
1F6
330
1F
100
AcDbEntity
  8
Hojo
  6
Continuous
 62
     2
370
     9
100
AcDbText
 10
390.9429922159111
 20
411.8605293878165
 30
0.0
 40
30.48
  1
152
 41
1.083333333333333
  7
ＭＳ ゴシック
100
AcDbText
  0
TEXT
  5
1F7
330
1F
100
AcDbEntity
  8
Hojo
  6
Continuous
 62
     2
370
     9
100
AcDbText
 10
736.3924943434222
 20
-813.5522349957427
 30
0.0
 40
30.48
  1
ジョイント穴
 41
1.104166666666667
  7
ＭＳ ゴシック
100
AcDbText
  0
TEXT
  5
1F8
330
1F
100
AcDbEntity
  8
Hojo
  6
Continuous
 62
     2
370
     9
100
AcDbText
 10
140.585462881331
 20
-788.9900768161834
 30
0.0
 40
30.48
  1
Ａ視　Ｓ＝１：２
 41
1.109375
  7
ＭＳ ゴシック
100
AcDbText
  0
TEXT
  5
1F9
330
1F
100
AcDbEntity
  8
092
  6
Continuous
 62
     2
370
     9
100
AcDbText
 10
-154.620970271269
 20
1190.458634328695
 30
0.0
 40
30.48
  1
①トラフパン本体
 41
1.109375
  7
ＭＳ ゴシック
100
AcDbText
  0
TEXT
  5
1FA
330
1F
100
AcDbEntity
  8
2-Fﾚｲﾔ
  6
Continuous
 62
     2
370
     9
100
AcDbText
 10
-1346.757154197767
 20
-360.2881608542881
 30
0.0
 40
30.48
  1
１２２．５
 41
1.1
  7
ＭＳ ゴシック
100
AcDbText
  0
TEXT
  5
1FB
330
1F
100
AcDbEntity
  8
2-Fﾚｲﾔ
  6
Continuous
 62
     2
370
     9
100
AcDbText
 10
-1346.757127686357
 20
-425.2879864681273
 30
0.0
 40
30.48
  1
１３５
 41
1.083333333333333
  7
ＭＳ ゴシック
100
AcDbText
  0
TEXT
  5
1FC
330
1F
100
AcDbEntity
  8
2-Fﾚｲﾔ
  6
Continuous
 62
     2
370
     9
100
AcDbText
 10
-1346.757154197767
 20
-490.2881620325729
 30
0.0
 40
30.48
  1
１４７．５
 41
1.1
  7
ＭＳ ゴシック
100
AcDbText
  0
TEXT
  5
1FD
330
1F
100
AcDbEntity
  8
2-Fﾚｲﾔ
  6
Continuous
 62
     2
370
     9
100
AcDbText
 10
-1346.757127686357
 20
-555.2881626217154
 30
0.0
 40
30.48
  1
１６０
 41
1.083333333333333
  7
ＭＳ ゴシック
100
AcDbText
  0
TEXT
  5
1FE
330
1F
100
AcDbEntity
  8
2-Fﾚｲﾔ
  6
Continuous
 62
     2
370
     9
100
AcDbText
 10
-1346.757154197767
 20
-620.2879882355545
 30
0.0
 40
30.48
  1
１７２．５
 41
1.1
  7
ＭＳ ゴシック
100
AcDbText
  0
TEXT
  5
1FF
330
1F
100
AcDbEntity
  8
2-Fﾚｲﾔ
  6
Continuous
 62
     2
370
     9
100
AcDbText
 10
-1346.757127686357
 20
-685.2881638000002
 30
0.0
 40
30.48
  1
１８５
 41
1.083333333333333
  7
ＭＳ ゴシック
100
AcDbText
  0
TEXT
  5
200
330
1F
100
AcDbEntity
  8
2-Fﾚｲﾔ
  6
Continuous
 62
     2
370
     9
100
AcDbText
 10
-1346.757154197767
 20
-750.2879894138397
 30
0.0
 40
30.48
  1
１９７．５
 41
1.1
  7
ＭＳ ゴシック
100
AcDbText
  0
TEXT
  5
201
330
1F
100
AcDbEntity
  8
2-Fﾚｲﾔ
  6
Continuous
 62
     2
370
     9
100
AcDbText
 10
-1346.757127686357
 20
-815.2879900029819
 30
0.0
 40
30.48
  1
２１０
 41
1.083333333333333
  7
ＭＳ ゴシック
100
AcDbText
  0
TEXT
  5
202
330
1F
100
AcDbEntity
  8
2-Fﾚｲﾔ
  6
Continuous
 62
     2
370
     9
100
AcDbText
 10
-1346.757154197767
 20
-880.2880780797759
 30
0.0
 40
30.48
  1
２２２．５
 41
1.1
  7
ＭＳ ゴシック
100
AcDbText
  0
TEXT
  5
203
330
1F
100
AcDbEntity
  8
2-Fﾚｲﾔ
  6
Continuous
 62
     2
370
     9
100
AcDbText
 10
-1346.757127686357
 20
-945.2880786689183
 30
0.0
 40
30.48
  1
２３５
 41
1.083333333333333
  7
ＭＳ ゴシック
100
AcDbText
  0
TEXT
  5
204
330
1F
100
AcDbEntity
  8
2-Fﾚｲﾔ
  6
Continuous
 62
     2
370
     9
100
AcDbText
 10
-1346.757154197767
 20
-1010.288079258061
 30
0.0
 40
30.48
  1
２４７．５
 41
1.1
  7
ＭＳ ゴシック
100
AcDbText
  0
TEXT
  5
205
330
1F
100
AcDbEntity
  8
2-Fﾚｲﾔ
  6
Continuous
 62
     2
370
     9
100
AcDbText
 10
-1346.757127686357
 20
-1075.288079847203
 30
0.0
 40
30.48
  1
２６０
 41
1.083333333333333
  7
ＭＳ ゴシック
100
AcDbText
  0
TEXT
  5
206
330
1F
100
AcDbEntity
  8
2-Fﾚｲﾔ
  6
Continuous
 62
     2
370
     9
100
AcDbText
 10
-1346.757154197767
 20
-1140.288080436346
 30
0.0
 40
30.48
  1
２７２．５
 41
1.1
  7
ＭＳ ゴシック
100
AcDbText
  0
TEXT
  5
207
330
1F
100
AcDbEntity
  8
2-Fﾚｲﾔ
  6
Continuous
 62
     2
370
     9
100
AcDbText
 10
-1346.757127686357
 20
-1205.288081025488
 30
0.0
 40
30.48
  1
２８５
 41
1.083333333333333
  7
ＭＳ ゴシック
100
AcDbText
  0
TEXT
  5
208
330
1F
100
AcDbEntity
  8
2-Fﾚｲﾔ
  6
Continuous
 62
     2
370
     9
100
AcDbText
 10
-1346.757154197767
 20
-1270.288081614631
 30
0.0
 40
30.48
  1
２９７．５
 41
1.1
  7
ＭＳ ゴシック
100
AcDbText
  0
TEXT
  5
209
330
1F
100
AcDbEntity
  8
2-Fﾚｲﾔ
  6
Continuous
 62
     2
370
     9
100
AcDbText
 10
-1584.671922254747
 20
-425.2881614434306
 30
0.0
 40
30.48
  1
１００
 41
1.083333333333333
  7
ＭＳ ゴシック
100
AcDbText
  0
TEXT
  5
20A
330
1F
100
AcDbEntity
  8
2-Fﾚｲﾔ
  6
Continuous
 62
     2
370
     9
100
AcDbText
 10
-1584.67194428039
 20
-490.2879870572495
 30
0.0
 40
30.48
  1
１１２．５
 50
359.9999544302322
 41
1.1
  7
ＭＳ ゴシック
100
AcDbText
  0
TEXT
  5
20B
330
1F
100
AcDbEntity
  8
2-Fﾚｲﾔ
  6
Continuous
 62
     2
370
     9
100
AcDbText
 10
-1584.671922254747
 20
-555.2881626217154
 30
0.0
 40
30.48
  1
１２５
 41
1.083333333333333
  7
ＭＳ ゴシック
100
AcDbText
  0
TEXT
  5
20C
330
1F
100
AcDbEntity
  8
2-Fﾚｲﾔ
  6
Continuous
 62
     2
370
     9
100
AcDbText
 10
-1584.671948766156
 20
-620.2879882355545
 30
0.0
 40
30.48
  1
１３７．５
 41
1.1
  7
ＭＳ ゴシック
100
AcDbText
  0
TEXT
  5
20D
330
1F
100
AcDbEntity
  8
2-Fﾚｲﾔ
  6
Continuous
 62
     2
370
     9
100
AcDbText
 10
-1584.671922254747
 20
-685.2881638000002
 30
0.0
 40
30.48
  1
１５０
 41
1.083333333333333
  7
ＭＳ ゴシック
100
AcDbText
  0
TEXT
  5
20E
330
1F
100
AcDbEntity
  8
2-Fﾚｲﾔ
  6
Continuous
 62
     2
370
     9
100
AcDbText
 10
-1584.671948766156
 20
-750.2879894138397
 30
0.0
 40
30.48
  1
１６２．５
 41
1.1
  7
ＭＳ ゴシック
100
AcDbText
  0
TEXT
  5
20F
330
1F
100
AcDbEntity
  8
2-Fﾚｲﾔ
  6
Continuous
 62
     2
370
     9
100
AcDbText
 10
-1584.671922254747
 20
-815.2881649782852
 30
0.0
 40
30.48
  1
１７５
 41
1.083333333333333
  7
ＭＳ ゴシック
100
AcDbText
  0
TEXT
  5
210
330
1F
100
AcDbEntity
  8
2-Fﾚｲﾔ
  6
Continuous
 62
     2
370
     9
100
AcDbText
 10
-1584.671948766156
 20
-880.2880780797759
 30
0.0
 40
30.48
  1
１８７．５
 41
1.1
  7
ＭＳ ゴシック
100
AcDbText
  0
TEXT
  5
211
330
1F
100
AcDbEntity
  8
2-Fﾚｲﾔ
  6
Continuous
 62
     2
370
     9
100
AcDbText
 10
-1584.671922254747
 20
-945.2880786689183
 30
0.0
 40
30.48
  1
２００
 41
1.083333333333333
  7
ＭＳ ゴシック
100
AcDbText
  0
TEXT
  5
212
330
1F
100
AcDbEntity
  8
2-Fﾚｲﾔ
  6
Continuous
 62
     2
370
     9
100
AcDbText
 10
-1584.671948766156
 20
-1010.288079258061
 30
0.0
 40
30.48
  1
２１２．５
 41
1.1
  7
ＭＳ ゴシック
100
AcDbText
  0
TEXT
  5
213
330
1F
100
AcDbEntity
  8
2-Fﾚｲﾔ
  6
Continuous
 62
     2
370
     9
100
AcDbText
 10
-1584.671922254747
 20
-1075.288079847203
 30
0.0
 40
30.48
  1
２２５
 41
1.083333333333333
  7
ＭＳ ゴシック
100
AcDbText
  0
TEXT
  5
214
330
1F
100
AcDbEntity
  8
2-Fﾚｲﾔ
  6
Continuous
 62
     2
370
     9
100
AcDbText
 10
-1584.671948766156
 20
-1140.288080436346
 30
0.0
 40
30.48
  1
２３７．５
 41
1.1
  7
ＭＳ ゴシック
100
AcDbText
  0
TEXT
  5
215
330
1F
100
AcDbEntity
  8
2-Fﾚｲﾔ
  6
Continuous
 62
     2
370
     9
100
AcDbText
 10
-1584.671922254747
 20
-1205.288081025488
 30
0.0
 40
30.48
  1
２５０
 41
1.083333333333333
  7
ＭＳ ゴシック
100
AcDbText
  0
TEXT
  5
216
330
1F
100
AcDbEntity
  8
2-Fﾚｲﾔ
  6
Continuous
 62
     2
370
     9
100
AcDbText
 10
-1584.671948766156
 20
-1270.288081614631
 30
0.0
 40
30.48
  1
２６２．５
 41
1.1
  7
ＭＳ ゴシック
100
AcDbText
  0
TEXT
  5
217
330
1F
100
AcDbEntity
  8
2-Fﾚｲﾔ
  6
Continuous
 62
     2
370
     9
100
AcDbText
 10
-1584.671922254747
 20
-1335.288082203773
 30
0.0
 40
30.48
  1
２７５
 41
1.083333333333333
  7
ＭＳ ゴシック
100
AcDbText
  0
TEXT
  5
218
330
1F
100
AcDbEntity
  8
2-Fﾚｲﾔ
  6
Continuous
 62
     2
370
     9
100
AcDbText
 10
-1346.757127686357
 20
-1335.288082203773
 30
0.0
 40
30.48
  1
３１０
 41
1.083333333333333
  7
ＭＳ ゴシック
100
AcDbText
  0
TEXT
  5
219
330
1F
100
AcDbEntity
  8
2-Fﾚｲﾔ
  6
Continuous
 62
     2
370
     9
100
AcDbText
 10
-1791.292747061225
 20
-230.2879847007
 30
0.0
 40
30.48
  1
Ｓ０１Ｆ
 41
1.09375
  7
ＭＳ ゴシック
100
AcDbText
  0
TEXT
  5
21A
330
1F
100
AcDbEntity
  8
2-Fﾚｲﾔ
  6
Continuous
 62
     2
370
     9
100
AcDbText
 10
-1791.292747061225
 20
-295.2881602651456
 30
0.0
 40
30.48
  1
Ｓ０２Ｆ
 41
1.09375
  7
ＭＳ ゴシック
100
AcDbText
  0
TEXT
  5
21B
330
1F
100
AcDbEntity
  8
2-Fﾚｲﾔ
  6
Continuous
 62
     2
370
     9
100
AcDbText
 10
-1791.292747061225
 20
-360.287985878985
 30
0.0
 40
30.48
  1
Ｓ０３Ｆ
 41
1.09375
  7
ＭＳ ゴシック
100
AcDbText
  0
TEXT
  5
21C
330
1F
100
AcDbEntity
  8
2-Fﾚｲﾔ
  6
Continuous
 62
     2
370
     9
100
AcDbText
 10
-1791.292747061225
 20
-425.2881614434306
 30
0.0
 40
30.48
  1
Ｓ０４Ｆ
 41
1.09375
  7
ＭＳ ゴシック
100
AcDbText
  0
TEXT
  5
21D
330
1F
100
AcDbEntity
  8
2-Fﾚｲﾔ
  6
Continuous
 62
     2
370
     9
100
AcDbText
 10
-1791.292747061225
 20
-490.2879870572698
 30
0.0
 40
30.48
  1
Ｓ０５Ｆ
 41
1.09375
  7
ＭＳ ゴシック
100
AcDbText
  0
TEXT
  5
21E
330
1F
100
AcDbEntity
  8
2-Fﾚｲﾔ
  6
Continuous
 62
     2
370
     9
100
AcDbText
 10
-1791.292747061225
 20
-555.2881626217154
 30
0.0
 40
30.48
  1
Ｓ０６Ｆ
 41
1.09375
  7
ＭＳ ゴシック
100
AcDbText
  0
TEXT
  5
21F
330
1F
100
AcDbEntity
  8
2-Fﾚｲﾔ
  6
Continuous
 62
     2
370
     9
100
AcDbText
 10
-1791.292747061225
 20
-620.2879882355545
 30
0.0
 40
30.48
  1
Ｓ０７Ｆ
 41
1.09375
  7
ＭＳ ゴシック
100
AcDbText
  0
TEXT
  5
220
330
1F
100
AcDbEntity
  8
2-Fﾚｲﾔ
  6
Continuous
 62
     2
370
     9
100
AcDbText
 10
-1791.292747061225
 20
-750.2879894138397
 30
0.0
 40
30.48
  1
Ｓ０９Ｆ
 41
1.09375
  7
ＭＳ ゴシック
100
AcDbText
  0
TEXT
  5
221
330
1F
100
AcDbEntity
  8
2-Fﾚｲﾔ
  6
Continuous
 62
     2
370
     9
100
AcDbText
 10
-1791.292747061225
 20
-685.2881638000002
 30
0.0
 40
30.48
  1
Ｓ０８Ｆ
 41
1.09375
  7
ＭＳ ゴシック
100
AcDbText
  0
TEXT
  5
222
330
1F
100
AcDbEntity
  8
2-Fﾚｲﾔ
  6
Continuous
 62
     2
370
     9
100
AcDbText
 10
-1791.292747061225
 20
-815.2881649782852
 30
0.0
 40
30.48
  1
Ｓ１０Ｆ
 41
1.09375
  7
ＭＳ ゴシック
100
AcDbText
  0
TEXT
  5
223
330
1F
100
AcDbEntity
  8
2-Fﾚｲﾔ
  6
Continuous
 62
     2
370
     9
100
AcDbText
 10
-1791.292747061225
 20
-880.2880780797759
 30
0.0
 40
30.48
  1
Ｓ１１Ｆ
 41
1.09375
  7
ＭＳ ゴシック
100
AcDbText
  0
TEXT
  5
224
330
1F
100
AcDbEntity
  8
2-Fﾚｲﾔ
  6
Continuous
 62
     2
370
     9
100
AcDbText
 10
-1791.292747061225
 20
-945.2880786689183
 30
0.0
 40
30.48
  1
Ｓ１２Ｆ
 41
1.09375
  7
ＭＳ ゴシック
100
AcDbText
  0
TEXT
  5
225
330
1F
100
AcDbEntity
  8
2-Fﾚｲﾔ
  6
Continuous
 62
     2
370
     9
100
AcDbText
 10
-1791.292747061225
 20
-1075.288079847203
 30
0.0
 40
30.48
  1
Ｓ１４Ｆ
 41
1.09375
  7
ＭＳ ゴシック
100
AcDbText
  0
TEXT
  5
226
330
1F
100
AcDbEntity
  8
2-Fﾚｲﾔ
  6
Continuous
 62
     2
370
     9
100
AcDbText
 10
-1791.292747061225
 20
-1140.288080436346
 30
0.0
 40
30.48
  1
Ｓ１５Ｆ
 41
1.09375
  7
ＭＳ ゴシック
100
AcDbText
  0
TEXT
  5
227
330
1F
100
AcDbEntity
  8
2-Fﾚｲﾔ
  6
Continuous
 62
     2
370
     9
100
AcDbText
 10
-1791.292747061225
 20
-1205.288081025488
 30
0.0
 40
30.48
  1
Ｓ１６Ｆ
 41
1.09375
  7
ＭＳ ゴシック
100
AcDbText
  0
TEXT
  5
228
330
1F
100
AcDbEntity
  8
2-Fﾚｲﾔ
  6
Continuous
 62
     2
370
     9
100
AcDbText
 10
-1791.292747061225
 20
-1335.287994716121
 30
0.0
 40
30.48
  1
Ｓ１８Ｆ
 41
1.09375
  7
ＭＳ ゴシック
100
AcDbText
  0
TEXT
  5
229
330
1F
100
AcDbEntity
  8
2-Fﾚｲﾔ
  6
Continuous
 62
     2
370
     9
100
AcDbText
 10
-1791.292747061225
 20
-1270.288081614631
 30
0.0
 40
30.48
  1
Ｓ１７Ｆ
 41
1.09375
  7
ＭＳ ゴシック
100
AcDbText
  0
TEXT
  5
22A
330
1F
100
AcDbEntity
  8
2-Fﾚｲﾔ
  6
Continuous
 62
     2
370
     9
100
AcDbText
 10
-1791.292747061225
 20
-155.8429922228708
 30
0.0
 40
30.48
  1
製品符号
 41
1.09375
  7
ＭＳ ゴシック
100
AcDbText
  0
TEXT
  5
22B
330
1F
100
AcDbEntity
  8
2-Fﾚｲﾔ
  6
Continuous
 62
     2
370
     9
100
AcDbText
 10
-1494.670548963731
 20
-155.8429922228708
 30
0.0
 40
30.48
  1
Ｈ
 41
0.9999999999999998
  7
ＭＳ ゴシック
100
AcDbText
  0
TEXT
  5
22C
330
1F
100
AcDbEntity
  8
2-Fﾚｲﾔ
  6
Continuous
 62
     2
370
     9
100
AcDbText
 10
-1256.758554000192
 20
-155.8429922228708
 30
0.0
 40
30.48
  1
ｈ
 41
0.9999999999999998
  7
ＭＳ ゴシック
100
AcDbText
  0
TEXT
  5
22D
330
1F
100
AcDbEntity
  8
2-Fﾚｲﾔ
  6
Continuous
 62
     2
370
     9
100
AcDbText
 10
-1791.292908780823
 20
-60.70664522174717
 30
0.0
 40
30.48
  1
寸法表
 41
1.083333333333333
  7
ＭＳ ゴシック
100
AcDbText
  0
TEXT
  5
22E
330
1F
100
AcDbEntity
  8
2-Fﾚｲﾔ
  6
Continuous
 62
     2
370
     9
100
AcDbText
 10
-1289.919738244826
 20
-73.45674561161808
 30
0.0
 40
30.48
  1
［ｍｍ］
 41
1.09375
  7
ＭＳ ゴシック
100
AcDbText
  0
TEXT
  5
22F
330
1F
100
AcDbEntity
  8
2-Fﾚｲﾔ
  6
Continuous
 62
     2
370
     9
100
AcDbText
 10
-1791.292747061225
 20
-1010.288079258061
 30
0.0
 40
30.48
  1
Ｓ１３Ｆ
 41
1.09375
  7
ＭＳ ゴシック
100
AcDbText
  0
TEXT
  5
230
330
1F
100
AcDbEntity
  8
Hojo
  6
Continuous
 62
     2
370
     9
100
AcDbText
 10
736.3925208548318
 20
-887.4738763418529
 30
0.0
 40
30.48
  1
Φ８．５
 41
1.09375
  7
ＭＳ ゴシック
100
AcDbText
  0
TEXT
  5
231
330
1F
100
AcDbEntity
  8
092
  6
Continuous
 62
     2
370
     9
100
AcDbText
 10
-2328.830858464407
 20
1734.509694360895
 30
0.0
 40
30.48
  1
Ａ
 41
0.9999999999999998
  7
ＭＳ ゴシック
100
AcDbText
  0
TEXT
  5
232
330
1F
100
AcDbEntity
  8
092
  6
Continuous
 62
     2
370
     9
100
AcDbText
 10
1095.719306027107
 20
1734.509694360895
 30
0.0
 40
30.48
  1
Ａ
 41
0.9999999999999998
  7
ＭＳ ゴシック
100
AcDbText
  0
TEXT
  5
233
330
1F
100
AcDbEntity
  8
2-Fﾚｲﾔ
  6
Continuous
 62
     2
370
     9
100
AcDbText
 10
-1301.756992478168
 20
-230.2881596760033
 30
0.0
 40
30.48
  1
９７．５
 41
1.09375
  7
ＭＳ ゴシック
100
AcDbText
  0
TEXT
  5
234
330
1F
100
AcDbEntity
  8
2-Fﾚｲﾔ
  6
Continuous
 62
     2
370
     9
100
AcDbText
 10
-1346.757127686357
 20
-295.2879852898425
 30
0.0
 40
30.48
  1
１１０
 41
1.083333333333333
  7
ＭＳ ゴシック
100
AcDbText
  0
TEXT
  5
235
330
1F
100
AcDbEntity
  8
2-Fﾚｲﾔ
  6
Continuous
 62
     2
370
     9
100
AcDbText
 10
-1539.671962021861
 20
-230.2879847007
 30
0.0
 40
30.48
  1
６２．５
 41
1.09375
  7
ＭＳ ゴシック
100
AcDbText
  0
TEXT
  5
236
330
1F
100
AcDbEntity
  8
2-Fﾚｲﾔ
  6
Continuous
 62
     2
370
     9
100
AcDbText
 10
-1539.671935510451
 20
-295.2881602651456
 30
0.0
 40
30.48
  1
７５
 41
1.0625
  7
ＭＳ ゴシック
100
AcDbText
  0
TEXT
  5
237
330
1F
100
AcDbEntity
  8
092
  6
Continuous
 62
     2
370
     9
100
AcDbText
 10
1286.150305945178
 20
1683.622568304645
 30
0.0
 40
30.48
  1
192
 50
90.00000250447816
 41
1.083333333333334
  7
ＭＳ ゴシック
100
AcDbText
  0
TEXT
  5
238
330
1F
100
AcDbEntity
  8
092
  6
Continuous
 62
     2
370
     9
100
AcDbText
 10
-1756.935988383864
 20
643.929049127387
 30
0.0
 40
30.48
  1
②ジョイントプレート
 41
1.1125
  7
ＭＳ ゴシック
100
AcDbText
  0
TEXT
  5
239
330
1F
100
AcDbEntity
  8
092
  6
Continuous
 62
     2
370
     9
100
AcDbText
 10
242.4032153217948
 20
645.2117930747733
 30
0.0
 40
30.48
  1
②ジョイントプレート
 41
1.1125
  7
ＭＳ ゴシック
100
AcDbText
  0
TEXT
  5
23A
330
1F
100
AcDbEntity
  8
Hojo
  6
Continuous
 62
     2
370
     9
100
AcDbText
 10
390.9436921171238
 20
318.5224035771564
 30
0.0
 40
30.48
  1
100
 41
1.083333333333333
  7
ＭＳ ゴシック
100
AcDbText
  0
TEXT
  5
23B
330
1F
100
AcDbEntity
  8
Hojo
  6
Continuous
 62
     2
370
     9
100
AcDbText
 10
390.9433421665173
 20
497.4035054431824
 30
0.0
 40
30.48
  1
192
 41
1.083333333333333
  7
ＭＳ ゴシック
100
AcDbText
  0
TEXT
  5
23C
330
1F
100
AcDbEntity
  8
Hojo
  6
Continuous
 62
     2
370
     9
100
AcDbText
 10
303.1184062593401
 20
54.1293123948398
 30
0.0
 40
30.48
  1
15.5
 50
90.00000250447816
 41
1.09375
  7
ＭＳ ゴシック
100
AcDbText
  0
TEXT
  5
23D
330
1F
100
AcDbEntity
  8
Hojo
  6
Continuous
 62
     2
370
     9
100
AcDbText
 10
232.9679826164517
 20
-253.7758437420525
 30
0.0
 40
30.48
  1
R10
 50
40.00016617600635
 41
1.083333333333333
  7
ＭＳ ゴシック
100
AcDbText
  0
TEXT
  5
23E
330
1F
100
AcDbEntity
  8
Hojo
  6
Continuous
 62
     2
370
     9
100
AcDbText
 10
560.7341632983234
 20
-237.0265468048505
 30
0.0
 40
30.48
  1
R10
 50
329.9999342783768
 41
1.083333333333333
  7
ＭＳ ゴシック
100
AcDbText
  0
TEXT
  5
23F
330
1F
100
AcDbEntity
  8
Hojo
  6
Continuous
 62
     2
370
     9
100
AcDbText
 10
461.5335325076961
 20
-307.5207058210427
 30
0.0
 40
30.48
  1
R10
 50
49.99983291337723
 41
1.083333333333333
  7
ＭＳ ゴシック
100
AcDbText
  0
TEXT
  5
240
330
1F
100
AcDbEntity
  8
3-F
  6
Continuous
 62
     2
370
     9
100
AcDbText
 10
1174.429841142824
 20
-29.63995512292193
 30
0.0
 40
30.48
  1
①トラフパン本体
 41
1.109375
  7
ＭＳ ゴシック
100
AcDbText
  0
TEXT
  5
241
330
1F
100
AcDbEntity
  8
3-F
  6
Continuous
 62
     2
370
     9
100
AcDbText
 10
1216.366484883209
 20
-94.63995571206446
 30
0.0
 40
30.48
  1
材質：ステンレス鋼板　ｔ＝１．５（ＳＵＳ３０４）
 41
1.119791666666667
  7
ＭＳ ゴシック
100
AcDbText
  0
TEXT
  5
242
330
1F
100
AcDbEntity
  8
3-F
  6
Continuous
 62
     2
370
     9
100
AcDbText
 10
1216.366484883209
 20
-224.6401318656523
 30
0.0
 40
30.48
  1
材質：ステンレス鋼板　ｔ＝２．０（ＳＵＳ３０４）
 41
1.119791666666667
  7
ＭＳ ゴシック
100
AcDbText
  0
TEXT
  5
243
330
1F
100
AcDbEntity
  8
3-F
  6
Continuous
 62
     2
370
     9
100
AcDbText
 10
1216.366484883209
 20
-347.5599323773107
 30
0.0
 40
30.48
  1
材質：ステンレス鋼板　ｔ＝２．０（ＳＵＳ３０４）
 41
1.119791666666667
  7
ＭＳ ゴシック
100
AcDbText
  0
TEXT
  5
244
330
1F
100
AcDbEntity
  8
3-F
  6
Continuous
 62
     2
370
     9
100
AcDbText
 10
1221.930015528984
 20
98.2801146268293
 30
0.0
 40
30.48
  1
仕　様
 41
1.083333333333333
  7
ＭＳ ゴシック
100
AcDbText
  0
TEXT
  5
245
330
1F
100
AcDbEntity
  8
3-F
  6
Continuous
 62
     2
370
     9
100
AcDbText
 10
1174.429814631414
 20
-159.6401312765101
 30
0.0
 40
30.48
  1
②ジョイントプレート
 41
1.1125
  7
ＭＳ ゴシック
100
AcDbText
  0
TEXT
  5
246
330
1F
100
AcDbEntity
  8
4-F
  6
Continuous
 62
     2
370
     9
100
AcDbText
 10
-452.601801226038
 20
-1167.251687163975
 30
0.0
 40
30.48
  1
ｼﾞｮｲﾝﾄ穴：４-Φ８．５
 41
1.113095238095238
  7
ＭＳ ゴシック
100
AcDbText
  0
TEXT
  5
247
330
1F
100
AcDbEntity
  8
4-F
  6
Continuous
 62
     2
370
     9
100
AcDbText
 10
88.3490835009394
 20
-1167.251687163975
 30
0.0
 40
30.48
  1
ｼﾞｮｲﾝﾄ穴：６－Φ８．５
 41
1.113636363636364
  7
ＭＳ ゴシック
100
AcDbText
  0
TEXT
  5
248
330
1F
100
AcDbEntity
  8
4-F
  6
Continuous
 62
     2
370
     9
100
AcDbText
 10
640.5487434007944
 20
-1167.251687163975
 30
0.0
 40
30.48
  1
ｼﾞｮｲﾝﾄ穴：８－Φ８．５
 41
1.113636363636364
  7
ＭＳ ゴシック
100
AcDbText
  0
TEXT
  5
249
330
1F
100
AcDbEntity
  8
092
  6
Continuous
 62
     2
370
     9
100
AcDbText
 10
-2424.743421318305
 20
901.2158902337522
 30
0.0
 40
30.48
  1
ｈ
 50
90.00000250447816
 41
1.000000000000001
  7
ＭＳ ゴシック
100
AcDbText
  0
TEXT
  5
24A
330
1F
100
AcDbEntity
  8
092
  6
Continuous
 62
     2
370
     9
100
AcDbText
 10
-2257.938065023813
 20
936.2162001226728
 30
0.0
 40
30.48
  1
Ｈ
 50
90.00000250447816
 41
1.000000000000001
  7
ＭＳ ゴシック
100
AcDbText
  0
TEXT
  5
24B
330
1F
100
AcDbEntity
  8
Hojo
  6
Continuous
 62
     2
370
     9
100
AcDbText
 10
-409.4195237687608
 20
-185.5746149582422
 30
0.0
 40
30.48
  1
ｈ
 50
90.00000250447816
 41
0.9999999999999998
  7
ＭＳ ゴシック
100
AcDbText
  0
TEXT
  5
24C
330
1F
100
AcDbEntity
  8
Hojo
  6
Continuous
 62
     2
370
     9
100
AcDbText
 10
-230.6965995767813
 20
-94.324644415364
 30
0.0
 40
30.48
  1
Ｈ
 50
90.00000250447816
 41
0.9999999999999998
  7
ＭＳ ゴシック
100
AcDbText
  0
TEXT
  5
24D
330
1F
100
AcDbEntity
  8
3-F
  6
Continuous
 62
     2
370
     9
100
AcDbText
 10
1174.430207000275
 20
35.35952054031107
 30
0.0
 40
30.48
  1
サニタリートラフ　ＳＴＶ－１００　直線　
 41
1.11875
  7
ＭＳ ゴシック
100
AcDbText
  0
TEXT
  5
24E
330
1F
100
AcDbEntity
  8
F-Fﾚｲﾔ
  6
Continuous
 62
     2
370
     9
100
AcDbText
 10
-270.0004009758646
 20
-1917.638873928725
 30
0.0
 40
30.48
  1
サニタリートラフ　ＳＴＶ－１００　直線　Ｓ０１Ｆ～Ｓ１８Ｆ
 41
1.120689655172413
  7
ＭＳ ゴシック
100
AcDbText
  0
TEXT
  5
24F
330
1F
100
AcDbEntity
  8
2-Fﾚｲﾔ
  6
Continuous
 62
     2
370
     9
100
AcDbText
 10
-1539.672005765687
 20
-360.287985878985
 30
0.0
 40
30.48
  1
８７．５
 41
1.09375
  7
ＭＳ ゴシック
100
AcDbText
  0
TEXT
  5
250
330
1F
100
AcDbEntity
  8
4-F
  6
Continuous
 62
     2
370
     9
100
AcDbText
 10
-418.8510126035931
 20
-1112.529910857117
 30
0.0
 40
30.48
  1
Ｓ０１Ｆ～Ｓ０４Ｆ
 50
359.9999874683174
 41
1.111111111111111
  7
ＭＳ ゴシック
100
AcDbText
  0
TEXT
  5
251
330
1F
100
AcDbEntity
  8
4-F
  6
Continuous
 62
     2
370
     9
100
AcDbText
 10
133.3485598086099
 20
-1112.529910857137
 30
0.0
 40
30.48
  1
Ｓ０５Ｆ～Ｓ１１Ｆ
 50
359.9999874683231
 41
1.111111111111111
  7
ＭＳ ゴシック
100
AcDbText
  0
TEXT
  5
252
330
1F
100
AcDbEntity
  8
4-F
  6
Continuous
 62
     2
370
     9
100
AcDbText
 10
685.5496195108902
 20
-1112.529910857137
 30
0.0
 40
30.48
  1
Ｓ１２Ｆ～Ｓ１８Ｆ
 50
359.9999874683231
 41
1.111111111111111
  7
ＭＳ ゴシック
100
AcDbText
  0
TEXT
  5
253
330
1F
100
AcDbEntity
  8
4-F
  6
Continuous
 62
     2
370
     9
100
AcDbText
 10
-580.3747273504047
 20
-1018.265378303933
 30
0.0
 40
30.48
  1
ジョイント穴詳細
 41
1.109375
  7
ＭＳ ゴシック
100
AcDbText
  0
LWPOLYLINE
  5
254
330
1F
100
AcDbEntity
  8
092
  6
Continuous
 62
     7
370
     9
100
AcDbPolyline
 90
        4
 70
     1
 43
1.0
 10
-2092.055762690467
 20
1331.334904321833
 42
0.4142135623731
 10
-2092.555762690467
 20
1331.834904321833
 42
0.4142135623731
 10
-2093.055762690467
 20
1331.334904321833
 42
0.4142135623731
 10
-2092.555762690467
 20
1330.834904321832
 42
0.4142135623731
  0
LWPOLYLINE
  5
255
330
1F
100
AcDbEntity
  8
092
  6
Continuous
 62
     7
370
     9
100
AcDbPolyline
 90
        4
 70
     1
 43
1.0
 10
903.9438176044625
 20
1331.334904321833
 42
0.4142135623731
 10
903.4438176044625
 20
1331.834904321833
 42
0.4142135623731
 10
902.9438176044625
 20
1331.334904321833
 42
0.4142135623731
 10
903.4438176044625
 20
1330.834904321832
 42
0.4142135623731
  0
LWPOLYLINE
  5
256
330
1F
100
AcDbEntity
  8
092
  6
Continuous
 62
     7
370
     9
100
AcDbPolyline
 90
        4
 70
     1
 43
1.0
 10
-2246.797971635252
 20
1081.2161072847
 42
0.4142135623731
 10
-2247.297971635252
 20
1081.7161072847
 42
0.4142135623731
 10
-2247.797971635252
 20
1081.2161072847
 42
0.4142135623731
 10
-2247.297971635252
 20
1080.7161072847
 42
0.4142135623731
  0
LWPOLYLINE
  5
257
330
1F
100
AcDbEntity
  8
092
  6
Continuous
 62
     7
370
     9
100
AcDbPolyline
 90
        4
 70
     1
 43
1.0
 10
-2246.797971635252
 20
831.2162934537096
 42
0.4142135623731
 10
-2247.297971635252
 20
831.7162934537096
 42
0.4142135623731
 10
-2247.797971635252
 20
831.2162934537096
 42
0.4142135623731
 10
-2247.297971635252
 20
830.7162934537097
 42
0.4142135623731
  0
LWPOLYLINE
  5
258
330
1F
100
AcDbEntity
  8
092
  6
Continuous
 62
     7
370
     9
100
AcDbPolyline
 90
        4
 70
     1
 43
1.0
 10
-2413.603327929744
 20
1081.2161072847
 42
0.4142135623731
 10
-2414.103327929744
 20
1081.7161072847
 42
0.4142135623731
 10
-2414.603327929744
 20
1081.2161072847
 42
0.4142135623731
 10
-2414.103327929744
 20
1080.7161072847
 42
0.4142135623731
  0
LWPOLYLINE
  5
259
330
1F
100
AcDbEntity
  8
092
  6
Continuous
 62
     7
370
     9
100
AcDbPolyline
 90
        4
 70
     1
 43
1.0
 10
-2413.603327929744
 20
761.2160236264745
 42
0.4142135623731
 10
-2414.103327929744
 20
761.7160236264745
 42
0.4142135623731
 10
-2414.603327929744
 20
761.2160236264745
 42
0.4142135623731
 10
-2414.103327929744
 20
760.7160236264746
 42
0.4142135623731
  0
LWPOLYLINE
  5
25A
330
1F
100
AcDbEntity
  8
Hojo
  6
Continuous
 62
     7
370
     9
100
AcDbPolyline
 90
        4
 70
     1
 43
1.0
 10
43.94370213254535
 20
397.2201497444314
 42
0.4142135623731
 10
43.44370213254535
 20
397.7201497444314
 42
0.4142135623731
 10
42.94370213254535
 20
397.2201497444314
 42
0.4142135623731
 10
43.44370213254535
 20
396.7201497444314
 42
0.4142135623731
  0
LWPOLYLINE
  5
25B
330
1F
100
AcDbEntity
  8
Hojo
  6
Continuous
 62
     7
370
     9
100
AcDbPolyline
 90
        4
 70
     1
 43
1.0
 10
803.943332151096
 20
397.2201497444314
 42
0.4142135623731
 10
803.443332151096
 20
397.7201497444314
 42
0.4142135623731
 10
802.943332151096
 20
397.2201497444314
 42
0.4142135623731
 10
803.443332151096
 20
396.7201497444314
 42
0.4142135623731
  0
LWPOLYLINE
  5
25C
330
1F
100
AcDbEntity
  8
Hojo
  6
Continuous
 62
     7
370
     9
100
AcDbPolyline
 90
        4
 70
     1
 43
1.0
 10
-56.05643337021502
 20
482.7634757504038
 42
0.4142135623731
 10
-56.55643337021502
 20
483.2634757504037
 42
0.4142135623731
 10
-57.05643337021502
 20
482.7634757504038
 42
0.4142135623731
 10
-56.55643337021502
 20
482.2634757504038
 42
0.4142135623731
  0
LWPOLYLINE
  5
25D
330
1F
100
AcDbEntity
  8
Hojo
  6
Continuous
 62
     7
370
     9
100
AcDbPolyline
 90
        4
 70
     1
 43
1.0
 10
903.9438176044625
 20
482.7634757504038
 42
0.4142135623731
 10
903.4438176044625
 20
483.2634757504037
 42
0.4142135623731
 10
902.9438176044625
 20
482.7634757504038
 42
0.4142135623731
 10
903.4438176044625
 20
482.2634757504038
 42
0.4142135623731
  0
LWPOLYLINE
  5
25E
330
1F
100
AcDbEntity
  8
Hojo
  6
Continuous
 62
     7
370
     9
100
AcDbPolyline
 90
        4
 70
     1
 43
1.0
 10
-219.5565061882196
 20
234.4252273981175
 42
0.4142135623731
 10
-220.0565061882196
 20
234.9252273981175
 42
0.4142135623731
 10
-220.5565061882196
 20
234.4252273981175
 42
0.4142135623731
 10
-220.0565061882196
 20
233.9252273981175
 42
0.4142135623731
  0
LWPOLYLINE
  5
25F
330
1F
100
AcDbEntity
  8
Hojo
  6
Continuous
 62
     7
370
     9
100
AcDbPolyline
 90
        4
 70
     1
 43
1.0
 10
318.2587839903515
 20
234.4252273981175
 42
0.4142135623731
 10
317.7587839903515
 20
234.9252273981175
 42
0.4142135623731
 10
317.2587839903515
 20
234.4252273981175
 42
0.4142135623731
 10
317.7587839903515
 20
233.9252273981175
 42
0.4142135623731
  0
LWPOLYLINE
  5
260
330
1F
100
AcDbEntity
  8
Hojo
  6
Continuous
 62
     7
370
     9
100
AcDbPolyline
 90
        4
 70
     1
 43
1.0
 10
318.2587839903515
 20
156.9251661273043
 42
0.4142135623731
 10
317.7587839903515
 20
157.4251661273043
 42
0.4142135623731
 10
317.2587839903515
 20
156.9251661273043
 42
0.4142135623731
 10
317.7587839903515
 20
156.4251661273043
 42
0.4142135623731
  0
LWPOLYLINE
  5
261
330
1F
100
AcDbEntity
  8
Hojo
  6
Continuous
 62
     7
370
     9
100
AcDbPolyline
 90
        4
 70
     1
 43
1.0
 10
-219.5565061882196
 20
234.4252273981175
 42
0.4142135623731
 10
-220.0565061882196
 20
234.9252273981175
 42
0.4142135623731
 10
-220.5565061882196
 20
234.4252273981175
 42
0.4142135623731
 10
-220.0565061882196
 20
233.9252273981175
 42
0.4142135623731
  0
LWPOLYLINE
  5
262
330
1F
100
AcDbEntity
  8
Hojo
  6
Continuous
 62
     7
370
     9
100
AcDbPolyline
 90
        4
 70
     1
 43
1.0
 10
-219.5565061882196
 20
-390.5746571299653
 42
0.4142135623731
 10
-220.0565061882196
 20
-390.0746571299653
 42
0.4142135623731
 10
-220.5565061882196
 20
-390.5746571299653
 42
0.4142135623731
 10
-220.0565061882196
 20
-391.0746571299653
 42
0.4142135623731
  0
LWPOLYLINE
  5
263
330
1F
100
AcDbEntity
  8
Hojo
  6
Continuous
 62
     7
370
     9
100
AcDbPolyline
 90
        4
 70
     1
 43
1.0
 10
-398.2796053555024
 20
234.4252273981175
 42
0.4142135623731
 10
-398.7796053555024
 20
234.9252273981175
 42
0.4142135623731
 10
-399.2796053555024
 20
234.4252273981175
 42
0.4142135623731
 10
-398.7796053555024
 20
233.9252273981175
 42
0.4142135623731
  0
LWPOLYLINE
  5
264
330
1F
100
AcDbEntity
  8
Hojo
  6
Continuous
 62
     7
370
     9
100
AcDbPolyline
 90
        4
 70
     1
 43
1.0
 10
-398.2796053555024
 20
-565.5748067721436
 42
0.4142135623731
 10
-398.7796053555024
 20
-565.0748067721436
 42
0.4142135623731
 10
-399.2796053555024
 20
-565.5748067721436
 42
0.4142135623731
 10
-398.7796053555024
 20
-566.0748067721436
 42
0.4142135623731
  0
LWPOLYLINE
  5
265
330
1F
100
AcDbEntity
  8
092
  6
Continuous
 62
     7
370
     9
100
AcDbPolyline
 90
        4
 70
     1
 43
1.0
 10
1304.290110814525
 20
1908.12244377081
 42
0.4142135623731
 10
1303.790110814525
 20
1908.62244377081
 42
0.4142135623731
 10
1303.290110814525
 20
1908.12244377081
 42
0.4142135623731
 10
1303.790110814525
 20
1907.62244377081
 42
0.4142135623731
  0
LWPOLYLINE
  5
266
330
1F
100
AcDbEntity
  8
092
  6
Continuous
 62
     7
370
     9
100
AcDbPolyline
 90
        4
 70
     1
 43
1.0
 10
1304.290110814525
 20
1524.122693331545
 42
0.4142135623731
 10
1303.790110814525
 20
1524.622693331545
 42
0.4142135623731
 10
1303.290110814525
 20
1524.122693331545
 42
0.4142135623731
 10
1303.790110814525
 20
1523.622693331545
 42
0.4142135623731
  0
LWPOLYLINE
  5
267
330
1F
100
AcDbEntity
  8
Hojo
  6
Continuous
 62
     7
370
     9
100
AcDbPolyline
 90
        4
 70
     1
 43
1.0
 10
173.9440532614366
 20
307.8824842896699
 42
0.4142135623731
 10
173.4440532614366
 20
308.3824842896699
 42
0.4142135623731
 10
172.9440532614366
 20
307.8824842896699
 42
0.4142135623731
 10
173.4440532614366
 20
307.3824842896699
 42
0.4142135623731
  0
LWPOLYLINE
  5
268
330
1F
100
AcDbEntity
  8
Hojo
  6
Continuous
 62
     7
370
     9
100
AcDbPolyline
 90
        4
 70
     1
 43
1.0
 10
673.9433309728109
 20
307.8824842896699
 42
0.4142135623731
 10
673.4433309728109
 20
308.3824842896699
 42
0.4142135623731
 10
672.9433309728109
 20
307.8824842896699
 42
0.4142135623731
 10
673.4433309728109
 20
307.3824842896699
 42
0.4142135623731
  0
CIRCLE
  5
269
330
1F
100
AcDbEntity
  8
躯体
  6
JWW_DASHED1
 62
     7
370
     9
100
AcDbCircle
 10
-2035.555457986
 20
1878.122578095285
 30
0.0
 40
13.00000066462631
  0
CIRCLE
  5
26A
330
1F
100
AcDbEntity
  8
躯体
  6
JWW_DASHED1
 62
     7
370
     9
100
AcDbCircle
 10
-2035.555457986
 20
1554.12242350431
 30
0.0
 40
13.00000066462631
  0
CIRCLE
  5
26B
330
1F
100
AcDbEntity
  8
躯体
  6
JWW_DASHED1
 62
     7
370
     9
100
AcDbCircle
 10
846.444220577888
 20
1878.122578095285
 30
0.0
 40
13.00000066462631
  0
CIRCLE
  5
26C
330
1F
100
AcDbEntity
  8
躯体
  6
JWW_DASHED1
 62
     7
370
     9
100
AcDbCircle
 10
846.444220577888
 20
1554.12242350431
 30
0.0
 40
13.00000066462631
  0
TEXT
  5
26D
330
1F
100
AcDbEntity
  8
092
  6
Continuous
 62
     2
370
     9
100
AcDbText
 10
-391.1369380343379
 20
645.5017271520916
 30
0.0
 40
30.48
  1
③中間補強プレート
 41
1.111111111111111
  7
ＭＳ ゴシック
100
AcDbText
  0
TEXT
  5
26E
330
1F
100
AcDbEntity
  8
3-F
  6
Continuous
 62
     2
370
     9
100
AcDbText
 10
1174.42991537477
 20
-284.0022532120266
 30
0.0
 40
30.48
  1
③中間補強プレート
 41
1.111111111111111
  7
ＭＳ ゴシック
100
AcDbText
  0
ENDSEC
  0
SECTION
  2
OBJECTS
  0
DICTIONARY
  5
C
330
0
100
AcDbDictionary
281
     1
  3
ACAD_GROUP
350
D
  3
ACAD_LAYOUT
350
1A
  3
ACAD_MLEADERSTYLE
350
270
  3
ACAD_MLINESTYLE
350
17
  3
ACAD_PLOTSETTINGS
350
19
  3
ACAD_PLOTSTYLENAME
350
E
  3
ACAD_TABLESTYLE
350
26F
  3
ACAD_VISUALSTYLE
350
2A
  3
AcDbVariableDictionary
350
271
  0
DICTIONARY
  5
D
102
{ACAD_REACTORS
330
C
102
}
330
C
100
AcDbDictionary
281
     1
  0
DICTIONARY
  5
1A
102
{ACAD_REACTORS
330
C
102
}
330
C
100
AcDbDictionary
281
     1
  3
Layout1
350
1E
  3
Layout2
350
26
  3
Model
350
22
  0
DICTIONARY
  5
270
102
{ACAD_REACTORS
330
C
102
}
330
C
100
AcDbDictionary
281
     1
  0
DICTIONARY
  5
17
102
{ACAD_REACTORS
330
C
102
}
330
C
100
AcDbDictionary
281
     1
  3
Standard
350
18
  0
DICTIONARY
  5
19
102
{ACAD_REACTORS
330
C
102
}
330
C
100
AcDbDictionary
281
     1
  0
ACDBDICTIONARYWDFLT
  5
E
102
{ACAD_REACTORS
330
C
102
}
330
C
100
AcDbDictionary
281
     1
  3
Normal
350
F
100
AcDbDictionaryWithDefault
340
F
  0
DICTIONARY
  5
26F
102
{ACAD_REACTORS
330
C
102
}
330
C
100
AcDbDictionary
281
     1
  0
DICTIONARY
  5
2A
102
{ACAD_REACTORS
330
C
102
}
330
C
100
AcDbDictionary
281
     1
  3
2dWireframe
350
2F
  3
3D Hidden
350
31
  3
3dWireframe
350
30
  3
Basic
350
32
  3
Brighten
350
36
  3
ColorChange
350
3A
  3
Conceptual
350
34
  3
Dim
350
35
  3
Facepattern
350
39
  3
Flat
350
2B
  3
FlatWithEdges
350
2C
  3
Gouraud
350
2D
  3
GouraudWithEdges
350
2E
  3
Linepattern
350
38
  3
Realistic
350
33
  3
Thicken
350
37
  0
DICTIONARY
  5
271
102
{ACAD_REACTORS
330
C
102
}
330
C
100
AcDbDictionary
281
     1
  3
PSOLHEIGHT
350
273
  3
PSOLWIDTH
350
272
  0
LAYOUT
  5
1E
102
{ACAD_REACTORS
330
1A
102
}
102
{ACAD_XDICTIONARY
360
274
102
}
330
1A
100
AcDbPlotSettings
  1

  2
none_device
  4

  6

 40
0.0
 41
0.0
 42
0.0
 43
0.0
 44
0.0
 45
0.0
 46
0.0
 47
0.0
 48
0.0
 49
0.0
140
0.0
141
0.0
142
1.0
143
1.0
 70
   688
 72
     0
 73
     0
 74
     5
  7

 75
    16
147
1.0
148
0.0
149
0.0
100
AcDbLayout
  1
Layout1
 70
     1
 71
     1
 10
0.0
 20
0.0
 11
420.0
 21
297.0
 12
0.0
 22
0.0
 32
0.0
 14
1.000000000000000E+20
 24
1.000000000000000E+20
 34
1.000000000000000E+20
 15
-1.000000000000000E+20
 25
-1.000000000000000E+20
 35
-1.000000000000000E+20
146
0.0
 13
0.0
 23
0.0
 33
0.0
 16
1.0
 26
0.0
 36
0.0
 17
0.0
 27
1.0
 37
0.0
 76
     0
330
1B
  0
LAYOUT
  5
26
102
{ACAD_REACTORS
330
1A
102
}
102
{ACAD_XDICTIONARY
360
278
102
}
330
1A
100
AcDbPlotSettings
  1

  2
none_device
  4

  6

 40
0.0
 41
0.0
 42
0.0
 43
0.0
 44
0.0
 45
0.0
 46
0.0
 47
0.0
 48
0.0
 49
0.0
140
0.0
141
0.0
142
1.0
143
1.0
 70
   688
 72
     0
 73
     0
 74
     5
  7

 75
    16
147
1.0
148
0.0
149
0.0
100
AcDbLayout
  1
Layout2
 70
     1
 71
     2
 10
0.0
 20
0.0
 11
0.0
 21
0.0
 12
0.0
 22
0.0
 32
0.0
 14
0.0
 24
0.0
 34
0.0
 15
0.0
 25
0.0
 35
0.0
146
0.0
 13
0.0
 23
0.0
 33
0.0
 16
1.0
 26
0.0
 36
0.0
 17
0.0
 27
1.0
 37
0.0
 76
     0
330
23
  0
LAYOUT
  5
22
102
{ACAD_REACTORS
330
1A
102
}
102
{ACAD_XDICTIONARY
360
276
102
}
330
1A
100
AcDbPlotSettings
  1

  2
none_device
  4

  6

 40
0.0
 41
0.0
 42
0.0
 43
0.0
 44
0.0
 45
0.0
 46
0.0
 47
0.0
 48
0.0
 49
0.0
140
0.0
141
0.0
142
1.0
143
1.0
 70
  1712
 72
     0
 73
     0
 74
     0
  7

 75
     0
147
1.0
148
0.0
149
0.0
100
AcDbLayout
  1
Model
 70
     1
 71
     0
 10
-2970.0
 20
-2100.0
 11
2970.0
 21
2100.0
 12
0.0
 22
0.0
 32
0.0
 14
-2970.0
 24
-2100.0
 34
0.0
 15
2970.0
 25
2100.0
 35
0.0
146
0.0
 13
0.0
 23
0.0
 33
0.0
 16
1.0
 26
0.0
 36
0.0
 17
0.0
 27
1.0
 37
0.0
 76
     0
330
1F
331
29
  0
MLINESTYLE
  5
18
102
{ACAD_REACTORS
330
17
102
}
330
17
100
AcDbMlineStyle
  2
Standard
 70
     0
  3

 62
   256
 51
90.0
 52
90.0
 71
     2
 49
0.5
 62
   256
  6
BYLAYER
 49
-0.5
 62
   256
  6
BYLAYER
  0
ACDBPLACEHOLDER
  5
F
102
{ACAD_REACTORS
330
E
102
}
330
E
  0
VISUALSTYLE
  5
2F
102
{ACAD_REACTORS
330
2A
102
}
330
2A
100
AcDbVisualStyle
  2
2dWireframe
 70
     4
 71
     0
 72
     2
 73
     0
 90
        0
 40
-0.6
 41
-30.0
 62
     5
 63
     7
 74
     1
 91
        4
 64
     7
 65
   257
 75
     1
175
     1
 42
1.0
 92
        0
 66
   257
 43
1.0
 76
     1
 77
     6
 78
     2
 67
     7
 79
     5
170
     0
171
     0
290
     0
174
     0
 93
        1
 44
0.0
173
     0
291
     0
 45
0.0
1001
ACAD
1000
AcDbSavedByObjectVersion
1070
     0
  0
VISUALSTYLE
  5
31
102
{ACAD_REACTORS
330
2A
102
}
330
2A
100
AcDbVisualStyle
  2
3D Hidden
 70
     6
 71
     1
 72
     2
 73
     2
 90
        0
 40
-0.6
 41
-30.0
 62
     5
 63
     7
 74
     2
 91
        2
 64
     7
 65
   257
 75
     2
175
     1
 42
40.0
 92
        0
 66
   257
 43
1.0
 76
     1
 77
     6
 78
     2
 67
     7
 79
     3
170
     0
171
     0
290
     0
174
     0
 93
        1
 44
0.0
173
     0
291
     0
 45
0.0
1001
ACAD
1000
AcDbSavedByObjectVersion
1070
     0
  0
VISUALSTYLE
  5
30
102
{ACAD_REACTORS
330
2A
102
}
330
2A
100
AcDbVisualStyle
  2
3dWireframe
 70
     5
 71
     0
 72
     2
 73
     0
 90
        0
 40
-0.6
 41
-30.0
 62
     5
 63
     7
 74
     1
 91
        4
 64
     7
 65
   257
 75
     1
175
     1
 42
1.0
 92
        0
 66
   257
 43
1.0
 76
     1
 77
     6
 78
     2
 67
     7
 79
     5
170
     0
171
     0
290
     0
174
     0
 93
        1
 44
0.0
173
     0
291
     0
 45
0.0
1001
ACAD
1000
AcDbSavedByObjectVersion
1070
     0
  0
VISUALSTYLE
  5
32
102
{ACAD_REACTORS
330
2A
102
}
330
2A
100
AcDbVisualStyle
  2
Basic
 70
     7
 71
     1
 72
     0
 73
     1
 90
        0
 40
-0.6
 41
-30.0
 62
     5
 63
     7
 74
     0
 91
        4
 64
     7
 65
   257
 75
     1
175
     1
 42
1.0
 92
        8
 66
     7
 43
1.0
 76
     1
 77
     6
 78
     2
 67
     7
 79
     5
170
     0
171
     0
290
     0
174
     0
 93
        1
 44
0.0
173
     0
291
     1
 45
0.0
1001
ACAD
1000
AcDbSavedByObjectVersion
1070
     0
  0
VISUALSTYLE
  5
36
102
{ACAD_REACTORS
330
2A
102
}
330
2A
100
AcDbVisualStyle
  2
Brighten
 70
    12
 71
     2
 72
     2
 73
     0
 90
        0
 40
-0.6
 41
-30.0
 62
     5
 63
     7
 74
     1
 91
        4
 64
     7
 65
   257
 75
     1
175
     1
 42
1.0
 92
        8
 66
     7
 43
1.0
 76
     1
 77
     6
 78
     2
 67
     7
 79
     5
170
     0
171
     0
290
     0
174
     0
 93
        1
 44
50.0
173
     0
291
     1
 45
0.0
1001
ACAD
1000
AcDbSavedByObjectVersion
1070
     0
  0
VISUALSTYLE
  5
3A
102
{ACAD_REACTORS
330
2A
102
}
330
2A
100
AcDbVisualStyle
  2
ColorChange
 70
    16
 71
     2
 72
     2
 73
     3
 90
        0
 40
-0.6
 41
-30.0
 62
     5
 63
     8
 74
     1
 91
        4
 64
     7
 65
   257
 75
     1
175
     1
 42
1.0
 92
        8
 66
     8
 43
1.0
 76
     1
 77
     6
 78
     2
 67
     7
 79
     5
170
     0
171
     0
290
     0
174
     0
 93
        1
 44
0.0
173
     0
291
     1
 45
0.0
1001
ACAD
1000
AcDbSavedByObjectVersion
1070
     0
  0
VISUALSTYLE
  5
34
102
{ACAD_REACTORS
330
2A
102
}
330
2A
100
AcDbVisualStyle
  2
Conceptual
 70
     9
 71
     3
 72
     2
 73
     0
 90
        0
 40
-0.6
 41
-30.0
 62
     5
 63
     7
 74
     2
 91
        2
 64
     7
 65
   257
 75
     1
175
     1
 42
40.0
 92
        8
 66
     7
 43
1.0
 76
     1
 77
     6
 78
     2
 67
     7
 79
     3
170
     0
171
     0
290
     0
174
     0
 93
        1
 44
0.0
173
     0
291
     0
 45
0.0
1001
ACAD
1000
AcDbSavedByObjectVersion
1070
     0
  0
VISUALSTYLE
  5
35
102
{ACAD_REACTORS
330
2A
102
}
330
2A
100
AcDbVisualStyle
  2
Dim
 70
    11
 71
     2
 72
     2
 73
     0
 90
        0
 40
-0.6
 41
-30.0
 62
     5
 63
     7
 74
     1
 91
        4
 64
     7
 65
   257
 75
     1
175
     1
 42
1.0
 92
        8
 66
     7
 43
1.0
 76
     1
 77
     6
 78
     2
 67
     7
 79
     5
170
     0
171
     0
290
     0
174
     0
 93
        1
 44
-50.0
173
     0
291
     1
 45
0.0
1001
ACAD
1000
AcDbSavedByObjectVersion
1070
     0
  0
VISUALSTYLE
  5
39
102
{ACAD_REACTORS
330
2A
102
}
330
2A
100
AcDbVisualStyle
  2
Facepattern
 70
    15
 71
     2
 72
     2
 73
     0
 90
        0
 40
-0.6
 41
-30.0
 62
     5
 63
     7
 74
     1
 91
        4
 64
     7
 65
   257
 75
     1
175
     1
 42
1.0
 92
        8
 66
     7
 43
1.0
 76
     1
 77
     6
 78
     2
 67
     7
 79
     5
170
     0
171
     0
290
     0
174
     0
 93
        1
 44
0.0
173
     0
291
     1
 45
0.0
1001
ACAD
1000
AcDbSavedByObjectVersion
1070
     0
  0
VISUALSTYLE
  5
2B
102
{ACAD_REACTORS
330
2A
102
}
330
2A
100
AcDbVisualStyle
  2
Flat
 70
     0
 71
     2
 72
     1
 73
     1
 90
        2
 40
-0.6
 41
30.0
 62
     5
 63
     7
 74
     0
 91
        4
 64
     7
 65
   257
 75
     1
175
     1
 42
1.0
 92
        8
 66
     7
 43
1.0
 76
     1
 77
     6
 78
     2
 67
     7
 79
     5
170
     0
171
     0
290
     0
174
     0
 93
       13
 44
0.0
173
     0
291
     1
 45
0.0
1001
ACAD
1000
AcDbSavedByObjectVersion
1070
     0
  0
VISUALSTYLE
  5
2C
102
{ACAD_REACTORS
330
2A
102
}
330
2A
100
AcDbVisualStyle
  2
FlatWithEdges
 70
     1
 71
     2
 72
     1
 73
     1
 90
        2
 40
-0.6
 41
30.0
 62
     5
 63
     7
 74
     1
 91
        4
 64
     7
 65
   257
 75
     1
175
     1
 42
1.0
 92
        0
 66
   257
 43
1.0
 76
     1
 77
     6
 78
     2
 67
     7
 79
     5
170
     0
171
     0
290
     0
174
     0
 93
       13
 44
0.0
173
     0
291
     1
 45
0.0
1001
ACAD
1000
AcDbSavedByObjectVersion
1070
     0
  0
VISUALSTYLE
  5
2D
102
{ACAD_REACTORS
330
2A
102
}
330
2A
100
AcDbVisualStyle
  2
Gouraud
 70
     2
 71
     2
 72
     2
 73
     1
 90
        2
 40
-0.6
 41
30.0
 62
     5
 63
     7
 74
     0
 91
        4
 64
     7
 65
   257
 75
     1
175
     1
 42
1.0
 92
        0
 66
     7
 43
1.0
 76
     1
 77
     6
 78
     2
 67
     7
 79
     5
170
     0
171
     0
290
     0
174
     0
 93
       13
 44
0.0
173
     0
291
     1
 45
0.0
1001
ACAD
1000
AcDbSavedByObjectVersion
1070
     0
  0
VISUALSTYLE
  5
2E
102
{ACAD_REACTORS
330
2A
102
}
330
2A
100
AcDbVisualStyle
  2
GouraudWithEdges
 70
     3
 71
     2
 72
     2
 73
     1
 90
        2
 40
-0.6
 41
30.0
 62
     5
 63
     7
 74
     1
 91
        4
 64
     7
 65
   257
 75
     1
175
     1
 42
1.0
 92
        0
 66
   257
 43
1.0
 76
     1
 77
     6
 78
     2
 67
     7
 79
     5
170
     0
171
     0
290
     0
174
     0
 93
       13
 44
0.0
173
     0
291
     1
 45
0.0
1001
ACAD
1000
AcDbSavedByObjectVersion
1070
     0
  0
VISUALSTYLE
  5
38
102
{ACAD_REACTORS
330
2A
102
}
330
2A
100
AcDbVisualStyle
  2
Linepattern
 70
    14
 71
     2
 72
     2
 73
     0
 90
        0
 40
-0.6
 41
-30.0
 62
     5
 63
     7
 74
     1
 91
        4
 64
     7
 65
   257
 75
     7
175
     7
 42
1.0
 92
        8
 66
     7
 43
1.0
 76
     1
 77
     6
 78
     2
 67
     7
 79
     5
170
     0
171
     0
290
     0
174
     0
 93
        1
 44
0.0
173
     0
291
     1
 45
0.0
1001
ACAD
1000
AcDbSavedByObjectVersion
1070
     0
  0
VISUALSTYLE
  5
33
102
{ACAD_REACTORS
330
2A
102
}
330
2A
100
AcDbVisualStyle
  2
Realistic
 70
     8
 71
     2
 72
     2
 73
     0
 90
        0
 40
-0.6
 41
-30.0
 62
     5
 63
     7
 74
     1
 91
        0
 64
     7
 65
   257
 75
     1
175
     1
 42
1.0
 92
        8
 66
     8
 43
1.0
 76
     1
 77
     6
 78
     2
 67
     7
 79
     5
170
     0
171
     0
290
     0
174
     0
 93
       13
 44
0.0
173
     0
291
     0
 45
0.0
1001
ACAD
1000
AcDbSavedByObjectVersion
1070
     0
  0
VISUALSTYLE
  5
37
102
{ACAD_REACTORS
330
2A
102
}
330
2A
100
AcDbVisualStyle
  2
Thicken
 70
    13
 71
     2
 72
     2
 73
     0
 90
        0
 40
-0.6
 41
-30.0
 62
     5
 63
     7
 74
     1
 91
        4
 64
     7
 65
   257
 75
     1
175
     1
 42
1.0
 92
       12
 66
     7
 43
1.0
 76
     1
 77
     6
 78
     2
 67
     7
 79
     5
170
     0
171
     0
290
     0
174
     0
 93
        1
 44
0.0
173
     0
291
     1
 45
0.0
1001
ACAD
1000
AcDbSavedByObjectVersion
1070
     0
  0
DICTIONARYVAR
  5
273
102
{ACAD_REACTORS
330
271
102
}
330
271
100
DictionaryVariables
280
     0
  1
80.000000
  0
DICTIONARYVAR
  5
272
102
{ACAD_REACTORS
330
271
102
}
330
271
100
DictionaryVariables
280
     0
  1
5.000000
  0
DICTIONARY
  5
274
330
1E
100
AcDbDictionary
280
     1
281
     1
  3
ACAD_XREC_ROUNDTRIP
360
275
  0
DICTIONARY
  5
278
330
26
100
AcDbDictionary
280
     1
281
     1
  3
ACAD_XREC_ROUNDTRIP
360
279
  0
DICTIONARY
  5
276
330
22
100
AcDbDictionary
280
     1
281
     1
  3
ACAD_XREC_ROUNDTRIP
360
277
  0
XRECORD
  5
275
102
{ACAD_REACTORS
330
274
102
}
330
274
100
AcDbXrecord
280
     1
102
SHADEPLOT
 70
     0
102
SHADEPLOTRESLEVEL
 70
     5
102
SHADEPLOTCUSTOMDPI
 70
   300
  0
XRECORD
  5
279
102
{ACAD_REACTORS
330
278
102
}
330
278
100
AcDbXrecord
280
     1
102
SHADEPLOT
 70
     0
102
SHADEPLOTRESLEVEL
 70
     5
102
SHADEPLOTCUSTOMDPI
 70
   300
  0
XRECORD
  5
277
102
{ACAD_REACTORS
330
276
102
}
330
276
100
AcDbXrecord
280
     1
102
SHADEPLOT
 70
     0
102
SHADEPLOTRESLEVEL
 70
     5
102
SHADEPLOTCUSTOMDPI
 70
   300
  0
ENDSEC
  0
EOF
