  0
SECTION
  2
HEADER
  9
$ACADVER
  1
AC1015
  9
$ACADMAINTVER
 70
     6
  9
$DWGCODEPAGE
  3
ANSI_932
  9
$INSBASE
 10
0.0
 20
0.0
 30
0.0
  9
$EXTMIN
 10
-2970.0
 20
-2100.0
 30
0.0
  9
$EXTMAX
 10
2970.0
 20
2100.0
 30
0.0
  9
$LIMMIN
 10
-2970.0
 20
-2100.0
  9
$LIMMAX
 10
2970.0
 20
2100.0
  9
$ORTHOMODE
 70
     0
  9
$REGENMODE
 70
     1
  9
$FILLMODE
 70
     1
  9
$QTEXTMODE
 70
     0
  9
$MIRRTEXT
 70
     1
  9
$LTSCALE
 40
10.0
  9
$ATTMODE
 70
     1
  9
$TEXTSIZE
 40
2.5
  9
$TRACEWID
 40
1.0
  9
$TEXTSTYLE
  7
Standard
  9
$CLAYER
  8
0
  9
$CELTYPE
  6
ByLayer
  9
$CECOLOR
 62
   256
  9
$CELTSCALE
 40
1.0
  9
$DISPSILH
 70
     0
  9
$DIMSCALE
 40
1.0
  9
$DIMASZ
 40
2.5
  9
$DIMEXO
 40
0.625
  9
$DIMDLI
 40
3.75
  9
$DIMRND
 40
0.0
  9
$DIMDLE
 40
0.0
  9
$DIMEXE
 40
1.25
  9
$DIMTP
 40
0.0
  9
$DIMTM
 40
0.0
  9
$DIMTXT
 40
2.5
  9
$DIMCEN
 40
2.5
  9
$DIMTSZ
 40
0.0
  9
$DIMTOL
 70
     0
  9
$DIMLIM
 70
     0
  9
$DIMTIH
 70
     0
  9
$DIMTOH
 70
     0
  9
$DIMSE1
 70
     0
  9
$DIMSE2
 70
     0
  9
$DIMTAD
 70
     1
  9
$DIMZIN
 70
     8
  9
$DIMBLK
  1

  9
$DIMASO
 70
     1
  9
$DIMSHO
 70
     1
  9
$DIMPOST
  1

  9
$DIMAPOST
  1

  9
$DIMALT
 70
     0
  9
$DIMALTD
 70
     3
  9
$DIMALTF
 40
0.03937007874016
  9
$DIMLFAC
 40
1.0
  9
$DIMTOFL
 70
     1
  9
$DIMTVP
 40
0.0
  9
$DIMTIX
 70
     0
  9
$DIMSOXD
 70
     0
  9
$DIMSAH
 70
     0
  9
$DIMBLK1
  1

  9
$DIMBLK2
  1

  9
$DIMSTYLE
  2
ISO-25
  9
$DIMCLRD
 70
     0
  9
$DIMCLRE
 70
     0
  9
$DIMCLRT
 70
     0
  9
$DIMTFAC
 40
1.0
  9
$DIMGAP
 40
0.625
  9
$DIMJUST
 70
     0
  9
$DIMSD1
 70
     0
  9
$DIMSD2
 70
     0
  9
$DIMTOLJ
 70
     0
  9
$DIMTZIN
 70
     8
  9
$DIMALTZ
 70
     0
  9
$DIMALTTZ
 70
     0
  9
$DIMUPT
 70
     0
  9
$DIMDEC
 70
     2
  9
$DIMTDEC
 70
     2
  9
$DIMALTU
 70
     2
  9
$DIMALTTD
 70
     3
  9
$DIMTXSTY
  7
Standard
  9
$DIMAUNIT
 70
     0
  9
$DIMADEC
 70
     0
  9
$DIMALTRND
 40
0.0
  9
$DIMAZIN
 70
     0
  9
$DIMDSEP
 70
    44
  9
$DIMATFIT
 70
     3
  9
$DIMFRAC
 70
     0
  9
$DIMLDRBLK
  1

  9
$DIMLUNIT
 70
     2
  9
$DIMLWD
 70
    -2
  9
$DIMLWE
 70
    -2
  9
$DIMTMOVE
 70
     0
  9
$LUNITS
 70
     2
  9
$LUPREC
 70
     4
  9
$SKETCHINC
 40
1.0
  9
$FILLETRAD
 40
10.0
  9
$AUNITS
 70
     0
  9
$AUPREC
 70
     0
  9
$MENU
  1
.
  9
$ELEVATION
 40
0.0
  9
$PELEVATION
 40
0.0
  9
$THICKNESS
 40
0.0
  9
$LIMCHECK
 70
     0
  9
$CHAMFERA
 40
10.0
  9
$CHAMFERB
 40
10.0
  9
$CHAMFERC
 40
20.0
  9
$CHAMFERD
 40
0.0
  9
$SKPOLY
 70
     0
  9
$TDCREATE
 40
2456905.401846343
  9
$TDUCREATE
 40
2456905.026846343
  9
$TDUPDATE
 40
2456905.401846354
  9
$TDUUPDATE
 40
2456905.026846354
  9
$TDINDWG
 40
0.0000000116
  9
$TDUSRTIMER
 40
0.0000000116
  9
$USRTIMER
 70
     1
  9
$ANGBASE
 50
0.0
  9
$ANGDIR
 70
     0
  9
$PDMODE
 70
     0
  9
$PDSIZE
 40
0.0
  9
$PLINEWID
 40
0.0
  9
$SPLFRAME
 70
     0
  9
$SPLINETYPE
 70
     6
  9
$SPLINESEGS
 70
     8
  9
$HANDSEED
  5
341
  9
$SURFTAB1
 70
     6
  9
$SURFTAB2
 70
     6
  9
$SURFTYPE
 70
     6
  9
$SURFU
 70
     6
  9
$SURFV
 70
     6
  9
$UCSBASE
  2

  9
$UCSNAME
  2

  9
$UCSORG
 10
0.0
 20
0.0
 30
0.0
  9
$UCSXDIR
 10
1.0
 20
0.0
 30
0.0
  9
$UCSYDIR
 10
0.0
 20
1.0
 30
0.0
  9
$UCSORTHOREF
  2

  9
$UCSORTHOVIEW
 70
     0
  9
$UCSORGTOP
 10
0.0
 20
0.0
 30
0.0
  9
$UCSORGBOTTOM
 10
0.0
 20
0.0
 30
0.0
  9
$UCSORGLEFT
 10
0.0
 20
0.0
 30
0.0
  9
$UCSORGRIGHT
 10
0.0
 20
0.0
 30
0.0
  9
$UCSORGFRONT
 10
0.0
 20
0.0
 30
0.0
  9
$UCSORGBACK
 10
0.0
 20
0.0
 30
0.0
  9
$PUCSBASE
  2

  9
$PUCSNAME
  2

  9
$PUCSORG
 10
0.0
 20
0.0
 30
0.0
  9
$PUCSXDIR
 10
1.0
 20
0.0
 30
0.0
  9
$PUCSYDIR
 10
0.0
 20
1.0
 30
0.0
  9
$PUCSORTHOREF
  2

  9
$PUCSORTHOVIEW
 70
     0
  9
$PUCSORGTOP
 10
0.0
 20
0.0
 30
0.0
  9
$PUCSORGBOTTOM
 10
0.0
 20
0.0
 30
0.0
  9
$PUCSORGLEFT
 10
0.0
 20
0.0
 30
0.0
  9
$PUCSORGRIGHT
 10
0.0
 20
0.0
 30
0.0
  9
$PUCSORGFRONT
 10
0.0
 20
0.0
 30
0.0
  9
$PUCSORGBACK
 10
0.0
 20
0.0
 30
0.0
  9
$USERI1
 70
     0
  9
$USERI2
 70
     0
  9
$USERI3
 70
     0
  9
$USERI4
 70
     0
  9
$USERI5
 70
     0
  9
$USERR1
 40
0.0
  9
$USERR2
 40
0.0
  9
$USERR3
 40
0.0
  9
$USERR4
 40
0.0
  9
$USERR5
 40
0.0
  9
$WORLDVIEW
 70
     1
  9
$SHADEDGE
 70
     3
  9
$SHADEDIF
 70
    70
  9
$TILEMODE
 70
     1
  9
$MAXACTVP
 70
    64
  9
$PINSBASE
 10
0.0
 20
0.0
 30
0.0
  9
$PLIMCHECK
 70
     0
  9
$PEXTMIN
 10
1.000000000000000E+20
 20
1.000000000000000E+20
 30
1.000000000000000E+20
  9
$PEXTMAX
 10
-1.000000000000000E+20
 20
-1.000000000000000E+20
 30
-1.000000000000000E+20
  9
$PLIMMIN
 10
0.0
 20
0.0
  9
$PLIMMAX
 10
420.0
 20
297.0
  9
$UNITMODE
 70
     0
  9
$VISRETAIN
 70
     1
  9
$PLINEGEN
 70
     0
  9
$PSLTSCALE
 70
     1
  9
$TREEDEPTH
 70
  3020
  9
$CMLSTYLE
  2
Standard
  9
$CMLJUST
 70
     0
  9
$CMLSCALE
 40
20.0
  9
$PROXYGRAPHICS
 70
     1
  9
$MEASUREMENT
 70
     1
  9
$CELWEIGHT
370
    -1
  9
$ENDCAPS
280
     0
  9
$JOINSTYLE
280
     0
  9
$LWDISPLAY
290
     0
  9
$INSUNITS
 70
     4
  9
$HYPERLINKBASE
  1

  9
$STYLESHEET
  1

  9
$XEDIT
290
     1
  9
$CEPSNTYPE
380
     0
  9
$PSTYLEMODE
290
     1
  9
$FINGERPRINTGUID
  2
{6795E7FF-C68A-486C-B71C-677BC7C43BBB}
  9
$VERSIONGUID
  2
{FAEB1C32-E019-11D5-929B-00C0DF256EC4}
  9
$EXTNAMES
290
     1
  9
$PSVPSCALE
 40
0.0
  9
$OLESTARTUP
290
     0
  0
ENDSEC
  0
SECTION
  2
CLASSES
  0
CLASS
  1
ACDBDICTIONARYWDFLT
  2
AcDbDictionaryWithDefault
  3
ObjectDBX Classes
 90
        0
280
     0
281
     0
  0
CLASS
  1
VISUALSTYLE
  2
AcDbVisualStyle
  3
ObjectDBX Classes
 90
     4095
280
     0
281
     0
  0
CLASS
  1
DICTIONARYVAR
  2
AcDbDictionaryVar
  3
ObjectDBX Classes
 90
        0
280
     0
281
     0
  0
CLASS
  1
ACDBPLACEHOLDER
  2
AcDbPlaceHolder
  3
ObjectDBX Classes
 90
        0
280
     0
281
     0
  0
CLASS
  1
LAYOUT
  2
AcDbLayout
  3
ObjectDBX Classes
 90
        0
280
     0
281
     0
  0
ENDSEC
  0
SECTION
  2
TABLES
  0
TABLE
  2
VPORT
  5
8
330
0
100
AcDbSymbolTable
 70
     1
  0
VPORT
  5
29
330
8
100
AcDbSymbolTableRecord
100
AcDbViewportTableRecord
  2
*Active
 70
     0
 10
0.0
 20
0.0
 11
1.0
 21
1.0
 12
0.0
 22
0.0
 13
0.0
 23
0.0
 14
10.0
 24
10.0
 15
10.0
 25
10.0
 16
0.0
 26
0.0
 36
1.0
 17
0.0
 27
0.0
 37
0.0
 40
4620.0
 41
1.414285714285715
 42
50.0
 43
0.0
 44
0.0
 50
0.0
 51
0.0
 71
     0
 72
 10000
 73
     1
 74
     3
 75
     0
 76
     0
 77
     0
 78
     0
281
     0
 65
     1
110
0.0
120
0.0
130
0.0
111
1.0
121
0.0
131
0.0
112
0.0
122
1.0
132
0.0
 79
     0
146
0.0
  0
ENDTAB
  0
TABLE
  2
LTYPE
  5
5
330
0
100
AcDbSymbolTable
 70
     5
  0
LTYPE
  5
14
330
5
100
AcDbSymbolTableRecord
100
AcDbLinetypeTableRecord
  2
ByBlock
 70
     0
  3

 72
    65
 73
     0
 40
0.0
  0
LTYPE
  5
15
330
5
100
AcDbSymbolTableRecord
100
AcDbLinetypeTableRecord
  2
ByLayer
 70
     0
  3

 72
    65
 73
     0
 40
0.0
  0
LTYPE
  5
16
330
5
100
AcDbSymbolTableRecord
100
AcDbLinetypeTableRecord
  2
Continuous
 70
     0
  3
Solid line
 72
    65
 73
     0
 40
0.0
  0
LTYPE
  5
3C
330
5
100
AcDbSymbolTableRecord
100
AcDbLinetypeTableRecord
  2
JWW_CENTER1
 70
     0
  3
-----  --  ----------  --  -----
 72
    65
 73
     4
 40
6.773333333333333
 49
4.233333333333333
 74
     0
 49
-0.8466666666666667
 74
     0
 49
0.8466666666666667
 74
     0
 49
-0.8466666666666667
 74
     0
  0
LTYPE
  5
3D
330
5
100
AcDbSymbolTableRecord
100
AcDbLinetypeTableRecord
  2
JWW_CENTER2
 70
     0
  3
-------------  --  -------------
 72
    65
 73
     4
 40
13.54666666666667
 49
11.00666666666667
 74
     0
 49
-0.8466666666666667
 74
     0
 49
0.8466666666666667
 74
     0
 49
-0.8466666666666667
 74
     0
  0
LTYPE
  5
3E
330
5
100
AcDbSymbolTableRecord
100
AcDbLinetypeTableRecord
  2
JWW_DASHED2
 70
     0
  3
--    ----    ----    ----    --
 72
    65
 73
     2
 40
3.386666666666667
 49
1.693333333333333
 74
     0
 49
-1.693333333333333
 74
     0
  0
LTYPE
  5
3F
330
5
100
AcDbSymbolTableRecord
100
AcDbLinetypeTableRecord
  2
JWW_DASHED1
 70
     0
  3
-  --  --  --  --  --  --  --  -
 72
    65
 73
     2
 40
1.693333333333333
 49
0.8466666666666667
 74
     0
 49
-0.8466666666666667
 74
     0
  0
ENDTAB
  0
TABLE
  2
LAYER
  5
2
330
0
100
AcDbSymbolTable
 70
    14
  0
LAYER
  5
10
330
2
100
AcDbSymbolTableRecord
100
AcDbLayerTableRecord
  2
0
 70
     0
 62
     7
  6
Continuous
370
    -3
390
F
  0
LAYER
  5
40
330
2
100
AcDbSymbolTableRecord
100
AcDbLayerTableRecord
  2
092
 70
     0
 62
     7
  6
Continuous
370
    -3
390
F
  0
LAYER
  5
41
330
2
100
AcDbSymbolTableRecord
100
AcDbLayerTableRecord
  2
Yobi_3
 70
     0
 62
     7
  6
Continuous
370
    -3
390
F
  0
LAYER
  5
42
330
2
100
AcDbSymbolTableRecord
100
AcDbLayerTableRecord
  2
4-F
 70
     0
 62
     7
  6
Continuous
370
    -3
390
F
  0
LAYER
  5
43
330
2
100
AcDbSymbolTableRecord
100
AcDbLayerTableRecord
  2
_2-c_Shi
 70
     0
 62
     7
  6
Continuous
370
    -3
390
F
  0
LAYER
  5
44
330
2
100
AcDbSymbolTableRecord
100
AcDbLayerTableRecord
  2
2-Fﾚｲﾔ
 70
     0
 62
     7
  6
Continuous
370
    -3
390
F
  0
LAYER
  5
45
330
2
100
AcDbSymbolTableRecord
100
AcDbLayerTableRecord
  2
F-Fﾚｲﾔ
 70
     0
 62
     7
  6
Continuous
370
    -3
390
F
  0
LAYER
  5
46
330
2
100
AcDbSymbolTableRecord
100
AcDbLayerTableRecord
  2
1-0ﾚｲﾔ
 70
     0
 62
     7
  6
Continuous
370
    -3
390
F
  0
LAYER
  5
47
330
2
100
AcDbSymbolTableRecord
100
AcDbLayerTableRecord
  2
Hojo
 70
     0
 62
     7
  6
Continuous
370
    -3
390
F
  0
LAYER
  5
48
330
2
100
AcDbSymbolTableRecord
100
AcDbLayerTableRecord
  2
1-1ﾚｲﾔ
 70
     0
 62
     7
  6
Continuous
370
    -3
390
F
  0
LAYER
  5
49
330
2
100
AcDbSymbolTableRecord
100
AcDbLayerTableRecord
  2
_2-a_N_s
 70
     0
 62
     7
  6
Continuous
370
    -3
390
F
  0
LAYER
  5
4A
330
2
100
AcDbSymbolTableRecord
100
AcDbLayerTableRecord
  2
3-F
 70
     0
 62
     7
  6
Continuous
370
    -3
390
F
  0
LAYER
  5
4B
330
2
100
AcDbSymbolTableRecord
100
AcDbLayerTableRecord
  2
通り芯
 70
     0
 62
     7
  6
Continuous
370
    -3
390
F
  0
LAYER
  5
4C
330
2
100
AcDbSymbolTableRecord
100
AcDbLayerTableRecord
  2
躯体
 70
     0
 62
     7
  6
Continuous
370
    -3
390
F
  0
ENDTAB
  0
TABLE
  2
STYLE
  5
3
330
0
100
AcDbSymbolTable
 70
     2
  0
STYLE
  5
11
330
3
100
AcDbSymbolTableRecord
100
AcDbTextStyleTableRecord
  2
Standard
 70
     0
 40
0.0
 41
1.0
 50
0.0
 71
     0
 42
2.5
  3
txt
  4

1001
ACAD
1000

1071
        0
  0
STYLE
  5
3B
330
3
100
AcDbSymbolTableRecord
100
AcDbTextStyleTableRecord
  2
ＭＳ ゴシック
 70
     0
 40
1.0
 41
1.0
 50
0.0
 71
     0
 42
10.0
  3

  4

1001
ACAD
1000
MS Gothic
1071
    32817
  0
ENDTAB
  0
TABLE
  2
VIEW
  5
6
330
0
100
AcDbSymbolTable
 70
     0
  0
ENDTAB
  0
TABLE
  2
UCS
  5
7
330
0
100
AcDbSymbolTable
 70
     0
  0
ENDTAB
  0
TABLE
  2
APPID
  5
9
330
0
100
AcDbSymbolTable
 70
     1
  0
APPID
  5
12
330
9
100
AcDbSymbolTableRecord
100
AcDbRegAppTableRecord
  2
ACAD
 70
     0
  0
ENDTAB
  0
TABLE
  2
DIMSTYLE
  5
A
330
0
100
AcDbSymbolTable
 70
     1
100
AcDbDimStyleTable
  0
DIMSTYLE
105
27
330
A
100
AcDbSymbolTableRecord
100
AcDbDimStyleTableRecord
  2
ISO-25
 70
     0
 41
2.5
 42
0.625
 43
3.75
 44
1.25
 73
     0
 74
     0
 77
     1
 78
     8
140
2.5
141
2.5
143
0.03937007874016
147
0.625
171
     3
172
     1
271
     2
272
     2
274
     3
278
    44
283
     0
284
     8
340
11
  0
ENDTAB
  0
TABLE
  2
BLOCK_RECORD
  5
1
330
0
100
AcDbSymbolTable
 70
     1
  0
BLOCK_RECORD
  5
1F
330
1
100
AcDbSymbolTableRecord
100
AcDbBlockTableRecord
  2
*Model_Space
340
22
  0
BLOCK_RECORD
  5
1B
330
1
100
AcDbSymbolTableRecord
100
AcDbBlockTableRecord
  2
*Paper_Space
340
1E
  0
BLOCK_RECORD
  5
23
330
1
100
AcDbSymbolTableRecord
100
AcDbBlockTableRecord
  2
*Paper_Space0
340
26
  0
ENDTAB
  0
ENDSEC
  0
SECTION
  2
BLOCKS
  0
BLOCK
  5
20
330
1F
100
AcDbEntity
  8
0
100
AcDbBlockBegin
  2
*Model_Space
 70
     0
 10
0.0
 20
0.0
 30
0.0
  3
*Model_Space
  1

  0
ENDBLK
  5
21
330
1F
100
AcDbEntity
  8
0
100
AcDbBlockEnd
  0
BLOCK
  5
1C
330
1B
100
AcDbEntity
 67
     1
  8
0
100
AcDbBlockBegin
  2
*Paper_Space
 70
     0
 10
0.0
 20
0.0
 30
0.0
  3
*Paper_Space
  1

  0
ENDBLK
  5
1D
330
1B
100
AcDbEntity
 67
     1
  8
0
100
AcDbBlockEnd
  0
BLOCK
  5
24
330
23
100
AcDbEntity
  8
0
100
AcDbBlockBegin
  2
*Paper_Space0
 70
     0
 10
0.0
 20
0.0
 30
0.0
  3
*Paper_Space0
  1

  0
ENDBLK
  5
25
330
23
100
AcDbEntity
  8
0
100
AcDbBlockEnd
  0
ENDSEC
  0
SECTION
  2
ENTITIES
  0
TEXT
  5
4D
330
1F
100
AcDbEntity
  8
092
  6
Continuous
 62
     2
370
     9
100
AcDbText
 10
-381.2794008586399
 20
507.9144246006725
 30
0.0
 40
30.48
  1
④中間補強プレート
 41
1.111111111111111
  7
ＭＳ ゴシック
100
AcDbText
  0
ARC
  5
4E
330
1F
100
AcDbEntity
  8
Yobi_3
  6
Continuous
 62
     4
370
     9
100
AcDbCircle
 10
-389.3677573181589
 20
-1306.270614907411
 30
0.0
 40
20.0
100
AcDbArc
 50
285.0001904949394
 51
359.9995676528479
  0
LINE
  5
4F
330
1F
100
AcDbEntity
  8
Yobi_3
  6
JWW_CENTER1
 62
     4
370
     9
100
AcDbLine
 10
-463.4392379701828
 20
-1394.915792003102
 30
0.0
 11
-435.2934106068261
 21
-1394.915792003102
 31
0.0
  0
LINE
  5
50
330
1F
100
AcDbEntity
  8
Yobi_3
  6
JWW_CENTER1
 62
     4
370
     9
100
AcDbLine
 10
-449.3663242885046
 20
-1408.988880660083
 30
0.0
 11
-449.3663242885046
 21
-1380.842615858468
 31
0.0
  0
LINE
  5
51
330
1F
100
AcDbEntity
  8
Yobi_3
  6
JWW_CENTER1
 62
     4
370
     9
100
AcDbLine
 10
-575.2925504588713
 20
-1369.915758127411
 30
0.0
 11
-603.4383778222281
 21
-1369.915758127411
 31
0.0
  0
LINE
  5
52
330
1F
100
AcDbEntity
  8
Yobi_3
  6
JWW_CENTER2
 62
     7
370
     9
100
AcDbLine
 10
-519.3655442639206
 20
-1192.452568630454
 30
0.0
 11
-519.3655442639206
 21
-1466.705709230946
 31
0.0
  0
LINE
  5
53
330
1F
100
AcDbEntity
  8
Yobi_3
  6
JWW_CENTER1
 62
     4
370
     9
100
AcDbLine
 10
-589.3654641405496
 20
-1383.988934272045
 30
0.0
 11
-589.3654641405496
 21
-1355.842756958082
 31
0.0
  0
LINE
  5
54
330
1F
100
AcDbEntity
  8
4-F
  6
Continuous
 62
     7
370
     9
100
AcDbLine
 10
-817.7768250690006
 20
-972.8305671297906
 30
0.0
 11
-411.9980736220666
 21
-972.8305671297906
 31
0.0
  0
LINE
  5
55
330
1F
100
AcDbEntity
  8
4-F
  6
Continuous
 62
     7
370
     9
100
AcDbLine
 10
-817.7768250690006
 20
-907.8305665406482
 30
0.0
 11
-411.9980736220666
 21
-907.8305665406482
 31
0.0
  0
LINE
  5
56
330
1F
100
AcDbEntity
  8
4-F
  6
Continuous
 62
     7
370
     9
100
AcDbLine
 10
-817.7768250690006
 20
-907.8305665406482
 30
0.0
 11
-817.7768250690006
 21
-972.8305671297906
 31
0.0
  0
LINE
  5
57
330
1F
100
AcDbEntity
  8
4-F
  6
Continuous
 62
     7
370
     9
100
AcDbLine
 10
-411.9980736220666
 20
-907.8305665406482
 30
0.0
 11
-411.9980736220666
 21
-972.8305671297906
 31
0.0
  0
ARC
  5
58
330
1F
100
AcDbEntity
  8
Yobi_3
  6
Continuous
 62
     4
370
     9
100
AcDbCircle
 10
-519.3655442639206
 20
-1341.104149735572
 30
0.0
 40
19.99999976066088
100
AcDbArc
 50
270.0
 51
285.0002899169922
  0
ARC
  5
59
330
1F
100
AcDbEntity
  8
Yobi_3
  6
Continuous
 62
     4
370
     9
100
AcDbCircle
 10
-519.3655442639206
 20
-1316.105165711701
 30
0.0
 40
19.99999976066088
100
AcDbArc
 50
254.9997406005859
 51
270.0
  0
CIRCLE
  5
5A
330
1F
100
AcDbEntity
  8
Yobi_3
  6
Continuous
 62
     4
370
     9
100
AcDbCircle
 10
-449.3663242885046
 20
-1394.915792003102
 30
0.0
 40
8.500000171679787
  0
CIRCLE
  5
5B
330
1F
100
AcDbEntity
  8
Yobi_3
  6
Continuous
 62
     4
370
     9
100
AcDbCircle
 10
-589.3654641405496
 20
-1369.915758127411
 30
0.0
 40
8.500000171679787
  0
TEXT
  5
5C
330
1F
100
AcDbEntity
  8
4-F
  6
Continuous
 62
     2
370
     9
100
AcDbText
 10
-713.7337132716156
 20
-1105.440527883477
 30
0.0
 40
22.86
  1
ｼﾞｮｲﾝﾄ穴：４－Φ８．５
 50
359.9999736175088
 41
1.151515151515152
  7
ＭＳ ゴシック
100
AcDbText
  0
TEXT
  5
5D
330
1F
100
AcDbEntity
  8
4-F
  6
Continuous
 62
     2
370
     9
100
AcDbText
 10
-792.387361857882
 20
-954.6905939357713
 30
0.0
 40
30.48
  1
ジョイント穴詳細
 41
1.109375
  7
ＭＳ ゴシック
100
AcDbText
  0
LINE
  5
5E
330
1F
100
AcDbEntity
  8
_2-c_Shi
  6
Continuous
 62
     7
370
     9
100
AcDbLine
 10
-1014.204450334821
 20
-93.33242870205623
 30
0.0
 11
-2186.179144723074
 21
-93.33242870205623
 31
0.0
  0
LINE
  5
5F
330
1F
100
AcDbEntity
  8
_2-c_Shi
  6
Continuous
 62
     7
370
     9
100
AcDbLine
 10
-1014.204450334821
 20
-158.3326042665018
 30
0.0
 11
-2186.179144723074
 21
-158.3326042665018
 31
0.0
  0
LINE
  5
60
330
1F
100
AcDbEntity
  8
_2-c_Shi
  6
Continuous
 62
     7
370
     9
100
AcDbLine
 10
-1014.204450334821
 20
-223.332429880341
 30
0.0
 11
-2186.179144723074
 21
-223.332429880341
 31
0.0
  0
LINE
  5
61
330
1F
100
AcDbEntity
  8
_2-c_Shi
  6
Continuous
 62
     7
370
     9
100
AcDbLine
 10
-1014.204450334821
 20
-288.3326054447866
 30
0.0
 11
-2186.179144723074
 21
-288.3326054447866
 31
0.0
  0
LINE
  5
62
330
1F
100
AcDbEntity
  8
_2-c_Shi
  6
Continuous
 62
     7
370
     9
100
AcDbLine
 10
-1014.204450334821
 20
-353.3324310586261
 30
0.0
 11
-2186.179144723074
 21
-353.3324310586261
 31
0.0
  0
LINE
  5
63
330
1F
100
AcDbEntity
  8
_2-c_Shi
  6
Continuous
 62
     7
370
     9
100
AcDbLine
 10
-1014.204450334821
 20
-418.3326066230717
 30
0.0
 11
-2186.179144723074
 21
-418.3326066230717
 31
0.0
  0
LINE
  5
64
330
1F
100
AcDbEntity
  8
_2-c_Shi
  6
Continuous
 62
     7
370
     9
100
AcDbLine
 10
-1014.204450334821
 20
-483.3324322369108
 30
0.0
 11
-2186.179144723074
 21
-483.3324322369108
 31
0.0
  0
LINE
  5
65
330
1F
100
AcDbEntity
  8
_2-c_Shi
  6
Continuous
 62
     7
370
     9
100
AcDbLine
 10
-1014.204450334821
 20
-548.3326078013565
 30
0.0
 11
-2186.179144723074
 21
-548.3326078013565
 31
0.0
  0
LINE
  5
66
330
1F
100
AcDbEntity
  8
_2-c_Shi
  6
Continuous
 62
     7
370
     9
100
AcDbLine
 10
-1014.204450334821
 20
-613.3324334151956
 30
0.0
 11
-2186.179144723074
 21
-613.3324334151956
 31
0.0
  0
LINE
  5
67
330
1F
100
AcDbEntity
  8
_2-c_Shi
  6
Continuous
 62
     7
370
     9
100
AcDbLine
 10
-1014.204450334821
 20
-678.3325214919898
 30
0.0
 11
-2186.179144723074
 21
-678.3325214919898
 31
0.0
  0
LINE
  5
68
330
1F
100
AcDbEntity
  8
_2-c_Shi
  6
Continuous
 62
     7
370
     9
100
AcDbLine
 10
-1014.204450334821
 20
-743.3325220811321
 30
0.0
 11
-2186.179144723074
 21
-743.3325220811321
 31
0.0
  0
LINE
  5
69
330
1F
100
AcDbEntity
  8
_2-c_Shi
  6
Continuous
 62
     7
370
     9
100
AcDbLine
 10
-1014.204450334821
 20
-808.3325226702746
 30
0.0
 11
-2186.179144723074
 21
-808.3325226702746
 31
0.0
  0
LINE
  5
6A
330
1F
100
AcDbEntity
  8
_2-c_Shi
  6
Continuous
 62
     7
370
     9
100
AcDbLine
 10
-1014.204450334821
 20
-873.332523259417
 30
0.0
 11
-2186.179144723074
 21
-873.332523259417
 31
0.0
  0
LINE
  5
6B
330
1F
100
AcDbEntity
  8
_2-c_Shi
  6
Continuous
 62
     7
370
     9
100
AcDbLine
 10
-1014.204450334821
 20
-938.3325238485594
 30
0.0
 11
-2186.179144723074
 21
-938.3325238485594
 31
0.0
  0
LINE
  5
6C
330
1F
100
AcDbEntity
  8
_2-c_Shi
  6
Continuous
 62
     7
370
     9
100
AcDbLine
 10
-1014.204450334821
 20
-1003.332524437702
 30
0.0
 11
-2186.179144723074
 21
-1003.332524437702
 31
0.0
  0
LINE
  5
6D
330
1F
100
AcDbEntity
  8
_2-c_Shi
  6
Continuous
 62
     7
370
     9
100
AcDbLine
 10
-1014.204450334821
 20
-1068.332525026844
 30
0.0
 11
-2186.179144723074
 21
-1068.332525026844
 31
0.0
  0
LINE
  5
6E
330
1F
100
AcDbEntity
  8
_2-c_Shi
  6
Continuous
 62
     7
370
     9
100
AcDbLine
 10
-1014.204450334821
 20
-1133.332525615987
 30
0.0
 11
-2186.179144723074
 21
-1133.332525615987
 31
0.0
  0
LINE
  5
6F
330
1F
100
AcDbEntity
  8
_2-c_Shi
  6
Continuous
 62
     7
370
     9
100
AcDbLine
 10
-1014.204450334821
 20
-1198.332526205129
 30
0.0
 11
-2186.179144723074
 21
-1198.332526205129
 31
0.0
  0
LINE
  5
70
330
1F
100
AcDbEntity
  8
_2-c_Shi
  6
Continuous
 62
     7
370
     9
100
AcDbLine
 10
-1014.204450334821
 20
-1263.332526794272
 30
0.0
 11
-2186.179144723074
 21
-1263.332526794272
 31
0.0
  0
LINE
  5
71
330
1F
100
AcDbEntity
  8
_2-c_Shi
  6
Continuous
 62
     7
370
     9
100
AcDbLine
 10
-1014.204450334821
 20
92.22223122607772
 30
0.0
 11
-2186.179144723074
 21
92.22223122607772
 31
0.0
  0
LINE
  5
72
330
1F
100
AcDbEntity
  8
_2-c_Shi
  6
Continuous
 62
     7
370
     9
100
AcDbLine
 10
-2186.179144723074
 20
92.22223122607772
 30
0.0
 11
-2186.179144723074
 21
-1263.332526794272
 31
0.0
  0
LINE
  5
73
330
1F
100
AcDbEntity
  8
_2-c_Shi
  6
Continuous
 62
     7
370
     9
100
AcDbLine
 10
-1965.848405757006
 20
-1263.332526794272
 30
0.0
 11
-1965.848405757006
 21
92.22223122607772
 31
0.0
  0
LINE
  5
74
330
1F
100
AcDbEntity
  8
_2-c_Shi
  6
Continuous
 62
     7
370
     9
100
AcDbLine
 10
-1727.934573552784
 20
92.22223122607772
 30
0.0
 11
-1727.934573552784
 21
-1263.332526794272
 31
0.0
  0
LINE
  5
75
330
1F
100
AcDbEntity
  8
_2-c_Shi
  6
Continuous
 62
     7
370
     9
100
AcDbLine
 10
-1490.024503317579
 20
92.22223122607772
 30
0.0
 11
-1490.024503317579
 21
-1263.332526794272
 31
0.0
  0
LINE
  5
76
330
1F
100
AcDbEntity
  8
_2-c_Shi
  6
Continuous
 62
     7
370
     9
100
AcDbLine
 10
-1252.114520570026
 20
-1263.332526794272
 30
0.0
 11
-1252.114520570026
 21
92.22223122607772
 31
0.0
  0
LINE
  5
77
330
1F
100
AcDbEntity
  8
_2-c_Shi
  6
Continuous
 62
     7
370
     9
100
AcDbLine
 10
-1014.204450334821
 20
-1263.332526794272
 30
0.0
 11
-1014.204450334821
 21
92.22223122607772
 31
0.0
  0
LINE
  5
78
330
1F
100
AcDbEntity
  8
_2-c_Shi
  6
Continuous
 62
     7
370
     9
100
AcDbLine
 10
-2186.179144723074
 20
-83.88726183806625
 30
0.0
 11
-1014.204450334821
 21
-83.88726183806625
 31
0.0
  0
LINE
  5
79
330
1F
100
AcDbEntity
  8
_2-c_Shi
  6
Continuous
 62
     7
370
     9
100
AcDbLine
 10
-2186.179144723074
 20
122.1083629545558
 30
0.0
 11
-2001.774422487237
 21
122.1083629545558
 31
0.0
  0
TEXT
  5
7A
330
1F
100
AcDbEntity
  8
2-Fﾚｲﾔ
  6
Continuous
 62
     2
370
     9
100
AcDbText
 10
-1481.0679809099
 20
-335.1925453522585
 30
0.0
 40
30.48
  1
１２２．５
 41
1.1
  7
ＭＳ ゴシック
100
AcDbText
  0
TEXT
  5
7B
330
1F
100
AcDbEntity
  8
2-Fﾚｲﾔ
  6
Continuous
 62
     2
370
     9
100
AcDbText
 10
-1481.0679809099
 20
-465.1925465305433
 30
0.0
 40
30.48
  1
１４７．５
 41
1.1
  7
ＭＳ ゴシック
100
AcDbText
  0
TEXT
  5
7C
330
1F
100
AcDbEntity
  8
2-Fﾚｲﾔ
  6
Continuous
 62
     2
370
     9
100
AcDbText
 10
-1481.06795439849
 20
-530.1923721443824
 30
0.0
 40
30.48
  1
１６０
 41
1.083333333333333
  7
ＭＳ ゴシック
100
AcDbText
  0
TEXT
  5
7D
330
1F
100
AcDbEntity
  8
2-Fﾚｲﾔ
  6
Continuous
 62
     2
370
     9
100
AcDbText
 10
-1481.0679809099
 20
-595.1925477088281
 30
0.0
 40
30.48
  1
１７２．５
 41
1.1
  7
ＭＳ ゴシック
100
AcDbText
  0
TEXT
  5
7E
330
1F
100
AcDbEntity
  8
2-Fﾚｲﾔ
  6
Continuous
 62
     2
370
     9
100
AcDbText
 10
-1481.06795439849
 20
-660.1923733226675
 30
0.0
 40
30.48
  1
１８５
 41
1.083333333333333
  7
ＭＳ ゴシック
100
AcDbText
  0
TEXT
  5
7F
330
1F
100
AcDbEntity
  8
2-Fﾚｲﾔ
  6
Continuous
 62
     2
370
     9
100
AcDbText
 10
-1481.0679809099
 20
-725.1925488871128
 30
0.0
 40
30.48
  1
１９７．５
 41
1.1
  7
ＭＳ ゴシック
100
AcDbText
  0
TEXT
  5
80
330
1F
100
AcDbEntity
  8
2-Fﾚｲﾔ
  6
Continuous
 62
     2
370
     9
100
AcDbText
 10
-1481.06795439849
 20
-790.1924619886039
 30
0.0
 40
30.48
  1
２１０
 41
1.083333333333333
  7
ＭＳ ゴシック
100
AcDbText
  0
TEXT
  5
81
330
1F
100
AcDbEntity
  8
2-Fﾚｲﾔ
  6
Continuous
 62
     2
370
     9
100
AcDbText
 10
-1481.0679809099
 20
-855.1924625777461
 30
0.0
 40
30.48
  1
２２２．５
 41
1.1
  7
ＭＳ ゴシック
100
AcDbText
  0
TEXT
  5
82
330
1F
100
AcDbEntity
  8
2-Fﾚｲﾔ
  6
Continuous
 62
     2
370
     9
100
AcDbText
 10
-1481.06795439849
 20
-920.1924631668887
 30
0.0
 40
30.48
  1
２３５
 41
1.083333333333333
  7
ＭＳ ゴシック
100
AcDbText
  0
TEXT
  5
83
330
1F
100
AcDbEntity
  8
2-Fﾚｲﾔ
  6
Continuous
 62
     2
370
     9
100
AcDbText
 10
-1481.0679809099
 20
-985.1924637560311
 30
0.0
 40
30.48
  1
２４７．５
 41
1.1
  7
ＭＳ ゴシック
100
AcDbText
  0
TEXT
  5
84
330
1F
100
AcDbEntity
  8
2-Fﾚｲﾔ
  6
Continuous
 62
     2
370
     9
100
AcDbText
 10
-1481.06795439849
 20
-1050.192464345173
 30
0.0
 40
30.48
  1
２６０
 41
1.083333333333333
  7
ＭＳ ゴシック
100
AcDbText
  0
TEXT
  5
85
330
1F
100
AcDbEntity
  8
2-Fﾚｲﾔ
  6
Continuous
 62
     2
370
     9
100
AcDbText
 10
-1481.0679809099
 20
-1115.192464934316
 30
0.0
 40
30.48
  1
２７２．５
 41
1.1
  7
ＭＳ ゴシック
100
AcDbText
  0
TEXT
  5
86
330
1F
100
AcDbEntity
  8
2-Fﾚｲﾔ
  6
Continuous
 62
     2
370
     9
100
AcDbText
 10
-1481.06795439849
 20
-1180.192465523458
 30
0.0
 40
30.48
  1
２８５
 41
1.083333333333333
  7
ＭＳ ゴシック
100
AcDbText
  0
TEXT
  5
87
330
1F
100
AcDbEntity
  8
2-Fﾚｲﾔ
  6
Continuous
 62
     2
370
     9
100
AcDbText
 10
-1481.0679809099
 20
-1245.192466112601
 30
0.0
 40
30.48
  1
２９７．５
 41
1.1
  7
ＭＳ ゴシック
100
AcDbText
  0
TEXT
  5
88
330
1F
100
AcDbEntity
  8
2-Fﾚｲﾔ
  6
Continuous
 62
     2
370
     9
100
AcDbText
 10
-1243.156160921664
 20
-270.1923697878129
 30
0.0
 40
30.48
  1
１２２．５
 41
1.1
  7
ＭＳ ゴシック
100
AcDbText
  0
TEXT
  5
89
330
1F
100
AcDbEntity
  8
2-Fﾚｲﾔ
  6
Continuous
 62
     2
370
     9
100
AcDbText
 10
-1243.156134410254
 20
-335.1925453522585
 30
0.0
 40
30.48
  1
１３５
 41
1.083333333333333
  7
ＭＳ ゴシック
100
AcDbText
  0
TEXT
  5
8A
330
1F
100
AcDbEntity
  8
2-Fﾚｲﾔ
  6
Continuous
 62
     2
370
     9
100
AcDbText
 10
-1243.156134410254
 20
-465.1925465305433
 30
0.0
 40
30.48
  1
１６０
 41
1.083333333333333
  7
ＭＳ ゴシック
100
AcDbText
  0
TEXT
  5
8B
330
1F
100
AcDbEntity
  8
2-Fﾚｲﾔ
  6
Continuous
 62
     2
370
     9
100
AcDbText
 10
-1243.156160921664
 20
-530.1923721443824
 30
0.0
 40
30.48
  1
１７２．５
 41
1.1
  7
ＭＳ ゴシック
100
AcDbText
  0
TEXT
  5
8C
330
1F
100
AcDbEntity
  8
2-Fﾚｲﾔ
  6
Continuous
 62
     2
370
     9
100
AcDbText
 10
-1243.156134410254
 20
-595.1925477088281
 30
0.0
 40
30.48
  1
１８５
 41
1.083333333333333
  7
ＭＳ ゴシック
100
AcDbText
  0
TEXT
  5
8D
330
1F
100
AcDbEntity
  8
2-Fﾚｲﾔ
  6
Continuous
 62
     2
370
     9
100
AcDbText
 10
-1243.156160921664
 20
-660.1923733226675
 30
0.0
 40
30.48
  1
１９７．５
 41
1.1
  7
ＭＳ ゴシック
100
AcDbText
  0
TEXT
  5
8E
330
1F
100
AcDbEntity
  8
2-Fﾚｲﾔ
  6
Continuous
 62
     2
370
     9
100
AcDbText
 10
-1243.156134410254
 20
-725.1925488871128
 30
0.0
 40
30.48
  1
２１０
 41
1.083333333333333
  7
ＭＳ ゴシック
100
AcDbText
  0
TEXT
  5
8F
330
1F
100
AcDbEntity
  8
2-Fﾚｲﾔ
  6
Continuous
 62
     2
370
     9
100
AcDbText
 10
-1243.156160921664
 20
-790.1924619886039
 30
0.0
 40
30.48
  1
２２２．５
 41
1.1
  7
ＭＳ ゴシック
100
AcDbText
  0
TEXT
  5
90
330
1F
100
AcDbEntity
  8
2-Fﾚｲﾔ
  6
Continuous
 62
     2
370
     9
100
AcDbText
 10
-1243.156134410254
 20
-855.1924625777461
 30
0.0
 40
30.48
  1
２３５
 41
1.083333333333333
  7
ＭＳ ゴシック
100
AcDbText
  0
TEXT
  5
91
330
1F
100
AcDbEntity
  8
2-Fﾚｲﾔ
  6
Continuous
 62
     2
370
     9
100
AcDbText
 10
-1243.156160921664
 20
-920.1924631668887
 30
0.0
 40
30.48
  1
２４７．５
 41
1.1
  7
ＭＳ ゴシック
100
AcDbText
  0
TEXT
  5
92
330
1F
100
AcDbEntity
  8
2-Fﾚｲﾔ
  6
Continuous
 62
     2
370
     9
100
AcDbText
 10
-1243.156134410254
 20
-985.1924637560311
 30
0.0
 40
30.48
  1
２６０
 41
1.083333333333333
  7
ＭＳ ゴシック
100
AcDbText
  0
TEXT
  5
93
330
1F
100
AcDbEntity
  8
2-Fﾚｲﾔ
  6
Continuous
 62
     2
370
     9
100
AcDbText
 10
-1243.156160921664
 20
-1050.192464345173
 30
0.0
 40
30.48
  1
２７２．５
 41
1.1
  7
ＭＳ ゴシック
100
AcDbText
  0
TEXT
  5
94
330
1F
100
AcDbEntity
  8
2-Fﾚｲﾔ
  6
Continuous
 62
     2
370
     9
100
AcDbText
 10
-1243.156134410254
 20
-1115.192464934316
 30
0.0
 40
30.48
  1
２８５
 41
1.083333333333333
  7
ＭＳ ゴシック
100
AcDbText
  0
TEXT
  5
95
330
1F
100
AcDbEntity
  8
2-Fﾚｲﾔ
  6
Continuous
 62
     2
370
     9
100
AcDbText
 10
-1243.156160921664
 20
-1180.192465523458
 30
0.0
 40
30.48
  1
２９７．５
 41
1.1
  7
ＭＳ ゴシック
100
AcDbText
  0
TEXT
  5
96
330
1F
100
AcDbEntity
  8
2-Fﾚｲﾔ
  6
Continuous
 62
     2
370
     9
100
AcDbText
 10
-1243.156134410254
 20
-1245.192466112601
 30
0.0
 40
30.48
  1
３１０
 41
1.083333333333333
  7
ＭＳ ゴシック
100
AcDbText
  0
TEXT
  5
97
330
1F
100
AcDbEntity
  8
2-Fﾚｲﾔ
  6
Continuous
 62
     2
370
     9
100
AcDbText
 10
-1243.156160921664
 20
-400.1923709660977
 30
0.0
 40
30.48
  1
１４７．５
 41
1.1
  7
ＭＳ ゴシック
100
AcDbText
  0
TEXT
  5
98
330
1F
100
AcDbEntity
  8
2-Fﾚｲﾔ
  6
Continuous
 62
     2
370
     9
100
AcDbText
 10
-1956.893344127994
 20
-400.1923709660977
 30
0.0
 40
30.48
  1
１００
 41
1.083333333333333
  7
ＭＳ ゴシック
100
AcDbText
  0
TEXT
  5
99
330
1F
100
AcDbEntity
  8
2-Fﾚｲﾔ
  6
Continuous
 62
     2
370
     9
100
AcDbText
 10
-1956.893370639403
 20
-465.1925465305433
 30
0.0
 40
30.48
  1
１１２．５
 41
1.1
  7
ＭＳ ゴシック
100
AcDbText
  0
TEXT
  5
9A
330
1F
100
AcDbEntity
  8
2-Fﾚｲﾔ
  6
Continuous
 62
     2
370
     9
100
AcDbText
 10
-1956.893344127994
 20
-530.1923721443824
 30
0.0
 40
30.48
  1
１２５
 41
1.083333333333333
  7
ＭＳ ゴシック
100
AcDbText
  0
TEXT
  5
9B
330
1F
100
AcDbEntity
  8
2-Fﾚｲﾔ
  6
Continuous
 62
     2
370
     9
100
AcDbText
 10
-1956.893370639403
 20
-595.1925477088281
 30
0.0
 40
30.48
  1
１３７．５
 41
1.1
  7
ＭＳ ゴシック
100
AcDbText
  0
TEXT
  5
9C
330
1F
100
AcDbEntity
  8
2-Fﾚｲﾔ
  6
Continuous
 62
     2
370
     9
100
AcDbText
 10
-1956.893344127994
 20
-660.192460810319
 30
0.0
 40
30.48
  1
１５０
 41
1.083333333333333
  7
ＭＳ ゴシック
100
AcDbText
  0
TEXT
  5
9D
330
1F
100
AcDbEntity
  8
2-Fﾚｲﾔ
  6
Continuous
 62
     2
370
     9
100
AcDbText
 10
-1956.893370639403
 20
-725.1924613994614
 30
0.0
 40
30.48
  1
１６２．５
 41
1.1
  7
ＭＳ ゴシック
100
AcDbText
  0
TEXT
  5
9E
330
1F
100
AcDbEntity
  8
2-Fﾚｲﾔ
  6
Continuous
 62
     2
370
     9
100
AcDbText
 10
-1956.893344127994
 20
-790.1924619886039
 30
0.0
 40
30.48
  1
１７５
 41
1.083333333333333
  7
ＭＳ ゴシック
100
AcDbText
  0
TEXT
  5
9F
330
1F
100
AcDbEntity
  8
2-Fﾚｲﾔ
  6
Continuous
 62
     2
370
     9
100
AcDbText
 10
-1956.893370639403
 20
-855.1924625777461
 30
0.0
 40
30.48
  1
１８７．５
 41
1.1
  7
ＭＳ ゴシック
100
AcDbText
  0
TEXT
  5
A0
330
1F
100
AcDbEntity
  8
2-Fﾚｲﾔ
  6
Continuous
 62
     2
370
     9
100
AcDbText
 10
-1956.893344127994
 20
-920.1924631668887
 30
0.0
 40
30.48
  1
２００
 41
1.083333333333333
  7
ＭＳ ゴシック
100
AcDbText
  0
TEXT
  5
A1
330
1F
100
AcDbEntity
  8
2-Fﾚｲﾔ
  6
Continuous
 62
     2
370
     9
100
AcDbText
 10
-1956.893370639403
 20
-985.1924637560311
 30
0.0
 40
30.48
  1
２１２．５
 41
1.1
  7
ＭＳ ゴシック
100
AcDbText
  0
TEXT
  5
A2
330
1F
100
AcDbEntity
  8
2-Fﾚｲﾔ
  6
Continuous
 62
     2
370
     9
100
AcDbText
 10
-1956.893344127994
 20
-1050.192464345173
 30
0.0
 40
30.48
  1
２２５
 41
1.083333333333333
  7
ＭＳ ゴシック
100
AcDbText
  0
TEXT
  5
A3
330
1F
100
AcDbEntity
  8
2-Fﾚｲﾔ
  6
Continuous
 62
     2
370
     9
100
AcDbText
 10
-1956.893370639403
 20
-1115.192464934316
 30
0.0
 40
30.48
  1
２３７．５
 41
1.1
  7
ＭＳ ゴシック
100
AcDbText
  0
TEXT
  5
A4
330
1F
100
AcDbEntity
  8
2-Fﾚｲﾔ
  6
Continuous
 62
     2
370
     9
100
AcDbText
 10
-1956.893344127994
 20
-1180.192465523458
 30
0.0
 40
30.48
  1
２５０
 41
1.083333333333333
  7
ＭＳ ゴシック
100
AcDbText
  0
TEXT
  5
A5
330
1F
100
AcDbEntity
  8
2-Fﾚｲﾔ
  6
Continuous
 62
     2
370
     9
100
AcDbText
 10
-1718.983186405138
 20
-335.1925453522585
 30
0.0
 40
30.48
  1
１００
 41
1.083333333333333
  7
ＭＳ ゴシック
100
AcDbText
  0
TEXT
  5
A6
330
1F
100
AcDbEntity
  8
2-Fﾚｲﾔ
  6
Continuous
 62
     2
370
     9
100
AcDbText
 10
-1718.983169172722
 20
-400.1923709660977
 30
0.0
 40
30.48
  1
１１２．５
 41
1.1
  7
ＭＳ ゴシック
100
AcDbText
  0
TEXT
  5
A7
330
1F
100
AcDbEntity
  8
2-Fﾚｲﾔ
  6
Continuous
 62
     2
370
     9
100
AcDbText
 10
-1718.983186405138
 20
-465.1925465305433
 30
0.0
 40
30.48
  1
１２５
 41
1.083333333333333
  7
ＭＳ ゴシック
100
AcDbText
  0
TEXT
  5
A8
330
1F
100
AcDbEntity
  8
2-Fﾚｲﾔ
  6
Continuous
 62
     2
370
     9
100
AcDbText
 10
-1718.983169172722
 20
-530.1923721443824
 30
0.0
 40
30.48
  1
１３７．５
 41
1.1
  7
ＭＳ ゴシック
100
AcDbText
  0
TEXT
  5
A9
330
1F
100
AcDbEntity
  8
2-Fﾚｲﾔ
  6
Continuous
 62
     2
370
     9
100
AcDbText
 10
-1718.983186405138
 20
-595.1925477088281
 30
0.0
 40
30.48
  1
１５０
 41
1.083333333333333
  7
ＭＳ ゴシック
100
AcDbText
  0
TEXT
  5
AA
330
1F
100
AcDbEntity
  8
2-Fﾚｲﾔ
  6
Continuous
 62
     2
370
     9
100
AcDbText
 10
-1718.983169172722
 20
-660.192460810319
 30
0.0
 40
30.48
  1
１６２．５
 41
1.1
  7
ＭＳ ゴシック
100
AcDbText
  0
TEXT
  5
AB
330
1F
100
AcDbEntity
  8
2-Fﾚｲﾔ
  6
Continuous
 62
     2
370
     9
100
AcDbText
 10
-1718.983186405138
 20
-725.1924613994614
 30
0.0
 40
30.48
  1
１７５
 41
1.083333333333333
  7
ＭＳ ゴシック
100
AcDbText
  0
TEXT
  5
AC
330
1F
100
AcDbEntity
  8
2-Fﾚｲﾔ
  6
Continuous
 62
     2
370
     9
100
AcDbText
 10
-1718.983169172722
 20
-790.1924619886039
 30
0.0
 40
30.48
  1
１８７．５
 41
1.1
  7
ＭＳ ゴシック
100
AcDbText
  0
TEXT
  5
AD
330
1F
100
AcDbEntity
  8
2-Fﾚｲﾔ
  6
Continuous
 62
     2
370
     9
100
AcDbText
 10
-1718.983186405138
 20
-855.1924625777461
 30
0.0
 40
30.48
  1
２００
 41
1.083333333333333
  7
ＭＳ ゴシック
100
AcDbText
  0
TEXT
  5
AE
330
1F
100
AcDbEntity
  8
2-Fﾚｲﾔ
  6
Continuous
 62
     2
370
     9
100
AcDbText
 10
-1718.983169172722
 20
-920.1924631668887
 30
0.0
 40
30.48
  1
２１２．５
 41
1.1
  7
ＭＳ ゴシック
100
AcDbText
  0
TEXT
  5
AF
330
1F
100
AcDbEntity
  8
2-Fﾚｲﾔ
  6
Continuous
 62
     2
370
     9
100
AcDbText
 10
-1718.983186405138
 20
-985.1924637560311
 30
0.0
 40
30.48
  1
２２５
 41
1.083333333333333
  7
ＭＳ ゴシック
100
AcDbText
  0
TEXT
  5
B0
330
1F
100
AcDbEntity
  8
2-Fﾚｲﾔ
  6
Continuous
 62
     2
370
     9
100
AcDbText
 10
-1718.983169172722
 20
-1050.192464345173
 30
0.0
 40
30.48
  1
２３７．５
 41
1.1
  7
ＭＳ ゴシック
100
AcDbText
  0
TEXT
  5
B1
330
1F
100
AcDbEntity
  8
2-Fﾚｲﾔ
  6
Continuous
 62
     2
370
     9
100
AcDbText
 10
-1718.983186405138
 20
-1115.192464934316
 30
0.0
 40
30.48
  1
２５０
 41
1.083333333333333
  7
ＭＳ ゴシック
100
AcDbText
  0
TEXT
  5
B2
330
1F
100
AcDbEntity
  8
2-Fﾚｲﾔ
  6
Continuous
 62
     2
370
     9
100
AcDbText
 10
-1718.983169172722
 20
-1180.192465523458
 30
0.0
 40
30.48
  1
２６２．５
 41
1.1
  7
ＭＳ ゴシック
100
AcDbText
  0
TEXT
  5
B3
330
1F
100
AcDbEntity
  8
2-Fﾚｲﾔ
  6
Continuous
 62
     2
370
     9
100
AcDbText
 10
-1956.893370639403
 20
-1245.192466112601
 30
0.0
 40
30.48
  1
２６２．５
 41
1.1
  7
ＭＳ ゴシック
100
AcDbText
  0
TEXT
  5
B4
330
1F
100
AcDbEntity
  8
2-Fﾚｲﾔ
  6
Continuous
 62
     2
370
     9
100
AcDbText
 10
-1718.983186405138
 20
-1245.192466112601
 30
0.0
 40
30.48
  1
２７５
 41
1.083333333333333
  7
ＭＳ ゴシック
100
AcDbText
  0
TEXT
  5
B5
330
1F
100
AcDbEntity
  8
2-Fﾚｲﾔ
  6
Continuous
 62
     2
370
     9
100
AcDbText
 10
-2163.513818983866
 20
-10.19236743124303
 30
0.0
 40
30.48
  1
製品符号
 41
1.09375
  7
ＭＳ ゴシック
100
AcDbText
  0
TEXT
  5
B6
330
1F
100
AcDbEntity
  8
2-Fﾚｲﾔ
  6
Continuous
 62
     2
370
     9
100
AcDbText
 10
-1889.39153339872
 20
-10.19236743124303
 30
0.0
 40
30.48
  1
Ｈ１
 41
1.0625
  7
ＭＳ ゴシック
100
AcDbText
  0
TEXT
  5
B7
330
1F
100
AcDbEntity
  8
2-Fﾚｲﾔ
  6
Continuous
 62
     2
370
     9
100
AcDbText
 10
-1651.477613706846
 20
-10.19236743124303
 30
0.0
 40
30.48
  1
Ｈ２
 41
1.0625
  7
ＭＳ ゴシック
100
AcDbText
  0
TEXT
  5
B8
330
1F
100
AcDbEntity
  8
2-Fﾚｲﾔ
  6
Continuous
 62
     2
370
     9
100
AcDbText
 10
-1413.571349184485
 20
-10.19236743124303
 30
0.0
 40
30.48
  1
ｈ１
 41
1.0625
  7
ＭＳ ゴシック
100
AcDbText
  0
TEXT
  5
B9
330
1F
100
AcDbEntity
  8
2-Fﾚｲﾔ
  6
Continuous
 62
     2
370
     9
100
AcDbText
 10
-1175.657298261135
 20
-10.19236743124303
 30
0.0
 40
30.48
  1
ｈ２
 41
1.0625
  7
ＭＳ ゴシック
100
AcDbText
  0
TEXT
  5
BA
330
1F
100
AcDbEntity
  8
2-Fﾚｲﾔ
  6
Continuous
 62
     2
370
     9
100
AcDbText
 10
-2163.513805728161
 20
140.4984633444267
 30
0.0
 40
30.48
  1
寸法表
 41
1.083333333333333
  7
ＭＳ ゴシック
100
AcDbText
  0
TEXT
  5
BB
330
1F
100
AcDbEntity
  8
2-Fﾚｲﾔ
  6
Continuous
 62
     2
370
     9
100
AcDbText
 10
-1186.320669697058
 20
127.7483629545558
 30
0.0
 40
30.48
  1
［ｍｍ］
 41
1.09375
  7
ＭＳ ゴシック
100
AcDbText
  0
TEXT
  5
BC
330
1F
100
AcDbEntity
  8
2-Fﾚｲﾔ
  6
Continuous
 62
     2
370
     9
100
AcDbText
 10
-1481.06795439849
 20
-400.1923709660977
 30
0.0
 40
30.48
  1
１３５
 41
1.083333333333333
  7
ＭＳ ゴシック
100
AcDbText
  0
TEXT
  5
BD
330
1F
100
AcDbEntity
  8
2-Fﾚｲﾔ
  6
Continuous
 62
     2
370
     9
100
AcDbText
 10
-2141.013731496214
 20
-140.1923686095278
 30
0.0
 40
30.48
  1
Ｓ０１
 41
1.083333333333333
  7
ＭＳ ゴシック
100
AcDbText
  0
TEXT
  5
BE
330
1F
100
AcDbEntity
  8
2-Fﾚｲﾔ
  6
Continuous
 62
     2
370
     9
100
AcDbText
 10
-2141.013731496214
 20
-205.1923691986703
 30
0.0
 40
30.48
  1
Ｓ０２
 41
1.083333333333333
  7
ＭＳ ゴシック
100
AcDbText
  0
TEXT
  5
BF
330
1F
100
AcDbEntity
  8
2-Fﾚｲﾔ
  6
Continuous
 62
     2
370
     9
100
AcDbText
 10
-2141.013818983866
 20
-270.1923697878129
 30
0.0
 40
30.48
  1
Ｓ０３
 41
1.083333333333333
  7
ＭＳ ゴシック
100
AcDbText
  0
TEXT
  5
C0
330
1F
100
AcDbEntity
  8
2-Fﾚｲﾔ
  6
Continuous
 62
     2
370
     9
100
AcDbText
 10
-2141.013818983866
 20
-335.1925453522585
 30
0.0
 40
30.48
  1
Ｓ０４
 41
1.083333333333333
  7
ＭＳ ゴシック
100
AcDbText
  0
TEXT
  5
C1
330
1F
100
AcDbEntity
  8
2-Fﾚｲﾔ
  6
Continuous
 62
     2
370
     9
100
AcDbText
 10
-2141.013818983866
 20
-400.1923709660977
 30
0.0
 40
30.48
  1
Ｓ０５
 41
1.083333333333333
  7
ＭＳ ゴシック
100
AcDbText
  0
TEXT
  5
C2
330
1F
100
AcDbEntity
  8
2-Fﾚｲﾔ
  6
Continuous
 62
     2
370
     9
100
AcDbText
 10
-2141.013818983866
 20
-465.1925465305433
 30
0.0
 40
30.48
  1
Ｓ０６
 41
1.083333333333333
  7
ＭＳ ゴシック
100
AcDbText
  0
TEXT
  5
C3
330
1F
100
AcDbEntity
  8
2-Fﾚｲﾔ
  6
Continuous
 62
     2
370
     9
100
AcDbText
 10
-2141.013818983866
 20
-530.1923721443824
 30
0.0
 40
30.48
  1
Ｓ０７
 41
1.083333333333333
  7
ＭＳ ゴシック
100
AcDbText
  0
TEXT
  5
C4
330
1F
100
AcDbEntity
  8
2-Fﾚｲﾔ
  6
Continuous
 62
     2
370
     9
100
AcDbText
 10
-2141.013731496214
 20
-595.1925477088281
 30
0.0
 40
30.48
  1
Ｓ０８
 41
1.083333333333333
  7
ＭＳ ゴシック
100
AcDbText
  0
TEXT
  5
C5
330
1F
100
AcDbEntity
  8
2-Fﾚｲﾔ
  6
Continuous
 62
     2
370
     9
100
AcDbText
 10
-2141.013818983866
 20
-660.192460810319
 30
0.0
 40
30.48
  1
Ｓ０９
 41
1.083333333333333
  7
ＭＳ ゴシック
100
AcDbText
  0
TEXT
  5
C6
330
1F
100
AcDbEntity
  8
2-Fﾚｲﾔ
  6
Continuous
 62
     2
370
     9
100
AcDbText
 10
-2141.013818983866
 20
-725.1924613994614
 30
0.0
 40
30.48
  1
Ｓ１０
 41
1.083333333333333
  7
ＭＳ ゴシック
100
AcDbText
  0
TEXT
  5
C7
330
1F
100
AcDbEntity
  8
2-Fﾚｲﾔ
  6
Continuous
 62
     2
370
     9
100
AcDbText
 10
-2141.013818983866
 20
-790.1924619886039
 30
0.0
 40
30.48
  1
Ｓ１１
 41
1.083333333333333
  7
ＭＳ ゴシック
100
AcDbText
  0
TEXT
  5
C8
330
1F
100
AcDbEntity
  8
2-Fﾚｲﾔ
  6
Continuous
 62
     2
370
     9
100
AcDbText
 10
-2141.013731496214
 20
-855.1924625777461
 30
0.0
 40
30.48
  1
Ｓ１２
 41
1.083333333333333
  7
ＭＳ ゴシック
100
AcDbText
  0
TEXT
  5
C9
330
1F
100
AcDbEntity
  8
2-Fﾚｲﾔ
  6
Continuous
 62
     2
370
     9
100
AcDbText
 10
-2141.013731496214
 20
-920.1924631668887
 30
0.0
 40
30.48
  1
Ｓ１３
 41
1.083333333333333
  7
ＭＳ ゴシック
100
AcDbText
  0
TEXT
  5
CA
330
1F
100
AcDbEntity
  8
2-Fﾚｲﾔ
  6
Continuous
 62
     2
370
     9
100
AcDbText
 10
-2141.013818983866
 20
-985.1924637560311
 30
0.0
 40
30.48
  1
Ｓ１４
 41
1.083333333333333
  7
ＭＳ ゴシック
100
AcDbText
  0
TEXT
  5
CB
330
1F
100
AcDbEntity
  8
2-Fﾚｲﾔ
  6
Continuous
 62
     2
370
     9
100
AcDbText
 10
-2141.013818983866
 20
-1050.192464345173
 30
0.0
 40
30.48
  1
Ｓ１５
 41
1.083333333333333
  7
ＭＳ ゴシック
100
AcDbText
  0
TEXT
  5
CC
330
1F
100
AcDbEntity
  8
2-Fﾚｲﾔ
  6
Continuous
 62
     2
370
     9
100
AcDbText
 10
-2141.013818983866
 20
-1115.192464934316
 30
0.0
 40
30.48
  1
Ｓ１６
 41
1.083333333333333
  7
ＭＳ ゴシック
100
AcDbText
  0
TEXT
  5
CD
330
1F
100
AcDbEntity
  8
2-Fﾚｲﾔ
  6
Continuous
 62
     2
370
     9
100
AcDbText
 10
-2141.013818983866
 20
-1245.192466112601
 30
0.0
 40
30.48
  1
Ｓ１８
 41
1.083333333333333
  7
ＭＳ ゴシック
100
AcDbText
  0
TEXT
  5
CE
330
1F
100
AcDbEntity
  8
2-Fﾚｲﾔ
  6
Continuous
 62
     2
370
     9
100
AcDbText
 10
-2141.013731496214
 20
-1180.192465523458
 30
0.0
 40
30.48
  1
Ｓ１７
 41
1.083333333333333
  7
ＭＳ ゴシック
100
AcDbText
  0
TEXT
  5
CF
330
1F
100
AcDbEntity
  8
2-Fﾚｲﾔ
  6
Continuous
 62
     2
370
     9
100
AcDbText
 10
-1436.067819190301
 20
-205.1923691986703
 30
0.0
 40
30.48
  1
９７．５
 41
1.09375
  7
ＭＳ ゴシック
100
AcDbText
  0
TEXT
  5
D0
330
1F
100
AcDbEntity
  8
2-Fﾚｲﾔ
  6
Continuous
 62
     2
370
     9
100
AcDbText
 10
-1481.06795439849
 20
-270.1923697878129
 30
0.0
 40
30.48
  1
１１０
 41
1.083333333333333
  7
ＭＳ ゴシック
100
AcDbText
  0
TEXT
  5
D1
330
1F
100
AcDbEntity
  8
2-Fﾚｲﾔ
  6
Continuous
 62
     2
370
     9
100
AcDbText
 10
-1243.156134410254
 20
-205.1925441739734
 30
0.0
 40
30.48
  1
１１０
 41
1.083333333333333
  7
ＭＳ ゴシック
100
AcDbText
  0
TEXT
  5
D2
330
1F
100
AcDbEntity
  8
2-Fﾚｲﾔ
  6
Continuous
 62
     2
370
     9
100
AcDbText
 10
-1911.893296407457
 20
-205.1925441739734
 30
0.0
 40
30.48
  1
６２．５
 41
1.09375
  7
ＭＳ ゴシック
100
AcDbText
  0
TEXT
  5
D3
330
1F
100
AcDbEntity
  8
2-Fﾚｲﾔ
  6
Continuous
 62
     2
370
     9
100
AcDbText
 10
-1911.893269896047
 20
-270.1923697878129
 30
0.0
 40
30.48
  1
７５
 41
1.0625
  7
ＭＳ ゴシック
100
AcDbText
  0
TEXT
  5
D4
330
1F
100
AcDbEntity
  8
2-Fﾚｲﾔ
  6
Continuous
 62
     2
370
     9
100
AcDbText
 10
-1911.893296407457
 20
-335.1925453522585
 30
0.0
 40
30.48
  1
８７．５
 41
1.09375
  7
ＭＳ ゴシック
100
AcDbText
  0
TEXT
  5
D5
330
1F
100
AcDbEntity
  8
2-Fﾚｲﾔ
  6
Continuous
 62
     2
370
     9
100
AcDbText
 10
-1673.983199660843
 20
-205.1925441739734
 30
0.0
 40
30.48
  1
７５
 41
1.0625
  7
ＭＳ ゴシック
100
AcDbText
  0
TEXT
  5
D6
330
1F
100
AcDbEntity
  8
2-Fﾚｲﾔ
  6
Continuous
 62
     2
370
     9
100
AcDbText
 10
-1673.983226172252
 20
-270.1923697878129
 30
0.0
 40
30.48
  1
８７．５
 41
1.09375
  7
ＭＳ ゴシック
100
AcDbText
  0
TEXT
  5
D7
330
1F
100
AcDbEntity
  8
F-Fﾚｲﾔ
  6
Continuous
 62
     2
370
     9
100
AcDbText
 10
-337.5006224289825
 20
-1917.638872561731
 30
0.0
 40
30.48
  1
サニタリートラフ　ＳＴＶ－１５０　直線（勾配付）　Ｓ０２～Ｓ１８
 41
1.12109375
  7
ＭＳ ゴシック
100
AcDbText
  0
TEXT
  5
D8
330
1F
100
AcDbEntity
  8
2-Fﾚｲﾔ
  6
Continuous
 62
     2
370
     9
100
AcDbText
 10
-1934.391489654894
 20
-140.1923686095278
 30
0.0
 40
30.48
  1
設定なし
 41
1.09375
  7
ＭＳ ゴシック
100
AcDbText
  0
TEXT
  5
D9
330
1F
100
AcDbEntity
  8
2-Fﾚｲﾔ
  6
Continuous
 62
     2
370
     9
100
AcDbText
 10
-1696.479538435181
 20
-140.1923686095278
 30
0.0
 40
30.48
  1
設定なし
 41
1.09375
  7
ＭＳ ゴシック
100
AcDbText
  0
TEXT
  5
DA
330
1F
100
AcDbEntity
  8
2-Fﾚｲﾔ
  6
Continuous
 62
     2
370
     9
100
AcDbText
 10
-1458.569511943802
 20
-140.1923686095278
 30
0.0
 40
30.48
  1
設定なし
 41
1.09375
  7
ＭＳ ゴシック
100
AcDbText
  0
TEXT
  5
DB
330
1F
100
AcDbEntity
  8
2-Fﾚｲﾔ
  6
Continuous
 62
     2
370
     9
100
AcDbText
 10
-1220.659485452423
 20
-140.1923686095278
 30
0.0
 40
30.48
  1
設定なし
 41
1.093749999999999
  7
ＭＳ ゴシック
100
AcDbText
  0
LINE
  5
DC
330
1F
100
AcDbEntity
  8
Yobi_3
  6
JWW_CENTER1
 62
     4
370
     9
100
AcDbLine
 10
-717.3918511232355
 20
-1259.921820697637
 30
0.0
 11
-745.5383783878049
 21
-1259.921820697637
 31
0.0
  0
LINE
  5
DD
330
1F
100
AcDbEntity
  8
Yobi_3
  6
JWW_CENTER1
 62
     4
370
     9
100
AcDbLine
 10
-731.4647648049138
 20
-1273.995084329922
 30
0.0
 11
-731.4647648049138
 21
-1245.848732040656
 31
0.0
  0
LINE
  5
DE
330
1F
100
AcDbEntity
  8
Yobi_3
  6
Continuous
 62
     4
370
     9
100
AcDbLine
 10
-761.3666443106752
 20
-1409.916424742076
 30
0.0
 11
-519.3655442639206
 21
-1409.916424742076
 31
0.0
  0
LINE
  5
DF
330
1F
100
AcDbEntity
  8
Yobi_3
  6
JWW_DASHED2
 62
     4
370
     9
100
AcDbLine
 10
-761.3666443106752
 20
-1405.916139361481
 30
0.0
 11
-519.3655442639206
 21
-1405.916139361481
 31
0.0
  0
LINE
  5
E0
330
1F
100
AcDbEntity
  8
Yobi_3
  6
Continuous
 62
     4
370
     9
100
AcDbLine
 10
-761.3666443106752
 20
-1195.91559234273
 30
0.0
 11
-761.3666443106752
 21
-1409.916424742076
 31
0.0
  0
LINE
  5
E1
330
1F
100
AcDbEntity
  8
Yobi_3
  6
Continuous
 62
     4
370
     9
100
AcDbLine
 10
-727.366668229858
 20
-1189.915601710095
 30
0.0
 11
-755.3665661903883
 21
-1189.915601710095
 31
0.0
  0
LINE
  5
E2
330
1F
100
AcDbEntity
  8
Yobi_3
  6
Continuous
 62
     4
370
     9
100
AcDbLine
 10
-721.3665901095712
 20
-1217.915587158277
 30
0.0
 11
-721.3665901095712
 21
-1195.91559234273
 31
0.0
  0
LINE
  5
E3
330
1F
100
AcDbEntity
  8
Yobi_3
  6
Continuous
 62
     4
370
     9
100
AcDbLine
 10
-718.3666385370793
 20
-1220.91562621842
 30
0.0
 11
-675.3668077387865
 21
-1220.91562621842
 31
0.0
  0
CIRCLE
  5
E4
330
1F
100
AcDbEntity
  8
Yobi_3
  6
Continuous
 62
     4
370
     9
100
AcDbCircle
 10
-731.4647648049138
 20
-1259.921820697637
 30
0.0
 40
8.500000171679787
  0
ARC
  5
E5
330
1F
100
AcDbEntity
  8
Yobi_3
  6
Continuous
 62
     4
370
     9
100
AcDbCircle
 10
-755.3665661903883
 20
-1195.91559234273
 30
0.0
 40
6.000000201597176
100
AcDbArc
 50
90.0
 51
180.0
  0
ARC
  5
E6
330
1F
100
AcDbEntity
  8
Yobi_3
  6
Continuous
 62
     4
370
     9
100
AcDbCircle
 10
-727.366668229858
 20
-1195.91559234273
 30
0.0
 40
6.000000201597176
100
AcDbArc
 50
0.0
 51
90.0
  0
ARC
  5
E7
330
1F
100
AcDbEntity
  8
Yobi_3
  6
Continuous
 62
     4
370
     9
100
AcDbCircle
 10
-675.3668077387865
 20
-1226.915616851056
 30
0.0
 40
6.000000201597176
100
AcDbArc
 50
359.9991607666017
 51
90.00000000000004
  0
ARC
  5
E8
330
1F
100
AcDbEntity
  8
Yobi_3
  6
Continuous
 62
     4
370
     9
100
AcDbCircle
 10
-718.3666385370793
 20
-1217.915587158277
 30
0.0
 40
3.000000100798588
100
AcDbArc
 50
180.0
 51
270.0
  0
LINE
  5
E9
330
1F
100
AcDbEntity
  8
Yobi_3
  6
JWW_CENTER1
 62
     4
370
     9
100
AcDbLine
 10
-321.3399373058186
 20
-1259.921820697637
 30
0.0
 11
-293.194109942462
 21
-1259.921820697637
 31
0.0
  0
LINE
  5
EA
330
1F
100
AcDbEntity
  8
Yobi_3
  6
JWW_DASHED2
 62
     4
370
     9
100
AcDbLine
 10
-519.3655442639206
 20
-1430.916085749519
 30
0.0
 11
-277.3658440195916
 21
-1430.916085749519
 31
0.0
  0
LINE
  5
EB
330
1F
100
AcDbEntity
  8
Yobi_3
  6
Continuous
 62
     4
370
     9
100
AcDbLine
 10
-519.3655442639206
 20
-1434.916458617766
 30
0.0
 11
-277.3658440195916
 21
-1434.916458617766
 31
0.0
  0
LINE
  5
EC
330
1F
100
AcDbEntity
  8
Yobi_3
  6
JWW_CENTER1
 62
     4
370
     9
100
AcDbLine
 10
-307.2670236241404
 20
-1273.995084329922
 30
0.0
 11
-307.2670236241404
 21
-1245.848732040656
 31
0.0
  0
LINE
  5
ED
330
1F
100
AcDbEntity
  8
Yobi_3
  6
Continuous
 62
     4
370
     9
100
AcDbLine
 10
-283.3659221398784
 20
-1189.915601710095
 30
0.0
 11
-311.3665200016214
 21
-1189.915601710095
 31
0.0
  0
LINE
  5
EE
330
1F
100
AcDbEntity
  8
Yobi_3
  6
Continuous
 62
     4
370
     9
100
AcDbLine
 10
-277.3658440195916
 20
-1195.91559234273
 30
0.0
 11
-277.3658440195916
 21
-1434.916458617766
 31
0.0
  0
LINE
  5
EF
330
1F
100
AcDbEntity
  8
Yobi_3
  6
Continuous
 62
     4
370
     9
100
AcDbLine
 10
-320.3665496944001
 20
-1220.91562621842
 30
0.0
 11
-363.3672553692085
 21
-1220.91562621842
 31
0.0
  0
LINE
  5
F0
330
1F
100
AcDbEntity
  8
Yobi_3
  6
Continuous
 62
     4
370
     9
100
AcDbLine
 10
-317.3665981219082
 20
-1217.915587158277
 30
0.0
 11
-317.3665981219082
 21
-1195.91559234273
 31
0.0
  0
CIRCLE
  5
F1
330
1F
100
AcDbEntity
  8
Yobi_3
  6
Continuous
 62
     4
370
     9
100
AcDbCircle
 10
-307.2670236241404
 20
-1259.921820697637
 30
0.0
 40
8.500000171679787
  0
ARC
  5
F2
330
1F
100
AcDbEntity
  8
Yobi_3
  6
Continuous
 62
     4
370
     9
100
AcDbCircle
 10
-363.3672553692085
 20
-1226.915616851056
 30
0.0
 40
6.000000201597176
100
AcDbArc
 50
90.0
 51
180.0
  0
ARC
  5
F3
330
1F
100
AcDbEntity
  8
Yobi_3
  6
Continuous
 62
     4
370
     9
100
AcDbCircle
 10
-311.3665200016214
 20
-1195.91559234273
 30
0.0
 40
6.000000201597176
100
AcDbArc
 50
90.0
 51
180.0
  0
ARC
  5
F4
330
1F
100
AcDbEntity
  8
Yobi_3
  6
Continuous
 62
     4
370
     9
100
AcDbCircle
 10
-283.3659221398784
 20
-1195.91559234273
 30
0.0
 40
6.000000201597176
100
AcDbArc
 50
0.0
 51
90.0
  0
ARC
  5
F5
330
1F
100
AcDbEntity
  8
Yobi_3
  6
Continuous
 62
     4
370
     9
100
AcDbCircle
 10
-320.3665496944001
 20
-1217.915587158277
 30
0.0
 40
3.000000100798588
100
AcDbArc
 50
270.0
 51
0.0
  0
LINE
  5
F6
330
1F
100
AcDbEntity
  8
Yobi_3
  6
Continuous
 62
     4
370
     9
100
AcDbLine
 10
-669.3678872131081
 20
-1281.270133462199
 30
0.0
 11
-669.3669045938029
 21
-1226.915704338707
 31
0.0
  0
LINE
  5
F7
330
1F
100
AcDbEntity
  8
Yobi_3
  6
Continuous
 62
     4
370
     9
100
AcDbLine
 10
-654.5443604461576
 20
-1300.588986808579
 30
0.0
 11
-524.5427135334972
 21
-1335.423489031184
 31
0.0
  0
ARC
  5
F8
330
1F
100
AcDbEntity
  8
Yobi_3
  6
Continuous
 62
     4
370
     9
100
AcDbCircle
 10
-649.3678872163763
 20
-1281.270495022175
 30
0.0
 40
20.0
100
AcDbArc
 50
179.998964206966
 51
254.9997261698281
  0
LINE
  5
F9
330
1F
100
AcDbEntity
  8
Yobi_3
  6
Continuous
 62
     4
370
     9
100
AcDbLine
 10
-384.1913121866307
 20
-1325.589114222841
 30
0.0
 11
-514.1897747967696
 21
-1360.422560542707
 31
0.0
  0
LINE
  5
FA
330
1F
100
AcDbEntity
  8
Yobi_3
  6
Continuous
 62
     4
370
     9
100
AcDbLine
 10
-369.3677573187283
 20
-1306.270765825037
 30
0.0
 11
-369.3671585141922
 21
-1226.915616851056
 31
0.0
  0
TEXT
  5
FB
330
1F
100
AcDbEntity
  8
4-F
  6
Continuous
 62
     2
370
     9
100
AcDbText
 10
-674.3656317515724
 20
-1049.951173402131
 30
0.0
 40
30.48
  1
Ｓ０２～Ｓ０４
 41
1.107142857142857
  7
ＭＳ ゴシック
100
AcDbText
  0
LINE
  5
FC
330
1F
100
AcDbEntity
  8
Yobi_3
  6
JWW_CENTER2
 62
     7
370
     9
100
AcDbLine
 10
35.85962843454098
 20
-1192.452393655151
 30
0.0
 11
35.85962843454098
 21
-1541.705460907409
 31
0.0
  0
LINE
  5
FD
330
1F
100
AcDbEntity
  8
Yobi_3
  6
JWW_CENTER1
 62
     4
370
     9
100
AcDbLine
 10
-20.06597795798456
 20
-1444.915597291527
 30
0.0
 11
-48.21250522255383
 21
-1444.915597291527
 31
0.0
  0
LINE
  5
FE
330
1F
100
AcDbEntity
  8
Yobi_3
  6
JWW_CENTER1
 62
     4
370
     9
100
AcDbLine
 10
-34.13959154087564
 20
-1458.988860923811
 30
0.0
 11
-34.13959154087564
 21
-1430.842508634545
 31
0.0
  0
LINE
  5
FF
330
1F
100
AcDbEntity
  8
Yobi_3
  6
JWW_CENTER1
 62
     4
370
     9
100
AcDbLine
 10
119.9324619928481
 20
-1469.915543679565
 30
0.0
 11
91.78593472827885
 21
-1469.915543679565
 31
0.0
  0
LINE
  5
100
330
1F
100
AcDbEntity
  8
Yobi_3
  6
JWW_CENTER1
 62
     4
370
     9
100
AcDbLine
 10
105.8595483111699
 20
-1483.98880731185
 30
0.0
 11
105.8595483111699
 21
-1455.842455022584
 31
0.0
  0
ARC
  5
101
330
1F
100
AcDbEntity
  8
Yobi_3
  6
Continuous
 62
     4
370
     9
100
AcDbCircle
 10
35.85962843454098
 20
-1416.103988899688
 30
0.0
 40
19.99999429268266
100
AcDbArc
 50
270.0
 51
285.0002899169922
  0
ARC
  5
102
330
1F
100
AcDbEntity
  8
Yobi_3
  6
Continuous
 62
     4
370
     9
100
AcDbCircle
 10
35.85962843454098
 20
-1391.104917388165
 30
0.0
 40
19.99999429268266
100
AcDbArc
 50
254.9997406005859
 51
270.0
  0
CIRCLE
  5
103
330
1F
100
AcDbEntity
  8
Yobi_3
  6
Continuous
 62
     4
370
     9
100
AcDbCircle
 10
-34.13959154087564
 20
-1444.915684779178
 30
0.0
 40
8.499998804685232
  0
CIRCLE
  5
104
330
1F
100
AcDbEntity
  8
Yobi_3
  6
Continuous
 62
     4
370
     9
100
AcDbCircle
 10
105.8595483111699
 20
-1469.915543679565
 30
0.0
 40
8.499998804685232
  0
TEXT
  5
105
330
1F
100
AcDbEntity
  8
4-F
  6
Continuous
 62
     2
370
     9
100
AcDbText
 10
-29.14089649136884
 20
-1049.951173402131
 30
0.0
 40
30.48
  1
Ｓ０５
 41
1.083333333333333
  7
ＭＳ ゴシック
100
AcDbText
  0
TEXT
  5
106
330
1F
100
AcDbEntity
  8
4-F
  6
Continuous
 62
     2
370
     9
100
AcDbText
 10
-183.5285636428603
 20
-1151.514937221056
 30
0.0
 40
22.86
  1
水下ｼﾞｮｲﾝﾄ穴：６－Φ８．５
 41
1.153846153846154
  7
ＭＳ ゴシック
100
AcDbText
  0
TEXT
  5
107
330
1F
100
AcDbEntity
  8
4-F
  6
Continuous
 62
     2
370
     9
100
AcDbText
 10
-183.5285619980757
 20
-1105.440527883495
 30
0.0
 40
22.86
  1
水上ｼﾞｮｲﾝﾄ穴：４－Φ８．５
 50
359.9999777214567
 41
1.153846153846154
  7
ＭＳ ゴシック
100
AcDbText
  0
LINE
  5
108
330
1F
100
AcDbEntity
  8
Yobi_3
  6
Continuous
 62
     4
370
     9
100
AcDbLine
 10
-206.1407717110009
 20
-1484.916263906191
 30
0.0
 11
35.85962843454098
 21
-1484.916263906191
 31
0.0
  0
LINE
  5
109
330
1F
100
AcDbEntity
  8
Yobi_3
  6
JWW_DASHED2
 62
     4
370
     9
100
AcDbLine
 10
-206.1407717110009
 20
-1480.915978525596
 30
0.0
 11
35.85962843454098
 21
-1480.915978525596
 31
0.0
  0
LINE
  5
10A
330
1F
100
AcDbEntity
  8
Yobi_3
  6
JWW_CENTER1
 62
     4
370
     9
100
AcDbLine
 10
-162.1666784247739
 20
-1259.921733209986
 30
0.0
 11
-190.3132056893432
 21
-1259.921733209986
 31
0.0
  0
LINE
  5
10B
330
1F
100
AcDbEntity
  8
Yobi_3
  6
JWW_CENTER1
 62
     4
370
     9
100
AcDbLine
 10
-176.2395921064521
 20
-1273.99499684227
 30
0.0
 11
-176.2395921064521
 21
-1245.848644553004
 31
0.0
  0
LINE
  5
10C
330
1F
100
AcDbEntity
  8
Yobi_3
  6
Continuous
 62
     4
370
     9
100
AcDbLine
 10
-206.1407717110009
 20
-1195.91559234273
 30
0.0
 11
-206.1407717110009
 21
-1484.916263906191
 31
0.0
  0
LINE
  5
10D
330
1F
100
AcDbEntity
  8
Yobi_3
  6
Continuous
 62
     4
370
     9
100
AcDbLine
 10
-172.1414955313966
 20
-1189.915601710095
 30
0.0
 11
-200.1406935907139
 21
-1189.915601710095
 31
0.0
  0
LINE
  5
10E
330
1F
100
AcDbEntity
  8
Yobi_3
  6
Continuous
 62
     4
370
     9
100
AcDbLine
 10
-166.1414174111096
 20
-1217.915412182974
 30
0.0
 11
-166.1414174111096
 21
-1195.91559234273
 31
0.0
  0
LINE
  5
10F
330
1F
100
AcDbEntity
  8
Yobi_3
  6
Continuous
 62
     4
370
     9
100
AcDbLine
 10
-163.1414658386174
 20
-1220.915451243117
 30
0.0
 11
-120.141635040325
 21
-1220.915451243117
 31
0.0
  0
CIRCLE
  5
110
330
1F
100
AcDbEntity
  8
Yobi_3
  6
Continuous
 62
     4
370
     9
100
AcDbCircle
 10
-176.2395921064521
 20
-1259.921733209986
 30
0.0
 40
8.499998804685232
  0
ARC
  5
111
330
1F
100
AcDbEntity
  8
Yobi_3
  6
Continuous
 62
     4
370
     9
100
AcDbCircle
 10
-200.1406935907139
 20
-1195.91559234273
 30
0.0
 40
6.000000201597176
100
AcDbArc
 50
90.0
 51
180.0
  0
ARC
  5
112
330
1F
100
AcDbEntity
  8
Yobi_3
  6
Continuous
 62
     4
370
     9
100
AcDbCircle
 10
-172.1414955313966
 20
-1195.91559234273
 30
0.0
 40
6.000000201597176
100
AcDbArc
 50
0.0
 51
90.0
  0
ARC
  5
113
330
1F
100
AcDbEntity
  8
Yobi_3
  6
Continuous
 62
     4
370
     9
100
AcDbCircle
 10
-120.141635040325
 20
-1226.915441875752
 30
0.0
 40
6.000000201597176
100
AcDbArc
 50
0.0
 51
90.0
  0
ARC
  5
114
330
1F
100
AcDbEntity
  8
Yobi_3
  6
Continuous
 62
     4
370
     9
100
AcDbCircle
 10
-163.1414658386174
 20
-1217.915412182974
 30
0.0
 40
3.000000100798588
100
AcDbArc
 50
180.0
 51
270.0
  0
LINE
  5
115
330
1F
100
AcDbEntity
  8
Yobi_3
  6
JWW_DASHED2
 62
     4
370
     9
100
AcDbLine
 10
35.85962843454098
 20
-1505.915924913635
 30
0.0
 11
277.85932867887
 21
-1505.915924913635
 31
0.0
  0
LINE
  5
116
330
1F
100
AcDbEntity
  8
Yobi_3
  6
Continuous
 62
     4
370
     9
100
AcDbLine
 10
35.85962843454098
 20
-1509.91621029423
 30
0.0
 11
277.85932867887
 21
-1509.91621029423
 31
0.0
  0
LINE
  5
117
330
1F
100
AcDbEntity
  8
Yobi_3
  6
JWW_CENTER1
 62
     4
370
     9
100
AcDbLine
 10
262.0317626572123
 20
-1399.914836414072
 30
0.0
 11
233.885235392643
 21
-1399.914836414072
 31
0.0
  0
LINE
  5
118
330
1F
100
AcDbEntity
  8
Yobi_3
  6
JWW_CENTER1
 62
     4
370
     9
100
AcDbLine
 10
247.9581490743212
 20
-1413.988100046357
 30
0.0
 11
247.9581490743212
 21
-1385.84174775709
 31
0.0
  0
LINE
  5
119
330
1F
100
AcDbEntity
  8
Yobi_3
  6
JWW_CENTER1
 62
     4
370
     9
100
AcDbLine
 10
262.0317626572123
 20
-1259.921733209986
 30
0.0
 11
233.885235392643
 21
-1259.921733209986
 31
0.0
  0
LINE
  5
11A
330
1F
100
AcDbEntity
  8
Yobi_3
  6
JWW_CENTER1
 62
     4
370
     9
100
AcDbLine
 10
247.9581490743212
 20
-1273.99499684227
 30
0.0
 11
247.9581490743212
 21
-1245.848644553004
 31
0.0
  0
LINE
  5
11B
330
1F
100
AcDbEntity
  8
Yobi_3
  6
Continuous
 62
     4
370
     9
100
AcDbLine
 10
271.8594255338863
 20
-1189.915601710095
 30
0.0
 11
243.8584777215371
 21
-1189.915601710095
 31
0.0
  0
LINE
  5
11C
330
1F
100
AcDbEntity
  8
Yobi_3
  6
Continuous
 62
     4
370
     9
100
AcDbLine
 10
277.85932867887
 20
-1195.91559234273
 30
0.0
 11
277.85932867887
 21
-1509.91621029423
 31
0.0
  0
LINE
  5
11D
330
1F
100
AcDbEntity
  8
Yobi_3
  6
Continuous
 62
     4
370
     9
100
AcDbLine
 10
234.8584480287585
 20
-1220.915451243117
 30
0.0
 11
191.8586172304654
 21
-1220.915451243117
 31
0.0
  0
LINE
  5
11E
330
1F
100
AcDbEntity
  8
Yobi_3
  6
Continuous
 62
     4
370
     9
100
AcDbLine
 10
237.8585745765534
 20
-1217.915412182974
 30
0.0
 11
237.8585745765534
 21
-1195.91559234273
 31
0.0
  0
CIRCLE
  5
11F
330
1F
100
AcDbEntity
  8
Yobi_3
  6
Continuous
 62
     4
370
     9
100
AcDbCircle
 10
247.9581490743212
 20
-1399.914836414072
 30
0.0
 40
8.499998804685232
  0
CIRCLE
  5
120
330
1F
100
AcDbEntity
  8
Yobi_3
  6
Continuous
 62
     4
370
     9
100
AcDbCircle
 10
247.9581490743212
 20
-1259.921733209986
 30
0.0
 40
8.499998804685232
  0
ARC
  5
121
330
1F
100
AcDbEntity
  8
Yobi_3
  6
Continuous
 62
     4
370
     9
100
AcDbCircle
 10
191.8586172304654
 20
-1226.915441875752
 30
0.0
 40
6.000000201597176
100
AcDbArc
 50
90.0
 51
180.0
  0
ARC
  5
122
330
1F
100
AcDbEntity
  8
Yobi_3
  6
Continuous
 62
     4
370
     9
100
AcDbCircle
 10
243.8584777215371
 20
-1195.91559234273
 30
0.0
 40
6.000000201597176
100
AcDbArc
 50
90.0
 51
180.0
  0
ARC
  5
123
330
1F
100
AcDbEntity
  8
Yobi_3
  6
Continuous
 62
     4
370
     9
100
AcDbCircle
 10
271.8594255338863
 20
-1195.91559234273
 30
0.0
 40
6.000000201597176
100
AcDbArc
 50
0.0
 51
90.0
  0
ARC
  5
124
330
1F
100
AcDbEntity
  8
Yobi_3
  6
Continuous
 62
     4
370
     9
100
AcDbCircle
 10
234.8584480287585
 20
-1217.915412182974
 30
0.0
 40
3.000000100798588
100
AcDbArc
 50
270.0
 51
0.0
  0
LINE
  5
125
330
1F
100
AcDbEntity
  8
Yobi_3
  6
Continuous
 62
     4
370
     9
100
AcDbLine
 10
-114.1421911354531
 20
-1356.270493580014
 30
0.0
 11
-114.1415569200379
 21
-1226.915441875752
 31
0.0
  0
LINE
  5
126
330
1F
100
AcDbEntity
  8
Yobi_3
  6
Continuous
 62
     4
370
     9
100
AcDbLine
 10
-99.3186221126675
 20
-1375.589094746273
 30
0.0
 11
30.68315906617698
 21
-1410.4233281953
 31
0.0
  0
ARC
  5
127
330
1F
100
AcDbEntity
  8
Yobi_3
  6
Continuous
 62
     4
370
     9
100
AcDbCircle
 10
-94.14219113569352
 20
-1356.270591638097
 30
0.0
 40
20.0
100
AcDbArc
 50
179.9997190842869
 51
254.9998514853472
  0
LINE
  5
128
330
1F
100
AcDbEntity
  8
Yobi_3
  6
Continuous
 62
     4
370
     9
100
AcDbLine
 10
171.0338909212182
 20
-1400.58899061182
 30
0.0
 11
41.03609780290498
 21
-1435.422399706822
 31
0.0
  0
LINE
  5
129
330
1F
100
AcDbEntity
  8
Yobi_3
  6
Continuous
 62
     4
370
     9
100
AcDbLine
 10
185.8574260773075
 20
-1381.270663467039
 30
0.0
 11
185.8587140854817
 21
-1226.915441875752
 31
0.0
  0
ARC
  5
12A
330
1F
100
AcDbEntity
  8
Yobi_3
  6
Continuous
 62
     4
370
     9
100
AcDbCircle
 10
165.8574260780038
 20
-1381.270496578202
 30
0.0
 40
20.0
100
AcDbArc
 50
285.0002489568603
 51
359.9995218986984
  0
LINE
  5
12B
330
1F
100
AcDbEntity
  8
Yobi_3
  6
JWW_CENTER1
 62
     4
370
     9
100
AcDbLine
 10
657.1036434776762
 20
-1494.915752530558
 30
0.0
 11
685.2494708410326
 21
-1494.915752530558
 31
0.0
  0
LINE
  5
12C
330
1F
100
AcDbEntity
  8
Yobi_3
  6
JWW_CENTER1
 62
     4
370
     9
100
AcDbLine
 10
671.1772570605667
 20
-1508.988841187539
 30
0.0
 11
671.1772570605667
 21
-1480.842663873577
 31
0.0
  0
LINE
  5
12D
330
1F
100
AcDbEntity
  8
Yobi_3
  6
JWW_CENTER1
 62
     4
370
     9
100
AcDbLine
 10
545.2510308901999
 20
-1469.91580614252
 30
0.0
 11
517.1045036256306
 21
-1469.91580614252
 31
0.0
  0
LINE
  5
12E
330
1F
100
AcDbEntity
  8
Yobi_3
  6
JWW_CENTER2
 62
     7
370
     9
100
AcDbLine
 10
601.1773371839378
 20
-1192.452568630454
 30
0.0
 11
601.1773371839378
 21
-1566.705669758403
 31
0.0
  0
LINE
  5
12F
330
1F
100
AcDbEntity
  8
Yobi_3
  6
JWW_CENTER1
 62
     4
370
     9
100
AcDbLine
 10
531.1774173073094
 20
-1483.988894799501
 30
0.0
 11
531.1774173073094
 21
-1455.842717485539
 31
0.0
  0
ARC
  5
130
330
1F
100
AcDbEntity
  8
Yobi_3
  6
Continuous
 62
     4
370
     9
100
AcDbCircle
 10
601.1773371839378
 20
-1441.104197750681
 30
0.0
 40
19.99999976066088
100
AcDbArc
 50
270.0
 51
285.0002899169922
  0
ARC
  5
131
330
1F
100
AcDbEntity
  8
Yobi_3
  6
Continuous
 62
     4
370
     9
100
AcDbCircle
 10
601.1773371839378
 20
-1416.105126239158
 30
0.0
 40
19.99999976066088
100
AcDbArc
 50
254.9997406005859
 51
270.0
  0
CIRCLE
  5
132
330
1F
100
AcDbEntity
  8
Yobi_3
  6
Continuous
 62
     4
370
     9
100
AcDbCircle
 10
531.1774173073094
 20
-1469.91580614252
 30
0.0
 40
8.500000171679787
  0
CIRCLE
  5
133
330
1F
100
AcDbEntity
  8
Yobi_3
  6
Continuous
 62
     4
370
     9
100
AcDbCircle
 10
671.1772570605667
 20
-1494.915752530558
 30
0.0
 40
8.500000171679787
  0
TEXT
  5
134
330
1F
100
AcDbEntity
  8
4-F
  6
Continuous
 62
     2
370
     9
100
AcDbText
 10
410.2057012733235
 20
-1105.440702858739
 30
0.0
 40
22.86
  1
ｼﾞｮｲﾝﾄ穴：６－Φ８．５
 50
359.9999736174967
 41
1.151515151515151
  7
ＭＳ ゴシック
100
AcDbText
  0
TEXT
  5
135
330
1F
100
AcDbEntity
  8
4-F
  6
Continuous
 62
     2
370
     9
100
AcDbText
 10
446.1771622086347
 20
-1049.951173402131
 30
0.0
 40
30.48
  1
Ｓ０６～Ｓ１１
 41
1.107142857142857
  7
ＭＳ ゴシック
100
AcDbText
  0
LINE
  5
136
330
1F
100
AcDbEntity
  8
Yobi_3
  6
JWW_CENTER1
 62
     4
370
     9
100
AcDbLine
 10
403.1510303246234
 20
-1259.921820697637
 30
0.0
 11
375.0052029612665
 21
-1259.921820697637
 31
0.0
  0
LINE
  5
137
330
1F
100
AcDbEntity
  8
Yobi_3
  6
JWW_CENTER1
 62
     4
370
     9
100
AcDbLine
 10
389.0781166429452
 20
-1273.995084329922
 30
0.0
 11
389.0781166429452
 21
-1245.848732040656
 31
0.0
  0
LINE
  5
138
330
1F
100
AcDbEntity
  8
Yobi_3
  6
JWW_CENTER1
 62
     4
370
     9
100
AcDbLine
 10
403.1510303246234
 20
-1399.915011389375
 30
0.0
 11
375.0052029612665
 21
-1399.915011389375
 31
0.0
  0
LINE
  5
139
330
1F
100
AcDbEntity
  8
Yobi_3
  6
JWW_CENTER1
 62
     4
370
     9
100
AcDbLine
 10
389.0781166429452
 20
-1413.988100046357
 30
0.0
 11
389.0781166429452
 21
-1385.841835244742
 31
0.0
  0
LINE
  5
13A
330
1F
100
AcDbEntity
  8
Yobi_3
  6
Continuous
 62
     4
370
     9
100
AcDbLine
 10
359.1762371371835
 20
-1509.916385269533
 30
0.0
 11
601.1773371839378
 21
-1509.916385269533
 31
0.0
  0
LINE
  5
13B
330
1F
100
AcDbEntity
  8
Yobi_3
  6
JWW_DASHED2
 62
     4
370
     9
100
AcDbLine
 10
359.1762371371835
 20
-1505.916099888938
 30
0.0
 11
601.1773371839378
 21
-1505.916099888938
 31
0.0
  0
LINE
  5
13C
330
1F
100
AcDbEntity
  8
Yobi_3
  6
Continuous
 62
     4
370
     9
100
AcDbLine
 10
359.1762371371835
 20
-1195.91559234273
 30
0.0
 11
359.1762371371835
 21
-1509.916385269533
 31
0.0
  0
LINE
  5
13D
330
1F
100
AcDbEntity
  8
Yobi_3
  6
Continuous
 62
     4
370
     9
100
AcDbLine
 10
393.1763881933041
 20
-1189.915601710095
 30
0.0
 11
365.1761402821672
 21
-1189.915601710095
 31
0.0
  0
LINE
  5
13E
330
1F
100
AcDbEntity
  8
Yobi_3
  6
Continuous
 62
     4
370
     9
100
AcDbLine
 10
399.1762913382878
 20
-1217.915587158277
 30
0.0
 11
399.1762913382878
 21
-1195.91559234273
 31
0.0
  0
LINE
  5
13F
330
1F
100
AcDbEntity
  8
Yobi_3
  6
Continuous
 62
     4
370
     9
100
AcDbLine
 10
402.1764178860827
 20
-1220.91562621842
 30
0.0
 11
445.1769485855881
 21
-1220.91562621842
 31
0.0
  0
CIRCLE
  5
140
330
1F
100
AcDbEntity
  8
Yobi_3
  6
Continuous
 62
     4
370
     9
100
AcDbCircle
 10
389.0781166429452
 20
-1259.921820697637
 30
0.0
 40
8.500000171679787
  0
CIRCLE
  5
141
330
1F
100
AcDbEntity
  8
Yobi_3
  6
Continuous
 62
     4
370
     9
100
AcDbCircle
 10
389.0781166429452
 20
-1399.915011389375
 30
0.0
 40
8.500000171679787
  0
ARC
  5
142
330
1F
100
AcDbEntity
  8
Yobi_3
  6
Continuous
 62
     4
370
     9
100
AcDbCircle
 10
365.1761402821672
 20
-1195.91559234273
 30
0.0
 40
6.000000201597176
100
AcDbArc
 50
90.0
 51
180.0
  0
ARC
  5
143
330
1F
100
AcDbEntity
  8
Yobi_3
  6
Continuous
 62
     4
370
     9
100
AcDbCircle
 10
393.1763881933041
 20
-1195.91559234273
 30
0.0
 40
6.000000201597176
100
AcDbArc
 50
0.0
 51
90.0
  0
ARC
  5
144
330
1F
100
AcDbEntity
  8
Yobi_3
  6
Continuous
 62
     4
370
     9
100
AcDbCircle
 10
445.1769485855881
 20
-1226.915616851056
 30
0.0
 40
6.000000201597176
100
AcDbArc
 50
359.9991607666017
 51
90.00000000000004
  0
ARC
  5
145
330
1F
100
AcDbEntity
  8
Yobi_3
  6
Continuous
 62
     4
370
     9
100
AcDbCircle
 10
402.1764178860827
 20
-1217.915587158277
 30
0.0
 40
3.000000100798588
100
AcDbArc
 50
180.0
 51
270.0
  0
LINE
  5
146
330
1F
100
AcDbEntity
  8
Yobi_3
  6
JWW_CENTER1
 62
     4
370
     9
100
AcDbLine
 10
799.2036440432527
 20
-1259.921820697637
 30
0.0
 11
827.3494714066096
 21
-1259.921820697637
 31
0.0
  0
LINE
  5
147
330
1F
100
AcDbEntity
  8
Yobi_3
  6
JWW_CENTER1
 62
     4
370
     9
100
AcDbLine
 10
813.2758578237185
 20
-1273.995084329922
 30
0.0
 11
813.2758578237185
 21
-1245.848732040656
 31
0.0
  0
LINE
  5
148
330
1F
100
AcDbEntity
  8
Yobi_3
  6
JWW_CENTER1
 62
     4
370
     9
100
AcDbLine
 10
799.2036440432527
 20
-1424.914957777414
 30
0.0
 11
827.3494714066096
 21
-1424.914957777414
 31
0.0
  0
LINE
  5
149
330
1F
100
AcDbEntity
  8
Yobi_3
  6
JWW_CENTER1
 62
     4
370
     9
100
AcDbLine
 10
813.2758578237185
 20
-1438.988046434395
 30
0.0
 11
813.2758578237185
 21
-1410.841869120432
 31
0.0
  0
LINE
  5
14A
330
1F
100
AcDbEntity
  8
Yobi_3
  6
JWW_DASHED2
 62
     4
370
     9
100
AcDbLine
 10
601.1773371839378
 20
-1530.916046276976
 30
0.0
 11
843.1770374282673
 21
-1530.916046276976
 31
0.0
  0
LINE
  5
14B
330
1F
100
AcDbEntity
  8
Yobi_3
  6
Continuous
 62
     4
370
     9
100
AcDbLine
 10
601.1773371839378
 20
-1534.916506632875
 30
0.0
 11
843.1770374282673
 21
-1534.916506632875
 31
0.0
  0
LINE
  5
14C
330
1F
100
AcDbEntity
  8
Yobi_3
  6
Continuous
 62
     4
370
     9
100
AcDbLine
 10
837.1771342832836
 20
-1189.915601710095
 30
0.0
 11
809.1761864709345
 21
-1189.915601710095
 31
0.0
  0
LINE
  5
14D
330
1F
100
AcDbEntity
  8
Yobi_3
  6
Continuous
 62
     4
370
     9
100
AcDbLine
 10
843.1770374282673
 20
-1195.91559234273
 30
0.0
 11
843.1770374282673
 21
-1534.916506632875
 31
0.0
  0
LINE
  5
14E
330
1F
100
AcDbEntity
  8
Yobi_3
  6
Continuous
 62
     4
370
     9
100
AcDbLine
 10
800.1761567781558
 20
-1220.91562621842
 30
0.0
 11
757.1763259798628
 21
-1220.91562621842
 31
0.0
  0
LINE
  5
14F
330
1F
100
AcDbEntity
  8
Yobi_3
  6
Continuous
 62
     4
370
     9
100
AcDbLine
 10
803.1762833259507
 20
-1217.915587158277
 30
0.0
 11
803.1762833259507
 21
-1195.91559234273
 31
0.0
  0
CIRCLE
  5
150
330
1F
100
AcDbEntity
  8
Yobi_3
  6
Continuous
 62
     4
370
     9
100
AcDbCircle
 10
813.2758578237185
 20
-1424.914957777414
 30
0.0
 40
8.500000171679787
  0
CIRCLE
  5
151
330
1F
100
AcDbEntity
  8
Yobi_3
  6
Continuous
 62
     4
370
     9
100
AcDbCircle
 10
813.2758578237185
 20
-1259.921820697637
 30
0.0
 40
8.500000171679787
  0
ARC
  5
152
330
1F
100
AcDbEntity
  8
Yobi_3
  6
Continuous
 62
     4
370
     9
100
AcDbCircle
 10
757.1763259798628
 20
-1226.915616851056
 30
0.0
 40
6.000000201597176
100
AcDbArc
 50
90.0
 51
180.0
  0
ARC
  5
153
330
1F
100
AcDbEntity
  8
Yobi_3
  6
Continuous
 62
     4
370
     9
100
AcDbCircle
 10
809.1761864709345
 20
-1195.91559234273
 30
0.0
 40
6.000000201597176
100
AcDbArc
 50
90.0
 51
180.0
  0
ARC
  5
154
330
1F
100
AcDbEntity
  8
Yobi_3
  6
Continuous
 62
     4
370
     9
100
AcDbCircle
 10
837.1771342832836
 20
-1195.91559234273
 30
0.0
 40
6.000000201597176
100
AcDbArc
 50
0.0
 51
90.0
  0
ARC
  5
155
330
1F
100
AcDbEntity
  8
Yobi_3
  6
Continuous
 62
     4
370
     9
100
AcDbCircle
 10
800.1761567781558
 20
-1217.915587158277
 30
0.0
 40
3.000000100798588
100
AcDbArc
 50
270.0
 51
0.0
  0
LINE
  5
156
330
1F
100
AcDbEntity
  8
Yobi_3
  6
Continuous
 62
     4
370
     9
100
AcDbLine
 10
451.1755637265063
 20
-1381.27011155065
 30
0.0
 11
451.1768517305718
 21
-1226.915704338707
 31
0.0
  0
LINE
  5
157
330
1F
100
AcDbEntity
  8
Yobi_3
  6
Continuous
 62
     4
370
     9
100
AcDbLine
 10
465.9990707850554
 20
-1400.588764944589
 30
0.0
 11
596.0008678155743
 21
-1435.423449558641
 31
0.0
  0
ARC
  5
158
330
1F
100
AcDbEntity
  8
Yobi_3
  6
Continuous
 62
     4
370
     9
100
AcDbCircle
 10
471.17556372581
 20
-1381.270278439836
 30
0.0
 40
20.0
100
AcDbArc
 50
179.999521897701
 51
254.9996677099989
  0
LINE
  5
159
330
1F
100
AcDbEntity
  8
Yobi_3
  6
Continuous
 62
     4
370
     9
100
AcDbLine
 10
736.3515654587736
 20
-1425.589263309634
 30
0.0
 11
606.3538065523018
 21
-1460.422521070164
 31
0.0
  0
LINE
  5
15A
330
1F
100
AcDbEntity
  8
Yobi_3
  6
Continuous
 62
     4
370
     9
100
AcDbLine
 10
751.175120326718
 20
-1406.270909237553
 30
0.0
 11
751.1764228348791
 21
-1226.915616851056
 31
0.0
  0
ARC
  5
15B
330
1F
100
AcDbEntity
  8
Yobi_3
  6
Continuous
 62
     4
370
     9
100
AcDbCircle
 10
731.1751203272454
 20
-1406.270763994204
 30
0.0
 40
20.0
100
AcDbArc
 50
285.0001904949396
 51
359.9995839084567
  0
LINE
  5
15C
330
1F
100
AcDbEntity
  8
Yobi_3
  6
JWW_CENTER1
 62
     4
370
     9
100
AcDbLine
 10
1234.847248059059
 20
-1619.915746933705
 30
0.0
 11
1262.993075422416
 21
-1619.915746933705
 31
0.0
  0
LINE
  5
15D
330
1F
100
AcDbEntity
  8
Yobi_3
  6
JWW_CENTER1
 62
     4
370
     9
100
AcDbLine
 10
1248.920161740738
 20
-1633.988835590686
 30
0.0
 11
1248.920161740738
 21
-1605.842570789072
 31
0.0
  0
LINE
  5
15E
330
1F
100
AcDbEntity
  8
Yobi_3
  6
JWW_CENTER1
 62
     4
370
     9
100
AcDbLine
 10
1122.993935570371
 20
-1594.915713058015
 30
0.0
 11
1094.848108207015
 21
-1594.915713058015
 31
0.0
  0
LINE
  5
15F
330
1F
100
AcDbEntity
  8
Yobi_3
  6
JWW_CENTER1
 62
     4
370
     9
100
AcDbLine
 10
1108.921021888693
 20
-1608.9889766903
 30
0.0
 11
1108.921021888693
 21
-1580.842799376337
 31
0.0
  0
LINE
  5
160
330
1F
100
AcDbEntity
  8
Yobi_3
  6
JWW_CENTER2
 62
     7
370
     9
100
AcDbLine
 10
1178.920941765322
 20
-1192.452568630454
 30
0.0
 11
1178.920941765322
 21
-1691.70566416155
 31
0.0
  0
ARC
  5
161
330
1F
100
AcDbEntity
  8
Yobi_3
  6
Continuous
 62
     4
370
     9
100
AcDbCircle
 10
1178.920941765322
 20
-1566.104279641479
 30
0.0
 40
19.99999976066088
100
AcDbArc
 50
270.0
 51
285.0002899169922
  0
ARC
  5
162
330
1F
100
AcDbEntity
  8
Yobi_3
  6
Continuous
 62
     4
370
     9
100
AcDbCircle
 10
1178.920941765322
 20
-1541.105208129957
 30
0.0
 40
19.99999976066088
100
AcDbArc
 50
254.9997406005859
 51
270.0
  0
CIRCLE
  5
163
330
1F
100
AcDbEntity
  8
Yobi_3
  6
Continuous
 62
     4
370
     9
100
AcDbCircle
 10
1248.920161740738
 20
-1619.915746933705
 30
0.0
 40
8.500000171679787
  0
CIRCLE
  5
164
330
1F
100
AcDbEntity
  8
Yobi_3
  6
Continuous
 62
     4
370
     9
100
AcDbCircle
 10
1108.921021888693
 20
-1594.915713058015
 30
0.0
 40
8.500000171679787
  0
TEXT
  5
165
330
1F
100
AcDbEntity
  8
4-F
  6
Continuous
 62
     2
370
     9
100
AcDbText
 10
958.4178087010387
 20
-1105.440527883495
 30
0.0
 40
22.86
  1
水上ｼﾞｮｲﾝﾄ穴：６－Φ８．５
 50
359.9999777214567
 41
1.153846153846154
  7
ＭＳ ゴシック
100
AcDbText
  0
TEXT
  5
166
330
1F
100
AcDbEntity
  8
4-F
  6
Continuous
 62
     2
370
     9
100
AcDbText
 10
958.4178070562541
 20
-1151.514937221056
 30
0.0
 40
22.86
  1
水下ｼﾞｮｲﾝﾄ穴：８－Φ８．５
 41
1.153846153846154
  7
ＭＳ ゴシック
100
AcDbText
  0
TEXT
  5
167
330
1F
100
AcDbEntity
  8
4-F
  6
Continuous
 62
     2
370
     9
100
AcDbText
 10
1113.921116740625
 20
-1049.951173402131
 30
0.0
 40
30.48
  1
Ｓ１２
 41
1.083333333333333
  7
ＭＳ ゴシック
100
AcDbText
  0
LINE
  5
168
330
1F
100
AcDbEntity
  8
Yobi_3
  6
JWW_CENTER1
 62
     4
370
     9
100
AcDbLine
 10
980.8946349060068
 20
-1259.921820697637
 30
0.0
 11
952.7481076414375
 21
-1259.921820697637
 31
0.0
  0
LINE
  5
169
330
1F
100
AcDbEntity
  8
Yobi_3
  6
JWW_CENTER1
 62
     4
370
     9
100
AcDbLine
 10
966.8217212243286
 20
-1273.995084329922
 30
0.0
 11
966.8217212243286
 21
-1245.848732040656
 31
0.0
  0
LINE
  5
16A
330
1F
100
AcDbEntity
  8
Yobi_3
  6
JWW_CENTER1
 62
     4
370
     9
100
AcDbLine
 10
980.8946349060068
 20
-1524.915093280174
 30
0.0
 11
952.7481076414375
 21
-1524.915093280174
 31
0.0
  0
LINE
  5
16B
330
1F
100
AcDbEntity
  8
Yobi_3
  6
JWW_CENTER1
 62
     4
370
     9
100
AcDbLine
 10
966.8217212243286
 20
-1538.988181937155
 30
0.0
 11
966.8217212243286
 21
-1510.841917135541
 31
0.0
  0
LINE
  5
16C
330
1F
100
AcDbEntity
  8
Yobi_3
  6
Continuous
 62
     4
370
     9
100
AcDbLine
 10
936.9198417185675
 20
-1634.916467160332
 30
0.0
 11
1178.920941765322
 21
-1634.916467160332
 31
0.0
  0
LINE
  5
16D
330
1F
100
AcDbEntity
  8
Yobi_3
  6
JWW_DASHED2
 62
     4
370
     9
100
AcDbLine
 10
936.9198417185675
 20
-1630.916181779736
 30
0.0
 11
1178.920941765322
 21
-1630.916181779736
 31
0.0
  0
LINE
  5
16E
330
1F
100
AcDbEntity
  8
Yobi_3
  6
Continuous
 62
     4
370
     9
100
AcDbLine
 10
936.9198417185675
 20
-1195.91559234273
 30
0.0
 11
936.9198417185675
 21
-1634.916467160332
 31
0.0
  0
LINE
  5
16F
330
1F
100
AcDbEntity
  8
Yobi_3
  6
Continuous
 62
     4
370
     9
100
AcDbLine
 10
970.9199927746874
 20
-1189.915601710095
 30
0.0
 11
942.9197448635512
 21
-1189.915601710095
 31
0.0
  0
LINE
  5
170
330
1F
100
AcDbEntity
  8
Yobi_3
  6
Continuous
 62
     4
370
     9
100
AcDbLine
 10
979.9200224674661
 20
-1220.91562621842
 30
0.0
 11
1022.919853265759
 21
-1220.91562621842
 31
0.0
  0
LINE
  5
171
330
1F
100
AcDbEntity
  8
Yobi_3
  6
Continuous
 62
     4
370
     9
100
AcDbLine
 10
976.9198959196711
 20
-1217.915587158277
 30
0.0
 11
976.9198959196711
 21
-1195.91559234273
 31
0.0
  0
CIRCLE
  5
172
330
1F
100
AcDbEntity
  8
Yobi_3
  6
Continuous
 62
     4
370
     9
100
AcDbCircle
 10
966.8217212243286
 20
-1524.915093280174
 30
0.0
 40
8.500000171679787
  0
CIRCLE
  5
173
330
1F
100
AcDbEntity
  8
Yobi_3
  6
Continuous
 62
     4
370
     9
100
AcDbCircle
 10
966.8217212243286
 20
-1259.921820697637
 30
0.0
 40
8.500000171679787
  0
ARC
  5
174
330
1F
100
AcDbEntity
  8
Yobi_3
  6
Continuous
 62
     4
370
     9
100
AcDbCircle
 10
942.9197448635512
 20
-1195.91559234273
 30
0.0
 40
6.000000201597176
100
AcDbArc
 50
90.0
 51
180.0
  0
ARC
  5
175
330
1F
100
AcDbEntity
  8
Yobi_3
  6
Continuous
 62
     4
370
     9
100
AcDbCircle
 10
970.9199927746874
 20
-1195.91559234273
 30
0.0
 40
6.000000201597176
100
AcDbArc
 50
0.0
 51
90.0
  0
ARC
  5
176
330
1F
100
AcDbEntity
  8
Yobi_3
  6
Continuous
 62
     4
370
     9
100
AcDbCircle
 10
1022.919853265759
 20
-1226.915616851056
 30
0.0
 40
6.000000201597176
100
AcDbArc
 50
0.0
 51
90.0
  0
ARC
  5
177
330
1F
100
AcDbEntity
  8
Yobi_3
  6
Continuous
 62
     4
370
     9
100
AcDbCircle
 10
979.9200224674661
 20
-1217.915587158277
 30
0.0
 40
3.000000100798588
100
AcDbArc
 50
180.0
 51
270.0
  0
LINE
  5
178
330
1F
100
AcDbEntity
  8
Yobi_3
  6
JWW_CENTER1
 62
     4
370
     9
100
AcDbLine
 10
1376.946548723424
 20
-1259.921820697637
 30
0.0
 11
1405.093075987993
 21
-1259.921820697637
 31
0.0
  0
LINE
  5
179
330
1F
100
AcDbEntity
  8
Yobi_3
  6
JWW_CENTER1
 62
     4
370
     9
100
AcDbLine
 10
1391.019462405102
 20
-1273.995084329922
 30
0.0
 11
1391.019462405102
 21
-1245.848732040656
 31
0.0
  0
LINE
  5
17A
330
1F
100
AcDbEntity
  8
Yobi_3
  6
JWW_CENTER1
 62
     4
370
     9
100
AcDbLine
 10
1376.946548723424
 20
-1549.915039668212
 30
0.0
 11
1405.093075987993
 21
-1549.915039668212
 31
0.0
  0
LINE
  5
17B
330
1F
100
AcDbEntity
  8
Yobi_3
  6
JWW_CENTER1
 62
     4
370
     9
100
AcDbLine
 10
1391.019462405102
 20
-1563.988128325193
 30
0.0
 11
1391.019462405102
 21
-1535.841951011231
 31
0.0
  0
LINE
  5
17C
330
1F
100
AcDbEntity
  8
Yobi_3
  6
JWW_DASHED2
 62
     4
370
     9
100
AcDbLine
 10
1178.920941765322
 20
-1655.916128167775
 30
0.0
 11
1420.920642009651
 21
-1655.916128167775
 31
0.0
  0
LINE
  5
17D
330
1F
100
AcDbEntity
  8
Yobi_3
  6
Continuous
 62
     4
370
     9
100
AcDbLine
 10
1178.920941765322
 20
-1659.91641354837
 30
0.0
 11
1420.920642009651
 21
-1659.91641354837
 31
0.0
  0
LINE
  5
17E
330
1F
100
AcDbEntity
  8
Yobi_3
  6
JWW_CENTER1
 62
     4
370
     9
100
AcDbLine
 10
1376.946548723424
 20
-1404.918430182925
 30
0.0
 11
1405.093075987993
 21
-1404.918430182925
 31
0.0
  0
LINE
  5
17F
330
1F
100
AcDbEntity
  8
Yobi_3
  6
JWW_CENTER1
 62
     4
370
     9
100
AcDbLine
 10
1391.019462405102
 20
-1418.991606327558
 30
0.0
 11
1391.019462405102
 21
-1390.845341525943
 31
0.0
  0
LINE
  5
180
330
1F
100
AcDbEntity
  8
Yobi_3
  6
Continuous
 62
     4
370
     9
100
AcDbLine
 10
1414.920738864667
 20
-1189.915601710095
 30
0.0
 11
1386.919791052318
 21
-1189.915601710095
 31
0.0
  0
LINE
  5
181
330
1F
100
AcDbEntity
  8
Yobi_3
  6
Continuous
 62
     4
370
     9
100
AcDbLine
 10
1420.920642009651
 20
-1195.91559234273
 30
0.0
 11
1420.920642009651
 21
-1659.91641354837
 31
0.0
  0
LINE
  5
182
330
1F
100
AcDbEntity
  8
Yobi_3
  6
Continuous
 62
     4
370
     9
100
AcDbLine
 10
1377.919761359539
 20
-1220.91562621842
 30
0.0
 11
1334.919230660034
 21
-1220.91562621842
 31
0.0
  0
LINE
  5
183
330
1F
100
AcDbEntity
  8
Yobi_3
  6
Continuous
 62
     4
370
     9
100
AcDbLine
 10
1380.919887907334
 20
-1217.915587158277
 30
0.0
 11
1380.919887907334
 21
-1195.91559234273
 31
0.0
  0
CIRCLE
  5
184
330
1F
100
AcDbEntity
  8
Yobi_3
  6
Continuous
 62
     4
370
     9
100
AcDbCircle
 10
1391.019462405102
 20
-1259.921820697637
 30
0.0
 40
8.500000171679787
  0
CIRCLE
  5
185
330
1F
100
AcDbEntity
  8
Yobi_3
  6
Continuous
 62
     4
370
     9
100
AcDbCircle
 10
1391.019462405102
 20
-1404.918430182925
 30
0.0
 40
8.500000171679787
  0
CIRCLE
  5
186
330
1F
100
AcDbEntity
  8
Yobi_3
  6
Continuous
 62
     4
370
     9
100
AcDbCircle
 10
1391.019462405102
 20
-1549.915039668212
 30
0.0
 40
8.500000171679787
  0
ARC
  5
187
330
1F
100
AcDbEntity
  8
Yobi_3
  6
Continuous
 62
     4
370
     9
100
AcDbCircle
 10
1334.919230660034
 20
-1226.915616851056
 30
0.0
 40
6.000000201597176
100
AcDbArc
 50
90.0
 51
180.0
  0
ARC
  5
188
330
1F
100
AcDbEntity
  8
Yobi_3
  6
Continuous
 62
     4
370
     9
100
AcDbCircle
 10
1386.919791052318
 20
-1195.91559234273
 30
0.0
 40
6.000000201597176
100
AcDbArc
 50
90.0
 51
180.0
  0
ARC
  5
189
330
1F
100
AcDbEntity
  8
Yobi_3
  6
Continuous
 62
     4
370
     9
100
AcDbCircle
 10
1414.920738864667
 20
-1195.91559234273
 30
0.0
 40
6.000000201597176
100
AcDbArc
 50
0.0
 51
90.0
  0
ARC
  5
18A
330
1F
100
AcDbEntity
  8
Yobi_3
  6
Continuous
 62
     4
370
     9
100
AcDbCircle
 10
1377.919761359539
 20
-1217.915587158277
 30
0.0
 40
3.000000100798588
100
AcDbArc
 50
270.0
 51
0.0
  0
LINE
  5
18B
330
1F
100
AcDbEntity
  8
Yobi_3
  6
Continuous
 62
     4
370
     9
100
AcDbLine
 10
1028.91908853944
 20
-1506.270738058906
 30
0.0
 11
1028.919756410743
 21
-1226.915616851056
 31
0.0
  0
LINE
  5
18C
330
1F
100
AcDbEntity
  8
Yobi_3
  6
Continuous
 62
     4
370
     9
100
AcDbLine
 10
1043.742657562409
 20
-1525.589288982301
 30
0.0
 11
1173.744472396958
 21
-1560.423531449439
 31
0.0
  0
ARC
  5
18D
330
1F
100
AcDbEntity
  8
Yobi_3
  6
Continuous
 62
     4
370
     9
100
AcDbCircle
 10
1048.919088539383
 20
-1506.270785874125
 30
0.0
 40
20.0
100
AcDbArc
 50
179.9998630194903
 51
254.9998514853472
  0
LINE
  5
18E
330
1F
100
AcDbEntity
  8
Yobi_3
  6
Continuous
 62
     4
370
     9
100
AcDbLine
 10
1314.095144510965
 20
-1550.589047285532
 30
0.0
 11
1184.097411133686
 21
-1585.422602960962
 31
0.0
  0
LINE
  5
18F
330
1F
100
AcDbEntity
  8
Yobi_3
  6
Continuous
 62
     4
370
     9
100
AcDbLine
 10
1328.918657124634
 20
-1531.270603345621
 30
0.0
 11
1328.91932751505
 21
-1226.915616851056
 31
0.0
  0
ARC
  5
190
330
1F
100
AcDbEntity
  8
Yobi_3
  6
Continuous
 62
     4
370
     9
100
AcDbCircle
 10
1308.918657124682
 20
-1531.270559292429
 30
0.0
 40
20.0
100
AcDbArc
 50
285.0003158162589
 51
359.9998737969044
  0
LINE
  5
191
330
1F
100
AcDbEntity
  8
Yobi_3
  6
JWW_CENTER1
 62
     4
370
     9
100
AcDbLine
 10
1821.920489764936
 20
-1644.915780809395
 30
0.0
 11
1850.066317128293
 21
-1644.915780809395
 31
0.0
  0
LINE
  5
192
330
1F
100
AcDbEntity
  8
Yobi_3
  6
JWW_CENTER1
 62
     4
370
     9
100
AcDbLine
 10
1835.993403446614
 20
-1658.988869466376
 30
0.0
 11
1835.993403446614
 21
-1630.842604664762
 31
0.0
  0
LINE
  5
193
330
1F
100
AcDbEntity
  8
Yobi_3
  6
JWW_CENTER1
 62
     4
370
     9
100
AcDbLine
 10
1710.067177276248
 20
-1619.915746933705
 30
0.0
 11
1681.921349912891
 21
-1619.915746933705
 31
0.0
  0
LINE
  5
194
330
1F
100
AcDbEntity
  8
Yobi_3
  6
JWW_CENTER1
 62
     4
370
     9
100
AcDbLine
 10
1695.994263594569
 20
-1633.988923078338
 30
0.0
 11
1695.994263594569
 21
-1605.842833252027
 31
0.0
  0
LINE
  5
195
330
1F
100
AcDbEntity
  8
Yobi_3
  6
JWW_CENTER2
 62
     7
370
     9
100
AcDbLine
 10
1765.994183471198
 20
-1192.452568630454
 30
0.0
 11
1765.994183471198
 21
-1716.70569803724
 31
0.0
  0
ARC
  5
196
330
1F
100
AcDbEntity
  8
Yobi_3
  6
Continuous
 62
     4
370
     9
100
AcDbCircle
 10
1765.994183471198
 20
-1591.104226029518
 30
0.0
 40
19.99999976066088
100
AcDbArc
 50
270.0
 51
285.0002899169922
  0
ARC
  5
197
330
1F
100
AcDbEntity
  8
Yobi_3
  6
Continuous
 62
     4
370
     9
100
AcDbCircle
 10
1765.994183471198
 20
-1566.105154517995
 30
0.0
 40
19.99999976066088
100
AcDbArc
 50
254.9997406005859
 51
270.0
  0
CIRCLE
  5
198
330
1F
100
AcDbEntity
  8
Yobi_3
  6
Continuous
 62
     4
370
     9
100
AcDbCircle
 10
1835.993403446614
 20
-1644.915780809395
 30
0.0
 40
8.500000171679787
  0
CIRCLE
  5
199
330
1F
100
AcDbEntity
  8
Yobi_3
  6
Continuous
 62
     4
370
     9
100
AcDbCircle
 10
1695.994263594569
 20
-1619.915746933705
 30
0.0
 40
8.500000171679787
  0
TEXT
  5
19A
330
1F
100
AcDbEntity
  8
4-F
  6
Continuous
 62
     2
370
     9
100
AcDbText
 10
1585.430778493107
 20
-1105.440527883436
 30
0.0
 40
22.86
  1
ｼﾞｮｲﾝﾄ穴：８－Φ８．５
 50
359.9999736174967
 41
1.151515151515151
  7
ＭＳ ゴシック
100
AcDbText
  0
TEXT
  5
19B
330
1F
100
AcDbEntity
  8
4-F
  6
Continuous
 62
     2
370
     9
100
AcDbText
 10
1610.994008495895
 20
-1049.951173402131
 30
0.0
 40
30.48
  1
Ｓ１３～Ｓ１８
 41
1.107142857142857
  7
ＭＳ ゴシック
100
AcDbText
  0
LINE
  5
19C
330
1F
100
AcDbEntity
  8
Yobi_3
  6
JWW_CENTER1
 62
     4
370
     9
100
AcDbLine
 10
1567.967876611883
 20
-1259.921820697637
 30
0.0
 11
1539.821349347314
 21
-1259.921820697637
 31
0.0
  0
LINE
  5
19D
330
1F
100
AcDbEntity
  8
Yobi_3
  6
JWW_CENTER1
 62
     4
370
     9
100
AcDbLine
 10
1553.894962930205
 20
-1273.995084329922
 30
0.0
 11
1553.894962930205
 21
-1245.848732040656
 31
0.0
  0
LINE
  5
19E
330
1F
100
AcDbEntity
  8
Yobi_3
  6
JWW_CENTER1
 62
     4
370
     9
100
AcDbLine
 10
1567.967876611883
 20
-1549.915127155864
 30
0.0
 11
1539.821349347314
 21
-1549.915127155864
 31
0.0
  0
LINE
  5
19F
330
1F
100
AcDbEntity
  8
Yobi_3
  6
JWW_CENTER1
 62
     4
370
     9
100
AcDbLine
 10
1553.894962930205
 20
-1563.988128325193
 30
0.0
 11
1553.894962930205
 21
-1535.841951011231
 31
0.0
  0
LINE
  5
1A0
330
1F
100
AcDbEntity
  8
Yobi_3
  6
Continuous
 62
     4
370
     9
100
AcDbLine
 10
1523.993083424444
 20
-1659.91641354837
 30
0.0
 11
1765.994183471198
 21
-1659.91641354837
 31
0.0
  0
LINE
  5
1A1
330
1F
100
AcDbEntity
  8
Yobi_3
  6
JWW_DASHED2
 62
     4
370
     9
100
AcDbLine
 10
1523.993083424444
 20
-1655.916128167775
 30
0.0
 11
1765.994183471198
 21
-1655.916128167775
 31
0.0
  0
LINE
  5
1A2
330
1F
100
AcDbEntity
  8
Yobi_3
  6
JWW_CENTER1
 62
     4
370
     9
100
AcDbLine
 10
1567.967876611883
 20
-1404.918430182925
 30
0.0
 11
1539.821349347314
 21
-1404.918430182925
 31
0.0
  0
LINE
  5
1A3
330
1F
100
AcDbEntity
  8
Yobi_3
  6
JWW_CENTER1
 62
     4
370
     9
100
AcDbLine
 10
1553.894962930205
 20
-1418.991606327558
 30
0.0
 11
1553.894962930205
 21
-1390.845341525943
 31
0.0
  0
LINE
  5
1A4
330
1F
100
AcDbEntity
  8
Yobi_3
  6
Continuous
 62
     4
370
     9
100
AcDbLine
 10
1523.993083424444
 20
-1195.91559234273
 30
0.0
 11
1523.993083424444
 21
-1659.91641354837
 31
0.0
  0
LINE
  5
1A5
330
1F
100
AcDbEntity
  8
Yobi_3
  6
Continuous
 62
     4
370
     9
100
AcDbLine
 10
1557.993234480564
 20
-1189.915601710095
 30
0.0
 11
1529.992986569428
 21
-1189.915601710095
 31
0.0
  0
LINE
  5
1A6
330
1F
100
AcDbEntity
  8
Yobi_3
  6
Continuous
 62
     4
370
     9
100
AcDbLine
 10
1563.993137625548
 20
-1217.915587158277
 30
0.0
 11
1563.993137625548
 21
-1195.91559234273
 31
0.0
  0
LINE
  5
1A7
330
1F
100
AcDbEntity
  8
Yobi_3
  6
Continuous
 62
     4
370
     9
100
AcDbLine
 10
1566.993264173343
 20
-1220.91562621842
 30
0.0
 11
1609.993094971636
 21
-1220.91562621842
 31
0.0
  0
CIRCLE
  5
1A8
330
1F
100
AcDbEntity
  8
Yobi_3
  6
Continuous
 62
     4
370
     9
100
AcDbCircle
 10
1553.894962930205
 20
-1549.915127155864
 30
0.0
 40
8.500000171679787
  0
CIRCLE
  5
1A9
330
1F
100
AcDbEntity
  8
Yobi_3
  6
Continuous
 62
     4
370
     9
100
AcDbCircle
 10
1553.894962930205
 20
-1404.918430182925
 30
0.0
 40
8.500000171679787
  0
CIRCLE
  5
1AA
330
1F
100
AcDbEntity
  8
Yobi_3
  6
Continuous
 62
     4
370
     9
100
AcDbCircle
 10
1553.894962930205
 20
-1259.921820697637
 30
0.0
 40
8.500000171679787
  0
ARC
  5
1AB
330
1F
100
AcDbEntity
  8
Yobi_3
  6
Continuous
 62
     4
370
     9
100
AcDbCircle
 10
1529.992986569428
 20
-1195.91559234273
 30
0.0
 40
6.000000201597176
100
AcDbArc
 50
90.0
 51
180.0
  0
ARC
  5
1AC
330
1F
100
AcDbEntity
  8
Yobi_3
  6
Continuous
 62
     4
370
     9
100
AcDbCircle
 10
1557.993234480564
 20
-1195.91559234273
 30
0.0
 40
6.000000201597176
100
AcDbArc
 50
0.0
 51
90.0
  0
ARC
  5
1AD
330
1F
100
AcDbEntity
  8
Yobi_3
  6
Continuous
 62
     4
370
     9
100
AcDbCircle
 10
1609.993094971636
 20
-1226.915616851056
 30
0.0
 40
6.000000201597176
100
AcDbArc
 50
0.0
 51
90.0
  0
ARC
  5
1AE
330
1F
100
AcDbEntity
  8
Yobi_3
  6
Continuous
 62
     4
370
     9
100
AcDbCircle
 10
1566.993264173343
 20
-1217.915587158277
 30
0.0
 40
3.000000100798588
100
AcDbArc
 50
180.0
 51
270.0
  0
LINE
  5
1AF
330
1F
100
AcDbEntity
  8
Yobi_3
  6
JWW_CENTER1
 62
     4
370
     9
100
AcDbLine
 10
1964.0197904293
 20
-1259.921820697637
 30
0.0
 11
1992.16631769387
 21
-1259.921820697637
 31
0.0
  0
LINE
  5
1B0
330
1F
100
AcDbEntity
  8
Yobi_3
  6
JWW_CENTER1
 62
     4
370
     9
100
AcDbLine
 10
1978.092704110979
 20
-1273.995084329922
 30
0.0
 11
1978.092704110979
 21
-1245.848732040656
 31
0.0
  0
LINE
  5
1B1
330
1F
100
AcDbEntity
  8
Yobi_3
  6
JWW_CENTER1
 62
     4
370
     9
100
AcDbLine
 10
1964.0197904293
 20
-1574.914986056251
 30
0.0
 11
1992.16631769387
 21
-1574.914986056251
 31
0.0
  0
LINE
  5
1B2
330
1F
100
AcDbEntity
  8
Yobi_3
  6
JWW_CENTER1
 62
     4
370
     9
100
AcDbLine
 10
1978.092704110979
 20
-1588.988162200883
 30
0.0
 11
1978.092704110979
 21
-1560.841984886921
 31
0.0
  0
LINE
  5
1B3
330
1F
100
AcDbEntity
  8
Yobi_3
  6
JWW_DASHED2
 62
     4
370
     9
100
AcDbLine
 10
1765.994183471198
 20
-1680.916074555813
 30
0.0
 11
2007.993883715527
 21
-1680.916074555813
 31
0.0
  0
LINE
  5
1B4
330
1F
100
AcDbEntity
  8
Yobi_3
  6
Continuous
 62
     4
370
     9
100
AcDbLine
 10
1765.994183471198
 20
-1684.91644742406
 30
0.0
 11
2007.993883715527
 21
-1684.91644742406
 31
0.0
  0
LINE
  5
1B5
330
1F
100
AcDbEntity
  8
Yobi_3
  6
JWW_CENTER1
 62
     4
370
     9
100
AcDbLine
 10
1964.0197904293
 20
-1404.918430182925
 30
0.0
 11
1992.16631769387
 21
-1404.918430182925
 31
0.0
  0
LINE
  5
1B6
330
1F
100
AcDbEntity
  8
Yobi_3
  6
JWW_CENTER1
 62
     4
370
     9
100
AcDbLine
 10
1978.092704110979
 20
-1418.991606327558
 30
0.0
 11
1978.092704110979
 21
-1390.845341525943
 31
0.0
  0
LINE
  5
1B7
330
1F
100
AcDbEntity
  8
Yobi_3
  6
Continuous
 62
     4
370
     9
100
AcDbLine
 10
2001.993980570544
 20
-1189.915601710095
 30
0.0
 11
1973.993032758194
 21
-1189.915601710095
 31
0.0
  0
LINE
  5
1B8
330
1F
100
AcDbEntity
  8
Yobi_3
  6
Continuous
 62
     4
370
     9
100
AcDbLine
 10
2007.993883715527
 20
-1195.91559234273
 30
0.0
 11
2007.993883715527
 21
-1684.91644742406
 31
0.0
  0
LINE
  5
1B9
330
1F
100
AcDbEntity
  8
Yobi_3
  6
Continuous
 62
     4
370
     9
100
AcDbLine
 10
1964.993003065416
 20
-1220.91562621842
 30
0.0
 11
1921.992472365911
 21
-1220.91562621842
 31
0.0
  0
LINE
  5
1BA
330
1F
100
AcDbEntity
  8
Yobi_3
  6
Continuous
 62
     4
370
     9
100
AcDbLine
 10
1967.993129613211
 20
-1217.915587158277
 30
0.0
 11
1967.993129613211
 21
-1195.91559234273
 31
0.0
  0
CIRCLE
  5
1BB
330
1F
100
AcDbEntity
  8
Yobi_3
  6
Continuous
 62
     4
370
     9
100
AcDbCircle
 10
1978.092704110979
 20
-1259.921820697637
 30
0.0
 40
8.500000171679787
  0
CIRCLE
  5
1BC
330
1F
100
AcDbEntity
  8
Yobi_3
  6
Continuous
 62
     4
370
     9
100
AcDbCircle
 10
1978.092704110979
 20
-1404.918430182925
 30
0.0
 40
8.500000171679787
  0
CIRCLE
  5
1BD
330
1F
100
AcDbEntity
  8
Yobi_3
  6
Continuous
 62
     4
370
     9
100
AcDbCircle
 10
1978.092704110979
 20
-1574.914986056251
 30
0.0
 40
8.500000171679787
  0
ARC
  5
1BE
330
1F
100
AcDbEntity
  8
Yobi_3
  6
Continuous
 62
     4
370
     9
100
AcDbCircle
 10
1921.992472365911
 20
-1226.915616851056
 30
0.0
 40
6.000000201597176
100
AcDbArc
 50
90.0
 51
180.0
  0
ARC
  5
1BF
330
1F
100
AcDbEntity
  8
Yobi_3
  6
Continuous
 62
     4
370
     9
100
AcDbCircle
 10
1973.993032758194
 20
-1195.91559234273
 30
0.0
 40
6.000000201597176
100
AcDbArc
 50
90.0
 51
180.0
  0
ARC
  5
1C0
330
1F
100
AcDbEntity
  8
Yobi_3
  6
Continuous
 62
     4
370
     9
100
AcDbCircle
 10
2001.993980570544
 20
-1195.91559234273
 30
0.0
 40
6.000000201597176
100
AcDbArc
 50
0.0
 51
90.0
  0
ARC
  5
1C1
330
1F
100
AcDbEntity
  8
Yobi_3
  6
Continuous
 62
     4
370
     9
100
AcDbCircle
 10
1964.993003065416
 20
-1217.915587158277
 30
0.0
 40
3.000000100798588
100
AcDbArc
 50
270.0
 51
0.0
  0
LINE
  5
1C2
330
1F
100
AcDbEntity
  8
Yobi_3
  6
Continuous
 62
     4
370
     9
100
AcDbLine
 10
1630.815877037542
 20
-1550.5891747357
 30
0.0
 11
1760.817714102834
 21
-1585.423565325129
 31
0.0
  0
LINE
  5
1C3
330
1F
100
AcDbEntity
  8
Yobi_3
  6
Continuous
 62
     4
370
     9
100
AcDbLine
 10
1615.992327725399
 20
-1531.270632855852
 30
0.0
 11
1615.992998116619
 21
-1226.915616851056
 31
0.0
  0
ARC
  5
1C4
330
1F
100
AcDbEntity
  8
Yobi_3
  6
Continuous
 62
     4
370
     9
100
AcDbCircle
 10
1635.992327725351
 20
-1531.270676909092
 30
0.0
 40
20.0
100
AcDbArc
 50
179.9998737967653
 51
254.9997930259609
  0
LINE
  5
1C5
330
1F
100
AcDbEntity
  8
Yobi_3
  6
Continuous
 62
     4
370
     9
100
AcDbLine
 10
1901.168384064182
 20
-1575.589081738038
 30
0.0
 11
1771.170652839562
 21
-1610.422636836652
 31
0.0
  0
LINE
  5
1C6
330
1F
100
AcDbEntity
  8
Yobi_3
  6
Continuous
 62
     4
370
     9
100
AcDbLine
 10
1915.991896677858
 20
-1556.270634584943
 30
0.0
 11
1915.992569220927
 21
-1226.915616851056
 31
0.0
  0
ARC
  5
1C7
330
1F
100
AcDbEntity
  8
Yobi_3
  6
Continuous
 62
     4
370
     9
100
AcDbCircle
 10
1895.991896677899
 20
-1556.270593744936
 30
0.0
 40
20.0
100
AcDbArc
 50
285.0003158162589
 51
359.9998830019969
  0
LINE
  5
1C8
330
1F
100
AcDbEntity
  8
1-0ﾚｲﾔ
  6
JWW_CENTER2
 62
     4
370
     9
100
AcDbLine
 10
548.5549243352585
 20
-561.9219943372856
 30
0.0
 11
614.8551664021022
 21
-561.9219943372856
 31
0.0
  0
LINE
  5
1C9
330
1F
100
AcDbEntity
  8
1-0ﾚｲﾔ
  6
JWW_CENTER2
 62
     4
370
     9
100
AcDbLine
 10
581.7050453686807
 20
-528.7472017861195
 30
0.0
 11
581.7050453686807
 21
-595.071590444798
 31
0.0
  0
CIRCLE
  5
1CA
330
1F
100
AcDbEntity
  8
1-0ﾚｲﾔ
  6
Continuous
 62
     4
370
     9
100
AcDbCircle
 10
581.7050453686807
 20
-561.9219943372856
 30
0.0
 40
21.25000145444539
  0
LINE
  5
1CB
330
1F
100
AcDbEntity
  8
Hojo
  6
Continuous
 62
     7
370
     9
100
AcDbLine
 10
100.6286467916715
 20
-895.4510809473505
 30
0.0
 11
626.3482442141498
 21
-895.4510809473505
 31
0.0
  0
LINE
  5
1CC
330
1F
100
AcDbEntity
  8
1-0ﾚｲﾔ
  6
JWW_CENTER2
 62
     4
370
     9
100
AcDbLine
 10
198.5553249521143
 20
-499.4220408795378
 30
0.0
 11
264.855567018958
 21
-499.4220408795378
 31
0.0
  0
LINE
  5
1CD
330
1F
100
AcDbEntity
  8
1-0ﾚｲﾔ
  6
JWW_CENTER2
 62
     4
370
     9
100
AcDbLine
 10
231.7054459855365
 20
-466.2472483283721
 30
0.0
 11
231.7054459855365
 21
-532.5716369870502
 31
0.0
  0
LINE
  5
1CE
330
1F
100
AcDbEntity
  8
1-1ﾚｲﾔ
  6
JWW_CENTER2
 62
     7
370
     9
100
AcDbLine
 10
406.7048957265018
 20
-745.2355705826853
 30
0.0
 11
406.7048957265018
 21
138.0779043302157
 31
0.0
  0
LINE
  5
1CF
330
1F
100
AcDbEntity
  8
_2-a_N_s
  6
Continuous
 62
     2
370
     9
100
AcDbLine
 10
1657.904645411664
 20
-20.17465914634684
 30
0.0
 11
1432.903903092196
 21
-20.17465914634684
 31
0.0
  0
LINE
  5
1D0
330
1F
100
AcDbEntity
  8
_2-a_N_s
  6
Continuous
 62
     2
370
     9
100
AcDbLine
 10
1657.904645411664
 20
29.82558358033643
 30
0.0
 11
1657.904645411664
 21
-20.17465914634684
 31
0.0
  0
LINE
  5
1D1
330
1F
100
AcDbEntity
  8
_2-a_N_s
  6
Continuous
 62
     2
370
     9
100
AcDbLine
 10
1432.903903092196
 20
29.82558358033643
 30
0.0
 11
1657.904645411664
 21
29.82558358033643
 31
0.0
  0
LINE
  5
1D2
330
1F
100
AcDbEntity
  8
_2-a_N_s
  6
Continuous
 62
     2
370
     9
100
AcDbLine
 10
1432.903903092196
 20
-20.17465914634684
 30
0.0
 11
1432.903903092196
 21
29.82558358033643
 31
0.0
  0
LINE
  5
1D3
330
1F
100
AcDbEntity
  8
Hojo
  6
Continuous
 62
     7
370
     9
100
AcDbLine
 10
471.4982504826253
 20
-328.1290929851799
 30
0.0
 11
406.7048957265018
 21
-416.921710370632
 31
0.0
  0
LINE
  5
1D4
330
1F
100
AcDbEntity
  8
Hojo
  6
Continuous
 62
     7
370
     9
100
AcDbLine
 10
471.4982504826253
 20
-328.1290929851799
 30
0.0
 11
406.7048957265018
 21
-479.4214888530764
 31
0.0
  0
LINE
  5
1D5
330
1F
100
AcDbEntity
  8
Hojo
  6
Continuous
 62
     7
370
     9
100
AcDbLine
 10
406.7048957265018
 20
-479.4214888530764
 30
0.0
 11
413.4631418353342
 21
-455.3522361024882
 31
0.0
  0
LINE
  5
1D6
330
1F
100
AcDbEntity
  8
Hojo
  6
Continuous
 62
     7
370
     9
100
AcDbLine
 10
406.7048957265018
 20
-479.4214888530764
 30
0.0
 11
419.462345079105
 21
-457.9215734539299
 31
0.0
  0
LINE
  5
1D7
330
1F
100
AcDbEntity
  8
Hojo
  6
Continuous
 62
     7
370
     9
100
AcDbLine
 10
406.7048957265018
 20
-416.921710370632
 30
0.0
 11
418.6795055728163
 21
-394.9761328743647
 31
0.0
  0
LINE
  5
1D8
330
1F
100
AcDbEntity
  8
Hojo
  6
Continuous
 62
     7
370
     9
100
AcDbLine
 10
406.7048957265018
 20
-416.921710370632
 30
0.0
 11
423.9511615060928
 21
-398.8231398894014
 31
0.0
  0
LINE
  5
1D9
330
1F
100
AcDbEntity
  8
Hojo
  6
Continuous
 62
     7
370
     9
100
AcDbLine
 10
100.6286467916715
 20
-830.4510803582081
 30
0.0
 11
626.3482442141498
 21
-830.4510803582081
 31
0.0
  0
LINE
  5
1DA
330
1F
100
AcDbEntity
  8
Hojo
  6
Continuous
 62
     7
370
     9
100
AcDbLine
 10
100.6286467916715
 20
-830.4510803582081
 30
0.0
 11
100.6286467916715
 21
-895.4510809473505
 31
0.0
  0
LINE
  5
1DB
330
1F
100
AcDbEntity
  8
Hojo
  6
Continuous
 62
     7
370
     9
100
AcDbLine
 10
626.3482442141498
 20
-830.4510803582081
 30
0.0
 11
626.3482442141498
 21
-895.4510809473505
 31
0.0
  0
CIRCLE
  5
1DC
330
1F
100
AcDbEntity
  8
1-0ﾚｲﾔ
  6
Continuous
 62
     4
370
     9
100
AcDbCircle
 10
231.7054459855365
 20
-499.4220408795378
 30
0.0
 40
21.25000145444539
  0
ARC
  5
1DD
330
1F
100
AcDbEntity
  8
1-0ﾚｲﾔ
  6
JWW_DASHED1
 62
     4
370
     9
100
AcDbCircle
 10
406.7048957265018
 20
-366.9218175945549
 30
0.0
 40
57.50000136239188
100
AcDbArc
 50
255.0000915527344
 51
270.0
  0
ARC
  5
1DE
330
1F
100
AcDbEntity
  8
1-0ﾚｲﾔ
  6
Continuous
 62
     4
370
     9
100
AcDbCircle
 10
406.7048957265018
 20
-366.9218175945549
 30
0.0
 40
50.00000213564132
100
AcDbArc
 50
255.0001525878906
 51
270.0
  0
ARC
  5
1DF
330
1F
100
AcDbEntity
  8
1-0ﾚｲﾔ
  6
Continuous
 62
     4
370
     9
100
AcDbCircle
 10
406.7048957265018
 20
-429.4214211016963
 30
0.0
 40
50.00000213564132
100
AcDbArc
 50
270.0
 51
284.9998474121094
  0
ARC
  5
1E0
330
1F
100
AcDbEntity
  8
1-0ﾚｲﾔ
  6
JWW_DASHED1
 62
     4
370
     9
100
AcDbCircle
 10
406.7048957265018
 20
-429.4219460276058
 30
0.0
 40
57.50000136239188
100
AcDbArc
 50
270.0
 51
284.9999084472657
  0
TEXT
  5
1E1
330
1F
100
AcDbEntity
  8
Hojo
  6
Continuous
 62
     2
370
     9
100
AcDbText
 10
140.9884455029109
 20
-877.3111077533313
 30
0.0
 40
30.48
  1
Ａ、Ｂ視　Ｓ＝１：２
 41
1.1125
  7
ＭＳ ゴシック
100
AcDbText
  0
TEXT
  5
1E2
330
1F
100
AcDbEntity
  8
3-F
  6
Continuous
 62
     2
370
     9
100
AcDbText
 10
1432.903924890466
 20
-137.4544596580052
 30
0.0
 40
30.48
  1
①トラフパン本体
 41
1.109375
  7
ＭＳ ゴシック
100
AcDbText
  0
TEXT
  5
1E3
330
1F
100
AcDbEntity
  8
3-F
  6
Continuous
 62
     2
370
     9
100
AcDbText
 10
1474.840568630852
 20
-202.4544602471477
 30
0.0
 40
30.48
  1
材質：ステンレス鋼板　ｔ＝１．５（ＳＵＳ３０４）
 41
1.119791666666667
  7
ＭＳ ゴシック
100
AcDbText
  0
TEXT
  5
1E4
330
1F
100
AcDbEntity
  8
3-F
  6
Continuous
 62
     2
370
     9
100
AcDbText
 10
1432.903972611004
 20
-267.4546358115933
 30
0.0
 40
30.48
  1
②ジョイントプレートＡ
 41
1.113636363636364
  7
ＭＳ ゴシック
100
AcDbText
  0
TEXT
  5
1E5
330
1F
100
AcDbEntity
  8
3-F
  6
Continuous
 62
     2
370
     9
100
AcDbText
 10
1474.840568630852
 20
-332.4546364007356
 30
0.0
 40
30.48
  1
材質：ステンレス鋼板　ｔ＝２．０（ＳＵＳ３０４）
 41
1.119791666666667
  7
ＭＳ ゴシック
100
AcDbText
  0
TEXT
  5
1E6
330
1F
100
AcDbEntity
  8
3-F
  6
Continuous
 62
     2
370
     9
100
AcDbText
 10
1432.903972611004
 20
-391.8167577471099
 30
0.0
 40
30.48
  1
③ジョイントプレートＢ
 41
1.113636363636364
  7
ＭＳ ゴシック
100
AcDbText
  0
TEXT
  5
1E7
330
1F
100
AcDbEntity
  8
3-F
  6
Continuous
 62
     2
370
     9
100
AcDbText
 10
1474.840568630852
 20
-455.374436912394
 30
0.0
 40
30.48
  1
材質：ステンレス鋼板　ｔ＝２．０（ＳＵＳ３０４）
 41
1.119791666666667
  7
ＭＳ ゴシック
100
AcDbText
  0
TEXT
  5
1E8
330
1F
100
AcDbEntity
  8
3-F
  6
Continuous
 62
     2
370
     9
100
AcDbText
 10
1474.840568630852
 20
-585.3746130659821
 30
0.0
 40
30.48
  1
材質：ステンレス鋼板　ｔ＝２．０（ＳＵＳ３０４）
 41
1.119791666666667
  7
ＭＳ ゴシック
100
AcDbText
  0
TEXT
  5
1E9
330
1F
100
AcDbEntity
  8
3-F
  6
Continuous
 62
     2
370
     9
100
AcDbText
 10
1480.404099276627
 20
-9.53438990825397
 30
0.0
 40
30.48
  1
仕　様
 41
1.083333333333333
  7
ＭＳ ゴシック
100
AcDbText
  0
TEXT
  5
1EA
330
1F
100
AcDbEntity
  8
Hojo
  6
Continuous
 62
     2
370
     9
100
AcDbText
 10
438.000916820976
 20
-330.3454641829112
 30
0.0
 40
30.48
  1
R10
 50
19.99999979170341
 41
1.083333333333333
  7
ＭＳ ゴシック
100
AcDbText
  0
TEXT
  5
1EB
330
1F
100
AcDbEntity
  8
3-F
  6
Continuous
 62
     2
370
     9
100
AcDbText
 10
1432.903537823886
 20
-72.4549839947722
 30
0.0
 40
30.48
  1
サニタリートラフ　ＳＴＶ－１５０　直線（勾配付）
 41
1.119791666666667
  7
ＭＳ ゴシック
100
AcDbText
  0
TEXT
  5
1EC
330
1F
100
AcDbEntity
  8
3-F
  6
Continuous
 62
     2
370
     9
100
AcDbText
 10
1432.903999122413
 20
-520.3744375015365
 30
0.0
 40
30.48
  1
④中間補強プレート
 41
1.111111111111111
  7
ＭＳ ゴシック
100
AcDbText
  0
LINE
  5
1ED
330
1F
100
AcDbEntity
  8
1-0ﾚｲﾔ
  6
JWW_DASHED1
 62
     4
370
     9
100
AcDbLine
 10
-198.2947048349268
 20
98.07802510441476
 30
0.0
 11
-190.7945634407429
 21
98.07802510441476
 31
0.0
  0
LINE
  5
1EE
330
1F
100
AcDbEntity
  8
Hojo
  6
Continuous
 62
     7
370
     9
100
AcDbLine
 10
-220.7951290174799
 20
138.0779043302157
 30
0.0
 11
-366.2946175240182
 21
138.0779043302157
 31
0.0
  0
LINE
  5
1EF
330
1F
100
AcDbEntity
  8
Hojo
  6
Continuous
 62
     7
370
     9
100
AcDbLine
 10
-361.7949526282354
 20
-424.4218517648163
 30
0.0
 11
-361.7949526282354
 21
-486.9219801978671
 31
0.0
  0
LINE
  5
1F0
330
1F
100
AcDbEntity
  8
Hojo
  6
Continuous
 62
     7
370
     9
100
AcDbLine
 10
-517.6988226106268
 20
138.0779043302157
 30
0.0
 11
-517.6988226106268
 21
-599.4220014069948
 31
0.0
  0
LINE
  5
1F1
330
1F
100
AcDbEntity
  8
1-0ﾚｲﾔ
  6
JWW_DASHED1
 62
     4
370
     9
100
AcDbLine
 10
-183.2945970218617
 20
130.5782878619407
 30
0.0
 11
-113.2948521205356
 21
130.5782878619407
 31
0.0
  0
LINE
  5
1F2
330
1F
100
AcDbEntity
  8
1-0ﾚｲﾔ
  6
JWW_DASHED1
 62
     4
370
     9
100
AcDbLine
 10
-190.7945634407429
 20
123.0783214430595
 30
0.0
 11
-190.7945634407429
 21
98.07802510441476
 31
0.0
  0
LINE
  5
1F3
330
1F
100
AcDbEntity
  8
1-0ﾚｲﾔ
  6
Continuous
 62
     4
370
     9
100
AcDbLine
 10
31.70578179672418
 20
45.57791022164011
 30
0.0
 11
31.70578179672418
 21
-220.898977956298
 31
0.0
  0
LINE
  5
1F4
330
1F
100
AcDbEntity
  8
1-0ﾚｲﾔ
  6
Continuous
 62
     4
370
     9
100
AcDbLine
 10
16.70584895896184
 20
60.57784305940245
 30
0.0
 11
-90.79477788858924
 21
60.57784305940245
 31
0.0
  0
LINE
  5
1F5
330
1F
100
AcDbEntity
  8
1-0ﾚｲﾔ
  6
JWW_DASHED1
 62
     4
370
     9
100
AcDbLine
 10
-105.7948857016544
 20
68.07815942889007
 30
0.0
 11
-105.7948857016544
 21
123.0783214430595
 31
0.0
  0
LINE
  5
1F6
330
1F
100
AcDbEntity
  8
1-0ﾚｲﾔ
  6
Continuous
 62
     4
370
     9
100
AcDbLine
 10
-98.29474430747041
 20
123.0779714924533
 30
0.0
 11
-98.29474430747041
 21
68.07780947828363
 31
0.0
  0
LINE
  5
1F7
330
1F
100
AcDbEntity
  8
1-0ﾚｲﾔ
  6
Continuous
 62
     4
370
     9
100
AcDbLine
 10
-183.2947719971645
 20
138.0779043302157
 30
0.0
 11
-113.2946771452328
 21
138.0779043302157
 31
0.0
  0
LINE
  5
1F8
330
1F
100
AcDbEntity
  8
1-0ﾚｲﾔ
  6
Continuous
 62
     4
370
     9
100
AcDbLine
 10
-198.2947048349268
 20
123.0779714924533
 30
0.0
 11
-198.2947048349268
 21
-599.4220014069948
 31
0.0
  0
LINE
  5
1F9
330
1F
100
AcDbEntity
  8
Hojo
  6
Continuous
 62
     7
370
     9
100
AcDbLine
 10
-296.6299503282232
 20
138.0779043302157
 30
0.0
 11
-522.1984875064097
 21
138.0779043302157
 31
0.0
  0
LINE
  5
1FA
330
1F
100
AcDbEntity
  8
1-0ﾚｲﾔ
  6
JWW_DASHED1
 62
     4
370
     9
100
AcDbLine
 10
16.70584895896184
 20
53.07822659112745
 30
0.0
 11
-90.79495286389204
 21
53.07822659112745
 31
0.0
  0
LINE
  5
1FB
330
1F
100
AcDbEntity
  8
Hojo
  6
Continuous
 62
     7
370
     9
100
AcDbLine
 10
-361.7949526282354
 20
138.0779043302157
 30
0.0
 11
-361.7949526282354
 21
-781.6313960018722
 31
0.0
  0
LINE
  5
1FC
330
1F
100
AcDbEntity
  8
Hojo
  6
Continuous
 62
     7
370
     9
100
AcDbLine
 10
-361.7949526282354
 20
-424.4218517648163
 30
0.0
 11
-361.7949526282354
 21
-486.9219801978671
 31
0.0
  0
LINE
  5
1FD
330
1F
100
AcDbEntity
  8
1-0ﾚｲﾔ
  6
JWW_CENTER2
 62
     4
370
     9
100
AcDbLine
 10
-123.2943407449022
 20
-3.747102810190626
 30
0.0
 11
-123.2943407449022
 21
-70.07149146886874
 31
0.0
  0
LINE
  5
1FE
330
1F
100
AcDbEntity
  8
1-0ﾚｲﾔ
  6
JWW_CENTER2
 62
     4
370
     9
100
AcDbLine
 10
-156.4444617783244
 20
-36.92189536135643
 30
0.0
 11
-90.14421971148067
 21
-36.92189536135643
 31
0.0
  0
LINE
  5
1FF
330
1F
100
AcDbEntity
  8
1-0ﾚｲﾔ
  6
JWW_CENTER2
 62
     4
370
     9
100
AcDbLine
 10
-123.2943407449022
 20
-291.2474486368
 30
0.0
 11
-123.2943407449022
 21
-357.5718372954781
 31
0.0
  0
LINE
  5
200
330
1F
100
AcDbEntity
  8
1-0ﾚｲﾔ
  6
JWW_CENTER2
 62
     4
370
     9
100
AcDbLine
 10
-156.4444617783244
 20
-324.4224161632688
 30
0.0
 11
-90.14421971148067
 21
-324.4224161632688
 31
0.0
  0
LINE
  5
201
330
1F
100
AcDbEntity
  8
1-0ﾚｲﾔ
  6
JWW_DASHED1
 62
     4
370
     9
100
AcDbLine
 10
-198.2947048349268
 20
-589.4219878567186
 30
0.0
 11
406.7048957265018
 21
-589.4219878567186
 31
0.0
  0
LINE
  5
202
330
1F
100
AcDbEntity
  8
1-0ﾚｲﾔ
  6
Continuous
 62
     4
370
     9
100
AcDbLine
 10
-198.2947048349268
 20
-599.4220014069948
 30
0.0
 11
406.7048957265018
 21
-599.4220014069948
 31
0.0
  0
LINE
  5
203
330
1F
100
AcDbEntity
  8
Hojo
  6
Continuous
 62
     7
370
     9
100
AcDbLine
 10
321.6801965190638
 20
-424.4218517648163
 30
0.0
 11
-364.7949042007269
 21
-424.4218517648163
 31
0.0
  0
LINE
  5
204
330
1F
100
AcDbEntity
  8
Hojo
  6
Continuous
 62
     7
370
     9
100
AcDbLine
 10
321.6801965190638
 20
-486.9219801978671
 30
0.0
 11
-364.7949042007269
 21
-486.9219801978671
 31
0.0
  0
LINE
  5
205
330
1F
100
AcDbEntity
  8
Hojo
  6
Continuous
 62
     7
370
     9
100
AcDbLine
 10
31.70578179672418
 20
91.23596582537445
 30
0.0
 11
31.70578179672418
 21
189.2053379597856
 31
0.0
  0
ARC
  5
206
330
1F
100
AcDbEntity
  8
1-0ﾚｲﾔ
  6
JWW_DASHED1
 62
     4
370
     9
100
AcDbCircle
 10
-113.2948521205356
 20
123.0783214430595
 30
0.0
 40
7.499999910247832
100
AcDbArc
 50
0.0
 51
90.0
  0
ARC
  5
207
330
1F
100
AcDbEntity
  8
1-0ﾚｲﾔ
  6
JWW_DASHED1
 62
     4
370
     9
100
AcDbCircle
 10
-183.2945970218617
 20
123.0783214430595
 30
0.0
 40
7.499999910247832
100
AcDbArc
 50
90.0
 51
180.0
  0
ARC
  5
208
330
1F
100
AcDbEntity
  8
1-0ﾚｲﾔ
  6
Continuous
 62
     4
370
     9
100
AcDbCircle
 10
-90.79477788858924
 20
68.07780947828363
 30
0.0
 40
7.499999910247832
100
AcDbArc
 50
180.0
 51
270.0
  0
ARC
  5
209
330
1F
100
AcDbEntity
  8
1-0ﾚｲﾔ
  6
Continuous
 62
     4
370
     9
100
AcDbCircle
 10
16.70584895896184
 20
45.57791022164011
 30
0.0
 40
14.99999982049566
100
AcDbArc
 50
0.0
 51
90.0
  0
ARC
  5
20A
330
1F
100
AcDbEntity
  8
1-0ﾚｲﾔ
  6
JWW_DASHED1
 62
     4
370
     9
100
AcDbCircle
 10
-90.79495286389204
 20
68.07815942889007
 30
0.0
 40
14.99999982049566
100
AcDbArc
 50
180.0
 51
270.0
  0
ARC
  5
20B
330
1F
100
AcDbEntity
  8
1-0ﾚｲﾔ
  6
Continuous
 62
     4
370
     9
100
AcDbCircle
 10
-113.2946771452328
 20
123.0779714924533
 30
0.0
 40
14.99999982049566
100
AcDbArc
 50
0.0
 51
90.0
  0
ARC
  5
20C
330
1F
100
AcDbEntity
  8
1-0ﾚｲﾔ
  6
Continuous
 62
     4
370
     9
100
AcDbCircle
 10
-183.2947719971645
 20
123.0779714924533
 30
0.0
 40
14.99999982049566
100
AcDbArc
 50
90.0
 51
180.0
  0
ARC
  5
20D
330
1F
100
AcDbEntity
  8
1-0ﾚｲﾔ
  6
JWW_DASHED1
 62
     4
370
     9
100
AcDbCircle
 10
16.70584895896184
 20
45.57826017224627
 30
0.0
 40
7.499999910247832
100
AcDbArc
 50
0.0
 51
90.0
  0
CIRCLE
  5
20E
330
1F
100
AcDbEntity
  8
1-0ﾚｲﾔ
  6
Continuous
 62
     4
370
     9
100
AcDbCircle
 10
-123.2943407449022
 20
-36.92189536135643
 30
0.0
 40
21.25000145444539
  0
CIRCLE
  5
20F
330
1F
100
AcDbEntity
  8
1-0ﾚｲﾔ
  6
Continuous
 62
     4
370
     9
100
AcDbCircle
 10
-123.2943407449022
 20
-324.4224161632688
 30
0.0
 40
21.25000145444539
  0
TEXT
  5
210
330
1F
100
AcDbEntity
  8
Hojo
  6
Continuous
 62
     2
370
     9
100
AcDbText
 10
-373.4350307485219
 20
-774.1114542668806
 30
0.0
 40
30.48
  1
水勾配：12.5
 50
90.0
 41
1.114583333333333
  7
ＭＳ ゴシック
100
AcDbText
  0
TEXT
  5
211
330
1F
100
AcDbEntity
  8
Hojo
  6
Continuous
 62
     2
370
     9
100
AcDbText
 10
-532.339202254012
 20
-273.1721360260411
 30
0.0
 40
30.48
  1
ｈ１
 50
90.0
 41
1.0625
  7
ＭＳ ゴシック
100
AcDbText
  0
TEXT
  5
212
330
1F
100
AcDbEntity
  8
Hojo
  6
Continuous
 62
     2
370
     9
100
AcDbText
 10
-376.4348073457106
 20
-253.171623766694
 30
0.0
 40
30.48
  1
水上：Ｈ１
 50
90.0
 41
1.1
  7
ＭＳ ゴシック
100
AcDbText
  0
LWPOLYLINE
  5
213
330
1F
100
AcDbEntity
  8
Hojo
  6
Continuous
 62
     7
370
     9
100
AcDbPolyline
 90
        4
 70
     1
 43
1.0
 10
-361.2949526282354
 20
138.0779043302157
 42
0.4142135623731
 10
-361.7949526282354
 20
138.5779043302157
 42
0.4142135623731
 10
-362.2949526282354
 20
138.0779043302157
 42
0.4142135623731
 10
-361.7949526282354
 20
137.5779043302157
 42
0.4142135623731
  0
LWPOLYLINE
  5
214
330
1F
100
AcDbEntity
  8
Hojo
  6
Continuous
 62
     7
370
     9
100
AcDbPolyline
 90
        4
 70
     1
 43
1.0
 10
-517.198822610627
 20
138.0779043302157
 42
0.4142135623731
 10
-517.6988226106268
 20
138.5779043302157
 42
0.4142135623731
 10
-518.1988226106268
 20
138.0779043302157
 42
0.4142135623731
 10
-517.6988226106268
 20
137.5779043302157
 42
0.4142135623731
  0
LWPOLYLINE
  5
215
330
1F
100
AcDbEntity
  8
Hojo
  6
Continuous
 62
     7
370
     9
100
AcDbPolyline
 90
        4
 70
     1
 43
1.0
 10
-517.198822610627
 20
-599.4220014069948
 42
0.4142135623731
 10
-517.6988226106268
 20
-598.9220014069949
 42
0.4142135623731
 10
-518.1988226106268
 20
-599.4220014069948
 42
0.4142135623731
 10
-517.6988226106268
 20
-599.9220014069948
 42
0.4142135623731
  0
LWPOLYLINE
  5
216
330
1F
100
AcDbEntity
  8
Hojo
  6
Continuous
 62
     7
370
     9
100
AcDbPolyline
 90
        4
 70
     1
 43
1.0
 10
-361.2949526282354
 20
-424.4218517648163
 42
0.4142135623731
 10
-361.7949526282354
 20
-423.9218517648163
 42
0.4142135623731
 10
-362.2949526282354
 20
-424.4218517648163
 42
0.4142135623731
 10
-361.7949526282354
 20
-424.9218517648163
 42
0.4142135623731
  0
LWPOLYLINE
  5
217
330
1F
100
AcDbEntity
  8
Hojo
  6
Continuous
 62
     7
370
     9
100
AcDbPolyline
 90
        4
 70
     1
 43
1.0
 10
-361.2949526282354
 20
-486.9219801978671
 42
0.4142135623731
 10
-361.7949526282354
 20
-486.4219801978672
 42
0.4142135623731
 10
-362.2949526282354
 20
-486.9219801978671
 42
0.4142135623731
 10
-361.7949526282354
 20
-487.4219801978671
 42
0.4142135623731
  0
LWPOLYLINE
  5
218
330
1F
100
AcDbEntity
  8
Hojo
  6
Continuous
 62
     7
370
     9
100
AcDbPolyline
 90
        4
 70
     1
 43
1.0
 10
32.20578179672418
 20
186.2053863872937
 42
0.4142135623731
 10
31.70578179672418
 20
186.7053863872937
 42
0.4142135623731
 10
31.20578179672418
 20
186.2053863872937
 42
0.4142135623731
 10
31.70578179672418
 20
185.7053863872937
 42
0.4142135623731
  0
LINE
  5
219
330
1F
100
AcDbEntity
  8
Hojo
  6
Continuous
 62
     7
370
     9
100
AcDbLine
 10
-198.2947048349268
 20
160.5783285127687
 30
0.0
 11
-198.2947048349268
 21
340.9835934872588
 31
0.0
  0
LWPOLYLINE
  5
21A
330
1F
100
AcDbEntity
  8
Hojo
  6
Continuous
 62
     7
370
     9
100
AcDbPolyline
 90
        4
 70
     1
 43
1.0
 10
-197.7947048349268
 20
336.483228690263
 42
0.4142135623731
 10
-198.2947048349268
 20
336.983228690263
 42
0.4142135623731
 10
-198.7947048349268
 20
336.483228690263
 42
0.4142135623731
 10
-198.2947048349268
 20
335.983228690263
 42
0.4142135623731
  0
LINE
  5
21B
330
1F
100
AcDbEntity
  8
Hojo
  6
Continuous
 62
     7
370
     9
100
AcDbLine
 10
-98.29474430747041
 20
160.5783285127687
 30
0.0
 11
-98.29474430747041
 21
268.5160880141003
 31
0.0
  0
LWPOLYLINE
  5
21C
330
1F
100
AcDbEntity
  8
Hojo
  6
Continuous
 62
     7
370
     9
100
AcDbPolyline
 90
        4
 70
     1
 43
1.0
 10
-97.79474430747041
 20
264.0158981924079
 42
0.4142135623731
 10
-98.29474430747041
 20
264.5158981924079
 42
0.4142135623731
 10
-98.79474430747041
 20
264.0158981924079
 42
0.4142135623731
 10
-98.29474430747041
 20
263.5158981924079
 42
0.4142135623731
  0
LINE
  5
21D
330
1F
100
AcDbEntity
  8
1-0ﾚｲﾔ
  6
JWW_DASHED1
 62
     4
370
     9
100
AcDbLine
 10
1004.205404745566
 20
98.07802510441476
 30
0.0
 11
1011.70554613975
 21
98.07802510441476
 31
0.0
  0
LINE
  5
21E
330
1F
100
AcDbEntity
  8
Hojo
  6
Continuous
 62
     7
370
     9
100
AcDbLine
 10
1172.292980061534
 20
138.0779043302157
 30
0.0
 11
1172.292980061534
 21
-486.9219801978671
 31
0.0
  0
LINE
  5
21F
330
1F
100
AcDbEntity
  8
Hojo
  6
Continuous
 62
     7
370
     9
100
AcDbLine
 10
1034.205970322303
 20
138.0779043302157
 30
0.0
 11
1176.792644957318
 21
138.0779043302157
 31
0.0
  0
LINE
  5
220
330
1F
100
AcDbEntity
  8
Hojo
  6
Continuous
 62
     7
370
     9
100
AcDbLine
 10
1297.701979235792
 20
138.0779043302157
 30
0.0
 11
1297.701979235792
 21
-661.9219548647424
 31
0.0
  0
LINE
  5
221
330
1F
100
AcDbEntity
  8
1-0ﾚｲﾔ
  6
Continuous
 62
     4
370
     9
100
AcDbLine
 10
996.7056133019878
 20
138.0779043302157
 30
0.0
 11
926.7049935241465
 21
138.0779043302157
 31
0.0
  0
LINE
  5
222
330
1F
100
AcDbEntity
  8
1-0ﾚｲﾔ
  6
Continuous
 62
     4
370
     9
100
AcDbLine
 10
1011.70554613975
 20
123.0779714924533
 30
0.0
 11
1011.70554613975
 21
-661.9219548647424
 31
0.0
  0
LINE
  5
223
330
1F
100
AcDbEntity
  8
1-0ﾚｲﾔ
  6
JWW_DASHED1
 62
     4
370
     9
100
AcDbLine
 10
796.7053422964676
 20
53.07822659112745
 30
0.0
 11
904.2052692428058
 21
53.07822659112745
 31
0.0
  0
LINE
  5
224
330
1F
100
AcDbEntity
  8
1-0ﾚｲﾔ
  6
JWW_DASHED1
 62
     4
370
     9
100
AcDbLine
 10
919.2052020805681
 20
123.0783214430595
 30
0.0
 11
919.2052020805681
 21
68.07815942889007
 31
0.0
  0
LINE
  5
225
330
1F
100
AcDbEntity
  8
1-0ﾚｲﾔ
  6
JWW_DASHED1
 62
     4
370
     9
100
AcDbLine
 10
996.7052633513816
 20
130.5782878619407
 30
0.0
 11
926.7053434747527
 21
130.5782878619407
 31
0.0
  0
LINE
  5
226
330
1F
100
AcDbEntity
  8
1-0ﾚｲﾔ
  6
JWW_DASHED1
 62
     4
370
     9
100
AcDbLine
 10
1004.205404745566
 20
123.0783214430595
 30
0.0
 11
1004.205404745566
 21
98.07802510441476
 31
0.0
  0
LINE
  5
227
330
1F
100
AcDbEntity
  8
1-0ﾚｲﾔ
  6
Continuous
 62
     4
370
     9
100
AcDbLine
 10
904.2049192921996
 20
60.57784305940245
 30
0.0
 11
796.7049923458615
 21
60.57784305940245
 31
0.0
  0
LINE
  5
228
330
1F
100
AcDbEntity
  8
1-0ﾚｲﾔ
  6
Continuous
 62
     4
370
     9
100
AcDbLine
 10
911.7050606863836
 20
68.07780947828363
 30
0.0
 11
911.7050606863836
 21
123.0779714924533
 31
0.0
  0
LINE
  5
229
330
1F
100
AcDbEntity
  8
Hojo
  6
Continuous
 62
     7
370
     9
100
AcDbLine
 10
1034.205970322303
 20
-661.9219548647424
 30
0.0
 11
1297.701979235792
 21
-661.9219548647424
 31
0.0
  0
LINE
  5
22A
330
1F
100
AcDbEntity
  8
Hojo
  6
Continuous
 62
     7
370
     9
100
AcDbLine
 10
1141.706597169854
 20
138.0779043302157
 30
0.0
 11
1302.201644131576
 21
138.0779043302157
 31
0.0
  0
LINE
  5
22B
330
1F
100
AcDbEntity
  8
1-0ﾚｲﾔ
  6
JWW_CENTER2
 62
     4
370
     9
100
AcDbLine
 10
903.5550610163034
 20
-386.9223696210166
 30
0.0
 11
969.8553030831471
 21
-386.9223696210166
 31
0.0
  0
LINE
  5
22C
330
1F
100
AcDbEntity
  8
1-0ﾚｲﾔ
  6
JWW_CENTER2
 62
     4
370
     9
100
AcDbLine
 10
936.7051820497255
 20
-353.7475770698508
 30
0.0
 11
936.7051820497255
 21
-420.0719657285289
 31
0.0
  0
LINE
  5
22D
330
1F
100
AcDbEntity
  8
1-0ﾚｲﾔ
  6
JWW_CENTER2
 62
     4
370
     9
100
AcDbLine
 10
903.5550610163034
 20
-36.92189536135643
 30
0.0
 11
969.8553030831471
 21
-36.92189536135643
 31
0.0
  0
LINE
  5
22E
330
1F
100
AcDbEntity
  8
1-0ﾚｲﾔ
  6
JWW_CENTER2
 62
     4
370
     9
100
AcDbLine
 10
936.7051820497255
 20
-3.747102810190626
 30
0.0
 11
936.7051820497255
 21
-70.07149146886874
 31
0.0
  0
LINE
  5
22F
330
1F
100
AcDbEntity
  8
1-0ﾚｲﾔ
  6
JWW_DASHED1
 62
     4
370
     9
100
AcDbLine
 10
1011.70554613975
 20
-651.9219413144664
 30
0.0
 11
406.7048957265018
 21
-651.9219413144664
 31
0.0
  0
LINE
  5
230
330
1F
100
AcDbEntity
  8
1-0ﾚｲﾔ
  6
Continuous
 62
     4
370
     9
100
AcDbLine
 10
1011.70554613975
 20
-661.9219548647424
 30
0.0
 11
406.7048957265018
 21
-661.9219548647424
 31
0.0
  0
LINE
  5
231
330
1F
100
AcDbEntity
  8
Hojo
  6
Continuous
 62
     7
370
     9
100
AcDbLine
 10
494.8168591827039
 20
-486.9219801978671
 30
0.0
 11
1176.792644957318
 21
-486.9219801978671
 31
0.0
  0
LINE
  5
232
330
1F
100
AcDbEntity
  8
Hojo
  6
Continuous
 62
     7
370
     9
100
AcDbLine
 10
781.7050595080991
 20
91.23596582537445
 30
0.0
 11
781.7050595080991
 21
189.2053379597856
 31
0.0
  0
ARC
  5
233
330
1F
100
AcDbEntity
  8
1-0ﾚｲﾔ
  6
Continuous
 62
     4
370
     9
100
AcDbCircle
 10
796.7049923458615
 20
45.57791022164011
 30
0.0
 40
14.99999982049566
100
AcDbArc
 50
90.0
 51
180.0
  0
ARC
  5
234
330
1F
100
AcDbEntity
  8
1-0ﾚｲﾔ
  6
Continuous
 62
     4
370
     9
100
AcDbCircle
 10
926.7049935241465
 20
123.0779714924533
 30
0.0
 40
14.99999982049566
100
AcDbArc
 50
90.0
 51
180.0
  0
ARC
  5
235
330
1F
100
AcDbEntity
  8
1-0ﾚｲﾔ
  6
Continuous
 62
     4
370
     9
100
AcDbCircle
 10
996.7056133019878
 20
123.0779714924533
 30
0.0
 40
14.99999982049566
100
AcDbArc
 50
0.0
 51
90.0
  0
ARC
  5
236
330
1F
100
AcDbEntity
  8
1-0ﾚｲﾔ
  6
JWW_DASHED1
 62
     4
370
     9
100
AcDbCircle
 10
904.2052692428058
 20
68.07815942889007
 30
0.0
 40
14.99999982049566
100
AcDbArc
 50
270.0
 51
0.0
  0
ARC
  5
237
330
1F
100
AcDbEntity
  8
1-0ﾚｲﾔ
  6
JWW_DASHED1
 62
     4
370
     9
100
AcDbCircle
 10
796.7053422964676
 20
45.57826017224627
 30
0.0
 40
7.499999910247832
100
AcDbArc
 50
90.0
 51
180.0
  0
ARC
  5
238
330
1F
100
AcDbEntity
  8
1-0ﾚｲﾔ
  6
JWW_DASHED1
 62
     4
370
     9
100
AcDbCircle
 10
926.7053434747527
 20
123.0783214430595
 30
0.0
 40
7.499999910247832
100
AcDbArc
 50
90.0
 51
180.0
  0
ARC
  5
239
330
1F
100
AcDbEntity
  8
1-0ﾚｲﾔ
  6
JWW_DASHED1
 62
     4
370
     9
100
AcDbCircle
 10
996.7052633513816
 20
123.0783214430595
 30
0.0
 40
7.499999910247832
100
AcDbArc
 50
0.0
 51
90.0
  0
ARC
  5
23A
330
1F
100
AcDbEntity
  8
1-0ﾚｲﾔ
  6
Continuous
 62
     4
370
     9
100
AcDbCircle
 10
904.2049192921996
 20
68.07780947828363
 30
0.0
 40
7.499999910247832
100
AcDbArc
 50
270.0
 51
0.0
  0
CIRCLE
  5
23B
330
1F
100
AcDbEntity
  8
1-0ﾚｲﾔ
  6
Continuous
 62
     4
370
     9
100
AcDbCircle
 10
936.7051820497255
 20
-386.9223696210166
 30
0.0
 40
21.25000145444539
  0
CIRCLE
  5
23C
330
1F
100
AcDbEntity
  8
1-0ﾚｲﾔ
  6
Continuous
 62
     4
370
     9
100
AcDbCircle
 10
936.7051820497255
 20
-36.92189536135643
 30
0.0
 40
21.25000145444539
  0
TEXT
  5
23D
330
1F
100
AcDbEntity
  8
Hojo
  6
Continuous
 62
     2
370
     9
100
AcDbText
 10
1157.652600418149
 20
-284.4220379338258
 30
0.0
 40
30.48
  1
水下：Ｈ２
 50
90.0
 41
1.1
  7
ＭＳ ゴシック
100
AcDbText
  0
TEXT
  5
23E
330
1F
100
AcDbEntity
  8
Hojo
  6
Continuous
 62
     2
370
     9
100
AcDbText
 10
1283.061599592407
 20
-304.4220252672633
 30
0.0
 40
30.48
  1
ｈ２
 50
90.0
 41
1.0625
  7
ＭＳ ゴシック
100
AcDbText
  0
LWPOLYLINE
  5
23F
330
1F
100
AcDbEntity
  8
Hojo
  6
Continuous
 62
     7
370
     9
100
AcDbPolyline
 90
        4
 70
     1
 43
1.0
 10
1172.792980061534
 20
138.0779043302157
 42
0.4142135623731
 10
1172.292980061534
 20
138.5779043302157
 42
0.4142135623731
 10
1171.792980061535
 20
138.0779043302157
 42
0.4142135623731
 10
1172.292980061534
 20
137.5779043302157
 42
0.4142135623731
  0
LWPOLYLINE
  5
240
330
1F
100
AcDbEntity
  8
Hojo
  6
Continuous
 62
     7
370
     9
100
AcDbPolyline
 90
        4
 70
     1
 43
1.0
 10
1172.792980061534
 20
-486.9219801978671
 42
0.4142135623731
 10
1172.292980061534
 20
-486.4219801978672
 42
0.4142135623731
 10
1171.792980061535
 20
-486.9219801978671
 42
0.4142135623731
 10
1172.292980061534
 20
-487.4219801978671
 42
0.4142135623731
  0
LWPOLYLINE
  5
241
330
1F
100
AcDbEntity
  8
Hojo
  6
Continuous
 62
     7
370
     9
100
AcDbPolyline
 90
        4
 70
     1
 43
1.0
 10
1298.201979235793
 20
138.0779043302157
 42
0.4142135623731
 10
1297.701979235792
 20
138.5779043302157
 42
0.4142135623731
 10
1297.201979235792
 20
138.0779043302157
 42
0.4142135623731
 10
1297.701979235792
 20
137.5779043302157
 42
0.4142135623731
  0
LWPOLYLINE
  5
242
330
1F
100
AcDbEntity
  8
Hojo
  6
Continuous
 62
     7
370
     9
100
AcDbPolyline
 90
        4
 70
     1
 43
1.0
 10
1298.201979235793
 20
-661.9219548647424
 42
0.4142135623731
 10
1297.701979235792
 20
-661.4219548647424
 42
0.4142135623731
 10
1297.201979235792
 20
-661.9219548647424
 42
0.4142135623731
 10
1297.701979235792
 20
-662.4219548647422
 42
0.4142135623731
  0
LWPOLYLINE
  5
243
330
1F
100
AcDbEntity
  8
Hojo
  6
Continuous
 62
     7
370
     9
100
AcDbPolyline
 90
        4
 70
     1
 43
1.0
 10
782.2050595080991
 20
186.2053863872937
 42
0.4142135623731
 10
781.7050595080991
 20
186.7053863872937
 42
0.4142135623731
 10
781.2050595080991
 20
186.2053863872937
 42
0.4142135623731
 10
781.7050595080991
 20
185.7053863872937
 42
0.4142135623731
  0
LINE
  5
244
330
1F
100
AcDbEntity
  8
Hojo
  6
Continuous
 62
     7
370
     9
100
AcDbLine
 10
1011.70554613975
 20
160.5783285127687
 30
0.0
 11
1011.70554613975
 21
340.9835934872588
 31
0.0
  0
LWPOLYLINE
  5
245
330
1F
100
AcDbEntity
  8
Hojo
  6
Continuous
 62
     7
370
     9
100
AcDbPolyline
 90
        4
 70
     1
 43
1.0
 10
1012.20554613975
 20
336.483228690263
 42
0.4142135623731
 10
1011.70554613975
 20
336.983228690263
 42
0.4142135623731
 10
1011.20554613975
 20
336.483228690263
 42
0.4142135623731
 10
1011.70554613975
 20
335.983228690263
 42
0.4142135623731
  0
LINE
  5
246
330
1F
100
AcDbEntity
  8
Hojo
  6
Continuous
 62
     7
370
     9
100
AcDbLine
 10
911.7050606863836
 20
160.5783285127687
 30
0.0
 11
911.7050606863836
 21
268.5160880141003
 31
0.0
  0
LWPOLYLINE
  5
247
330
1F
100
AcDbEntity
  8
Hojo
  6
Continuous
 62
     7
370
     9
100
AcDbPolyline
 90
        4
 70
     1
 43
1.0
 10
912.2050606863836
 20
264.0158981924079
 42
0.4142135623731
 10
911.7050606863836
 20
264.5158981924079
 42
0.4142135623731
 10
911.2050606863836
 20
264.0158981924079
 42
0.4142135623731
 10
911.7050606863836
 20
263.5158981924079
 42
0.4142135623731
  0
LINE
  5
248
330
1F
100
AcDbEntity
  8
Hojo
  6
Continuous
 62
     7
370
     9
100
AcDbLine
 10
31.70578179672418
 20
186.2053863872937
 30
0.0
 11
781.7050595080991
 21
186.2053863872937
 31
0.0
  0
TEXT
  5
249
330
1F
100
AcDbEntity
  8
Hojo
  6
Continuous
 62
     2
370
   211
100
AcDbText
 10
374.2054206524116
 20
197.8454645075805
 30
0.0
 40
30.48
  1
150
 41
1.083333333333333
  7
ＭＳ ゴシック
100
AcDbText
  0
LINE
  5
24A
330
1F
100
AcDbEntity
  8
Hojo
  6
Continuous
 62
     7
370
     9
100
AcDbLine
 10
-198.2947048349268
 20
336.483228690263
 30
0.0
 11
1011.70554613975
 21
336.483228690263
 31
0.0
  0
TEXT
  5
24B
330
1F
100
AcDbEntity
  8
Hojo
  6
Continuous
 62
     2
370
   211
100
AcDbText
 10
374.2054206524116
 20
351.1232583830416
 30
0.0
 40
30.48
  1
242
 41
1.083333333333333
  7
ＭＳ ゴシック
100
AcDbText
  0
LINE
  5
24C
330
1F
100
AcDbEntity
  8
Hojo
  6
Continuous
 62
     7
370
     9
100
AcDbLine
 10
-98.29474430747041
 20
264.0158981924079
 30
0.0
 11
911.7050606863836
 21
264.0158981924079
 31
0.0
  0
TEXT
  5
24D
330
1F
100
AcDbEntity
  8
Hojo
  6
Continuous
 62
     2
370
   211
100
AcDbText
 10
374.2051581894566
 20
278.6562778357927
 30
0.0
 40
30.48
  1
202
 41
1.083333333333333
  7
ＭＳ ゴシック
100
AcDbText
  0
LINE
  5
24E
330
1F
100
AcDbEntity
  8
Hojo
  6
Continuous
 62
     7
370
     9
100
AcDbLine
 10
-220.7951290174799
 20
-599.4220014069948
 30
0.0
 11
-335.4690596136272
 21
-599.4220014069948
 31
0.0
  0
LINE
  5
24F
330
1F
100
AcDbEntity
  8
Hojo
  6
Continuous
 62
     7
370
     9
100
AcDbLine
 10
-423.0325352594513
 20
-599.4220014069948
 30
0.0
 11
-522.1984875064097
 21
-599.4220014069948
 31
0.0
  0
LINE
  5
250
330
1F
100
AcDbEntity
  8
1-0ﾚｲﾔ
  6
Continuous
 62
     4
370
     9
100
AcDbLine
 10
68.76487740642423
 20
-328.1352242394518
 30
0.0
 11
393.7640722561986
 21
-415.2181508191721
 31
0.0
  0
LINE
  5
251
330
1F
100
AcDbEntity
  8
1-0ﾚｲﾔ
  6
Continuous
 62
     4
370
     9
100
AcDbLine
 10
31.70578179672418
 20
-279.8389200996822
 30
0.0
 11
31.70578179672418
 21
-220.898977956298
 31
0.0
  0
ARC
  5
252
330
1F
100
AcDbEntity
  8
1-0ﾚｲﾔ
  6
Continuous
 62
     4
370
     9
100
AcDbCircle
 10
81.70578179672418
 20
-279.8389200996822
 30
0.0
 40
50.0
100
AcDbArc
 50
180.0
 51
255.0000567839079
  0
LINE
  5
253
330
1F
100
AcDbEntity
  8
1-0ﾚｲﾔ
  6
Continuous
 62
     4
370
     9
100
AcDbLine
 10
781.7050595080991
 20
-342.3381307534927
 30
0.0
 11
781.7050595080991
 21
45.57791022164011
 31
0.0
  0
LINE
  5
254
330
1F
100
AcDbEntity
  8
1-0ﾚｲﾔ
  6
Continuous
 62
     4
370
     9
100
AcDbLine
 10
744.6459793643907
 20
-390.634430749176
 30
0.0
 11
419.6457191968057
 21
-477.7177543263134
 31
0.0
  0
ARC
  5
255
330
1F
100
AcDbEntity
  8
1-0ﾚｲﾔ
  6
Continuous
 62
     4
370
     9
100
AcDbCircle
 10
731.7050595080991
 20
-342.3381307534927
 30
0.0
 40
50.0
100
AcDbArc
 50
284.9999615639988
 51
0.0000000000000509
  0
LINE
  5
256
330
1F
100
AcDbEntity
  8
1-0ﾚｲﾔ
  6
JWW_DASHED1
 62
     4
370
     9
100
AcDbLine
 10
746.5872830325713
 20
-397.879096596929
 30
0.0
 11
421.5868952099419
 21
-484.962606753203
 31
0.0
  0
LINE
  5
257
330
1F
100
AcDbEntity
  8
1-0ﾚｲﾔ
  6
JWW_DASHED1
 62
     4
370
     9
100
AcDbLine
 10
789.2052009022831
 20
-342.3383581118552
 30
0.0
 11
789.2052009022831
 21
45.57826017224627
 31
0.0
  0
ARC
  5
258
330
1F
100
AcDbEntity
  8
1-0ﾚｲﾔ
  6
JWW_DASHED1
 62
     4
370
     9
100
AcDbCircle
 10
731.7052009022831
 20
-342.3383581118553
 30
0.0
 40
57.5
100
AcDbArc
 50
284.9999866272695
 51
0.0000000000000254
  0
LINE
  5
259
330
1F
100
AcDbEntity
  8
1-0ﾚｲﾔ
  6
JWW_DASHED1
 62
     4
370
     9
100
AcDbLine
 10
66.82362139453637
 20
-335.3796622660109
 30
0.0
 11
391.8228962430624
 21
-422.4624783201524
 31
0.0
  0
LINE
  5
25A
330
1F
100
AcDbEntity
  8
1-0ﾚｲﾔ
  6
JWW_DASHED1
 62
     4
370
     9
100
AcDbLine
 10
24.20564040253964
 20
-279.838906867426
 30
0.0
 11
24.20564040253964
 21
45.57826017224627
 31
0.0
  0
ARC
  5
25B
330
1F
100
AcDbEntity
  8
1-0ﾚｲﾔ
  6
JWW_DASHED1
 62
     4
370
     9
100
AcDbCircle
 10
81.70564040253964
 20
-279.838906867426
 30
0.0
 40
57.5
100
AcDbArc
 50
180.0
 51
255.0000784896172
  0
LINE
  5
25C
330
1F
100
AcDbEntity
  8
Hojo
  6
Continuous
 62
     7
370
     9
100
AcDbLine
 10
166.0930072541691
 20
138.0779043302157
 30
0.0
 11
166.0930072541691
 21
-88.21013129452027
 31
0.0
  0
TEXT
  5
25D
330
1F
100
AcDbEntity
  8
Hojo
  6
Continuous
 62
     2
370
     9
100
AcDbText
 10
151.4526276107837
 20
-60.7660924615503
 30
0.0
 40
30.48
  1
15.5
 50
90.0
 41
1.09375
  7
ＭＳ ゴシック
100
AcDbText
  0
LWPOLYLINE
  5
25E
330
1F
100
AcDbEntity
  8
Hojo
  6
Continuous
 62
     7
370
     9
100
AcDbPolyline
 90
        4
 70
     1
 43
1.0
 10
166.5930072541691
 20
138.0779043302157
 42
0.4142135623731
 10
166.0930072541691
 20
138.5779043302157
 42
0.4142135623731
 10
165.5930072541691
 20
138.0779043302157
 42
0.4142135623731
 10
166.0930072541691
 20
137.5779043302157
 42
0.4142135623731
  0
LWPOLYLINE
  5
25F
330
1F
100
AcDbEntity
  8
Hojo
  6
Continuous
 62
     7
370
     9
100
AcDbPolyline
 90
        4
 70
     1
 43
1.0
 10
166.5930072541691
 20
60.57784305940245
 42
0.4142135623731
 10
166.0930072541691
 20
61.07784305940245
 42
0.4142135623731
 10
165.5930072541691
 20
60.57784305940245
 42
0.4142135623731
 10
166.0930072541691
 20
60.07784305940245
 42
0.4142135623731
  0
LINE
  5
260
330
1F
100
AcDbEntity
  8
Hojo
  6
Continuous
 62
     7
370
     9
100
AcDbLine
 10
-75.79484505082632
 20
138.0779043302157
 30
0.0
 11
170.592672149952
 21
138.0779043302157
 31
0.0
  0
LINE
  5
261
330
1F
100
AcDbEntity
  8
Hojo
  6
Continuous
 62
     7
370
     9
100
AcDbLine
 10
54.20515612745817
 20
60.57784305940245
 30
0.0
 11
170.592672149952
 21
60.57784305940245
 31
0.0
  0
LINE
  5
262
330
1F
100
AcDbEntity
  8
Hojo
  6
Continuous
 62
     7
370
     9
100
AcDbLine
 10
774.7099274583303
 20
-367.8446266434258
 30
0.0
 11
751.7269213896918
 21
-358.0071651497755
 31
0.0
  0
LINE
  5
263
330
1F
100
AcDbEntity
  8
Hojo
  6
Continuous
 62
     7
370
     9
100
AcDbLine
 10
774.7099274583303
 20
-367.8446266434258
 30
0.0
 11
755.0560015074075
 21
-352.3939574247515
 31
0.0
  0
TEXT
  5
264
330
1F
100
AcDbEntity
  8
Hojo
  6
Continuous
 62
     2
370
     9
100
AcDbText
 10
663.0450123027771
 20
-292.8439798619346
 30
0.0
 40
30.48
  1
R10
 50
329.9999345230717
 41
1.083333333333332
  7
ＭＳ ゴシック
100
AcDbText
  0
LINE
  5
265
330
1F
100
AcDbEntity
  8
Hojo
  6
Continuous
 62
     7
370
     9
100
AcDbLine
 10
655.0870116086077
 20
-296.8958156978194
 30
0.0
 11
774.7099274583303
 21
-367.8446266434258
 31
0.0
  0
TEXT
  5
266
330
1F
100
AcDbEntity
  8
Hojo
  6
Continuous
 62
     2
370
     9
100
AcDbText
 10
93.81794622867538
 20
-252.0589660415813
 30
0.0
 40
30.48
  1
R10
 50
40.00016753405659
 41
1.083333333333333
  7
ＭＳ ゴシック
100
AcDbText
  0
LINE
  5
267
330
1F
100
AcDbEntity
  8
Hojo
  6
Continuous
 62
     7
370
     9
100
AcDbLine
 10
42.08781496664956
 20
-310.3416528338344
 30
0.0
 11
59.02122490421023
 21
-291.9499987198291
 31
0.0
  0
LINE
  5
268
330
1F
100
AcDbEntity
  8
Hojo
  6
Continuous
 62
     7
370
     9
100
AcDbLine
 10
42.08781496664956
 20
-310.3416528338344
 30
0.0
 11
63.20453445189942
 21
-296.9593666736856
 31
0.0
  0
LINE
  5
269
330
1F
100
AcDbEntity
  8
Hojo
  6
Continuous
 62
     7
370
     9
100
AcDbLine
 10
148.138946402913
 20
-221.7835023546022
 30
0.0
 11
42.08781496664953
 21
-310.3416528338344
 31
0.0
  0
TEXT
  5
26A
330
1F
100
AcDbEntity
  8
Hojo
  6
Continuous
 62
     2
370
     9
100
AcDbText
 10
749.1860516803825
 20
-875.895228106653
 30
0.0
 40
30.48
  1
Φ８．５
 50
0.0000286438223338
 41
1.09375
  7
ＭＳ ゴシック
100
AcDbText
  0
LINE
  5
26B
330
1F
100
AcDbEntity
  8
Hojo
  6
Continuous
 62
     7
370
     9
100
AcDbLine
 10
715.2197738315726
 20
-824.0171714802043
 30
0.0
 11
1047.920964794787
 21
-824.0171714802043
 31
0.0
  0
TEXT
  5
26C
330
1F
100
AcDbEntity
  8
Hojo
  6
Continuous
 62
     2
370
     9
100
AcDbText
 10
751.3903668576345
 20
-803.8727687009603
 30
0.0
 40
30.48
  1
ジョイント穴
 41
1.104166666666667
  7
ＭＳ ゴシック
100
AcDbText
  0
LINE
  5
26D
330
1F
100
AcDbEntity
  8
Hojo
  6
Continuous
 62
     7
370
     9
100
AcDbLine
 10
715.2197738315726
 20
-824.0171714802043
 30
0.0
 11
592.7743329965011
 21
-580.0613340641498
 31
0.0
  0
LINE
  5
26E
330
1F
100
AcDbEntity
  8
Hojo
  6
Continuous
 62
     7
370
     9
100
AcDbLine
 10
592.7743329965011
 20
-580.0613340641498
 30
0.0
 11
606.8093884706627
 21
-600.7499110533296
 31
0.0
  0
LINE
  5
26F
330
1F
100
AcDbEntity
  8
Hojo
  6
Continuous
 62
     7
370
     9
100
AcDbLine
 10
592.7743329965011
 20
-580.0613340641498
 30
0.0
 11
600.976557811524
 21
-603.6775045429516
 31
0.0
  0
LINE
  5
270
330
1F
100
AcDbEntity
  8
通り芯
  6
Continuous
 62
     4
370
     9
100
AcDbLine
 10
-2109.294034155179
 20
931.0507050664062
 30
0.0
 11
-2109.294034155179
 21
706.051012598757
 31
0.0
  0
LINE
  5
271
330
1F
100
AcDbEntity
  8
通り芯
  6
Continuous
 62
     4
370
     9
100
AcDbLine
 10
886.7055461397501
 20
931.0507050664062
 30
0.0
 11
886.7055461397501
 21
681.0508912354156
 31
0.0
  0
LINE
  5
272
330
1F
100
AcDbEntity
  8
通り芯
  6
Continuous
 62
     4
370
     9
100
AcDbLine
 10
-2109.294034155179
 20
931.0507050664062
 30
0.0
 11
886.7055461397501
 21
931.0507050664062
 31
0.0
  0
LINE
  5
273
330
1F
100
AcDbEntity
  8
通り芯
  6
Continuous
 62
     4
370
     9
100
AcDbLine
 10
-2105.294448675796
 20
931.0507050664062
 30
0.0
 11
-2105.294448675796
 21
706.051012598757
 31
0.0
  0
LINE
  5
274
330
1F
100
AcDbEntity
  8
通り芯
  6
Continuous
 62
     4
370
     9
100
AcDbLine
 10
882.705610709761
 20
931.0507050664062
 30
0.0
 11
882.705610709761
 21
681.0508912354156
 31
0.0
  0
LINE
  5
275
330
1F
100
AcDbEntity
  8
通り芯
  6
Continuous
 62
     4
370
     9
100
AcDbLine
 10
796.7055991625693
 20
611.0509713587867
 30
0.0
 11
796.7055991625693
 21
615.0509067887758
 31
0.0
  0
LINE
  5
276
330
1F
100
AcDbEntity
  8
通り芯
  6
Continuous
 62
     4
370
     9
100
AcDbLine
 10
-2109.294034155179
 20
706.051012598757
 30
0.0
 11
-2109.294034155179
 21
691.4426744894427
 31
0.0
  0
LINE
  5
277
330
1F
100
AcDbEntity
  8
通り芯
  6
Continuous
 62
     4
370
     9
100
AcDbLine
 10
-2105.294448675796
 20
706.051012598757
 30
0.0
 11
-2105.294448675796
 21
691.4426744894427
 31
0.0
  0
LINE
  5
278
330
1F
100
AcDbEntity
  8
092
  6
Continuous
 62
     4
370
     9
100
AcDbLine
 10
-2019.294087177998
 20
636.4731331533237
 30
0.0
 11
-2019.294087177998
 21
636.051092722128
 31
0.0
  0
LINE
  5
279
330
1F
100
AcDbEntity
  8
通り芯
  6
Continuous
 62
     4
370
     9
100
AcDbLine
 10
-2019.294087177998
 20
640.0510281521172
 30
0.0
 11
-2019.294087177998
 21
636.051092722128
 31
0.0
  0
LINE
  5
27A
330
1F
100
AcDbEntity
  8
通り芯
  6
Continuous
 62
     4
370
     9
100
AcDbLine
 10
-677.294053479051
 20
629.0566299540449
 30
0.0
 11
-677.294053479051
 21
625.0566945240557
 31
0.0
  0
LINE
  5
27B
330
1F
100
AcDbEntity
  8
092
  6
Continuous
 62
     7
370
     9
100
AcDbLine
 10
-2109.294034155179
 20
1145.118990445116
 30
0.0
 11
886.7055461397501
 21
1145.118990445116
 31
0.0
  0
LINE
  5
27C
330
1F
100
AcDbEntity
  8
092
  6
Continuous
 62
     7
370
     9
100
AcDbLine
 10
-2109.294034155179
 20
961.050920692537
 30
0.0
 11
-2109.294034155179
 21
1151.1188935901
 31
0.0
  0
LINE
  5
27D
330
1F
100
AcDbEntity
  8
092
  6
Continuous
 62
     7
370
     9
100
AcDbLine
 10
886.7055461397501
 20
961.050920692537
 30
0.0
 11
886.7055461397501
 21
1151.1188935901
 31
0.0
  0
LINE
  5
27E
330
1F
100
AcDbEntity
  8
092
  6
Continuous
 62
     7
370
     9
100
AcDbLine
 10
-2259.036148837174
 20
931.0507050664062
 30
0.0
 11
-2259.036148837174
 21
706.051012598757
 31
0.0
  0
LINE
  5
27F
330
1F
100
AcDbEntity
  8
092
  6
Continuous
 62
     7
370
     9
100
AcDbLine
 10
-2139.29424978131
 20
931.0507050664062
 30
0.0
 11
-2265.036051982158
 21
931.0507050664062
 31
0.0
  0
LINE
  5
280
330
1F
100
AcDbEntity
  8
092
  6
Continuous
 62
     7
370
     9
100
AcDbLine
 10
-2139.29424978131
 20
706.051012598757
 30
0.0
 11
-2265.036051982158
 21
706.051012598757
 31
0.0
  0
LINE
  5
281
330
1F
100
AcDbEntity
  8
092
  6
Continuous
 62
     7
370
     9
100
AcDbLine
 10
-2417.534377639358
 20
931.0507050664062
 30
0.0
 11
-2417.534377639358
 21
636.051092722128
 31
0.0
  0
LINE
  5
282
330
1F
100
AcDbEntity
  8
092
  6
Continuous
 62
     7
370
     9
100
AcDbLine
 10
-2139.29424978131
 20
636.051092722128
 30
0.0
 11
-2423.533930833735
 21
636.051092722128
 31
0.0
  0
LINE
  5
283
330
1F
100
AcDbEntity
  8
092
  6
Continuous
 62
     7
370
     9
100
AcDbLine
 10
1109.815855283995
 20
931.0507050664062
 30
0.0
 11
1109.815855283995
 21
681.0508912354156
 31
0.0
  0
LINE
  5
284
330
1F
100
AcDbEntity
  8
092
  6
Continuous
 62
     7
370
     9
100
AcDbLine
 10
916.7057617658816
 20
931.0507050664062
 30
0.0
 11
1115.815758428978
 21
931.0507050664062
 31
0.0
  0
LINE
  5
285
330
1F
100
AcDbEntity
  8
092
  6
Continuous
 62
     7
370
     9
100
AcDbLine
 10
916.7057617658816
 20
681.0508912354156
 30
0.0
 11
1115.815758428978
 21
681.0508912354156
 31
0.0
  0
LINE
  5
286
330
1F
100
AcDbEntity
  8
092
  6
Continuous
 62
     7
370
     9
100
AcDbLine
 10
916.7057617658816
 20
611.0509713587867
 30
0.0
 11
1283.550583533799
 21
611.0509713587867
 31
0.0
  0
LINE
  5
287
330
1F
100
AcDbEntity
  8
092
  6
Continuous
 62
     7
370
     9
100
AcDbLine
 10
-2259.036148837174
 20
931.0507050664062
 30
0.0
 11
-2423.533930833735
 21
931.0507050664062
 31
0.0
  0
LINE
  5
288
330
1F
100
AcDbEntity
  8
092
  6
Continuous
 62
     7
370
     9
100
AcDbLine
 10
1109.815855283995
 20
931.0507050664062
 30
0.0
 11
1283.550583533799
 21
931.0507050664062
 31
0.0
  0
LINE
  5
289
330
1F
100
AcDbEntity
  8
092
  6
Continuous
 62
     7
370
     9
100
AcDbLine
 10
-326.6652429057825
 20
828.8423812379039
 30
0.0
 11
-175.4601597141578
 21
1026.066844034266
 31
0.0
  0
LINE
  5
28A
330
1F
100
AcDbEntity
  8
092
  6
Continuous
 62
     7
370
     9
100
AcDbLine
 10
-2019.97649086028
 20
636.051092722128
 30
0.0
 11
-1786.187089014238
 21
497.6307550303976
 31
0.0
  0
LINE
  5
28B
330
1F
100
AcDbEntity
  8
092
  6
Continuous
 62
     7
370
     9
100
AcDbLine
 10
-642.0087088213004
 20
625.0566945240557
 30
0.0
 11
-417.9986766682629
 21
497.6307550303976
 31
0.0
  0
LINE
  5
28C
330
1F
100
AcDbEntity
  8
092
  6
Continuous
 62
     7
370
     9
100
AcDbLine
 10
1277.550330438208
 20
931.0507050664062
 30
0.0
 11
1277.550330438208
 21
611.0509713587867
 31
0.0
  0
LINE
  5
28D
330
1F
100
AcDbEntity
  8
092
  6
Continuous
 62
     7
370
     9
100
AcDbLine
 10
-1786.187089014238
 20
497.6307550303976
 30
0.0
 11
-1270.619908631078
 21
497.6307550303976
 31
0.0
  0
LINE
  5
28E
330
1F
100
AcDbEntity
  8
092
  6
Continuous
 62
     7
370
     9
100
AcDbLine
 10
242.605357519908
 20
497.6307550303976
 30
0.0
 11
748.5034026510465
 21
497.6307550303976
 31
0.0
  0
LINE
  5
28F
330
1F
100
AcDbEntity
  8
通り芯
  6
Continuous
 62
     4
370
     9
100
AcDbLine
 10
886.7055461397501
 20
619.0510171940683
 30
0.0
 11
886.7055461397501
 21
681.0508912354156
 31
0.0
  0
LINE
  5
290
330
1F
100
AcDbEntity
  8
通り芯
  6
Continuous
 62
     4
370
     9
100
AcDbLine
 10
882.705610709761
 20
619.050842218765
 30
0.0
 11
882.705610709761
 21
681.0508912354156
 31
0.0
  0
LINE
  5
291
330
1F
100
AcDbEntity
  8
通り芯
  6
Continuous
 62
     4
370
     9
100
AcDbLine
 10
878.7056752797719
 20
615.0509067887758
 30
0.0
 11
796.7055991625693
 21
615.0509067887758
 31
0.0
  0
LINE
  5
292
330
1F
100
AcDbEntity
  8
092
  6
Continuous
 62
     7
370
     9
100
AcDbLine
 10
-417.9986766682629
 20
497.6307550303976
 30
0.0
 11
17.06919077280418
 21
497.6307550303976
 31
0.0
  0
LINE
  5
293
330
1F
100
AcDbEntity
  8
092
  6
Continuous
 62
     7
370
     9
100
AcDbLine
 10
222.8146008819226
 20
1026.066844034266
 30
0.0
 11
-175.4601597141578
 21
1026.066844034266
 31
0.0
  0
LINE
  5
294
330
1F
100
AcDbEntity
  8
092
  6
Continuous
 62
     7
370
     9
100
AcDbLine
 10
-326.6652429057825
 20
828.8423812379039
 30
0.0
 11
-314.1742809398755
 21
850.4983746074594
 31
0.0
  0
LINE
  5
295
330
1F
100
AcDbEntity
  8
092
  6
Continuous
 62
     7
370
     9
100
AcDbLine
 10
-326.6652429057825
 20
828.8423812379039
 30
0.0
 11
-308.9950119666611
 21
846.5274850777932
 31
0.0
  0
LINE
  5
296
330
1F
100
AcDbEntity
  8
通り芯
  6
Continuous
 62
     4
370
     9
100
AcDbLine
 10
-2105.294448675796
 20
897.0509039608924
 30
0.0
 11
-611.2942440077145
 21
897.0509039608924
 31
0.0
  0
LINE
  5
297
330
1F
100
AcDbEntity
  8
通り芯
  6
Continuous
 62
     4
370
     9
100
AcDbLine
 10
-607.2941336024223
 20
897.0509039608924
 30
0.0
 11
882.705610709761
 21
897.0509039608924
 31
0.0
  0
LINE
  5
298
330
1F
100
AcDbEntity
  8
通り芯
  6
Continuous
 62
     4
370
     9
100
AcDbLine
 10
-2105.294448675796
 20
915.0513132970558
 30
0.0
 11
882.705610709761
 21
915.0513132970558
 31
0.0
  0
LINE
  5
299
330
1F
100
AcDbEntity
  8
通り芯
  6
Continuous
 62
     4
370
     9
100
AcDbLine
 10
-2105.294448675796
 20
644.0509635821063
 30
0.0
 11
-2105.294448675796
 21
691.4426744894427
 31
0.0
  0
LINE
  5
29A
330
1F
100
AcDbEntity
  8
通り芯
  6
Continuous
 62
     4
370
     9
100
AcDbLine
 10
-2101.294513245807
 20
640.0510281521172
 30
0.0
 11
-2019.294087177998
 21
640.0510281521172
 31
0.0
  0
LINE
  5
29B
330
1F
100
AcDbEntity
  8
通り芯
  6
Continuous
 62
     4
370
     9
100
AcDbLine
 10
-2109.294034155179
 20
644.0511385574097
 30
0.0
 11
-2109.294034155179
 21
691.4426744894427
 31
0.0
  0
LINE
  5
29C
330
1F
100
AcDbEntity
  8
通り芯
  6
Continuous
 62
     4
370
     9
100
AcDbLine
 10
-615.2941794377036
 20
625.0566945240557
 30
0.0
 11
-677.294053479051
 21
625.0566945240557
 31
0.0
  0
LINE
  5
29D
330
1F
100
AcDbEntity
  8
通り芯
  6
Continuous
 62
     4
370
     9
100
AcDbLine
 10
-607.2941336024223
 20
633.0567403593374
 30
0.0
 11
-607.2941336024223
 21
915.0513132970558
 31
0.0
  0
LINE
  5
29E
330
1F
100
AcDbEntity
  8
通り芯
  6
Continuous
 62
     4
370
     9
100
AcDbLine
 10
-615.2941794377036
 20
629.0566299540449
 30
0.0
 11
-677.294053479051
 21
629.0566299540449
 31
0.0
  0
LINE
  5
29F
330
1F
100
AcDbEntity
  8
通り芯
  6
Continuous
 62
     4
370
     9
100
AcDbLine
 10
-611.2942440077145
 20
633.056565384034
 30
0.0
 11
-611.2942440077145
 21
915.0513132970558
 31
0.0
  0
LINE
  5
2A0
330
1F
100
AcDbEntity
  8
092
  6
Continuous
 62
     7
370
     9
100
AcDbLine
 10
748.5034026510465
 20
497.6307550303976
 30
0.0
 11
796.7055991625693
 21
611.0509713587867
 31
0.0
  0
LINE
  5
2A1
330
1F
100
AcDbEntity
  8
092
  6
Continuous
 62
     7
370
     9
100
AcDbLine
 10
-2019.97649086028
 20
636.051092722128
 30
0.0
 11
-1996.985785878303
 21
626.2311287587925
 31
0.0
  0
LINE
  5
2A2
330
1F
100
AcDbEntity
  8
092
  6
Continuous
 62
     7
370
     9
100
AcDbLine
 10
-2019.97649086028
 20
636.051092722128
 30
0.0
 11
-2000.310841564046
 21
620.6152964042211
 31
0.0
  0
LINE
  5
2A3
330
1F
100
AcDbEntity
  8
092
  6
Continuous
 62
     7
370
     9
100
AcDbLine
 10
-642.0087088213004
 20
625.0566945240557
 30
0.0
 11
-618.850902424816
 21
615.637773955538
 31
0.0
  0
LINE
  5
2A4
330
1F
100
AcDbEntity
  8
092
  6
Continuous
 62
     7
370
     9
100
AcDbLine
 10
-642.0087088213004
 20
625.0566945240557
 30
0.0
 11
-622.0777969654923
 21
609.9650746274431
 31
0.0
  0
LINE
  5
2A5
330
1F
100
AcDbEntity
  8
092
  6
Continuous
 62
     7
370
     9
100
AcDbLine
 10
796.7055991625693
 20
611.0509713587867
 30
0.0
 11
790.0141936195399
 21
586.9631712260649
 31
0.0
  0
LINE
  5
2A6
330
1F
100
AcDbEntity
  8
092
  6
Continuous
 62
     7
370
     9
100
AcDbLine
 10
796.7055991625693
 20
611.0509713587867
 30
0.0
 11
784.0076414130368
 21
589.5157109484039
 31
0.0
  0
LINE
  5
2A7
330
1F
100
AcDbEntity
  8
通り芯
  6
Continuous
 62
     4
370
     9
100
AcDbLine
 10
-2101.294163295201
 20
636.051092722128
 30
0.0
 11
-2019.97649086028
 21
636.051092722128
 31
0.0
  0
LINE
  5
2A8
330
1F
100
AcDbEntity
  8
通り芯
  6
Continuous
 62
     4
370
     9
100
AcDbLine
 10
796.7055991625693
 20
611.0509713587867
 30
0.0
 11
878.7056752797719
 21
611.0509713587867
 31
0.0
  0
ARC
  5
2A9
330
1F
100
AcDbEntity
  8
通り芯
  6
Continuous
 62
     4
370
     9
100
AcDbCircle
 10
-2101.294513245807
 20
644.0509635821063
 30
0.0
 40
4.000000020481905
100
AcDbArc
 50
180.0
 51
270.0
  0
ARC
  5
2AA
330
1F
100
AcDbEntity
  8
通り芯
  6
Continuous
 62
     4
370
     9
100
AcDbCircle
 10
-2101.294163295201
 20
644.0511385574097
 30
0.0
 40
8.00000004096381
100
AcDbArc
 50
180.0
 51
270.0
  0
ARC
  5
2AB
330
1F
100
AcDbEntity
  8
通り芯
  6
Continuous
 62
     4
370
     9
100
AcDbCircle
 10
-615.2941794377036
 20
633.056565384034
 30
0.0
 40
4.000000020481905
100
AcDbArc
 50
270.0
 51
0.0
  0
ARC
  5
2AC
330
1F
100
AcDbEntity
  8
通り芯
  6
Continuous
 62
     4
370
     9
100
AcDbCircle
 10
-615.2941794377036
 20
633.0567403593374
 30
0.0
 40
8.00000004096381
100
AcDbArc
 50
270.0
 51
0.0
  0
ARC
  5
2AD
330
1F
100
AcDbEntity
  8
通り芯
  6
Continuous
 62
     4
370
     9
100
AcDbCircle
 10
878.7056752797719
 20
619.0510171940683
 30
0.0
 40
8.00000004096381
100
AcDbArc
 50
270.0
 51
0.0
  0
ARC
  5
2AE
330
1F
100
AcDbEntity
  8
通り芯
  6
Continuous
 62
     4
370
     9
100
AcDbCircle
 10
878.7056752797719
 20
619.050842218765
 30
0.0
 40
4.000000020481905
100
AcDbArc
 50
270.0
 51
0.0
  0
TEXT
  5
2AF
330
1F
100
AcDbEntity
  8
092
  6
Continuous
 62
     2
370
     9
100
AcDbText
 10
-655.0443314953661
 20
1162.758796735084
 30
0.0
 40
30.48
  1
1498
 41
1.09375
  7
ＭＳ ゴシック
100
AcDbText
  0
TEXT
  5
2B0
330
1F
100
AcDbEntity
  8
092
  6
Continuous
 62
     2
370
     9
100
AcDbText
 10
-1772.519436103496
 20
510.8417614223574
 30
0.0
 40
30.48
  1
②ジョイントプレートＡ
 41
1.113636363636364
  7
ＭＳ ゴシック
100
AcDbText
  0
TEXT
  5
2B1
330
1F
100
AcDbEntity
  8
092
  6
Continuous
 62
     2
370
     9
100
AcDbText
 10
-145.2949205788866
 20
1040.440561315652
 30
0.0
 40
30.48
  1
①トラフパン本体
 41
1.109375
  7
ＭＳ ゴシック
100
AcDbText
  0
TEXT
  5
2B2
330
1F
100
AcDbEntity
  8
092
  6
Continuous
 62
     2
370
     9
100
AcDbText
 10
252.0764902475719
 20
514.540564355627
 30
0.0
 40
30.48
  1
③ジョイントプレートＢ
 41
1.113636363636364
  7
ＭＳ ゴシック
100
AcDbText
  0
TEXT
  5
2B3
330
1F
100
AcDbEntity
  8
092
  6
Continuous
 62
     2
370
     9
100
AcDbText
 10
-2435.174183929325
 20
741.0505489436606
 30
0.0
 40
30.48
  1
ｈ１
 50
90.0
 41
1.0625
  7
ＭＳ ゴシック
100
AcDbText
  0
TEXT
  5
2B4
330
1F
100
AcDbEntity
  8
092
  6
Continuous
 62
     2
370
     9
100
AcDbText
 10
-2276.675955127141
 20
776.0505088819754
 30
0.0
 40
30.48
  1
Ｈ１
 50
90.0
 41
1.0625
  7
ＭＳ ゴシック
100
AcDbText
  0
TEXT
  5
2B5
330
1F
100
AcDbEntity
  8
092
  6
Continuous
 62
     2
370
     9
100
AcDbText
 10
1092.176048994027
 20
763.5502732250013
 30
0.0
 40
30.48
  1
Ｈ２
 50
90.0
 41
1.0625
  7
ＭＳ ゴシック
100
AcDbText
  0
TEXT
  5
2B6
330
1F
100
AcDbEntity
  8
092
  6
Continuous
 62
     2
370
     9
100
AcDbText
 10
1259.910524148241
 20
728.5505757496417
 30
0.0
 40
30.48
  1
ｈ２
 50
90.0
 41
1.0625
  7
ＭＳ ゴシック
100
AcDbText
  0
LWPOLYLINE
  5
2B7
330
1F
100
AcDbEntity
  8
092
  6
Continuous
 62
     7
370
     9
100
AcDbPolyline
 90
        4
 70
     1
 43
1.0
 10
-2108.794034155179
 20
1145.118990445116
 42
0.4142135623731
 10
-2109.294034155179
 20
1145.618990445116
 42
0.4142135623731
 10
-2109.794034155179
 20
1145.118990445116
 42
0.4142135623731
 10
-2109.294034155179
 20
1144.618990445117
 42
0.4142135623731
  0
LWPOLYLINE
  5
2B8
330
1F
100
AcDbEntity
  8
092
  6
Continuous
 62
     7
370
     9
100
AcDbPolyline
 90
        4
 70
     1
 43
1.0
 10
887.2055461397501
 20
1145.118990445116
 42
0.4142135623731
 10
886.7055461397501
 20
1145.618990445116
 42
0.4142135623731
 10
886.2055461397501
 20
1145.118990445116
 42
0.4142135623731
 10
886.7055461397501
 20
1144.618990445117
 42
0.4142135623731
  0
LWPOLYLINE
  5
2B9
330
1F
100
AcDbEntity
  8
092
  6
Continuous
 62
     7
370
     9
100
AcDbPolyline
 90
        4
 70
     1
 43
1.0
 10
-2258.536148837174
 20
931.0507050664062
 42
0.4142135623731
 10
-2259.036148837174
 20
931.5507050664062
 42
0.4142135623731
 10
-2259.536148837174
 20
931.0507050664062
 42
0.4142135623731
 10
-2259.036148837174
 20
930.5507050664062
 42
0.4142135623731
  0
LWPOLYLINE
  5
2BA
330
1F
100
AcDbEntity
  8
092
  6
Continuous
 62
     7
370
     9
100
AcDbPolyline
 90
        4
 70
     1
 43
1.0
 10
-2258.536148837174
 20
706.051012598757
 42
0.4142135623731
 10
-2259.036148837174
 20
706.5510125987569
 42
0.4142135623731
 10
-2259.536148837174
 20
706.051012598757
 42
0.4142135623731
 10
-2259.036148837174
 20
705.551012598757
 42
0.4142135623731
  0
LWPOLYLINE
  5
2BB
330
1F
100
AcDbEntity
  8
092
  6
Continuous
 62
     7
370
     9
100
AcDbPolyline
 90
        4
 70
     1
 43
1.0
 10
-2417.034377639358
 20
931.0507050664062
 42
0.4142135623731
 10
-2417.534377639358
 20
931.5507050664062
 42
0.4142135623731
 10
-2418.034377639358
 20
931.0507050664062
 42
0.4142135623731
 10
-2417.534377639358
 20
930.5507050664062
 42
0.4142135623731
  0
LWPOLYLINE
  5
2BC
330
1F
100
AcDbEntity
  8
092
  6
Continuous
 62
     7
370
     9
100
AcDbPolyline
 90
        4
 70
     1
 43
1.0
 10
-2417.034377639358
 20
636.051092722128
 42
0.4142135623731
 10
-2417.534377639358
 20
636.551092722128
 42
0.4142135623731
 10
-2418.034377639358
 20
636.051092722128
 42
0.4142135623731
 10
-2417.534377639358
 20
635.551092722128
 42
0.4142135623731
  0
LWPOLYLINE
  5
2BD
330
1F
100
AcDbEntity
  8
092
  6
Continuous
 62
     7
370
     9
100
AcDbPolyline
 90
        4
 70
     1
 43
1.0
 10
1110.315855283995
 20
931.0507050664062
 42
0.4142135623731
 10
1109.815855283995
 20
931.5507050664062
 42
0.4142135623731
 10
1109.315855283995
 20
931.0507050664062
 42
0.4142135623731
 10
1109.815855283995
 20
930.5507050664062
 42
0.4142135623731
  0
LWPOLYLINE
  5
2BE
330
1F
100
AcDbEntity
  8
092
  6
Continuous
 62
     7
370
     9
100
AcDbPolyline
 90
        4
 70
     1
 43
1.0
 10
1110.315855283995
 20
681.0508912354156
 42
0.4142135623731
 10
1109.815855283995
 20
681.5508912354155
 42
0.4142135623731
 10
1109.315855283995
 20
681.0508912354156
 42
0.4142135623731
 10
1109.815855283995
 20
680.5508912354156
 42
0.4142135623731
  0
LWPOLYLINE
  5
2BF
330
1F
100
AcDbEntity
  8
092
  6
Continuous
 62
     7
370
     9
100
AcDbPolyline
 90
        4
 70
     1
 43
1.0
 10
1278.050330438208
 20
931.0507050664062
 42
0.4142135623731
 10
1277.550330438208
 20
931.5507050664062
 42
0.4142135623731
 10
1277.050330438208
 20
931.0507050664062
 42
0.4142135623731
 10
1277.550330438208
 20
930.5507050664062
 42
0.4142135623731
  0
LWPOLYLINE
  5
2C0
330
1F
100
AcDbEntity
  8
092
  6
Continuous
 62
     7
370
     9
100
AcDbPolyline
 90
        4
 70
     1
 43
1.0
 10
1278.050330438208
 20
611.0509713587867
 42
0.4142135623731
 10
1277.550330438208
 20
611.5509713587867
 42
0.4142135623731
 10
1277.050330438208
 20
611.0509713587867
 42
0.4142135623731
 10
1277.550330438208
 20
610.5509713587867
 42
0.4142135623731
  0
LINE
  5
2C1
330
1F
100
AcDbEntity
  8
通り芯
  6
Continuous
 62
     4
370
     9
100
AcDbLine
 10
-607.2941336024223
 20
734.5154157741265
 30
0.0
 11
882.705610709761
 21
722.0492490438082
 31
0.0
  0
LINE
  5
2C2
330
1F
100
AcDbEntity
  8
通り芯
  6
Continuous
 62
     4
370
     9
100
AcDbLine
 10
-607.2941336024223
 20
693.5155106432911
 30
0.0
 11
882.705610709761
 21
681.0488120278238
 31
0.0
  0
LINE
  5
2C3
330
1F
100
AcDbEntity
  8
通り芯
  6
Continuous
 62
     4
370
     9
100
AcDbLine
 10
-2105.291999021552
 20
706.0506626481531
 30
0.0
 11
-611.2942440077145
 21
693.5491113475949
 31
0.0
  0
LINE
  5
2C4
330
1F
100
AcDbEntity
  8
通り芯
  6
Continuous
 62
     4
370
     9
100
AcDbLine
 10
-2105.061031621395
 20
747.0491672632578
 30
0.0
 11
-611.2942440077145
 21
734.5490150516242
 31
0.0
  0
LINE
  5
2C5
330
1F
100
AcDbEntity
  8
092
  6
Continuous
 62
     7
370
     9
100
AcDbLine
 10
-2138.472915708328
 20
1313.540942498066
 30
0.0
 11
-1621.453440309031
 21
1194.852394767159
 31
0.0
  0
LINE
  5
2C6
330
1F
100
AcDbEntity
  8
092
  6
Continuous
 62
     7
370
     9
100
AcDbLine
 10
-1621.453440309031
 20
1272.422096208626
 30
0.0
 11
-1621.453440309031
 21
1313.540942498066
 31
0.0
  0
LINE
  5
2C7
330
1F
100
AcDbEntity
  8
092
  6
Continuous
 62
     7
370
     9
100
AcDbLine
 10
-1621.453440309031
 20
1194.852394767159
 30
0.0
 11
-1621.453440309031
 21
1272.422096208626
 31
0.0
  0
LINE
  5
2C8
330
1F
100
AcDbEntity
  8
092
  6
Continuous
 62
     7
370
     9
100
AcDbLine
 10
-1621.453440309031
 20
1313.540942498066
 30
0.0
 11
-2138.472915708328
 21
1313.540942498066
 31
0.0
  0
TEXT
  5
2C9
330
1F
100
AcDbEntity
  8
092
  6
Continuous
 62
     2
370
     9
100
AcDbText
 10
-2027.608891785375
 20
1332.730330072722
 30
0.0
 40
30.48
  1
勾配　１／１２０
 41
1.109375
  7
ＭＳ ゴシック
100
AcDbText
  0
ARC
  5
2CA
330
1F
100
AcDbEntity
  8
通り芯
  6
Continuous
 62
     4
370
     9
100
AcDbCircle
 10
1625.036011119882
 20
1809.181110363019
 30
0.0
 40
20.0
100
AcDbArc
 50
15.00000251679733
 51
90.0
  0
LINE
  5
2CB
330
1F
100
AcDbEntity
  8
通り芯
  6
Continuous
 62
     4
370
     9
100
AcDbLine
 10
1625.036011119882
 20
1829.181110363019
 30
0.0
 11
1469.774698971781
 21
1829.181110363019
 31
0.0
  0
LINE
  5
2CC
330
1F
100
AcDbEntity
  8
通り芯
  6
Continuous
 62
     4
370
     9
100
AcDbLine
 10
1644.354527418284
 20
1814.357492113662
 30
0.0
 11
1679.187941385512
 21
1684.357444228623
 31
0.0
  0
ARC
  5
2CD
330
1F
100
AcDbEntity
  8
通り芯
  6
Continuous
 62
     4
370
     9
100
AcDbCircle
 10
1625.035952513473
 20
1549.181189308106
 30
0.0
 40
20.0
100
AcDbArc
 50
270.0
 51
344.9999348243334
  0
LINE
  5
2CE
330
1F
100
AcDbEntity
  8
通り芯
  6
Continuous
 62
     4
370
     9
100
AcDbLine
 10
1644.354463150954
 20
1544.004786430667
 30
0.0
 11
1679.187941385512
 21
1674.004505491895
 31
0.0
  0
LINE
  5
2CF
330
1F
100
AcDbEntity
  8
通り芯
  6
Continuous
 62
     4
370
     9
100
AcDbLine
 10
1625.035952513473
 20
1529.181189308106
 30
0.0
 11
1469.774698971781
 21
1529.181189308106
 31
0.0
  0
LINE
  5
2D0
330
1F
100
AcDbEntity
  8
092
  6
Continuous
 62
     7
370
     9
100
AcDbLine
 10
1344.38774668572
 20
1921.181025055194
 30
0.0
 11
1344.38774668572
 21
1437.18127461593
 31
0.0
  0
TEXT
  5
2D1
330
1F
100
AcDbEntity
  8
092
  6
Continuous
 62
     2
370
   211
100
AcDbText
 10
1326.747940395753
 20
1646.681149835562
 30
0.0
 40
30.48
  1
242
 50
90.0
 41
1.083333333333333
  7
ＭＳ ゴシック
100
AcDbText
  0
LINE
  5
2D2
330
1F
100
AcDbEntity
  8
通り芯
  6
Continuous
 62
     4
370
     9
100
AcDbLine
 10
1752.774854976698
 20
1437.18127461593
 30
0.0
 11
1752.774854976698
 21
1921.181025055194
 31
0.0
  0
LINE
  5
2D3
330
1F
100
AcDbEntity
  8
通り芯
  6
JWW_DASHED1
 62
     4
370
     9
100
AcDbLine
 10
1748.774919546709
 20
1437.18127461593
 30
0.0
 11
1748.774919546709
 21
1921.181025055194
 31
0.0
  0
LWPOLYLINE
  5
2D4
330
1F
100
AcDbEntity
  8
092
  6
Continuous
 62
     7
370
     9
100
AcDbPolyline
 90
        4
 70
     1
 43
1.0
 10
1344.88774668572
 20
1437.18127461593
 42
0.4142135623731
 10
1344.38774668572
 20
1437.68127461593
 42
0.4142135623731
 10
1343.88774668572
 20
1437.18127461593
 42
0.4142135623731
 10
1344.38774668572
 20
1436.681274615929
 42
0.4142135623731
  0
CIRCLE
  5
2D5
330
1F
100
AcDbEntity
  8
通り芯
  6
Continuous
 62
     4
370
     9
100
AcDbCircle
 10
1642.774880898965
 20
1467.181140291455
 30
0.0
 40
8.500000171679787
  0
ARC
  5
2D6
330
1F
100
AcDbEntity
  8
通り芯
  6
Continuous
 62
     4
370
     9
100
AcDbCircle
 10
1438.774674463456
 20
1443.181177760914
 30
0.0
 40
6.000000201597176
100
AcDbArc
 50
180.0
 51
270.0
  0
ARC
  5
2D7
330
1F
100
AcDbEntity
  8
通り芯
  6
Continuous
 62
     4
370
     9
100
AcDbCircle
 10
1438.774674463456
 20
1471.18142567205
 30
0.0
 40
6.000000201597176
100
AcDbArc
 50
90.0
 51
180.0
  0
ARC
  5
2D8
330
1F
100
AcDbEntity
  8
通り芯
  6
JWW_DASHED1
 62
     4
370
     9
100
AcDbCircle
 10
1460.775019229609
 20
1480.181105414223
 30
0.0
 40
6.000000201597176
100
AcDbArc
 50
270.0
 51
0.0
  0
ARC
  5
2D9
330
1F
100
AcDbEntity
  8
通り芯
  6
Continuous
 62
     4
370
     9
100
AcDbCircle
 10
1469.774698971781
 20
1523.181286163122
 30
0.0
 40
6.000000201597176
100
AcDbArc
 50
90.0
 51
180.0
  0
ARC
  5
2DA
330
1F
100
AcDbEntity
  8
通り芯
  6
JWW_DASHED1
 62
     4
370
     9
100
AcDbCircle
 10
1438.775024414062
 20
1443.181177760914
 30
0.0
 40
3.000000100798588
100
AcDbArc
 50
180.0
 51
270.0
  0
ARC
  5
2DB
330
1F
100
AcDbEntity
  8
通り芯
  6
JWW_DASHED1
 62
     4
370
     9
100
AcDbCircle
 10
1438.775024414062
 20
1471.181075721444
 30
0.0
 40
3.000000100798588
100
AcDbArc
 50
90.0
 51
180.0
  0
ARC
  5
2DC
330
1F
100
AcDbEntity
  8
通り芯
  6
JWW_DASHED1
 62
     4
370
     9
100
AcDbCircle
 10
1469.775048922388
 20
1523.181286163122
 30
0.0
 40
3.000000100798588
100
AcDbArc
 50
90.0
 51
180.0
  0
ARC
  5
2DD
330
1F
100
AcDbEntity
  8
通り芯
  6
Continuous
 62
     4
370
     9
100
AcDbCircle
 10
1460.774669279003
 20
1480.181455364829
 30
0.0
 40
3.000000100798588
100
AcDbArc
 50
270.0
 51
0.0
  0
CIRCLE
  5
2DE
330
1F
100
AcDbEntity
  8
通り芯
  6
Continuous
 62
     4
370
     9
100
AcDbCircle
 10
1502.774691195101
 20
1467.181140291455
 30
0.0
 40
8.499998804685232
  0
LINE
  5
2DF
330
1F
100
AcDbEntity
  8
通り芯
  6
JWW_DASHED1
 62
     4
370
     9
100
AcDbLine
 10
1438.775024414062
 20
1440.181051213118
 30
0.0
 11
1448.774862989035
 21
1440.181051213118
 31
0.0
  0
LINE
  5
2E0
330
1F
100
AcDbEntity
  8
通り芯
  6
JWW_DASHED1
 62
     4
370
     9
100
AcDbLine
 10
1435.774897866268
 20
1443.181177760914
 30
0.0
 11
1435.774897866268
 21
1471.181075721444
 31
0.0
  0
LINE
  5
2E1
330
1F
100
AcDbEntity
  8
通り芯
  6
Continuous
 62
     4
370
     9
100
AcDbLine
 10
1438.774674463456
 20
1437.18127461593
 30
0.0
 11
1448.774862989035
 21
1437.18127461593
 31
0.0
  0
LINE
  5
2E2
330
1F
100
AcDbEntity
  8
通り芯
  6
Continuous
 62
     4
370
     9
100
AcDbLine
 10
1432.774771318472
 20
1443.181177760914
 30
0.0
 11
1432.774771318472
 21
1471.18142567205
 31
0.0
  0
LINE
  5
2E3
330
1F
100
AcDbEntity
  8
通り芯
  6
JWW_DASHED1
 62
     4
370
     9
100
AcDbLine
 10
1438.775024414062
 20
1474.181202269239
 30
0.0
 11
1460.775019229609
 21
1474.181202269239
 31
0.0
  0
LINE
  5
2E4
330
1F
100
AcDbEntity
  8
通り芯
  6
Continuous
 62
     4
370
     9
100
AcDbLine
 10
1460.774669279003
 20
1477.181328817034
 30
0.0
 11
1438.774674463456
 21
1477.181328817034
 31
0.0
  0
LINE
  5
2E5
330
1F
100
AcDbEntity
  8
通り芯
  6
JWW_CENTER2
 62
     4
370
     9
100
AcDbLine
 10
1516.220493390293
 20
1467.181140291455
 30
0.0
 11
1489.328888999909
 21
1467.181140291455
 31
0.0
  0
LINE
  5
2E6
330
1F
100
AcDbEntity
  8
通り芯
  6
JWW_CENTER2
 62
     4
370
     9
100
AcDbLine
 10
1502.774691195101
 20
1453.734988145656
 30
0.0
 11
1502.774691195101
 21
1480.626942486647
 31
0.0
  0
LINE
  5
2E7
330
1F
100
AcDbEntity
  8
通り芯
  6
JWW_CENTER2
 62
     4
370
     9
100
AcDbLine
 10
1642.774880898965
 20
1452.742178275588
 30
0.0
 11
1642.774880898965
 21
1481.620452257928
 31
0.0
  0
LINE
  5
2E8
330
1F
100
AcDbEntity
  8
通り芯
  6
JWW_CENTER2
 62
     4
370
     9
100
AcDbLine
 10
1628.335568932492
 20
1467.181140291455
 30
0.0
 11
1657.214192865438
 21
1467.181140291455
 31
0.0
  0
LINE
  5
2E9
330
1F
100
AcDbEntity
  8
通り芯
  6
JWW_DASHED1
 62
     4
370
     9
100
AcDbLine
 10
1466.774922374593
 20
1480.181105414223
 30
0.0
 11
1466.774922374593
 21
1523.181286163122
 31
0.0
  0
LINE
  5
2EA
330
1F
100
AcDbEntity
  8
通り芯
  6
Continuous
 62
     4
370
     9
100
AcDbLine
 10
1463.774795826798
 20
1523.181286163122
 30
0.0
 11
1463.774795826798
 21
1480.181455364829
 31
0.0
  0
LINE
  5
2EB
330
1F
100
AcDbEntity
  8
092
  6
Continuous
 62
     7
370
     9
100
AcDbLine
 10
1402.774905642947
 20
1437.18127461593
 30
0.0
 11
1338.387843540736
 21
1437.18127461593
 31
0.0
  0
LINE
  5
2EC
330
1F
100
AcDbEntity
  8
通り芯
  6
Continuous
 62
     4
370
     9
100
AcDbLine
 10
1448.774862989035
 20
1437.18127461593
 30
0.0
 11
1752.774854976698
 21
1437.18127461593
 31
0.0
  0
LINE
  5
2ED
330
1F
100
AcDbEntity
  8
通り芯
  6
JWW_DASHED1
 62
     4
370
     9
100
AcDbLine
 10
1448.774862989035
 20
1440.181051213118
 30
0.0
 11
1448.774862989035
 21
1437.18127461593
 31
0.0
  0
LWPOLYLINE
  5
2EE
330
1F
100
AcDbEntity
  8
092
  6
Continuous
 62
     7
370
     9
100
AcDbPolyline
 90
        4
 70
     1
 43
1.0
 10
1344.88774668572
 20
1921.181025055194
 42
0.4142135623731
 10
1344.38774668572
 20
1921.681025055194
 42
0.4142135623731
 10
1343.88774668572
 20
1921.181025055194
 42
0.4142135623731
 10
1344.38774668572
 20
1920.681025055194
 42
0.4142135623731
  0
CIRCLE
  5
2EF
330
1F
100
AcDbEntity
  8
通り芯
  6
Continuous
 62
     4
370
     9
100
AcDbCircle
 10
1642.774880898965
 20
1891.181509330276
 30
0.0
 40
8.500000171679787
  0
ARC
  5
2F0
330
1F
100
AcDbEntity
  8
通り芯
  6
Continuous
 62
     4
370
     9
100
AcDbCircle
 10
1469.774698971781
 20
1835.181013508003
 30
0.0
 40
6.000000201597176
100
AcDbArc
 50
180.0
 51
270.0
  0
ARC
  5
2F1
330
1F
100
AcDbEntity
  8
通り芯
  6
JWW_DASHED1
 62
     4
370
     9
100
AcDbCircle
 10
1460.775019229609
 20
1878.180844306296
 30
0.0
 40
6.000000201597176
100
AcDbArc
 50
0.0
 51
90.0
  0
ARC
  5
2F2
330
1F
100
AcDbEntity
  8
通り芯
  6
Continuous
 62
     4
370
     9
100
AcDbCircle
 10
1438.774674463456
 20
1887.180873999074
 30
0.0
 40
6.000000201597176
100
AcDbArc
 50
180.0
 51
270.0
  0
ARC
  5
2F3
330
1F
100
AcDbEntity
  8
通り芯
  6
Continuous
 62
     4
370
     9
100
AcDbCircle
 10
1438.774674463456
 20
1915.181121910211
 30
0.0
 40
6.000000201597176
100
AcDbArc
 50
90.0
 51
180.0
  0
ARC
  5
2F4
330
1F
100
AcDbEntity
  8
通り芯
  6
JWW_DASHED1
 62
     4
370
     9
100
AcDbCircle
 10
1438.775024414062
 20
1915.181121910211
 30
0.0
 40
3.000000100798588
100
AcDbArc
 50
90.0
 51
180.0
  0
ARC
  5
2F5
330
1F
100
AcDbEntity
  8
通り芯
  6
JWW_DASHED1
 62
     4
370
     9
100
AcDbCircle
 10
1438.775024414062
 20
1887.180873999074
 30
0.0
 40
3.000000100798588
100
AcDbArc
 50
180.0
 51
270.0
  0
ARC
  5
2F6
330
1F
100
AcDbEntity
  8
通り芯
  6
Continuous
 62
     4
370
     9
100
AcDbCircle
 10
1460.774669279003
 20
1878.180844306296
 30
0.0
 40
3.000000100798588
100
AcDbArc
 50
0.0
 51
90.0
  0
ARC
  5
2F7
330
1F
100
AcDbEntity
  8
通り芯
  6
JWW_DASHED1
 62
     4
370
     9
100
AcDbCircle
 10
1469.775048922388
 20
1835.181013508003
 30
0.0
 40
3.000000100798588
100
AcDbArc
 50
180.0
 51
270.0
  0
CIRCLE
  5
2F8
330
1F
100
AcDbEntity
  8
通り芯
  6
Continuous
 62
     4
370
     9
100
AcDbCircle
 10
1502.775041145708
 20
1891.180809429063
 30
0.0
 40
8.499998804685232
  0
LINE
  5
2F9
330
1F
100
AcDbEntity
  8
通り芯
  6
JWW_DASHED1
 62
     4
370
     9
100
AcDbLine
 10
1460.775019229609
 20
1884.180747451279
 30
0.0
 11
1438.775024414062
 21
1884.180747451279
 31
0.0
  0
LINE
  5
2FA
330
1F
100
AcDbEntity
  8
通り芯
  6
Continuous
 62
     4
370
     9
100
AcDbLine
 10
1438.774674463456
 20
1881.180970854091
 30
0.0
 11
1460.774669279003
 21
1881.180970854091
 31
0.0
  0
LINE
  5
2FB
330
1F
100
AcDbEntity
  8
通り芯
  6
JWW_CENTER2
 62
     4
370
     9
100
AcDbLine
 10
1502.775041145708
 20
1877.735007233871
 30
0.0
 11
1502.775041145708
 21
1904.626961574861
 31
0.0
  0
LINE
  5
2FC
330
1F
100
AcDbEntity
  8
通り芯
  6
JWW_CENTER2
 62
     4
370
     9
100
AcDbLine
 10
1642.774880898965
 20
1905.620471346142
 30
0.0
 11
1642.774880898965
 21
1876.741847413197
 31
0.0
  0
LINE
  5
2FD
330
1F
100
AcDbEntity
  8
通り芯
  6
JWW_CENTER2
 62
     4
370
     9
100
AcDbLine
 10
1628.335568932492
 20
1891.181509330276
 30
0.0
 11
1657.682776727271
 21
1891.181509330276
 31
0.0
  0
LINE
  5
2FE
330
1F
100
AcDbEntity
  8
通り芯
  6
JWW_CENTER2
 62
     4
370
     9
100
AcDbLine
 10
1516.2208433409
 20
1891.180809429063
 30
0.0
 11
1489.329238950515
 21
1891.180809429063
 31
0.0
  0
LINE
  5
2FF
330
1F
100
AcDbEntity
  8
通り芯
  6
Continuous
 62
     4
370
     9
100
AcDbLine
 10
1463.774795826798
 20
1835.181013508003
 30
0.0
 11
1463.774795826798
 21
1878.180844306296
 31
0.0
  0
LINE
  5
300
330
1F
100
AcDbEntity
  8
通り芯
  6
JWW_DASHED1
 62
     4
370
     9
100
AcDbLine
 10
1466.774922374593
 20
1878.180844306296
 30
0.0
 11
1466.774922374593
 21
1835.181013508003
 31
0.0
  0
LINE
  5
301
330
1F
100
AcDbEntity
  8
通り芯
  6
Continuous
 62
     4
370
     9
100
AcDbLine
 10
1432.774771318472
 20
1887.180873999074
 30
0.0
 11
1432.774771318472
 21
1915.181121910211
 31
0.0
  0
LINE
  5
302
330
1F
100
AcDbEntity
  8
通り芯
  6
Continuous
 62
     4
370
     9
100
AcDbLine
 10
1438.774674463456
 20
1921.181025055194
 30
0.0
 11
1448.774862989035
 21
1921.181025055194
 31
0.0
  0
LINE
  5
303
330
1F
100
AcDbEntity
  8
通り芯
  6
JWW_DASHED1
 62
     4
370
     9
100
AcDbLine
 10
1438.775024414062
 20
1918.181248458005
 30
0.0
 11
1448.774862989035
 21
1918.181248458005
 31
0.0
  0
LINE
  5
304
330
1F
100
AcDbEntity
  8
通り芯
  6
JWW_DASHED1
 62
     4
370
     9
100
AcDbLine
 10
1435.774897866268
 20
1915.181121910211
 30
0.0
 11
1435.774897866268
 21
1887.180873999074
 31
0.0
  0
LINE
  5
305
330
1F
100
AcDbEntity
  8
092
  6
Continuous
 62
     7
370
     9
100
AcDbLine
 10
1402.774905642947
 20
1921.181025055194
 30
0.0
 11
1338.387843540736
 21
1921.181025055194
 31
0.0
  0
LINE
  5
306
330
1F
100
AcDbEntity
  8
通り芯
  6
Continuous
 62
     4
370
     9
100
AcDbLine
 10
1448.774862989035
 20
1921.181025055194
 30
0.0
 11
1752.774854976698
 21
1921.181025055194
 31
0.0
  0
LINE
  5
307
330
1F
100
AcDbEntity
  8
通り芯
  6
JWW_DASHED1
 62
     4
370
     9
100
AcDbLine
 10
1448.774862989035
 20
1918.181248458005
 30
0.0
 11
1448.774862989035
 21
1921.181025055194
 31
0.0
  0
LINE
  5
308
330
1F
100
AcDbEntity
  8
通り芯
  6
Continuous
 62
     4
370
     9
100
AcDbLine
 10
-2109.294384105785
 20
1679.180974860259
 30
0.0
 11
886.7055461397501
 21
1679.180974860259
 31
0.0
  0
LINE
  5
309
330
1F
100
AcDbEntity
  8
092
  6
Continuous
 62
     7
370
     9
100
AcDbLine
 10
-2190.979854627926
 20
1679.180974860259
 30
0.0
 11
-2267.246689962144
 21
1703.452849011894
 31
0.0
  0
LINE
  5
30A
330
1F
100
AcDbEntity
  8
092
  6
Continuous
 62
     7
370
     9
100
AcDbLine
 10
-2267.246689962144
 20
1703.452849011894
 30
0.0
 11
-2267.246689962144
 21
1653.17474550381
 31
0.0
  0
LINE
  5
30B
330
1F
100
AcDbEntity
  8
092
  6
Continuous
 62
     7
370
     9
100
AcDbLine
 10
-2190.979854627926
 20
1679.180974860259
 30
0.0
 11
-2354.716144105182
 21
1679.180974860259
 31
0.0
  0
LINE
  5
30C
330
1F
100
AcDbEntity
  8
092
  6
Continuous
 62
     7
370
     9
100
AcDbLine
 10
964.3910812319012
 20
1679.180974860259
 30
0.0
 11
1040.65791656612
 21
1703.452849011894
 31
0.0
  0
LINE
  5
30D
330
1F
100
AcDbEntity
  8
092
  6
Continuous
 62
     7
370
     9
100
AcDbLine
 10
1040.65791656612
 20
1703.452849011894
 30
0.0
 11
1040.65791656612
 21
1653.17474550381
 31
0.0
  0
LINE
  5
30E
330
1F
100
AcDbEntity
  8
092
  6
Continuous
 62
     7
370
     9
100
AcDbLine
 10
964.3910812319012
 20
1679.180974860259
 30
0.0
 11
1128.127370709158
 21
1679.180974860259
 31
0.0
  0
LINE
  5
30F
330
1F
100
AcDbEntity
  8
通り芯
  6
JWW_CENTER2
 62
     4
370
     9
100
AcDbLine
 10
1726.230751538369
 20
1749.271881894525
 30
0.0
 11
1699.338797197378
 21
1749.271881894525
 31
0.0
  0
LINE
  5
310
330
1F
100
AcDbEntity
  8
通り芯
  6
JWW_CENTER2
 62
     4
370
     9
100
AcDbLine
 10
1712.784599392571
 20
1735.826079699334
 30
0.0
 11
1712.784599392571
 21
1762.717684089717
 31
0.0
  0
LINE
  5
311
330
1F
100
AcDbEntity
  8
通り芯
  6
JWW_CENTER2
 62
     4
370
     9
100
AcDbLine
 10
1726.230751538369
 20
1609.272392091874
 30
0.0
 11
1699.338797197378
 21
1609.272392091874
 31
0.0
  0
LINE
  5
312
330
1F
100
AcDbEntity
  8
通り芯
  6
JWW_CENTER2
 62
     4
370
     9
100
AcDbLine
 10
1712.784599392571
 20
1595.826589896682
 30
0.0
 11
1712.784599392571
 21
1622.718194287066
 31
0.0
  0
LINE
  5
313
330
1F
100
AcDbEntity
  8
躯体
  6
JWW_CENTER2
 62
     7
370
     9
100
AcDbLine
 10
1409.371824522276
 20
1679.180974860259
 30
0.0
 11
1786.100651214481
 21
1679.180974860259
 31
0.0
  0
CIRCLE
  5
314
330
1F
100
AcDbEntity
  8
通り芯
  6
Continuous
 62
     4
370
     9
100
AcDbCircle
 10
1712.784599392571
 20
1749.271881894525
 30
0.0
 40
8.499998804685232
  0
CIRCLE
  5
315
330
1F
100
AcDbEntity
  8
通り芯
  6
Continuous
 62
     4
370
     9
100
AcDbCircle
 10
1712.784599392571
 20
1609.272392091874
 30
0.0
 40
8.499998804685232
  0
ARC
  5
316
330
1F
100
AcDbEntity
  8
通り芯
  6
Continuous
 62
     4
370
     9
100
AcDbCircle
 10
1659.869618066029
 20
1679.180974860259
 30
0.0
 40
19.99999976066088
100
AcDbArc
 50
344.9996032714844
 51
15.00036621093749
  0
ARC
  5
317
330
1F
100
AcDbEntity
  8
通り芯
  6
JWW_DASHED1
 62
     4
370
     9
100
AcDbCircle
 10
1659.869268115423
 20
1679.180974860259
 30
0.0
 40
23.00000054495675
100
AcDbArc
 50
345.0006408691406
 51
14.9995880126953
  0
ARC
  5
318
330
1F
100
AcDbEntity
  8
通り芯
  6
Continuous
 62
     4
370
     9
100
AcDbCircle
 10
1633.987621174816
 20
1679.180974860259
 30
0.0
 40
20.00000112765544
100
AcDbArc
 50
344.9998779296876
 51
15.00012207031255
  0
TEXT
  5
319
330
1F
100
AcDbEntity
  8
092
  6
Continuous
 62
     2
370
     9
100
AcDbText
 10
-2345.569479879725
 20
1697.56827564528
 30
0.0
 40
30.48
  1
Ａ
 41
0.9999999999999998
  7
ＭＳ ゴシック
100
AcDbText
  0
TEXT
  5
31A
330
1F
100
AcDbEntity
  8
092
  6
Continuous
 62
     2
370
     9
100
AcDbText
 10
1078.980684611788
 20
1697.56827564528
 30
0.0
 40
30.48
  1
Ｂ
 41
0.9999999999999998
  7
ＭＳ ゴシック
100
AcDbText
  0
LINE
  5
31B
330
1F
100
AcDbEntity
  8
通り芯
  6
Continuous
 62
     4
370
     9
100
AcDbLine
 10
-2109.294384105785
 20
1921.181025055194
 30
0.0
 11
886.7055461397501
 21
1921.181025055194
 31
0.0
  0
LINE
  5
31C
330
1F
100
AcDbEntity
  8
通り芯
  6
Continuous
 62
     4
370
     9
100
AcDbLine
 10
-2109.294384105785
 20
1829.181110363019
 30
0.0
 11
886.7055461397501
 21
1829.181110363019
 31
0.0
  0
LINE
  5
31D
330
1F
100
AcDbEntity
  8
通り芯
  6
Continuous
 62
     4
370
     9
100
AcDbLine
 10
-2109.294384105785
 20
1881.180970854091
 30
0.0
 11
886.7055461397501
 21
1881.180970854091
 31
0.0
  0
LINE
  5
31E
330
1F
100
AcDbEntity
  8
通り芯
  6
Continuous
 62
     4
370
     9
100
AcDbLine
 10
886.7055461397501
 20
1437.18127461593
 30
0.0
 11
-2109.294384105785
 21
1437.18127461593
 31
0.0
  0
LINE
  5
31F
330
1F
100
AcDbEntity
  8
通り芯
  6
Continuous
 62
     4
370
     9
100
AcDbLine
 10
886.7055461397501
 20
1477.181328817034
 30
0.0
 11
-2109.294384105785
 21
1477.181328817034
 31
0.0
  0
LINE
  5
320
330
1F
100
AcDbEntity
  8
通り芯
  6
Continuous
 62
     4
370
     9
100
AcDbLine
 10
886.7055461397501
 20
1529.181189308106
 30
0.0
 11
-2109.294384105785
 21
1529.181189308106
 31
0.0
  0
LINE
  5
321
330
1F
100
AcDbEntity
  8
通り芯
  6
Continuous
 62
     4
370
     9
100
AcDbLine
 10
-2109.294384105785
 20
1437.18127461593
 30
0.0
 11
-2109.294384105785
 21
1921.181025055194
 31
0.0
  0
LINE
  5
322
330
1F
100
AcDbEntity
  8
通り芯
  6
Continuous
 62
     4
370
     9
100
AcDbLine
 10
886.7055461397501
 20
1921.181025055194
 30
0.0
 11
886.7055461397501
 21
1437.18127461593
 31
0.0
  0
LINE
  5
323
330
1F
100
AcDbEntity
  8
躯体
  6
JWW_DASHED1
 62
     7
370
     9
100
AcDbLine
 10
796.7055991625693
 20
1921.181025055194
 30
0.0
 11
796.7055991625693
 21
1437.18127461593
 31
0.0
  0
LINE
  5
324
330
1F
100
AcDbEntity
  8
躯体
  6
JWW_DASHED1
 62
     7
370
     9
100
AcDbLine
 10
882.705610709761
 20
1921.181025055194
 30
0.0
 11
882.705610709761
 21
1437.18127461593
 31
0.0
  0
LINE
  5
325
330
1F
100
AcDbEntity
  8
躯体
  6
JWW_DASHED1
 62
     7
370
     9
100
AcDbLine
 10
-2105.294448675796
 20
1437.18127461593
 30
0.0
 11
-2105.294448675796
 21
1921.181025055194
 31
0.0
  0
LINE
  5
326
330
1F
100
AcDbEntity
  8
躯体
  6
JWW_DASHED1
 62
     7
370
     9
100
AcDbLine
 10
-2019.294087177998
 20
1437.18127461593
 30
0.0
 11
-2019.294087177998
 21
1921.181025055194
 31
0.0
  0
LINE
  5
327
330
1F
100
AcDbEntity
  8
躯体
  6
JWW_DASHED1
 62
     7
370
     9
100
AcDbLine
 10
-607.2941336024223
 20
1921.181025055194
 30
0.0
 11
-607.2941336024223
 21
1437.18127461593
 31
0.0
  0
LINE
  5
328
330
1F
100
AcDbEntity
  8
躯体
  6
JWW_DASHED1
 62
     7
370
     9
100
AcDbLine
 10
-677.294053479051
 20
1921.181025055194
 30
0.0
 11
-677.294053479051
 21
1437.18127461593
 31
0.0
  0
LINE
  5
329
330
1F
100
AcDbEntity
  8
躯体
  6
JWW_DASHED1
 62
     7
370
     9
100
AcDbLine
 10
-611.2942440077145
 20
1921.181025055194
 30
0.0
 11
-611.2942440077145
 21
1437.18127461593
 31
0.0
  0
LINE
  5
32A
330
1F
100
AcDbEntity
  8
通り芯
  6
JWW_DASHED1
 62
     4
370
     9
100
AcDbLine
 10
1625.03682545198
 20
1526.181412710917
 30
0.0
 11
1469.775048922388
 21
1526.181412710917
 31
0.0
  0
LINE
  5
32B
330
1F
100
AcDbEntity
  8
通り芯
  6
JWW_DASHED1
 62
     4
370
     9
100
AcDbLine
 10
1647.253143490702
 20
1543.228664370668
 30
0.0
 11
1682.085882356268
 21
1673.228315047126
 31
0.0
  0
ARC
  5
32C
330
1F
100
AcDbEntity
  8
通り芯
  6
JWW_DASHED1
 62
     4
370
     9
100
AcDbCircle
 10
1625.03682545198
 20
1549.181412710917
 30
0.0
 40
23.0
100
AcDbArc
 50
270.0
 51
345.0002313285474
  0
LINE
  5
32D
330
1F
100
AcDbEntity
  8
通り芯
  6
JWW_DASHED1
 62
     4
370
     9
100
AcDbLine
 10
1625.037102774483
 20
1832.180886960208
 30
0.0
 11
1469.774698971781
 21
1832.180886960208
 31
0.0
  0
LINE
  5
32E
330
1F
100
AcDbEntity
  8
通り芯
  6
JWW_DASHED1
 62
     4
370
     9
100
AcDbLine
 10
1647.253451618047
 20
1815.133520332178
 30
0.0
 11
1682.085532405662
 21
1685.133634673392
 31
0.0
  0
ARC
  5
32F
330
1F
100
AcDbEntity
  8
通り芯
  6
JWW_DASHED1
 62
     4
370
     9
100
AcDbCircle
 10
1625.037102774483
 20
1809.180886960208
 30
0.0
 40
23.0
100
AcDbArc
 50
14.99947216901074
 51
90.00000000000001
  0
LINE
  5
330
330
1F
100
AcDbEntity
  8
通り芯
  6
Continuous
 62
     4
370
     9
100
AcDbLine
 10
1653.306294444905
 20
1684.357444228623
 30
0.0
 11
1614.500545026395
 21
1829.181110363019
 31
0.0
  0
LINE
  5
331
330
1F
100
AcDbEntity
  8
通り芯
  6
Continuous
 62
     4
370
     9
100
AcDbLine
 10
1653.306294444905
 20
1674.004505491895
 30
0.0
 11
1614.500495581876
 21
1529.181189308106
 31
0.0
  0
CIRCLE
  5
332
330
1F
100
AcDbEntity
  8
躯体
  6
JWW_DASHED1
 62
     7
370
     9
100
AcDbCircle
 10
-2052.294079401318
 20
1891.18115937967
 30
0.0
 40
13.00000066462631
  0
CIRCLE
  5
333
330
1F
100
AcDbEntity
  8
躯体
  6
JWW_DASHED1
 62
     7
370
     9
100
AcDbCircle
 10
-2052.294079401318
 20
1467.181004788694
 30
0.0
 40
13.00000066462631
  0
CIRCLE
  5
334
330
1F
100
AcDbEntity
  8
躯体
  6
JWW_DASHED1
 62
     7
370
     9
100
AcDbCircle
 10
829.7055991625695
 20
1891.18115937967
 30
0.0
 40
13.00000066462631
  0
CIRCLE
  5
335
330
1F
100
AcDbEntity
  8
躯体
  6
JWW_DASHED1
 62
     7
370
     9
100
AcDbCircle
 10
829.7055991625695
 20
1467.181004788694
 30
0.0
 40
13.00000066462631
  0
ENDSEC
  0
SECTION
  2
OBJECTS
  0
DICTIONARY
  5
C
330
0
100
AcDbDictionary
281
     1
  3
ACAD_GROUP
350
D
  3
ACAD_LAYOUT
350
1A
  3
ACAD_MLEADERSTYLE
350
337
  3
ACAD_MLINESTYLE
350
17
  3
ACAD_PLOTSETTINGS
350
19
  3
ACAD_PLOTSTYLENAME
350
E
  3
ACAD_TABLESTYLE
350
336
  3
ACAD_VISUALSTYLE
350
2A
  3
AcDbVariableDictionary
350
338
  0
DICTIONARY
  5
D
102
{ACAD_REACTORS
330
C
102
}
330
C
100
AcDbDictionary
281
     1
  0
DICTIONARY
  5
1A
102
{ACAD_REACTORS
330
C
102
}
330
C
100
AcDbDictionary
281
     1
  3
Layout1
350
1E
  3
Layout2
350
26
  3
Model
350
22
  0
DICTIONARY
  5
337
102
{ACAD_REACTORS
330
C
102
}
330
C
100
AcDbDictionary
281
     1
  0
DICTIONARY
  5
17
102
{ACAD_REACTORS
330
C
102
}
330
C
100
AcDbDictionary
281
     1
  3
Standard
350
18
  0
DICTIONARY
  5
19
102
{ACAD_REACTORS
330
C
102
}
330
C
100
AcDbDictionary
281
     1
  0
ACDBDICTIONARYWDFLT
  5
E
102
{ACAD_REACTORS
330
C
102
}
330
C
100
AcDbDictionary
281
     1
  3
Normal
350
F
100
AcDbDictionaryWithDefault
340
F
  0
DICTIONARY
  5
336
102
{ACAD_REACTORS
330
C
102
}
330
C
100
AcDbDictionary
281
     1
  0
DICTIONARY
  5
2A
102
{ACAD_REACTORS
330
C
102
}
330
C
100
AcDbDictionary
281
     1
  3
2dWireframe
350
2F
  3
3D Hidden
350
31
  3
3dWireframe
350
30
  3
Basic
350
32
  3
Brighten
350
36
  3
ColorChange
350
3A
  3
Conceptual
350
34
  3
Dim
350
35
  3
Facepattern
350
39
  3
Flat
350
2B
  3
FlatWithEdges
350
2C
  3
Gouraud
350
2D
  3
GouraudWithEdges
350
2E
  3
Linepattern
350
38
  3
Realistic
350
33
  3
Thicken
350
37
  0
DICTIONARY
  5
338
102
{ACAD_REACTORS
330
C
102
}
330
C
100
AcDbDictionary
281
     1
  3
PSOLHEIGHT
350
33A
  3
PSOLWIDTH
350
339
  0
LAYOUT
  5
1E
102
{ACAD_REACTORS
330
1A
102
}
102
{ACAD_XDICTIONARY
360
33B
102
}
330
1A
100
AcDbPlotSettings
  1

  2
none_device
  4

  6

 40
0.0
 41
0.0
 42
0.0
 43
0.0
 44
0.0
 45
0.0
 46
0.0
 47
0.0
 48
0.0
 49
0.0
140
0.0
141
0.0
142
1.0
143
1.0
 70
   688
 72
     0
 73
     0
 74
     5
  7

 75
    16
147
1.0
148
0.0
149
0.0
100
AcDbLayout
  1
Layout1
 70
     1
 71
     1
 10
0.0
 20
0.0
 11
420.0
 21
297.0
 12
0.0
 22
0.0
 32
0.0
 14
1.000000000000000E+20
 24
1.000000000000000E+20
 34
1.000000000000000E+20
 15
-1.000000000000000E+20
 25
-1.000000000000000E+20
 35
-1.000000000000000E+20
146
0.0
 13
0.0
 23
0.0
 33
0.0
 16
1.0
 26
0.0
 36
0.0
 17
0.0
 27
1.0
 37
0.0
 76
     0
330
1B
  0
LAYOUT
  5
26
102
{ACAD_REACTORS
330
1A
102
}
102
{ACAD_XDICTIONARY
360
33F
102
}
330
1A
100
AcDbPlotSettings
  1

  2
none_device
  4

  6

 40
0.0
 41
0.0
 42
0.0
 43
0.0
 44
0.0
 45
0.0
 46
0.0
 47
0.0
 48
0.0
 49
0.0
140
0.0
141
0.0
142
1.0
143
1.0
 70
   688
 72
     0
 73
     0
 74
     5
  7

 75
    16
147
1.0
148
0.0
149
0.0
100
AcDbLayout
  1
Layout2
 70
     1
 71
     2
 10
0.0
 20
0.0
 11
0.0
 21
0.0
 12
0.0
 22
0.0
 32
0.0
 14
0.0
 24
0.0
 34
0.0
 15
0.0
 25
0.0
 35
0.0
146
0.0
 13
0.0
 23
0.0
 33
0.0
 16
1.0
 26
0.0
 36
0.0
 17
0.0
 27
1.0
 37
0.0
 76
     0
330
23
  0
LAYOUT
  5
22
102
{ACAD_REACTORS
330
1A
102
}
102
{ACAD_XDICTIONARY
360
33D
102
}
330
1A
100
AcDbPlotSettings
  1

  2
none_device
  4

  6

 40
0.0
 41
0.0
 42
0.0
 43
0.0
 44
0.0
 45
0.0
 46
0.0
 47
0.0
 48
0.0
 49
0.0
140
0.0
141
0.0
142
1.0
143
1.0
 70
  1712
 72
     0
 73
     0
 74
     0
  7

 75
     0
147
1.0
148
0.0
149
0.0
100
AcDbLayout
  1
Model
 70
     1
 71
     0
 10
-2970.0
 20
-2100.0
 11
2970.0
 21
2100.0
 12
0.0
 22
0.0
 32
0.0
 14
-2970.0
 24
-2100.0
 34
0.0
 15
2970.0
 25
2100.0
 35
0.0
146
0.0
 13
0.0
 23
0.0
 33
0.0
 16
1.0
 26
0.0
 36
0.0
 17
0.0
 27
1.0
 37
0.0
 76
     0
330
1F
331
29
  0
MLINESTYLE
  5
18
102
{ACAD_REACTORS
330
17
102
}
330
17
100
AcDbMlineStyle
  2
Standard
 70
     0
  3

 62
   256
 51
90.0
 52
90.0
 71
     2
 49
0.5
 62
   256
  6
BYLAYER
 49
-0.5
 62
   256
  6
BYLAYER
  0
ACDBPLACEHOLDER
  5
F
102
{ACAD_REACTORS
330
E
102
}
330
E
  0
VISUALSTYLE
  5
2F
102
{ACAD_REACTORS
330
2A
102
}
330
2A
100
AcDbVisualStyle
  2
2dWireframe
 70
     4
 71
     0
 72
     2
 73
     0
 90
        0
 40
-0.6
 41
-30.0
 62
     5
 63
     7
 74
     1
 91
        4
 64
     7
 65
   257
 75
     1
175
     1
 42
1.0
 92
        0
 66
   257
 43
1.0
 76
     1
 77
     6
 78
     2
 67
     7
 79
     5
170
     0
171
     0
290
     0
174
     0
 93
        1
 44
0.0
173
     0
291
     0
 45
0.0
1001
ACAD
1000
AcDbSavedByObjectVersion
1070
     0
  0
VISUALSTYLE
  5
31
102
{ACAD_REACTORS
330
2A
102
}
330
2A
100
AcDbVisualStyle
  2
3D Hidden
 70
     6
 71
     1
 72
     2
 73
     2
 90
        0
 40
-0.6
 41
-30.0
 62
     5
 63
     7
 74
     2
 91
        2
 64
     7
 65
   257
 75
     2
175
     1
 42
40.0
 92
        0
 66
   257
 43
1.0
 76
     1
 77
     6
 78
     2
 67
     7
 79
     3
170
     0
171
     0
290
     0
174
     0
 93
        1
 44
0.0
173
     0
291
     0
 45
0.0
1001
ACAD
1000
AcDbSavedByObjectVersion
1070
     0
  0
VISUALSTYLE
  5
30
102
{ACAD_REACTORS
330
2A
102
}
330
2A
100
AcDbVisualStyle
  2
3dWireframe
 70
     5
 71
     0
 72
     2
 73
     0
 90
        0
 40
-0.6
 41
-30.0
 62
     5
 63
     7
 74
     1
 91
        4
 64
     7
 65
   257
 75
     1
175
     1
 42
1.0
 92
        0
 66
   257
 43
1.0
 76
     1
 77
     6
 78
     2
 67
     7
 79
     5
170
     0
171
     0
290
     0
174
     0
 93
        1
 44
0.0
173
     0
291
     0
 45
0.0
1001
ACAD
1000
AcDbSavedByObjectVersion
1070
     0
  0
VISUALSTYLE
  5
32
102
{ACAD_REACTORS
330
2A
102
}
330
2A
100
AcDbVisualStyle
  2
Basic
 70
     7
 71
     1
 72
     0
 73
     1
 90
        0
 40
-0.6
 41
-30.0
 62
     5
 63
     7
 74
     0
 91
        4
 64
     7
 65
   257
 75
     1
175
     1
 42
1.0
 92
        8
 66
     7
 43
1.0
 76
     1
 77
     6
 78
     2
 67
     7
 79
     5
170
     0
171
     0
290
     0
174
     0
 93
        1
 44
0.0
173
     0
291
     1
 45
0.0
1001
ACAD
1000
AcDbSavedByObjectVersion
1070
     0
  0
VISUALSTYLE
  5
36
102
{ACAD_REACTORS
330
2A
102
}
330
2A
100
AcDbVisualStyle
  2
Brighten
 70
    12
 71
     2
 72
     2
 73
     0
 90
        0
 40
-0.6
 41
-30.0
 62
     5
 63
     7
 74
     1
 91
        4
 64
     7
 65
   257
 75
     1
175
     1
 42
1.0
 92
        8
 66
     7
 43
1.0
 76
     1
 77
     6
 78
     2
 67
     7
 79
     5
170
     0
171
     0
290
     0
174
     0
 93
        1
 44
50.0
173
     0
291
     1
 45
0.0
1001
ACAD
1000
AcDbSavedByObjectVersion
1070
     0
  0
VISUALSTYLE
  5
3A
102
{ACAD_REACTORS
330
2A
102
}
330
2A
100
AcDbVisualStyle
  2
ColorChange
 70
    16
 71
     2
 72
     2
 73
     3
 90
        0
 40
-0.6
 41
-30.0
 62
     5
 63
     8
 74
     1
 91
        4
 64
     7
 65
   257
 75
     1
175
     1
 42
1.0
 92
        8
 66
     8
 43
1.0
 76
     1
 77
     6
 78
     2
 67
     7
 79
     5
170
     0
171
     0
290
     0
174
     0
 93
        1
 44
0.0
173
     0
291
     1
 45
0.0
1001
ACAD
1000
AcDbSavedByObjectVersion
1070
     0
  0
VISUALSTYLE
  5
34
102
{ACAD_REACTORS
330
2A
102
}
330
2A
100
AcDbVisualStyle
  2
Conceptual
 70
     9
 71
     3
 72
     2
 73
     0
 90
        0
 40
-0.6
 41
-30.0
 62
     5
 63
     7
 74
     2
 91
        2
 64
     7
 65
   257
 75
     1
175
     1
 42
40.0
 92
        8
 66
     7
 43
1.0
 76
     1
 77
     6
 78
     2
 67
     7
 79
     3
170
     0
171
     0
290
     0
174
     0
 93
        1
 44
0.0
173
     0
291
     0
 45
0.0
1001
ACAD
1000
AcDbSavedByObjectVersion
1070
     0
  0
VISUALSTYLE
  5
35
102
{ACAD_REACTORS
330
2A
102
}
330
2A
100
AcDbVisualStyle
  2
Dim
 70
    11
 71
     2
 72
     2
 73
     0
 90
        0
 40
-0.6
 41
-30.0
 62
     5
 63
     7
 74
     1
 91
        4
 64
     7
 65
   257
 75
     1
175
     1
 42
1.0
 92
        8
 66
     7
 43
1.0
 76
     1
 77
     6
 78
     2
 67
     7
 79
     5
170
     0
171
     0
290
     0
174
     0
 93
        1
 44
-50.0
173
     0
291
     1
 45
0.0
1001
ACAD
1000
AcDbSavedByObjectVersion
1070
     0
  0
VISUALSTYLE
  5
39
102
{ACAD_REACTORS
330
2A
102
}
330
2A
100
AcDbVisualStyle
  2
Facepattern
 70
    15
 71
     2
 72
     2
 73
     0
 90
        0
 40
-0.6
 41
-30.0
 62
     5
 63
     7
 74
     1
 91
        4
 64
     7
 65
   257
 75
     1
175
     1
 42
1.0
 92
        8
 66
     7
 43
1.0
 76
     1
 77
     6
 78
     2
 67
     7
 79
     5
170
     0
171
     0
290
     0
174
     0
 93
        1
 44
0.0
173
     0
291
     1
 45
0.0
1001
ACAD
1000
AcDbSavedByObjectVersion
1070
     0
  0
VISUALSTYLE
  5
2B
102
{ACAD_REACTORS
330
2A
102
}
330
2A
100
AcDbVisualStyle
  2
Flat
 70
     0
 71
     2
 72
     1
 73
     1
 90
        2
 40
-0.6
 41
30.0
 62
     5
 63
     7
 74
     0
 91
        4
 64
     7
 65
   257
 75
     1
175
     1
 42
1.0
 92
        8
 66
     7
 43
1.0
 76
     1
 77
     6
 78
     2
 67
     7
 79
     5
170
     0
171
     0
290
     0
174
     0
 93
       13
 44
0.0
173
     0
291
     1
 45
0.0
1001
ACAD
1000
AcDbSavedByObjectVersion
1070
     0
  0
VISUALSTYLE
  5
2C
102
{ACAD_REACTORS
330
2A
102
}
330
2A
100
AcDbVisualStyle
  2
FlatWithEdges
 70
     1
 71
     2
 72
     1
 73
     1
 90
        2
 40
-0.6
 41
30.0
 62
     5
 63
     7
 74
     1
 91
        4
 64
     7
 65
   257
 75
     1
175
     1
 42
1.0
 92
        0
 66
   257
 43
1.0
 76
     1
 77
     6
 78
     2
 67
     7
 79
     5
170
     0
171
     0
290
     0
174
     0
 93
       13
 44
0.0
173
     0
291
     1
 45
0.0
1001
ACAD
1000
AcDbSavedByObjectVersion
1070
     0
  0
VISUALSTYLE
  5
2D
102
{ACAD_REACTORS
330
2A
102
}
330
2A
100
AcDbVisualStyle
  2
Gouraud
 70
     2
 71
     2
 72
     2
 73
     1
 90
        2
 40
-0.6
 41
30.0
 62
     5
 63
     7
 74
     0
 91
        4
 64
     7
 65
   257
 75
     1
175
     1
 42
1.0
 92
        0
 66
     7
 43
1.0
 76
     1
 77
     6
 78
     2
 67
     7
 79
     5
170
     0
171
     0
290
     0
174
     0
 93
       13
 44
0.0
173
     0
291
     1
 45
0.0
1001
ACAD
1000
AcDbSavedByObjectVersion
1070
     0
  0
VISUALSTYLE
  5
2E
102
{ACAD_REACTORS
330
2A
102
}
330
2A
100
AcDbVisualStyle
  2
GouraudWithEdges
 70
     3
 71
     2
 72
     2
 73
     1
 90
        2
 40
-0.6
 41
30.0
 62
     5
 63
     7
 74
     1
 91
        4
 64
     7
 65
   257
 75
     1
175
     1
 42
1.0
 92
        0
 66
   257
 43
1.0
 76
     1
 77
     6
 78
     2
 67
     7
 79
     5
170
     0
171
     0
290
     0
174
     0
 93
       13
 44
0.0
173
     0
291
     1
 45
0.0
1001
ACAD
1000
AcDbSavedByObjectVersion
1070
     0
  0
VISUALSTYLE
  5
38
102
{ACAD_REACTORS
330
2A
102
}
330
2A
100
AcDbVisualStyle
  2
Linepattern
 70
    14
 71
     2
 72
     2
 73
     0
 90
        0
 40
-0.6
 41
-30.0
 62
     5
 63
     7
 74
     1
 91
        4
 64
     7
 65
   257
 75
     7
175
     7
 42
1.0
 92
        8
 66
     7
 43
1.0
 76
     1
 77
     6
 78
     2
 67
     7
 79
     5
170
     0
171
     0
290
     0
174
     0
 93
        1
 44
0.0
173
     0
291
     1
 45
0.0
1001
ACAD
1000
AcDbSavedByObjectVersion
1070
     0
  0
VISUALSTYLE
  5
33
102
{ACAD_REACTORS
330
2A
102
}
330
2A
100
AcDbVisualStyle
  2
Realistic
 70
     8
 71
     2
 72
     2
 73
     0
 90
        0
 40
-0.6
 41
-30.0
 62
     5
 63
     7
 74
     1
 91
        0
 64
     7
 65
   257
 75
     1
175
     1
 42
1.0
 92
        8
 66
     8
 43
1.0
 76
     1
 77
     6
 78
     2
 67
     7
 79
     5
170
     0
171
     0
290
     0
174
     0
 93
       13
 44
0.0
173
     0
291
     0
 45
0.0
1001
ACAD
1000
AcDbSavedByObjectVersion
1070
     0
  0
VISUALSTYLE
  5
37
102
{ACAD_REACTORS
330
2A
102
}
330
2A
100
AcDbVisualStyle
  2
Thicken
 70
    13
 71
     2
 72
     2
 73
     0
 90
        0
 40
-0.6
 41
-30.0
 62
     5
 63
     7
 74
     1
 91
        4
 64
     7
 65
   257
 75
     1
175
     1
 42
1.0
 92
       12
 66
     7
 43
1.0
 76
     1
 77
     6
 78
     2
 67
     7
 79
     5
170
     0
171
     0
290
     0
174
     0
 93
        1
 44
0.0
173
     0
291
     1
 45
0.0
1001
ACAD
1000
AcDbSavedByObjectVersion
1070
     0
  0
DICTIONARYVAR
  5
33A
102
{ACAD_REACTORS
330
338
102
}
330
338
100
DictionaryVariables
280
     0
  1
80.000000
  0
DICTIONARYVAR
  5
339
102
{ACAD_REACTORS
330
338
102
}
330
338
100
DictionaryVariables
280
     0
  1
5.000000
  0
DICTIONARY
  5
33B
330
1E
100
AcDbDictionary
280
     1
281
     1
  3
ACAD_XREC_ROUNDTRIP
360
33C
  0
DICTIONARY
  5
33F
330
26
100
AcDbDictionary
280
     1
281
     1
  3
ACAD_XREC_ROUNDTRIP
360
340
  0
DICTIONARY
  5
33D
330
22
100
AcDbDictionary
280
     1
281
     1
  3
ACAD_XREC_ROUNDTRIP
360
33E
  0
XRECORD
  5
33C
102
{ACAD_REACTORS
330
33B
102
}
330
33B
100
AcDbXrecord
280
     1
102
SHADEPLOT
 70
     0
102
SHADEPLOTRESLEVEL
 70
     5
102
SHADEPLOTCUSTOMDPI
 70
   300
  0
XRECORD
  5
340
102
{ACAD_REACTORS
330
33F
102
}
330
33F
100
AcDbXrecord
280
     1
102
SHADEPLOT
 70
     0
102
SHADEPLOTRESLEVEL
 70
     5
102
SHADEPLOTCUSTOMDPI
 70
   300
  0
XRECORD
  5
33E
102
{ACAD_REACTORS
330
33D
102
}
330
33D
100
AcDbXrecord
280
     1
102
SHADEPLOT
 70
     0
102
SHADEPLOTRESLEVEL
 70
     5
102
SHADEPLOTCUSTOMDPI
 70
   300
  0
ENDSEC
  0
EOF
