  0
SECTION
  2
HEADER
  9
$ACADVER
  1
AC1015
  9
$ACADMAINTVER
 70
     6
  9
$DWGCODEPAGE
  3
ANSI_932
  9
$INSBASE
 10
0.0
 20
0.0
 30
0.0
  9
$EXTMIN
 10
-2970.0
 20
-2100.0
 30
0.0
  9
$EXTMAX
 10
2970.0
 20
2100.0
 30
0.0
  9
$LIMMIN
 10
-2970.0
 20
-2100.0
  9
$LIMMAX
 10
2970.0
 20
2100.0
  9
$ORTHOMODE
 70
     0
  9
$REGENMODE
 70
     1
  9
$FILLMODE
 70
     1
  9
$QTEXTMODE
 70
     0
  9
$MIRRTEXT
 70
     1
  9
$LTSCALE
 40
10.0
  9
$ATTMODE
 70
     1
  9
$TEXTSIZE
 40
2.5
  9
$TRACEWID
 40
1.0
  9
$TEXTSTYLE
  7
Standard
  9
$CLAYER
  8
0
  9
$CELTYPE
  6
ByLayer
  9
$CECOLOR
 62
   256
  9
$CELTSCALE
 40
1.0
  9
$DISPSILH
 70
     0
  9
$DIMSCALE
 40
1.0
  9
$DIMASZ
 40
2.5
  9
$DIMEXO
 40
0.625
  9
$DIMDLI
 40
3.75
  9
$DIMRND
 40
0.0
  9
$DIMDLE
 40
0.0
  9
$DIMEXE
 40
1.25
  9
$DIMTP
 40
0.0
  9
$DIMTM
 40
0.0
  9
$DIMTXT
 40
2.5
  9
$DIMCEN
 40
2.5
  9
$DIMTSZ
 40
0.0
  9
$DIMTOL
 70
     0
  9
$DIMLIM
 70
     0
  9
$DIMTIH
 70
     0
  9
$DIMTOH
 70
     0
  9
$DIMSE1
 70
     0
  9
$DIMSE2
 70
     0
  9
$DIMTAD
 70
     1
  9
$DIMZIN
 70
     8
  9
$DIMBLK
  1

  9
$DIMASO
 70
     1
  9
$DIMSHO
 70
     1
  9
$DIMPOST
  1

  9
$DIMAPOST
  1

  9
$DIMALT
 70
     0
  9
$DIMALTD
 70
     3
  9
$DIMALTF
 40
0.03937007874016
  9
$DIMLFAC
 40
1.0
  9
$DIMTOFL
 70
     1
  9
$DIMTVP
 40
0.0
  9
$DIMTIX
 70
     0
  9
$DIMSOXD
 70
     0
  9
$DIMSAH
 70
     0
  9
$DIMBLK1
  1

  9
$DIMBLK2
  1

  9
$DIMSTYLE
  2
ISO-25
  9
$DIMCLRD
 70
     0
  9
$DIMCLRE
 70
     0
  9
$DIMCLRT
 70
     0
  9
$DIMTFAC
 40
1.0
  9
$DIMGAP
 40
0.625
  9
$DIMJUST
 70
     0
  9
$DIMSD1
 70
     0
  9
$DIMSD2
 70
     0
  9
$DIMTOLJ
 70
     0
  9
$DIMTZIN
 70
     8
  9
$DIMALTZ
 70
     0
  9
$DIMALTTZ
 70
     0
  9
$DIMUPT
 70
     0
  9
$DIMDEC
 70
     2
  9
$DIMTDEC
 70
     2
  9
$DIMALTU
 70
     2
  9
$DIMALTTD
 70
     3
  9
$DIMTXSTY
  7
Standard
  9
$DIMAUNIT
 70
     0
  9
$DIMADEC
 70
     0
  9
$DIMALTRND
 40
0.0
  9
$DIMAZIN
 70
     0
  9
$DIMDSEP
 70
    44
  9
$DIMATFIT
 70
     3
  9
$DIMFRAC
 70
     0
  9
$DIMLDRBLK
  1

  9
$DIMLUNIT
 70
     2
  9
$DIMLWD
 70
    -2
  9
$DIMLWE
 70
    -2
  9
$DIMTMOVE
 70
     0
  9
$LUNITS
 70
     2
  9
$LUPREC
 70
     4
  9
$SKETCHINC
 40
1.0
  9
$FILLETRAD
 40
10.0
  9
$AUNITS
 70
     0
  9
$AUPREC
 70
     0
  9
$MENU
  1
.
  9
$ELEVATION
 40
0.0
  9
$PELEVATION
 40
0.0
  9
$THICKNESS
 40
0.0
  9
$LIMCHECK
 70
     0
  9
$CHAMFERA
 40
10.0
  9
$CHAMFERB
 40
10.0
  9
$CHAMFERC
 40
20.0
  9
$CHAMFERD
 40
0.0
  9
$SKPOLY
 70
     0
  9
$TDCREATE
 40
2456905.406693924
  9
$TDUCREATE
 40
2456905.031693924
  9
$TDUPDATE
 40
2456905.406693935
  9
$TDUUPDATE
 40
2456905.031693935
  9
$TDINDWG
 40
0.0000000116
  9
$TDUSRTIMER
 40
0.0000000116
  9
$USRTIMER
 70
     1
  9
$ANGBASE
 50
0.0
  9
$ANGDIR
 70
     0
  9
$PDMODE
 70
     0
  9
$PDSIZE
 40
0.0
  9
$PLINEWID
 40
0.0
  9
$SPLFRAME
 70
     0
  9
$SPLINETYPE
 70
     6
  9
$SPLINESEGS
 70
     8
  9
$HANDSEED
  5
321
  9
$SURFTAB1
 70
     6
  9
$SURFTAB2
 70
     6
  9
$SURFTYPE
 70
     6
  9
$SURFU
 70
     6
  9
$SURFV
 70
     6
  9
$UCSBASE
  2

  9
$UCSNAME
  2

  9
$UCSORG
 10
0.0
 20
0.0
 30
0.0
  9
$UCSXDIR
 10
1.0
 20
0.0
 30
0.0
  9
$UCSYDIR
 10
0.0
 20
1.0
 30
0.0
  9
$UCSORTHOREF
  2

  9
$UCSORTHOVIEW
 70
     0
  9
$UCSORGTOP
 10
0.0
 20
0.0
 30
0.0
  9
$UCSORGBOTTOM
 10
0.0
 20
0.0
 30
0.0
  9
$UCSORGLEFT
 10
0.0
 20
0.0
 30
0.0
  9
$UCSORGRIGHT
 10
0.0
 20
0.0
 30
0.0
  9
$UCSORGFRONT
 10
0.0
 20
0.0
 30
0.0
  9
$UCSORGBACK
 10
0.0
 20
0.0
 30
0.0
  9
$PUCSBASE
  2

  9
$PUCSNAME
  2

  9
$PUCSORG
 10
0.0
 20
0.0
 30
0.0
  9
$PUCSXDIR
 10
1.0
 20
0.0
 30
0.0
  9
$PUCSYDIR
 10
0.0
 20
1.0
 30
0.0
  9
$PUCSORTHOREF
  2

  9
$PUCSORTHOVIEW
 70
     0
  9
$PUCSORGTOP
 10
0.0
 20
0.0
 30
0.0
  9
$PUCSORGBOTTOM
 10
0.0
 20
0.0
 30
0.0
  9
$PUCSORGLEFT
 10
0.0
 20
0.0
 30
0.0
  9
$PUCSORGRIGHT
 10
0.0
 20
0.0
 30
0.0
  9
$PUCSORGFRONT
 10
0.0
 20
0.0
 30
0.0
  9
$PUCSORGBACK
 10
0.0
 20
0.0
 30
0.0
  9
$USERI1
 70
     0
  9
$USERI2
 70
     0
  9
$USERI3
 70
     0
  9
$USERI4
 70
     0
  9
$USERI5
 70
     0
  9
$USERR1
 40
0.0
  9
$USERR2
 40
0.0
  9
$USERR3
 40
0.0
  9
$USERR4
 40
0.0
  9
$USERR5
 40
0.0
  9
$WORLDVIEW
 70
     1
  9
$SHADEDGE
 70
     3
  9
$SHADEDIF
 70
    70
  9
$TILEMODE
 70
     1
  9
$MAXACTVP
 70
    64
  9
$PINSBASE
 10
0.0
 20
0.0
 30
0.0
  9
$PLIMCHECK
 70
     0
  9
$PEXTMIN
 10
1.000000000000000E+20
 20
1.000000000000000E+20
 30
1.000000000000000E+20
  9
$PEXTMAX
 10
-1.000000000000000E+20
 20
-1.000000000000000E+20
 30
-1.000000000000000E+20
  9
$PLIMMIN
 10
0.0
 20
0.0
  9
$PLIMMAX
 10
420.0
 20
297.0
  9
$UNITMODE
 70
     0
  9
$VISRETAIN
 70
     1
  9
$PLINEGEN
 70
     0
  9
$PSLTSCALE
 70
     1
  9
$TREEDEPTH
 70
  3020
  9
$CMLSTYLE
  2
Standard
  9
$CMLJUST
 70
     0
  9
$CMLSCALE
 40
20.0
  9
$PROXYGRAPHICS
 70
     1
  9
$MEASUREMENT
 70
     1
  9
$CELWEIGHT
370
    -1
  9
$ENDCAPS
280
     0
  9
$JOINSTYLE
280
     0
  9
$LWDISPLAY
290
     0
  9
$INSUNITS
 70
     4
  9
$HYPERLINKBASE
  1

  9
$STYLESHEET
  1

  9
$XEDIT
290
     1
  9
$CEPSNTYPE
380
     0
  9
$PSTYLEMODE
290
     1
  9
$FINGERPRINTGUID
  2
{07300818-A1D9-4091-868A-FBC2D1D20331}
  9
$VERSIONGUID
  2
{FAEB1C32-E019-11D5-929B-00C0DF256EC4}
  9
$EXTNAMES
290
     1
  9
$PSVPSCALE
 40
0.0
  9
$OLESTARTUP
290
     0
  0
ENDSEC
  0
SECTION
  2
CLASSES
  0
CLASS
  1
ACDBDICTIONARYWDFLT
  2
AcDbDictionaryWithDefault
  3
ObjectDBX Classes
 90
        0
280
     0
281
     0
  0
CLASS
  1
VISUALSTYLE
  2
AcDbVisualStyle
  3
ObjectDBX Classes
 90
     4095
280
     0
281
     0
  0
CLASS
  1
DICTIONARYVAR
  2
AcDbDictionaryVar
  3
ObjectDBX Classes
 90
        0
280
     0
281
     0
  0
CLASS
  1
ACDBPLACEHOLDER
  2
AcDbPlaceHolder
  3
ObjectDBX Classes
 90
        0
280
     0
281
     0
  0
CLASS
  1
LAYOUT
  2
AcDbLayout
  3
ObjectDBX Classes
 90
        0
280
     0
281
     0
  0
ENDSEC
  0
SECTION
  2
TABLES
  0
TABLE
  2
VPORT
  5
8
330
0
100
AcDbSymbolTable
 70
     1
  0
VPORT
  5
29
330
8
100
AcDbSymbolTableRecord
100
AcDbViewportTableRecord
  2
*Active
 70
     0
 10
0.0
 20
0.0
 11
1.0
 21
1.0
 12
0.0
 22
0.0
 13
0.0
 23
0.0
 14
10.0
 24
10.0
 15
10.0
 25
10.0
 16
0.0
 26
0.0
 36
1.0
 17
0.0
 27
0.0
 37
0.0
 40
4620.0
 41
1.414285714285715
 42
50.0
 43
0.0
 44
0.0
 50
0.0
 51
0.0
 71
     0
 72
 10000
 73
     1
 74
     3
 75
     0
 76
     0
 77
     0
 78
     0
281
     0
 65
     1
110
0.0
120
0.0
130
0.0
111
1.0
121
0.0
131
0.0
112
0.0
122
1.0
132
0.0
 79
     0
146
0.0
  0
ENDTAB
  0
TABLE
  2
LTYPE
  5
5
330
0
100
AcDbSymbolTable
 70
     6
  0
LTYPE
  5
14
330
5
100
AcDbSymbolTableRecord
100
AcDbLinetypeTableRecord
  2
ByBlock
 70
     0
  3

 72
    65
 73
     0
 40
0.0
  0
LTYPE
  5
15
330
5
100
AcDbSymbolTableRecord
100
AcDbLinetypeTableRecord
  2
ByLayer
 70
     0
  3

 72
    65
 73
     0
 40
0.0
  0
LTYPE
  5
16
330
5
100
AcDbSymbolTableRecord
100
AcDbLinetypeTableRecord
  2
Continuous
 70
     0
  3
Solid line
 72
    65
 73
     0
 40
0.0
  0
LTYPE
  5
3C
330
5
100
AcDbSymbolTableRecord
100
AcDbLinetypeTableRecord
  2
JWW_DASHED1
 70
     0
  3
-  --  --  --  --  --  --  --  -
 72
    65
 73
     2
 40
1.693333333333333
 49
0.8466666666666667
 74
     0
 49
-0.8466666666666667
 74
     0
  0
LTYPE
  5
3D
330
5
100
AcDbSymbolTableRecord
100
AcDbLinetypeTableRecord
  2
JWW_PHANTOM2
 70
     0
  3
------------  -  -  ------------
 72
    65
 73
     6
 40
13.54666666666667
 49
10.16
 74
     0
 49
-0.8466666666666667
 74
     0
 49
0.4233333333333333
 74
     0
 49
-0.8466666666666667
 74
     0
 49
0.4233333333333333
 74
     0
 49
-0.8466666666666667
 74
     0
  0
LTYPE
  5
3E
330
5
100
AcDbSymbolTableRecord
100
AcDbLinetypeTableRecord
  2
JWW_DASHED2
 70
     0
  3
--    ----    ----    ----    --
 72
    65
 73
     2
 40
3.386666666666667
 49
1.693333333333333
 74
     0
 49
-1.693333333333333
 74
     0
  0
LTYPE
  5
3F
330
5
100
AcDbSymbolTableRecord
100
AcDbLinetypeTableRecord
  2
JWW_CENTER1
 70
     0
  3
-----  --  ----------  --  -----
 72
    65
 73
     4
 40
6.773333333333333
 49
4.233333333333333
 74
     0
 49
-0.8466666666666667
 74
     0
 49
0.8466666666666667
 74
     0
 49
-0.8466666666666667
 74
     0
  0
LTYPE
  5
40
330
5
100
AcDbSymbolTableRecord
100
AcDbLinetypeTableRecord
  2
JWW_CENTER2
 70
     0
  3
-------------  --  -------------
 72
    65
 73
     4
 40
13.54666666666667
 49
11.00666666666667
 74
     0
 49
-0.8466666666666667
 74
     0
 49
0.8466666666666667
 74
     0
 49
-0.8466666666666667
 74
     0
  0
ENDTAB
  0
TABLE
  2
LAYER
  5
2
330
0
100
AcDbSymbolTable
 70
    16
  0
LAYER
  5
10
330
2
100
AcDbSymbolTableRecord
100
AcDbLayerTableRecord
  2
0
 70
     0
 62
     7
  6
Continuous
370
    -3
390
F
  0
LAYER
  5
41
330
2
100
AcDbSymbolTableRecord
100
AcDbLayerTableRecord
  2
F-Fﾚｲﾔ
 70
     0
 62
     7
  6
Continuous
370
    -3
390
F
  0
LAYER
  5
42
330
2
100
AcDbSymbolTableRecord
100
AcDbLayerTableRecord
  2
寸法
 70
     0
 62
     7
  6
Continuous
370
    -3
390
F
  0
LAYER
  5
43
330
2
100
AcDbSymbolTableRecord
100
AcDbLayerTableRecord
  2
通り芯
 70
     0
 62
     7
  6
Continuous
370
    -3
390
F
  0
LAYER
  5
44
330
2
100
AcDbSymbolTableRecord
100
AcDbLayerTableRecord
  2
躯体
 70
     0
 62
     7
  6
Continuous
370
    -3
390
F
  0
LAYER
  5
45
330
2
100
AcDbSymbolTableRecord
100
AcDbLayerTableRecord
  2
092
 70
     0
 62
     7
  6
Continuous
370
    -3
390
F
  0
LAYER
  5
46
330
2
100
AcDbSymbolTableRecord
100
AcDbLayerTableRecord
  2
仕上
 70
     0
 62
     7
  6
Continuous
370
    -3
390
F
  0
LAYER
  5
47
330
2
100
AcDbSymbolTableRecord
100
AcDbLayerTableRecord
  2
その他
 70
     0
 62
     7
  6
Continuous
370
    -3
390
F
  0
LAYER
  5
48
330
2
100
AcDbSymbolTableRecord
100
AcDbLayerTableRecord
  2
建具
 70
     0
 62
     7
  6
Continuous
370
    -3
390
F
  0
LAYER
  5
49
330
2
100
AcDbSymbolTableRecord
100
AcDbLayerTableRecord
  2
1-0ﾚｲﾔ
 70
     0
 62
     7
  6
Continuous
370
    -3
390
F
  0
LAYER
  5
4A
330
2
100
AcDbSymbolTableRecord
100
AcDbLayerTableRecord
  2
1-2ﾚｲﾔ
 70
     0
 62
     7
  6
Continuous
370
    -3
390
F
  0
LAYER
  5
4B
330
2
100
AcDbSymbolTableRecord
100
AcDbLayerTableRecord
  2
1-4ﾚｲﾔ
 70
     0
 62
     7
  6
Continuous
370
    -3
390
F
  0
LAYER
  5
4C
330
2
100
AcDbSymbolTableRecord
100
AcDbLayerTableRecord
  2
Hojo
 70
     0
 62
     7
  6
Continuous
370
    -3
390
F
  0
LAYER
  5
4D
330
2
100
AcDbSymbolTableRecord
100
AcDbLayerTableRecord
  2
1-5ﾚｲﾔ
 70
     0
 62
     7
  6
Continuous
370
    -3
390
F
  0
LAYER
  5
4E
330
2
100
AcDbSymbolTableRecord
100
AcDbLayerTableRecord
  2
1-1ﾚｲﾔ
 70
     0
 62
     7
  6
Continuous
370
    -3
390
F
  0
LAYER
  5
4F
330
2
100
AcDbSymbolTableRecord
100
AcDbLayerTableRecord
  2
D-4
 70
     0
 62
     7
  6
Continuous
370
    -3
390
F
  0
ENDTAB
  0
TABLE
  2
STYLE
  5
3
330
0
100
AcDbSymbolTable
 70
     2
  0
STYLE
  5
11
330
3
100
AcDbSymbolTableRecord
100
AcDbTextStyleTableRecord
  2
Standard
 70
     0
 40
0.0
 41
1.0
 50
0.0
 71
     0
 42
2.5
  3
txt
  4

1001
ACAD
1000

1071
        0
  0
STYLE
  5
3B
330
3
100
AcDbSymbolTableRecord
100
AcDbTextStyleTableRecord
  2
ＭＳ ゴシック
 70
     0
 40
1.0
 41
1.0
 50
0.0
 71
     0
 42
10.0
  3

  4

1001
ACAD
1000
MS Gothic
1071
    32817
  0
ENDTAB
  0
TABLE
  2
VIEW
  5
6
330
0
100
AcDbSymbolTable
 70
     0
  0
ENDTAB
  0
TABLE
  2
UCS
  5
7
330
0
100
AcDbSymbolTable
 70
     0
  0
ENDTAB
  0
TABLE
  2
APPID
  5
9
330
0
100
AcDbSymbolTable
 70
     1
  0
APPID
  5
12
330
9
100
AcDbSymbolTableRecord
100
AcDbRegAppTableRecord
  2
ACAD
 70
     0
  0
ENDTAB
  0
TABLE
  2
DIMSTYLE
  5
A
330
0
100
AcDbSymbolTable
 70
     1
100
AcDbDimStyleTable
  0
DIMSTYLE
105
27
330
A
100
AcDbSymbolTableRecord
100
AcDbDimStyleTableRecord
  2
ISO-25
 70
     0
 41
2.5
 42
0.625
 43
3.75
 44
1.25
 73
     0
 74
     0
 77
     1
 78
     8
140
2.5
141
2.5
143
0.03937007874016
147
0.625
171
     3
172
     1
271
     2
272
     2
274
     3
278
    44
283
     0
284
     8
340
11
  0
ENDTAB
  0
TABLE
  2
BLOCK_RECORD
  5
1
330
0
100
AcDbSymbolTable
 70
     1
  0
BLOCK_RECORD
  5
1F
330
1
100
AcDbSymbolTableRecord
100
AcDbBlockTableRecord
  2
*Model_Space
340
22
  0
BLOCK_RECORD
  5
1B
330
1
100
AcDbSymbolTableRecord
100
AcDbBlockTableRecord
  2
*Paper_Space
340
1E
  0
BLOCK_RECORD
  5
23
330
1
100
AcDbSymbolTableRecord
100
AcDbBlockTableRecord
  2
*Paper_Space0
340
26
  0
ENDTAB
  0
ENDSEC
  0
SECTION
  2
BLOCKS
  0
BLOCK
  5
20
330
1F
100
AcDbEntity
  8
0
100
AcDbBlockBegin
  2
*Model_Space
 70
     0
 10
0.0
 20
0.0
 30
0.0
  3
*Model_Space
  1

  0
ENDBLK
  5
21
330
1F
100
AcDbEntity
  8
0
100
AcDbBlockEnd
  0
BLOCK
  5
1C
330
1B
100
AcDbEntity
 67
     1
  8
0
100
AcDbBlockBegin
  2
*Paper_Space
 70
     0
 10
0.0
 20
0.0
 30
0.0
  3
*Paper_Space
  1

  0
ENDBLK
  5
1D
330
1B
100
AcDbEntity
 67
     1
  8
0
100
AcDbBlockEnd
  0
BLOCK
  5
24
330
23
100
AcDbEntity
  8
0
100
AcDbBlockBegin
  2
*Paper_Space0
 70
     0
 10
0.0
 20
0.0
 30
0.0
  3
*Paper_Space0
  1

  0
ENDBLK
  5
25
330
23
100
AcDbEntity
  8
0
100
AcDbBlockEnd
  0
ENDSEC
  0
SECTION
  2
ENTITIES
  0
TEXT
  5
50
330
1F
100
AcDbEntity
  8
F-Fﾚｲﾔ
  6
Continuous
 62
     7
370
     9
100
AcDbText
 10
-242.9543663820249
 20
-1922.638942457957
 30
0.0
 40
30.48
  1
サニタリートラフ　ＳＴＶ－２００　縦引き排水口　Ｖ０１～Ｖ１８
 41
1.120967741935484
  7
ＭＳ ゴシック
100
AcDbText
  0
LINE
  5
51
330
1F
100
AcDbEntity
  8
F-Fﾚｲﾔ
  6
Continuous
 62
     7
370
     9
100
AcDbLine
 10
-2258.543418383506
 20
-138.3748856474534
 30
0.0
 11
-2258.543418383506
 21
-1668.374946623695
 31
0.0
  0
LINE
  5
52
330
1F
100
AcDbEntity
  8
F-Fﾚｲﾔ
  6
Continuous
 62
     7
370
     9
100
AcDbLine
 10
-2033.543113502296
 20
-138.3748856474534
 30
0.0
 11
-2033.543113502296
 21
-1668.374946623695
 31
0.0
  0
LINE
  5
53
330
1F
100
AcDbEntity
  8
F-Fﾚｲﾔ
  6
Continuous
 62
     7
370
     9
100
AcDbLine
 10
-1733.543319407578
 20
-138.3748856474534
 30
0.0
 11
-1733.543319407578
 21
-1668.374946623695
 31
0.0
  0
LINE
  5
54
330
1F
100
AcDbEntity
  8
F-Fﾚｲﾔ
  6
Continuous
 62
     7
370
     9
100
AcDbLine
 10
-1433.543000386949
 20
-138.3748856474534
 30
0.0
 11
-1433.543000386949
 21
-1668.374946623695
 31
0.0
  0
LINE
  5
55
330
1F
100
AcDbEntity
  8
F-Fﾚｲﾔ
  6
Continuous
 62
     7
370
     9
100
AcDbLine
 10
-2258.543418383506
 20
-109.9923166989362
 30
0.0
 11
-2075.909621190841
 21
-109.9923166989362
 31
0.0
  0
TEXT
  5
56
330
1F
100
AcDbEntity
  8
F-Fﾚｲﾔ
  6
Continuous
 62
     7
370
     9
100
AcDbText
 10
-2233.543134711424
 20
-192.7349669491095
 30
0.0
 40
30.48
  1
製品符号
 41
1.09375
  7
ＭＳ ゴシック
100
AcDbText
  0
TEXT
  5
57
330
1F
100
AcDbEntity
  8
F-Fﾚｲﾔ
  6
Continuous
 62
     7
370
     9
100
AcDbText
 10
-2211.043134711424
 20
-282.7352638768968
 30
0.0
 40
30.48
  1
Ｖ０１
 41
1.083333333333333
  7
ＭＳ ゴシック
100
AcDbText
  0
TEXT
  5
58
330
1F
100
AcDbEntity
  8
F-Fﾚｲﾔ
  6
Continuous
 62
     7
370
     9
100
AcDbText
 10
-2211.043134711424
 20
-362.7350223284986
 30
0.0
 40
30.48
  1
Ｖ０２
 41
1.083333333333333
  7
ＭＳ ゴシック
100
AcDbText
  0
TEXT
  5
59
330
1F
100
AcDbEntity
  8
F-Fﾚｲﾔ
  6
Continuous
 62
     7
370
     9
100
AcDbText
 10
-2211.043134711424
 20
-442.7354806813127
 30
0.0
 40
30.48
  1
Ｖ０３
 41
1.083333333333333
  7
ＭＳ ゴシック
100
AcDbText
  0
TEXT
  5
5A
330
1F
100
AcDbEntity
  8
F-Fﾚｲﾔ
  6
Continuous
 62
     7
370
     9
100
AcDbText
 10
-2211.043134711424
 20
-522.7355890835207
 30
0.0
 40
30.48
  1
Ｖ０４
 41
1.083333333333333
  7
ＭＳ ゴシック
100
AcDbText
  0
TEXT
  5
5B
330
1F
100
AcDbEntity
  8
F-Fﾚｲﾔ
  6
Continuous
 62
     7
370
     9
100
AcDbText
 10
-2211.043134711424
 20
-602.7355225104255
 30
0.0
 40
30.48
  1
Ｖ０５
 41
1.083333333333333
  7
ＭＳ ゴシック
100
AcDbText
  0
TEXT
  5
5C
330
1F
100
AcDbEntity
  8
F-Fﾚｲﾔ
  6
Continuous
 62
     7
370
     9
100
AcDbText
 10
-2211.043134711424
 20
-682.7358058879369
 30
0.0
 40
30.48
  1
Ｖ０６
 41
1.083333333333333
  7
ＭＳ ゴシック
100
AcDbText
  0
TEXT
  5
5D
330
1F
100
AcDbEntity
  8
F-Fﾚｲﾔ
  6
Continuous
 62
     7
370
     9
100
AcDbText
 10
-2211.043134711424
 20
-762.7359142901448
 30
0.0
 40
30.48
  1
Ｖ０７
 41
1.083333333333333
  7
ＭＳ ゴシック
100
AcDbText
  0
TEXT
  5
5E
330
1F
100
AcDbEntity
  8
F-Fﾚｲﾔ
  6
Continuous
 62
     7
370
     9
100
AcDbText
 10
-2211.043134711424
 20
-842.7360226923528
 30
0.0
 40
30.48
  1
Ｖ０８
 41
1.083333333333333
  7
ＭＳ ゴシック
100
AcDbText
  0
TEXT
  5
5F
330
1F
100
AcDbEntity
  8
F-Fﾚｲﾔ
  6
Continuous
 62
     7
370
     9
100
AcDbText
 10
-2211.043134711424
 20
-922.736481045167
 30
0.0
 40
30.48
  1
Ｖ０９
 41
1.083333333333333
  7
ＭＳ ゴシック
100
AcDbText
  0
TEXT
  5
60
330
1F
100
AcDbEntity
  8
F-Fﾚｲﾔ
  6
Continuous
 62
     7
370
     9
100
AcDbText
 10
-2211.043134711424
 20
-1002.736939397981
 30
0.0
 40
30.48
  1
Ｖ１０
 41
1.083333333333333
  7
ＭＳ ゴシック
100
AcDbText
  0
TEXT
  5
61
330
1F
100
AcDbEntity
  8
F-Fﾚｲﾔ
  6
Continuous
 62
     7
370
     9
100
AcDbText
 10
-2211.043134711424
 20
-1082.737047800189
 30
0.0
 40
30.48
  1
Ｖ１１
 41
1.083333333333333
  7
ＭＳ ゴシック
100
AcDbText
  0
TEXT
  5
62
330
1F
100
AcDbEntity
  8
F-Fﾚｲﾔ
  6
Continuous
 62
     7
370
     9
100
AcDbText
 10
-2211.043134711424
 20
-1162.736981227094
 30
0.0
 40
30.48
  1
Ｖ１２
 41
1.083333333333333
  7
ＭＳ ゴシック
100
AcDbText
  0
TEXT
  5
63
330
1F
100
AcDbEntity
  8
F-Fﾚｲﾔ
  6
Continuous
 62
     7
370
     9
100
AcDbText
 10
-2211.043134711424
 20
-1242.737089629302
 30
0.0
 40
30.48
  1
Ｖ１３
 41
1.083333333333333
  7
ＭＳ ゴシック
100
AcDbText
  0
TEXT
  5
64
330
1F
100
AcDbEntity
  8
F-Fﾚｲﾔ
  6
Continuous
 62
     7
370
     9
100
AcDbText
 10
-2211.043134711424
 20
-1322.73719803151
 30
0.0
 40
30.48
  1
Ｖ１４
 41
1.083333333333333
  7
ＭＳ ゴシック
100
AcDbText
  0
TEXT
  5
65
330
1F
100
AcDbEntity
  8
F-Fﾚｲﾔ
  6
Continuous
 62
     7
370
     9
100
AcDbText
 10
-2211.043134711424
 20
-1402.736956483112
 30
0.0
 40
30.48
  1
Ｖ１５
 41
1.083333333333333
  7
ＭＳ ゴシック
100
AcDbText
  0
TEXT
  5
66
330
1F
100
AcDbEntity
  8
F-Fﾚｲﾔ
  6
Continuous
 62
     7
370
     9
100
AcDbText
 10
-2211.043134711424
 20
-1482.736889910017
 30
0.0
 40
30.48
  1
Ｖ１６
 41
1.083333333333333
  7
ＭＳ ゴシック
100
AcDbText
  0
TEXT
  5
67
330
1F
100
AcDbEntity
  8
F-Fﾚｲﾔ
  6
Continuous
 62
     7
370
     9
100
AcDbText
 10
-2211.043134711424
 20
-1562.737523238134
 30
0.0
 40
30.48
  1
Ｖ１７
 41
1.083333333333333
  7
ＭＳ ゴシック
100
AcDbText
  0
TEXT
  5
68
330
1F
100
AcDbEntity
  8
F-Fﾚｲﾔ
  6
Continuous
 62
     7
370
     9
100
AcDbText
 10
-2211.043134711424
 20
-1642.736931739129
 30
0.0
 40
30.48
  1
Ｖ１８
 41
1.083333333333333
  7
ＭＳ ゴシック
100
AcDbText
  0
TEXT
  5
69
330
1F
100
AcDbEntity
  8
F-Fﾚｲﾔ
  6
Continuous
 62
     7
370
     9
100
AcDbText
 10
-2247.49466943925
 20
-95.08977504420939
 30
0.0
 40
38.1
  1
寸法表
 41
1.066666666666667
  7
ＭＳ ゴシック
100
AcDbText
  0
TEXT
  5
6A
330
1F
100
AcDbEntity
  8
F-Fﾚｲﾔ
  6
Continuous
 62
     7
370
     9
100
AcDbText
 10
-1903.543216454937
 20
-192.7349669491095
 30
0.0
 40
30.48
  1
Ｈ
 41
0.9999999999999998
  7
ＭＳ ゴシック
100
AcDbText
  0
TEXT
  5
6B
330
1F
100
AcDbEntity
  8
F-Fﾚｲﾔ
  6
Continuous
 62
     7
370
     9
100
AcDbText
 10
-1603.543159897263
 20
-192.7349669491095
 30
0.0
 40
30.48
  1
ｈ
 41
0.9999999999999998
  7
ＭＳ ゴシック
100
AcDbText
  0
TEXT
  5
6C
330
1F
100
AcDbEntity
  8
F-Fﾚｲﾔ
  6
Continuous
 62
     7
370
     9
100
AcDbText
 10
-1993.542533786141
 20
-1642.731769967687
 30
0.0
 40
30.48
  1
２７５
 41
1.083333333333333
  7
ＭＳ ゴシック
100
AcDbText
  0
TEXT
  5
6D
330
1F
100
AcDbEntity
  8
F-Fﾚｲﾔ
  6
Continuous
 62
     7
370
     9
100
AcDbText
 10
-1993.542560297551
 20
-1562.731661565479
 30
0.0
 40
30.48
  1
２６２．５
 41
1.1
  7
ＭＳ ゴシック
100
AcDbText
  0
TEXT
  5
6E
330
1F
100
AcDbEntity
  8
F-Fﾚｲﾔ
  6
Continuous
 62
     7
370
     9
100
AcDbText
 10
-1993.542533786141
 20
-1482.731903113877
 30
0.0
 40
30.48
  1
２５０
 41
1.083333333333333
  7
ＭＳ ゴシック
100
AcDbText
  0
TEXT
  5
6F
330
1F
100
AcDbEntity
  8
F-Fﾚｲﾔ
  6
Continuous
 62
     7
370
     9
100
AcDbText
 10
-1993.542560297551
 20
-1402.732494612882
 30
0.0
 40
30.48
  1
２３７．５
 41
1.1
  7
ＭＳ ゴシック
100
AcDbText
  0
TEXT
  5
70
330
1F
100
AcDbEntity
  8
F-Fﾚｲﾔ
  6
Continuous
 62
     7
370
     9
100
AcDbText
 10
-1993.542533786141
 20
-1322.732911136583
 30
0.0
 40
30.48
  1
２２５
 41
1.083333333333333
  7
ＭＳ ゴシック
100
AcDbText
  0
TEXT
  5
71
330
1F
100
AcDbEntity
  8
F-Fﾚｲﾔ
  6
Continuous
 62
     7
370
     9
100
AcDbText
 10
-1993.542560297551
 20
-1242.731927857859
 30
0.0
 40
30.48
  1
２１２．５
 41
1.1
  7
ＭＳ ゴシック
100
AcDbText
  0
TEXT
  5
72
330
1F
100
AcDbEntity
  8
F-Fﾚｲﾔ
  6
Continuous
 62
     7
370
     9
100
AcDbText
 10
-1993.542533786141
 20
-1162.732169406258
 30
0.0
 40
30.48
  1
２００
 41
1.083333333333333
  7
ＭＳ ゴシック
100
AcDbText
  0
TEXT
  5
73
330
1F
100
AcDbEntity
  8
F-Fﾚｲﾔ
  6
Continuous
 62
     7
370
     9
100
AcDbText
 10
-1993.542560297551
 20
-1082.732760905262
 30
0.0
 40
30.48
  1
１８７．５
 41
1.1
  7
ＭＳ ゴシック
100
AcDbText
  0
TEXT
  5
74
330
1F
100
AcDbEntity
  8
F-Fﾚｲﾔ
  6
Continuous
 62
     7
370
     9
100
AcDbText
 10
-1993.542533786141
 20
-1002.733264916615
 30
0.0
 40
30.48
  1
１７５
 41
1.083333333333333
  7
ＭＳ ゴシック
100
AcDbText
  0
TEXT
  5
75
330
1F
100
AcDbEntity
  8
F-Fﾚｲﾔ
  6
Continuous
 62
     7
370
     9
100
AcDbText
 10
-1993.542560297551
 20
-922.7321941502399
 30
0.0
 40
30.48
  1
１６２．５
 41
1.1
  7
ＭＳ ゴシック
100
AcDbText
  0
TEXT
  5
76
330
1F
100
AcDbEntity
  8
F-Fﾚｲﾔ
  6
Continuous
 62
     7
370
     9
100
AcDbText
 10
-1993.542533786141
 20
-842.7324356986381
 30
0.0
 40
30.48
  1
１５０
 41
1.083333333333333
  7
ＭＳ ゴシック
100
AcDbText
  0
TEXT
  5
77
330
1F
100
AcDbEntity
  8
F-Fﾚｲﾔ
  6
Continuous
 62
     7
370
     9
100
AcDbText
 10
-1993.542560297551
 20
-762.7330271976426
 30
0.0
 40
30.48
  1
１３７．５
 41
1.1
  7
ＭＳ ゴシック
100
AcDbText
  0
TEXT
  5
78
330
1F
100
AcDbEntity
  8
F-Fﾚｲﾔ
  6
Continuous
 62
     7
370
     9
100
AcDbText
 10
-1993.542533786141
 20
-682.7333562336926
 30
0.0
 40
30.48
  1
１２５
 41
1.083333333333333
  7
ＭＳ ゴシック
100
AcDbText
  0
TEXT
  5
79
330
1F
100
AcDbEntity
  8
F-Fﾚｲﾔ
  6
Continuous
 62
     7
370
     9
100
AcDbText
 10
-1993.542560297551
 20
-602.7339477326972
 30
0.0
 40
30.48
  1
１１２．５
 41
1.1
  7
ＭＳ ゴシック
100
AcDbText
  0
TEXT
  5
7A
330
1F
100
AcDbEntity
  8
F-Fﾚｲﾔ
  6
Continuous
 62
     7
370
     9
100
AcDbText
 10
-1993.542533786141
 20
-522.7341892810954
 30
0.0
 40
30.48
  1
１００
 41
1.083333333333333
  7
ＭＳ ゴシック
100
AcDbText
  0
TEXT
  5
7B
330
1F
100
AcDbEntity
  8
F-Fﾚｲﾔ
  6
Continuous
 62
     7
370
     9
100
AcDbText
 10
-2038.542590785671
 20
-442.7347807801001
 30
0.0
 40
30.48
  1
　　８７．５
 41
1.104166666666667
  7
ＭＳ ゴシック
100
AcDbText
  0
TEXT
  5
7C
330
1F
100
AcDbEntity
  8
F-Fﾚｲﾔ
  6
Continuous
 62
     7
370
     9
100
AcDbText
 10
-2038.542526169597
 20
-362.7355472544238
 30
0.0
 40
30.48
  1
　　７５
 50
0.0000572877022862
 41
1.09375
  7
ＭＳ ゴシック
100
AcDbText
  0
TEXT
  5
7D
330
1F
100
AcDbEntity
  8
F-Fﾚｲﾔ
  6
Continuous
 62
     7
370
     9
100
AcDbText
 10
-2038.54250329802
 20
-282.735613827503
 30
0.0
 40
30.48
  1
　　６２．５
 41
1.104166666666667
  7
ＭＳ ゴシック
100
AcDbText
  0
TEXT
  5
7E
330
1F
100
AcDbEntity
  8
F-Fﾚｲﾔ
  6
Continuous
 62
     7
370
     9
100
AcDbText
 10
-1698.542746466559
 20
-682.7358058879369
 30
0.0
 40
30.48
  1
１６０
 41
1.083333333333333
  7
ＭＳ ゴシック
100
AcDbText
  0
TEXT
  5
7F
330
1F
100
AcDbEntity
  8
F-Fﾚｲﾔ
  6
Continuous
 62
     7
370
     9
100
AcDbText
 10
-1698.542746466559
 20
-842.735760229398
 30
0.0
 40
30.48
  1
１８５
 41
1.083333333333333
  7
ＭＳ ゴシック
100
AcDbText
  0
TEXT
  5
80
330
1F
100
AcDbEntity
  8
F-Fﾚｲﾔ
  6
Continuous
 62
     7
370
     9
100
AcDbText
 10
-1698.542772977969
 20
-922.7356061686513
 30
0.0
 40
30.48
  1
１９７．５
 41
1.1
  7
ＭＳ ゴシック
100
AcDbText
  0
TEXT
  5
81
330
1F
100
AcDbEntity
  8
F-Fﾚｲﾔ
  6
Continuous
 62
     7
370
     9
100
AcDbText
 10
-1698.542746466559
 20
-1002.735277132601
 30
0.0
 40
30.48
  1
２１０
 41
1.083333333333333
  7
ＭＳ ゴシック
100
AcDbText
  0
TEXT
  5
82
330
1F
100
AcDbEntity
  8
F-Fﾚｲﾔ
  6
Continuous
 62
     7
370
     9
100
AcDbText
 10
-1698.542772977969
 20
-1082.735035584203
 30
0.0
 40
30.48
  1
２２２．５
 41
1.1
  7
ＭＳ ゴシック
100
AcDbText
  0
TEXT
  5
83
330
1F
100
AcDbEntity
  8
F-Fﾚｲﾔ
  6
Continuous
 62
     7
370
     9
100
AcDbText
 10
-1698.542746466559
 20
-1162.734794035805
 30
0.0
 40
30.48
  1
２３５
 41
1.083333333333333
  7
ＭＳ ゴシック
100
AcDbText
  0
TEXT
  5
84
330
1F
100
AcDbEntity
  8
F-Fﾚｲﾔ
  6
Continuous
 62
     7
370
     9
100
AcDbText
 10
-1698.542772977969
 20
-1242.734902438013
 30
0.0
 40
30.48
  1
２４７．５
 41
1.1
  7
ＭＳ ゴシック
100
AcDbText
  0
TEXT
  5
85
330
1F
100
AcDbEntity
  8
F-Fﾚｲﾔ
  6
Continuous
 62
     7
370
     9
100
AcDbText
 10
-1698.542746466559
 20
-1322.734660889615
 30
0.0
 40
30.48
  1
２６０
 41
1.083333333333333
  7
ＭＳ ゴシック
100
AcDbText
  0
TEXT
  5
86
330
1F
100
AcDbEntity
  8
F-Fﾚｲﾔ
  6
Continuous
 62
     7
370
     9
100
AcDbText
 10
-1698.542777463666
 20
-1402.73441934124
 30
0.0
 40
30.48
  1
２７２．５
 50
0.0000455697677715
 41
1.1
  7
ＭＳ ゴシック
100
AcDbText
  0
TEXT
  5
87
330
1F
100
AcDbEntity
  8
F-Fﾚｲﾔ
  6
Continuous
 62
     7
370
     9
100
AcDbText
 10
-1698.542746466559
 20
-1482.734177792818
 30
0.0
 40
30.48
  1
２８５
 41
1.083333333333333
  7
ＭＳ ゴシック
100
AcDbText
  0
TEXT
  5
88
330
1F
100
AcDbEntity
  8
F-Fﾚｲﾔ
  6
Continuous
 62
     7
370
     9
100
AcDbText
 10
-1698.542772977969
 20
-1562.73393624442
 30
0.0
 40
30.48
  1
２９７．５
 41
1.1
  7
ＭＳ ゴシック
100
AcDbText
  0
TEXT
  5
89
330
1F
100
AcDbEntity
  8
F-Fﾚｲﾔ
  6
Continuous
 62
     7
370
     9
100
AcDbText
 10
-1698.542746466559
 20
-1642.733694696022
 30
0.0
 40
30.48
  1
３１０
 41
1.083333333333333
  7
ＭＳ ゴシック
100
AcDbText
  0
TEXT
  5
8A
330
1F
100
AcDbEntity
  8
F-Fﾚｲﾔ
  6
Continuous
 62
     7
370
     9
100
AcDbText
 10
-1698.542772977969
 20
-602.7363973869412
 30
0.0
 40
30.48
  1
１４７．５
 41
1.1
  7
ＭＳ ゴシック
100
AcDbText
  0
TEXT
  5
8B
330
1F
100
AcDbEntity
  8
F-Fﾚｲﾔ
  6
Continuous
 62
     7
370
     9
100
AcDbText
 10
-1698.542772977969
 20
-762.7360017777962
 30
0.0
 40
30.48
  1
１７２．５
 41
1.1
  7
ＭＳ ゴシック
100
AcDbText
  0
TEXT
  5
8C
330
1F
100
AcDbEntity
  8
F-Fﾚｲﾔ
  6
Continuous
 62
     7
370
     9
100
AcDbText
 10
-1698.542746466559
 20
-362.7357222297109
 30
0.0
 40
30.48
  1
１１０
 41
1.083333333333333
  7
ＭＳ ゴシック
100
AcDbText
  0
TEXT
  5
8D
330
1F
100
AcDbEntity
  8
F-Fﾚｲﾔ
  6
Continuous
 62
     7
370
     9
100
AcDbText
 10
-1698.542759520461
 20
-442.7354806812565
 30
0.0
 40
30.48
  1
１２２．５
 50
359.9998632906934
 41
1.099999999999999
  7
ＭＳ ゴシック
100
AcDbText
  0
TEXT
  5
8E
330
1F
100
AcDbEntity
  8
F-Fﾚｲﾔ
  6
Continuous
 62
     7
370
     9
100
AcDbText
 10
-1698.542746466559
 20
-522.7355890835207
 30
0.0
 40
30.48
  1
１３５
 41
1.083333333333333
  7
ＭＳ ゴシック
100
AcDbText
  0
TEXT
  5
8F
330
1F
100
AcDbEntity
  8
F-Fﾚｲﾔ
  6
Continuous
 62
     7
370
     9
100
AcDbText
 10
-1743.542715978439
 20
-282.7363137287156
 30
0.0
 40
30.48
  1
　　９７．５
 41
1.104166666666667
  7
ＭＳ ゴシック
100
AcDbText
  0
TEXT
  5
90
330
1F
100
AcDbEntity
  8
F-Fﾚｲﾔ
  6
Continuous
 62
     7
370
     9
100
AcDbText
 10
-1584.324131085606
 20
-113.6079853096157
 30
0.0
 40
30.48
  1
［ｍｍ］
 41
1.09375
  7
ＭＳ ゴシック
100
AcDbText
  0
LINE
  5
91
330
1F
100
AcDbEntity
  8
F-Fﾚｲﾔ
  6
Continuous
 62
     7
370
     9
100
AcDbLine
 10
-2258.543418383506
 20
-218.3749940496617
 30
0.0
 11
-1433.543000386949
 21
-218.3749940496617
 31
0.0
  0
LINE
  5
92
330
1F
100
AcDbEntity
  8
F-Fﾚｲﾔ
  6
Continuous
 62
     7
370
     9
100
AcDbLine
 10
-2258.543418383506
 20
-228.3751825752407
 30
0.0
 11
-1433.543000386949
 21
-228.3751825752407
 31
0.0
  0
LINE
  5
93
330
1F
100
AcDbEntity
  8
F-Fﾚｲﾔ
  6
Continuous
 62
     7
370
     9
100
AcDbLine
 10
-2258.543418383506
 20
-308.3749410268425
 30
0.0
 11
-1433.543000386949
 21
-308.3749410268425
 31
0.0
  0
LINE
  5
94
330
1F
100
AcDbEntity
  8
F-Fﾚｲﾔ
  6
Continuous
 62
     7
370
     9
100
AcDbLine
 10
-2258.543418383506
 20
-388.3750494290504
 30
0.0
 11
-1433.543000386949
 21
-388.3750494290504
 31
0.0
  0
LINE
  5
95
330
1F
100
AcDbEntity
  8
F-Fﾚｲﾔ
  6
Continuous
 62
     7
370
     9
100
AcDbLine
 10
-2258.543418383506
 20
-468.3751578312584
 30
0.0
 11
-1433.543000386949
 21
-468.3751578312584
 31
0.0
  0
LINE
  5
96
330
1F
100
AcDbEntity
  8
F-Fﾚｲﾔ
  6
Continuous
 62
     7
370
     9
100
AcDbLine
 10
-2258.543418383506
 20
-548.3749162828601
 30
0.0
 11
-1433.543000386949
 21
-548.3749162828601
 31
0.0
  0
LINE
  5
97
330
1F
100
AcDbEntity
  8
F-Fﾚｲﾔ
  6
Continuous
 62
     7
370
     9
100
AcDbLine
 10
-2258.543418383506
 20
-628.3750246850682
 30
0.0
 11
-1433.543000386949
 21
-628.3750246850682
 31
0.0
  0
LINE
  5
98
330
1F
100
AcDbEntity
  8
F-Fﾚｲﾔ
  6
Continuous
 62
     7
370
     9
100
AcDbLine
 10
-2258.543418383506
 20
-708.375133087276
 30
0.0
 11
-1433.543000386949
 21
-708.375133087276
 31
0.0
  0
LINE
  5
99
330
1F
100
AcDbEntity
  8
F-Fﾚｲﾔ
  6
Continuous
 62
     7
370
     9
100
AcDbLine
 10
-2258.543418383506
 20
-788.3752414894841
 30
0.0
 11
-1433.543000386949
 21
-788.3752414894841
 31
0.0
  0
LINE
  5
9A
330
1F
100
AcDbEntity
  8
F-Fﾚｲﾔ
  6
Continuous
 62
     7
370
     9
100
AcDbLine
 10
-2258.543418383506
 20
-868.3749999410859
 30
0.0
 11
-1433.543000386949
 21
-868.3749999410859
 31
0.0
  0
LINE
  5
9B
330
1F
100
AcDbEntity
  8
F-Fﾚｲﾔ
  6
Continuous
 62
     7
370
     9
100
AcDbLine
 10
-2258.543418383506
 20
-948.375108343294
 30
0.0
 11
-1433.543000386949
 21
-948.375108343294
 31
0.0
  0
LINE
  5
9C
330
1F
100
AcDbEntity
  8
F-Fﾚｲﾔ
  6
Continuous
 62
     7
370
     9
100
AcDbLine
 10
-2258.543418383506
 20
-1028.375041770199
 30
0.0
 11
-1433.543000386949
 21
-1028.375041770199
 31
0.0
  0
LINE
  5
9D
330
1F
100
AcDbEntity
  8
F-Fﾚｲﾔ
  6
Continuous
 62
     7
370
     9
100
AcDbLine
 10
-2258.543418383506
 20
-1108.375150172407
 30
0.0
 11
-1433.543000386949
 21
-1108.375150172407
 31
0.0
  0
LINE
  5
9E
330
1F
100
AcDbEntity
  8
F-Fﾚｲﾔ
  6
Continuous
 62
     7
370
     9
100
AcDbLine
 10
-2258.543418383506
 20
-1188.374908624008
 30
0.0
 11
-1433.543000386949
 21
-1188.374908624008
 31
0.0
  0
LINE
  5
9F
330
1F
100
AcDbEntity
  8
F-Fﾚｲﾔ
  6
Continuous
 62
     7
370
     9
100
AcDbLine
 10
-2258.543418383506
 20
-1268.375017026216
 30
0.0
 11
-1433.543000386949
 21
-1268.375017026216
 31
0.0
  0
LINE
  5
A0
330
1F
100
AcDbEntity
  8
F-Fﾚｲﾔ
  6
Continuous
 62
     7
370
     9
100
AcDbLine
 10
-2258.543418383506
 20
-1348.375125428424
 30
0.0
 11
-1433.543000386949
 21
-1348.375125428424
 31
0.0
  0
LINE
  5
A1
330
1F
100
AcDbEntity
  8
F-Fﾚｲﾔ
  6
Continuous
 62
     7
370
     9
100
AcDbLine
 10
-2258.543418383506
 20
-1428.375146342981
 30
0.0
 11
-1433.543000386949
 21
-1428.375146342981
 31
0.0
  0
LINE
  5
A2
330
1F
100
AcDbEntity
  8
F-Fﾚｲﾔ
  6
Continuous
 62
     7
370
     9
100
AcDbLine
 10
-2258.543418383506
 20
-1508.374992282234
 30
0.0
 11
-1433.543000386949
 21
-1508.374992282234
 31
0.0
  0
LINE
  5
A3
330
1F
100
AcDbEntity
  8
F-Fﾚｲﾔ
  6
Continuous
 62
     7
370
     9
100
AcDbLine
 10
-2258.543418383506
 20
-1588.374925709139
 30
0.0
 11
-1433.543000386949
 21
-1588.374925709139
 31
0.0
  0
LINE
  5
A4
330
1F
100
AcDbEntity
  8
F-Fﾚｲﾔ
  6
Continuous
 62
     7
370
     9
100
AcDbLine
 10
-2258.543418383506
 20
-1668.374946623695
 30
0.0
 11
-1433.543000386949
 21
-1668.374946623695
 31
0.0
  0
LINE
  5
A5
330
1F
100
AcDbEntity
  8
F-Fﾚｲﾔ
  6
Continuous
 62
     7
370
     9
100
AcDbLine
 10
-2258.543418383506
 20
-138.3748856474534
 30
0.0
 11
-1433.543000386949
 21
-138.3748856474534
 31
0.0
  0
TEXT
  5
A6
330
1F
100
AcDbEntity
  8
寸法
  6
Continuous
 62
     7
370
     9
100
AcDbText
 10
-688.1306127139906
 20
-1010.649624444461
 30
0.0
 40
30.48
  1
ジョイント穴詳細
 41
1.109375
  7
ＭＳ ゴシック
100
AcDbText
  0
LINE
  5
A7
330
1F
100
AcDbEntity
  8
寸法
  6
Continuous
 62
     7
370
     9
100
AcDbLine
 10
-706.1306127139903
 20
-961.2896244444606
 30
0.0
 11
-315.1306127139904
 21
-961.2896244444606
 31
0.0
  0
LINE
  5
A8
330
1F
100
AcDbEntity
  8
寸法
  6
Continuous
 62
     7
370
     9
100
AcDbLine
 10
-706.1306127139903
 20
-1031.289624444461
 30
0.0
 11
-315.1306127139904
 21
-1031.289624444461
 31
0.0
  0
LINE
  5
A9
330
1F
100
AcDbEntity
  8
寸法
  6
Continuous
 62
     7
370
     9
100
AcDbLine
 10
-706.1306127139903
 20
-961.2896244444606
 30
0.0
 11
-706.1306127139903
 21
-1031.289624444461
 31
0.0
  0
LINE
  5
AA
330
1F
100
AcDbEntity
  8
寸法
  6
Continuous
 62
     7
370
     9
100
AcDbLine
 10
-315.1306127139904
 20
-961.2896244444606
 30
0.0
 11
-315.1306127139904
 21
-1031.289624444461
 31
0.0
  0
LINE
  5
AB
330
1F
100
AcDbEntity
  8
通り芯
  6
Continuous
 62
     3
370
     9
100
AcDbLine
 10
-2182.142326887547
 20
1032.938177804683
 30
0.0
 11
-2182.142326887547
 21
1616.937849298861
 31
0.0
  0
LINE
  5
AC
330
1F
100
AcDbEntity
  8
躯体
  6
Continuous
 62
     6
370
     9
100
AcDbLine
 10
-2182.142326887547
 20
1616.937849298861
 30
0.0
 11
-2182.142326887547
 21
1032.938177804683
 31
0.0
  0
LINE
  5
AD
330
1F
100
AcDbEntity
  8
躯体
  6
Continuous
 62
     6
370
     9
100
AcDbLine
 10
-2186.143662119962
 20
1032.938177804683
 30
0.0
 11
-2186.143662119962
 21
1616.937849298861
 31
0.0
  0
LINE
  5
AE
330
1F
100
AcDbEntity
  8
躯体
  6
Continuous
 62
     6
370
     9
100
AcDbLine
 10
-2182.142326887547
 20
1616.937849298861
 30
0.0
 11
-2186.143662119962
 21
1616.937849298861
 31
0.0
  0
LINE
  5
AF
330
1F
100
AcDbEntity
  8
躯体
  6
Continuous
 62
     6
370
     9
100
AcDbLine
 10
-2182.142326887547
 20
1032.938177804683
 30
0.0
 11
-2186.143662119962
 21
1032.938177804683
 31
0.0
  0
LINE
  5
B0
330
1F
100
AcDbEntity
  8
躯体
  6
JWW_DASHED1
 62
     6
370
     9
100
AcDbLine
 10
-2182.142326887547
 20
1032.938177804683
 30
0.0
 11
-2096.143015241568
 21
1032.938177804683
 31
0.0
  0
LINE
  5
B1
330
1F
100
AcDbEntity
  8
躯体
  6
JWW_DASHED1
 62
     6
370
     9
100
AcDbLine
 10
-2096.143015241568
 20
1032.938177804683
 30
0.0
 11
-2096.143015241568
 21
1616.937849298861
 31
0.0
  0
LINE
  5
B2
330
1F
100
AcDbEntity
  8
躯体
  6
JWW_DASHED1
 62
     6
370
     9
100
AcDbLine
 10
-2186.143662119962
 20
1616.937849298861
 30
0.0
 11
-2096.143015241568
 21
1616.937849298861
 31
0.0
  0
LINE
  5
B3
330
1F
100
AcDbEntity
  8
躯体
  6
Continuous
 62
     6
370
     9
100
AcDbLine
 10
-2182.142326887547
 20
1576.937795097758
 30
0.0
 11
-2186.143662119962
 21
1576.937795097758
 31
0.0
  0
LINE
  5
B4
330
1F
100
AcDbEntity
  8
躯体
  6
Continuous
 62
     6
370
     9
100
AcDbLine
 10
-2182.142326887547
 20
1524.937934606686
 30
0.0
 11
-2186.143662119962
 21
1524.937934606686
 31
0.0
  0
LINE
  5
B5
330
1F
100
AcDbEntity
  8
躯体
  6
Continuous
 62
     6
370
     9
100
AcDbLine
 10
-2182.142326887547
 20
1324.938363502379
 30
0.0
 11
-2186.143662119962
 21
1324.938363502379
 31
0.0
  0
LINE
  5
B6
330
1F
100
AcDbEntity
  8
躯体
  6
Continuous
 62
     6
370
     9
100
AcDbLine
 10
-2182.142326887547
 20
1124.938792398071
 30
0.0
 11
-2186.143662119962
 21
1124.938792398071
 31
0.0
  0
LINE
  5
B7
330
1F
100
AcDbEntity
  8
躯体
  6
Continuous
 62
     6
370
     9
100
AcDbLine
 10
-2182.142326887547
 20
1072.938232005787
 30
0.0
 11
-2186.143662119962
 21
1072.938232005787
 31
0.0
  0
LINE
  5
B8
330
1F
100
AcDbEntity
  8
通り芯
  6
Continuous
 62
     3
370
     9
100
AcDbLine
 10
-1186.143531919483
 20
1616.937849298861
 30
0.0
 11
-2182.142326887547
 21
1616.937849298861
 31
0.0
  0
LINE
  5
B9
330
1F
100
AcDbEntity
  8
通り芯
  6
Continuous
 62
     3
370
     9
100
AcDbLine
 10
-1186.143531919483
 20
1032.938177804683
 30
0.0
 11
-1186.143531919483
 21
1616.937849298861
 31
0.0
  0
LINE
  5
BA
330
1F
100
AcDbEntity
  8
通り芯
  6
Continuous
 62
     3
370
     9
100
AcDbLine
 10
-1190.144517201291
 20
1032.938177804683
 30
0.0
 11
-1190.144517201291
 21
1616.937849298861
 31
0.0
  0
LINE
  5
BB
330
1F
100
AcDbEntity
  8
躯体
  6
Continuous
 62
     6
370
     9
100
AcDbLine
 10
-1190.144517201291
 20
1616.937849298861
 30
0.0
 11
-1190.144517201291
 21
1032.938177804683
 31
0.0
  0
LINE
  5
BC
330
1F
100
AcDbEntity
  8
躯体
  6
Continuous
 62
     6
370
     9
100
AcDbLine
 10
-1186.143181968877
 20
1032.938177804683
 30
0.0
 11
-1186.143181968877
 21
1616.937849298861
 31
0.0
  0
LINE
  5
BD
330
1F
100
AcDbEntity
  8
躯体
  6
Continuous
 62
     6
370
     9
100
AcDbLine
 10
-1190.144517201291
 20
1616.937849298861
 30
0.0
 11
-1186.143181968877
 21
1616.937849298861
 31
0.0
  0
LINE
  5
BE
330
1F
100
AcDbEntity
  8
躯体
  6
Continuous
 62
     6
370
     9
100
AcDbLine
 10
-1190.144517201291
 20
1032.938177804683
 30
0.0
 11
-1186.143181968877
 21
1032.938177804683
 31
0.0
  0
LINE
  5
BF
330
1F
100
AcDbEntity
  8
躯体
  6
JWW_DASHED1
 62
     6
370
     9
100
AcDbLine
 10
-1190.144517201291
 20
1032.938177804683
 30
0.0
 11
-1276.143828847271
 21
1032.938177804683
 31
0.0
  0
LINE
  5
C0
330
1F
100
AcDbEntity
  8
躯体
  6
JWW_DASHED1
 62
     6
370
     9
100
AcDbLine
 10
-1276.143828847271
 20
1032.938177804683
 30
0.0
 11
-1276.143828847271
 21
1616.937849298861
 31
0.0
  0
LINE
  5
C1
330
1F
100
AcDbEntity
  8
躯体
  6
JWW_DASHED1
 62
     6
370
     9
100
AcDbLine
 10
-1186.143181968877
 20
1616.937849298861
 30
0.0
 11
-1276.143828847271
 21
1616.937849298861
 31
0.0
  0
LINE
  5
C2
330
1F
100
AcDbEntity
  8
躯体
  6
Continuous
 62
     6
370
     9
100
AcDbLine
 10
-1190.144517201291
 20
1576.937795097758
 30
0.0
 11
-1186.143181968877
 21
1576.937795097758
 31
0.0
  0
LINE
  5
C3
330
1F
100
AcDbEntity
  8
躯体
  6
Continuous
 62
     6
370
     9
100
AcDbLine
 10
-1190.144517201291
 20
1524.937934606686
 30
0.0
 11
-1186.143181968877
 21
1524.937934606686
 31
0.0
  0
LINE
  5
C4
330
1F
100
AcDbEntity
  8
躯体
  6
Continuous
 62
     6
370
     9
100
AcDbLine
 10
-1190.144517201291
 20
1324.938363502379
 30
0.0
 11
-1186.143181968877
 21
1324.938363502379
 31
0.0
  0
LINE
  5
C5
330
1F
100
AcDbEntity
  8
躯体
  6
Continuous
 62
     6
370
     9
100
AcDbLine
 10
-1190.144517201291
 20
1124.938792398071
 30
0.0
 11
-1186.143181968877
 21
1124.938792398071
 31
0.0
  0
LINE
  5
C6
330
1F
100
AcDbEntity
  8
躯体
  6
Continuous
 62
     6
370
     9
100
AcDbLine
 10
-1190.144517201291
 20
1072.938232005787
 30
0.0
 11
-1186.143181968877
 21
1072.938232005787
 31
0.0
  0
LINE
  5
C7
330
1F
100
AcDbEntity
  8
通り芯
  6
Continuous
 62
     3
370
     9
100
AcDbLine
 10
-1190.144517201291
 20
1524.937934606686
 30
0.0
 11
-2182.142326887547
 21
1524.937934606686
 31
0.0
  0
LINE
  5
C8
330
1F
100
AcDbEntity
  8
通り芯
  6
Continuous
 62
     3
370
     9
100
AcDbLine
 10
-1190.144517201291
 20
1576.937795097758
 30
0.0
 11
-2182.142326887547
 21
1576.937795097758
 31
0.0
  0
LINE
  5
C9
330
1F
100
AcDbEntity
  8
092
  6
Continuous
 62
     7
370
     9
100
AcDbLine
 10
-2290.895951880948
 20
1340.19551003577
 30
0.0
 11
-2290.895951880948
 21
1304.836500775394
 31
0.0
  0
LINE
  5
CA
330
1F
100
AcDbEntity
  8
092
  6
Continuous
 62
     7
370
     9
100
AcDbLine
 10
-2290.895951880948
 20
1340.19551003577
 30
0.0
 11
-2233.955138779552
 21
1324.938363502379
 31
0.0
  0
LINE
  5
CB
330
1F
100
AcDbEntity
  8
092
  6
Continuous
 62
     7
370
     9
100
AcDbLine
 10
-2364.178758395261
 20
1324.938363502379
 30
0.0
 11
-2233.955138779552
 21
1324.938363502379
 31
0.0
  0
LINE
  5
CC
330
1F
100
AcDbEntity
  8
092
  6
Continuous
 62
     7
370
     9
100
AcDbLine
 10
-1081.391242158496
 20
1340.19551003577
 30
0.0
 11
-1081.391242158496
 21
1304.836500775394
 31
0.0
  0
LINE
  5
CD
330
1F
100
AcDbEntity
  8
092
  6
Continuous
 62
     7
370
     9
100
AcDbLine
 10
-1081.391242158496
 20
1340.19551003577
 30
0.0
 11
-1138.332055259893
 21
1324.938363502379
 31
0.0
  0
LINE
  5
CE
330
1F
100
AcDbEntity
  8
092
  6
Continuous
 62
     7
370
     9
100
AcDbLine
 10
-1008.108435644183
 20
1324.938363502379
 30
0.0
 11
-1138.332055259893
 21
1324.938363502379
 31
0.0
  0
LINE
  5
CF
330
1F
100
AcDbEntity
  8
通り芯
  6
Continuous
 62
     3
370
     9
100
AcDbLine
 10
-1186.143531919483
 20
1032.938177804683
 30
0.0
 11
-2182.142326887547
 21
1032.938177804683
 31
0.0
  0
LINE
  5
D0
330
1F
100
AcDbEntity
  8
通り芯
  6
Continuous
 62
     3
370
     9
100
AcDbLine
 10
-1190.144517201291
 20
1072.938232005787
 30
0.0
 11
-2182.142326887547
 21
1072.938232005787
 31
0.0
  0
LINE
  5
D1
330
1F
100
AcDbEntity
  8
通り芯
  6
Continuous
 62
     3
370
     9
100
AcDbLine
 10
-1190.144517201291
 20
1124.938792398071
 30
0.0
 11
-2182.142326887547
 21
1124.938792398071
 31
0.0
  0
LINE
  5
D2
330
1F
100
AcDbEntity
  8
通り芯
  6
Continuous
 62
     3
370
     9
100
AcDbLine
 10
-2182.142326887547
 20
1324.938363502379
 30
0.0
 11
-1781.143550772041
 21
1324.938363502379
 31
0.0
  0
LINE
  5
D3
330
1F
100
AcDbEntity
  8
通り芯
  6
Continuous
 62
     3
370
     9
100
AcDbLine
 10
-1591.143468292101
 20
1324.938363502379
 30
0.0
 11
-1190.144517201291
 21
1324.938363502379
 31
0.0
  0
LINE
  5
D4
330
1F
100
AcDbEntity
  8
092
  6
Continuous
 62
     7
370
     9
100
AcDbLine
 10
-1743.084322633468
 20
1693.106348512709
 30
0.0
 11
-1743.084322633468
 21
1657.747339252333
 31
0.0
  0
LINE
  5
D5
330
1F
100
AcDbEntity
  8
092
  6
Continuous
 62
     7
370
     9
100
AcDbLine
 10
-1743.084322633468
 20
1693.106348512709
 30
0.0
 11
-1686.143509532071
 21
1677.849201979318
 31
0.0
  0
LINE
  5
D6
330
1F
100
AcDbEntity
  8
092
  6
Continuous
 62
     7
370
     9
100
AcDbLine
 10
-1816.367304123084
 20
1677.849201979318
 30
0.0
 11
-1686.143509532071
 21
1677.849201979318
 31
0.0
  0
LINE
  5
D7
330
1F
100
AcDbEntity
  8
092
  6
Continuous
 62
     7
370
     9
100
AcDbLine
 10
-1743.084322633468
 20
956.7700285414413
 30
0.0
 11
-1743.084322633468
 21
992.1293877524239
 31
0.0
  0
LINE
  5
D8
330
1F
100
AcDbEntity
  8
092
  6
Continuous
 62
     7
370
     9
100
AcDbLine
 10
-1743.084322633468
 20
956.7700285414413
 30
0.0
 11
-1686.143509532071
 21
972.0271750748328
 31
0.0
  0
LINE
  5
D9
330
1F
100
AcDbEntity
  8
092
  6
Continuous
 62
     7
370
     9
100
AcDbLine
 10
-1816.367304123084
 20
972.0271750748328
 30
0.0
 11
-1686.143509532071
 21
972.0271750748328
 31
0.0
  0
CIRCLE
  5
DA
330
1F
100
AcDbEntity
  8
仕上
  6
JWW_DASHED1
 62
     2
370
     9
100
AcDbCircle
 10
-1686.143509532071
 20
1324.938363502379
 30
0.0
 40
94.99999749614466
  0
CIRCLE
  5
DB
330
1F
100
AcDbEntity
  8
仕上
  6
JWW_DASHED1
 62
     2
370
     9
100
AcDbCircle
 10
-1686.143509532071
 20
1324.938363502379
 30
0.0
 40
87.80000436259974
  0
CIRCLE
  5
DC
330
1F
100
AcDbEntity
  8
仕上
  6
Continuous
 62
     2
370
     9
100
AcDbCircle
 10
-1686.143509532071
 20
1324.938363502379
 30
0.0
 40
84.9000019640536
  0
CIRCLE
  5
DD
330
1F
100
AcDbEntity
  8
通り芯
  6
Continuous
 62
     3
370
     9
100
AcDbCircle
 10
-1686.143509532071
 20
1324.938363502379
 30
0.0
 40
85.00000034980332
  0
CIRCLE
  5
DE
330
1F
100
AcDbEntity
  8
092
  6
JWW_DASHED1
 62
     6
370
     9
100
AcDbCircle
 10
-1243.144011599254
 20
1586.937983623337
 30
0.0
 40
13.00000066462631
  0
CIRCLE
  5
DF
330
1F
100
AcDbEntity
  8
092
  6
JWW_DASHED1
 62
     6
370
     9
100
AcDbCircle
 10
-1243.144011599254
 20
1062.938743381421
 30
0.0
 40
13.00000066462631
  0
CIRCLE
  5
E0
330
1F
100
AcDbEntity
  8
092
  6
JWW_DASHED1
 62
     6
370
     9
100
AcDbCircle
 10
-2129.143007464889
 20
1586.937983623337
 30
0.0
 40
13.00000066462631
  0
CIRCLE
  5
E1
330
1F
100
AcDbEntity
  8
092
  6
JWW_DASHED1
 62
     6
370
     9
100
AcDbCircle
 10
-2129.143007464889
 20
1062.938743381421
 30
0.0
 40
13.00000066462631
  0
TEXT
  5
E2
330
1F
100
AcDbEntity
  8
092
  6
Continuous
 62
     7
370
     9
100
AcDbText
 10
-2355.574867560174
 20
1338.580334065995
 30
0.0
 40
30.48
  1
Ａ
 41
0.9999999999999998
  7
ＭＳ ゴシック
100
AcDbText
  0
TEXT
  5
E3
330
1F
100
AcDbEntity
  8
092
  6
Continuous
 62
     7
370
     9
100
AcDbText
 10
-1056.712348351184
 20
1338.580334065995
 30
0.0
 40
30.48
  1
Ａ
 41
0.9999999999999998
  7
ＭＳ ゴシック
100
AcDbText
  0
TEXT
  5
E4
330
1F
100
AcDbEntity
  8
092
  6
Continuous
 62
     7
370
     9
100
AcDbText
 10
-1807.763260184605
 20
1691.491522493541
 30
0.0
 40
30.48
  1
Ｃ
 41
0.9999999999999998
  7
ＭＳ ゴシック
100
AcDbText
  0
TEXT
  5
E5
330
1F
100
AcDbEntity
  8
092
  6
Continuous
 62
     7
370
     9
100
AcDbText
 10
-1807.763260184605
 20
929.6649753348094
 30
0.0
 40
30.48
  1
Ｃ
 41
0.9999999999999998
  7
ＭＳ ゴシック
100
AcDbText
  0
LINE
  5
E6
330
1F
100
AcDbEntity
  8
092
  6
JWW_PHANTOM2
 62
     7
370
     9
100
AcDbLine
 10
-1686.143509532071
 20
946.0006485832185
 30
0.0
 11
-1686.143509532071
 21
1753.682578963387
 31
0.0
  0
LINE
  5
E7
330
1F
100
AcDbEntity
  8
その他
  6
Continuous
 62
     7
370
     9
100
AcDbLine
 10
-2186.143662119962
 20
1817.315566965261
 30
0.0
 11
-1186.143531919483
 21
1817.315566965261
 31
0.0
  0
LWPOLYLINE
  5
E8
330
1F
100
AcDbEntity
  8
その他
  6
Continuous
 62
     7
370
     9
100
AcDbPolyline
 90
        4
 70
     1
 43
1.0
 10
-2185.643662119962
 20
1817.315566965261
 42
0.4142135623731
 10
-2186.143662119962
 20
1817.815566965261
 42
0.4142135623731
 10
-2186.643662119962
 20
1817.315566965261
 42
0.4142135623731
 10
-2186.143662119962
 20
1816.815566965261
 42
0.4142135623731
  0
LWPOLYLINE
  5
E9
330
1F
100
AcDbEntity
  8
その他
  6
Continuous
 62
     7
370
     9
100
AcDbPolyline
 90
        4
 70
     1
 43
1.0
 10
-1185.643531919483
 20
1817.315566965261
 42
0.4142135623731
 10
-1186.143531919483
 20
1817.815566965261
 42
0.4142135623731
 10
-1186.643531919483
 20
1817.315566965261
 42
0.4142135623731
 10
-1186.143531919483
 20
1816.815566965261
 42
0.4142135623731
  0
LINE
  5
EA
330
1F
100
AcDbEntity
  8
その他
  6
Continuous
 62
     7
370
     9
100
AcDbLine
 10
-2186.143662119962
 20
1820.315566965261
 30
0.0
 11
-2186.143662119962
 21
1636.937849298861
 31
0.0
  0
LINE
  5
EB
330
1F
100
AcDbEntity
  8
その他
  6
Continuous
 62
     7
370
     9
100
AcDbLine
 10
-1186.143531919483
 20
1820.315566965261
 30
0.0
 11
-1186.143531919483
 21
1636.937849298861
 31
0.0
  0
TEXT
  5
EC
330
1F
100
AcDbEntity
  8
その他
  6
Continuous
 62
     2
370
   211
100
AcDbText
 10
-1718.643597019723
 20
1828.955566965261
 30
0.0
 40
30.48
  1
500
 41
1.083333333333333
  7
ＭＳ ゴシック
100
AcDbText
  0
LINE
  5
ED
330
1F
100
AcDbEntity
  8
その他
  6
Continuous
 62
     7
370
     9
100
AcDbLine
 10
-902.8794767904194
 20
1032.938177804683
 30
0.0
 11
-902.8794767904194
 21
1616.937849298861
 31
0.0
  0
LWPOLYLINE
  5
EE
330
1F
100
AcDbEntity
  8
その他
  6
Continuous
 62
     7
370
     9
100
AcDbPolyline
 90
        4
 70
     1
 43
1.0
 10
-902.3794767904194
 20
1032.938177804683
 42
0.4142135623731
 10
-902.8794767904194
 20
1033.438177804683
 42
0.4142135623731
 10
-903.3794767904193
 20
1032.938177804683
 42
0.4142135623731
 10
-902.8794767904194
 20
1032.438177804683
 42
0.4142135623731
  0
LWPOLYLINE
  5
EF
330
1F
100
AcDbEntity
  8
その他
  6
Continuous
 62
     7
370
     9
100
AcDbPolyline
 90
        4
 70
     1
 43
1.0
 10
-902.3794767904194
 20
1616.937849298861
 42
0.4142135623731
 10
-902.8794767904194
 20
1617.437849298861
 42
0.4142135623731
 10
-903.3794767904193
 20
1616.937849298861
 42
0.4142135623731
 10
-902.8794767904194
 20
1616.437849298861
 42
0.4142135623731
  0
LINE
  5
F0
330
1F
100
AcDbEntity
  8
その他
  6
Continuous
 62
     7
370
     9
100
AcDbLine
 10
-899.8794767904192
 20
1032.938177804683
 30
0.0
 11
-1166.143181968877
 21
1032.938177804683
 31
0.0
  0
LINE
  5
F1
330
1F
100
AcDbEntity
  8
その他
  6
Continuous
 62
     7
370
     9
100
AcDbLine
 10
-899.8794767904192
 20
1616.937849298861
 30
0.0
 11
-1166.143181968877
 21
1616.937849298861
 31
0.0
  0
TEXT
  5
F2
330
1F
100
AcDbEntity
  8
その他
  6
Continuous
 62
     2
370
   211
100
AcDbText
 10
-914.5194767904196
 20
1292.438013551773
 30
0.0
 40
30.48
  1
292
 50
90.0
 41
1.083333333333333
  7
ＭＳ ゴシック
100
AcDbText
  0
LINE
  5
F3
330
1F
100
AcDbEntity
  8
通り芯
  6
JWW_DASHED1
 62
     3
370
     9
100
AcDbLine
 10
-751.2875391574894
 20
1616.937849298861
 30
0.0
 11
-741.2887504343357
 21
1616.937849298861
 31
0.0
  0
LINE
  5
F4
330
1F
100
AcDbEntity
  8
通り芯
  6
JWW_DASHED1
 62
     3
370
     9
100
AcDbLine
 10
-723.2879911475654
 20
1530.936787899851
 30
0.0
 11
-723.2879911475654
 21
1573.937318599356
 31
0.0
  0
LINE
  5
F5
330
1F
100
AcDbEntity
  8
通り芯
  6
JWW_DASHED1
 62
     3
370
     9
100
AcDbLine
 10
-751.2875391574894
 20
1579.936871793734
 30
0.0
 11
-729.287544341943
 21
1579.936871793734
 31
0.0
  0
LINE
  5
F6
330
1F
100
AcDbEntity
  8
通り芯
  6
JWW_DASHED1
 62
     3
370
     9
100
AcDbLine
 10
-754.2873157546783
 20
1610.936896302059
 30
0.0
 11
-754.2873157546783
 21
1582.937348292135
 31
0.0
  0
LINE
  5
F7
330
1F
100
AcDbEntity
  8
通り芯
  6
JWW_DASHED1
 62
     3
370
     9
100
AcDbLine
 10
-751.2875391574894
 20
1613.936672899247
 30
0.0
 11
-741.2887504343357
 21
1613.936672899247
 31
0.0
  0
LINE
  5
F8
330
1F
100
AcDbEntity
  8
通り芯
  6
JWW_DASHED1
 62
     3
370
     9
100
AcDbLine
 10
-729.287544341943
 20
1576.937095196545
 30
0.0
 11
-751.2875391574894
 21
1576.937095196545
 31
0.0
  0
LINE
  5
F9
330
1F
100
AcDbEntity
  8
通り芯
  6
JWW_DASHED1
 62
     3
370
     9
100
AcDbLine
 10
-741.2887504343357
 20
1613.936672899247
 30
0.0
 11
-741.2887504343357
 21
1616.937849298861
 31
0.0
  0
LINE
  5
FA
330
1F
100
AcDbEntity
  8
通り芯
  6
JWW_DASHED1
 62
     3
370
     9
100
AcDbLine
 10
-751.2875391574894
 20
1032.93747790347
 30
0.0
 11
-741.2887504343357
 21
1032.93747790347
 31
0.0
  0
LINE
  5
FB
330
1F
100
AcDbEntity
  8
通り芯
  6
JWW_DASHED1
 62
     3
370
     9
100
AcDbLine
 10
-723.2879911475654
 20
1118.937139500056
 30
0.0
 11
-723.2879911475654
 21
1075.937308701763
 31
0.0
  0
LINE
  5
FC
330
1F
100
AcDbEntity
  8
通り芯
  6
JWW_DASHED1
 62
     3
370
     9
100
AcDbLine
 10
-751.2875391574894
 20
1069.937055606174
 30
0.0
 11
-729.287544341943
 21
1069.937055606174
 31
0.0
  0
LINE
  5
FD
330
1F
100
AcDbEntity
  8
通り芯
  6
JWW_DASHED1
 62
     3
370
     9
100
AcDbLine
 10
-754.2873157546783
 20
1038.937730999061
 30
0.0
 11
-754.2873157546783
 21
1066.937279008985
 31
0.0
  0
LINE
  5
FE
330
1F
100
AcDbEntity
  8
通り芯
  6
JWW_DASHED1
 62
     3
370
     9
100
AcDbLine
 10
-751.2875391574894
 20
1035.937254500659
 30
0.0
 11
-741.2887504343357
 21
1035.937254500659
 31
0.0
  0
LINE
  5
FF
330
1F
100
AcDbEntity
  8
通り芯
  6
JWW_DASHED1
 62
     3
370
     9
100
AcDbLine
 10
-729.287544341943
 20
1072.936832203362
 30
0.0
 11
-751.2875391574894
 21
1072.936832203362
 31
0.0
  0
LINE
  5
100
330
1F
100
AcDbEntity
  8
通り芯
  6
JWW_DASHED1
 62
     3
370
     9
100
AcDbLine
 10
-741.2887504343357
 20
1035.937254500659
 30
0.0
 11
-741.2887504343357
 21
1032.93747790347
 31
0.0
  0
LINE
  5
101
330
1F
100
AcDbEntity
  8
躯体
  6
Continuous
 62
     6
370
     9
100
AcDbLine
 10
-437.2877085948537
 20
1032.93747790347
 30
0.0
 11
-437.2877085948537
 21
1616.937849298861
 31
0.0
  0
LINE
  5
102
330
1F
100
AcDbEntity
  8
躯体
  6
JWW_DASHED2
 62
     6
370
     9
100
AcDbLine
 10
-441.2876440248428
 20
1032.93747790347
 30
0.0
 11
-441.2876440248428
 21
1616.937849298861
 31
0.0
  0
LINE
  5
103
330
1F
100
AcDbEntity
  8
躯体
  6
Continuous
 62
     6
370
     9
100
AcDbLine
 10
-757.2877922530793
 20
1072.936832203362
 30
0.0
 11
-757.2877922530793
 21
1032.93747790347
 31
0.0
  0
LINE
  5
104
330
1F
100
AcDbEntity
  8
躯体
  6
Continuous
 62
     6
370
     9
100
AcDbLine
 10
-726.2884676459666
 20
1072.936832203362
 30
0.0
 11
-757.2877922530793
 21
1072.936832203362
 31
0.0
  0
LINE
  5
105
330
1F
100
AcDbEntity
  8
躯体
  6
Continuous
 62
     6
370
     9
100
AcDbLine
 10
-726.2884676459666
 20
1072.936832203362
 30
0.0
 11
-726.2884676459666
 21
1124.937392595646
 31
0.0
  0
LINE
  5
106
330
1F
100
AcDbEntity
  8
躯体
  6
Continuous
 62
     6
370
     9
100
AcDbLine
 10
-726.2884676459666
 20
1576.937095196545
 30
0.0
 11
-757.2877922530793
 21
1576.937095196545
 31
0.0
  0
LINE
  5
107
330
1F
100
AcDbEntity
  8
躯体
  6
Continuous
 62
     6
370
     9
100
AcDbLine
 10
-726.2884676459666
 20
1576.937095196545
 30
0.0
 11
-726.2884676459666
 21
1524.936534804261
 31
0.0
  0
LINE
  5
108
330
1F
100
AcDbEntity
  8
躯体
  6
Continuous
 62
     6
370
     9
100
AcDbLine
 10
-757.2877922530793
 20
1576.937095196545
 30
0.0
 11
-757.2877922530793
 21
1616.937849298861
 31
0.0
  0
LINE
  5
109
330
1F
100
AcDbEntity
  8
躯体
  6
Continuous
 62
     6
370
     9
100
AcDbLine
 10
-757.2877922530793
 20
1616.937849298861
 30
0.0
 11
-437.2877085948537
 21
1616.937849298861
 31
0.0
  0
LINE
  5
10A
330
1F
100
AcDbEntity
  8
通り芯
  6
JWW_DASHED1
 62
     3
370
     9
100
AcDbLine
 10
-726.2884676459666
 20
1573.937318599356
 30
0.0
 11
-726.2884676459666
 21
1530.936787899851
 31
0.0
  0
LINE
  5
10B
330
1F
100
AcDbEntity
  8
通り芯
  6
JWW_DASHED1
 62
     3
370
     9
100
AcDbLine
 10
-726.2884676459666
 20
1118.937139500056
 30
0.0
 11
-726.2884676459666
 21
1075.937308701763
 31
0.0
  0
LINE
  5
10C
330
1F
100
AcDbEntity
  8
通り芯
  6
JWW_DASHED1
 62
     3
370
     9
100
AcDbLine
 10
-757.2877922530793
 20
1610.936896302059
 30
0.0
 11
-757.2877922530793
 21
1582.937348292135
 31
0.0
  0
LINE
  5
10D
330
1F
100
AcDbEntity
  8
通り芯
  6
JWW_DASHED1
 62
     3
370
     9
100
AcDbLine
 10
-757.2877922530793
 20
1066.937279008985
 30
0.0
 11
-757.2877922530793
 21
1038.937031097848
 31
0.0
  0
LINE
  5
10E
330
1F
100
AcDbEntity
  8
躯体
  6
Continuous
 62
     6
370
     9
100
AcDbLine
 10
-757.2877922530793
 20
1032.93747790347
 30
0.0
 11
-437.2877085948537
 21
1032.93747790347
 31
0.0
  0
LINE
  5
10F
330
1F
100
AcDbEntity
  8
躯体
  6
JWW_CENTER1
 62
     6
370
     9
100
AcDbLine
 10
-673.2086595838589
 20
1062.838657508019
 30
0.0
 11
-701.3551868484283
 21
1062.838657508019
 31
0.0
  0
LINE
  5
110
330
1F
100
AcDbEntity
  8
躯体
  6
JWW_CENTER1
 62
     6
370
     9
100
AcDbLine
 10
-547.289082475012
 20
1076.91227109091
 30
0.0
 11
-547.289082475012
 21
1048.766443727554
 31
0.0
  0
LINE
  5
111
330
1F
100
AcDbEntity
  8
躯体
  6
JWW_CENTER1
 62
     6
370
     9
100
AcDbLine
 10
-533.215468892121
 20
1062.838657508019
 30
0.0
 11
-561.3619961566903
 21
1062.838657508019
 31
0.0
  0
LINE
  5
112
330
1F
100
AcDbEntity
  8
躯体
  6
JWW_CENTER1
 62
     6
370
     9
100
AcDbLine
 10
-477.2877627959579
 20
1269.011357307428
 30
0.0
 11
-477.2877627959579
 21
1240.864830042859
 31
0.0
  0
LINE
  5
113
330
1F
100
AcDbEntity
  8
躯体
  6
JWW_CENTER1
 62
     6
370
     9
100
AcDbLine
 10
-463.2148491142797
 20
1254.93844362575
 30
0.0
 11
-491.361376378849
 21
1254.93844362575
 31
0.0
  0
LINE
  5
114
330
1F
100
AcDbEntity
  8
躯体
  6
JWW_CENTER1
 62
     6
370
     9
100
AcDbLine
 10
-780.9094581782122
 20
1324.938363502379
 30
0.0
 11
-352.253210770439
 21
1324.938363502379
 31
0.0
  0
LINE
  5
115
330
1F
100
AcDbEntity
  8
通り芯
  6
JWW_DASHED1
 62
     3
370
     9
100
AcDbLine
 10
-533.2168686945463
 20
1239.760735879988
 30
0.0
 11
-511.7806443057461
 21
1319.76049433159
 31
0.0
  0
LINE
  5
116
330
1F
100
AcDbEntity
  8
通り芯
  6
JWW_DASHED1
 62
     3
370
     9
100
AcDbLine
 10
-533.2168686945463
 20
1410.113191519919
 30
0.0
 11
-511.7806443057461
 21
1330.113433068318
 31
0.0
  0
LINE
  5
117
330
1F
100
AcDbEntity
  8
躯体
  6
JWW_CENTER1
 62
     6
370
     9
100
AcDbLine
 10
-687.28227316675
 20
1076.91227109091
 30
0.0
 11
-687.28227316675
 21
1048.766443727554
 31
0.0
  0
LINE
  5
118
330
1F
100
AcDbEntity
  8
躯体
  6
JWW_CENTER1
 62
     6
370
     9
100
AcDbLine
 10
-673.2086595838589
 20
1587.038069496738
 30
0.0
 11
-701.3551868484283
 21
1587.038069496738
 31
0.0
  0
LINE
  5
119
330
1F
100
AcDbEntity
  8
躯体
  6
JWW_CENTER1
 62
     6
370
     9
100
AcDbLine
 10
-547.289082475012
 20
1572.964455913847
 30
0.0
 11
-547.289082475012
 21
1601.110283277204
 31
0.0
  0
LINE
  5
11A
330
1F
100
AcDbEntity
  8
躯体
  6
JWW_CENTER1
 62
     6
370
     9
100
AcDbLine
 10
-533.215468892121
 20
1587.038069496738
 30
0.0
 11
-561.3619961566903
 21
1587.038069496738
 31
0.0
  0
LINE
  5
11B
330
1F
100
AcDbEntity
  8
躯体
  6
JWW_CENTER1
 62
     6
370
     9
100
AcDbLine
 10
-477.2877627959579
 20
1380.865369697329
 30
0.0
 11
-477.2877627959579
 21
1409.011896961898
 31
0.0
  0
LINE
  5
11C
330
1F
100
AcDbEntity
  8
躯体
  6
JWW_CENTER1
 62
     6
370
     9
100
AcDbLine
 10
-463.2148491142797
 20
1394.938283379008
 30
0.0
 11
-491.361376378849
 21
1394.938283379008
 31
0.0
  0
LINE
  5
11D
330
1F
100
AcDbEntity
  8
躯体
  6
JWW_CENTER1
 62
     6
370
     9
100
AcDbLine
 10
-687.28227316675
 20
1572.964455913847
 30
0.0
 11
-687.28227316675
 21
1601.110283277204
 31
0.0
  0
LINE
  5
11E
330
1F
100
AcDbEntity
  8
躯体
  6
Continuous
 62
     6
370
     9
100
AcDbLine
 10
-579.3305599876808
 20
1524.935834903049
 30
0.0
 11
-726.2884676459666
 21
1524.936534804261
 31
0.0
  0
LINE
  5
11F
330
1F
100
AcDbEntity
  8
躯体
  6
Continuous
 62
     6
370
     9
100
AcDbLine
 10
-560.0122366681976
 20
1510.11227717086
 30
0.0
 11
-511.7806443057461
 21
1330.112733167105
 31
0.0
  0
LINE
  5
120
330
1F
100
AcDbEntity
  8
通り芯
  6
JWW_DASHED1
 62
     3
370
     9
100
AcDbLine
 10
-579.3305599876808
 20
1527.937011302662
 30
0.0
 11
-720.2889144515891
 21
1527.937011302662
 31
0.0
  0
LINE
  5
121
330
1F
100
AcDbEntity
  8
通り芯
  6
JWW_DASHED1
 62
     3
370
     9
100
AcDbLine
 10
-508.8830532855965
 20
1330.889273562481
 30
0.0
 11
-557.1135957962294
 21
1510.890217368661
 31
0.0
  0
LINE
  5
122
330
1F
100
AcDbEntity
  8
通り芯
  6
JWW_DASHED1
 62
     3
370
     9
100
AcDbLine
 10
-579.3305599876808
 20
1524.936534804261
 30
0.0
 11
-720.2889144515891
 21
1524.936534804261
 31
0.0
  0
LINE
  5
123
330
1F
100
AcDbEntity
  8
通り芯
  6
JWW_DASHED1
 62
     3
370
     9
100
AcDbLine
 10
-579.3305599876808
 20
1121.936916097245
 30
0.0
 11
-720.2889144515891
 21
1121.936916097245
 31
0.0
  0
LINE
  5
124
330
1F
100
AcDbEntity
  8
通り芯
  6
JWW_DASHED1
 62
     3
370
     9
100
AcDbLine
 10
-579.3305599876808
 20
1124.937392595646
 30
0.0
 11
-720.2889144515891
 21
1124.937392595646
 31
0.0
  0
LINE
  5
125
330
1F
100
AcDbEntity
  8
躯体
  6
Continuous
 62
     6
370
     9
100
AcDbLine
 10
-579.3305599876808
 20
1124.936692694434
 30
0.0
 11
-726.2884676459666
 21
1124.937392595646
 31
0.0
  0
LINE
  5
126
330
1F
100
AcDbEntity
  8
躯体
  6
Continuous
 62
     6
370
     9
100
AcDbLine
 10
-560.011186816379
 20
1139.764099883291
 30
0.0
 11
-511.7806443057461
 21
1319.759794430377
 31
0.0
  0
LINE
  5
127
330
1F
100
AcDbEntity
  8
通り芯
  6
JWW_DASHED1
 62
     3
370
     9
100
AcDbLine
 10
-508.8830532855965
 20
1318.983953936213
 30
0.0
 11
-557.1128958950167
 21
1138.986509636096
 31
0.0
  0
LINE
  5
128
330
1F
100
AcDbEntity
  8
躯体
  6
JWW_CENTER1
 62
     6
370
     9
100
AcDbLine
 10
-507.2876284714826
 20
1482.864773013871
 30
0.0
 11
-507.2876284714826
 21
1511.01130027844
 31
0.0
  0
LINE
  5
129
330
1F
100
AcDbEntity
  8
躯体
  6
JWW_CENTER1
 62
     6
370
     9
100
AcDbLine
 10
-493.2147147898044
 20
1496.937686695549
 30
0.0
 11
-521.3612420543736
 21
1496.937686695549
 31
0.0
  0
LINE
  5
12A
330
1F
100
AcDbEntity
  8
躯体
  6
JWW_CENTER1
 62
     6
370
     9
100
AcDbLine
 10
-507.2876284714826
 20
1167.011953990886
 30
0.0
 11
-507.2876284714826
 21
1138.865426726317
 31
0.0
  0
LINE
  5
12B
330
1F
100
AcDbEntity
  8
躯体
  6
JWW_CENTER1
 62
     6
370
     9
100
AcDbLine
 10
-493.2147147898044
 20
1152.939040309208
 30
0.0
 11
-521.3612420543736
 21
1152.939040309208
 31
0.0
  0
ARC
  5
12C
330
1F
100
AcDbEntity
  8
通り芯
  6
JWW_DASHED1
 62
     3
370
     9
100
AcDbCircle
 10
-720.2889144515891
 20
1530.936787899851
 30
0.0
 40
5.999999518099899
100
AcDbArc
 50
180.0
 51
270.0
  0
ARC
  5
12D
330
1F
100
AcDbEntity
  8
通り芯
  6
JWW_DASHED1
 62
     3
370
     9
100
AcDbCircle
 10
-729.287544341943
 20
1573.937318599356
 30
0.0
 40
5.999999518099899
100
AcDbArc
 50
0.0
 51
90.0
  0
ARC
  5
12E
330
1F
100
AcDbEntity
  8
通り芯
  6
JWW_DASHED1
 62
     3
370
     9
100
AcDbCircle
 10
-751.2875391574894
 20
1582.937348292135
 30
0.0
 40
5.999999518099899
100
AcDbArc
 50
180.0
 51
270.0
  0
ARC
  5
12F
330
1F
100
AcDbEntity
  8
通り芯
  6
JWW_DASHED1
 62
     3
370
     9
100
AcDbCircle
 10
-751.2875391574894
 20
1610.936896302059
 30
0.0
 40
5.999999518099899
100
AcDbArc
 50
90.0
 51
180.0
  0
ARC
  5
130
330
1F
100
AcDbEntity
  8
通り芯
  6
JWW_DASHED1
 62
     3
370
     9
100
AcDbCircle
 10
-720.2889144515891
 20
1530.936787899851
 30
0.0
 40
2.999999759049949
100
AcDbArc
 50
180.0
 51
270.0
  0
ARC
  5
131
330
1F
100
AcDbEntity
  8
通り芯
  6
JWW_DASHED1
 62
     3
370
     9
100
AcDbCircle
 10
-751.2875391574894
 20
1582.937348292135
 30
0.0
 40
2.999999759049949
100
AcDbArc
 50
180.0
 51
270.0
  0
ARC
  5
132
330
1F
100
AcDbEntity
  8
通り芯
  6
JWW_DASHED1
 62
     3
370
     9
100
AcDbCircle
 10
-751.2875391574894
 20
1610.936896302059
 30
0.0
 40
2.999999759049949
100
AcDbArc
 50
90.0
 51
180.0
  0
ARC
  5
133
330
1F
100
AcDbEntity
  8
通り芯
  6
JWW_DASHED1
 62
     3
370
     9
100
AcDbCircle
 10
-729.287544341943
 20
1573.937318599356
 30
0.0
 40
2.999999759049949
100
AcDbArc
 50
0.0
 51
90.0
  0
ARC
  5
134
330
1F
100
AcDbEntity
  8
通り芯
  6
JWW_DASHED1
 62
     3
370
     9
100
AcDbCircle
 10
-720.2889144515891
 20
1118.937139500056
 30
0.0
 40
5.999999518099899
100
AcDbArc
 50
90.0
 51
180.0
  0
ARC
  5
135
330
1F
100
AcDbEntity
  8
通り芯
  6
JWW_DASHED1
 62
     3
370
     9
100
AcDbCircle
 10
-729.287544341943
 20
1075.937308701763
 30
0.0
 40
5.999999518099899
100
AcDbArc
 50
270.0
 51
0.0
  0
ARC
  5
136
330
1F
100
AcDbEntity
  8
通り芯
  6
JWW_DASHED1
 62
     3
370
     9
100
AcDbCircle
 10
-751.2875391574894
 20
1066.937279008985
 30
0.0
 40
5.999999518099899
100
AcDbArc
 50
90.0
 51
180.0
  0
ARC
  5
137
330
1F
100
AcDbEntity
  8
通り芯
  6
JWW_DASHED1
 62
     3
370
     9
100
AcDbCircle
 10
-751.2875391574894
 20
1038.937031097848
 30
0.0
 40
5.999999518099899
100
AcDbArc
 50
180.0
 51
270.0
  0
ARC
  5
138
330
1F
100
AcDbEntity
  8
通り芯
  6
JWW_DASHED1
 62
     3
370
     9
100
AcDbCircle
 10
-720.2889144515891
 20
1118.937139500056
 30
0.0
 40
2.999999759049949
100
AcDbArc
 50
90.0
 51
180.0
  0
ARC
  5
139
330
1F
100
AcDbEntity
  8
通り芯
  6
JWW_DASHED1
 62
     3
370
     9
100
AcDbCircle
 10
-751.2875391574894
 20
1066.937279008985
 30
0.0
 40
2.999999759049949
100
AcDbArc
 50
90.0
 51
180.0
  0
ARC
  5
13A
330
1F
100
AcDbEntity
  8
通り芯
  6
JWW_DASHED1
 62
     3
370
     9
100
AcDbCircle
 10
-751.2875391574894
 20
1038.937730999061
 30
0.0
 40
2.999999759049949
100
AcDbArc
 50
180.0
 51
270.0
  0
ARC
  5
13B
330
1F
100
AcDbEntity
  8
通り芯
  6
JWW_DASHED1
 62
     3
370
     9
100
AcDbCircle
 10
-729.287544341943
 20
1075.937308701763
 30
0.0
 40
2.999999759049949
100
AcDbArc
 50
270.0
 51
0.0
  0
ARC
  5
13C
330
1F
100
AcDbEntity
  8
通り芯
  6
JWW_DASHED1
 62
     3
370
     9
100
AcDbCircle
 10
-531.0993175758356
 20
1324.936613749347
 30
0.0
 40
23.00000054495675
100
AcDbArc
 50
345.0004119873047
 51
14.99958801269529
  0
ARC
  5
13D
330
1F
100
AcDbEntity
  8
通り芯
  6
JWW_DASHED1
 62
     3
370
     9
100
AcDbCircle
 10
-531.0989676252289
 20
1324.936963699954
 30
0.0
 40
20.00000112765544
100
AcDbArc
 50
344.9996185302734
 51
15.00038146972659
  0
ARC
  5
13E
330
1F
100
AcDbEntity
  8
躯体
  6
Continuous
 62
     6
370
     9
100
AcDbCircle
 10
-531.0993175758356
 20
1324.936263798741
 30
0.0
 40
20.00000112765544
100
AcDbArc
 50
344.9998779296875
 51
15.0001220703125
  0
CIRCLE
  5
13F
330
1F
100
AcDbEntity
  8
躯体
  6
Continuous
 62
     6
370
     9
100
AcDbCircle
 10
-687.28227316675
 20
1062.838657508019
 30
0.0
 40
8.500000171679787
  0
CIRCLE
  5
140
330
1F
100
AcDbEntity
  8
躯体
  6
Continuous
 62
     6
370
     9
100
AcDbCircle
 10
-547.289082475012
 20
1062.838657508019
 30
0.0
 40
8.500000171679787
  0
CIRCLE
  5
141
330
1F
100
AcDbEntity
  8
躯体
  6
Continuous
 62
     6
370
     9
100
AcDbCircle
 10
-477.2877627959579
 20
1254.93844362575
 30
0.0
 40
8.500000171679787
  0
CIRCLE
  5
142
330
1F
100
AcDbEntity
  8
躯体
  6
Continuous
 62
     6
370
     9
100
AcDbCircle
 10
-687.28227316675
 20
1587.038069496738
 30
0.0
 40
8.500000171679787
  0
CIRCLE
  5
143
330
1F
100
AcDbEntity
  8
躯体
  6
Continuous
 62
     6
370
     9
100
AcDbCircle
 10
-547.289082475012
 20
1587.038069496738
 30
0.0
 40
8.500000171679787
  0
CIRCLE
  5
144
330
1F
100
AcDbEntity
  8
躯体
  6
Continuous
 62
     6
370
     9
100
AcDbCircle
 10
-477.2877627959579
 20
1394.938283379008
 30
0.0
 40
8.500000171679787
  0
ARC
  5
145
330
1F
100
AcDbEntity
  8
通り芯
  6
JWW_DASHED1
 62
     3
370
     9
100
AcDbCircle
 10
-579.3305599876808
 20
1504.936857654315
 30
0.0
 40
23.00000054495675
100
AcDbArc
 50
15.00042724609375
 51
90.0
  0
ARC
  5
146
330
1F
100
AcDbEntity
  8
躯体
  6
Continuous
 62
     6
370
     9
100
AcDbCircle
 10
-579.3307349629836
 20
1504.935807802496
 30
0.0
 40
20.00000112765544
100
AcDbArc
 50
15.00025939941406
 51
89.99949645996094
  0
ARC
  5
147
330
1F
100
AcDbEntity
  8
通り芯
  6
JWW_DASHED1
 62
     3
370
     9
100
AcDbCircle
 10
-579.3305599876808
 20
1144.939869350442
 30
0.0
 40
23.00000054495675
100
AcDbArc
 50
270.0
 51
344.9995727539062
  0
ARC
  5
148
330
1F
100
AcDbEntity
  8
躯体
  6
Continuous
 62
     6
370
     9
100
AcDbCircle
 10
-579.3307349629836
 20
1144.940919202261
 30
0.0
 40
20.00000112765544
100
AcDbArc
 50
270.0005035400391
 51
344.9997406005859
  0
CIRCLE
  5
149
330
1F
100
AcDbEntity
  8
躯体
  6
Continuous
 62
     6
370
     9
100
AcDbCircle
 10
-507.2876284714826
 20
1496.937686695549
 30
0.0
 40
8.500000171679787
  0
CIRCLE
  5
14A
330
1F
100
AcDbEntity
  8
躯体
  6
Continuous
 62
     6
370
     9
100
AcDbCircle
 10
-507.2876284714826
 20
1152.939040309208
 30
0.0
 40
8.500000171679787
  0
LINE
  5
14B
330
1F
100
AcDbEntity
  8
仕上
  6
JWW_DASHED1
 62
     2
370
     9
100
AcDbLine
 10
-437.2877085948537
 20
1419.938404742349
 30
0.0
 11
-532.7433855242245
 21
1419.938404742349
 31
0.0
  0
LINE
  5
14C
330
1F
100
AcDbEntity
  8
仕上
  6
JWW_DASHED1
 62
     2
370
     9
100
AcDbLine
 10
-437.2877085948537
 20
1224.938577950225
 30
0.0
 11
-534.0822965439215
 21
1224.938577950225
 31
0.0
  0
LINE
  5
14D
330
1F
100
AcDbEntity
  8
仕上
  6
Continuous
 62
     2
370
     9
100
AcDbLine
 10
-394.6876963642566
 20
1419.938404742349
 30
0.0
 11
-437.2877085948537
 21
1419.938404742349
 31
0.0
  0
LINE
  5
14E
330
1F
100
AcDbEntity
  8
仕上
  6
Continuous
 62
     2
370
     9
100
AcDbLine
 10
-394.6876963642566
 20
1419.938404742349
 30
0.0
 11
-394.6876963642566
 21
1224.938577950225
 31
0.0
  0
LINE
  5
14F
330
1F
100
AcDbEntity
  8
仕上
  6
Continuous
 62
     2
370
     9
100
AcDbLine
 10
-394.6876963642566
 20
1224.938577950225
 30
0.0
 11
-437.2877085948537
 21
1224.938577950225
 31
0.0
  0
LINE
  5
150
330
1F
100
AcDbEntity
  8
躯体
  6
Continuous
 62
     6
370
     9
100
AcDbLine
 10
-2186.143662119962
 20
775.5049665909551
 30
0.0
 11
-2186.143662119962
 21
463.5045788174046
 31
0.0
  0
LINE
  5
151
330
1F
100
AcDbEntity
  8
躯体
  6
Continuous
 62
     6
370
     9
100
AcDbLine
 10
-2182.143376739366
 20
775.5049665909551
 30
0.0
 11
-2182.143376739366
 21
463.5045788174046
 31
0.0
  0
LINE
  5
152
330
1F
100
AcDbEntity
  8
躯体
  6
Continuous
 62
     6
370
     9
100
AcDbLine
 10
-2186.143662119962
 20
775.5049665909551
 30
0.0
 11
-2182.143376739366
 21
775.5049665909551
 31
0.0
  0
LINE
  5
153
330
1F
100
AcDbEntity
  8
躯体
  6
Continuous
 62
     6
370
     9
100
AcDbLine
 10
-2178.142041506952
 20
455.505407858639
 30
0.0
 11
-2096.143365192175
 21
455.505407858639
 31
0.0
  0
LINE
  5
154
330
1F
100
AcDbEntity
  8
躯体
  6
Continuous
 62
     6
370
     9
100
AcDbLine
 10
-2096.143365192175
 20
459.5058682145377
 30
0.0
 11
-2096.143365192175
 21
455.505407858639
 31
0.0
  0
LINE
  5
155
330
1F
100
AcDbEntity
  8
躯体
  6
Continuous
 62
     6
370
     9
100
AcDbLine
 10
-2178.142041506952
 20
459.5058682145377
 30
0.0
 11
-2096.143365192175
 21
459.5058682145377
 31
0.0
  0
LINE
  5
156
330
1F
100
AcDbEntity
  8
通り芯
  6
Continuous
 62
     3
370
     9
100
AcDbLine
 10
-2182.142326887547
 20
775.5049665909551
 30
0.0
 11
-2182.142326887547
 21
525.5032280316301
 31
0.0
  0
LINE
  5
157
330
1F
100
AcDbEntity
  8
躯体
  6
Continuous
 62
     6
370
     9
100
AcDbLine
 10
-1186.143181968877
 20
775.5049665909551
 30
0.0
 11
-1186.143181968877
 21
463.5045788174046
 31
0.0
  0
LINE
  5
158
330
1F
100
AcDbEntity
  8
躯体
  6
Continuous
 62
     6
370
     9
100
AcDbLine
 10
-1190.143467349472
 20
775.5049665909551
 30
0.0
 11
-1190.143467349472
 21
463.5045788174046
 31
0.0
  0
LINE
  5
159
330
1F
100
AcDbEntity
  8
躯体
  6
Continuous
 62
     6
370
     9
100
AcDbLine
 10
-1186.143181968877
 20
775.5049665909551
 30
0.0
 11
-1190.143467349472
 21
775.5049665909551
 31
0.0
  0
LINE
  5
15A
330
1F
100
AcDbEntity
  8
躯体
  6
Continuous
 62
     6
370
     9
100
AcDbLine
 10
-1194.144802581887
 20
455.505407858639
 30
0.0
 11
-1276.143478896664
 21
455.505407858639
 31
0.0
  0
LINE
  5
15B
330
1F
100
AcDbEntity
  8
躯体
  6
Continuous
 62
     6
370
     9
100
AcDbLine
 10
-1276.143478896664
 20
459.5058682145377
 30
0.0
 11
-1276.143478896664
 21
455.505407858639
 31
0.0
  0
LINE
  5
15C
330
1F
100
AcDbEntity
  8
躯体
  6
Continuous
 62
     6
370
     9
100
AcDbLine
 10
-1194.144802581887
 20
459.5058682145377
 30
0.0
 11
-1276.143478896664
 21
459.5058682145377
 31
0.0
  0
LINE
  5
15D
330
1F
100
AcDbEntity
  8
通り芯
  6
Continuous
 62
     3
370
     9
100
AcDbLine
 10
-1190.144517201291
 20
775.5049665909551
 30
0.0
 11
-1190.144517201291
 21
525.5032280316301
 31
0.0
  0
LINE
  5
15E
330
1F
100
AcDbEntity
  8
通り芯
  6
Continuous
 62
     3
370
     9
100
AcDbLine
 10
-2182.143376739366
 20
759.5052248709986
 30
0.0
 11
-1190.143467349472
 21
759.5052248709986
 31
0.0
  0
LINE
  5
15F
330
1F
100
AcDbEntity
  8
通り芯
  6
Continuous
 62
     3
370
     9
100
AcDbLine
 10
-1190.143467349472
 20
775.5049665909551
 30
0.0
 11
-2182.143376739366
 21
775.5049665909551
 31
0.0
  0
LINE
  5
160
330
1F
100
AcDbEntity
  8
通り芯
  6
Continuous
 62
     3
370
     9
100
AcDbLine
 10
-1190.143467349472
 20
741.5051654854414
 30
0.0
 11
-2182.143376739366
 21
741.5051654854414
 31
0.0
  0
LINE
  5
161
330
1F
100
AcDbEntity
  8
仕上
  6
Continuous
 62
     2
370
     9
100
AcDbLine
 10
-1591.143468292101
 20
412.9036458750105
 30
0.0
 11
-1781.143550772041
 21
412.9036458750105
 31
0.0
  0
LINE
  5
162
330
1F
100
AcDbEntity
  8
通り芯
  6
Continuous
 62
     3
370
     9
100
AcDbLine
 10
-1190.144517201291
 20
525.5032280316301
 30
0.0
 11
-1591.143468292101
 21
525.5032280316301
 31
0.0
  0
LINE
  5
163
330
1F
100
AcDbEntity
  8
通り芯
  6
Continuous
 62
     3
370
     9
100
AcDbLine
 10
-1781.143550772041
 20
525.5032280316301
 30
0.0
 11
-2182.142326887547
 21
525.5032280316301
 31
0.0
  0
LINE
  5
164
330
1F
100
AcDbEntity
  8
通り芯
  6
Continuous
 62
     7
370
     9
100
AcDbLine
 10
-1281.841374668412
 20
864.747970406713
 30
0.0
 11
-885.786175792779
 21
864.747970406713
 31
0.0
  0
LINE
  5
165
330
1F
100
AcDbEntity
  8
通り芯
  6
Continuous
 62
     7
370
     9
100
AcDbLine
 10
-1092.556241277139
 20
295.9512031019501
 30
0.0
 11
-551.5105570518281
 21
295.9512031019501
 31
0.0
  0
LINE
  5
166
330
1F
100
AcDbEntity
  8
092
  6
Continuous
 62
     7
370
     9
100
AcDbLine
 10
-1187.102396580741
 20
459.7102393686158
 30
0.0
 11
-1168.839524289853
 21
435.9095737083613
 31
0.0
  0
LINE
  5
167
330
1F
100
AcDbEntity
  8
092
  6
Continuous
 62
     7
370
     9
100
AcDbLine
 10
-1187.102396580741
 20
459.7102393686158
 30
0.0
 11
-1175.62191699052
 21
431.9938013991872
 31
0.0
  0
LINE
  5
168
330
1F
100
AcDbEntity
  8
092
  6
Continuous
 62
     7
370
     9
100
AcDbLine
 10
-1281.841374668412
 20
864.747970406713
 30
0.0
 11
-1447.312894226999
 21
699.2764508481268
 31
0.0
  0
LINE
  5
169
330
1F
100
AcDbEntity
  8
092
  6
Continuous
 62
     7
370
     9
100
AcDbLine
 10
-1447.312894226999
 20
699.2764508481268
 30
0.0
 11
-1429.050021936111
 21
723.0771165083813
 31
0.0
  0
LINE
  5
16A
330
1F
100
AcDbEntity
  8
092
  6
Continuous
 62
     7
370
     9
100
AcDbLine
 10
-1447.312894226999
 20
699.2764508481268
 30
0.0
 11
-1423.512228566745
 21
717.5393231390142
 31
0.0
  0
LINE
  5
16B
330
1F
100
AcDbEntity
  8
通り芯
  6
Continuous
 62
     7
370
     9
100
AcDbLine
 10
-2250.569743714776
 20
236.4181308843992
 30
0.0
 11
-1851.454401762366
 21
236.4181308843992
 31
0.0
  0
LINE
  5
16C
330
1F
100
AcDbEntity
  8
通り芯
  6
Continuous
 62
     7
370
     9
100
AcDbLine
 10
-1187.102221605437
 20
459.7097144427063
 30
0.0
 11
-1092.556241277139
 21
295.9512031019501
 31
0.0
  0
LINE
  5
16D
330
1F
100
AcDbEntity
  8
通り芯
  6
Continuous
 62
     7
370
     9
100
AcDbLine
 10
-1851.454401762366
 20
236.4181308843992
 30
0.0
 11
-1742.354063205775
 21
412.9036458750105
 31
0.0
  0
LINE
  5
16E
330
1F
100
AcDbEntity
  8
その他
  6
Continuous
 62
     7
370
     9
100
AcDbLine
 10
-1742.354063205775
 20
412.9036458750105
 30
0.0
 11
-1754.663050856406
 21
385.5450324005217
 31
0.0
  0
LINE
  5
16F
330
1F
100
AcDbEntity
  8
その他
  6
Continuous
 62
     7
370
     9
100
AcDbLine
 10
-1742.354063205775
 20
412.9036458750105
 30
0.0
 11
-1761.324535622597
 21
389.6630761601365
 31
0.0
  0
LINE
  5
170
330
1F
100
AcDbEntity
  8
躯体
  6
JWW_CENTER1
 62
     6
370
     9
100
AcDbLine
 10
-1686.143509532071
 20
799.1262825654817
 30
0.0
 11
-1686.143509532071
 21
372.8176788000602
 31
0.0
  0
ARC
  5
171
330
1F
100
AcDbEntity
  8
躯体
  6
Continuous
 62
     6
370
     9
100
AcDbCircle
 10
-2178.142041506952
 20
463.5045788174046
 30
0.0
 40
4.000000020481905
100
AcDbArc
 50
180.0
 51
270.0
  0
ARC
  5
172
330
1F
100
AcDbEntity
  8
躯体
  6
Continuous
 62
     6
370
     9
100
AcDbCircle
 10
-2178.142041506952
 20
463.5045788174046
 30
0.0
 40
8.00000004096381
100
AcDbArc
 50
180.0
 51
270.0
  0
ARC
  5
173
330
1F
100
AcDbEntity
  8
躯体
  6
Continuous
 62
     6
370
     9
100
AcDbCircle
 10
-1194.144802581887
 20
463.5045788174046
 30
0.0
 40
4.000000020481905
100
AcDbArc
 50
270.0
 51
0.0
  0
ARC
  5
174
330
1F
100
AcDbEntity
  8
躯体
  6
Continuous
 62
     6
370
     9
100
AcDbCircle
 10
-1194.144802581887
 20
463.5045788174046
 30
0.0
 40
8.00000004096381
100
AcDbArc
 50
270.0
 51
0.0
  0
TEXT
  5
175
330
1F
100
AcDbEntity
  8
通り芯
  6
Continuous
 62
     7
370
     9
100
AcDbText
 10
-1253.31127974107
 20
883.7259878151652
 30
0.0
 40
30.48
  1
①トラフパン本体
 41
1.109375
  7
ＭＳ ゴシック
100
AcDbText
  0
TEXT
  5
176
330
1F
100
AcDbEntity
  8
通り芯
  6
Continuous
 62
     7
370
     9
100
AcDbText
 10
-2233.719250272637
 20
258.6265423395901
 30
0.0
 40
30.48
  1
③ソケット８０Ａ
 41
1.109374999999998
  7
ＭＳ ゴシック
100
AcDbText
  0
TEXT
  5
177
330
1F
100
AcDbEntity
  8
通り芯
  6
Continuous
 62
     7
370
     9
100
AcDbText
 10
-1067.033311676832
 20
318.1596145571411
 30
0.0
 40
30.48
  1
②ジョイントプレートＡ
 41
1.113636363636364
  7
ＭＳ ゴシック
100
AcDbText
  0
LINE
  5
178
330
1F
100
AcDbEntity
  8
092
  6
Continuous
 62
     7
370
     9
100
AcDbLine
 10
-2312.494028425163
 20
525.5032280316301
 30
0.0
 11
-2312.494028425163
 21
775.5049665909551
 31
0.0
  0
LINE
  5
179
330
1F
100
AcDbEntity
  8
092
  6
Continuous
 62
     7
370
     9
100
AcDbLine
 10
-2212.142367538376
 20
525.5032280316301
 30
0.0
 11
-2315.493979997655
 21
525.5032280316301
 31
0.0
  0
LINE
  5
17A
330
1F
100
AcDbEntity
  8
092
  6
Continuous
 62
     7
370
     9
100
AcDbLine
 10
-2212.142367538376
 20
775.5049665909551
 30
0.0
 11
-2402.870697230024
 21
775.5049665909551
 31
0.0
  0
LINE
  5
17B
330
1F
100
AcDbEntity
  8
092
  6
Continuous
 62
     7
370
     9
100
AcDbLine
 10
-2399.870745657532
 20
455.5045329821232
 30
0.0
 11
-2399.870745657532
 21
775.5049665909551
 31
0.0
  0
LINE
  5
17C
330
1F
100
AcDbEntity
  8
092
  6
Continuous
 62
     7
370
     9
100
AcDbLine
 10
-2208.142082157781
 20
455.5045329821232
 30
0.0
 11
-2402.870697230024
 21
455.5045329821232
 31
0.0
  0
TEXT
  5
17D
330
1F
100
AcDbEntity
  8
092
  6
Continuous
 62
     7
370
     9
100
AcDbText
 10
-2323.133946839984
 20
630.5040095759865
 30
0.0
 40
30.48
  1
Ｈ
 50
90.0000025
 41
1.000000000000001
  7
ＭＳ ゴシック
100
AcDbText
  0
TEXT
  5
17E
330
1F
100
AcDbEntity
  8
092
  6
Continuous
 62
     7
370
     9
100
AcDbText
 10
-2410.510664072353
 20
595.5047495388845
 30
0.0
 40
30.48
  1
ｈ
 50
90.0000025
 41
1.000000000000002
  7
ＭＳ ゴシック
100
AcDbText
  0
LWPOLYLINE
  5
17F
330
1F
100
AcDbEntity
  8
092
  6
Continuous
 62
     7
370
     9
100
AcDbPolyline
 90
        4
 70
     1
 43
1.0
 10
-2311.994028425162
 20
775.5049665909551
 42
0.4142135623731
 10
-2312.494028425163
 20
776.004966590955
 42
0.4142135623731
 10
-2312.994028425163
 20
775.5049665909551
 42
0.4142135623731
 10
-2312.494028425163
 20
775.0049665909551
 42
0.4142135623731
  0
LWPOLYLINE
  5
180
330
1F
100
AcDbEntity
  8
092
  6
Continuous
 62
     7
370
     9
100
AcDbPolyline
 90
        4
 70
     1
 43
1.0
 10
-2311.994028425162
 20
525.5032280316301
 42
0.4142135623731
 10
-2312.494028425163
 20
526.00322803163
 42
0.4142135623731
 10
-2312.994028425163
 20
525.5032280316301
 42
0.4142135623731
 10
-2312.494028425163
 20
525.0032280316301
 42
0.4142135623731
  0
LWPOLYLINE
  5
181
330
1F
100
AcDbEntity
  8
092
  6
Continuous
 62
     7
370
     9
100
AcDbPolyline
 90
        4
 70
     1
 43
1.0
 10
-2399.370745657531
 20
455.5045329821232
 42
0.4142135623731
 10
-2399.870745657532
 20
456.0045329821232
 42
0.4142135623731
 10
-2400.370745657532
 20
455.5045329821232
 42
0.4142135623731
 10
-2399.870745657532
 20
455.0045329821233
 42
0.4142135623731
  0
LWPOLYLINE
  5
182
330
1F
100
AcDbEntity
  8
092
  6
Continuous
 62
     7
370
     9
100
AcDbPolyline
 90
        4
 70
     1
 43
1.0
 10
-2399.370745657531
 20
775.5049665909551
 42
0.4142135623731
 10
-2399.870745657532
 20
776.004966590955
 42
0.4142135623731
 10
-2400.370745657532
 20
775.5049665909551
 42
0.4142135623731
 10
-2399.870745657532
 20
775.0049665909551
 42
0.4142135623731
  0
LINE
  5
183
330
1F
100
AcDbEntity
  8
通り芯
  6
Continuous
 62
     3
370
     9
100
AcDbLine
 10
-1190.144517201291
 20
579.8983912927425
 30
0.0
 11
-2182.142326887547
 21
579.8983912927425
 31
0.0
  0
LINE
  5
184
330
1F
100
AcDbEntity
  8
仕上
  6
Continuous
 62
     2
370
     9
100
AcDbLine
 10
-1781.143550772041
 20
550.9605598621001
 30
0.0
 11
-1781.143550772041
 21
412.9036458750105
 31
0.0
  0
LINE
  5
185
330
1F
100
AcDbEntity
  8
仕上
  6
Continuous
 62
     2
370
     9
100
AcDbLine
 10
-1781.143550772041
 20
550.9605598621001
 30
0.0
 11
-1591.143468292101
 21
550.9605598621001
 31
0.0
  0
LINE
  5
186
330
1F
100
AcDbEntity
  8
仕上
  6
Continuous
 62
     2
370
     9
100
AcDbLine
 10
-1591.143468292101
 20
550.9605598621001
 30
0.0
 11
-1591.143468292101
 21
412.9036458750105
 31
0.0
  0
LINE
  5
187
330
1F
100
AcDbEntity
  8
躯体
  6
JWW_CENTER1
 62
     4
370
     9
100
AcDbLine
 10
-410.4553834899774
 20
-1397.353315489742
 30
0.0
 11
-438.6015608039405
 21
-1397.353315489742
 31
0.0
  0
LINE
  5
188
330
1F
100
AcDbEntity
  8
躯体
  6
JWW_CENTER1
 62
     4
370
     9
100
AcDbLine
 10
-424.5282971716556
 20
-1411.426447890549
 30
0.0
 11
-424.5282971716556
 21
-1383.28022683276
 31
0.0
  0
LINE
  5
189
330
1F
100
AcDbEntity
  8
躯体
  6
JWW_CENTER1
 62
     4
370
     9
100
AcDbLine
 10
-354.5289022209362
 20
-1219.890038505133
 30
0.0
 11
-354.5289022209362
 21
-1469.143320205237
 31
0.0
  0
LINE
  5
18A
330
1F
100
AcDbEntity
  8
躯体
  6
JWW_CENTER1
 62
     4
370
     9
100
AcDbLine
 10
-298.6022459765919
 20
-1397.353315489742
 30
0.0
 11
-270.4562436379323
 21
-1397.353315489742
 31
0.0
  0
LINE
  5
18B
330
1F
100
AcDbEntity
  8
躯体
  6
JWW_CENTER1
 62
     4
370
     9
100
AcDbLine
 10
-284.5295072702168
 20
-1411.426447890549
 30
0.0
 11
-284.5295072702168
 21
-1383.28022683276
 31
0.0
  0
ARC
  5
18C
330
1F
100
AcDbEntity
  8
建具
  6
Continuous
 62
     4
370
     9
100
AcDbCircle
 10
-354.5289022209362
 20
-1343.541760709864
 30
0.0
 40
19.99999976066088
100
AcDbArc
 50
254.9997100830078
 51
285.0002899169922
  0
CIRCLE
  5
18D
330
1F
100
AcDbEntity
  8
建具
  6
Continuous
 62
     4
370
     9
100
AcDbCircle
 10
-424.5282971716556
 20
-1397.353315489742
 30
0.0
 40
8.500000171679787
  0
CIRCLE
  5
18E
330
1F
100
AcDbEntity
  8
建具
  6
Continuous
 62
     4
370
     9
100
AcDbCircle
 10
-284.5295072702168
 20
-1397.353315489742
 30
0.0
 40
8.500000171679787
  0
TEXT
  5
18F
330
1F
100
AcDbEntity
  8
092
  6
Continuous
 62
     7
370
     9
100
AcDbText
 10
-593.6230053066867
 20
-1183.25939239887
 30
0.0
 40
30.48
  1
ｼﾞｮｲﾝﾄ穴：６-Φ８．５
 41
1.113095238095238
  7
ＭＳ ゴシック
100
AcDbText
  0
LINE
  5
190
330
1F
100
AcDbEntity
  8
建具
  6
Continuous
 62
     4
370
     9
100
AcDbLine
 10
-606.5298408426632
 20
-1217.353071584773
 30
0.0
 11
-646.5295450931615
 21
-1217.353071584773
 31
0.0
  0
LINE
  5
191
330
1F
100
AcDbEntity
  8
建具
  6
Continuous
 62
     4
370
     9
100
AcDbLine
 10
-606.5298408426632
 20
-1248.353096093099
 30
0.0
 11
-606.5298408426632
 21
-1217.353071584773
 31
0.0
  0
LINE
  5
192
330
1F
100
AcDbEntity
  8
建具
  6
Continuous
 62
     4
370
     9
100
AcDbLine
 10
-606.5298408426632
 20
-1248.353096093099
 30
0.0
 11
-554.5298053762888
 21
-1248.353096093099
 31
0.0
  0
LINE
  5
193
330
1F
100
AcDbEntity
  8
建具
  6
Continuous
 62
     4
370
     9
100
AcDbLine
 10
-646.5295450931615
 20
-1217.353071584773
 30
0.0
 11
-646.5295450931615
 21
-1437.353982104406
 31
0.0
  0
LINE
  5
194
330
1F
100
AcDbEntity
  8
躯体
  6
JWW_CENTER1
 62
     4
370
     9
100
AcDbLine
 10
-602.5547519057214
 20
-1287.359290572316
 30
0.0
 11
-630.7014541455941
 21
-1287.359290572316
 31
0.0
  0
LINE
  5
195
330
1F
100
AcDbEntity
  8
躯体
  6
JWW_CENTER1
 62
     4
370
     9
100
AcDbLine
 10
-616.6281905133092
 20
-1301.4325542046
 30
0.0
 11
-616.6281905133092
 21
-1273.286201915334
 31
0.0
  0
CIRCLE
  5
196
330
1F
100
AcDbEntity
  8
建具
  6
Continuous
 62
     4
370
     9
100
AcDbCircle
 10
-616.6281905133092
 20
-1287.359290572316
 30
0.0
 40
8.500000171679787
  0
LINE
  5
197
330
1F
100
AcDbEntity
  8
建具
  6
Continuous
 62
     4
370
     9
100
AcDbLine
 10
-102.5297133522405
 20
-1248.353096093099
 30
0.0
 11
-102.5297133522405
 21
-1217.353071584773
 31
0.0
  0
LINE
  5
198
330
1F
100
AcDbEntity
  8
建具
  6
Continuous
 62
     4
370
     9
100
AcDbLine
 10
-102.5279635992091
 20
-1248.353096093099
 30
0.0
 11
-154.5299237939183
 21
-1248.353096093099
 31
0.0
  0
LINE
  5
199
330
1F
100
AcDbEntity
  8
建具
  6
Continuous
 62
     4
370
     9
100
AcDbLine
 10
-102.5297133522405
 20
-1217.353071584773
 30
0.0
 11
-62.52895924992391
 21
-1217.353071584773
 31
0.0
  0
LINE
  5
19A
330
1F
100
AcDbEntity
  8
建具
  6
Continuous
 62
     4
370
     9
100
AcDbLine
 10
-62.52895924992391
 20
-1217.353071584773
 30
0.0
 11
-62.52895924992391
 21
-1437.353982104406
 31
0.0
  0
LINE
  5
19B
330
1F
100
AcDbEntity
  8
建具
  6
Continuous
 62
     4
370
     9
100
AcDbLine
 10
-102.5279635992091
 20
-1248.353096093099
 30
0.0
 11
-102.5279635992091
 21
-1217.353071584773
 31
0.0
  0
LINE
  5
19C
330
1F
100
AcDbEntity
  8
躯体
  6
JWW_CENTER1
 62
     4
370
     9
100
AcDbLine
 10
-106.5030525361509
 20
-1287.359290572316
 30
0.0
 11
-78.35635029627855
 21
-1287.359290572316
 31
0.0
  0
LINE
  5
19D
330
1F
100
AcDbEntity
  8
躯体
  6
JWW_CENTER1
 62
     4
370
     9
100
AcDbLine
 10
-92.4294389532601
 20
-1301.4325542046
 30
0.0
 11
-92.4294389532601
 21
-1273.286201915334
 31
0.0
  0
CIRCLE
  5
19E
330
1F
100
AcDbEntity
  8
建具
  6
Continuous
 62
     4
370
     9
100
AcDbCircle
 10
-92.4294389532601
 20
-1287.359290572316
 30
0.0
 40
8.500000171679787
  0
LINE
  5
19F
330
1F
100
AcDbEntity
  8
建具
  6
Continuous
 62
     4
370
     9
100
AcDbLine
 10
-646.5295450931615
 20
-1437.353982104406
 30
0.0
 11
-62.52895924992391
 21
-1437.353982104406
 31
0.0
  0
LINE
  5
1A0
330
1F
100
AcDbEntity
  8
躯体
  6
JWW_DASHED2
 62
     4
370
     9
100
AcDbLine
 10
-646.5295450931615
 20
-1433.353696723811
 30
0.0
 11
-62.52895924992391
 21
-1433.353696723811
 31
0.0
  0
LINE
  5
1A1
330
1F
100
AcDbEntity
  8
通り芯
  6
JWW_CENTER2
 62
     4
370
     9
100
AcDbLine
 10
-539.7896223745095
 20
-1367.353239843854
 30
0.0
 11
-513.2695255477721
 21
-1367.353239843854
 31
0.0
  0
LINE
  5
1A2
330
1F
100
AcDbEntity
  8
通り芯
  6
JWW_CENTER2
 62
     4
370
     9
100
AcDbLine
 10
-526.5295739611405
 20
-1354.083322823386
 30
0.0
 11
-526.5295739611405
 21
-1380.613078286858
 31
0.0
  0
CIRCLE
  5
1A3
330
1F
100
AcDbEntity
  8
通り芯
  6
Continuous
 62
     4
370
     9
100
AcDbCircle
 10
-526.5295739611405
 20
-1367.353239843854
 30
0.0
 40
8.500000581778156
  0
LINE
  5
1A4
330
1F
100
AcDbEntity
  8
通り芯
  6
JWW_CENTER2
 62
     4
370
     9
100
AcDbLine
 10
-169.2681820673629
 20
-1367.353239843854
 30
0.0
 11
-195.7882788941002
 21
-1367.353239843854
 31
0.0
  0
LINE
  5
1A5
330
1F
100
AcDbEntity
  8
通り芯
  6
JWW_CENTER2
 62
     4
370
     9
100
AcDbLine
 10
-182.5282304807318
 20
-1354.083322823386
 30
0.0
 11
-182.5282304807318
 21
-1380.613078286858
 31
0.0
  0
CIRCLE
  5
1A6
330
1F
100
AcDbEntity
  8
通り芯
  6
Continuous
 62
     4
370
     9
100
AcDbCircle
 10
-182.5282304807318
 20
-1367.353239843854
 30
0.0
 40
8.500000581778156
  0
LINE
  5
1A7
330
1F
100
AcDbEntity
  8
建具
  6
Continuous
 62
     4
370
     9
100
AcDbLine
 10
-554.5303499131323
 20
-1295.31027784594
 30
0.0
 11
-554.5298053762888
 21
-1248.353096093099
 31
0.0
  0
LINE
  5
1A8
330
1F
100
AcDbEntity
  8
建具
  6
Continuous
 62
     4
370
     9
100
AcDbLine
 10
-539.7067975942425
 20
-1314.629008407662
 30
0.0
 11
-359.7051966139968
 21
-1362.860958905863
 31
0.0
  0
ARC
  5
1A9
330
1F
100
AcDbEntity
  8
建具
  6
Continuous
 62
     4
370
     9
100
AcDbCircle
 10
-534.5303499144773
 20
-1295.31050977504
 30
0.0
 40
20.0
100
AcDbArc
 50
179.999335572073
 51
254.9998019473706
  0
LINE
  5
1AA
330
1F
100
AcDbEntity
  8
建具
  6
Continuous
 62
     4
370
     9
100
AcDbLine
 10
-169.3509463066462
 20
-1314.627994248219
 30
0.0
 11
-349.352257877269
 21
-1362.860084029347
 31
0.0
  0
LINE
  5
1AB
330
1F
100
AcDbEntity
  8
建具
  6
Continuous
 62
     4
370
     9
100
AcDbLine
 10
-154.5274156994654
 20
-1295.309327488171
 30
0.0
 11
-154.5278240902806
 21
-1248.353096093099
 31
0.0
  0
ARC
  5
1AC
330
1F
100
AcDbEntity
  8
建具
  6
Continuous
 62
     4
370
     9
100
AcDbCircle
 10
-174.527415698709
 20
-1295.309501433482
 30
0.0
 40
20.0
100
AcDbArc
 50
285.0002624480682
 51
0.0004983166111118
  0
LINE
  5
1AD
330
1F
100
AcDbEntity
  8
建具
  6
Continuous
 62
     4
370
     9
100
AcDbLine
 10
-154.530604445276
 20
-1295.309327441948
 30
0.0
 11
-154.5299237939183
 21
-1248.353096093099
 31
0.0
  0
LINE
  5
1AE
330
1F
100
AcDbEntity
  8
躯体
  6
JWW_CENTER1
 62
     4
370
     9
100
AcDbLine
 10
241.9558105958698
 20
-1472.35332962916
 30
0.0
 11
213.8096332819067
 21
-1472.35332962916
 31
0.0
  0
LINE
  5
1AF
330
1F
100
AcDbEntity
  8
躯体
  6
JWW_CENTER1
 62
     4
370
     9
100
AcDbLine
 10
227.8828969141916
 20
-1486.426505773793
 30
0.0
 11
227.8828969141916
 21
-1458.28032845983
 31
0.0
  0
LINE
  5
1B0
330
1F
100
AcDbEntity
  8
躯体
  6
JWW_CENTER1
 62
     4
370
     9
100
AcDbLine
 10
297.8824668402142
 20
-1219.890038505133
 30
0.0
 11
297.8824668402142
 21
-1544.143246857004
 31
0.0
  0
LINE
  5
1B1
330
1F
100
AcDbEntity
  8
躯体
  6
JWW_CENTER1
 62
     4
370
     9
100
AcDbLine
 10
353.8091230845583
 20
-1472.35332962916
 30
0.0
 11
381.9553003985214
 21
-1472.35332962916
 31
0.0
  0
LINE
  5
1B2
330
1F
100
AcDbEntity
  8
躯体
  6
JWW_CENTER1
 62
     4
370
     9
100
AcDbLine
 10
367.8820367662368
 20
-1486.426505773793
 30
0.0
 11
367.8820367662368
 21
-1458.28032845983
 31
0.0
  0
ARC
  5
1B3
330
1F
100
AcDbEntity
  8
建具
  6
Continuous
 62
     4
370
     9
100
AcDbCircle
 10
297.8824668402142
 20
-1418.541687361631
 30
0.0
 40
19.99999976066088
100
AcDbArc
 50
254.9997100830078
 51
285.0002899169922
  0
CIRCLE
  5
1B4
330
1F
100
AcDbEntity
  8
建具
  6
Continuous
 62
     4
370
     9
100
AcDbCircle
 10
227.8828969141916
 20
-1472.35332962916
 30
0.0
 40
8.500000171679787
  0
CIRCLE
  5
1B5
330
1F
100
AcDbEntity
  8
建具
  6
Continuous
 62
     4
370
     9
100
AcDbCircle
 10
367.8820367662368
 20
-1472.35332962916
 30
0.0
 40
8.500000171679787
  0
TEXT
  5
1B6
330
1F
100
AcDbEntity
  8
092
  6
Continuous
 62
     7
370
     9
100
AcDbText
 10
47.53845124211555
 20
-1183.25939239887
 30
0.0
 40
30.48
  1
ｼﾞｮｲﾝﾄ穴：８－Φ８．５
 41
1.113636363636364
  7
ＭＳ ゴシック
100
AcDbText
  0
LINE
  5
1B7
330
1F
100
AcDbEntity
  8
建具
  6
Continuous
 62
     4
370
     9
100
AcDbLine
 10
45.88135324318369
 20
-1217.353071584773
 30
0.0
 11
5.881648992686159
 21
-1217.353071584773
 31
0.0
  0
LINE
  5
1B8
330
1F
100
AcDbEntity
  8
建具
  6
Continuous
 62
     4
370
     9
100
AcDbLine
 10
45.88135324318369
 20
-1248.353096093099
 30
0.0
 11
45.88135324318369
 21
-1217.353071584773
 31
0.0
  0
LINE
  5
1B9
330
1F
100
AcDbEntity
  8
建具
  6
Continuous
 62
     4
370
     9
100
AcDbLine
 10
45.88135324318369
 20
-1248.353096093099
 30
0.0
 11
97.8817386601649
 21
-1248.353096093099
 31
0.0
  0
LINE
  5
1BA
330
1F
100
AcDbEntity
  8
建具
  6
Continuous
 62
     4
370
     9
100
AcDbLine
 10
5.881648992686159
 20
-1217.353071584773
 30
0.0
 11
5.881648992686159
 21
-1512.353952499999
 31
0.0
  0
LINE
  5
1BB
330
1F
100
AcDbEntity
  8
躯体
  6
JWW_CENTER1
 62
     4
370
     9
100
AcDbLine
 10
49.85644218012549
 20
-1287.359290572316
 30
0.0
 11
21.70991491555679
 21
-1287.359290572316
 31
0.0
  0
LINE
  5
1BC
330
1F
100
AcDbEntity
  8
躯体
  6
JWW_CENTER1
 62
     4
370
     9
100
AcDbLine
 10
35.78317854784114
 20
-1301.4325542046
 30
0.0
 11
35.78317854784114
 21
-1273.286201915334
 31
0.0
  0
LINE
  5
1BD
330
1F
100
AcDbEntity
  8
躯体
  6
JWW_CENTER1
 62
     4
370
     9
100
AcDbLine
 10
49.85644218012549
 20
-1402.352578619841
 30
0.0
 11
21.70991491555679
 21
-1402.352578619841
 31
0.0
  0
LINE
  5
1BE
330
1F
100
AcDbEntity
  8
躯体
  6
JWW_CENTER1
 62
     4
370
     9
100
AcDbLine
 10
35.78317854784114
 20
-1416.425623532997
 30
0.0
 11
35.78317854784114
 21
-1388.279446219034
 31
0.0
  0
CIRCLE
  5
1BF
330
1F
100
AcDbEntity
  8
建具
  6
Continuous
 62
     4
370
     9
100
AcDbCircle
 10
35.78317854784114
 20
-1287.359290572316
 30
0.0
 40
8.500000171679787
  0
CIRCLE
  5
1C0
330
1F
100
AcDbEntity
  8
建具
  6
Continuous
 62
     4
370
     9
100
AcDbCircle
 10
35.78317854784114
 20
-1402.352578619841
 30
0.0
 40
8.500000171679787
  0
LINE
  5
1C1
330
1F
100
AcDbEntity
  8
建具
  6
Continuous
 62
     4
370
     9
100
AcDbLine
 10
549.8816557089096
 20
-1248.353096093099
 30
0.0
 11
549.8816557089096
 21
-1217.353071584773
 31
0.0
  0
LINE
  5
1C2
330
1F
100
AcDbEntity
  8
建具
  6
Continuous
 62
     4
370
     9
100
AcDbLine
 10
549.883405461941
 20
-1248.353096093099
 30
0.0
 11
497.881095316626
 21
-1248.353096093099
 31
0.0
  0
LINE
  5
1C3
330
1F
100
AcDbEntity
  8
建具
  6
Continuous
 62
     4
370
     9
100
AcDbLine
 10
549.8816557089096
 20
-1217.353071584773
 30
0.0
 11
589.8820598606201
 21
-1217.353071584773
 31
0.0
  0
LINE
  5
1C4
330
1F
100
AcDbEntity
  8
建具
  6
Continuous
 62
     4
370
     9
100
AcDbLine
 10
589.8820598606201
 20
-1217.353071584773
 30
0.0
 11
589.8820598606201
 21
-1512.353952499999
 31
0.0
  0
LINE
  5
1C5
330
1F
100
AcDbEntity
  8
建具
  6
Continuous
 62
     4
370
     9
100
AcDbLine
 10
549.883405461941
 20
-1248.353096093099
 30
0.0
 11
549.883405461941
 21
-1217.353071584773
 31
0.0
  0
LINE
  5
1C6
330
1F
100
AcDbEntity
  8
躯体
  6
JWW_CENTER1
 62
     4
370
     9
100
AcDbLine
 10
545.9083165249992
 20
-1287.359290572316
 30
0.0
 11
574.0548437895686
 21
-1287.359290572316
 31
0.0
  0
LINE
  5
1C7
330
1F
100
AcDbEntity
  8
躯体
  6
JWW_CENTER1
 62
     4
370
     9
100
AcDbLine
 10
559.9815801572843
 20
-1301.4325542046
 30
0.0
 11
559.9815801572843
 21
-1273.286201915334
 31
0.0
  0
LINE
  5
1C8
330
1F
100
AcDbEntity
  8
躯体
  6
JWW_CENTER1
 62
     4
370
     9
100
AcDbLine
 10
545.9083165249992
 20
-1402.352578619841
 30
0.0
 11
574.0548437895686
 21
-1402.352578619841
 31
0.0
  0
LINE
  5
1C9
330
1F
100
AcDbEntity
  8
躯体
  6
JWW_CENTER1
 62
     4
370
     9
100
AcDbLine
 10
559.9815801572843
 20
-1416.425623532997
 30
0.0
 11
559.9815801572843
 21
-1388.279446219034
 31
0.0
  0
CIRCLE
  5
1CA
330
1F
100
AcDbEntity
  8
建具
  6
Continuous
 62
     4
370
     9
100
AcDbCircle
 10
559.9815801572843
 20
-1287.359290572316
 30
0.0
 40
8.500000171679787
  0
CIRCLE
  5
1CB
330
1F
100
AcDbEntity
  8
建具
  6
Continuous
 62
     4
370
     9
100
AcDbCircle
 10
559.9815801572843
 20
-1402.352578619841
 30
0.0
 40
8.500000171679787
  0
LINE
  5
1CC
330
1F
100
AcDbEntity
  8
建具
  6
Continuous
 62
     4
370
     9
100
AcDbLine
 10
5.881648992686159
 20
-1512.353952499999
 30
0.0
 11
589.8820598606201
 21
-1512.353952499999
 31
0.0
  0
LINE
  5
1CD
330
1F
100
AcDbEntity
  8
躯体
  6
JWW_DASHED2
 62
     4
370
     9
100
AcDbLine
 10
5.881648992686159
 20
-1508.35371086323
 30
0.0
 11
589.8820598606201
 21
-1508.35371086323
 31
0.0
  0
LINE
  5
1CE
330
1F
100
AcDbEntity
  8
通り芯
  6
JWW_CENTER2
 62
     4
370
     9
100
AcDbLine
 10
112.6215717113375
 20
-1442.353253983272
 30
0.0
 11
139.1416685380748
 21
-1442.353253983272
 31
0.0
  0
LINE
  5
1CF
330
1F
100
AcDbEntity
  8
通り芯
  6
JWW_CENTER2
 62
     4
370
     9
100
AcDbLine
 10
125.8816201247064
 20
-1429.083336962805
 30
0.0
 11
125.8816201247064
 21
-1455.613092426277
 31
0.0
  0
CIRCLE
  5
1D0
330
1F
100
AcDbEntity
  8
通り芯
  6
Continuous
 62
     4
370
     9
100
AcDbCircle
 10
125.8816201247064
 20
-1442.353253983272
 30
0.0
 40
8.500000581778156
  0
LINE
  5
1D1
330
1F
100
AcDbEntity
  8
通り芯
  6
JWW_CENTER2
 62
     4
370
     9
100
AcDbLine
 10
483.1433619690907
 20
-1442.353253983272
 30
0.0
 11
456.6232651423533
 21
-1442.353253983272
 31
0.0
  0
LINE
  5
1D2
330
1F
100
AcDbEntity
  8
通り芯
  6
JWW_CENTER2
 62
     4
370
     9
100
AcDbLine
 10
469.8833135557217
 20
-1429.083336962805
 30
0.0
 11
469.8833135557217
 21
-1455.613092426277
 31
0.0
  0
CIRCLE
  5
1D3
330
1F
100
AcDbEntity
  8
通り芯
  6
Continuous
 62
     4
370
     9
100
AcDbCircle
 10
469.8833135557217
 20
-1442.353253983272
 30
0.0
 40
8.500000581778156
  0
LINE
  5
1D4
330
1F
100
AcDbEntity
  8
建具
  6
Continuous
 62
     4
370
     9
100
AcDbLine
 10
97.88079272616312
 20
-1370.309056148891
 30
0.0
 11
97.8817386601649
 21
-1248.353096093099
 31
0.0
  0
LINE
  5
1D5
330
1F
100
AcDbEntity
  8
建具
  6
Continuous
 62
     4
370
     9
100
AcDbLine
 10
112.7043025911389
 20
-1389.627698532762
 30
0.0
 11
292.7059974718503
 21
-1437.860098168765
 31
0.0
  0
ARC
  5
1D6
330
1F
100
AcDbEntity
  8
建具
  6
Continuous
 62
     4
370
     9
100
AcDbCircle
 10
117.8807927255617
 20
-1370.309211276038
 30
0.0
 40
20.0
100
AcDbArc
 50
179.999555593462
 51
254.9996760331649
  0
LINE
  5
1D7
330
1F
100
AcDbEntity
  8
建具
  6
Continuous
 62
     4
370
     9
100
AcDbLine
 10
483.0569548222177
 20
-1389.628683607835
 30
0.0
 11
303.058936208578
 21
-1437.860098168765
 31
0.0
  0
LINE
  5
1D8
330
1F
100
AcDbEntity
  8
建具
  6
Continuous
 62
     4
370
     9
100
AcDbLine
 10
497.8804646875275
 20
-1370.310299769208
 30
0.0
 11
497.881095316626
 21
-1248.353096093099
 31
0.0
  0
ARC
  5
1D9
330
1F
100
AcDbEntity
  8
建具
  6
Continuous
 62
     4
370
     9
100
AcDbCircle
 10
477.880464687795
 20
-1370.31019635111
 30
0.0
 40
20.0
100
AcDbArc
 50
285.0003239668351
 51
359.9997037289747
  0
LINE
  5
1DA
330
1F
100
AcDbEntity
  8
建具
  6
Continuous
 62
     4
370
     9
100
AcDbLine
 10
497.8841409639111
 20
-1370.310299740693
 30
0.0
 11
497.8831950202635
 21
-1248.353096093099
 31
0.0
  0
LINE
  5
1DB
330
1F
100
AcDbEntity
  8
躯体
  6
JWW_CENTER1
 62
     4
370
     9
100
AcDbLine
 10
899.6018233710911
 20
-1647.35326055221
 30
0.0
 11
871.4559960077339
 21
-1647.35326055221
 31
0.0
  0
LINE
  5
1DC
330
1F
100
AcDbEntity
  8
躯体
  6
JWW_CENTER1
 62
     4
370
     9
100
AcDbLine
 10
885.5289096894121
 20
-1661.426436696843
 30
0.0
 11
885.5289096894121
 21
-1633.28025938288
 31
0.0
  0
LINE
  5
1DD
330
1F
100
AcDbEntity
  8
躯体
  6
JWW_CENTER1
 62
     4
370
     9
100
AcDbLine
 10
1011.455835760992
 20
-1647.35326055221
 30
0.0
 11
1039.601663124349
 21
-1647.35326055221
 31
0.0
  0
LINE
  5
1DE
330
1F
100
AcDbEntity
  8
躯体
  6
JWW_CENTER1
 62
     4
370
     9
100
AcDbLine
 10
1025.52874944267
 20
-1661.426436696843
 30
0.0
 11
1025.52874944267
 21
-1633.28025938288
 31
0.0
  0
ARC
  5
1DF
330
1F
100
AcDbEntity
  8
建具
  6
Continuous
 62
     4
370
     9
100
AcDbCircle
 10
955.5288295660412
 20
-1593.541705772332
 30
0.0
 40
19.99999976066088
100
AcDbArc
 50
254.9997406005859
 51
285.0002899169922
  0
CIRCLE
  5
1E0
330
1F
100
AcDbEntity
  8
建具
  6
Continuous
 62
     4
370
     9
100
AcDbCircle
 10
885.5289096894121
 20
-1647.35326055221
 30
0.0
 40
8.500000171679787
  0
CIRCLE
  5
1E1
330
1F
100
AcDbEntity
  8
建具
  6
Continuous
 62
     4
370
     9
100
AcDbCircle
 10
1025.52874944267
 20
-1647.35326055221
 30
0.0
 40
8.500000171679787
  0
LINE
  5
1E2
330
1F
100
AcDbEntity
  8
躯体
  6
JWW_CENTER1
 62
     4
370
     9
100
AcDbLine
 10
955.5288295660412
 20
-1219.890038505133
 30
0.0
 11
955.5288295660412
 21
-1719.14322152388
 31
0.0
  0
TEXT
  5
1E3
330
1F
100
AcDbEntity
  8
092
  6
Continuous
 62
     7
370
     9
100
AcDbText
 10
705.1845515049881
 20
-1183.25939239887
 30
0.0
 40
30.48
  1
ｼﾞｮｲﾝﾄ穴：10－Φ８．５
 41
1.113636363636364
  7
ＭＳ ゴシック
100
AcDbText
  0
LINE
  5
1E4
330
1F
100
AcDbEntity
  8
建具
  6
Continuous
 62
     4
370
     9
100
AcDbLine
 10
703.5277159690108
 20
-1217.353071584773
 30
0.0
 11
663.5276617679071
 21
-1217.353071584773
 31
0.0
  0
LINE
  5
1E5
330
1F
100
AcDbEntity
  8
建具
  6
Continuous
 62
     4
370
     9
100
AcDbLine
 10
703.5277159690108
 20
-1248.353096093099
 30
0.0
 11
703.5277159690108
 21
-1217.353071584773
 31
0.0
  0
LINE
  5
1E6
330
1F
100
AcDbEntity
  8
建具
  6
Continuous
 62
     4
370
     9
100
AcDbLine
 10
703.5277159690108
 20
-1248.353096093099
 30
0.0
 11
755.5275764600823
 21
-1248.353096093099
 31
0.0
  0
LINE
  5
1E7
330
1F
100
AcDbEntity
  8
建具
  6
Continuous
 62
     4
370
     9
100
AcDbLine
 10
663.5276617679071
 20
-1217.353071584773
 30
0.0
 11
663.5276617679071
 21
-1687.3539709107
 31
0.0
  0
LINE
  5
1E8
330
1F
100
AcDbEntity
  8
躯体
  6
JWW_CENTER1
 62
     4
370
     9
100
AcDbLine
 10
707.5024549553464
 20
-1287.359290572316
 30
0.0
 11
679.3559276907772
 21
-1287.359290572316
 31
0.0
  0
LINE
  5
1E9
330
1F
100
AcDbEntity
  8
躯体
  6
JWW_CENTER1
 62
     4
370
     9
100
AcDbLine
 10
693.4295412736683
 20
-1301.4325542046
 30
0.0
 11
693.4295412736683
 21
-1273.286201915334
 31
0.0
  0
LINE
  5
1EA
330
1F
100
AcDbEntity
  8
躯体
  6
JWW_CENTER1
 62
     4
370
     9
100
AcDbLine
 10
707.5024549553464
 20
-1577.352553286716
 30
0.0
 11
679.3559276907772
 21
-1577.352553286716
 31
0.0
  0
LINE
  5
1EB
330
1F
100
AcDbEntity
  8
躯体
  6
JWW_CENTER1
 62
     4
370
     9
100
AcDbLine
 10
693.4295412736683
 20
-1591.425641943698
 30
0.0
 11
693.4295412736683
 21
-1563.279464629735
 31
0.0
  0
LINE
  5
1EC
330
1F
100
AcDbEntity
  8
躯体
  6
JWW_CENTER1
 62
     4
370
     9
100
AcDbLine
 10
707.5024549553464
 20
-1432.355987545254
 30
0.0
 11
679.3559276907772
 21
-1432.355987545254
 31
0.0
  0
LINE
  5
1ED
330
1F
100
AcDbEntity
  8
躯体
  6
JWW_CENTER1
 62
     4
370
     9
100
AcDbLine
 10
693.4295412736683
 20
-1446.429163689887
 30
0.0
 11
693.4295412736683
 21
-1418.282811400622
 31
0.0
  0
CIRCLE
  5
1EE
330
1F
100
AcDbEntity
  8
建具
  6
Continuous
 62
     4
370
     9
100
AcDbCircle
 10
693.4295412736683
 20
-1287.359290572316
 30
0.0
 40
8.500000171679787
  0
CIRCLE
  5
1EF
330
1F
100
AcDbEntity
  8
建具
  6
Continuous
 62
     4
370
     9
100
AcDbCircle
 10
693.4295412736683
 20
-1432.355987545254
 30
0.0
 40
8.500000171679787
  0
CIRCLE
  5
1F0
330
1F
100
AcDbEntity
  8
建具
  6
Continuous
 62
     4
370
     9
100
AcDbCircle
 10
693.4295412736683
 20
-1577.352553286716
 30
0.0
 40
8.500000171679787
  0
LINE
  5
1F1
330
1F
100
AcDbEntity
  8
建具
  6
Continuous
 62
     4
370
     9
100
AcDbLine
 10
1207.527318533525
 20
-1248.353096093099
 30
0.0
 11
1207.527318533525
 21
-1217.353071584773
 31
0.0
  0
LINE
  5
1F2
330
1F
100
AcDbEntity
  8
建具
  6
Continuous
 62
     4
370
     9
100
AcDbLine
 10
1207.529418237162
 20
-1248.353096093099
 30
0.0
 11
1155.526758141241
 21
-1248.353096093099
 31
0.0
  0
LINE
  5
1F3
330
1F
100
AcDbEntity
  8
建具
  6
Continuous
 62
     4
370
     9
100
AcDbLine
 10
1207.527318533525
 20
-1217.353071584773
 30
0.0
 11
1247.529472438266
 21
-1217.353071584773
 31
0.0
  0
LINE
  5
1F4
330
1F
100
AcDbEntity
  8
建具
  6
Continuous
 62
     4
370
     9
100
AcDbLine
 10
1247.528072635841
 20
-1217.353071584773
 30
0.0
 11
1247.528072635841
 21
-1687.3539709107
 31
0.0
  0
LINE
  5
1F5
330
1F
100
AcDbEntity
  8
建具
  6
Continuous
 62
     4
370
     9
100
AcDbLine
 10
1207.529418237162
 20
-1248.353096093099
 30
0.0
 11
1207.529418237162
 21
-1217.353071584773
 31
0.0
  0
LINE
  5
1F6
330
1F
100
AcDbEntity
  8
建具
  6
Continuous
 62
     4
370
     9
100
AcDbLine
 10
1247.529472438266
 20
-1217.353071584773
 30
0.0
 11
1247.529472438266
 21
-1687.3539709107
 31
0.0
  0
LINE
  5
1F7
330
1F
100
AcDbEntity
  8
躯体
  6
JWW_CENTER1
 62
     4
370
     9
100
AcDbLine
 10
1203.554679250826
 20
-1287.359290572316
 30
0.0
 11
1231.701206515396
 21
-1287.359290572316
 31
0.0
  0
LINE
  5
1F8
330
1F
100
AcDbEntity
  8
躯体
  6
JWW_CENTER1
 62
     4
370
     9
100
AcDbLine
 10
1217.627592932505
 20
-1301.4325542046
 30
0.0
 11
1217.627592932505
 21
-1273.286201915334
 31
0.0
  0
LINE
  5
1F9
330
1F
100
AcDbEntity
  8
躯体
  6
JWW_CENTER1
 62
     4
370
     9
100
AcDbLine
 10
1203.554679250826
 20
-1577.352553286716
 30
0.0
 11
1231.701206515396
 21
-1577.352553286716
 31
0.0
  0
LINE
  5
1FA
330
1F
100
AcDbEntity
  8
躯体
  6
JWW_CENTER1
 62
     4
370
     9
100
AcDbLine
 10
1217.627592932505
 20
-1591.425641943698
 30
0.0
 11
1217.627592932505
 21
-1563.279464629735
 31
0.0
  0
LINE
  5
1FB
330
1F
100
AcDbEntity
  8
躯体
  6
JWW_CENTER1
 62
     4
370
     9
100
AcDbLine
 10
1203.554679250826
 20
-1432.355987545254
 30
0.0
 11
1231.701206515396
 21
-1432.355987545254
 31
0.0
  0
LINE
  5
1FC
330
1F
100
AcDbEntity
  8
躯体
  6
JWW_CENTER1
 62
     4
370
     9
100
AcDbLine
 10
1217.627592932505
 20
-1446.429163689887
 30
0.0
 11
1217.627592932505
 21
-1418.282811400622
 31
0.0
  0
CIRCLE
  5
1FD
330
1F
100
AcDbEntity
  8
建具
  6
Continuous
 62
     4
370
     9
100
AcDbCircle
 10
1217.627592932505
 20
-1287.359290572316
 30
0.0
 40
8.500000171679787
  0
CIRCLE
  5
1FE
330
1F
100
AcDbEntity
  8
建具
  6
Continuous
 62
     4
370
     9
100
AcDbCircle
 10
1217.627592932505
 20
-1432.355987545254
 30
0.0
 40
8.500000171679787
  0
CIRCLE
  5
1FF
330
1F
100
AcDbEntity
  8
建具
  6
Continuous
 62
     4
370
     9
100
AcDbCircle
 10
1217.627592932505
 20
-1577.352553286716
 30
0.0
 40
8.500000171679787
  0
LINE
  5
200
330
1F
100
AcDbEntity
  8
建具
  6
Continuous
 62
     4
370
     9
100
AcDbLine
 10
663.5276617679071
 20
-1687.3539709107
 30
0.0
 11
1247.528072635841
 21
-1687.3539709107
 31
0.0
  0
LINE
  5
201
330
1F
100
AcDbEntity
  8
躯体
  6
JWW_DASHED2
 62
     4
370
     9
100
AcDbLine
 10
663.5276617679071
 20
-1683.353685530104
 30
0.0
 11
1247.528072635841
 21
-1683.353685530104
 31
0.0
  0
LINE
  5
202
330
1F
100
AcDbEntity
  8
建具
  6
Continuous
 62
     4
370
     9
100
AcDbLine
 10
755.5269067728793
 20
-1545.310525464153
 30
0.0
 11
755.5275764600823
 21
-1248.353096093099
 31
0.0
  0
LINE
  5
203
330
1F
100
AcDbEntity
  8
建具
  6
Continuous
 62
     4
370
     9
100
AcDbLine
 10
770.350465593546
 20
-1564.629070941844
 30
0.0
 11
950.3523601976772
 21
-1612.861035199808
 31
0.0
  0
ARC
  5
204
330
1F
100
AcDbEntity
  8
建具
  6
Continuous
 62
     4
370
     9
100
AcDbCircle
 10
775.5269067728285
 20
-1545.310570567399
 30
0.0
 40
20.0
100
AcDbArc
 50
179.9998707887174
 51
254.9998212268298
  0
LINE
  5
205
330
1F
100
AcDbEntity
  8
建具
  6
Continuous
 62
     4
370
     9
100
AcDbLine
 10
1140.702579463569
 20
-1564.628812304496
 30
0.0
 11
960.7052989344052
 21
-1612.860029091815
 31
0.0
  0
LINE
  5
206
330
1F
100
AcDbEntity
  8
建具
  6
Continuous
 62
     4
370
     9
100
AcDbLine
 10
1155.526089329096
 20
-1545.310370092107
 30
0.0
 11
1155.526758141241
 21
-1248.353096093099
 31
0.0
  0
ARC
  5
207
330
1F
100
AcDbEntity
  8
建具
  6
Continuous
 62
     4
370
     9
100
AcDbCircle
 10
1135.526089329146
 20
-1545.310325047772
 30
0.0
 40
20.0
100
AcDbArc
 50
285.000323966835
 51
359.999870957486
  0
LINE
  5
208
330
1F
100
AcDbEntity
  8
通り芯
  6
JWW_CENTER2
 62
     4
370
     9
100
AcDbLine
 10
770.2675844865581
 20
-1617.353184906321
 30
0.0
 11
796.7876813132955
 21
-1617.353184906321
 31
0.0
  0
LINE
  5
209
330
1F
100
AcDbEntity
  8
通り芯
  6
JWW_CENTER2
 62
     4
370
     9
100
AcDbLine
 10
783.5276328999271
 20
-1604.083267885855
 30
0.0
 11
783.5276328999271
 21
-1630.613023349326
 31
0.0
  0
CIRCLE
  5
20A
330
1F
100
AcDbEntity
  8
通り芯
  6
Continuous
 62
     4
370
     9
100
AcDbCircle
 10
783.5276328999271
 20
-1617.353184906321
 30
0.0
 40
8.500000581778156
  0
LINE
  5
20B
330
1F
100
AcDbEntity
  8
通り芯
  6
JWW_CENTER2
 62
     4
370
     9
100
AcDbLine
 10
1140.790074645524
 20
-1617.353184906321
 30
0.0
 11
1114.269977818787
 21
-1617.353184906321
 31
0.0
  0
LINE
  5
20C
330
1F
100
AcDbEntity
  8
通り芯
  6
JWW_CENTER2
 62
     4
370
     9
100
AcDbLine
 10
1127.530026232155
 20
-1604.083267885855
 30
0.0
 11
1127.530026232155
 21
-1630.613023349326
 31
0.0
  0
CIRCLE
  5
20D
330
1F
100
AcDbEntity
  8
通り芯
  6
Continuous
 62
     4
370
     9
100
AcDbCircle
 10
1127.530026232155
 20
-1617.353184906321
 30
0.0
 40
8.500000581778156
  0
LINE
  5
20E
330
1F
100
AcDbEntity
  8
建具
  6
Continuous
 62
     4
370
     9
100
AcDbLine
 10
1155.530227435775
 20
-1545.310370082775
 30
0.0
 11
1155.529557746091
 21
-1248.353096093099
 31
0.0
  0
TEXT
  5
20F
330
1F
100
AcDbEntity
  8
092
  6
Continuous
 62
     7
370
     9
100
AcDbText
 10
-514.8729178190347
 20
-1128.537703579662
 30
0.0
 40
30.48
  1
Ｖ０１～Ｖ０４
 41
1.107142857142857
  7
ＭＳ ゴシック
100
AcDbText
  0
TEXT
  5
210
330
1F
100
AcDbEntity
  8
092
  6
Continuous
 62
     7
370
     9
100
AcDbText
 10
137.5379263162062
 20
-1128.537703579662
 30
0.0
 40
30.48
  1
Ｖ０５～Ｖ１１
 41
1.107142857142857
  7
ＭＳ ゴシック
100
AcDbText
  0
TEXT
  5
211
330
1F
100
AcDbEntity
  8
092
  6
Continuous
 62
     7
370
     9
100
AcDbText
 10
795.1845515049879
 20
-1128.537703579662
 30
0.0
 40
30.48
  1
Ｖ１２～Ｖ１８
 41
1.107142857142857
  7
ＭＳ ゴシック
100
AcDbText
  0
LINE
  5
212
330
1F
100
AcDbEntity
  8
1-0ﾚｲﾔ
  6
Continuous
 62
     3
370
     9
100
AcDbLine
 10
2406.483202298533
 20
1534.146425019623
 30
0.0
 11
2406.483202298533
 21
1509.149103261131
 31
0.0
  0
LINE
  5
213
330
1F
100
AcDbEntity
  8
1-0ﾚｲﾔ
  6
Continuous
 62
     3
370
     9
100
AcDbLine
 10
2191.481948603432
 20
1464.148254896025
 30
0.0
 11
2298.98187554977
 21
1464.148254896025
 31
0.0
  0
LINE
  5
214
330
1F
100
AcDbEntity
  8
1-0ﾚｲﾔ
  6
Continuous
 62
     3
370
     9
100
AcDbLine
 10
2313.981108486319
 20
1534.146425019623
 30
0.0
 11
2313.981108486319
 21
1479.147137881969
 31
0.0
  0
LINE
  5
215
330
1F
100
AcDbEntity
  8
1-0ﾚｲﾔ
  6
Continuous
 62
     3
370
     9
100
AcDbLine
 10
2391.480819806527
 20
1541.645516561988
 30
0.0
 11
2321.482999633536
 21
1541.645516561988
 31
0.0
  0
LINE
  5
216
330
1F
100
AcDbEntity
  8
1-0ﾚｲﾔ
  6
Continuous
 62
     3
370
     9
100
AcDbLine
 10
2398.980961200712
 20
1534.146425019623
 30
0.0
 11
2398.980961200712
 21
1509.149103261131
 31
0.0
  0
LINE
  5
217
330
1F
100
AcDbEntity
  8
1-0ﾚｲﾔ
  6
Continuous
 62
     3
370
     9
100
AcDbLine
 10
2306.482016943954
 20
1479.147137881969
 30
0.0
 11
2306.482016943954
 21
1534.146425019623
 31
0.0
  0
LINE
  5
218
330
1F
100
AcDbEntity
  8
1-0ﾚｲﾔ
  6
Continuous
 62
     3
370
     9
100
AcDbLine
 10
2398.980961200712
 20
1509.149103261131
 30
0.0
 11
2406.483202298533
 21
1509.149103261131
 31
0.0
  0
LINE
  5
219
330
1F
100
AcDbEntity
  8
1-0ﾚｲﾔ
  6
Continuous
 62
     3
370
     9
100
AcDbLine
 10
946.4819238594498
 20
1534.146425019623
 30
0.0
 11
946.4819238594498
 21
1509.149103261131
 31
0.0
  0
LINE
  5
21A
330
1F
100
AcDbEntity
  8
1-0ﾚｲﾔ
  6
Continuous
 62
     3
370
     9
100
AcDbLine
 10
1161.481777752126
 20
1464.148254896025
 30
0.0
 11
1053.981850805787
 21
1464.148254896025
 31
0.0
  0
LINE
  5
21B
330
1F
100
AcDbEntity
  8
1-0ﾚｲﾔ
  6
Continuous
 62
     3
370
     9
100
AcDbLine
 10
1038.982617869237
 20
1534.146425019623
 30
0.0
 11
1038.982617869237
 21
1479.147137881969
 31
0.0
  0
LINE
  5
21C
330
1F
100
AcDbEntity
  8
1-0ﾚｲﾔ
  6
Continuous
 62
     3
370
     9
100
AcDbLine
 10
961.4829065490312
 20
1541.645516561988
 30
0.0
 11
1031.480726722021
 21
1541.645516561988
 31
0.0
  0
LINE
  5
21D
330
1F
100
AcDbEntity
  8
1-0ﾚｲﾔ
  6
Continuous
 62
     3
370
     9
100
AcDbLine
 10
953.9824152042399
 20
1534.146425019623
 30
0.0
 11
953.9824152042399
 21
1509.149103261131
 31
0.0
  0
LINE
  5
21E
330
1F
100
AcDbEntity
  8
1-0ﾚｲﾔ
  6
Continuous
 62
     3
370
     9
100
AcDbLine
 10
1046.481709411603
 20
1479.147137881969
 30
0.0
 11
1046.481709411603
 21
1534.146425019623
 31
0.0
  0
LINE
  5
21F
330
1F
100
AcDbEntity
  8
1-0ﾚｲﾔ
  6
Continuous
 62
     3
370
     9
100
AcDbLine
 10
953.9824152042399
 20
1509.149103261131
 30
0.0
 11
946.4819238594498
 21
1509.149103261131
 31
0.0
  0
LINE
  5
220
330
1F
100
AcDbEntity
  8
1-0ﾚｲﾔ
  6
Continuous
 62
     3
370
     9
100
AcDbLine
 10
2298.98187554977
 20
1471.648046339604
 30
0.0
 11
2191.481948603432
 21
1471.648046339604
 31
0.0
  0
LINE
  5
221
330
1F
100
AcDbEntity
  8
1-0ﾚｲﾔ
  6
Continuous
 62
     3
370
     9
100
AcDbLine
 10
1161.481777752126
 20
1471.648046339604
 30
0.0
 11
1053.981850805787
 21
1471.648046339604
 31
0.0
  0
LINE
  5
222
330
1F
100
AcDbEntity
  8
1-0ﾚｲﾔ
  6
Continuous
 62
     3
370
     9
100
AcDbLine
 10
2391.480819806527
 20
1549.148107610416
 30
0.0
 11
2321.482999633536
 21
1549.148107610416
 31
0.0
  0
LINE
  5
223
330
1F
100
AcDbEntity
  8
1-0ﾚｲﾔ
  6
Continuous
 62
     3
370
     9
100
AcDbLine
 10
1031.480726722021
 20
1549.148107610416
 30
0.0
 11
961.4815067466054
 21
1549.148107610416
 31
0.0
  0
LINE
  5
224
330
1F
100
AcDbEntity
  8
1-2ﾚｲﾔ
  6
Continuous
 62
     2
370
     9
100
AcDbLine
 10
1438.98385978149
 20
637.7846918002845
 30
0.0
 11
1438.98385978149
 21
987.7853410352477
 31
0.0
  0
LINE
  5
225
330
1F
100
AcDbEntity
  8
1-2ﾚｲﾔ
  6
Continuous
 62
     2
370
     9
100
AcDbLine
 10
1913.984765882556
 20
987.7853410352477
 30
0.0
 11
1913.984765882556
 21
637.7846918002845
 31
0.0
  0
LINE
  5
226
330
1F
100
AcDbEntity
  8
1-2ﾚｲﾔ
  6
Continuous
 62
     2
370
     9
100
AcDbLine
 10
1456.983919167047
 20
637.7846918002845
 30
0.0
 11
1463.983631194226
 21
643.7849448958743
 31
0.0
  0
LINE
  5
227
330
1F
100
AcDbEntity
  8
1-2ﾚｲﾔ
  6
Continuous
 62
     2
370
     9
100
AcDbLine
 10
1895.984356546392
 20
637.7846918002845
 30
0.0
 11
1888.984644519213
 21
643.7849448958743
 31
0.0
  0
LINE
  5
228
330
1F
100
AcDbEntity
  8
1-2ﾚｲﾔ
  6
Continuous
 62
     2
370
     9
100
AcDbLine
 10
1913.984765882556
 20
637.7846918002845
 30
0.0
 11
1438.98385978149
 21
637.7846918002845
 31
0.0
  0
LINE
  5
229
330
1F
100
AcDbEntity
  8
1-2ﾚｲﾔ
  6
Continuous
 62
     2
370
     9
100
AcDbLine
 10
1463.983631194226
 20
643.7849448958743
 30
0.0
 11
1888.984644519213
 21
643.7849448958743
 31
0.0
  0
LINE
  5
22A
330
1F
100
AcDbEntity
  8
1-2ﾚｲﾔ
  6
Continuous
 62
     2
370
     9
100
AcDbLine
 10
1456.983919167047
 20
637.7846918002845
 30
0.0
 11
1456.983919167047
 21
982.962321779245
 31
0.0
  0
LINE
  5
22B
330
1F
100
AcDbEntity
  8
1-2ﾚｲﾔ
  6
Continuous
 62
     2
370
     9
100
AcDbLine
 10
1463.983631194226
 20
643.7849448958743
 30
0.0
 11
1463.983631194226
 21
981.0869364800928
 31
0.0
  0
LINE
  5
22C
330
1F
100
AcDbEntity
  8
1-2ﾚｲﾔ
  6
Continuous
 62
     2
370
     9
100
AcDbLine
 10
1895.984356546392
 20
637.7846918002845
 30
0.0
 11
1895.984356546392
 21
982.962321779245
 31
0.0
  0
LINE
  5
22D
330
1F
100
AcDbEntity
  8
1-2ﾚｲﾔ
  6
Continuous
 62
     2
370
     9
100
AcDbLine
 10
1888.984644519213
 20
643.7849448958743
 30
0.0
 11
1888.984644519213
 21
981.0876363813052
 31
0.0
  0
LINE
  5
22E
330
1F
100
AcDbEntity
  8
1-0ﾚｲﾔ
  6
Continuous
 62
     3
370
     9
100
AcDbLine
 10
1888.984294568608
 20
988.8523404338512
 30
0.0
 11
1888.984294568608
 21
981.0876363813052
 31
0.0
  0
LINE
  5
22F
330
1F
100
AcDbEntity
  8
1-0ﾚｲﾔ
  6
Continuous
 62
     3
370
     9
100
AcDbLine
 10
1463.983981144833
 20
988.8509406314258
 30
0.0
 11
1463.983981144833
 21
981.0862365788798
 31
0.0
  0
LINE
  5
230
330
1F
100
AcDbEntity
  8
1-2ﾚｲﾔ
  6
Continuous
 62
     2
370
     9
100
AcDbLine
 10
1438.98385978149
 20
987.7853410352477
 30
0.0
 11
1676.48413785672
 21
924.1475231811214
 31
0.0
  0
LINE
  5
231
330
1F
100
AcDbEntity
  8
1-2ﾚｲﾔ
  6
Continuous
 62
     2
370
     9
100
AcDbLine
 10
1676.48413785672
 20
924.1475231811214
 30
0.0
 11
1913.984765882556
 21
987.785690985854
 31
0.0
  0
LINE
  5
232
330
1F
100
AcDbEntity
  8
1-0ﾚｲﾔ
  6
Continuous
 62
     3
370
     9
100
AcDbLine
 10
1176.482760441708
 20
1104.253802119798
 30
0.0
 11
1176.482760441708
 21
1456.64916335366
 31
0.0
  0
LINE
  5
233
330
1F
100
AcDbEntity
  8
1-0ﾚｲﾔ
  6
Continuous
 62
     3
370
     9
100
AcDbLine
 10
1213.54182974748
 20
1055.957818845787
 30
0.0
 11
1676.483787906113
 21
931.9115273324544
 31
0.0
  0
LINE
  5
234
330
1F
100
AcDbEntity
  8
1-0ﾚｲﾔ
  6
Continuous
 62
     3
370
     9
100
AcDbLine
 10
1168.982269096916
 20
1104.254152070404
 30
0.0
 11
1168.982269096916
 21
1456.64916335366
 31
0.0
  0
LINE
  5
235
330
1F
100
AcDbEntity
  8
1-0ﾚｲﾔ
  6
Continuous
 62
     3
370
     9
100
AcDbLine
 10
1211.599953833131
 20
1048.712791443594
 30
0.0
 11
1676.48413785672
 21
924.1475231811214
 31
0.0
  0
LINE
  5
236
330
1F
100
AcDbEntity
  8
1-0ﾚｲﾔ
  6
Continuous
 62
     3
370
     9
100
AcDbLine
 10
2139.421896608077
 20
1055.957118944574
 30
0.0
 11
1676.48413785672
 21
931.9125771842735
 31
0.0
  0
LINE
  5
237
330
1F
100
AcDbEntity
  8
1-0ﾚｲﾔ
  6
Continuous
 62
     3
370
     9
100
AcDbLine
 10
2176.480965913851
 20
1104.253452169191
 30
0.0
 11
2176.480965913851
 21
1456.64916335366
 31
0.0
  0
LINE
  5
238
330
1F
100
AcDbEntity
  8
1-0ﾚｲﾔ
  6
Continuous
 62
     3
370
     9
100
AcDbLine
 10
2183.983207011672
 20
1104.253802119798
 30
0.0
 11
2183.983207011672
 21
1456.64916335366
 31
0.0
  0
LINE
  5
239
330
1F
100
AcDbEntity
  8
1-0ﾚｲﾔ
  6
Continuous
 62
     3
370
     9
100
AcDbLine
 10
2141.365172324852
 20
1048.712441492988
 30
0.0
 11
1676.48413785672
 21
924.1485730329405
 31
0.0
  0
ARC
  5
23A
330
1F
100
AcDbEntity
  8
1-0ﾚｲﾔ
  6
Continuous
 62
     3
370
     9
100
AcDbCircle
 10
2191.481948603432
 20
1456.64916335366
 30
0.0
 40
14.99999845350111
100
AcDbArc
 50
90.0
 51
180.0
  0
ARC
  5
23B
330
1F
100
AcDbEntity
  8
1-0ﾚｲﾔ
  6
Continuous
 62
     3
370
     9
100
AcDbCircle
 10
2298.98187554977
 20
1479.147137881969
 30
0.0
 40
14.99999845350111
100
AcDbArc
 50
270.0
 51
0.0
  0
ARC
  5
23C
330
1F
100
AcDbEntity
  8
1-0ﾚｲﾔ
  6
Continuous
 62
     3
370
     9
100
AcDbCircle
 10
2321.482999633536
 20
1534.146425019623
 30
0.0
 40
14.99999845350111
100
AcDbArc
 50
90.0
 51
180.0
  0
ARC
  5
23D
330
1F
100
AcDbEntity
  8
1-0ﾚｲﾔ
  6
Continuous
 62
     3
370
     9
100
AcDbCircle
 10
2391.480819806527
 20
1534.146425019623
 30
0.0
 40
14.99999845350111
100
AcDbArc
 50
0.0
 51
90.0
  0
ARC
  5
23E
330
1F
100
AcDbEntity
  8
1-0ﾚｲﾔ
  6
Continuous
 62
     3
370
     9
100
AcDbCircle
 10
2191.481948603432
 20
1456.64916335366
 30
0.0
 40
7.499999226750553
100
AcDbArc
 50
90.0
 51
180.0
  0
ARC
  5
23F
330
1F
100
AcDbEntity
  8
1-0ﾚｲﾔ
  6
Continuous
 62
     3
370
     9
100
AcDbCircle
 10
2321.482999633536
 20
1534.146425019623
 30
0.0
 40
7.499999226750553
100
AcDbArc
 50
90.0
 51
180.0
  0
ARC
  5
240
330
1F
100
AcDbEntity
  8
1-0ﾚｲﾔ
  6
Continuous
 62
     3
370
     9
100
AcDbCircle
 10
2391.480819806527
 20
1534.146425019623
 30
0.0
 40
7.499999226750553
100
AcDbArc
 50
0.0
 51
90.0
  0
ARC
  5
241
330
1F
100
AcDbEntity
  8
1-0ﾚｲﾔ
  6
Continuous
 62
     3
370
     9
100
AcDbCircle
 10
2298.98187554977
 20
1479.147137881969
 30
0.0
 40
7.499999226750553
100
AcDbArc
 50
270.0
 51
0.0
  0
ARC
  5
242
330
1F
100
AcDbEntity
  8
1-0ﾚｲﾔ
  6
Continuous
 62
     3
370
     9
100
AcDbCircle
 10
1161.481777752126
 20
1456.64916335366
 30
0.0
 40
14.99999845350111
100
AcDbArc
 50
0.0
 51
90.0
  0
ARC
  5
243
330
1F
100
AcDbEntity
  8
1-0ﾚｲﾔ
  6
Continuous
 62
     3
370
     9
100
AcDbCircle
 10
1053.981850805787
 20
1479.147137881969
 30
0.0
 40
14.99999845350111
100
AcDbArc
 50
180.0
 51
270.0
  0
ARC
  5
244
330
1F
100
AcDbEntity
  8
1-0ﾚｲﾔ
  6
Continuous
 62
     3
370
     9
100
AcDbCircle
 10
1031.480726722021
 20
1534.146425019623
 30
0.0
 40
14.99999845350111
100
AcDbArc
 50
0.0
 51
90.0
  0
ARC
  5
245
330
1F
100
AcDbEntity
  8
1-0ﾚｲﾔ
  6
Continuous
 62
     3
370
     9
100
AcDbCircle
 10
961.4815067466054
 20
1534.146425019623
 30
0.0
 40
14.99999845350111
100
AcDbArc
 50
90.0
 51
180.0
  0
ARC
  5
246
330
1F
100
AcDbEntity
  8
1-0ﾚｲﾔ
  6
Continuous
 62
     3
370
     9
100
AcDbCircle
 10
1161.481777752126
 20
1456.64916335366
 30
0.0
 40
7.499999226750553
100
AcDbArc
 50
0.0
 51
90.0
  0
ARC
  5
247
330
1F
100
AcDbEntity
  8
1-0ﾚｲﾔ
  6
Continuous
 62
     3
370
     9
100
AcDbCircle
 10
1031.480726722021
 20
1534.146425019623
 30
0.0
 40
7.499999226750553
100
AcDbArc
 50
0.0
 51
90.0
  0
ARC
  5
248
330
1F
100
AcDbEntity
  8
1-0ﾚｲﾔ
  6
Continuous
 62
     3
370
     9
100
AcDbCircle
 10
961.4829065490312
 20
1534.146425019623
 30
0.0
 40
7.499999226750553
100
AcDbArc
 50
90.0
 51
180.0
  0
ARC
  5
249
330
1F
100
AcDbEntity
  8
1-0ﾚｲﾔ
  6
Continuous
 62
     3
370
     9
100
AcDbCircle
 10
1053.981850805787
 20
1479.147137881969
 30
0.0
 40
7.499999226750553
100
AcDbArc
 50
180.0
 51
270.0
  0
ARC
  5
24A
330
1F
100
AcDbEntity
  8
1-0ﾚｲﾔ
  6
Continuous
 62
     3
370
     9
100
AcDbCircle
 10
2126.483172841412
 20
1104.253802119798
 30
0.0
 40
57.50000136239188
100
AcDbArc
 50
284.9999237060547
 51
0.0000000000000127
  0
ARC
  5
24B
330
1F
100
AcDbEntity
  8
1-0ﾚｲﾔ
  6
Continuous
 62
     3
370
     9
100
AcDbCircle
 10
1226.482303267178
 20
1104.254152070404
 30
0.0
 40
57.50000136239188
100
AcDbArc
 50
180.0
 51
255.0000762939453
  0
ARC
  5
24C
330
1F
100
AcDbEntity
  8
1-0ﾚｲﾔ
  6
Continuous
 62
     3
370
     9
100
AcDbCircle
 10
1226.482653217784
 20
1104.253802119798
 30
0.0
 40
50.00000213564132
100
AcDbArc
 50
180.0
 51
255.0000457763672
  0
ARC
  5
24D
330
1F
100
AcDbEntity
  8
1-0ﾚｲﾔ
  6
Continuous
 62
     3
370
     9
100
AcDbCircle
 10
2126.481073137774
 20
1104.253452169191
 30
0.0
 40
50.00000213564132
100
AcDbArc
 50
284.9998474121094
 51
0.0
  0
LINE
  5
24E
330
1F
100
AcDbEntity
  8
1-0ﾚｲﾔ
  6
JWW_CENTER1
 62
     3
370
     9
100
AcDbLine
 10
1676.48413785672
 20
1560.438214070811
 30
0.0
 11
1676.48413785672
 21
578.4887111185005
 31
0.0
  0
LWPOLYLINE
  5
24F
330
1F
100
AcDbEntity
  8
1-4ﾚｲﾔ
  6
Continuous
 62
     7
370
     9
100
AcDbPolyline
 90
        4
 70
     1
 43
1.0
 10
1176.982760441707
 20
1699.148107610416
 42
0.4142135623731
 10
1176.482760441707
 20
1699.648107610417
 42
0.4142135623731
 10
1175.982760441707
 20
1699.148107610416
 42
0.4142135623731
 10
1176.482760441707
 20
1698.648107610416
 42
0.4142135623731
  0
LINE
  5
250
330
1F
100
AcDbEntity
  8
1-4ﾚｲﾔ
  6
Continuous
 62
     7
370
     9
100
AcDbLine
 10
1176.482760441707
 20
1702.148107729626
 30
0.0
 11
1176.482760441707
 21
1486.64916335366
 31
0.0
  0
LWPOLYLINE
  5
251
330
1F
100
AcDbEntity
  8
1-4ﾚｲﾔ
  6
Continuous
 62
     7
370
     9
100
AcDbPolyline
 90
        4
 70
     1
 43
1.0
 10
946.9815082931051
 20
1799.148107610416
 42
0.4142135623731
 10
946.4815082931051
 20
1799.648107610417
 42
0.4142135623731
 10
945.9815082931051
 20
1799.148107610416
 42
0.4142135623731
 10
946.4815082931051
 20
1798.648107610416
 42
0.4142135623731
  0
LINE
  5
252
330
1F
100
AcDbEntity
  8
1-4ﾚｲﾔ
  6
Continuous
 62
     7
370
     9
100
AcDbLine
 10
946.4815082931051
 20
1802.148107729626
 30
0.0
 11
946.4815082931051
 21
1564.146425019623
 31
0.0
  0
LWPOLYLINE
  5
253
330
1F
100
AcDbEntity
  8
1-4ﾚｲﾔ
  6
Continuous
 62
     7
370
     9
100
AcDbPolyline
 90
        4
 70
     1
 43
1.0
 10
2176.98115208286
 20
1699.148107610416
 42
0.4142135623731
 10
2176.48115208286
 20
1699.648107610417
 42
0.4142135623731
 10
2175.98115208286
 20
1699.148107610416
 42
0.4142135623731
 10
2176.48115208286
 20
1698.648107610416
 42
0.4142135623731
  0
LINE
  5
254
330
1F
100
AcDbEntity
  8
1-4ﾚｲﾔ
  6
Continuous
 62
     7
370
     9
100
AcDbLine
 10
2176.48115208286
 20
1702.148107729626
 30
0.0
 11
2176.48115208286
 21
1486.64916335366
 31
0.0
  0
LWPOLYLINE
  5
255
330
1F
100
AcDbEntity
  8
1-4ﾚｲﾔ
  6
Continuous
 62
     7
370
     9
100
AcDbPolyline
 90
        4
 70
     1
 43
1.0
 10
2406.983388467542
 20
1799.148107610416
 42
0.4142135623731
 10
2406.483388467542
 20
1799.648107610417
 42
0.4142135623731
 10
2405.983388467542
 20
1799.148107610416
 42
0.4142135623731
 10
2406.483388467542
 20
1798.648107610416
 42
0.4142135623731
  0
LINE
  5
256
330
1F
100
AcDbEntity
  8
1-4ﾚｲﾔ
  6
Continuous
 62
     7
370
     9
100
AcDbLine
 10
2406.483388467542
 20
1802.148107729626
 30
0.0
 11
2406.483388467542
 21
1564.146425019623
 31
0.0
  0
LINE
  5
257
330
1F
100
AcDbEntity
  8
1-0ﾚｲﾔ
  6
Continuous
 62
     7
370
     9
100
AcDbLine
 10
682.561282693087
 20
1311.237337473999
 30
0.0
 11
1078.61648156872
 21
1311.237337473999
 31
0.0
  0
LINE
  5
258
330
1F
100
AcDbEntity
  8
1-0ﾚｲﾔ
  6
Continuous
 62
     7
370
     9
100
AcDbLine
 10
1078.61648156872
 20
1311.237337473999
 30
0.0
 11
1168.981776978876
 21
1259.064951334023
 31
0.0
  0
LINE
  5
259
330
1F
100
AcDbEntity
  8
Hojo
  6
Continuous
 62
     7
370
     9
100
AcDbLine
 10
1168.981776978876
 20
1259.064951334023
 30
0.0
 11
1141.265339009448
 21
1270.545430924244
 31
0.0
  0
LINE
  5
25A
330
1F
100
AcDbEntity
  8
Hojo
  6
Continuous
 62
     7
370
     9
100
AcDbLine
 10
1168.981776978876
 20
1259.064951334023
 30
0.0
 11
1145.181286293925
 21
1277.327823624911
 31
0.0
  0
TEXT
  5
25B
330
1F
100
AcDbEntity
  8
1-0ﾚｲﾔ
  6
Continuous
 62
     7
370
     9
100
AcDbText
 10
711.0913776204296
 20
1330.215354882452
 30
0.0
 40
30.48
  1
①トラフパン本体
 41
1.109375
  7
ＭＳ ゴシック
100
AcDbText
  0
LINE
  5
25C
330
1F
100
AcDbEntity
  8
Hojo
  6
Continuous
 62
     7
370
     9
100
AcDbLine
 10
1438.98385978149
 20
666.6118729941038
 30
0.0
 11
1420.720987490603
 21
642.8113823091528
 31
0.0
  0
LINE
  5
25D
330
1F
100
AcDbEntity
  8
Hojo
  6
Continuous
 62
     7
370
     9
100
AcDbLine
 10
1438.98385978149
 20
666.6118729941038
 30
0.0
 11
1415.183369096539
 21
648.3490007032165
 31
0.0
  0
LINE
  5
25E
330
1F
100
AcDbEntity
  8
1-0ﾚｲﾔ
  6
Continuous
 62
     7
370
     9
100
AcDbLine
 10
904.7330249075793
 20
531.6155979177166
 30
0.0
 11
1303.848191884685
 21
531.6155979177166
 31
0.0
  0
LINE
  5
25F
330
1F
100
AcDbEntity
  8
Hojo
  6
Continuous
 62
     7
370
     9
100
AcDbLine
 10
1303.848191884685
 20
531.6155979177166
 30
0.0
 11
1438.98385978149
 21
666.6118729941038
 31
0.0
  0
TEXT
  5
260
330
1F
100
AcDbEntity
  8
1-0ﾚｲﾔ
  6
Continuous
 62
     7
370
     9
100
AcDbText
 10
921.5835183497171
 20
553.8243593235142
 30
0.0
 40
30.48
  1
③ソケット８０Ａ
 41
1.109375
  7
ＭＳ ゴシック
100
AcDbText
  0
LINE
  5
261
330
1F
100
AcDbEntity
  8
1-4ﾚｲﾔ
  6
Continuous
 62
     7
370
     9
100
AcDbLine
 10
1807.151144890609
 20
571.0267143404028
 30
0.0
 11
1964.022803274719
 21
480.4566978255619
 31
0.0
  0
LINE
  5
262
330
1F
100
AcDbEntity
  8
1-4ﾚｲﾔ
  6
Continuous
 62
     7
370
     9
100
AcDbLine
 10
1888.984644519214
 20
712.7668584587818
 30
0.0
 11
1877.504164928993
 21
685.0504204893527
 31
0.0
  0
LINE
  5
263
330
1F
100
AcDbEntity
  8
1-4ﾚｲﾔ
  6
Continuous
 62
     7
370
     9
100
AcDbLine
 10
1888.984644519214
 20
712.7668584587818
 30
0.0
 11
1870.721772228326
 21
688.9663677738306
 31
0.0
  0
LINE
  5
264
330
1F
100
AcDbEntity
  8
1-4ﾚｲﾔ
  6
Continuous
 62
     7
370
     9
100
AcDbLine
 10
1964.022803274719
 20
480.4566978255619
 30
0.0
 11
2113.558097148391
 21
480.4566978255619
 31
0.0
  0
TEXT
  5
265
330
1F
100
AcDbEntity
  8
1-4ﾚｲﾔ
  6
Continuous
 62
     7
370
     9
100
AcDbText
 10
1972.623189964248
 20
493.2402395519285
 30
0.0
 40
30.48
  1
Ｒｐ３
 41
1.083333333333333
  7
ＭＳ ゴシック
100
AcDbText
  0
LINE
  5
266
330
1F
100
AcDbEntity
  8
1-4ﾚｲﾔ
  6
Continuous
 62
     7
370
     9
100
AcDbLine
 10
1888.984644519214
 20
712.7668584587818
 30
0.0
 11
1807.151144890609
 21
571.0267143404028
 31
0.0
  0
LINE
  5
267
330
1F
100
AcDbEntity
  8
1-4ﾚｲﾔ
  6
Continuous
 62
     7
370
     9
100
AcDbLine
 10
1438.983859781491
 20
455.3160712937918
 30
0.0
 11
1913.984765882556
 21
455.3160712937918
 31
0.0
  0
LINE
  5
268
330
1F
100
AcDbEntity
  8
1-4ﾚｲﾔ
  6
Continuous
 62
     7
370
     9
100
AcDbLine
 10
1438.983859781491
 20
607.7848261247598
 30
0.0
 11
1438.983859781491
 21
452.3159447459969
 31
0.0
  0
LINE
  5
269
330
1F
100
AcDbEntity
  8
1-4ﾚｲﾔ
  6
Continuous
 62
     7
370
     9
100
AcDbLine
 10
1913.984765882556
 20
607.7848261247598
 30
0.0
 11
1913.984765882556
 21
452.3159447459969
 31
0.0
  0
TEXT
  5
26A
330
1F
100
AcDbEntity
  8
1-4ﾚｲﾔ
  6
Continuous
 62
     7
370
     9
100
AcDbText
 10
1632.734312832024
 20
465.9558156059751
 30
0.0
 40
30.48
  1
Φ95
 41
1.09375
  7
ＭＳ ゴシック
100
AcDbText
  0
LWPOLYLINE
  5
26B
330
1F
100
AcDbEntity
  8
1-4ﾚｲﾔ
  6
Continuous
 62
     7
370
     9
100
AcDbPolyline
 90
        4
 70
     1
 43
1.0
 10
1914.484765882556
 20
455.3160712937918
 42
0.4142135623731
 10
1913.984765882556
 20
455.8160712937918
 42
0.4142135623731
 10
1913.484765882556
 20
455.3160712937918
 42
0.4142135623731
 10
1913.984765882556
 20
454.8160712937919
 42
0.4142135623731
  0
LWPOLYLINE
  5
26C
330
1F
100
AcDbEntity
  8
1-4ﾚｲﾔ
  6
Continuous
 62
     7
370
     9
100
AcDbPolyline
 90
        4
 70
     1
 43
1.0
 10
1439.483859781491
 20
455.3160712937918
 42
0.4142135623731
 10
1438.983859781491
 20
455.8160712937918
 42
0.4142135623731
 10
1438.483859781491
 20
455.3160712937918
 42
0.4142135623731
 10
1438.983859781491
 20
454.8160712937919
 42
0.4142135623731
  0
LINE
  5
26D
330
1F
100
AcDbEntity
  8
1-4ﾚｲﾔ
  6
Continuous
 62
     7
370
     9
100
AcDbLine
 10
2421.480685482052
 20
1549.148107610416
 30
0.0
 11
2608.886234166897
 21
1549.148107610416
 31
0.0
  0
LINE
  5
26E
330
1F
100
AcDbEntity
  8
1-4ﾚｲﾔ
  6
Continuous
 62
     7
370
     9
100
AcDbLine
 10
2605.886107619102
 20
637.7846918002845
 30
0.0
 11
2605.886107619102
 21
1549.148107610416
 31
0.0
  0
LINE
  5
26F
330
1F
100
AcDbEntity
  8
1-4ﾚｲﾔ
  6
Continuous
 62
     7
370
     9
100
AcDbLine
 10
2483.954217669024
 20
637.7846918002845
 30
0.0
 11
2483.954217669024
 21
987.7853410352477
 31
0.0
  0
TEXT
  5
270
330
1F
100
AcDbEntity
  8
1-4ﾚｲﾔ
  6
Continuous
 62
     7
370
     9
100
AcDbText
 10
2473.314124335101
 20
791.5351911465369
 30
0.0
 40
30.48
  1
70
 50
90.00000250447816
 41
1.062500000000001
  7
ＭＳ ゴシック
100
AcDbText
  0
TEXT
  5
271
330
1F
100
AcDbEntity
  8
1-4ﾚｲﾔ
  6
Continuous
 62
     7
370
     9
100
AcDbText
 10
2595.246016247015
 20
1027.216399459259
 30
0.0
 40
30.48
  1
Ｈ＋57
 50
90.0000025
 41
1.104166666666667
  7
ＭＳ ゴシック
100
AcDbText
  0
LWPOLYLINE
  5
272
330
1F
100
AcDbEntity
  8
1-4ﾚｲﾔ
  6
Continuous
 62
     7
370
     9
100
AcDbPolyline
 90
        4
 70
     1
 43
1.0
 10
2606.386107619102
 20
1549.148107610416
 42
0.4142135623731
 10
2605.886107619102
 20
1549.648107610417
 42
0.4142135623731
 10
2605.386107619102
 20
1549.148107610416
 42
0.4142135623731
 10
2605.886107619102
 20
1548.648107610416
 42
0.4142135623731
  0
LWPOLYLINE
  5
273
330
1F
100
AcDbEntity
  8
1-4ﾚｲﾔ
  6
Continuous
 62
     7
370
     9
100
AcDbPolyline
 90
        4
 70
     1
 43
1.0
 10
2484.454217669024
 20
987.7853410352477
 42
0.4142135623731
 10
2483.954217669024
 20
988.2853410352477
 42
0.4142135623731
 10
2483.454217669023
 20
987.7853410352477
 42
0.4142135623731
 10
2483.954217669024
 20
987.2853410352478
 42
0.4142135623731
  0
LWPOLYLINE
  5
274
330
1F
100
AcDbEntity
  8
1-4ﾚｲﾔ
  6
Continuous
 62
     7
370
     9
100
AcDbPolyline
 90
        4
 70
     1
 43
1.0
 10
2484.454217669024
 20
637.7846918002845
 42
0.4142135623731
 10
2483.954217669024
 20
638.2846918002845
 42
0.4142135623731
 10
2483.454217669023
 20
637.7846918002845
 42
0.4142135623731
 10
2483.954217669024
 20
637.2846918002846
 42
0.4142135623731
  0
LWPOLYLINE
  5
275
330
1F
100
AcDbEntity
  8
1-4ﾚｲﾔ
  6
Continuous
 62
     7
370
     9
100
AcDbPolyline
 90
        4
 70
     1
 43
1.0
 10
2606.386107619102
 20
637.7846918002845
 42
0.4142135623731
 10
2605.886107619102
 20
638.2846918002845
 42
0.4142135623731
 10
2605.386107619102
 20
637.7846918002845
 42
0.4142135623731
 10
2605.886107619102
 20
637.2846918002846
 42
0.4142135623731
  0
LINE
  5
276
330
1F
100
AcDbEntity
  8
1-4ﾚｲﾔ
  6
Continuous
 62
     7
370
     9
100
AcDbLine
 10
1973.719257799338
 20
637.7846918002845
 30
0.0
 11
2608.886234166897
 21
637.7846918002845
 31
0.0
  0
LINE
  5
277
330
1F
100
AcDbEntity
  8
1-4ﾚｲﾔ
  6
Continuous
 62
     7
370
     9
100
AcDbLine
 10
2002.696917753865
 20
987.7853410352477
 30
0.0
 11
2486.95434421682
 21
987.7853410352477
 31
0.0
  0
LINE
  5
278
330
1F
100
AcDbEntity
  8
1-4ﾚｲﾔ
  6
Continuous
 62
     7
370
     9
100
AcDbLine
 10
1176.482760441707
 20
1699.148107610416
 30
0.0
 11
2176.48115208286
 21
1699.148107610416
 31
0.0
  0
TEXT
  5
279
330
1F
100
AcDbEntity
  8
1-4ﾚｲﾔ
  6
Continuous
 62
     7
370
   211
100
AcDbText
 10
1643.981956262284
 20
1709.788107610417
 30
0.0
 40
30.48
  1
200
 41
1.083333333333333
  7
ＭＳ ゴシック
100
AcDbText
  0
LINE
  5
27A
330
1F
100
AcDbEntity
  8
1-4ﾚｲﾔ
  6
Continuous
 62
     7
370
     9
100
AcDbLine
 10
946.4815082931051
 20
1799.148107610416
 30
0.0
 11
2406.483388467542
 21
1799.148107610416
 31
0.0
  0
TEXT
  5
27B
330
1F
100
AcDbEntity
  8
1-4ﾚｲﾔ
  6
Continuous
 62
     7
370
   211
100
AcDbText
 10
1643.982448380323
 20
1809.788107610417
 30
0.0
 40
30.48
  1
292
 41
1.083333333333333
  7
ＭＳ ゴシック
100
AcDbText
  0
TEXT
  5
27C
330
1F
100
AcDbEntity
  8
1-5ﾚｲﾔ
  6
Continuous
 62
     7
370
     9
100
AcDbText
 10
1431.484137856721
 20
297.1473420410314
 30
0.0
 40
30.48
  1
Ｃ－Ｃ断面　Ｓ＝１：２
 41
1.113636363636364
  7
ＭＳ ゴシック
100
AcDbText
  0
LINE
  5
27D
330
1F
100
AcDbEntity
  8
1-5ﾚｲﾔ
  6
Continuous
 62
     7
370
     9
100
AcDbLine
 10
1413.48413785672
 20
346.5073420410314
 30
0.0
 11
1939.48413785672
 21
346.5073420410314
 31
0.0
  0
LINE
  5
27E
330
1F
100
AcDbEntity
  8
1-5ﾚｲﾔ
  6
Continuous
 62
     7
370
     9
100
AcDbLine
 10
1413.48413785672
 20
276.5073420410314
 30
0.0
 11
1939.48413785672
 21
276.5073420410314
 31
0.0
  0
LINE
  5
27F
330
1F
100
AcDbEntity
  8
1-5ﾚｲﾔ
  6
Continuous
 62
     7
370
     9
100
AcDbLine
 10
1413.48413785672
 20
346.5073420410314
 30
0.0
 11
1413.48413785672
 21
276.5073420410314
 31
0.0
  0
LINE
  5
280
330
1F
100
AcDbEntity
  8
1-5ﾚｲﾔ
  6
Continuous
 62
     7
370
     9
100
AcDbLine
 10
1939.48413785672
 20
346.5073420410314
 30
0.0
 11
1939.48413785672
 21
276.5073420410314
 31
0.0
  0
LINE
  5
281
330
1F
100
AcDbEntity
  8
1-1ﾚｲﾔ
  6
JWW_CENTER1
 62
     4
370
     9
100
AcDbLine
 10
235.6665886540056
 20
-602.0810891314813
 30
0.0
 11
235.6665886540056
 21
-531.7157333342255
 31
0.0
  0
LINE
  5
282
330
1F
100
AcDbEntity
  8
1-1ﾚｲﾔ
  6
JWW_CENTER1
 62
     4
370
     9
100
AcDbLine
 10
270.8492228088087
 20
-566.8982800013761
 30
0.0
 11
200.4839544992037
 21
-566.8982800013761
 31
0.0
  0
LINE
  5
283
330
1F
100
AcDbEntity
  8
1-1ﾚｲﾔ
  6
JWW_CENTER1
 62
     4
370
     9
100
AcDbLine
 10
585.6651381853319
 20
-602.0810891314813
 30
0.0
 11
585.6651381853319
 21
-531.7157333342255
 31
0.0
  0
LINE
  5
284
330
1F
100
AcDbEntity
  8
1-1ﾚｲﾔ
  6
JWW_CENTER1
 62
     4
370
     9
100
AcDbLine
 10
550.4825040305288
 20
-566.8982800013761
 30
0.0
 11
620.8477723401338
 21
-566.8982800013761
 31
0.0
  0
CIRCLE
  5
285
330
1F
100
AcDbEntity
  8
1-1ﾚｲﾔ
  6
Continuous
 62
     4
370
     9
100
AcDbCircle
 10
235.6665886540056
 20
-566.8982800013761
 30
0.0
 40
21.25000008745083
  0
CIRCLE
  5
286
330
1F
100
AcDbEntity
  8
1-1ﾚｲﾔ
  6
Continuous
 62
     4
370
     9
100
AcDbCircle
 10
585.6651381853319
 20
-566.8982800013761
 30
0.0
 40
21.25000008745083
  0
LINE
  5
287
330
1F
100
AcDbEntity
  8
1-1ﾚｲﾔ
  6
JWW_CENTER1
 62
     4
370
     9
100
AcDbLine
 10
410.6660383949716
 20
126.759551315833
 30
0.0
 11
410.6660383949716
 21
-746.3730730709876
 31
0.0
  0
ARC
  5
288
330
1F
100
AcDbEntity
  8
1-0ﾚｲﾔ
  6
JWW_DASHED1
 62
     4
370
     9
100
AcDbCircle
 10
410.6639386913346
 20
-432.3694805393341
 30
0.0
 40
57.50000136239188
100
AcDbArc
 50
270.0020904541016
 51
284.9999084472657
  0
ARC
  5
289
330
1F
100
AcDbEntity
  8
1-0ﾚｲﾔ
  6
JWW_DASHED1
 62
     4
370
     9
100
AcDbCircle
 10
410.6681380986097
 20
-432.3694805393341
 30
0.0
 40
57.50000136239188
100
AcDbArc
 50
255.0000915527344
 51
269.9979095458984
  0
ARC
  5
28A
330
1F
100
AcDbEntity
  8
1-0ﾚｲﾔ
  6
Continuous
 62
     4
370
     9
100
AcDbCircle
 10
410.6635887407278
 20
-432.3701804405464
 30
0.0
 40
50.00000213564132
100
AcDbArc
 50
270.0028076171875
 51
285.0002593994141
  0
ARC
  5
28B
330
1F
100
AcDbEntity
  8
1-0ﾚｲﾔ
  6
Continuous
 62
     4
370
     9
100
AcDbCircle
 10
410.6684880492164
 20
-432.3701804405464
 30
0.0
 40
50.00000213564132
100
AcDbArc
 50
254.9997406005859
 51
269.9971923828124
  0
LINE
  5
28C
330
1F
100
AcDbEntity
  8
Hojo
  6
Continuous
 62
     7
370
     9
100
AcDbLine
 10
166.0078706185177
 20
-887.6427856065532
 30
0.0
 11
640.7221671730249
 21
-887.6427856065532
 31
0.0
  0
LINE
  5
28D
330
1F
100
AcDbEntity
  8
Hojo
  6
Continuous
 62
     7
370
     9
100
AcDbLine
 10
166.0078706185177
 20
-822.6427850174106
 30
0.0
 11
640.7221671730249
 21
-822.6427850174106
 31
0.0
  0
LINE
  5
28E
330
1F
100
AcDbEntity
  8
Hojo
  6
Continuous
 62
     7
370
     9
100
AcDbLine
 10
166.0078706185177
 20
-822.6427850174106
 30
0.0
 11
166.0078706185177
 21
-887.6427856065532
 31
0.0
  0
LINE
  5
28F
330
1F
100
AcDbEntity
  8
Hojo
  6
Continuous
 62
     7
370
     9
100
AcDbLine
 10
640.7221671730249
 20
-887.6427856065532
 30
0.0
 11
640.7221671730249
 21
-822.6427850174106
 31
0.0
  0
TEXT
  5
290
330
1F
100
AcDbEntity
  8
Hojo
  6
Continuous
 62
     2
370
     9
100
AcDbText
 10
225.8648439204685
 20
-869.5028999001853
 30
0.0
 40
30.48
  1
Ａ視　Ｓ＝１：２
 41
1.109375
  7
ＭＳ ゴシック
100
AcDbText
  0
LINE
  5
291
330
1F
100
AcDbEntity
  8
Hojo
  6
Continuous
 62
     7
370
     9
100
AcDbLine
 10
750.7975180929257
 20
-830.1363792532073
 30
0.0
 11
1073.758533831041
 21
-830.1363792532073
 31
0.0
  0
TEXT
  5
292
330
1F
100
AcDbEntity
  8
Hojo
  6
Continuous
 62
     2
370
     9
100
AcDbText
 10
799.5632099016782
 20
-883.3328747889216
 30
0.0
 40
30.48
  1
Φ８．５
 41
1.09375
  7
ＭＳ ゴシック
100
AcDbText
  0
TEXT
  5
293
330
1F
100
AcDbEntity
  8
Hojo
  6
Continuous
 62
     2
370
     9
100
AcDbText
 10
799.563183390268
 20
-809.4112334428113
 30
0.0
 40
30.48
  1
ジョイント穴
 41
1.104166666666667
  7
ＭＳ ゴシック
100
AcDbText
  0
LINE
  5
294
330
1F
100
AcDbEntity
  8
Hojo
  6
Continuous
 62
     7
370
     9
100
AcDbLine
 10
750.7975180929257
 20
-830.1363792532073
 30
0.0
 11
596.7340758625462
 21
-585.0376197282402
 31
0.0
  0
LINE
  5
295
330
1F
100
AcDbEntity
  8
Hojo
  6
Continuous
 62
     7
370
     9
100
AcDbLine
 10
596.7340758625462
 20
-585.0376197282402
 30
0.0
 11
612.6873274110155
 21
-604.2858343215802
 31
0.0
  0
LINE
  5
296
330
1F
100
AcDbEntity
  8
Hojo
  6
Continuous
 62
     7
370
     9
100
AcDbLine
 10
596.7340758625462
 20
-585.0376197282402
 30
0.0
 11
607.1619290255219
 21
-607.7589726459565
 31
0.0
  0
LINE
  5
297
330
1F
100
AcDbEntity
  8
Hojo
  6
Continuous
 62
     7
370
     9
100
AcDbLine
 10
410.6660388490345
 20
-482.3704231267932
 30
0.0
 11
422.6406486953484
 21
-460.4243207046165
 31
0.0
  0
LINE
  5
298
330
1F
100
AcDbEntity
  8
Hojo
  6
Continuous
 62
     7
370
     9
100
AcDbLine
 10
410.6660388490345
 20
-482.3704231267932
 30
0.0
 11
427.9123046286255
 21
-464.27167767026
 31
0.0
  0
LINE
  5
299
330
1F
100
AcDbEntity
  8
Hojo
  6
Continuous
 62
     7
370
     9
100
AcDbLine
 10
498.7913004282759
 20
-361.6028188438693
 30
0.0
 11
410.6660388490345
 21
-482.3704231267932
 31
0.0
  0
TEXT
  5
29A
330
1F
100
AcDbEntity
  8
Hojo
  6
Continuous
 62
     2
370
     9
100
AcDbText
 10
448.7553543136975
 20
-406.8169631626618
 30
0.0
 40
30.48
  1
R10
 50
49.99983291337701
 41
1.083333333333337
  7
ＭＳ ゴシック
100
AcDbText
  0
LINE
  5
29B
330
1F
100
AcDbEntity
  8
1-1ﾚｲﾔ
  6
JWW_CENTER1
 62
     4
370
     9
100
AcDbLine
 10
-209.3992857182034
 20
-41.9134913644728
 30
0.0
 11
-279.7645540278083
 21
-41.9134913644728
 31
0.0
  0
LINE
  5
29C
330
1F
100
AcDbEntity
  8
1-1ﾚｲﾔ
  6
JWW_CENTER1
 62
     4
370
     9
100
AcDbLine
 10
-244.5819198730053
 20
-77.09647546988117
 30
0.0
 11
-244.5819198730053
 21
-6.730857209670607
 31
0.0
  0
LINE
  5
29D
330
1F
100
AcDbEntity
  8
1-1ﾚｲﾔ
  6
JWW_CENTER1
 62
     4
370
     9
100
AcDbLine
 10
-209.3992857182034
 20
-391.896643069121
 30
0.0
 11
-279.7645540278083
 21
-391.896643069121
 31
0.0
  0
LINE
  5
29E
330
1F
100
AcDbEntity
  8
1-1ﾚｲﾔ
  6
JWW_CENTER1
 62
     4
370
     9
100
AcDbLine
 10
-244.5819198730053
 20
-427.0792772239231
 30
0.0
 11
-244.5819198730053
 21
-356.7136589637126
 31
0.0
  0
CIRCLE
  5
29F
330
1F
100
AcDbEntity
  8
1-1ﾚｲﾔ
  6
Continuous
 62
     4
370
     9
100
AcDbCircle
 10
-244.5819198730053
 20
-41.9134913644728
 30
0.0
 40
21.25000008745083
  0
CIRCLE
  5
2A0
330
1F
100
AcDbEntity
  8
1-1ﾚｲﾔ
  6
Continuous
 62
     4
370
     9
100
AcDbCircle
 10
-244.5819198730053
 20
-391.896643069121
 30
0.0
 40
21.25000008745083
  0
LINE
  5
2A1
330
1F
100
AcDbEntity
  8
1-0ﾚｲﾔ
  6
JWW_DASHED1
 62
     4
370
     9
100
AcDbLine
 10
-319.3362686868031
 20
118.1003735135889
 30
0.0
 11
-319.3362686868031
 21
93.10305175509774
 31
0.0
  0
LINE
  5
2A2
330
1F
100
AcDbEntity
  8
1-0ﾚｲﾔ
  6
JWW_DASHED1
 62
     4
370
     9
100
AcDbLine
 10
-104.3364147941268
 20
48.10220338999164
 30
0.0
 11
-211.8363417404644
 21
48.10220338999164
 31
0.0
  0
LINE
  5
2A3
330
1F
100
AcDbEntity
  8
1-0ﾚｲﾔ
  6
JWW_DASHED1
 62
     4
370
     9
100
AcDbLine
 10
-226.8359246276211
 20
118.1003735135889
 30
0.0
 11
-226.8359246276211
 21
63.10108637593493
 31
0.0
  0
LINE
  5
2A4
330
1F
100
AcDbEntity
  8
1-0ﾚｲﾔ
  6
JWW_DASHED1
 62
     4
370
     9
100
AcDbLine
 10
-304.3352859972217
 20
125.5994650559544
 30
0.0
 11
-234.3374658242303
 21
125.5994650559544
 31
0.0
  0
LINE
  5
2A5
330
1F
100
AcDbEntity
  8
1-0ﾚｲﾔ
  6
JWW_DASHED1
 62
     4
370
     9
100
AcDbLine
 10
-311.8361272926186
 20
118.1003735135889
 30
0.0
 11
-311.8361272926186
 21
93.10305175509774
 31
0.0
  0
LINE
  5
2A6
330
1F
100
AcDbEntity
  8
1-0ﾚｲﾔ
  6
JWW_DASHED1
 62
     4
370
     9
100
AcDbLine
 10
-311.8361272926186
 20
93.10305175509774
 30
0.0
 11
-319.3362686868031
 21
93.10305175509774
 31
0.0
  0
ARC
  5
2A7
330
1F
100
AcDbEntity
  8
1-0ﾚｲﾔ
  6
JWW_DASHED1
 62
     4
370
     9
100
AcDbCircle
 10
-211.8363417404644
 20
63.10108637593493
 30
0.0
 40
14.99999845350111
100
AcDbArc
 50
180.0
 51
270.0
  0
ARC
  5
2A8
330
1F
100
AcDbEntity
  8
1-0ﾚｲﾔ
  6
JWW_DASHED1
 62
     4
370
     9
100
AcDbCircle
 10
-104.3364147941268
 20
40.60311184762617
 30
0.0
 40
7.499999226750553
100
AcDbArc
 50
0.0
 51
90.0
  0
ARC
  5
2A9
330
1F
100
AcDbEntity
  8
1-0ﾚｲﾔ
  6
JWW_DASHED1
 62
     4
370
     9
100
AcDbCircle
 10
-234.3374658242303
 20
118.1003735135889
 30
0.0
 40
7.499999226750553
100
AcDbArc
 50
0.0
 51
90.0
  0
ARC
  5
2AA
330
1F
100
AcDbEntity
  8
1-0ﾚｲﾔ
  6
JWW_DASHED1
 62
     4
370
     9
100
AcDbCircle
 10
-304.3352859972217
 20
118.1003735135889
 30
0.0
 40
7.499999226750553
100
AcDbArc
 50
90.0
 51
180.0
  0
LINE
  5
2AB
330
1F
100
AcDbEntity
  8
1-1ﾚｲﾔ
  6
Continuous
 62
     4
370
     9
100
AcDbLine
 10
-319.3362686868031
 20
118.2519153234924
 30
0.0
 11
-319.3362686868031
 21
-666.8996403312583
 31
0.0
  0
LINE
  5
2AC
330
1F
100
AcDbEntity
  8
1-0ﾚｲﾔ
  6
Continuous
 62
     4
370
     9
100
AcDbLine
 10
-219.3368330852556
 20
63.10108637593493
 30
0.0
 11
-219.3368330852556
 21
118.1003735135889
 31
0.0
  0
LINE
  5
2AD
330
1F
100
AcDbEntity
  8
1-0ﾚｲﾔ
  6
Continuous
 62
     4
370
     9
100
AcDbLine
 10
-104.3364147941268
 20
55.60199483356945
 30
0.0
 11
-211.8363417404644
 21
55.60199483356945
 31
0.0
  0
LINE
  5
2AE
330
1F
100
AcDbEntity
  8
1-0ﾚｲﾔ
  6
Continuous
 62
     4
370
     9
100
AcDbLine
 10
-234.3374658242303
 20
133.1020561043829
 30
0.0
 11
-304.3370357502531
 21
133.1020561043829
 31
0.0
  0
ARC
  5
2AF
330
1F
100
AcDbEntity
  8
1-0ﾚｲﾔ
  6
Continuous
 62
     4
370
     9
100
AcDbCircle
 10
-104.3364147941268
 20
40.60311184762617
 30
0.0
 40
14.99999845350111
100
AcDbArc
 50
0.0
 51
90.0
  0
ARC
  5
2B0
330
1F
100
AcDbEntity
  8
1-0ﾚｲﾔ
  6
Continuous
 62
     4
370
     9
100
AcDbCircle
 10
-234.3374658242303
 20
118.1003735135889
 30
0.0
 40
14.99999845350111
100
AcDbArc
 50
0.0
 51
90.0
  0
ARC
  5
2B1
330
1F
100
AcDbEntity
  8
1-0ﾚｲﾔ
  6
Continuous
 62
     4
370
     9
100
AcDbCircle
 10
-211.8363417404644
 20
63.10108637593493
 30
0.0
 40
7.499999226750553
100
AcDbArc
 50
180.0
 51
270.0
  0
ARC
  5
2B2
330
1F
100
AcDbEntity
  8
1-0ﾚｲﾔ
  6
Continuous
 62
     4
370
     9
100
AcDbCircle
 10
-304.3370357502531
 20
118.1003735135889
 30
0.0
 40
14.99999845350111
100
AcDbArc
 50
90.0
 51
179.4211430179182
  0
LINE
  5
2B3
330
1F
100
AcDbEntity
  8
1-0ﾚｲﾔ
  6
Continuous
 62
     7
370
     9
100
AcDbLine
 10
84.02945602245175
 20
133.1003719670901
 30
0.0
 11
84.02945602245175
 21
55.60311030112734
 31
0.0
  0
LWPOLYLINE
  5
2B4
330
1F
100
AcDbEntity
  8
1-0ﾚｲﾔ
  6
Continuous
 62
     7
370
     9
100
AcDbPolyline
 90
        4
 70
     1
 43
1.0
 10
84.52945602245177
 20
133.1003719670901
 42
0.4142135623731
 10
84.02945602245175
 20
133.6003719670901
 42
0.4142135623731
 10
83.52945602245174
 20
133.1003719670901
 42
0.4142135623731
 10
84.02945602245175
 20
132.6003719670901
 42
0.4142135623731
  0
LWPOLYLINE
  5
2B5
330
1F
100
AcDbEntity
  8
1-0ﾚｲﾔ
  6
Continuous
 62
     7
370
     9
100
AcDbPolyline
 90
        4
 70
     1
 43
1.0
 10
84.52945602245177
 20
55.60311030112734
 42
0.4142135623731
 10
84.02945602245175
 20
56.10311030112734
 42
0.4142135623731
 10
83.52945602245174
 20
55.60311030112734
 42
0.4142135623731
 10
84.02945602245175
 20
55.10311030112734
 42
0.4142135623731
  0
LINE
  5
2B6
330
1F
100
AcDbEntity
  8
1-0ﾚｲﾔ
  6
Continuous
 62
     7
370
     9
100
AcDbLine
 10
87.0294560224513
 20
133.1003719670901
 30
0.0
 11
-214.3374658242303
 21
133.1003719670901
 31
0.0
  0
LINE
  5
2B7
330
1F
100
AcDbEntity
  8
1-0ﾚｲﾔ
  6
Continuous
 62
     7
370
     9
100
AcDbLine
 10
87.0294560224513
 20
55.60311030112734
 30
0.0
 11
-84.33641479412678
 21
55.60311030112734
 31
0.0
  0
LINE
  5
2B8
330
1F
100
AcDbEntity
  8
1-0ﾚｲﾔ
  6
Continuous
 62
     7
370
     9
100
AcDbLine
 10
84.02945602245175
 20
55.60311030112734
 30
0.0
 11
84.02945602245175
 21
-65.95655524935844
 31
0.0
  0
TEXT
  5
2B9
330
1F
100
AcDbEntity
  8
1-0ﾚｲﾔ
  6
Continuous
 62
     2
370
   211
100
AcDbText
 10
72.38945602245153
 20
-49.89451026467472
 30
0.0
 40
30.48
  1
15.5
 50
90.0
 41
1.09375
  7
ＭＳ ゴシック
100
AcDbText
  0
LWPOLYLINE
  5
2BA
330
1F
100
AcDbEntity
  8
1-4ﾚｲﾔ
  6
Continuous
 62
     7
370
     9
100
AcDbPolyline
 90
        4
 70
     1
 43
1.0
 10
-218.8368330852556
 20
319.2426928428895
 42
0.4142135623731
 10
-219.3368330852556
 20
319.7426928428895
 42
0.4142135623731
 10
-219.8368330852557
 20
319.2426928428895
 42
0.4142135623731
 10
-219.3368330852556
 20
318.7426928428895
 42
0.4142135623731
  0
LINE
  5
2BB
330
1F
100
AcDbEntity
  8
1-4ﾚｲﾔ
  6
Continuous
 62
     7
370
     9
100
AcDbLine
 10
-219.3368330852556
 20
322.2426928428896
 30
0.0
 11
-219.3368330852556
 21
138.1003735135889
 31
0.0
  0
LINE
  5
2BC
330
1F
100
AcDbEntity
  8
1-4ﾚｲﾔ
  6
Continuous
 62
     7
370
     9
100
AcDbLine
 10
-577.7123809775688
 20
133.1003719670901
 30
0.0
 11
-577.7123809775688
 21
-666.8996403312583
 31
0.0
  0
LWPOLYLINE
  5
2BD
330
1F
100
AcDbEntity
  8
1-4ﾚｲﾔ
  6
Continuous
 62
     7
370
     9
100
AcDbPolyline
 90
        4
 70
     1
 43
1.0
 10
-577.2123809775688
 20
133.1003719670901
 42
0.4142135623731
 10
-577.7123809775688
 20
133.6003719670901
 42
0.4142135623731
 10
-578.2123809775688
 20
133.1003719670901
 42
0.4142135623731
 10
-577.7123809775688
 20
132.6003719670901
 42
0.4142135623731
  0
LWPOLYLINE
  5
2BE
330
1F
100
AcDbEntity
  8
1-4ﾚｲﾔ
  6
Continuous
 62
     7
370
     9
100
AcDbPolyline
 90
        4
 70
     1
 43
1.0
 10
-577.2123809775688
 20
-666.8996403312583
 42
0.4142135623731
 10
-577.7123809775688
 20
-666.3996403312583
 42
0.4142135623731
 10
-578.2123809775688
 20
-666.8996403312583
 42
0.4142135623731
 10
-577.7123809775688
 20
-667.3996403312583
 42
0.4142135623731
  0
LINE
  5
2BF
330
1F
100
AcDbEntity
  8
1-4ﾚｲﾔ
  6
Continuous
 62
     7
370
     9
100
AcDbLine
 10
-580.712380977569
 20
133.1003719670901
 30
0.0
 11
-324.3370357502531
 21
133.1003719670901
 31
0.0
  0
LINE
  5
2C0
330
1F
100
AcDbEntity
  8
1-4ﾚｲﾔ
  6
Continuous
 62
     7
370
     9
100
AcDbLine
 10
-580.712380977569
 20
-666.8996403312583
 30
0.0
 11
-339.3362686868031
 21
-666.8996403312583
 31
0.0
  0
LINE
  5
2C1
330
1F
100
AcDbEntity
  8
1-4ﾚｲﾔ
  6
Continuous
 62
     7
370
     9
100
AcDbLine
 10
-470.4395743803238
 20
133.1003719670901
 30
0.0
 11
-470.4395743803238
 21
-489.8694818634546
 31
0.0
  0
LWPOLYLINE
  5
2C2
330
1F
100
AcDbEntity
  8
1-4ﾚｲﾔ
  6
Continuous
 62
     7
370
     9
100
AcDbPolyline
 90
        4
 70
     1
 43
1.0
 10
-469.9395743803239
 20
133.1003719670901
 42
0.4142135623731
 10
-470.4395743803238
 20
133.6003719670901
 42
0.4142135623731
 10
-470.9395743803238
 20
133.1003719670901
 42
0.4142135623731
 10
-470.4395743803238
 20
132.6003719670901
 42
0.4142135623731
  0
LWPOLYLINE
  5
2C3
330
1F
100
AcDbEntity
  8
1-4ﾚｲﾔ
  6
Continuous
 62
     7
370
     9
100
AcDbPolyline
 90
        4
 70
     1
 43
1.0
 10
-469.9395743803239
 20
-489.8694818634546
 42
0.4142135623731
 10
-470.4395743803238
 20
-489.3694818634546
 42
0.4142135623731
 10
-470.9395743803238
 20
-489.8694818634546
 42
0.4142135623731
 10
-470.4395743803238
 20
-490.3694818634546
 42
0.4142135623731
  0
LWPOLYLINE
  5
2C4
330
1F
100
AcDbEntity
  8
1-4ﾚｲﾔ
  6
Continuous
 62
     7
370
     9
100
AcDbPolyline
 90
        4
 70
     1
 43
1.0
 10
-88.8364163406253
 20
243.8603297589088
 42
0.4142135623731
 10
-89.33641634062532
 20
244.3603297589088
 42
0.4142135623731
 10
-89.83641634062533
 20
243.8603297589088
 42
0.4142135623731
 10
-89.33641634062532
 20
243.3603297589088
 42
0.4142135623731
  0
LINE
  5
2C5
330
1F
100
AcDbEntity
  8
1-4ﾚｲﾔ
  6
Continuous
 62
     7
370
     9
100
AcDbLine
 10
-89.33641634062532
 20
246.8603297589087
 30
0.0
 11
-89.33641634062532
 21
60.60311184762617
 31
0.0
  0
LWPOLYLINE
  5
2C6
330
1F
100
AcDbEntity
  8
1-4ﾚｲﾔ
  6
Continuous
 62
     7
370
     9
100
AcDbPolyline
 90
        4
 70
     1
 43
1.0
 10
-318.8362686868031
 20
392.0071254366248
 42
0.4142135623731
 10
-319.3362686868031
 20
392.5071254366248
 42
0.4142135623731
 10
-319.8362686868031
 20
392.0071254366248
 42
0.4142135623731
 10
-319.3362686868031
 20
391.5071254366248
 42
0.4142135623731
  0
LINE
  5
2C7
330
1F
100
AcDbEntity
  8
1-4ﾚｲﾔ
  6
Continuous
 62
     7
370
     9
100
AcDbLine
 10
-319.3362686868031
 20
395.007125436625
 30
0.0
 11
-319.3362686868031
 21
138.2519153234924
 31
0.0
  0
LINE
  5
2C8
330
1F
100
AcDbEntity
  8
1-1ﾚｲﾔ
  6
JWW_CENTER1
 62
     4
370
     9
100
AcDbLine
 10
1030.731012557541
 20
-41.9134913644728
 30
0.0
 11
1101.096630817751
 21
-41.9134913644728
 31
0.0
  0
LINE
  5
2C9
330
1F
100
AcDbEntity
  8
1-1ﾚｲﾔ
  6
JWW_CENTER1
 62
     4
370
     9
100
AcDbLine
 10
1065.91399666295
 20
-77.09647546988117
 30
0.0
 11
1065.91399666295
 21
-6.730857209670607
 31
0.0
  0
LINE
  5
2CA
330
1F
100
AcDbEntity
  8
1-1ﾚｲﾔ
  6
JWW_CENTER1
 62
     4
370
     9
100
AcDbLine
 10
1030.731012557541
 20
-391.896643069121
 30
0.0
 11
1101.096630817751
 21
-391.896643069121
 31
0.0
  0
LINE
  5
2CB
330
1F
100
AcDbEntity
  8
1-1ﾚｲﾔ
  6
JWW_CENTER1
 62
     4
370
     9
100
AcDbLine
 10
1065.91399666295
 20
-427.0792772239231
 30
0.0
 11
1065.91399666295
 21
-356.7136589637126
 31
0.0
  0
CIRCLE
  5
2CC
330
1F
100
AcDbEntity
  8
1-1ﾚｲﾔ
  6
Continuous
 62
     4
370
     9
100
AcDbCircle
 10
1065.91399666295
 20
-41.9134913644728
 30
0.0
 40
21.25000008745083
  0
CIRCLE
  5
2CD
330
1F
100
AcDbEntity
  8
1-1ﾚｲﾔ
  6
Continuous
 62
     4
370
     9
100
AcDbCircle
 10
1065.91399666295
 20
-391.896643069121
 30
0.0
 40
21.25000008745083
  0
LINE
  5
2CE
330
1F
100
AcDbEntity
  8
1-0ﾚｲﾔ
  6
JWW_DASHED1
 62
     4
370
     9
100
AcDbLine
 10
925.6639422261892
 20
48.10220338999164
 30
0.0
 11
1033.163869172527
 21
48.10220338999164
 31
0.0
  0
LINE
  5
2CF
330
1F
100
AcDbEntity
  8
1-0ﾚｲﾔ
  6
JWW_DASHED1
 62
     4
370
     9
100
AcDbLine
 10
1048.163102109077
 20
118.1003735135889
 30
0.0
 11
1048.163102109077
 21
63.10108637593493
 31
0.0
  0
LINE
  5
2D0
330
1F
100
AcDbEntity
  8
1-0ﾚｲﾔ
  6
JWW_DASHED1
 62
     4
370
     9
100
AcDbLine
 10
1125.662813429284
 20
125.5994650559544
 30
0.0
 11
1055.664993256293
 21
125.5994650559544
 31
0.0
  0
LINE
  5
2D1
330
1F
100
AcDbEntity
  8
1-0ﾚｲﾔ
  6
JWW_DASHED1
 62
     4
370
     9
100
AcDbLine
 10
1133.162954823468
 20
118.1003735135889
 30
0.0
 11
1133.162954823468
 21
93.10305175509774
 31
0.0
  0
LINE
  5
2D2
330
1F
100
AcDbEntity
  8
1-0ﾚｲﾔ
  6
JWW_DASHED1
 62
     4
370
     9
100
AcDbLine
 10
1133.162954823468
 20
93.10305175509774
 30
0.0
 11
1140.66519592129
 21
93.10305175509774
 31
0.0
  0
ARC
  5
2D3
330
1F
100
AcDbEntity
  8
1-0ﾚｲﾔ
  6
JWW_DASHED1
 62
     4
370
     9
100
AcDbCircle
 10
1033.163869172527
 20
63.10108637593493
 30
0.0
 40
14.99999845350111
100
AcDbArc
 50
270.0
 51
0.0
  0
ARC
  5
2D4
330
1F
100
AcDbEntity
  8
1-0ﾚｲﾔ
  6
JWW_DASHED1
 62
     4
370
     9
100
AcDbCircle
 10
925.6639422261892
 20
40.60311184762617
 30
0.0
 40
7.499999226750553
100
AcDbArc
 50
90.0
 51
180.0
  0
ARC
  5
2D5
330
1F
100
AcDbEntity
  8
1-0ﾚｲﾔ
  6
JWW_DASHED1
 62
     4
370
     9
100
AcDbCircle
 10
1055.664993256293
 20
118.1003735135889
 30
0.0
 40
7.499999226750553
100
AcDbArc
 50
90.0
 51
180.0
  0
ARC
  5
2D6
330
1F
100
AcDbEntity
  8
1-0ﾚｲﾔ
  6
JWW_DASHED1
 62
     4
370
     9
100
AcDbCircle
 10
1125.662813429284
 20
118.1003735135889
 30
0.0
 40
7.499999226750553
100
AcDbArc
 50
0.0
 51
90.0
  0
LINE
  5
2D7
330
1F
100
AcDbEntity
  8
1-0ﾚｲﾔ
  6
Continuous
 62
     4
370
     9
100
AcDbLine
 10
1040.664010566711
 20
63.10108637593493
 30
0.0
 11
1040.664010566711
 21
118.1003735135889
 31
0.0
  0
LINE
  5
2D8
330
1F
100
AcDbEntity
  8
1-0ﾚｲﾔ
  6
Continuous
 62
     4
370
     9
100
AcDbLine
 10
1125.662813429284
 20
133.1020561043829
 30
0.0
 11
1055.664993256293
 21
133.1020561043829
 31
0.0
  0
ARC
  5
2D9
330
1F
100
AcDbEntity
  8
1-0ﾚｲﾔ
  6
Continuous
 62
     4
370
     9
100
AcDbCircle
 10
1055.664993256293
 20
118.1003735135889
 30
0.0
 40
14.99999845350111
100
AcDbArc
 50
90.0
 51
180.0
  0
ARC
  5
2DA
330
1F
100
AcDbEntity
  8
1-0ﾚｲﾔ
  6
Continuous
 62
     4
370
     9
100
AcDbCircle
 10
1125.662813429284
 20
118.1003735135889
 30
0.0
 40
14.99999845350111
100
AcDbArc
 50
0.0
 51
90.0
  0
LINE
  5
2DB
330
1F
100
AcDbEntity
  8
1-1ﾚｲﾔ
  6
Continuous
 62
     4
370
     9
100
AcDbLine
 10
1140.66519592129
 20
118.1003735135889
 30
0.0
 11
1140.66519592129
 21
-666.8999902818645
 31
0.0
  0
ARC
  5
2DC
330
1F
100
AcDbEntity
  8
1-0ﾚｲﾔ
  6
Continuous
 62
     4
370
     9
100
AcDbCircle
 10
1033.163869172527
 20
63.10108637593493
 30
0.0
 40
7.499999226750553
100
AcDbArc
 50
270.8914127328655
 51
0.0
  0
LINE
  5
2DD
330
1F
100
AcDbEntity
  8
1-1ﾚｲﾔ
  6
Continuous
 62
     4
370
     9
100
AcDbLine
 10
1033.280550107052
 20
55.60199483356945
 30
0.0
 11
925.4810138822486
 21
55.60199483356945
 31
0.0
  0
ARC
  5
2DE
330
1F
100
AcDbEntity
  8
1-0ﾚｲﾔ
  6
Continuous
 62
     4
370
     9
100
AcDbCircle
 10
925.6639422261892
 20
40.60311184762617
 30
0.0
 40
14.99999845350111
100
AcDbArc
 50
90.69875219698719
 51
180.0
  0
LWPOLYLINE
  5
2DF
330
1F
100
AcDbEntity
  8
1-4ﾚｲﾔ
  6
Continuous
 62
     7
370
     9
100
AcDbPolyline
 90
        4
 70
     1
 43
1.0
 10
1041.164994802791
 20
319.2426928428895
 42
0.4142135623731
 10
1040.664994802791
 20
319.7426928428895
 42
0.4142135623731
 10
1040.164994802791
 20
319.2426928428895
 42
0.4142135623731
 10
1040.664994802791
 20
318.7426928428895
 42
0.4142135623731
  0
LINE
  5
2E0
330
1F
100
AcDbEntity
  8
1-4ﾚｲﾔ
  6
Continuous
 62
     7
370
     9
100
AcDbLine
 10
1040.664994802791
 20
322.2426928428896
 30
0.0
 11
1040.664994802791
 21
138.1003735135889
 31
0.0
  0
LWPOLYLINE
  5
2E1
330
1F
100
AcDbEntity
  8
1-4ﾚｲﾔ
  6
Continuous
 62
     7
370
     9
100
AcDbPolyline
 90
        4
 70
     1
 43
1.0
 10
911.1629071640574
 20
243.8603297589088
 42
0.4142135623731
 10
910.6629071640575
 20
244.3603297589088
 42
0.4142135623731
 10
910.1629071640575
 20
243.8603297589088
 42
0.4142135623731
 10
910.6629071640575
 20
243.3603297589088
 42
0.4142135623731
  0
LINE
  5
2E2
330
1F
100
AcDbEntity
  8
1-4ﾚｲﾔ
  6
Continuous
 62
     7
370
     9
100
AcDbLine
 10
910.6629071640575
 20
246.8603297589087
 30
0.0
 11
910.6629071640575
 21
60.60311185124596
 31
0.0
  0
LWPOLYLINE
  5
2E3
330
1F
100
AcDbEntity
  8
1-4ﾚｲﾔ
  6
Continuous
 62
     7
370
     9
100
AcDbPolyline
 90
        4
 70
     1
 43
1.0
 10
1141.16519592129
 20
392.0071254366248
 42
0.4142135623731
 10
1140.66519592129
 20
392.5071254366248
 42
0.4142135623731
 10
1140.16519592129
 20
392.0071254366248
 42
0.4142135623731
 10
1140.66519592129
 20
391.5071254366248
 42
0.4142135623731
  0
LINE
  5
2E4
330
1F
100
AcDbEntity
  8
1-4ﾚｲﾔ
  6
Continuous
 62
     7
370
     9
100
AcDbLine
 10
1140.66519592129
 20
395.007125436625
 30
0.0
 11
1140.66519592129
 21
138.1003735135889
 31
0.0
  0
LINE
  5
2E5
330
1F
100
AcDbEntity
  8
1-1ﾚｲﾔ
  6
Continuous
 62
     4
370
     9
100
AcDbLine
 10
-319.3362686868031
 20
-666.8996403312583
 30
0.0
 11
1140.66519592129
 21
-666.8996403312583
 31
0.0
  0
LINE
  5
2E6
330
1F
100
AcDbEntity
  8
1-1ﾚｲﾔ
  6
JWW_DASHED2
 62
     4
370
     9
100
AcDbLine
 10
-319.3362686868031
 20
-656.8991018550729
 30
0.0
 11
1140.66519592129
 21
-656.8991018550729
 31
0.0
  0
LINE
  5
2E7
330
1F
100
AcDbEntity
  8
1-0ﾚｲﾔ
  6
Continuous
 62
     4
370
     9
100
AcDbLine
 10
-89.33578205515211
 20
-311.7902993707781
 30
0.0
 11
-89.33578205515211
 21
40.60311184762617
 31
0.0
  0
LINE
  5
2E8
330
1F
100
AcDbEntity
  8
1-0ﾚｲﾔ
  6
Continuous
 62
     4
370
     9
100
AcDbLine
 10
-52.27690468692721
 20
-360.0865450326239
 30
0.0
 11
397.7273146283064
 21
-480.6665136651635
 31
0.0
  0
ARC
  5
2E9
330
1F
100
AcDbEntity
  8
1-0ﾚｲﾔ
  6
Continuous
 62
     4
370
     9
100
AcDbCircle
 10
-39.33578205515211
 20
-311.7902993707781
 30
0.0
 40
50.0
100
AcDbArc
 50
180.0
 51
254.999797875421
  0
LINE
  5
2EA
330
1F
100
AcDbEntity
  8
1-0ﾚｲﾔ
  6
Continuous
 62
     4
370
     9
100
AcDbLine
 10
873.60279931534
 20
-360.0882015611885
 30
0.0
 11
423.6047621616378
 21
-480.6665136651635
 31
0.0
  0
LINE
  5
2EB
330
1F
100
AcDbEntity
  8
1-1ﾚｲﾔ
  6
Continuous
 62
     4
370
     9
100
AcDbLine
 10
910.6616766832597
 20
-311.7921304875111
 30
0.0
 11
910.6629071640575
 21
40.60311185124596
 31
0.0
  0
ARC
  5
2EC
330
1F
100
AcDbEntity
  8
1-0ﾚｲﾔ
  6
Continuous
 62
     4
370
     9
100
AcDbCircle
 10
860.6616766835648
 20
-311.7919558993429
 30
0.0
 40
50.0
100
AcDbArc
 50
285.000202124579
 51
359.999799936696
  0
LINE
  5
2ED
330
1F
100
AcDbEntity
  8
1-0ﾚｲﾔ
  6
JWW_DASHED1
 62
     4
370
     9
100
AcDbLine
 10
-96.83627339994224
 20
-311.7916525829212
 30
0.0
 11
-96.83627339994224
 21
40.60311184762617
 31
0.0
  0
LINE
  5
2EE
330
1F
100
AcDbEntity
  8
1-0ﾚｲﾔ
  6
JWW_DASHED1
 62
     4
370
     9
100
AcDbLine
 10
-54.21830048286644
 20
-367.3324058178491
 30
0.0
 11
395.7861386151696
 21
-487.9101412649312
 31
0.0
  0
ARC
  5
2EF
330
1F
100
AcDbEntity
  8
1-0ﾚｲﾔ
  6
JWW_DASHED1
 62
     4
370
     9
100
AcDbCircle
 10
-39.33627339994224
 20
-311.7916525829212
 30
0.0
 40
57.5
100
AcDbArc
 50
180.0
 51
255.0000701595384
  0
LINE
  5
2F0
330
1F
100
AcDbEntity
  8
1-0ﾚｲﾔ
  6
JWW_DASHED1
 62
     4
370
     9
100
AcDbLine
 10
875.5472277173535
 20
-367.3332497345567
 30
0.0
 11
425.5459381747746
 21
-487.9101412649312
 31
0.0
  0
LINE
  5
2F1
330
1F
100
AcDbEntity
  8
1-0ﾚｲﾔ
  6
JWW_DASHED1
 62
     4
370
     9
100
AcDbLine
 10
918.1652006344293
 20
-311.7924964996289
 30
0.0
 11
918.1652006344293
 21
40.60311184762617
 31
0.0
  0
ARC
  5
2F2
330
1F
100
AcDbEntity
  8
1-0ﾚｲﾔ
  6
JWW_DASHED1
 62
     4
370
     9
100
AcDbCircle
 10
860.6652006344293
 20
-311.7924964996289
 30
0.0
 40
57.5
100
AcDbArc
 50
284.9999298404616
 51
0.0000000000000254
  0
LINE
  5
2F3
330
1F
100
AcDbEntity
  8
Hojo
  6
Continuous
 62
     7
370
     9
100
AcDbLine
 10
-77.55534366399594
 20
-344.0279343713138
 30
0.0
 11
-60.62193372643584
 21
-325.6362802573091
 31
0.0
  0
LINE
  5
2F4
330
1F
100
AcDbEntity
  8
Hojo
  6
Continuous
 62
     7
370
     9
100
AcDbLine
 10
-77.55534366399594
 20
-344.0279343713138
 30
0.0
 11
-56.43932407995898
 21
-330.6454732358623
 31
0.0
  0
LINE
  5
2F5
330
1F
100
AcDbEntity
  8
Hojo
  6
Continuous
 62
     7
370
     9
100
AcDbLine
 10
28.49508787105457
 20
-255.4697838920823
 30
0.0
 11
-77.55534366399594
 21
-344.0279343713138
 31
0.0
  0
TEXT
  5
2F6
330
1F
100
AcDbEntity
  8
Hojo
  6
Continuous
 62
     2
370
     9
100
AcDbText
 10
-28.37097081168051
 20
-287.8709698824882
 30
0.0
 40
30.48
  1
R10
 50
39.99985198730437
 41
1.083333333333337
  7
ＭＳ ゴシック
100
AcDbText
  0
LINE
  5
2F7
330
1F
100
AcDbEntity
  8
Hojo
  6
Continuous
 62
     7
370
     9
100
AcDbLine
 10
903.6387528023592
 20
-337.3452517392005
 30
0.0
 11
880.6553967831146
 21
-327.5081401961561
 31
0.0
  0
LINE
  5
2F8
330
1F
100
AcDbEntity
  8
Hojo
  6
Continuous
 62
     7
370
     9
100
AcDbLine
 10
903.6387528023592
 20
-337.3452517392005
 30
0.0
 11
883.9841269502235
 21
-321.8949324711324
 31
0.0
  0
LINE
  5
2F9
330
1F
100
AcDbEntity
  8
Hojo
  6
Continuous
 62
     7
370
     9
100
AcDbLine
 10
791.5859684680813
 20
-270.8805328873965
 30
0.0
 11
903.6387528023592
 21
-337.3452517392005
 31
0.0
  0
TEXT
  5
2FA
330
1F
100
AcDbEntity
  8
Hojo
  6
Continuous
 62
     2
370
     9
100
AcDbText
 10
799.544649123324
 20
-266.8286862463699
 30
0.0
 40
30.48
  1
R10
 50
329.9995142217427
 41
1.083333333333331
  7
ＭＳ ゴシック
100
AcDbText
  0
LINE
  5
2FB
330
1F
100
AcDbEntity
  8
1-4ﾚｲﾔ
  6
Continuous
 62
     7
370
     9
100
AcDbLine
 10
-89.33641634062532
 20
243.8603297589088
 30
0.0
 11
910.6629071640575
 21
243.8603297589088
 31
0.0
  0
TEXT
  5
2FC
330
1F
100
AcDbEntity
  8
1-4ﾚｲﾔ
  6
Continuous
 62
     2
370
   211
100
AcDbText
 10
378.163245411716
 20
255.5003297589087
 30
0.0
 40
30.48
  1
200
 41
1.083333333333333
  7
ＭＳ ゴシック
100
AcDbText
  0
LINE
  5
2FD
330
1F
100
AcDbEntity
  8
1-4ﾚｲﾔ
  6
Continuous
 62
     7
370
     9
100
AcDbLine
 10
-219.3368330852556
 20
319.2426928428895
 30
0.0
 11
1040.664994802791
 21
319.2426928428895
 31
0.0
  0
TEXT
  5
2FE
330
1F
100
AcDbEntity
  8
1-4ﾚｲﾔ
  6
Continuous
 62
     2
370
   211
100
AcDbText
 10
378.1640808587681
 20
330.8826928428897
 30
0.0
 40
30.48
  1
252
 41
1.083333333333333
  7
ＭＳ ゴシック
100
AcDbText
  0
LINE
  5
2FF
330
1F
100
AcDbEntity
  8
1-4ﾚｲﾔ
  6
Continuous
 62
     7
370
     9
100
AcDbLine
 10
-319.3362686868031
 20
392.0071254366248
 30
0.0
 11
1140.66519592129
 21
392.0071254366248
 31
0.0
  0
TEXT
  5
300
330
1F
100
AcDbEntity
  8
1-4ﾚｲﾔ
  6
Continuous
 62
     2
370
   211
100
AcDbText
 10
378.1644636172435
 20
403.6471254366245
 30
0.0
 40
30.48
  1
292
 41
1.083333333333333
  7
ＭＳ ゴシック
100
AcDbText
  0
LINE
  5
301
330
1F
100
AcDbEntity
  8
1-4ﾚｲﾔ
  6
Continuous
 62
     7
370
     9
100
AcDbLine
 10
-473.4395743803234
 20
-489.8694818634546
 30
0.0
 11
253.6687289045673
 21
-489.8694818634546
 31
0.0
  0
LINE
  5
302
330
1F
100
AcDbEntity
  8
1-1ﾚｲﾔ
  6
JWW_CENTER1
 62
     4
370
     9
100
AcDbLine
 10
-19.33660331970636
 20
-527.080856272935
 30
0.0
 11
-19.33660331970636
 21
-456.7155004756792
 31
0.0
  0
LINE
  5
303
330
1F
100
AcDbEntity
  8
1-1ﾚｲﾔ
  6
JWW_CENTER1
 62
     4
370
     9
100
AcDbLine
 10
15.84603083509613
 20
-491.8980471428297
 30
0.0
 11
-54.51923747450827
 21
-491.8980471428297
 31
0.0
  0
CIRCLE
  5
304
330
1F
100
AcDbEntity
  8
1-1ﾚｲﾔ
  6
Continuous
 62
     4
370
     9
100
AcDbCircle
 10
-19.33660331970636
 20
-491.8980471428297
 30
0.0
 40
21.25000008745083
  0
LINE
  5
305
330
1F
100
AcDbEntity
  8
1-1ﾚｲﾔ
  6
JWW_CENTER1
 62
     4
370
     9
100
AcDbLine
 10
840.66868010965
 20
-527.080856272935
 30
0.0
 11
840.66868010965
 21
-456.7155004756792
 31
0.0
  0
LINE
  5
306
330
1F
100
AcDbEntity
  8
1-1ﾚｲﾔ
  6
JWW_CENTER1
 62
     4
370
     9
100
AcDbLine
 10
805.4860459548481
 20
-491.8980471428297
 30
0.0
 11
875.851314264452
 21
-491.8980471428297
 31
0.0
  0
CIRCLE
  5
307
330
1F
100
AcDbEntity
  8
1-1ﾚｲﾔ
  6
Continuous
 62
     4
370
     9
100
AcDbCircle
 10
840.66868010965
 20
-491.8980471428297
 30
0.0
 40
21.25000008745083
  0
TEXT
  5
308
330
1F
100
AcDbEntity
  8
1-4ﾚｲﾔ
  6
Continuous
 62
     2
370
   211
100
AcDbText
 10
-482.0795743803235
 20
-233.3845549481823
 30
0.0
 40
30.48
  1
Ｈ
 50
90.0
 41
0.9999999999999998
  7
ＭＳ ゴシック
100
AcDbText
  0
TEXT
  5
309
330
1F
100
AcDbEntity
  8
1-4ﾚｲﾔ
  6
Continuous
 62
     2
370
   211
100
AcDbText
 10
-589.3523809775685
 20
-299.399634182084
 30
0.0
 40
30.48
  1
ｈ
 50
90.0
 41
0.9999999999999998
  7
ＭＳ ゴシック
100
AcDbText
  0
LINE
  5
30A
330
1F
100
AcDbEntity
  8
D-4
  6
Continuous
 62
     2
370
     9
100
AcDbLine
 10
1491.122248633698
 20
-1030.689580762718
 30
0.0
 11
1491.122248633698
 21
-980.6888541820983
 31
0.0
  0
LINE
  5
30B
330
1F
100
AcDbEntity
  8
D-4
  6
Continuous
 62
     2
370
     9
100
AcDbLine
 10
1491.122248633698
 20
-980.6888541820983
 30
0.0
 11
1716.12156198819
 21
-980.6888541820983
 31
0.0
  0
LINE
  5
30C
330
1F
100
AcDbEntity
  8
D-4
  6
Continuous
 62
     2
370
     9
100
AcDbLine
 10
1716.12156198819
 20
-980.6888541820983
 30
0.0
 11
1716.12156198819
 21
-1030.689580762718
 31
0.0
  0
LINE
  5
30D
330
1F
100
AcDbEntity
  8
D-4
  6
Continuous
 62
     2
370
     9
100
AcDbLine
 10
1716.12156198819
 20
-1030.689580762718
 30
0.0
 11
1491.122248633698
 21
-1030.689580762718
 31
0.0
  0
TEXT
  5
30E
330
1F
100
AcDbEntity
  8
D-4
  6
Continuous
 62
     7
370
     9
100
AcDbText
 10
1538.621867163971
 20
-1020.049309561584
 30
0.0
 40
30.48
  1
仕　様
 41
1.083333333333333
  7
ＭＳ ゴシック
100
AcDbText
  0
TEXT
  5
30F
330
1F
100
AcDbEntity
  8
D-4
  6
Continuous
 62
     7
370
     9
100
AcDbText
 10
1593.211634620026
 20
-1137.969887087677
 30
0.0
 40
30.48
  1
①トラフパン本体
 41
1.109375
  7
ＭＳ ゴシック
100
AcDbText
  0
TEXT
  5
310
330
1F
100
AcDbEntity
  8
D-4
  6
Continuous
 62
     7
370
     9
100
AcDbText
 10
1593.211634620026
 20
-1192.969887087677
 30
0.0
 40
30.48
  1
　材質：ステンレス鋼板　ｔ＝１．５（ＳＵＳ３０４）
 41
1.12
  7
ＭＳ ゴシック
100
AcDbText
  0
TEXT
  5
311
330
1F
100
AcDbEntity
  8
D-4
  6
Continuous
 62
     7
370
     9
100
AcDbText
 10
1593.211634620026
 20
-1302.969887087677
 30
0.0
 40
30.48
  1
　材質：ステンレス鋼板　ｔ＝２．０（ＳＵＳ３０４）
 41
1.119999999999999
  7
ＭＳ ゴシック
100
AcDbText
  0
TEXT
  5
312
330
1F
100
AcDbEntity
  8
D-4
  6
Continuous
 62
     7
370
     9
100
AcDbText
 10
1593.211634620026
 20
-1357.969887087677
 30
0.0
 40
30.48
  1
③ソケット８０Ａ
 41
1.109375
  7
ＭＳ ゴシック
100
AcDbText
  0
TEXT
  5
313
330
1F
100
AcDbEntity
  8
D-4
  6
Continuous
 62
     7
370
     9
100
AcDbText
 10
1593.211634620026
 20
-1412.969887087677
 30
0.0
 40
30.48
  1
　材質：ＳＵＳ３０４（内ねじソケット８０Ａ用）
 41
1.119565217391304
  7
ＭＳ ゴシック
100
AcDbText
  0
TEXT
  5
314
330
1F
100
AcDbEntity
  8
D-4
  6
Continuous
 62
     7
370
     9
100
AcDbText
 10
1593.211634620026
 20
-1247.969887087677
 30
0.0
 40
30.48
  1
②ジョイントプレート
 41
1.1125
  7
ＭＳ ゴシック
100
AcDbText
  0
TEXT
  5
315
330
1F
100
AcDbEntity
  8
D-4
  6
Continuous
 62
     7
370
     9
100
AcDbText
 10
1593.211634620026
 20
-1082.969882319305
 30
0.0
 40
30.48
  1
サニタリートラフ　ＳＴＶ－２００　縦引き排水口
 41
1.119565217391304
  7
ＭＳ ゴシック
100
AcDbText
  0
ENDSEC
  0
SECTION
  2
OBJECTS
  0
DICTIONARY
  5
C
330
0
100
AcDbDictionary
281
     1
  3
ACAD_GROUP
350
D
  3
ACAD_LAYOUT
350
1A
  3
ACAD_MLEADERSTYLE
350
317
  3
ACAD_MLINESTYLE
350
17
  3
ACAD_PLOTSETTINGS
350
19
  3
ACAD_PLOTSTYLENAME
350
E
  3
ACAD_TABLESTYLE
350
316
  3
ACAD_VISUALSTYLE
350
2A
  3
AcDbVariableDictionary
350
318
  0
DICTIONARY
  5
D
102
{ACAD_REACTORS
330
C
102
}
330
C
100
AcDbDictionary
281
     1
  0
DICTIONARY
  5
1A
102
{ACAD_REACTORS
330
C
102
}
330
C
100
AcDbDictionary
281
     1
  3
Layout1
350
1E
  3
Layout2
350
26
  3
Model
350
22
  0
DICTIONARY
  5
317
102
{ACAD_REACTORS
330
C
102
}
330
C
100
AcDbDictionary
281
     1
  0
DICTIONARY
  5
17
102
{ACAD_REACTORS
330
C
102
}
330
C
100
AcDbDictionary
281
     1
  3
Standard
350
18
  0
DICTIONARY
  5
19
102
{ACAD_REACTORS
330
C
102
}
330
C
100
AcDbDictionary
281
     1
  0
ACDBDICTIONARYWDFLT
  5
E
102
{ACAD_REACTORS
330
C
102
}
330
C
100
AcDbDictionary
281
     1
  3
Normal
350
F
100
AcDbDictionaryWithDefault
340
F
  0
DICTIONARY
  5
316
102
{ACAD_REACTORS
330
C
102
}
330
C
100
AcDbDictionary
281
     1
  0
DICTIONARY
  5
2A
102
{ACAD_REACTORS
330
C
102
}
330
C
100
AcDbDictionary
281
     1
  3
2dWireframe
350
2F
  3
3D Hidden
350
31
  3
3dWireframe
350
30
  3
Basic
350
32
  3
Brighten
350
36
  3
ColorChange
350
3A
  3
Conceptual
350
34
  3
Dim
350
35
  3
Facepattern
350
39
  3
Flat
350
2B
  3
FlatWithEdges
350
2C
  3
Gouraud
350
2D
  3
GouraudWithEdges
350
2E
  3
Linepattern
350
38
  3
Realistic
350
33
  3
Thicken
350
37
  0
DICTIONARY
  5
318
102
{ACAD_REACTORS
330
C
102
}
330
C
100
AcDbDictionary
281
     1
  3
PSOLHEIGHT
350
31A
  3
PSOLWIDTH
350
319
  0
LAYOUT
  5
1E
102
{ACAD_REACTORS
330
1A
102
}
102
{ACAD_XDICTIONARY
360
31B
102
}
330
1A
100
AcDbPlotSettings
  1

  2
none_device
  4

  6

 40
0.0
 41
0.0
 42
0.0
 43
0.0
 44
0.0
 45
0.0
 46
0.0
 47
0.0
 48
0.0
 49
0.0
140
0.0
141
0.0
142
1.0
143
1.0
 70
   688
 72
     0
 73
     0
 74
     5
  7

 75
    16
147
1.0
148
0.0
149
0.0
100
AcDbLayout
  1
Layout1
 70
     1
 71
     1
 10
0.0
 20
0.0
 11
420.0
 21
297.0
 12
0.0
 22
0.0
 32
0.0
 14
1.000000000000000E+20
 24
1.000000000000000E+20
 34
1.000000000000000E+20
 15
-1.000000000000000E+20
 25
-1.000000000000000E+20
 35
-1.000000000000000E+20
146
0.0
 13
0.0
 23
0.0
 33
0.0
 16
1.0
 26
0.0
 36
0.0
 17
0.0
 27
1.0
 37
0.0
 76
     0
330
1B
  0
LAYOUT
  5
26
102
{ACAD_REACTORS
330
1A
102
}
102
{ACAD_XDICTIONARY
360
31F
102
}
330
1A
100
AcDbPlotSettings
  1

  2
none_device
  4

  6

 40
0.0
 41
0.0
 42
0.0
 43
0.0
 44
0.0
 45
0.0
 46
0.0
 47
0.0
 48
0.0
 49
0.0
140
0.0
141
0.0
142
1.0
143
1.0
 70
   688
 72
     0
 73
     0
 74
     5
  7

 75
    16
147
1.0
148
0.0
149
0.0
100
AcDbLayout
  1
Layout2
 70
     1
 71
     2
 10
0.0
 20
0.0
 11
0.0
 21
0.0
 12
0.0
 22
0.0
 32
0.0
 14
0.0
 24
0.0
 34
0.0
 15
0.0
 25
0.0
 35
0.0
146
0.0
 13
0.0
 23
0.0
 33
0.0
 16
1.0
 26
0.0
 36
0.0
 17
0.0
 27
1.0
 37
0.0
 76
     0
330
23
  0
LAYOUT
  5
22
102
{ACAD_REACTORS
330
1A
102
}
102
{ACAD_XDICTIONARY
360
31D
102
}
330
1A
100
AcDbPlotSettings
  1

  2
none_device
  4

  6

 40
0.0
 41
0.0
 42
0.0
 43
0.0
 44
0.0
 45
0.0
 46
0.0
 47
0.0
 48
0.0
 49
0.0
140
0.0
141
0.0
142
1.0
143
1.0
 70
  1712
 72
     0
 73
     0
 74
     0
  7

 75
     0
147
1.0
148
0.0
149
0.0
100
AcDbLayout
  1
Model
 70
     1
 71
     0
 10
-2970.0
 20
-2100.0
 11
2970.0
 21
2100.0
 12
0.0
 22
0.0
 32
0.0
 14
-2970.0
 24
-2100.0
 34
0.0
 15
2970.0
 25
2100.0
 35
0.0
146
0.0
 13
0.0
 23
0.0
 33
0.0
 16
1.0
 26
0.0
 36
0.0
 17
0.0
 27
1.0
 37
0.0
 76
     0
330
1F
331
29
  0
MLINESTYLE
  5
18
102
{ACAD_REACTORS
330
17
102
}
330
17
100
AcDbMlineStyle
  2
Standard
 70
     0
  3

 62
   256
 51
90.0
 52
90.0
 71
     2
 49
0.5
 62
   256
  6
BYLAYER
 49
-0.5
 62
   256
  6
BYLAYER
  0
ACDBPLACEHOLDER
  5
F
102
{ACAD_REACTORS
330
E
102
}
330
E
  0
VISUALSTYLE
  5
2F
102
{ACAD_REACTORS
330
2A
102
}
330
2A
100
AcDbVisualStyle
  2
2dWireframe
 70
     4
 71
     0
 72
     2
 73
     0
 90
        0
 40
-0.6
 41
-30.0
 62
     5
 63
     7
 74
     1
 91
        4
 64
     7
 65
   257
 75
     1
175
     1
 42
1.0
 92
        0
 66
   257
 43
1.0
 76
     1
 77
     6
 78
     2
 67
     7
 79
     5
170
     0
171
     0
290
     0
174
     0
 93
        1
 44
0.0
173
     0
291
     0
 45
0.0
1001
ACAD
1000
AcDbSavedByObjectVersion
1070
     0
  0
VISUALSTYLE
  5
31
102
{ACAD_REACTORS
330
2A
102
}
330
2A
100
AcDbVisualStyle
  2
3D Hidden
 70
     6
 71
     1
 72
     2
 73
     2
 90
        0
 40
-0.6
 41
-30.0
 62
     5
 63
     7
 74
     2
 91
        2
 64
     7
 65
   257
 75
     2
175
     1
 42
40.0
 92
        0
 66
   257
 43
1.0
 76
     1
 77
     6
 78
     2
 67
     7
 79
     3
170
     0
171
     0
290
     0
174
     0
 93
        1
 44
0.0
173
     0
291
     0
 45
0.0
1001
ACAD
1000
AcDbSavedByObjectVersion
1070
     0
  0
VISUALSTYLE
  5
30
102
{ACAD_REACTORS
330
2A
102
}
330
2A
100
AcDbVisualStyle
  2
3dWireframe
 70
     5
 71
     0
 72
     2
 73
     0
 90
        0
 40
-0.6
 41
-30.0
 62
     5
 63
     7
 74
     1
 91
        4
 64
     7
 65
   257
 75
     1
175
     1
 42
1.0
 92
        0
 66
   257
 43
1.0
 76
     1
 77
     6
 78
     2
 67
     7
 79
     5
170
     0
171
     0
290
     0
174
     0
 93
        1
 44
0.0
173
     0
291
     0
 45
0.0
1001
ACAD
1000
AcDbSavedByObjectVersion
1070
     0
  0
VISUALSTYLE
  5
32
102
{ACAD_REACTORS
330
2A
102
}
330
2A
100
AcDbVisualStyle
  2
Basic
 70
     7
 71
     1
 72
     0
 73
     1
 90
        0
 40
-0.6
 41
-30.0
 62
     5
 63
     7
 74
     0
 91
        4
 64
     7
 65
   257
 75
     1
175
     1
 42
1.0
 92
        8
 66
     7
 43
1.0
 76
     1
 77
     6
 78
     2
 67
     7
 79
     5
170
     0
171
     0
290
     0
174
     0
 93
        1
 44
0.0
173
     0
291
     1
 45
0.0
1001
ACAD
1000
AcDbSavedByObjectVersion
1070
     0
  0
VISUALSTYLE
  5
36
102
{ACAD_REACTORS
330
2A
102
}
330
2A
100
AcDbVisualStyle
  2
Brighten
 70
    12
 71
     2
 72
     2
 73
     0
 90
        0
 40
-0.6
 41
-30.0
 62
     5
 63
     7
 74
     1
 91
        4
 64
     7
 65
   257
 75
     1
175
     1
 42
1.0
 92
        8
 66
     7
 43
1.0
 76
     1
 77
     6
 78
     2
 67
     7
 79
     5
170
     0
171
     0
290
     0
174
     0
 93
        1
 44
50.0
173
     0
291
     1
 45
0.0
1001
ACAD
1000
AcDbSavedByObjectVersion
1070
     0
  0
VISUALSTYLE
  5
3A
102
{ACAD_REACTORS
330
2A
102
}
330
2A
100
AcDbVisualStyle
  2
ColorChange
 70
    16
 71
     2
 72
     2
 73
     3
 90
        0
 40
-0.6
 41
-30.0
 62
     5
 63
     8
 74
     1
 91
        4
 64
     7
 65
   257
 75
     1
175
     1
 42
1.0
 92
        8
 66
     8
 43
1.0
 76
     1
 77
     6
 78
     2
 67
     7
 79
     5
170
     0
171
     0
290
     0
174
     0
 93
        1
 44
0.0
173
     0
291
     1
 45
0.0
1001
ACAD
1000
AcDbSavedByObjectVersion
1070
     0
  0
VISUALSTYLE
  5
34
102
{ACAD_REACTORS
330
2A
102
}
330
2A
100
AcDbVisualStyle
  2
Conceptual
 70
     9
 71
     3
 72
     2
 73
     0
 90
        0
 40
-0.6
 41
-30.0
 62
     5
 63
     7
 74
     2
 91
        2
 64
     7
 65
   257
 75
     1
175
     1
 42
40.0
 92
        8
 66
     7
 43
1.0
 76
     1
 77
     6
 78
     2
 67
     7
 79
     3
170
     0
171
     0
290
     0
174
     0
 93
        1
 44
0.0
173
     0
291
     0
 45
0.0
1001
ACAD
1000
AcDbSavedByObjectVersion
1070
     0
  0
VISUALSTYLE
  5
35
102
{ACAD_REACTORS
330
2A
102
}
330
2A
100
AcDbVisualStyle
  2
Dim
 70
    11
 71
     2
 72
     2
 73
     0
 90
        0
 40
-0.6
 41
-30.0
 62
     5
 63
     7
 74
     1
 91
        4
 64
     7
 65
   257
 75
     1
175
     1
 42
1.0
 92
        8
 66
     7
 43
1.0
 76
     1
 77
     6
 78
     2
 67
     7
 79
     5
170
     0
171
     0
290
     0
174
     0
 93
        1
 44
-50.0
173
     0
291
     1
 45
0.0
1001
ACAD
1000
AcDbSavedByObjectVersion
1070
     0
  0
VISUALSTYLE
  5
39
102
{ACAD_REACTORS
330
2A
102
}
330
2A
100
AcDbVisualStyle
  2
Facepattern
 70
    15
 71
     2
 72
     2
 73
     0
 90
        0
 40
-0.6
 41
-30.0
 62
     5
 63
     7
 74
     1
 91
        4
 64
     7
 65
   257
 75
     1
175
     1
 42
1.0
 92
        8
 66
     7
 43
1.0
 76
     1
 77
     6
 78
     2
 67
     7
 79
     5
170
     0
171
     0
290
     0
174
     0
 93
        1
 44
0.0
173
     0
291
     1
 45
0.0
1001
ACAD
1000
AcDbSavedByObjectVersion
1070
     0
  0
VISUALSTYLE
  5
2B
102
{ACAD_REACTORS
330
2A
102
}
330
2A
100
AcDbVisualStyle
  2
Flat
 70
     0
 71
     2
 72
     1
 73
     1
 90
        2
 40
-0.6
 41
30.0
 62
     5
 63
     7
 74
     0
 91
        4
 64
     7
 65
   257
 75
     1
175
     1
 42
1.0
 92
        8
 66
     7
 43
1.0
 76
     1
 77
     6
 78
     2
 67
     7
 79
     5
170
     0
171
     0
290
     0
174
     0
 93
       13
 44
0.0
173
     0
291
     1
 45
0.0
1001
ACAD
1000
AcDbSavedByObjectVersion
1070
     0
  0
VISUALSTYLE
  5
2C
102
{ACAD_REACTORS
330
2A
102
}
330
2A
100
AcDbVisualStyle
  2
FlatWithEdges
 70
     1
 71
     2
 72
     1
 73
     1
 90
        2
 40
-0.6
 41
30.0
 62
     5
 63
     7
 74
     1
 91
        4
 64
     7
 65
   257
 75
     1
175
     1
 42
1.0
 92
        0
 66
   257
 43
1.0
 76
     1
 77
     6
 78
     2
 67
     7
 79
     5
170
     0
171
     0
290
     0
174
     0
 93
       13
 44
0.0
173
     0
291
     1
 45
0.0
1001
ACAD
1000
AcDbSavedByObjectVersion
1070
     0
  0
VISUALSTYLE
  5
2D
102
{ACAD_REACTORS
330
2A
102
}
330
2A
100
AcDbVisualStyle
  2
Gouraud
 70
     2
 71
     2
 72
     2
 73
     1
 90
        2
 40
-0.6
 41
30.0
 62
     5
 63
     7
 74
     0
 91
        4
 64
     7
 65
   257
 75
     1
175
     1
 42
1.0
 92
        0
 66
     7
 43
1.0
 76
     1
 77
     6
 78
     2
 67
     7
 79
     5
170
     0
171
     0
290
     0
174
     0
 93
       13
 44
0.0
173
     0
291
     1
 45
0.0
1001
ACAD
1000
AcDbSavedByObjectVersion
1070
     0
  0
VISUALSTYLE
  5
2E
102
{ACAD_REACTORS
330
2A
102
}
330
2A
100
AcDbVisualStyle
  2
GouraudWithEdges
 70
     3
 71
     2
 72
     2
 73
     1
 90
        2
 40
-0.6
 41
30.0
 62
     5
 63
     7
 74
     1
 91
        4
 64
     7
 65
   257
 75
     1
175
     1
 42
1.0
 92
        0
 66
   257
 43
1.0
 76
     1
 77
     6
 78
     2
 67
     7
 79
     5
170
     0
171
     0
290
     0
174
     0
 93
       13
 44
0.0
173
     0
291
     1
 45
0.0
1001
ACAD
1000
AcDbSavedByObjectVersion
1070
     0
  0
VISUALSTYLE
  5
38
102
{ACAD_REACTORS
330
2A
102
}
330
2A
100
AcDbVisualStyle
  2
Linepattern
 70
    14
 71
     2
 72
     2
 73
     0
 90
        0
 40
-0.6
 41
-30.0
 62
     5
 63
     7
 74
     1
 91
        4
 64
     7
 65
   257
 75
     7
175
     7
 42
1.0
 92
        8
 66
     7
 43
1.0
 76
     1
 77
     6
 78
     2
 67
     7
 79
     5
170
     0
171
     0
290
     0
174
     0
 93
        1
 44
0.0
173
     0
291
     1
 45
0.0
1001
ACAD
1000
AcDbSavedByObjectVersion
1070
     0
  0
VISUALSTYLE
  5
33
102
{ACAD_REACTORS
330
2A
102
}
330
2A
100
AcDbVisualStyle
  2
Realistic
 70
     8
 71
     2
 72
     2
 73
     0
 90
        0
 40
-0.6
 41
-30.0
 62
     5
 63
     7
 74
     1
 91
        0
 64
     7
 65
   257
 75
     1
175
     1
 42
1.0
 92
        8
 66
     8
 43
1.0
 76
     1
 77
     6
 78
     2
 67
     7
 79
     5
170
     0
171
     0
290
     0
174
     0
 93
       13
 44
0.0
173
     0
291
     0
 45
0.0
1001
ACAD
1000
AcDbSavedByObjectVersion
1070
     0
  0
VISUALSTYLE
  5
37
102
{ACAD_REACTORS
330
2A
102
}
330
2A
100
AcDbVisualStyle
  2
Thicken
 70
    13
 71
     2
 72
     2
 73
     0
 90
        0
 40
-0.6
 41
-30.0
 62
     5
 63
     7
 74
     1
 91
        4
 64
     7
 65
   257
 75
     1
175
     1
 42
1.0
 92
       12
 66
     7
 43
1.0
 76
     1
 77
     6
 78
     2
 67
     7
 79
     5
170
     0
171
     0
290
     0
174
     0
 93
        1
 44
0.0
173
     0
291
     1
 45
0.0
1001
ACAD
1000
AcDbSavedByObjectVersion
1070
     0
  0
DICTIONARYVAR
  5
31A
102
{ACAD_REACTORS
330
318
102
}
330
318
100
DictionaryVariables
280
     0
  1
80.000000
  0
DICTIONARYVAR
  5
319
102
{ACAD_REACTORS
330
318
102
}
330
318
100
DictionaryVariables
280
     0
  1
5.000000
  0
DICTIONARY
  5
31B
330
1E
100
AcDbDictionary
280
     1
281
     1
  3
ACAD_XREC_ROUNDTRIP
360
31C
  0
DICTIONARY
  5
31F
330
26
100
AcDbDictionary
280
     1
281
     1
  3
ACAD_XREC_ROUNDTRIP
360
320
  0
DICTIONARY
  5
31D
330
22
100
AcDbDictionary
280
     1
281
     1
  3
ACAD_XREC_ROUNDTRIP
360
31E
  0
XRECORD
  5
31C
102
{ACAD_REACTORS
330
31B
102
}
330
31B
100
AcDbXrecord
280
     1
102
SHADEPLOT
 70
     0
102
SHADEPLOTRESLEVEL
 70
     5
102
SHADEPLOTCUSTOMDPI
 70
   300
  0
XRECORD
  5
320
102
{ACAD_REACTORS
330
31F
102
}
330
31F
100
AcDbXrecord
280
     1
102
SHADEPLOT
 70
     0
102
SHADEPLOTRESLEVEL
 70
     5
102
SHADEPLOTCUSTOMDPI
 70
   300
  0
XRECORD
  5
31E
102
{ACAD_REACTORS
330
31D
102
}
330
31D
100
AcDbXrecord
280
     1
102
SHADEPLOT
 70
     0
102
SHADEPLOTRESLEVEL
 70
     5
102
SHADEPLOTCUSTOMDPI
 70
   300
  0
ENDSEC
  0
EOF
