  0
SECTION
  2
HEADER
  9
$ACADVER
  1
AC1015
  9
$ACADMAINTVER
 70
     6
  9
$DWGCODEPAGE
  3
ANSI_932
  9
$INSBASE
 10
0.0
 20
0.0
 30
0.0
  9
$EXTMIN
 10
-2100.0
 20
-1485.0
 30
0.0
  9
$EXTMAX
 10
2100.0
 20
1485.0
 30
0.0
  9
$LIMMIN
 10
-2100.0
 20
-1485.0
  9
$LIMMAX
 10
2100.0
 20
1485.0
  9
$ORTHOMODE
 70
     0
  9
$REGENMODE
 70
     1
  9
$FILLMODE
 70
     1
  9
$QTEXTMODE
 70
     0
  9
$MIRRTEXT
 70
     1
  9
$LTSCALE
 40
10.0
  9
$ATTMODE
 70
     1
  9
$TEXTSIZE
 40
2.5
  9
$TRACEWID
 40
1.0
  9
$TEXTSTYLE
  7
Standard
  9
$CLAYER
  8
0
  9
$CELTYPE
  6
ByLayer
  9
$CECOLOR
 62
   256
  9
$CELTSCALE
 40
1.0
  9
$DISPSILH
 70
     0
  9
$DIMSCALE
 40
1.0
  9
$DIMASZ
 40
2.5
  9
$DIMEXO
 40
0.625
  9
$DIMDLI
 40
3.75
  9
$DIMRND
 40
0.0
  9
$DIMDLE
 40
0.0
  9
$DIMEXE
 40
1.25
  9
$DIMTP
 40
0.0
  9
$DIMTM
 40
0.0
  9
$DIMTXT
 40
2.5
  9
$DIMCEN
 40
2.5
  9
$DIMTSZ
 40
0.0
  9
$DIMTOL
 70
     0
  9
$DIMLIM
 70
     0
  9
$DIMTIH
 70
     0
  9
$DIMTOH
 70
     0
  9
$DIMSE1
 70
     0
  9
$DIMSE2
 70
     0
  9
$DIMTAD
 70
     1
  9
$DIMZIN
 70
     8
  9
$DIMBLK
  1

  9
$DIMASO
 70
     1
  9
$DIMSHO
 70
     1
  9
$DIMPOST
  1

  9
$DIMAPOST
  1

  9
$DIMALT
 70
     0
  9
$DIMALTD
 70
     3
  9
$DIMALTF
 40
0.03937007874016
  9
$DIMLFAC
 40
1.0
  9
$DIMTOFL
 70
     1
  9
$DIMTVP
 40
0.0
  9
$DIMTIX
 70
     0
  9
$DIMSOXD
 70
     0
  9
$DIMSAH
 70
     0
  9
$DIMBLK1
  1

  9
$DIMBLK2
  1

  9
$DIMSTYLE
  2
ISO-25
  9
$DIMCLRD
 70
     0
  9
$DIMCLRE
 70
     0
  9
$DIMCLRT
 70
     0
  9
$DIMTFAC
 40
1.0
  9
$DIMGAP
 40
0.625
  9
$DIMJUST
 70
     0
  9
$DIMSD1
 70
     0
  9
$DIMSD2
 70
     0
  9
$DIMTOLJ
 70
     0
  9
$DIMTZIN
 70
     8
  9
$DIMALTZ
 70
     0
  9
$DIMALTTZ
 70
     0
  9
$DIMUPT
 70
     0
  9
$DIMDEC
 70
     2
  9
$DIMTDEC
 70
     2
  9
$DIMALTU
 70
     2
  9
$DIMALTTD
 70
     3
  9
$DIMTXSTY
  7
Standard
  9
$DIMAUNIT
 70
     0
  9
$DIMADEC
 70
     0
  9
$DIMALTRND
 40
0.0
  9
$DIMAZIN
 70
     0
  9
$DIMDSEP
 70
    44
  9
$DIMATFIT
 70
     3
  9
$DIMFRAC
 70
     0
  9
$DIMLDRBLK
  1

  9
$DIMLUNIT
 70
     2
  9
$DIMLWD
 70
    -2
  9
$DIMLWE
 70
    -2
  9
$DIMTMOVE
 70
     0
  9
$LUNITS
 70
     2
  9
$LUPREC
 70
     4
  9
$SKETCHINC
 40
1.0
  9
$FILLETRAD
 40
10.0
  9
$AUNITS
 70
     0
  9
$AUPREC
 70
     0
  9
$MENU
  1
.
  9
$ELEVATION
 40
0.0
  9
$PELEVATION
 40
0.0
  9
$THICKNESS
 40
0.0
  9
$LIMCHECK
 70
     0
  9
$CHAMFERA
 40
10.0
  9
$CHAMFERB
 40
10.0
  9
$CHAMFERC
 40
20.0
  9
$CHAMFERD
 40
0.0
  9
$SKPOLY
 70
     0
  9
$TDCREATE
 40
2456898.613665394
  9
$TDUCREATE
 40
2456898.238665394
  9
$TDUPDATE
 40
2456898.613665405
  9
$TDUUPDATE
 40
2456898.238665405
  9
$TDINDWG
 40
0.0000000116
  9
$TDUSRTIMER
 40
0.0000000116
  9
$USRTIMER
 70
     1
  9
$ANGBASE
 50
0.0
  9
$ANGDIR
 70
     0
  9
$PDMODE
 70
     0
  9
$PDSIZE
 40
0.0
  9
$PLINEWID
 40
0.0
  9
$SPLFRAME
 70
     0
  9
$SPLINETYPE
 70
     6
  9
$SPLINESEGS
 70
     8
  9
$HANDSEED
  5
2C6
  9
$SURFTAB1
 70
     6
  9
$SURFTAB2
 70
     6
  9
$SURFTYPE
 70
     6
  9
$SURFU
 70
     6
  9
$SURFV
 70
     6
  9
$UCSBASE
  2

  9
$UCSNAME
  2

  9
$UCSORG
 10
0.0
 20
0.0
 30
0.0
  9
$UCSXDIR
 10
1.0
 20
0.0
 30
0.0
  9
$UCSYDIR
 10
0.0
 20
1.0
 30
0.0
  9
$UCSORTHOREF
  2

  9
$UCSORTHOVIEW
 70
     0
  9
$UCSORGTOP
 10
0.0
 20
0.0
 30
0.0
  9
$UCSORGBOTTOM
 10
0.0
 20
0.0
 30
0.0
  9
$UCSORGLEFT
 10
0.0
 20
0.0
 30
0.0
  9
$UCSORGRIGHT
 10
0.0
 20
0.0
 30
0.0
  9
$UCSORGFRONT
 10
0.0
 20
0.0
 30
0.0
  9
$UCSORGBACK
 10
0.0
 20
0.0
 30
0.0
  9
$PUCSBASE
  2

  9
$PUCSNAME
  2

  9
$PUCSORG
 10
0.0
 20
0.0
 30
0.0
  9
$PUCSXDIR
 10
1.0
 20
0.0
 30
0.0
  9
$PUCSYDIR
 10
0.0
 20
1.0
 30
0.0
  9
$PUCSORTHOREF
  2

  9
$PUCSORTHOVIEW
 70
     0
  9
$PUCSORGTOP
 10
0.0
 20
0.0
 30
0.0
  9
$PUCSORGBOTTOM
 10
0.0
 20
0.0
 30
0.0
  9
$PUCSORGLEFT
 10
0.0
 20
0.0
 30
0.0
  9
$PUCSORGRIGHT
 10
0.0
 20
0.0
 30
0.0
  9
$PUCSORGFRONT
 10
0.0
 20
0.0
 30
0.0
  9
$PUCSORGBACK
 10
0.0
 20
0.0
 30
0.0
  9
$USERI1
 70
     0
  9
$USERI2
 70
     0
  9
$USERI3
 70
     0
  9
$USERI4
 70
     0
  9
$USERI5
 70
     0
  9
$USERR1
 40
0.0
  9
$USERR2
 40
0.0
  9
$USERR3
 40
0.0
  9
$USERR4
 40
0.0
  9
$USERR5
 40
0.0
  9
$WORLDVIEW
 70
     1
  9
$SHADEDGE
 70
     3
  9
$SHADEDIF
 70
    70
  9
$TILEMODE
 70
     1
  9
$MAXACTVP
 70
    64
  9
$PINSBASE
 10
0.0
 20
0.0
 30
0.0
  9
$PLIMCHECK
 70
     0
  9
$PEXTMIN
 10
1.000000000000000E+20
 20
1.000000000000000E+20
 30
1.000000000000000E+20
  9
$PEXTMAX
 10
-1.000000000000000E+20
 20
-1.000000000000000E+20
 30
-1.000000000000000E+20
  9
$PLIMMIN
 10
0.0
 20
0.0
  9
$PLIMMAX
 10
420.0
 20
297.0
  9
$UNITMODE
 70
     0
  9
$VISRETAIN
 70
     1
  9
$PLINEGEN
 70
     0
  9
$PSLTSCALE
 70
     1
  9
$TREEDEPTH
 70
  3020
  9
$CMLSTYLE
  2
Standard
  9
$CMLJUST
 70
     0
  9
$CMLSCALE
 40
20.0
  9
$PROXYGRAPHICS
 70
     1
  9
$MEASUREMENT
 70
     1
  9
$CELWEIGHT
370
    -1
  9
$ENDCAPS
280
     0
  9
$JOINSTYLE
280
     0
  9
$LWDISPLAY
290
     0
  9
$INSUNITS
 70
     4
  9
$HYPERLINKBASE
  1

  9
$STYLESHEET
  1

  9
$XEDIT
290
     1
  9
$CEPSNTYPE
380
     0
  9
$PSTYLEMODE
290
     1
  9
$FINGERPRINTGUID
  2
{6A6169D9-6A84-4916-86AF-A05907D85BF5}
  9
$VERSIONGUID
  2
{FAEB1C32-E019-11D5-929B-00C0DF256EC4}
  9
$EXTNAMES
290
     1
  9
$PSVPSCALE
 40
0.0
  9
$OLESTARTUP
290
     0
  0
ENDSEC
  0
SECTION
  2
CLASSES
  0
CLASS
  1
ACDBDICTIONARYWDFLT
  2
AcDbDictionaryWithDefault
  3
ObjectDBX Classes
 90
        0
280
     0
281
     0
  0
CLASS
  1
VISUALSTYLE
  2
AcDbVisualStyle
  3
ObjectDBX Classes
 90
     4095
280
     0
281
     0
  0
CLASS
  1
DICTIONARYVAR
  2
AcDbDictionaryVar
  3
ObjectDBX Classes
 90
        0
280
     0
281
     0
  0
CLASS
  1
ACDBPLACEHOLDER
  2
AcDbPlaceHolder
  3
ObjectDBX Classes
 90
        0
280
     0
281
     0
  0
CLASS
  1
LAYOUT
  2
AcDbLayout
  3
ObjectDBX Classes
 90
        0
280
     0
281
     0
  0
ENDSEC
  0
SECTION
  2
TABLES
  0
TABLE
  2
VPORT
  5
8
330
0
100
AcDbSymbolTable
 70
     1
  0
VPORT
  5
29
330
8
100
AcDbSymbolTableRecord
100
AcDbViewportTableRecord
  2
*Active
 70
     0
 10
0.0
 20
0.0
 11
1.0
 21
1.0
 12
0.0
 22
0.0
 13
0.0
 23
0.0
 14
10.0
 24
10.0
 15
10.0
 25
10.0
 16
0.0
 26
0.0
 36
1.0
 17
0.0
 27
0.0
 37
0.0
 40
3267.0
 41
1.414141414141414
 42
50.0
 43
0.0
 44
0.0
 50
0.0
 51
0.0
 71
     0
 72
 10000
 73
     1
 74
     3
 75
     0
 76
     0
 77
     0
 78
     0
281
     0
 65
     1
110
0.0
120
0.0
130
0.0
111
1.0
121
0.0
131
0.0
112
0.0
122
1.0
132
0.0
 79
     0
146
0.0
  0
ENDTAB
  0
TABLE
  2
LTYPE
  5
5
330
0
100
AcDbSymbolTable
 70
     5
  0
LTYPE
  5
14
330
5
100
AcDbSymbolTableRecord
100
AcDbLinetypeTableRecord
  2
ByBlock
 70
     0
  3

 72
    65
 73
     0
 40
0.0
  0
LTYPE
  5
15
330
5
100
AcDbSymbolTableRecord
100
AcDbLinetypeTableRecord
  2
ByLayer
 70
     0
  3

 72
    65
 73
     0
 40
0.0
  0
LTYPE
  5
16
330
5
100
AcDbSymbolTableRecord
100
AcDbLinetypeTableRecord
  2
Continuous
 70
     0
  3
Solid line
 72
    65
 73
     0
 40
0.0
  0
LTYPE
  5
3C
330
5
100
AcDbSymbolTableRecord
100
AcDbLinetypeTableRecord
  2
JWW_CENTER2
 70
     0
  3
-------------  --  -------------
 72
    65
 73
     4
 40
13.54666666666667
 49
11.00666666666667
 74
     0
 49
-0.8466666666666667
 74
     0
 49
0.8466666666666667
 74
     0
 49
-0.8466666666666667
 74
     0
  0
LTYPE
  5
3D
330
5
100
AcDbSymbolTableRecord
100
AcDbLinetypeTableRecord
  2
JWW_DASHED1
 70
     0
  3
-  --  --  --  --  --  --  --  -
 72
    65
 73
     2
 40
1.693333333333333
 49
0.8466666666666667
 74
     0
 49
-0.8466666666666667
 74
     0
  0
LTYPE
  5
3E
330
5
100
AcDbSymbolTableRecord
100
AcDbLinetypeTableRecord
  2
JWW_DASHED3
 70
     0
  3
---  ------  ------  ------  ---
 72
    65
 73
     2
 40
3.386666666666667
 49
2.54
 74
     0
 49
-0.8466666666666667
 74
     0
  0
LTYPE
  5
3F
330
5
100
AcDbSymbolTableRecord
100
AcDbLinetypeTableRecord
  2
JWW_HOJO
 70
     0
  3
  -   -   -   -   -   -   -   - 
 72
    65
 73
     2
 40
1.693333333333333
 49
-1.27
 74
     0
 49
0.4233333333333333
 74
     0
  0
ENDTAB
  0
TABLE
  2
LAYER
  5
2
330
0
100
AcDbSymbolTable
 70
    16
  0
LAYER
  5
10
330
2
100
AcDbSymbolTableRecord
100
AcDbLayerTableRecord
  2
0
 70
     0
 62
     7
  6
Continuous
370
    -3
390
F
  0
LAYER
  5
40
330
2
100
AcDbSymbolTableRecord
100
AcDbLayerTableRecord
  2
建具
 70
     0
 62
     7
  6
Continuous
370
    -3
390
F
  0
LAYER
  5
41
330
2
100
AcDbSymbolTableRecord
100
AcDbLayerTableRecord
  2
仕上
 70
     0
 62
     7
  6
Continuous
370
    -3
390
F
  0
LAYER
  5
42
330
2
100
AcDbSymbolTableRecord
100
AcDbLayerTableRecord
  2
躯体
 70
     0
 62
     7
  6
Continuous
370
    -3
390
F
  0
LAYER
  5
43
330
2
100
AcDbSymbolTableRecord
100
AcDbLayerTableRecord
  2
その他
 70
     0
 62
     7
  6
Continuous
370
    -3
390
F
  0
LAYER
  5
44
330
2
100
AcDbSymbolTableRecord
100
AcDbLayerTableRecord
  2
D-0
 70
     0
 62
     7
  6
Continuous
370
    -3
390
F
  0
LAYER
  5
45
330
2
100
AcDbSymbolTableRecord
100
AcDbLayerTableRecord
  2
D-F
 70
     0
 62
     7
  6
Continuous
370
    -3
390
F
  0
LAYER
  5
46
330
2
100
AcDbSymbolTableRecord
100
AcDbLayerTableRecord
  2
D-5
 70
     0
 62
     7
  6
Continuous
370
    -3
390
F
  0
LAYER
  5
47
330
2
100
AcDbSymbolTableRecord
100
AcDbLayerTableRecord
  2
F-5ﾚｲﾔ
 70
     0
 62
     7
  6
Continuous
370
    -3
390
F
  0
LAYER
  5
48
330
2
100
AcDbSymbolTableRecord
100
AcDbLayerTableRecord
  2
D-4
 70
     0
 62
     7
  6
Continuous
370
    -3
390
F
  0
LAYER
  5
49
330
2
100
AcDbSymbolTableRecord
100
AcDbLayerTableRecord
  2
D-3
 70
     0
 62
     7
  6
Continuous
370
    -3
390
F
  0
LAYER
  5
4A
330
2
100
AcDbSymbolTableRecord
100
AcDbLayerTableRecord
  2
D-2
 70
     0
 62
     7
  6
Continuous
370
    -3
390
F
  0
LAYER
  5
4B
330
2
100
AcDbSymbolTableRecord
100
AcDbLayerTableRecord
  2
C-3
 70
     0
 62
     7
  6
Continuous
370
    -3
390
F
  0
LAYER
  5
4C
330
2
100
AcDbSymbolTableRecord
100
AcDbLayerTableRecord
  2
C-4
 70
     0
 62
     7
  6
Continuous
370
    -3
390
F
  0
LAYER
  5
4D
330
2
100
AcDbSymbolTableRecord
100
AcDbLayerTableRecord
  2
C-5
 70
     0
 62
     7
  6
Continuous
370
    -3
390
F
  0
LAYER
  5
4E
330
2
100
AcDbSymbolTableRecord
100
AcDbLayerTableRecord
  2
C-1
 70
     0
 62
     7
  6
Continuous
370
    -3
390
F
  0
ENDTAB
  0
TABLE
  2
STYLE
  5
3
330
0
100
AcDbSymbolTable
 70
     2
  0
STYLE
  5
11
330
3
100
AcDbSymbolTableRecord
100
AcDbTextStyleTableRecord
  2
Standard
 70
     0
 40
0.0
 41
1.0
 50
0.0
 71
     0
 42
2.5
  3
txt
  4

1001
ACAD
1000

1071
        0
  0
STYLE
  5
3B
330
3
100
AcDbSymbolTableRecord
100
AcDbTextStyleTableRecord
  2
ＭＳ ゴシック
 70
     0
 40
1.0
 41
1.0
 50
0.0
 71
     0
 42
10.0
  3

  4

1001
ACAD
1000
MS Gothic
1071
    32817
  0
ENDTAB
  0
TABLE
  2
VIEW
  5
6
330
0
100
AcDbSymbolTable
 70
     0
  0
ENDTAB
  0
TABLE
  2
UCS
  5
7
330
0
100
AcDbSymbolTable
 70
     0
  0
ENDTAB
  0
TABLE
  2
APPID
  5
9
330
0
100
AcDbSymbolTable
 70
     1
  0
APPID
  5
12
330
9
100
AcDbSymbolTableRecord
100
AcDbRegAppTableRecord
  2
ACAD
 70
     0
  0
ENDTAB
  0
TABLE
  2
DIMSTYLE
  5
A
330
0
100
AcDbSymbolTable
 70
     1
100
AcDbDimStyleTable
  0
DIMSTYLE
105
27
330
A
100
AcDbSymbolTableRecord
100
AcDbDimStyleTableRecord
  2
ISO-25
 70
     0
 41
2.5
 42
0.625
 43
3.75
 44
1.25
 73
     0
 74
     0
 77
     1
 78
     8
140
2.5
141
2.5
143
0.03937007874016
147
0.625
171
     3
172
     1
271
     2
272
     2
274
     3
278
    44
283
     0
284
     8
340
11
  0
ENDTAB
  0
TABLE
  2
BLOCK_RECORD
  5
1
330
0
100
AcDbSymbolTable
 70
     1
  0
BLOCK_RECORD
  5
1F
330
1
100
AcDbSymbolTableRecord
100
AcDbBlockTableRecord
  2
*Model_Space
340
22
  0
BLOCK_RECORD
  5
1B
330
1
100
AcDbSymbolTableRecord
100
AcDbBlockTableRecord
  2
*Paper_Space
340
1E
  0
BLOCK_RECORD
  5
23
330
1
100
AcDbSymbolTableRecord
100
AcDbBlockTableRecord
  2
*Paper_Space0
340
26
  0
ENDTAB
  0
ENDSEC
  0
SECTION
  2
BLOCKS
  0
BLOCK
  5
20
330
1F
100
AcDbEntity
  8
0
100
AcDbBlockBegin
  2
*Model_Space
 70
     0
 10
0.0
 20
0.0
 30
0.0
  3
*Model_Space
  1

  0
ENDBLK
  5
21
330
1F
100
AcDbEntity
  8
0
100
AcDbBlockEnd
  0
BLOCK
  5
1C
330
1B
100
AcDbEntity
 67
     1
  8
0
100
AcDbBlockBegin
  2
*Paper_Space
 70
     0
 10
0.0
 20
0.0
 30
0.0
  3
*Paper_Space
  1

  0
ENDBLK
  5
1D
330
1B
100
AcDbEntity
 67
     1
  8
0
100
AcDbBlockEnd
  0
BLOCK
  5
24
330
23
100
AcDbEntity
  8
0
100
AcDbBlockBegin
  2
*Paper_Space0
 70
     0
 10
0.0
 20
0.0
 30
0.0
  3
*Paper_Space0
  1

  0
ENDBLK
  5
25
330
23
100
AcDbEntity
  8
0
100
AcDbBlockEnd
  0
ENDSEC
  0
SECTION
  2
ENTITIES
  0
LINE
  5
4F
330
1F
100
AcDbEntity
  8
建具
  6
Continuous
 62
     4
370
     9
100
AcDbLine
 10
1560.191497057326
 20
1013.409515000693
 30
0.0
 11
1560.191497057326
 21
1245.409495927205
 31
0.0
  0
LINE
  5
50
330
1F
100
AcDbEntity
  8
建具
  6
Continuous
 62
     4
370
     9
100
AcDbLine
 10
1560.191497057326
 20
1245.409495927205
 30
0.0
 11
-1439.808502942676
 21
1245.409495927205
 31
0.0
  0
LINE
  5
51
330
1F
100
AcDbEntity
  8
建具
  6
Continuous
 62
     4
370
     9
100
AcDbLine
 10
1560.191497057326
 20
1013.409515000693
 30
0.0
 11
-1439.808502942676
 21
1013.409515000693
 31
0.0
  0
LINE
  5
52
330
1F
100
AcDbEntity
  8
建具
  6
Continuous
 62
     4
370
     9
100
AcDbLine
 10
1560.191497057326
 20
1230.409495927205
 30
0.0
 11
-1439.808502942676
 21
1230.409495927205
 31
0.0
  0
LINE
  5
53
330
1F
100
AcDbEntity
  8
建具
  6
Continuous
 62
     4
370
     9
100
AcDbLine
 10
1560.191497057326
 20
1028.409515000693
 30
0.0
 11
-1439.808502942676
 21
1028.409515000693
 31
0.0
  0
LINE
  5
54
330
1F
100
AcDbEntity
  8
建具
  6
Continuous
 62
     4
370
     9
100
AcDbLine
 10
1560.191497057326
 20
1129.4095035566
 30
0.0
 11
-1439.808502942676
 21
1129.4095035566
 31
0.0
  0
LINE
  5
55
330
1F
100
AcDbEntity
  8
建具
  6
Continuous
 62
     4
370
     9
100
AcDbLine
 10
1560.191497057326
 20
1054.40925560128
 30
0.0
 11
-1439.808502942676
 21
1054.40925560128
 31
0.0
  0
LINE
  5
56
330
1F
100
AcDbEntity
  8
建具
  6
Continuous
 62
     4
370
     9
100
AcDbLine
 10
1560.191497057326
 20
1204.40975532662
 30
0.0
 11
-1439.808502942676
 21
1204.40975532662
 31
0.0
  0
LINE
  5
57
330
1F
100
AcDbEntity
  8
建具
  6
Continuous
 62
     4
370
     9
100
AcDbLine
 10
-1439.808502942676
 20
1013.409515000693
 30
0.0
 11
-1439.808502942676
 21
1245.409495927205
 31
0.0
  0
LINE
  5
58
330
1F
100
AcDbEntity
  8
仕上
  6
Continuous
 62
     3
370
     9
100
AcDbLine
 10
1297.191497057324
 20
1267.409499741904
 30
0.0
 11
1323.191497057323
 21
1267.409499741904
 31
0.0
  0
LINE
  5
59
330
1F
100
AcDbEntity
  8
仕上
  6
JWW_CENTER2
 62
     3
370
     9
100
AcDbLine
 10
1310.191497057326
 20
1274.402343369833
 30
0.0
 11
1310.191497057326
 21
1197.049801446309
 31
0.0
  0
ARC
  5
5A
330
1F
100
AcDbEntity
  8
仕上
  6
Continuous
 62
     3
370
     9
100
AcDbCircle
 10
1323.191497057323
 20
1265.409499741903
 30
0.0
 40
2.0
100
AcDbArc
 50
0.0000000000000035
 51
90.0
  0
ARC
  5
5B
330
1F
100
AcDbEntity
  8
仕上
  6
Continuous
 62
     3
370
     9
100
AcDbCircle
 10
1297.191497057324
 20
1265.409499741903
 30
0.0
 40
2.0
100
AcDbArc
 50
90.0
 51
180.0
  0
LINE
  5
5C
330
1F
100
AcDbEntity
  8
仕上
  6
Continuous
 62
     3
370
     9
100
AcDbLine
 10
1325.191497057326
 20
1265.409499741903
 30
0.0
 11
1325.191497057326
 21
1245.409495927205
 31
0.0
  0
LINE
  5
5D
330
1F
100
AcDbEntity
  8
仕上
  6
Continuous
 62
     3
370
     9
100
AcDbLine
 10
1295.191497057326
 20
1265.409499741903
 30
0.0
 11
1295.191497057326
 21
1245.409495927205
 31
0.0
  0
LINE
  5
5E
330
1F
100
AcDbEntity
  8
仕上
  6
JWW_DASHED1
 62
     3
370
     9
100
AcDbLine
 10
1295.191497057326
 20
1207.409503556602
 30
0.0
 11
1325.191497057326
 21
1207.409503556602
 31
0.0
  0
LINE
  5
5F
330
1F
100
AcDbEntity
  8
仕上
  6
JWW_DASHED1
 62
     3
370
     9
100
AcDbLine
 10
1295.191497057326
 20
1245.409495927205
 30
0.0
 11
1295.191497057326
 21
1207.409503556602
 31
0.0
  0
LINE
  5
60
330
1F
100
AcDbEntity
  8
仕上
  6
JWW_DASHED1
 62
     3
370
     9
100
AcDbLine
 10
1325.191497057326
 20
1245.409495927205
 30
0.0
 11
1325.191497057326
 21
1207.409503556602
 31
0.0
  0
LINE
  5
61
330
1F
100
AcDbEntity
  8
仕上
  6
Continuous
 62
     3
370
     9
100
AcDbLine
 10
1297.191497057324
 20
991.4095073712986
 30
0.0
 11
1323.191497057323
 21
991.4095073712986
 31
0.0
  0
LINE
  5
62
330
1F
100
AcDbEntity
  8
仕上
  6
JWW_CENTER2
 62
     3
370
     9
100
AcDbLine
 10
1310.191497057326
 20
984.416663743367
 30
0.0
 11
1310.191497057326
 21
1061.769205666891
 31
0.0
  0
ARC
  5
63
330
1F
100
AcDbEntity
  8
仕上
  6
Continuous
 62
     3
370
     9
100
AcDbCircle
 10
1323.191497057323
 20
993.4095073712967
 30
0.0
 40
2.0
100
AcDbArc
 50
270.0
 51
0.0
  0
ARC
  5
64
330
1F
100
AcDbEntity
  8
仕上
  6
Continuous
 62
     3
370
     9
100
AcDbCircle
 10
1297.191497057324
 20
993.4095073712967
 30
0.0
 40
2.0
100
AcDbArc
 50
180.0
 51
270.0
  0
LINE
  5
65
330
1F
100
AcDbEntity
  8
仕上
  6
Continuous
 62
     3
370
     9
100
AcDbLine
 10
1325.191497057326
 20
993.4095073712967
 30
0.0
 11
1325.191497057326
 21
1013.409511185995
 31
0.0
  0
LINE
  5
66
330
1F
100
AcDbEntity
  8
仕上
  6
Continuous
 62
     3
370
     9
100
AcDbLine
 10
1295.191497057326
 20
993.4095073712967
 30
0.0
 11
1295.191497057326
 21
1013.409511185995
 31
0.0
  0
LINE
  5
67
330
1F
100
AcDbEntity
  8
仕上
  6
JWW_DASHED1
 62
     3
370
     9
100
AcDbLine
 10
1295.191497057326
 20
1051.4095035566
 30
0.0
 11
1325.191497057326
 21
1051.4095035566
 31
0.0
  0
LINE
  5
68
330
1F
100
AcDbEntity
  8
仕上
  6
JWW_DASHED1
 62
     3
370
     9
100
AcDbLine
 10
1295.191497057326
 20
1013.409511185995
 30
0.0
 11
1295.191497057326
 21
1051.4095035566
 31
0.0
  0
LINE
  5
69
330
1F
100
AcDbEntity
  8
仕上
  6
JWW_DASHED1
 62
     3
370
     9
100
AcDbLine
 10
1325.191497057326
 20
1013.409511185995
 30
0.0
 11
1325.191497057326
 21
1051.4095035566
 31
0.0
  0
LINE
  5
6A
330
1F
100
AcDbEntity
  8
仕上
  6
Continuous
 62
     3
370
     9
100
AcDbLine
 10
797.1915085014189
 20
1267.409499741904
 30
0.0
 11
823.191508501418
 21
1267.409499741904
 31
0.0
  0
LINE
  5
6B
330
1F
100
AcDbEntity
  8
仕上
  6
JWW_CENTER2
 62
     3
370
     9
100
AcDbLine
 10
810.1915085014161
 20
1274.402343369833
 30
0.0
 11
810.1915085014161
 21
1197.049801446309
 31
0.0
  0
ARC
  5
6C
330
1F
100
AcDbEntity
  8
仕上
  6
Continuous
 62
     3
370
     9
100
AcDbCircle
 10
823.191508501418
 20
1265.409499741903
 30
0.0
 40
2.0
100
AcDbArc
 50
0.0000000000000035
 51
90.0
  0
ARC
  5
6D
330
1F
100
AcDbEntity
  8
仕上
  6
Continuous
 62
     3
370
     9
100
AcDbCircle
 10
797.1915085014189
 20
1265.409499741903
 30
0.0
 40
2.0
100
AcDbArc
 50
90.0
 51
180.0
  0
LINE
  5
6E
330
1F
100
AcDbEntity
  8
仕上
  6
Continuous
 62
     3
370
     9
100
AcDbLine
 10
825.1915085014161
 20
1265.409499741903
 30
0.0
 11
825.1915085014161
 21
1245.409495927205
 31
0.0
  0
LINE
  5
6F
330
1F
100
AcDbEntity
  8
仕上
  6
Continuous
 62
     3
370
     9
100
AcDbLine
 10
795.1915085014161
 20
1265.409499741903
 30
0.0
 11
795.1915085014161
 21
1245.409495927205
 31
0.0
  0
LINE
  5
70
330
1F
100
AcDbEntity
  8
仕上
  6
JWW_DASHED1
 62
     3
370
     9
100
AcDbLine
 10
795.1915085014161
 20
1207.409503556602
 30
0.0
 11
825.1915085014161
 21
1207.409503556602
 31
0.0
  0
LINE
  5
71
330
1F
100
AcDbEntity
  8
仕上
  6
JWW_DASHED1
 62
     3
370
     9
100
AcDbLine
 10
795.1915085014161
 20
1245.409495927205
 30
0.0
 11
795.1915085014161
 21
1207.409503556602
 31
0.0
  0
LINE
  5
72
330
1F
100
AcDbEntity
  8
仕上
  6
JWW_DASHED1
 62
     3
370
     9
100
AcDbLine
 10
825.1915085014161
 20
1245.409495927205
 30
0.0
 11
825.1915085014161
 21
1207.409503556602
 31
0.0
  0
LINE
  5
73
330
1F
100
AcDbEntity
  8
仕上
  6
Continuous
 62
     3
370
     9
100
AcDbLine
 10
797.1915085014189
 20
991.4095073712986
 30
0.0
 11
823.191508501418
 21
991.4095073712986
 31
0.0
  0
LINE
  5
74
330
1F
100
AcDbEntity
  8
仕上
  6
JWW_CENTER2
 62
     3
370
     9
100
AcDbLine
 10
810.1915085014161
 20
984.416663743367
 30
0.0
 11
810.1915085014161
 21
1061.769205666891
 31
0.0
  0
ARC
  5
75
330
1F
100
AcDbEntity
  8
仕上
  6
Continuous
 62
     3
370
     9
100
AcDbCircle
 10
823.191508501418
 20
993.4095073712967
 30
0.0
 40
2.0
100
AcDbArc
 50
270.0
 51
0.0
  0
ARC
  5
76
330
1F
100
AcDbEntity
  8
仕上
  6
Continuous
 62
     3
370
     9
100
AcDbCircle
 10
797.1915085014189
 20
993.4095073712967
 30
0.0
 40
2.0
100
AcDbArc
 50
180.0
 51
270.0
  0
LINE
  5
77
330
1F
100
AcDbEntity
  8
仕上
  6
Continuous
 62
     3
370
     9
100
AcDbLine
 10
825.1915085014161
 20
993.4095073712967
 30
0.0
 11
825.1915085014161
 21
1013.409511185995
 31
0.0
  0
LINE
  5
78
330
1F
100
AcDbEntity
  8
仕上
  6
Continuous
 62
     3
370
     9
100
AcDbLine
 10
795.1915085014161
 20
993.4095073712967
 30
0.0
 11
795.1915085014161
 21
1013.409511185995
 31
0.0
  0
LINE
  5
79
330
1F
100
AcDbEntity
  8
仕上
  6
JWW_DASHED1
 62
     3
370
     9
100
AcDbLine
 10
795.1915085014161
 20
1051.4095035566
 30
0.0
 11
825.1915085014161
 21
1051.4095035566
 31
0.0
  0
LINE
  5
7A
330
1F
100
AcDbEntity
  8
仕上
  6
JWW_DASHED1
 62
     3
370
     9
100
AcDbLine
 10
795.1915085014161
 20
1013.409511185995
 30
0.0
 11
795.1915085014161
 21
1051.4095035566
 31
0.0
  0
LINE
  5
7B
330
1F
100
AcDbEntity
  8
仕上
  6
JWW_DASHED1
 62
     3
370
     9
100
AcDbLine
 10
825.1915085014161
 20
1013.409511185995
 30
0.0
 11
825.1915085014161
 21
1051.4095035566
 31
0.0
  0
LINE
  5
7C
330
1F
100
AcDbEntity
  8
仕上
  6
Continuous
 62
     3
370
     9
100
AcDbLine
 10
297.1914970573243
 20
1267.409499741904
 30
0.0
 11
323.1914970573234
 21
1267.409499741904
 31
0.0
  0
LINE
  5
7D
330
1F
100
AcDbEntity
  8
仕上
  6
JWW_CENTER2
 62
     3
370
     9
100
AcDbLine
 10
310.1914970573262
 20
1274.402343369833
 30
0.0
 11
310.1914970573262
 21
1197.049801446309
 31
0.0
  0
ARC
  5
7E
330
1F
100
AcDbEntity
  8
仕上
  6
Continuous
 62
     3
370
     9
100
AcDbCircle
 10
323.1914970573234
 20
1265.409499741903
 30
0.0
 40
2.0
100
AcDbArc
 50
0.0000000000000035
 51
90.0
  0
ARC
  5
7F
330
1F
100
AcDbEntity
  8
仕上
  6
Continuous
 62
     3
370
     9
100
AcDbCircle
 10
297.1914970573243
 20
1265.409499741903
 30
0.0
 40
2.0
100
AcDbArc
 50
90.0
 51
180.0
  0
LINE
  5
80
330
1F
100
AcDbEntity
  8
仕上
  6
Continuous
 62
     3
370
     9
100
AcDbLine
 10
325.1914970573262
 20
1265.409499741903
 30
0.0
 11
325.1914970573262
 21
1245.409495927205
 31
0.0
  0
LINE
  5
81
330
1F
100
AcDbEntity
  8
仕上
  6
Continuous
 62
     3
370
     9
100
AcDbLine
 10
295.1914970573262
 20
1265.409499741903
 30
0.0
 11
295.1914970573262
 21
1245.409495927205
 31
0.0
  0
LINE
  5
82
330
1F
100
AcDbEntity
  8
仕上
  6
JWW_DASHED1
 62
     3
370
     9
100
AcDbLine
 10
295.1914970573262
 20
1207.409503556602
 30
0.0
 11
325.1914970573262
 21
1207.409503556602
 31
0.0
  0
LINE
  5
83
330
1F
100
AcDbEntity
  8
仕上
  6
JWW_DASHED1
 62
     3
370
     9
100
AcDbLine
 10
295.1914970573262
 20
1245.409495927205
 30
0.0
 11
295.1914970573262
 21
1207.409503556602
 31
0.0
  0
LINE
  5
84
330
1F
100
AcDbEntity
  8
仕上
  6
JWW_DASHED1
 62
     3
370
     9
100
AcDbLine
 10
325.1914970573262
 20
1245.409495927205
 30
0.0
 11
325.1914970573262
 21
1207.409503556602
 31
0.0
  0
LINE
  5
85
330
1F
100
AcDbEntity
  8
仕上
  6
Continuous
 62
     3
370
     9
100
AcDbLine
 10
297.1914970573243
 20
991.4095073712986
 30
0.0
 11
323.1914970573234
 21
991.4095073712986
 31
0.0
  0
LINE
  5
86
330
1F
100
AcDbEntity
  8
仕上
  6
JWW_CENTER2
 62
     3
370
     9
100
AcDbLine
 10
310.1914970573262
 20
984.416663743367
 30
0.0
 11
310.1914970573262
 21
1061.769205666891
 31
0.0
  0
ARC
  5
87
330
1F
100
AcDbEntity
  8
仕上
  6
Continuous
 62
     3
370
     9
100
AcDbCircle
 10
323.1914970573234
 20
993.4095073712967
 30
0.0
 40
2.0
100
AcDbArc
 50
270.0
 51
0.0
  0
ARC
  5
88
330
1F
100
AcDbEntity
  8
仕上
  6
Continuous
 62
     3
370
     9
100
AcDbCircle
 10
297.1914970573243
 20
993.4095073712967
 30
0.0
 40
2.0
100
AcDbArc
 50
180.0
 51
270.0
  0
LINE
  5
89
330
1F
100
AcDbEntity
  8
仕上
  6
Continuous
 62
     3
370
     9
100
AcDbLine
 10
325.1914970573262
 20
993.4095073712967
 30
0.0
 11
325.1914970573262
 21
1013.409511185995
 31
0.0
  0
LINE
  5
8A
330
1F
100
AcDbEntity
  8
仕上
  6
Continuous
 62
     3
370
     9
100
AcDbLine
 10
295.1914970573262
 20
993.4095073712967
 30
0.0
 11
295.1914970573262
 21
1013.409511185995
 31
0.0
  0
LINE
  5
8B
330
1F
100
AcDbEntity
  8
仕上
  6
JWW_DASHED1
 62
     3
370
     9
100
AcDbLine
 10
295.1914970573262
 20
1051.4095035566
 30
0.0
 11
325.1914970573262
 21
1051.4095035566
 31
0.0
  0
LINE
  5
8C
330
1F
100
AcDbEntity
  8
仕上
  6
JWW_DASHED1
 62
     3
370
     9
100
AcDbLine
 10
295.1914970573262
 20
1013.409511185995
 30
0.0
 11
295.1914970573262
 21
1051.4095035566
 31
0.0
  0
LINE
  5
8D
330
1F
100
AcDbEntity
  8
仕上
  6
JWW_DASHED1
 62
     3
370
     9
100
AcDbLine
 10
325.1914970573262
 20
1013.409511185995
 30
0.0
 11
325.1914970573262
 21
1051.4095035566
 31
0.0
  0
LINE
  5
8E
330
1F
100
AcDbEntity
  8
仕上
  6
Continuous
 62
     3
370
     9
100
AcDbLine
 10
-202.8085029426734
 20
1267.409499741904
 30
0.0
 11
-176.8085029426743
 21
1267.409499741904
 31
0.0
  0
LINE
  5
8F
330
1F
100
AcDbEntity
  8
仕上
  6
JWW_CENTER2
 62
     3
370
     9
100
AcDbLine
 10
-189.8085029426738
 20
1274.402343369833
 30
0.0
 11
-189.8085029426738
 21
1197.049801446309
 31
0.0
  0
ARC
  5
90
330
1F
100
AcDbEntity
  8
仕上
  6
Continuous
 62
     3
370
     9
100
AcDbCircle
 10
-176.8085029426743
 20
1265.409499741903
 30
0.0
 40
2.0
100
AcDbArc
 50
0.0000000000000035
 51
90.0
  0
ARC
  5
91
330
1F
100
AcDbEntity
  8
仕上
  6
Continuous
 62
     3
370
     9
100
AcDbCircle
 10
-202.8085029426734
 20
1265.409499741903
 30
0.0
 40
2.0
100
AcDbArc
 50
90.0
 51
180.0
  0
LINE
  5
92
330
1F
100
AcDbEntity
  8
仕上
  6
Continuous
 62
     3
370
     9
100
AcDbLine
 10
-174.8085029426738
 20
1265.409499741903
 30
0.0
 11
-174.8085029426738
 21
1245.409495927205
 31
0.0
  0
LINE
  5
93
330
1F
100
AcDbEntity
  8
仕上
  6
Continuous
 62
     3
370
     9
100
AcDbLine
 10
-204.8085029426738
 20
1265.409499741903
 30
0.0
 11
-204.8085029426738
 21
1245.409495927205
 31
0.0
  0
LINE
  5
94
330
1F
100
AcDbEntity
  8
仕上
  6
JWW_DASHED1
 62
     3
370
     9
100
AcDbLine
 10
-204.8085029426738
 20
1207.409503556602
 30
0.0
 11
-174.8085029426738
 21
1207.409503556602
 31
0.0
  0
LINE
  5
95
330
1F
100
AcDbEntity
  8
仕上
  6
JWW_DASHED1
 62
     3
370
     9
100
AcDbLine
 10
-204.8085029426738
 20
1245.409495927205
 30
0.0
 11
-204.8085029426738
 21
1207.409503556602
 31
0.0
  0
LINE
  5
96
330
1F
100
AcDbEntity
  8
仕上
  6
JWW_DASHED1
 62
     3
370
     9
100
AcDbLine
 10
-174.8085029426738
 20
1245.409495927205
 30
0.0
 11
-174.8085029426738
 21
1207.409503556602
 31
0.0
  0
LINE
  5
97
330
1F
100
AcDbEntity
  8
仕上
  6
Continuous
 62
     3
370
     9
100
AcDbLine
 10
-202.8085029426734
 20
991.4095073712986
 30
0.0
 11
-176.8085029426743
 21
991.4095073712986
 31
0.0
  0
LINE
  5
98
330
1F
100
AcDbEntity
  8
仕上
  6
JWW_CENTER2
 62
     3
370
     9
100
AcDbLine
 10
-189.8085029426738
 20
984.416663743367
 30
0.0
 11
-189.8085029426738
 21
1061.769205666891
 31
0.0
  0
ARC
  5
99
330
1F
100
AcDbEntity
  8
仕上
  6
Continuous
 62
     3
370
     9
100
AcDbCircle
 10
-176.8085029426743
 20
993.4095073712967
 30
0.0
 40
2.0
100
AcDbArc
 50
270.0
 51
0.0
  0
ARC
  5
9A
330
1F
100
AcDbEntity
  8
仕上
  6
Continuous
 62
     3
370
     9
100
AcDbCircle
 10
-202.8085029426734
 20
993.4095073712967
 30
0.0
 40
2.0
100
AcDbArc
 50
180.0
 51
270.0
  0
LINE
  5
9B
330
1F
100
AcDbEntity
  8
仕上
  6
Continuous
 62
     3
370
     9
100
AcDbLine
 10
-174.8085029426738
 20
993.4095073712967
 30
0.0
 11
-174.8085029426738
 21
1013.409511185995
 31
0.0
  0
LINE
  5
9C
330
1F
100
AcDbEntity
  8
仕上
  6
Continuous
 62
     3
370
     9
100
AcDbLine
 10
-204.8085029426738
 20
993.4095073712967
 30
0.0
 11
-204.8085029426738
 21
1013.409511185995
 31
0.0
  0
LINE
  5
9D
330
1F
100
AcDbEntity
  8
仕上
  6
JWW_DASHED1
 62
     3
370
     9
100
AcDbLine
 10
-204.8085029426738
 20
1051.4095035566
 30
0.0
 11
-174.8085029426738
 21
1051.4095035566
 31
0.0
  0
LINE
  5
9E
330
1F
100
AcDbEntity
  8
仕上
  6
JWW_DASHED1
 62
     3
370
     9
100
AcDbLine
 10
-204.8085029426738
 20
1013.409511185995
 30
0.0
 11
-204.8085029426738
 21
1051.4095035566
 31
0.0
  0
LINE
  5
9F
330
1F
100
AcDbEntity
  8
仕上
  6
JWW_DASHED1
 62
     3
370
     9
100
AcDbLine
 10
-174.8085029426738
 20
1013.409511185995
 30
0.0
 11
-174.8085029426738
 21
1051.4095035566
 31
0.0
  0
LINE
  5
A0
330
1F
100
AcDbEntity
  8
仕上
  6
Continuous
 62
     3
370
     9
100
AcDbLine
 10
-702.8085143867656
 20
1267.409499741904
 30
0.0
 11
-676.8085143867665
 21
1267.409499741904
 31
0.0
  0
LINE
  5
A1
330
1F
100
AcDbEntity
  8
仕上
  6
JWW_CENTER2
 62
     3
370
     9
100
AcDbLine
 10
-689.8085143867661
 20
1274.402343369833
 30
0.0
 11
-689.8085143867661
 21
1197.049801446309
 31
0.0
  0
ARC
  5
A2
330
1F
100
AcDbEntity
  8
仕上
  6
Continuous
 62
     3
370
     9
100
AcDbCircle
 10
-676.8085143867665
 20
1265.409499741903
 30
0.0
 40
2.0
100
AcDbArc
 50
0.0000000000000035
 51
90.0
  0
ARC
  5
A3
330
1F
100
AcDbEntity
  8
仕上
  6
Continuous
 62
     3
370
     9
100
AcDbCircle
 10
-702.8085143867656
 20
1265.409499741903
 30
0.0
 40
2.0
100
AcDbArc
 50
90.0
 51
180.0
  0
LINE
  5
A4
330
1F
100
AcDbEntity
  8
仕上
  6
Continuous
 62
     3
370
     9
100
AcDbLine
 10
-674.8085143867661
 20
1265.409499741903
 30
0.0
 11
-674.8085143867661
 21
1245.409495927205
 31
0.0
  0
LINE
  5
A5
330
1F
100
AcDbEntity
  8
仕上
  6
Continuous
 62
     3
370
     9
100
AcDbLine
 10
-704.8085143867661
 20
1265.409499741903
 30
0.0
 11
-704.8085143867661
 21
1245.409495927205
 31
0.0
  0
LINE
  5
A6
330
1F
100
AcDbEntity
  8
仕上
  6
JWW_DASHED1
 62
     3
370
     9
100
AcDbLine
 10
-704.8085143867661
 20
1207.409503556602
 30
0.0
 11
-674.8085143867661
 21
1207.409503556602
 31
0.0
  0
LINE
  5
A7
330
1F
100
AcDbEntity
  8
仕上
  6
JWW_DASHED1
 62
     3
370
     9
100
AcDbLine
 10
-704.8085143867661
 20
1245.409495927205
 30
0.0
 11
-704.8085143867661
 21
1207.409503556602
 31
0.0
  0
LINE
  5
A8
330
1F
100
AcDbEntity
  8
仕上
  6
JWW_DASHED1
 62
     3
370
     9
100
AcDbLine
 10
-674.8085143867661
 20
1245.409495927205
 30
0.0
 11
-674.8085143867661
 21
1207.409503556602
 31
0.0
  0
LINE
  5
A9
330
1F
100
AcDbEntity
  8
仕上
  6
Continuous
 62
     3
370
     9
100
AcDbLine
 10
-702.8085143867656
 20
991.4095073712986
 30
0.0
 11
-676.8085143867665
 21
991.4095073712986
 31
0.0
  0
LINE
  5
AA
330
1F
100
AcDbEntity
  8
仕上
  6
JWW_CENTER2
 62
     3
370
     9
100
AcDbLine
 10
-689.8085143867661
 20
984.416663743367
 30
0.0
 11
-689.8085143867661
 21
1061.769205666891
 31
0.0
  0
ARC
  5
AB
330
1F
100
AcDbEntity
  8
仕上
  6
Continuous
 62
     3
370
     9
100
AcDbCircle
 10
-676.8085143867665
 20
993.4095073712967
 30
0.0
 40
2.0
100
AcDbArc
 50
270.0
 51
0.0
  0
ARC
  5
AC
330
1F
100
AcDbEntity
  8
仕上
  6
Continuous
 62
     3
370
     9
100
AcDbCircle
 10
-702.8085143867656
 20
993.4095073712967
 30
0.0
 40
2.0
100
AcDbArc
 50
180.0
 51
270.0
  0
LINE
  5
AD
330
1F
100
AcDbEntity
  8
仕上
  6
Continuous
 62
     3
370
     9
100
AcDbLine
 10
-674.8085143867661
 20
993.4095073712967
 30
0.0
 11
-674.8085143867661
 21
1013.409511185995
 31
0.0
  0
LINE
  5
AE
330
1F
100
AcDbEntity
  8
仕上
  6
Continuous
 62
     3
370
     9
100
AcDbLine
 10
-704.8085143867661
 20
993.4095073712967
 30
0.0
 11
-704.8085143867661
 21
1013.409511185995
 31
0.0
  0
LINE
  5
AF
330
1F
100
AcDbEntity
  8
仕上
  6
JWW_DASHED1
 62
     3
370
     9
100
AcDbLine
 10
-704.8085143867661
 20
1051.4095035566
 30
0.0
 11
-674.8085143867661
 21
1051.4095035566
 31
0.0
  0
LINE
  5
B0
330
1F
100
AcDbEntity
  8
仕上
  6
JWW_DASHED1
 62
     3
370
     9
100
AcDbLine
 10
-704.8085143867661
 20
1013.409511185995
 30
0.0
 11
-704.8085143867661
 21
1051.4095035566
 31
0.0
  0
LINE
  5
B1
330
1F
100
AcDbEntity
  8
仕上
  6
JWW_DASHED1
 62
     3
370
     9
100
AcDbLine
 10
-674.8085143867661
 20
1013.409511185995
 30
0.0
 11
-674.8085143867661
 21
1051.4095035566
 31
0.0
  0
LINE
  5
B2
330
1F
100
AcDbEntity
  8
仕上
  6
Continuous
 62
     3
370
     9
100
AcDbLine
 10
-1202.808502942676
 20
1267.409499741904
 30
0.0
 11
-1176.808502942677
 21
1267.409499741904
 31
0.0
  0
LINE
  5
B3
330
1F
100
AcDbEntity
  8
仕上
  6
JWW_CENTER2
 62
     3
370
     9
100
AcDbLine
 10
-1189.808502942676
 20
1274.402343369833
 30
0.0
 11
-1189.808502942676
 21
1197.049801446309
 31
0.0
  0
ARC
  5
B4
330
1F
100
AcDbEntity
  8
仕上
  6
Continuous
 62
     3
370
     9
100
AcDbCircle
 10
-1176.808502942677
 20
1265.409499741903
 30
0.0
 40
2.0
100
AcDbArc
 50
0.0000000000000035
 51
90.0
  0
ARC
  5
B5
330
1F
100
AcDbEntity
  8
仕上
  6
Continuous
 62
     3
370
     9
100
AcDbCircle
 10
-1202.808502942676
 20
1265.409499741903
 30
0.0
 40
2.0
100
AcDbArc
 50
90.0
 51
180.0
  0
LINE
  5
B6
330
1F
100
AcDbEntity
  8
仕上
  6
Continuous
 62
     3
370
     9
100
AcDbLine
 10
-1174.808502942676
 20
1265.409499741903
 30
0.0
 11
-1174.808502942676
 21
1245.409495927205
 31
0.0
  0
LINE
  5
B7
330
1F
100
AcDbEntity
  8
仕上
  6
Continuous
 62
     3
370
     9
100
AcDbLine
 10
-1204.808502942676
 20
1265.409499741903
 30
0.0
 11
-1204.808502942676
 21
1245.409495927205
 31
0.0
  0
LINE
  5
B8
330
1F
100
AcDbEntity
  8
仕上
  6
JWW_DASHED1
 62
     3
370
     9
100
AcDbLine
 10
-1204.808502942676
 20
1207.409503556602
 30
0.0
 11
-1174.808502942676
 21
1207.409503556602
 31
0.0
  0
LINE
  5
B9
330
1F
100
AcDbEntity
  8
仕上
  6
JWW_DASHED1
 62
     3
370
     9
100
AcDbLine
 10
-1204.808502942676
 20
1245.409495927205
 30
0.0
 11
-1204.808502942676
 21
1207.409503556602
 31
0.0
  0
LINE
  5
BA
330
1F
100
AcDbEntity
  8
仕上
  6
JWW_DASHED1
 62
     3
370
     9
100
AcDbLine
 10
-1174.808502942676
 20
1245.409495927205
 30
0.0
 11
-1174.808502942676
 21
1207.409503556602
 31
0.0
  0
LINE
  5
BB
330
1F
100
AcDbEntity
  8
仕上
  6
Continuous
 62
     3
370
     9
100
AcDbLine
 10
-1202.808502942676
 20
991.4095073712986
 30
0.0
 11
-1176.808502942677
 21
991.4095073712986
 31
0.0
  0
LINE
  5
BC
330
1F
100
AcDbEntity
  8
仕上
  6
JWW_CENTER2
 62
     3
370
     9
100
AcDbLine
 10
-1189.808502942676
 20
984.416663743367
 30
0.0
 11
-1189.808502942676
 21
1061.769205666891
 31
0.0
  0
ARC
  5
BD
330
1F
100
AcDbEntity
  8
仕上
  6
Continuous
 62
     3
370
     9
100
AcDbCircle
 10
-1176.808502942677
 20
993.4095073712967
 30
0.0
 40
2.0
100
AcDbArc
 50
270.0
 51
0.0
  0
ARC
  5
BE
330
1F
100
AcDbEntity
  8
仕上
  6
Continuous
 62
     3
370
     9
100
AcDbCircle
 10
-1202.808502942676
 20
993.4095073712967
 30
0.0
 40
2.0
100
AcDbArc
 50
180.0
 51
270.0
  0
LINE
  5
BF
330
1F
100
AcDbEntity
  8
仕上
  6
Continuous
 62
     3
370
     9
100
AcDbLine
 10
-1174.808502942676
 20
993.4095073712967
 30
0.0
 11
-1174.808502942676
 21
1013.409511185995
 31
0.0
  0
LINE
  5
C0
330
1F
100
AcDbEntity
  8
仕上
  6
Continuous
 62
     3
370
     9
100
AcDbLine
 10
-1204.808502942676
 20
993.4095073712967
 30
0.0
 11
-1204.808502942676
 21
1013.409511185995
 31
0.0
  0
LINE
  5
C1
330
1F
100
AcDbEntity
  8
仕上
  6
JWW_DASHED1
 62
     3
370
     9
100
AcDbLine
 10
-1204.808502942676
 20
1051.4095035566
 30
0.0
 11
-1174.808502942676
 21
1051.4095035566
 31
0.0
  0
LINE
  5
C2
330
1F
100
AcDbEntity
  8
仕上
  6
JWW_DASHED1
 62
     3
370
     9
100
AcDbLine
 10
-1204.808502942676
 20
1013.409511185995
 30
0.0
 11
-1204.808502942676
 21
1051.4095035566
 31
0.0
  0
LINE
  5
C3
330
1F
100
AcDbEntity
  8
仕上
  6
JWW_DASHED1
 62
     3
370
     9
100
AcDbLine
 10
-1174.808502942676
 20
1013.409511185995
 30
0.0
 11
-1174.808502942676
 21
1051.4095035566
 31
0.0
  0
LINE
  5
C4
330
1F
100
AcDbEntity
  8
躯体
  6
Continuous
 62
     2
370
     9
100
AcDbLine
 10
-1464.808502942676
 20
1207.409503556599
 30
0.0
 11
-1464.808502942676
 21
1051.4095035566
 31
0.0
  0
LINE
  5
C5
330
1F
100
AcDbEntity
  8
躯体
  6
Continuous
 62
     2
370
     9
100
AcDbLine
 10
-1439.808502942676
 20
1207.409503556599
 30
0.0
 11
-1464.808502942676
 21
1207.409503556599
 31
0.0
  0
LINE
  5
C6
330
1F
100
AcDbEntity
  8
躯体
  6
Continuous
 62
     2
370
     9
100
AcDbLine
 10
-1439.808502942676
 20
1051.4095035566
 30
0.0
 11
-1464.808502942676
 21
1051.4095035566
 31
0.0
  0
LINE
  5
C7
330
1F
100
AcDbEntity
  8
躯体
  6
JWW_DASHED3
 62
     2
370
     9
100
AcDbLine
 10
-1414.808502942676
 20
1207.409503556599
 30
0.0
 11
-1414.808502942676
 21
1051.4095035566
 31
0.0
  0
LINE
  5
C8
330
1F
100
AcDbEntity
  8
躯体
  6
JWW_DASHED3
 62
     2
370
     9
100
AcDbLine
 10
-1414.808502942676
 20
1051.4095035566
 30
0.0
 11
-1439.808502942676
 21
1051.4095035566
 31
0.0
  0
LINE
  5
C9
330
1F
100
AcDbEntity
  8
躯体
  6
JWW_DASHED3
 62
     2
370
     9
100
AcDbLine
 10
-1414.808502942676
 20
1207.409503556599
 30
0.0
 11
-1439.808502942676
 21
1207.409503556599
 31
0.0
  0
LINE
  5
CA
330
1F
100
AcDbEntity
  8
躯体
  6
Continuous
 62
     2
370
     9
100
AcDbLine
 10
-1439.808502942676
 20
1129.4095035566
 30
0.0
 11
-1464.808502942676
 21
1129.4095035566
 31
0.0
  0
LINE
  5
CB
330
1F
100
AcDbEntity
  8
躯体
  6
Continuous
 62
     2
370
     9
100
AcDbLine
 10
-1439.808502942676
 20
1205.909503556601
 30
0.0
 11
-1464.808502942676
 21
1205.909503556601
 31
0.0
  0
LINE
  5
CC
330
1F
100
AcDbEntity
  8
躯体
  6
JWW_DASHED3
 62
     2
370
     9
100
AcDbLine
 10
-1414.808502942676
 20
1205.909503556601
 30
0.0
 11
-1439.808502942676
 21
1205.909503556601
 31
0.0
  0
LINE
  5
CD
330
1F
100
AcDbEntity
  8
躯体
  6
Continuous
 62
     2
370
     9
100
AcDbLine
 10
-1439.808502942676
 20
1052.909503556601
 30
0.0
 11
-1464.808502942676
 21
1052.909503556601
 31
0.0
  0
LINE
  5
CE
330
1F
100
AcDbEntity
  8
躯体
  6
JWW_DASHED3
 62
     2
370
     9
100
AcDbLine
 10
-1414.808502942676
 20
1052.909503556601
 30
0.0
 11
-1439.808502942676
 21
1052.909503556601
 31
0.0
  0
LINE
  5
CF
330
1F
100
AcDbEntity
  8
その他
  6
Continuous
 62
     7
370
     9
100
AcDbLine
 10
-1204.808502942676
 20
925.8220591204952
 30
0.0
 11
-1174.808502942676
 21
925.8220591204952
 31
0.0
  0
LWPOLYLINE
  5
D0
330
1F
100
AcDbEntity
  8
その他
  6
Continuous
 62
     7
370
     9
100
AcDbPolyline
 90
        4
 70
     1
 43
1.0
 10
-1204.308502942676
 20
925.8220591204952
 42
0.4142135623731
 10
-1204.808502942676
 20
926.3220591204952
 42
0.4142135623731
 10
-1205.308502942676
 20
925.8220591204952
 42
0.4142135623731
 10
-1204.808502942676
 20
925.3220591204952
 42
0.4142135623731
  0
LWPOLYLINE
  5
D1
330
1F
100
AcDbEntity
  8
その他
  6
Continuous
 62
     7
370
     9
100
AcDbPolyline
 90
        4
 70
     1
 43
1.0
 10
-1174.308502942676
 20
925.8220591204952
 42
0.4142135623731
 10
-1174.808502942676
 20
926.3220591204952
 42
0.4142135623731
 10
-1175.308502942676
 20
925.8220591204952
 42
0.4142135623731
 10
-1174.808502942676
 20
925.3220591204952
 42
0.4142135623731
  0
LINE
  5
D2
330
1F
100
AcDbEntity
  8
その他
  6
Continuous
 62
     7
370
     9
100
AcDbLine
 10
-1204.808502942676
 20
922.8220591204933
 30
0.0
 11
-1204.808502942676
 21
973.4095073712967
 31
0.0
  0
LINE
  5
D3
330
1F
100
AcDbEntity
  8
その他
  6
Continuous
 62
     7
370
     9
100
AcDbLine
 10
-1174.808502942676
 20
922.8220591204933
 30
0.0
 11
-1174.808502942676
 21
973.4095073712967
 31
0.0
  0
TEXT
  5
D4
330
1F
100
AcDbEntity
  8
その他
  6
Continuous
 62
     2
370
   211
100
AcDbText
 10
-1266.261828191954
 20
937.4620591204942
 30
0.0
 40
30.48
  1
30
 41
1.0625
  7
ＭＳ ゴシック
100
AcDbText
  0
LINE
  5
D5
330
1F
100
AcDbEntity
  8
その他
  6
Continuous
 62
     7
370
     9
100
AcDbLine
 10
-1204.808502942676
 20
925.8220591204952
 30
0.0
 11
-1269.062203763157
 21
925.8220591204952
 31
0.0
  0
LINE
  5
D6
330
1F
100
AcDbEntity
  8
その他
  6
Continuous
 62
     7
370
     9
100
AcDbLine
 10
1560.191497057326
 20
1319.246752034686
 30
0.0
 11
-1439.808502942676
 21
1319.246752034686
 31
0.0
  0
LWPOLYLINE
  5
D7
330
1F
100
AcDbEntity
  8
その他
  6
Continuous
 62
     7
370
     9
100
AcDbPolyline
 90
        4
 70
     1
 43
1.0
 10
1560.691497057326
 20
1319.246752034686
 42
0.4142135623731
 10
1560.191497057326
 20
1319.746752034686
 42
0.4142135623731
 10
1559.691497057326
 20
1319.246752034686
 42
0.4142135623731
 10
1560.191497057326
 20
1318.746752034686
 42
0.4142135623731
  0
LWPOLYLINE
  5
D8
330
1F
100
AcDbEntity
  8
その他
  6
Continuous
 62
     7
370
     9
100
AcDbPolyline
 90
        4
 70
     1
 43
1.0
 10
-1439.308502942676
 20
1319.246752034686
 42
0.4142135623731
 10
-1439.808502942676
 20
1319.746752034686
 42
0.4142135623731
 10
-1440.308502942676
 20
1319.246752034686
 42
0.4142135623731
 10
-1439.808502942676
 20
1318.746752034686
 42
0.4142135623731
  0
LINE
  5
D9
330
1F
100
AcDbEntity
  8
その他
  6
Continuous
 62
     7
370
     9
100
AcDbLine
 10
1560.191497057326
 20
1322.246752034686
 30
0.0
 11
1560.191497057326
 21
1265.409495927205
 31
0.0
  0
LINE
  5
DA
330
1F
100
AcDbEntity
  8
その他
  6
Continuous
 62
     7
370
     9
100
AcDbLine
 10
-1439.808502942676
 20
1322.246752034686
 30
0.0
 11
-1439.808502942676
 21
1265.409495927205
 31
0.0
  0
TEXT
  5
DB
330
1F
100
AcDbEntity
  8
その他
  6
Continuous
 62
     2
370
   211
100
AcDbText
 10
16.44149705732389
 20
1330.886752034685
 30
0.0
 40
30.48
  1
3000
 41
1.09375
  7
ＭＳ ゴシック
100
AcDbText
  0
LINE
  5
DC
330
1F
100
AcDbEntity
  8
その他
  6
Continuous
 62
     7
370
     9
100
AcDbLine
 10
-1439.808502942676
 20
1319.246752034686
 30
0.0
 11
-1464.808502942676
 21
1319.246752034686
 31
0.0
  0
LWPOLYLINE
  5
DD
330
1F
100
AcDbEntity
  8
その他
  6
Continuous
 62
     7
370
     9
100
AcDbPolyline
 90
        4
 70
     1
 43
1.0
 10
-1464.308502942676
 20
1319.246752034686
 42
0.4142135623731
 10
-1464.808502942676
 20
1319.746752034686
 42
0.4142135623731
 10
-1465.308502942676
 20
1319.246752034686
 42
0.4142135623731
 10
-1464.808502942676
 20
1318.746752034686
 42
0.4142135623731
  0
LINE
  5
DE
330
1F
100
AcDbEntity
  8
その他
  6
Continuous
 62
     7
370
     9
100
AcDbLine
 10
-1464.808502942676
 20
1322.246752034686
 30
0.0
 11
-1464.808502942676
 21
1227.409503556599
 31
0.0
  0
TEXT
  5
DF
330
1F
100
AcDbEntity
  8
その他
  6
Continuous
 62
     2
370
   211
100
AcDbText
 10
-1473.558502942676
 20
1330.886752034685
 30
0.0
 40
30.48
  1
25
 41
1.0625
  7
ＭＳ ゴシック
100
AcDbText
  0
LINE
  5
E0
330
1F
100
AcDbEntity
  8
その他
  6
Continuous
 62
     7
370
     9
100
AcDbLine
 10
-1439.808502942676
 20
867.2495879599649
 30
0.0
 11
-1189.808502942676
 21
867.2495879599649
 31
0.0
  0
LWPOLYLINE
  5
E1
330
1F
100
AcDbEntity
  8
その他
  6
Continuous
 62
     7
370
     9
100
AcDbPolyline
 90
        4
 70
     1
 43
1.0
 10
-1439.308502942676
 20
867.2495879599649
 42
0.4142135623731
 10
-1439.808502942676
 20
867.7495879599649
 42
0.4142135623731
 10
-1440.308502942676
 20
867.2495879599649
 42
0.4142135623731
 10
-1439.808502942676
 20
866.7495879599649
 42
0.4142135623731
  0
LWPOLYLINE
  5
E2
330
1F
100
AcDbEntity
  8
その他
  6
Continuous
 62
     7
370
     9
100
AcDbPolyline
 90
        4
 70
     1
 43
1.0
 10
-1189.308502942676
 20
867.2495879599649
 42
0.4142135623731
 10
-1189.808502942676
 20
867.7495879599649
 42
0.4142135623731
 10
-1190.308502942676
 20
867.2495879599649
 42
0.4142135623731
 10
-1189.808502942676
 20
866.7495879599649
 42
0.4142135623731
  0
LINE
  5
E3
330
1F
100
AcDbEntity
  8
その他
  6
Continuous
 62
     7
370
     9
100
AcDbLine
 10
-1439.808502942676
 20
864.2495879599653
 30
0.0
 11
-1439.808502942676
 21
993.4095150006931
 31
0.0
  0
LINE
  5
E4
330
1F
100
AcDbEntity
  8
その他
  6
Continuous
 62
     7
370
     9
100
AcDbLine
 10
-1189.808502942676
 20
864.2495879599653
 30
0.0
 11
-1189.808502942676
 21
964.416663743367
 31
0.0
  0
TEXT
  5
E5
330
1F
100
AcDbEntity
  8
その他
  6
Continuous
 62
     2
370
   211
100
AcDbText
 10
-1347.308502942676
 20
878.8895879599662
 30
0.0
 40
30.48
  1
250
 41
1.083333333333333
  7
ＭＳ ゴシック
100
AcDbText
  0
LINE
  5
E6
330
1F
100
AcDbEntity
  8
その他
  6
Continuous
 62
     7
370
     9
100
AcDbLine
 10
-1189.808502942676
 20
867.2495879599649
 30
0.0
 11
-689.8085143867661
 21
867.2495879599649
 31
0.0
  0
LWPOLYLINE
  5
E7
330
1F
100
AcDbEntity
  8
その他
  6
Continuous
 62
     7
370
     9
100
AcDbPolyline
 90
        4
 70
     1
 43
1.0
 10
-689.3085143867661
 20
867.2495879599649
 42
0.4142135623731
 10
-689.8085143867661
 20
867.7495879599649
 42
0.4142135623731
 10
-690.3085143867661
 20
867.2495879599649
 42
0.4142135623731
 10
-689.8085143867661
 20
866.7495879599649
 42
0.4142135623731
  0
LINE
  5
E8
330
1F
100
AcDbEntity
  8
その他
  6
Continuous
 62
     7
370
     9
100
AcDbLine
 10
-689.8085143867661
 20
864.2495879599653
 30
0.0
 11
-689.8085143867661
 21
964.416663743367
 31
0.0
  0
TEXT
  5
E9
330
1F
100
AcDbEntity
  8
その他
  6
Continuous
 62
     2
370
   211
100
AcDbText
 10
-972.3085086647211
 20
878.8895879599662
 30
0.0
 40
30.48
  1
500
 41
1.083333333333333
  7
ＭＳ ゴシック
100
AcDbText
  0
LINE
  5
EA
330
1F
100
AcDbEntity
  8
その他
  6
Continuous
 62
     7
370
     9
100
AcDbLine
 10
-689.8085143867661
 20
867.2495879599649
 30
0.0
 11
-189.8085029426738
 21
867.2495879599649
 31
0.0
  0
LWPOLYLINE
  5
EB
330
1F
100
AcDbEntity
  8
その他
  6
Continuous
 62
     7
370
     9
100
AcDbPolyline
 90
        4
 70
     1
 43
1.0
 10
-189.3085029426738
 20
867.2495879599649
 42
0.4142135623731
 10
-189.8085029426738
 20
867.7495879599649
 42
0.4142135623731
 10
-190.3085029426738
 20
867.2495879599649
 42
0.4142135623731
 10
-189.8085029426738
 20
866.7495879599649
 42
0.4142135623731
  0
LINE
  5
EC
330
1F
100
AcDbEntity
  8
その他
  6
Continuous
 62
     7
370
     9
100
AcDbLine
 10
-189.8085029426738
 20
864.2495879599653
 30
0.0
 11
-189.8085029426738
 21
964.416663743367
 31
0.0
  0
TEXT
  5
ED
330
1F
100
AcDbEntity
  8
その他
  6
Continuous
 62
     2
370
   211
100
AcDbText
 10
-472.3085086647188
 20
878.8895879599662
 30
0.0
 40
30.48
  1
500
 41
1.083333333333333
  7
ＭＳ ゴシック
100
AcDbText
  0
LINE
  5
EE
330
1F
100
AcDbEntity
  8
その他
  6
Continuous
 62
     7
370
     9
100
AcDbLine
 10
-189.8085029426738
 20
867.2495879599649
 30
0.0
 11
310.1914970573262
 21
867.2495879599649
 31
0.0
  0
LWPOLYLINE
  5
EF
330
1F
100
AcDbEntity
  8
その他
  6
Continuous
 62
     7
370
     9
100
AcDbPolyline
 90
        4
 70
     1
 43
1.0
 10
310.6914970573262
 20
867.2495879599649
 42
0.4142135623731
 10
310.1914970573262
 20
867.7495879599649
 42
0.4142135623731
 10
309.6914970573262
 20
867.2495879599649
 42
0.4142135623731
 10
310.1914970573262
 20
866.7495879599649
 42
0.4142135623731
  0
LINE
  5
F0
330
1F
100
AcDbEntity
  8
その他
  6
Continuous
 62
     7
370
     9
100
AcDbLine
 10
310.1914970573262
 20
864.2495879599653
 30
0.0
 11
310.1914970573262
 21
964.416663743367
 31
0.0
  0
TEXT
  5
F1
330
1F
100
AcDbEntity
  8
その他
  6
Continuous
 62
     2
370
   211
100
AcDbText
 10
27.69149705732616
 20
878.8895879599662
 30
0.0
 40
30.48
  1
500
 41
1.083333333333333
  7
ＭＳ ゴシック
100
AcDbText
  0
LINE
  5
F2
330
1F
100
AcDbEntity
  8
その他
  6
Continuous
 62
     7
370
     9
100
AcDbLine
 10
310.1914970573262
 20
867.2495879599649
 30
0.0
 11
810.1915085014161
 21
867.2495879599649
 31
0.0
  0
LWPOLYLINE
  5
F3
330
1F
100
AcDbEntity
  8
その他
  6
Continuous
 62
     7
370
     9
100
AcDbPolyline
 90
        4
 70
     1
 43
1.0
 10
810.6915085014161
 20
867.2495879599649
 42
0.4142135623731
 10
810.1915085014161
 20
867.7495879599649
 42
0.4142135623731
 10
809.6915085014161
 20
867.2495879599649
 42
0.4142135623731
 10
810.1915085014161
 20
866.7495879599649
 42
0.4142135623731
  0
LINE
  5
F4
330
1F
100
AcDbEntity
  8
その他
  6
Continuous
 62
     7
370
     9
100
AcDbLine
 10
810.1915085014161
 20
864.2495879599653
 30
0.0
 11
810.1915085014161
 21
964.416663743367
 31
0.0
  0
TEXT
  5
F5
330
1F
100
AcDbEntity
  8
その他
  6
Continuous
 62
     2
370
   211
100
AcDbText
 10
527.6915027793711
 20
878.8895879599662
 30
0.0
 40
30.48
  1
500
 41
1.083333333333333
  7
ＭＳ ゴシック
100
AcDbText
  0
LINE
  5
F6
330
1F
100
AcDbEntity
  8
その他
  6
Continuous
 62
     7
370
     9
100
AcDbLine
 10
810.1915085014161
 20
867.2495879599649
 30
0.0
 11
1310.191497057326
 21
867.2495879599649
 31
0.0
  0
LWPOLYLINE
  5
F7
330
1F
100
AcDbEntity
  8
その他
  6
Continuous
 62
     7
370
     9
100
AcDbPolyline
 90
        4
 70
     1
 43
1.0
 10
1310.691497057326
 20
867.2495879599649
 42
0.4142135623731
 10
1310.191497057326
 20
867.7495879599649
 42
0.4142135623731
 10
1309.691497057326
 20
867.2495879599649
 42
0.4142135623731
 10
1310.191497057326
 20
866.7495879599649
 42
0.4142135623731
  0
LINE
  5
F8
330
1F
100
AcDbEntity
  8
その他
  6
Continuous
 62
     7
370
     9
100
AcDbLine
 10
1310.191497057326
 20
864.2495879599653
 30
0.0
 11
1310.191497057326
 21
964.416663743367
 31
0.0
  0
TEXT
  5
F9
330
1F
100
AcDbEntity
  8
その他
  6
Continuous
 62
     2
370
   211
100
AcDbText
 10
1027.691502779371
 20
878.8895879599662
 30
0.0
 40
30.48
  1
500
 41
1.083333333333333
  7
ＭＳ ゴシック
100
AcDbText
  0
LINE
  5
FA
330
1F
100
AcDbEntity
  8
その他
  6
Continuous
 62
     7
370
     9
100
AcDbLine
 10
1310.191497057326
 20
867.2495879599649
 30
0.0
 11
1560.191497057326
 21
867.2495879599649
 31
0.0
  0
LWPOLYLINE
  5
FB
330
1F
100
AcDbEntity
  8
その他
  6
Continuous
 62
     7
370
     9
100
AcDbPolyline
 90
        4
 70
     1
 43
1.0
 10
1560.691497057326
 20
867.2495879599649
 42
0.4142135623731
 10
1560.191497057326
 20
867.7495879599649
 42
0.4142135623731
 10
1559.691497057326
 20
867.2495879599649
 42
0.4142135623731
 10
1560.191497057326
 20
866.7495879599649
 42
0.4142135623731
  0
LINE
  5
FC
330
1F
100
AcDbEntity
  8
その他
  6
Continuous
 62
     7
370
     9
100
AcDbLine
 10
1560.191497057326
 20
864.2495879599653
 30
0.0
 11
1560.191497057326
 21
993.4095150006931
 31
0.0
  0
TEXT
  5
FD
330
1F
100
AcDbEntity
  8
その他
  6
Continuous
 62
     2
370
   211
100
AcDbText
 10
1402.691497057326
 20
878.8895879599662
 30
0.0
 40
30.48
  1
250
 41
1.083333333333333
  7
ＭＳ ゴシック
100
AcDbText
  0
LWPOLYLINE
  5
FE
330
1F
100
AcDbEntity
  8
その他
  6
Continuous
 62
     7
370
     9
100
AcDbPolyline
 90
        4
 70
     1
 43
1.0
 10
-1526.525600740949
 20
807.5530638781572
 42
0.4142135623731
 10
-1527.025600740949
 20
808.0530638781572
 42
0.4142135623731
 10
-1527.525600740949
 20
807.5530638781572
 42
0.4142135623731
 10
-1527.025600740949
 20
807.0530638781572
 42
0.4142135623731
  0
LINE
  5
FF
330
1F
100
AcDbEntity
  8
その他
  6
Continuous
 62
     7
370
     9
100
AcDbLine
 10
-1530.025600740946
 20
807.5530638781572
 30
0.0
 11
-1459.808502942676
 21
807.5530638781572
 31
0.0
  0
LINE
  5
100
330
1F
100
AcDbEntity
  8
その他
  6
Continuous
 62
     7
370
     9
100
AcDbLine
 10
-1527.025600740949
 20
807.5530638781572
 30
0.0
 11
-1527.025600740949
 21
742.5530638781572
 31
0.0
  0
LWPOLYLINE
  5
101
330
1F
100
AcDbEntity
  8
その他
  6
Continuous
 62
     7
370
     9
100
AcDbPolyline
 90
        4
 70
     1
 43
1.0
 10
-1526.525600740949
 20
742.5530638781572
 42
0.4142135623731
 10
-1527.025600740949
 20
743.0530638781572
 42
0.4142135623731
 10
-1527.525600740949
 20
742.5530638781572
 42
0.4142135623731
 10
-1527.025600740949
 20
742.0530638781572
 42
0.4142135623731
  0
LINE
  5
102
330
1F
100
AcDbEntity
  8
その他
  6
Continuous
 62
     7
370
     9
100
AcDbLine
 10
-1530.025600740946
 20
742.5530638781572
 30
0.0
 11
-1459.808502942676
 21
742.5530638781572
 31
0.0
  0
LINE
  5
103
330
1F
100
AcDbEntity
  8
建具
  6
Continuous
 62
     4
370
     9
100
AcDbLine
 10
-1439.808502942676
 20
790.0530638781572
 30
0.0
 11
1560.191497057326
 21
790.0530638781572
 31
0.0
  0
LINE
  5
104
330
1F
100
AcDbEntity
  8
建具
  6
Continuous
 62
     4
370
     9
100
AcDbLine
 10
-1439.808502942676
 20
807.5530638781572
 30
0.0
 11
1560.191497057326
 21
807.5530638781572
 31
0.0
  0
LINE
  5
105
330
1F
100
AcDbEntity
  8
建具
  6
Continuous
 62
     4
370
     9
100
AcDbLine
 10
-1439.808502942676
 20
799.5530638781577
 30
0.0
 11
1560.191497057326
 21
799.5530638781577
 31
0.0
  0
LINE
  5
106
330
1F
100
AcDbEntity
  8
建具
  6
Continuous
 62
     4
370
     9
100
AcDbLine
 10
-1439.808502942676
 20
807.5530638781572
 30
0.0
 11
-1439.808502942676
 21
785.0530638781572
 31
0.0
  0
LINE
  5
107
330
1F
100
AcDbEntity
  8
建具
  6
Continuous
 62
     4
370
     9
100
AcDbLine
 10
1560.191497057326
 20
807.5530638781572
 30
0.0
 11
1560.191497057326
 21
717.5530638781572
 31
0.0
  0
LINE
  5
108
330
1F
100
AcDbEntity
  8
建具
  6
Continuous
 62
     4
370
     9
100
AcDbLine
 10
-1414.808502942676
 20
751.7350961452041
 30
0.0
 11
1560.191497057326
 21
726.9434294785367
 31
0.0
  0
LINE
  5
109
330
1F
100
AcDbEntity
  8
建具
  6
Continuous
 62
     4
370
     9
100
AcDbLine
 10
-1414.808502942676
 20
742.3447305448224
 30
0.0
 11
1560.191497057326
 21
717.5530638781572
 31
0.0
  0
LINE
  5
10A
330
1F
100
AcDbEntity
  8
建具
  6
JWW_DASHED3
 62
     4
370
     9
100
AcDbLine
 10
-1439.808502942676
 20
785.0530638781572
 30
0.0
 11
-1439.808502942676
 21
742.5530638781572
 31
0.0
  0
LINE
  5
10B
330
1F
100
AcDbEntity
  8
建具
  6
JWW_DASHED3
 62
     4
370
     9
100
AcDbLine
 10
-1439.730255329869
 20
751.9427774150961
 30
0.0
 11
-1414.808502942676
 21
751.7350961452041
 31
0.0
  0
LINE
  5
10C
330
1F
100
AcDbEntity
  8
建具
  6
JWW_DASHED3
 62
     4
370
     9
100
AcDbLine
 10
-1439.808502942676
 20
742.5530638781572
 30
0.0
 11
-1414.808502942676
 21
742.3447305448224
 31
0.0
  0
LINE
  5
10D
330
1F
100
AcDbEntity
  8
仕上
  6
Continuous
 62
     3
370
     9
100
AcDbLine
 10
-1204.808502942676
 20
788.5530638781563
 30
0.0
 11
-1174.808502942676
 21
788.5530638781563
 31
0.0
  0
LINE
  5
10E
330
1F
100
AcDbEntity
  8
仕上
  6
Continuous
 62
     3
370
     9
100
AcDbLine
 10
-1204.808502942676
 20
788.5530638781563
 30
0.0
 11
-1204.808502942676
 21
790.0530638781572
 31
0.0
  0
LINE
  5
10F
330
1F
100
AcDbEntity
  8
仕上
  6
Continuous
 62
     3
370
     9
100
AcDbLine
 10
-1174.808502942676
 20
788.5530638781563
 30
0.0
 11
-1174.808502942676
 21
790.0530638781572
 31
0.0
  0
LINE
  5
110
330
1F
100
AcDbEntity
  8
仕上
  6
Continuous
 62
     3
370
     9
100
AcDbLine
 10
-704.8085029426761
 20
788.5530638781563
 30
0.0
 11
-674.8085029426761
 21
788.5530638781563
 31
0.0
  0
LINE
  5
111
330
1F
100
AcDbEntity
  8
仕上
  6
Continuous
 62
     3
370
     9
100
AcDbLine
 10
-704.8085029426761
 20
788.5530638781563
 30
0.0
 11
-704.8085029426761
 21
790.0530638781572
 31
0.0
  0
LINE
  5
112
330
1F
100
AcDbEntity
  8
仕上
  6
Continuous
 62
     3
370
     9
100
AcDbLine
 10
-674.8085029426761
 20
788.5530638781563
 30
0.0
 11
-674.8085029426761
 21
790.0530638781572
 31
0.0
  0
LINE
  5
113
330
1F
100
AcDbEntity
  8
仕上
  6
Continuous
 62
     3
370
     9
100
AcDbLine
 10
-204.8085029426738
 20
788.5530638781563
 30
0.0
 11
-174.8085029426738
 21
788.5530638781563
 31
0.0
  0
LINE
  5
114
330
1F
100
AcDbEntity
  8
仕上
  6
Continuous
 62
     3
370
     9
100
AcDbLine
 10
-204.8085029426738
 20
788.5530638781563
 30
0.0
 11
-204.8085029426738
 21
790.0530638781572
 31
0.0
  0
LINE
  5
115
330
1F
100
AcDbEntity
  8
仕上
  6
Continuous
 62
     3
370
     9
100
AcDbLine
 10
-174.8085029426738
 20
788.5530638781563
 30
0.0
 11
-174.8085029426738
 21
790.0530638781572
 31
0.0
  0
LINE
  5
116
330
1F
100
AcDbEntity
  8
仕上
  6
Continuous
 62
     3
370
     9
100
AcDbLine
 10
295.1914970573262
 20
788.5530638781563
 30
0.0
 11
325.1914970573262
 21
788.5530638781563
 31
0.0
  0
LINE
  5
117
330
1F
100
AcDbEntity
  8
仕上
  6
Continuous
 62
     3
370
     9
100
AcDbLine
 10
295.1914970573262
 20
788.5530638781563
 30
0.0
 11
295.1914970573262
 21
790.0530638781572
 31
0.0
  0
LINE
  5
118
330
1F
100
AcDbEntity
  8
仕上
  6
Continuous
 62
     3
370
     9
100
AcDbLine
 10
325.1914970573262
 20
788.5530638781563
 30
0.0
 11
325.1914970573262
 21
790.0530638781572
 31
0.0
  0
LINE
  5
119
330
1F
100
AcDbEntity
  8
仕上
  6
Continuous
 62
     3
370
     9
100
AcDbLine
 10
795.1914970573262
 20
788.5530638781563
 30
0.0
 11
825.1914970573262
 21
788.5530638781563
 31
0.0
  0
LINE
  5
11A
330
1F
100
AcDbEntity
  8
仕上
  6
Continuous
 62
     3
370
     9
100
AcDbLine
 10
795.1914970573262
 20
788.5530638781563
 30
0.0
 11
795.1914970573262
 21
790.0530638781572
 31
0.0
  0
LINE
  5
11B
330
1F
100
AcDbEntity
  8
仕上
  6
Continuous
 62
     3
370
     9
100
AcDbLine
 10
825.1914970573262
 20
788.5530638781563
 30
0.0
 11
825.1914970573262
 21
790.0530638781572
 31
0.0
  0
LINE
  5
11C
330
1F
100
AcDbEntity
  8
仕上
  6
Continuous
 62
     3
370
     9
100
AcDbLine
 10
1295.191497057326
 20
788.5530638781563
 30
0.0
 11
1325.191497057326
 21
788.5530638781563
 31
0.0
  0
LINE
  5
11D
330
1F
100
AcDbEntity
  8
仕上
  6
Continuous
 62
     3
370
     9
100
AcDbLine
 10
1295.191497057326
 20
788.5530638781563
 30
0.0
 11
1295.191497057326
 21
790.0530638781572
 31
0.0
  0
LINE
  5
11E
330
1F
100
AcDbEntity
  8
仕上
  6
Continuous
 62
     3
370
     9
100
AcDbLine
 10
1325.191497057326
 20
788.5530638781563
 30
0.0
 11
1325.191497057326
 21
790.0530638781572
 31
0.0
  0
LINE
  5
11F
330
1F
100
AcDbEntity
  8
仕上
  6
Continuous
 62
     3
370
     9
100
AcDbLine
 10
1295.191497057326
 20
790.0530638781572
 30
0.0
 11
1325.191497057326
 21
790.0530638781572
 31
0.0
  0
LINE
  5
120
330
1F
100
AcDbEntity
  8
仕上
  6
Continuous
 62
     3
370
     9
100
AcDbLine
 10
795.1915085014161
 20
790.0530638781572
 30
0.0
 11
825.1915085014161
 21
790.0530638781572
 31
0.0
  0
LINE
  5
121
330
1F
100
AcDbEntity
  8
仕上
  6
Continuous
 62
     3
370
     9
100
AcDbLine
 10
295.1914970573262
 20
790.0530638781572
 30
0.0
 11
325.1914970573262
 21
790.0530638781572
 31
0.0
  0
LINE
  5
122
330
1F
100
AcDbEntity
  8
仕上
  6
Continuous
 62
     3
370
     9
100
AcDbLine
 10
-204.8085029426738
 20
790.0530638781572
 30
0.0
 11
-174.8085029426738
 21
790.0530638781572
 31
0.0
  0
LINE
  5
123
330
1F
100
AcDbEntity
  8
仕上
  6
Continuous
 62
     3
370
     9
100
AcDbLine
 10
-704.8085143867661
 20
790.0530638781572
 30
0.0
 11
-674.8085143867661
 21
790.0530638781572
 31
0.0
  0
LINE
  5
124
330
1F
100
AcDbEntity
  8
仕上
  6
Continuous
 62
     3
370
     9
100
AcDbLine
 10
-1204.808502942676
 20
790.0530638781572
 30
0.0
 11
-1174.808502942676
 21
790.0530638781572
 31
0.0
  0
LINE
  5
125
330
1F
100
AcDbEntity
  8
躯体
  6
Continuous
 62
     2
370
     9
100
AcDbLine
 10
-1464.808502942676
 20
785.0530638781572
 30
0.0
 11
-1414.808502942676
 21
785.0530638781572
 31
0.0
  0
LINE
  5
126
330
1F
100
AcDbEntity
  8
躯体
  6
Continuous
 62
     2
370
     9
100
AcDbLine
 10
-1414.808502942676
 20
752.6382175723631
 30
0.0
 11
-1464.808502942676
 21
753.0815509056981
 31
0.0
  0
LINE
  5
127
330
1F
100
AcDbEntity
  8
躯体
  6
Continuous
 62
     2
370
     9
100
AcDbLine
 10
-1414.808502942676
 20
740.827730544803
 30
0.0
 11
-1464.808502942676
 21
741.2710638781357
 31
0.0
  0
LINE
  5
128
330
1F
100
AcDbEntity
  8
躯体
  6
Continuous
 62
     2
370
     9
100
AcDbLine
 10
-1464.808502942676
 20
785.0530638781572
 30
0.0
 11
-1464.808502942676
 21
741.2710638781357
 31
0.0
  0
LINE
  5
129
330
1F
100
AcDbEntity
  8
躯体
  6
Continuous
 62
     2
370
     9
100
AcDbLine
 10
-1414.808502942676
 20
785.0530638781572
 30
0.0
 11
-1414.808502942676
 21
740.827730544803
 31
0.0
  0
TEXT
  5
12A
330
1F
100
AcDbEntity
  8
その他
  6
Continuous
 62
     2
370
   211
100
AcDbText
 10
-1538.665600740948
 20
732.5530638781572
 30
0.0
 40
30.48
  1
Ｈ１
 50
90.0
 41
1.0625
  7
ＭＳ ゴシック
100
AcDbText
  0
LWPOLYLINE
  5
12B
330
1F
100
AcDbEntity
  8
その他
  6
Continuous
 62
     7
370
     9
100
AcDbPolyline
 90
        4
 70
     1
 43
1.0
 10
1643.479523911216
 20
807.5530638781572
 42
0.4142135623731
 10
1642.979523911216
 20
808.0530638781572
 42
0.4142135623731
 10
1642.479523911216
 20
807.5530638781572
 42
0.4142135623731
 10
1642.979523911216
 20
807.0530638781572
 42
0.4142135623731
  0
LINE
  5
12C
330
1F
100
AcDbEntity
  8
その他
  6
Continuous
 62
     7
370
     9
100
AcDbLine
 10
1645.979523911218
 20
807.5530638781572
 30
0.0
 11
1580.191497057326
 21
807.5530638781572
 31
0.0
  0
LINE
  5
12D
330
1F
100
AcDbEntity
  8
その他
  6
Continuous
 62
     7
370
     9
100
AcDbLine
 10
1642.979523911216
 20
807.5530638781572
 30
0.0
 11
1642.979523911216
 21
717.5530638781572
 31
0.0
  0
LWPOLYLINE
  5
12E
330
1F
100
AcDbEntity
  8
その他
  6
Continuous
 62
     7
370
     9
100
AcDbPolyline
 90
        4
 70
     1
 43
1.0
 10
1643.479523911216
 20
717.5530638781572
 42
0.4142135623731
 10
1642.979523911216
 20
718.0530638781572
 42
0.4142135623731
 10
1642.479523911216
 20
717.5530638781572
 42
0.4142135623731
 10
1642.979523911216
 20
717.0530638781572
 42
0.4142135623731
  0
LINE
  5
12F
330
1F
100
AcDbEntity
  8
その他
  6
Continuous
 62
     7
370
     9
100
AcDbLine
 10
1645.979523911218
 20
717.5530638781572
 30
0.0
 11
1580.191497057326
 21
717.5530638781572
 31
0.0
  0
TEXT
  5
130
330
1F
100
AcDbEntity
  8
その他
  6
Continuous
 62
     2
370
   211
100
AcDbText
 10
1693.721386008749
 20
720.0530638781572
 30
0.0
 40
30.48
  1
Ｈ２
 50
90.0
 41
1.0625
  7
ＭＳ ゴシック
100
AcDbText
  0
LINE
  5
131
330
1F
100
AcDbEntity
  8
D-0
  6
Continuous
 62
     7
370
     9
100
AcDbLine
 10
1748.634145779611
 20
-818.0005656798392
 30
0.0
 11
1748.634145779611
 21
-883.0003912936775
 31
0.0
  0
LINE
  5
132
330
1F
100
AcDbEntity
  8
D-0
  6
Continuous
 62
     7
370
     9
100
AcDbLine
 10
1748.634145779611
 20
-948.0002169075169
 30
0.0
 11
1748.634145779611
 21
-1013.000042521356
 31
0.0
  0
TEXT
  5
133
330
1F
100
AcDbEntity
  8
D-F
  6
Continuous
 62
     2
370
     9
100
AcDbText
 10
871.3497483005881
 20
-258.1080822403188
 30
0.0
 40
30.48
  1
Ｗ１
 41
1.0625
  7
ＭＳ ゴシック
100
AcDbText
  0
LINE
  5
134
330
1F
100
AcDbEntity
  8
D-0
  6
Continuous
 62
     7
370
     9
100
AcDbLine
 10
506.8489768108952
 20
-169.0535887976273
 30
0.0
 11
691.2536990467356
 21
-169.0535887976273
 31
0.0
  0
TEXT
  5
135
330
1F
100
AcDbEntity
  8
D-F
  6
Continuous
 62
     2
370
     9
100
AcDbText
 10
529.5143158058113
 20
-150.6634884077558
 30
0.0
 40
30.48
  1
寸法表
 41
1.083333333333333
  7
ＭＳ ゴシック
100
AcDbText
  0
TEXT
  5
136
330
1F
100
AcDbEntity
  8
D-F
  6
Continuous
 62
     2
370
     9
100
AcDbText
 10
574.442573399067
 20
-258.1080822403188
 30
0.0
 40
30.48
  1
製品符号
 41
1.09375
  7
ＭＳ ゴシック
100
AcDbText
  0
TEXT
  5
137
330
1F
100
AcDbEntity
  8
D-F
  6
Continuous
 62
     2
370
     9
100
AcDbText
 10
528.192573399067
 20
-344.861550725993
 30
0.0
 40
30.48
  1
STWV-150-S01
 41
1.114583333333333
  7
ＭＳ ゴシック
100
AcDbText
  0
TEXT
  5
138
330
1F
100
AcDbEntity
  8
D-F
  6
Continuous
 62
     2
370
     9
100
AcDbText
 10
529.442573399067
 20
-409.8613763398313
 30
0.0
 40
30.48
  1
STWV-150-S01F
 41
1.115384615384615
  7
ＭＳ ゴシック
100
AcDbText
  0
LINE
  5
139
330
1F
100
AcDbEntity
  8
D-0
  6
Continuous
 62
     7
370
     9
100
AcDbLine
 10
837.9602576206776
 20
-1077.999868135195
 30
0.0
 11
837.9602576206776
 21
-198.9397205261059
 31
0.0
  0
LINE
  5
13A
330
1F
100
AcDbEntity
  8
D-0
  6
Continuous
 62
     7
370
     9
100
AcDbLine
 10
506.8489768108952
 20
-198.9397205261059
 30
0.0
 11
506.8489768108952
 21
-1080.800834275345
 31
0.0
  0
TEXT
  5
13B
330
1F
100
AcDbEntity
  8
D-F
  6
Continuous
 62
     2
370
     9
100
AcDbText
 10
529.442573399067
 20
-474.8612019536707
 30
0.0
 40
30.48
  1
STWV-150-S02
 41
1.114583333333333
  7
ＭＳ ゴシック
100
AcDbText
  0
TEXT
  5
13C
330
1F
100
AcDbEntity
  8
D-F
  6
Continuous
 62
     2
370
     9
100
AcDbText
 10
529.442573399067
 20
-539.8610275675102
 30
0.0
 40
30.48
  1
STWV-150-S02F
 41
1.115384615384615
  7
ＭＳ ゴシック
100
AcDbText
  0
TEXT
  5
13D
330
1F
100
AcDbEntity
  8
D-F
  6
Continuous
 62
     2
370
     9
100
AcDbText
 10
529.442573399067
 20
-604.8608531813485
 30
0.0
 40
30.48
  1
STWV-150-S03
 41
1.114583333333333
  7
ＭＳ ゴシック
100
AcDbText
  0
TEXT
  5
13E
330
1F
100
AcDbEntity
  8
D-F
  6
Continuous
 62
     2
370
     9
100
AcDbText
 10
529.442573399067
 20
-669.8606787951868
 30
0.0
 40
30.48
  1
STWV-150-S03F
 41
1.115384615384615
  7
ＭＳ ゴシック
100
AcDbText
  0
TEXT
  5
13F
330
1F
100
AcDbEntity
  8
D-F
  6
Continuous
 62
     2
370
     9
100
AcDbText
 10
528.192573399067
 20
-734.860854359633
 30
0.0
 40
30.48
  1
STWV-200-S01
 41
1.114583333333333
  7
ＭＳ ゴシック
100
AcDbText
  0
TEXT
  5
140
330
1F
100
AcDbEntity
  8
D-F
  6
Continuous
 62
     2
370
     9
100
AcDbText
 10
529.442573399067
 20
-799.8606799734713
 30
0.0
 40
30.48
  1
STWV-200-S01F
 41
1.115384615384615
  7
ＭＳ ゴシック
100
AcDbText
  0
TEXT
  5
141
330
1F
100
AcDbEntity
  8
D-F
  6
Continuous
 62
     2
370
     9
100
AcDbText
 10
529.442573399067
 20
-864.8605055873107
 30
0.0
 40
30.48
  1
STWV-200-S02
 41
1.114583333333333
  7
ＭＳ ゴシック
100
AcDbText
  0
TEXT
  5
142
330
1F
100
AcDbEntity
  8
D-F
  6
Continuous
 62
     2
370
     9
100
AcDbText
 10
529.442573399067
 20
-929.8603312011502
 30
0.0
 40
30.48
  1
STWV-200-S02F
 41
1.115384615384615
  7
ＭＳ ゴシック
100
AcDbText
  0
TEXT
  5
143
330
1F
100
AcDbEntity
  8
D-F
  6
Continuous
 62
     2
370
     9
100
AcDbText
 10
529.442573399067
 20
-994.8601568149885
 30
0.0
 40
30.48
  1
STWV-200-S03
 41
1.114583333333333
  7
ＭＳ ゴシック
100
AcDbText
  0
TEXT
  5
144
330
1F
100
AcDbEntity
  8
D-F
  6
Continuous
 62
     2
370
     9
100
AcDbText
 10
529.442573399067
 20
-1059.859982428827
 30
0.0
 40
30.48
  1
STWV-200-S03F
 41
1.115384615384615
  7
ＭＳ ゴシック
100
AcDbText
  0
LINE
  5
145
330
1F
100
AcDbEntity
  8
D-0
  6
Continuous
 62
     7
370
     9
100
AcDbLine
 10
837.9602576206776
 20
-623.001088838322
 30
0.0
 11
506.8489768108952
 21
-623.001088838322
 31
0.0
  0
LINE
  5
146
330
1F
100
AcDbEntity
  8
D-0
  6
Continuous
 62
     7
370
     9
100
AcDbLine
 10
837.9602576206776
 20
-558.0012632244836
 30
0.0
 11
506.8489768108952
 21
-558.0012632244836
 31
0.0
  0
LINE
  5
147
330
1F
100
AcDbEntity
  8
D-0
  6
Continuous
 62
     7
370
     9
100
AcDbLine
 10
837.9602576206776
 20
-363.0017863829664
 30
0.0
 11
506.8489768108952
 21
-363.0017863829664
 31
0.0
  0
LINE
  5
148
330
1F
100
AcDbEntity
  8
D-0
  6
Continuous
 62
     7
370
     9
100
AcDbLine
 10
837.9602576206776
 20
-428.0016119968059
 30
0.0
 11
506.8489768108952
 21
-428.0016119968059
 31
0.0
  0
LINE
  5
149
330
1F
100
AcDbEntity
  8
D-0
  6
Continuous
 62
     7
370
     9
100
AcDbLine
 10
837.9602576206776
 20
-493.0014376106453
 30
0.0
 11
506.8489768108952
 21
-493.0014376106453
 31
0.0
  0
LINE
  5
14A
330
1F
100
AcDbEntity
  8
D-0
  6
Continuous
 62
     7
370
     9
100
AcDbLine
 10
837.9602576206776
 20
-753.0007400660008
 30
0.0
 11
506.8489768108952
 21
-753.0007400660008
 31
0.0
  0
LINE
  5
14B
330
1F
100
AcDbEntity
  8
D-0
  6
Continuous
 62
     7
370
     9
100
AcDbLine
 10
837.9602576206776
 20
-1013.000042521356
 30
0.0
 11
506.8489768108952
 21
-1013.000042521356
 31
0.0
  0
LINE
  5
14C
330
1F
100
AcDbEntity
  8
D-0
  6
Continuous
 62
     7
370
     9
100
AcDbLine
 10
837.9602576206776
 20
-818.0005656798392
 30
0.0
 11
506.8489768108952
 21
-818.0005656798392
 31
0.0
  0
LINE
  5
14D
330
1F
100
AcDbEntity
  8
D-0
  6
Continuous
 62
     7
370
     9
100
AcDbLine
 10
837.9602576206776
 20
-883.0003912936775
 30
0.0
 11
506.8489768108952
 21
-883.0003912936775
 31
0.0
  0
LINE
  5
14E
330
1F
100
AcDbEntity
  8
D-0
  6
Continuous
 62
     7
370
     9
100
AcDbLine
 10
837.9602576206776
 20
-948.0002169075169
 30
0.0
 11
506.8489768108952
 21
-948.0002169075169
 31
0.0
  0
LINE
  5
14F
330
1F
100
AcDbEntity
  8
D-0
  6
Continuous
 62
     7
370
     9
100
AcDbLine
 10
989.7392389804986
 20
-198.9397205261059
 30
0.0
 11
989.7392389804986
 21
-1077.999868135195
 31
0.0
  0
TEXT
  5
150
330
1F
100
AcDbEntity
  8
D-F
  6
Continuous
 62
     2
370
     9
100
AcDbText
 10
881.3497483005881
 20
-507.3612626353414
 30
0.0
 40
30.48
  1
150
 41
1.083333333333333
  7
ＭＳ ゴシック
100
AcDbText
  0
TEXT
  5
151
330
1F
100
AcDbEntity
  8
D-F
  6
Continuous
 62
     2
370
     9
100
AcDbText
 10
881.3497483005881
 20
-897.3602163183747
 30
0.0
 40
30.48
  1
200
 41
1.083333333333333
  7
ＭＳ ゴシック
100
AcDbText
  0
LINE
  5
152
330
1F
100
AcDbEntity
  8
D-0
  6
Continuous
 62
     7
370
     9
100
AcDbLine
 10
1141.518220340322
 20
-198.9397205261059
 30
0.0
 11
1141.518220340322
 21
-1077.999868135195
 31
0.0
  0
LINE
  5
153
330
1F
100
AcDbEntity
  8
D-0
  6
Continuous
 62
     7
370
     9
100
AcDbLine
 10
1293.297201700145
 20
-198.9397205261059
 30
0.0
 11
1293.297201700145
 21
-1077.999868135195
 31
0.0
  0
TEXT
  5
154
330
1F
100
AcDbEntity
  8
D-F
  6
Continuous
 62
     2
370
     9
100
AcDbText
 10
1023.128729660409
 20
-258.1080822403188
 30
0.0
 40
30.48
  1
Ｗ２
 41
1.0625
  7
ＭＳ ゴシック
100
AcDbText
  0
TEXT
  5
155
330
1F
100
AcDbEntity
  8
D-F
  6
Continuous
 62
     2
370
     9
100
AcDbText
 10
1174.907711020232
 20
-258.1080822403188
 30
0.0
 40
30.48
  1
Ｗ３
 41
1.0625
  7
ＭＳ ゴシック
100
AcDbText
  0
TEXT
  5
156
330
1F
100
AcDbEntity
  8
D-F
  6
Continuous
 62
     2
370
     9
100
AcDbText
 10
1033.128729660409
 20
-507.3612626353414
 30
0.0
 40
30.48
  1
202
 41
1.083333333333333
  7
ＭＳ ゴシック
100
AcDbText
  0
TEXT
  5
157
330
1F
100
AcDbEntity
  8
D-F
  6
Continuous
 62
     2
370
     9
100
AcDbText
 10
1033.128729660409
 20
-897.3602163183747
 30
0.0
 40
30.48
  1
252
 41
1.083333333333333
  7
ＭＳ ゴシック
100
AcDbText
  0
TEXT
  5
158
330
1F
100
AcDbEntity
  8
D-F
  6
Continuous
 62
     2
370
     9
100
AcDbText
 10
1184.907711020232
 20
-507.3612626353414
 30
0.0
 40
30.48
  1
232
 41
1.083333333333333
  7
ＭＳ ゴシック
100
AcDbText
  0
TEXT
  5
159
330
1F
100
AcDbEntity
  8
D-F
  6
Continuous
 62
     2
370
     9
100
AcDbText
 10
1184.907711020232
 20
-897.3602163183747
 30
0.0
 40
30.48
  1
282
 41
1.083333333333333
  7
ＭＳ ゴシック
100
AcDbText
  0
LINE
  5
15A
330
1F
100
AcDbEntity
  8
D-0
  6
Continuous
 62
     7
370
     9
100
AcDbLine
 10
1596.855164419787
 20
-198.9397205261059
 30
0.0
 11
1596.855164419787
 21
-1077.999868135195
 31
0.0
  0
TEXT
  5
15B
330
1F
100
AcDbEntity
  8
D-F
  6
Continuous
 62
     2
370
     9
100
AcDbText
 10
1326.686692380056
 20
-258.1080822403188
 30
0.0
 40
30.48
  1
Ｈ１
 41
1.0625
  7
ＭＳ ゴシック
100
AcDbText
  0
TEXT
  5
15C
330
1F
100
AcDbEntity
  8
D-F
  6
Continuous
 62
     2
370
     9
100
AcDbText
 10
1478.465673739877
 20
-258.1080822403188
 30
0.0
 40
30.48
  1
Ｈ２
 41
1.0625
  7
ＭＳ ゴシック
100
AcDbText
  0
TEXT
  5
15D
330
1F
100
AcDbEntity
  8
D-F
  6
Continuous
 62
     2
370
     9
100
AcDbText
 10
1347.936692380056
 20
-344.861550725993
 30
0.0
 40
30.48
  1
65
 41
1.0625
  7
ＭＳ ゴシック
100
AcDbText
  0
TEXT
  5
15E
330
1F
100
AcDbEntity
  8
D-F
  6
Continuous
 62
     2
370
     9
100
AcDbText
 10
1499.715673739877
 20
-344.861550725993
 30
0.0
 40
30.48
  1
90
 41
1.0625
  7
ＭＳ ゴシック
100
AcDbText
  0
TEXT
  5
15F
330
1F
100
AcDbEntity
  8
D-F
  6
Continuous
 62
     2
370
     9
100
AcDbText
 10
1423.826183059966
 20
-409.8613763398313
 30
0.0
 40
30.48
  1
90
 41
1.0625
  7
ＭＳ ゴシック
100
AcDbText
  0
LINE
  5
160
330
1F
100
AcDbEntity
  8
D-0
  6
Continuous
 62
     7
370
     9
100
AcDbLine
 10
1445.076183059966
 20
-198.9397205261059
 30
0.0
 11
1445.076183059966
 21
-363.0017863829664
 31
0.0
  0
LINE
  5
161
330
1F
100
AcDbEntity
  8
D-0
  6
Continuous
 62
     7
370
     9
100
AcDbLine
 10
1445.076183059966
 20
-428.0016119968059
 30
0.0
 11
1445.076183059966
 21
-493.0014376106453
 31
0.0
  0
LINE
  5
162
330
1F
100
AcDbEntity
  8
D-0
  6
Continuous
 62
     7
370
     9
100
AcDbLine
 10
1445.076183059966
 20
-558.0012632244836
 30
0.0
 11
1445.076183059966
 21
-623.001088838322
 31
0.0
  0
TEXT
  5
163
330
1F
100
AcDbEntity
  8
D-F
  6
Continuous
 62
     2
370
     9
100
AcDbText
 10
1347.936692380056
 20
-474.8615519042775
 30
0.0
 40
30.48
  1
90
 41
1.0625
  7
ＭＳ ゴシック
100
AcDbText
  0
TEXT
  5
164
330
1F
100
AcDbEntity
  8
D-F
  6
Continuous
 62
     2
370
     9
100
AcDbText
 10
1488.465673739877
 20
-474.8615519042775
 30
0.0
 40
30.48
  1
115
 41
1.083333333333333
  7
ＭＳ ゴシック
100
AcDbText
  0
TEXT
  5
165
330
1F
100
AcDbEntity
  8
D-F
  6
Continuous
 62
     2
370
     9
100
AcDbText
 10
1412.576183059966
 20
-539.8613775181158
 30
0.0
 40
30.48
  1
115
 41
1.083333333333333
  7
ＭＳ ゴシック
100
AcDbText
  0
TEXT
  5
166
330
1F
100
AcDbEntity
  8
D-F
  6
Continuous
 62
     2
370
     9
100
AcDbText
 10
1336.686692380056
 20
-604.8612031319552
 30
0.0
 40
30.48
  1
115
 41
1.083333333333333
  7
ＭＳ ゴシック
100
AcDbText
  0
TEXT
  5
167
330
1F
100
AcDbEntity
  8
D-F
  6
Continuous
 62
     2
370
     9
100
AcDbText
 10
1488.465673739877
 20
-604.8612031319552
 30
0.0
 40
30.48
  1
140
 41
1.083333333333333
  7
ＭＳ ゴシック
100
AcDbText
  0
TEXT
  5
168
330
1F
100
AcDbEntity
  8
D-F
  6
Continuous
 62
     2
370
     9
100
AcDbText
 10
1412.576183059966
 20
-669.8610287457947
 30
0.0
 40
30.48
  1
140
 41
1.083333333333333
  7
ＭＳ ゴシック
100
AcDbText
  0
TEXT
  5
169
330
1F
100
AcDbEntity
  8
D-F
  6
Continuous
 62
     2
370
     9
100
AcDbText
 10
1347.936692380056
 20
-734.860854359633
 30
0.0
 40
30.48
  1
65
 41
1.0625
  7
ＭＳ ゴシック
100
AcDbText
  0
TEXT
  5
16A
330
1F
100
AcDbEntity
  8
D-F
  6
Continuous
 62
     2
370
     9
100
AcDbText
 10
1499.715673739877
 20
-734.860854359633
 30
0.0
 40
30.48
  1
90
 41
1.0625
  7
ＭＳ ゴシック
100
AcDbText
  0
TEXT
  5
16B
330
1F
100
AcDbEntity
  8
D-F
  6
Continuous
 62
     2
370
     9
100
AcDbText
 10
1423.826183059966
 20
-799.8606799734713
 30
0.0
 40
30.48
  1
90
 41
1.0625
  7
ＭＳ ゴシック
100
AcDbText
  0
TEXT
  5
16C
330
1F
100
AcDbEntity
  8
D-F
  6
Continuous
 62
     2
370
     9
100
AcDbText
 10
1347.936692380056
 20
-864.8608555379175
 30
0.0
 40
30.48
  1
90
 41
1.0625
  7
ＭＳ ゴシック
100
AcDbText
  0
TEXT
  5
16D
330
1F
100
AcDbEntity
  8
D-F
  6
Continuous
 62
     2
370
     9
100
AcDbText
 10
1488.465673739877
 20
-864.8608555379175
 30
0.0
 40
30.48
  1
115
 41
1.083333333333333
  7
ＭＳ ゴシック
100
AcDbText
  0
TEXT
  5
16E
330
1F
100
AcDbEntity
  8
D-F
  6
Continuous
 62
     2
370
     9
100
AcDbText
 10
1412.576183059966
 20
-929.8606811517558
 30
0.0
 40
30.48
  1
115
 41
1.083333333333333
  7
ＭＳ ゴシック
100
AcDbText
  0
TEXT
  5
16F
330
1F
100
AcDbEntity
  8
D-F
  6
Continuous
 62
     2
370
     9
100
AcDbText
 10
1336.686692380056
 20
-994.8605067655952
 30
0.0
 40
30.48
  1
115
 41
1.083333333333333
  7
ＭＳ ゴシック
100
AcDbText
  0
TEXT
  5
170
330
1F
100
AcDbEntity
  8
D-F
  6
Continuous
 62
     2
370
     9
100
AcDbText
 10
1488.465673739877
 20
-994.8605067655952
 30
0.0
 40
30.48
  1
140
 41
1.083333333333333
  7
ＭＳ ゴシック
100
AcDbText
  0
TEXT
  5
171
330
1F
100
AcDbEntity
  8
D-F
  6
Continuous
 62
     2
370
     9
100
AcDbText
 10
1412.576183059966
 20
-1059.860332379435
 30
0.0
 40
30.48
  1
140
 41
1.083333333333333
  7
ＭＳ ゴシック
100
AcDbText
  0
LINE
  5
172
330
1F
100
AcDbEntity
  8
D-0
  6
Continuous
 62
     7
370
     9
100
AcDbLine
 10
1445.076183059966
 20
-688.0009144521614
 30
0.0
 11
1445.076183059966
 21
-753.0007400660008
 31
0.0
  0
LINE
  5
173
330
1F
100
AcDbEntity
  8
D-0
  6
Continuous
 62
     7
370
     9
100
AcDbLine
 10
1445.076183059966
 20
-818.0005656798392
 30
0.0
 11
1445.076183059966
 21
-883.0003912936775
 31
0.0
  0
LINE
  5
174
330
1F
100
AcDbEntity
  8
D-0
  6
Continuous
 62
     7
370
     9
100
AcDbLine
 10
1445.076183059966
 20
-948.0002169075169
 30
0.0
 11
1445.076183059966
 21
-1013.000042521356
 31
0.0
  0
LINE
  5
175
330
1F
100
AcDbEntity
  8
D-0
  6
Continuous
 62
     7
370
     9
100
AcDbLine
 10
1748.634145779611
 20
-198.9397205261059
 30
0.0
 11
1748.634145779611
 21
-363.0017863829664
 31
0.0
  0
LINE
  5
176
330
1F
100
AcDbEntity
  8
D-0
  6
Continuous
 62
     7
370
     9
100
AcDbLine
 10
1748.634145779611
 20
-428.0016119968059
 30
0.0
 11
1748.634145779611
 21
-493.0014376106453
 31
0.0
  0
LINE
  5
177
330
1F
100
AcDbEntity
  8
D-0
  6
Continuous
 62
     7
370
     9
100
AcDbLine
 10
1748.634145779611
 20
-558.0012632244836
 30
0.0
 11
1748.634145779611
 21
-623.001088838322
 31
0.0
  0
LINE
  5
178
330
1F
100
AcDbEntity
  8
D-0
  6
Continuous
 62
     7
370
     9
100
AcDbLine
 10
1748.634145779611
 20
-688.0009144521614
 30
0.0
 11
1748.634145779611
 21
-753.0007400660008
 31
0.0
  0
TEXT
  5
179
330
1F
100
AcDbEntity
  8
D-F
  6
Continuous
 62
     2
370
     9
100
AcDbText
 10
1630.244655099698
 20
-258.1080822403188
 30
0.0
 40
30.48
  1
ｈ１
 41
1.0625
  7
ＭＳ ゴシック
100
AcDbText
  0
TEXT
  5
17A
330
1F
100
AcDbEntity
  8
D-F
  6
Continuous
 62
     2
370
     9
100
AcDbText
 10
1782.023636459521
 20
-258.1080822403188
 30
0.0
 40
30.48
  1
ｈ２
 41
1.0625
  7
ＭＳ ゴシック
100
AcDbText
  0
TEXT
  5
17B
330
1F
100
AcDbEntity
  8
D-F
  6
Continuous
 62
     2
370
     9
100
AcDbText
 10
1628.9946550997
 20
-344.861550725993
 30
0.0
 40
30.48
  1
39.6
 41
1.09375
  7
ＭＳ ゴシック
100
AcDbText
  0
TEXT
  5
17C
330
1F
100
AcDbEntity
  8
D-F
  6
Continuous
 62
     2
370
     9
100
AcDbText
 10
1780.773636459521
 20
-344.861550725993
 30
0.0
 40
30.48
  1
64.6
 41
1.09375
  7
ＭＳ ゴシック
100
AcDbText
  0
TEXT
  5
17D
330
1F
100
AcDbEntity
  8
D-F
  6
Continuous
 62
     2
370
     9
100
AcDbText
 10
1704.884145779611
 20
-409.8613763398313
 30
0.0
 40
30.48
  1
64.6
 41
1.09375
  7
ＭＳ ゴシック
100
AcDbText
  0
TEXT
  5
17E
330
1F
100
AcDbEntity
  8
D-F
  6
Continuous
 62
     2
370
     9
100
AcDbText
 10
1628.9946550997
 20
-474.8615519042775
 30
0.0
 40
30.48
  1
64.6
 41
1.09375
  7
ＭＳ ゴシック
100
AcDbText
  0
TEXT
  5
17F
330
1F
100
AcDbEntity
  8
D-F
  6
Continuous
 62
     2
370
     9
100
AcDbText
 10
1780.773636459521
 20
-474.8615519042775
 30
0.0
 40
30.48
  1
89.6
 41
1.09375
  7
ＭＳ ゴシック
100
AcDbText
  0
TEXT
  5
180
330
1F
100
AcDbEntity
  8
D-F
  6
Continuous
 62
     2
370
     9
100
AcDbText
 10
1704.884145779611
 20
-539.8613775181158
 30
0.0
 40
30.48
  1
89.6
 41
1.09375
  7
ＭＳ ゴシック
100
AcDbText
  0
TEXT
  5
181
330
1F
100
AcDbEntity
  8
D-F
  6
Continuous
 62
     2
370
     9
100
AcDbText
 10
1628.9946550997
 20
-604.8612031319552
 30
0.0
 40
30.48
  1
89.6
 41
1.09375
  7
ＭＳ ゴシック
100
AcDbText
  0
TEXT
  5
182
330
1F
100
AcDbEntity
  8
D-F
  6
Continuous
 62
     2
370
     9
100
AcDbText
 10
1769.523636459521
 20
-604.8612031319552
 30
0.0
 40
30.48
  1
114.6
 41
1.1
  7
ＭＳ ゴシック
100
AcDbText
  0
TEXT
  5
183
330
1F
100
AcDbEntity
  8
D-F
  6
Continuous
 62
     2
370
     9
100
AcDbText
 10
1693.634145779611
 20
-669.8610287457947
 30
0.0
 40
30.48
  1
114.6
 41
1.1
  7
ＭＳ ゴシック
100
AcDbText
  0
TEXT
  5
184
330
1F
100
AcDbEntity
  8
D-F
  6
Continuous
 62
     2
370
     9
100
AcDbText
 10
1628.9946550997
 20
-734.860854359633
 30
0.0
 40
30.48
  1
36.5
 41
1.09375
  7
ＭＳ ゴシック
100
AcDbText
  0
TEXT
  5
185
330
1F
100
AcDbEntity
  8
D-F
  6
Continuous
 62
     2
370
     9
100
AcDbText
 10
1780.773636459521
 20
-734.860854359633
 30
0.0
 40
30.48
  1
61.5
 41
1.09375
  7
ＭＳ ゴシック
100
AcDbText
  0
TEXT
  5
186
330
1F
100
AcDbEntity
  8
D-F
  6
Continuous
 62
     2
370
     9
100
AcDbText
 10
1704.884145779611
 20
-799.8606799734713
 30
0.0
 40
30.48
  1
61.5
 41
1.09375
  7
ＭＳ ゴシック
100
AcDbText
  0
TEXT
  5
187
330
1F
100
AcDbEntity
  8
D-F
  6
Continuous
 62
     2
370
     9
100
AcDbText
 10
1628.9946550997
 20
-864.8608555379175
 30
0.0
 40
30.48
  1
61.5
 41
1.09375
  7
ＭＳ ゴシック
100
AcDbText
  0
TEXT
  5
188
330
1F
100
AcDbEntity
  8
D-F
  6
Continuous
 62
     2
370
     9
100
AcDbText
 10
1780.773636459521
 20
-864.8608555379175
 30
0.0
 40
30.48
  1
86.5
 41
1.09375
  7
ＭＳ ゴシック
100
AcDbText
  0
TEXT
  5
189
330
1F
100
AcDbEntity
  8
D-F
  6
Continuous
 62
     2
370
     9
100
AcDbText
 10
1704.884145779611
 20
-929.8606811517558
 30
0.0
 40
30.48
  1
86.5
 41
1.09375
  7
ＭＳ ゴシック
100
AcDbText
  0
TEXT
  5
18A
330
1F
100
AcDbEntity
  8
D-F
  6
Continuous
 62
     2
370
     9
100
AcDbText
 10
1628.9946550997
 20
-994.8605067655952
 30
0.0
 40
30.48
  1
86.5
 41
1.09375
  7
ＭＳ ゴシック
100
AcDbText
  0
TEXT
  5
18B
330
1F
100
AcDbEntity
  8
D-F
  6
Continuous
 62
     2
370
     9
100
AcDbText
 10
1769.523636459521
 20
-994.8605067655952
 30
0.0
 40
30.48
  1
111.5
 41
1.1
  7
ＭＳ ゴシック
100
AcDbText
  0
TEXT
  5
18C
330
1F
100
AcDbEntity
  8
D-F
  6
Continuous
 62
     2
370
     9
100
AcDbText
 10
1693.634145779611
 20
-1059.860332379435
 30
0.0
 40
30.48
  1
111.5
 41
1.1
  7
ＭＳ ゴシック
100
AcDbText
  0
LINE
  5
18D
330
1F
100
AcDbEntity
  8
D-0
  6
Continuous
 62
     7
370
     9
100
AcDbLine
 10
1900.413127139434
 20
-298.0016108185214
 30
0.0
 11
506.8489768108952
 21
-298.0016108185214
 31
0.0
  0
LINE
  5
18E
330
1F
100
AcDbEntity
  8
D-0
  6
Continuous
 62
     7
370
     9
100
AcDbLine
 10
506.8489768108952
 20
-288.5564439545317
 30
0.0
 11
1900.413127139434
 21
-288.5564439545317
 31
0.0
  0
LINE
  5
18F
330
1F
100
AcDbEntity
  8
D-0
  6
Continuous
 62
     7
370
     9
100
AcDbLine
 10
1900.413127139434
 20
-198.9397205261059
 30
0.0
 11
506.8489768108952
 21
-198.9397205261059
 31
0.0
  0
TEXT
  5
190
330
1F
100
AcDbEntity
  8
D-F
  6
Continuous
 62
     2
370
     9
100
AcDbText
 10
1728.296907777196
 20
-163.4135887976273
 30
0.0
 40
30.48
  1
［ｍｍ］
 41
1.09375
  7
ＭＳ ゴシック
100
AcDbText
  0
LINE
  5
191
330
1F
100
AcDbEntity
  8
D-0
  6
Continuous
 62
     7
370
     9
100
AcDbLine
 10
1900.413127139434
 20
-688.0009144521614
 30
0.0
 11
506.8489768108952
 21
-688.0009144521614
 31
0.0
  0
LINE
  5
192
330
1F
100
AcDbEntity
  8
D-0
  6
Continuous
 62
     7
370
     9
100
AcDbLine
 10
1900.413127139434
 20
-1077.999868135195
 30
0.0
 11
506.8489768108952
 21
-1077.999868135195
 31
0.0
  0
LINE
  5
193
330
1F
100
AcDbEntity
  8
D-0
  6
Continuous
 62
     7
370
     9
100
AcDbLine
 10
1900.413127139434
 20
-1077.999868135195
 30
0.0
 11
1900.413127139434
 21
-198.9397205261059
 31
0.0
  0
LINE
  5
194
330
1F
100
AcDbEntity
  8
D-0
  6
Continuous
 62
     7
370
     9
100
AcDbLine
 10
1900.413127139434
 20
-623.001088838322
 30
0.0
 11
1293.297201700145
 21
-623.001088838322
 31
0.0
  0
LINE
  5
195
330
1F
100
AcDbEntity
  8
D-0
  6
Continuous
 62
     7
370
     9
100
AcDbLine
 10
1900.413127139434
 20
-558.0012632244836
 30
0.0
 11
1293.297201700145
 21
-558.0012632244836
 31
0.0
  0
LINE
  5
196
330
1F
100
AcDbEntity
  8
D-0
  6
Continuous
 62
     7
370
     9
100
AcDbLine
 10
1900.413127139434
 20
-363.0017863829664
 30
0.0
 11
1293.297201700145
 21
-363.0017863829664
 31
0.0
  0
LINE
  5
197
330
1F
100
AcDbEntity
  8
D-0
  6
Continuous
 62
     7
370
     9
100
AcDbLine
 10
1900.413127139434
 20
-428.0016119968059
 30
0.0
 11
1293.297201700145
 21
-428.0016119968059
 31
0.0
  0
LINE
  5
198
330
1F
100
AcDbEntity
  8
D-0
  6
Continuous
 62
     7
370
     9
100
AcDbLine
 10
1900.413127139434
 20
-493.0014376106453
 30
0.0
 11
1293.297201700145
 21
-493.0014376106453
 31
0.0
  0
LINE
  5
199
330
1F
100
AcDbEntity
  8
D-0
  6
Continuous
 62
     7
370
     9
100
AcDbLine
 10
1900.413127139434
 20
-753.0007400660008
 30
0.0
 11
1293.297201700145
 21
-753.0007400660008
 31
0.0
  0
LINE
  5
19A
330
1F
100
AcDbEntity
  8
D-0
  6
Continuous
 62
     7
370
     9
100
AcDbLine
 10
1900.413127139434
 20
-1013.000042521356
 30
0.0
 11
1293.297201700145
 21
-1013.000042521356
 31
0.0
  0
LINE
  5
19B
330
1F
100
AcDbEntity
  8
D-0
  6
Continuous
 62
     7
370
     9
100
AcDbLine
 10
1900.413127139434
 20
-818.0005656798392
 30
0.0
 11
1293.297201700145
 21
-818.0005656798392
 31
0.0
  0
LINE
  5
19C
330
1F
100
AcDbEntity
  8
D-0
  6
Continuous
 62
     7
370
     9
100
AcDbLine
 10
1900.413127139434
 20
-883.0003912936775
 30
0.0
 11
1293.297201700145
 21
-883.0003912936775
 31
0.0
  0
LINE
  5
19D
330
1F
100
AcDbEntity
  8
D-0
  6
Continuous
 62
     7
370
     9
100
AcDbLine
 10
1900.413127139434
 20
-948.0002169075169
 30
0.0
 11
1293.297201700145
 21
-948.0002169075169
 31
0.0
  0
LINE
  5
19E
330
1F
100
AcDbEntity
  8
D-5
  6
Continuous
 62
     7
370
     9
100
AcDbLine
 10
506.8489768108952
 20
179.6038601172779
 30
0.0
 11
506.8489768108952
 21
229.6037780239578
 31
0.0
  0
LINE
  5
19F
330
1F
100
AcDbEntity
  8
D-5
  6
Continuous
 62
     7
370
     9
100
AcDbLine
 10
506.8489768108952
 20
229.6037780239578
 30
0.0
 11
731.8486334881413
 21
229.6037780239578
 31
0.0
  0
LINE
  5
1A0
330
1F
100
AcDbEntity
  8
D-5
  6
Continuous
 62
     7
370
     9
100
AcDbLine
 10
731.8486334881413
 20
229.6037780239578
 30
0.0
 11
731.8486334881413
 21
179.6038601172779
 31
0.0
  0
LINE
  5
1A1
330
1F
100
AcDbEntity
  8
D-5
  6
Continuous
 62
     7
370
     9
100
AcDbLine
 10
731.8486334881413
 20
179.6038601172779
 30
0.0
 11
506.8489768108952
 21
179.6038601172779
 31
0.0
  0
TEXT
  5
1A2
330
1F
100
AcDbEntity
  8
D-5
  6
Continuous
 62
     2
370
     9
100
AcDbText
 10
554.348786076032
 20
190.2438791907642
 30
0.0
 40
30.48
  1
仕　様
 41
1.083333333333333
  7
ＭＳ ゴシック
100
AcDbText
  0
TEXT
  5
1A3
330
1F
100
AcDbEntity
  8
D-5
  6
Continuous
 62
     2
370
     9
100
AcDbText
 10
503.9015325817672
 20
119.3072109267136
 30
0.0
 40
30.48
  1
現場溶接タイプサニタリートラフ
 41
1.116666666666666
  7
ＭＳ ゴシック
100
AcDbText
  0
TEXT
  5
1A4
330
1F
100
AcDbEntity
  8
D-5
  6
Continuous
 62
     2
370
     9
100
AcDbText
 10
563.8383278585434
 20
-3.692234039305831
 30
0.0
 40
30.48
  1
材質：ＳＵＳ３０４
 41
1.111111111111111
  7
ＭＳ ゴシック
100
AcDbText
  0
TEXT
  5
1A5
330
1F
100
AcDbEntity
  8
F-5ﾚｲﾔ
  6
Continuous
 62
     4
370
     9
100
AcDbText
 10
-779.0499194274082
 20
-1304.149859887201
 30
0.0
 40
22.86
  1
ＨＡＣＣＰ対応　現場溶接タイプ　サニタリートラフ（ステンレス製トラフパン）
 41
1.097297297297297
  7
ＭＳ ゴシック
100
AcDbText
  0
LWPOLYLINE
  5
1A6
330
1F
100
AcDbEntity
  8
D-4
  6
Continuous
 62
     7
370
     9
100
AcDbPolyline
 90
        4
 70
     1
 43
1.0
 10
173.8054372830691
 20
-57.19790764623781
 42
0.4142135623731
 10
173.3054372830691
 20
-56.69790764623781
 42
0.4142135623731
 10
172.8054372830691
 20
-57.19790764623781
 42
0.4142135623731
 10
173.3054372830691
 20
-57.69790764623781
 42
0.4142135623731
  0
LWPOLYLINE
  5
1A7
330
1F
100
AcDbEntity
  8
D-4
  6
Continuous
 62
     7
370
     9
100
AcDbPolyline
 90
        4
 70
     1
 43
1.0
 10
173.8054372830691
 20
392.8020923537622
 42
0.4142135623731
 10
173.3054372830691
 20
393.3020923537622
 42
0.4142135623731
 10
172.8054372830691
 20
392.8020923537622
 42
0.4142135623731
 10
173.3054372830691
 20
392.3020923537622
 42
0.4142135623731
  0
LINE
  5
1A8
330
1F
100
AcDbEntity
  8
D-4
  6
Continuous
 62
     7
370
     9
100
AcDbLine
 10
176.3054372830686
 20
392.8020923537622
 30
0.0
 11
-101.4585858309999
 21
392.8020923537622
 31
0.0
  0
LINE
  5
1A9
330
1F
100
AcDbEntity
  8
D-4
  6
Continuous
 62
     7
370
     9
100
AcDbLine
 10
173.3054372830691
 20
392.8020923537622
 30
0.0
 11
173.3054372830691
 21
-57.19790764623781
 31
0.0
  0
TEXT
  5
1AA
330
1F
100
AcDbEntity
  8
D-4
  6
Continuous
 62
     2
370
   211
100
AcDbText
 10
161.6654372830677
 20
125.3020923537622
 30
0.0
 40
30.48
  1
Ｈ２
 50
90.0
 41
1.0625
  7
ＭＳ ゴシック
100
AcDbText
  0
LINE
  5
1AB
330
1F
100
AcDbEntity
  8
D-4
  6
Continuous
 62
     7
370
     9
100
AcDbLine
 10
86.70364779791839
 20
392.8020923537622
 30
0.0
 11
86.70364779791839
 21
312.8020923537622
 31
0.0
  0
LWPOLYLINE
  5
1AC
330
1F
100
AcDbEntity
  8
D-4
  6
Continuous
 62
     7
370
     9
100
AcDbPolyline
 90
        4
 70
     1
 43
1.0
 10
87.20364779791839
 20
392.8020923537622
 42
0.4142135623731
 10
86.70364779791839
 20
393.3020923537622
 42
0.4142135623731
 10
86.20364779791839
 20
392.8020923537622
 42
0.4142135623731
 10
86.70364779791839
 20
392.3020923537622
 42
0.4142135623731
  0
LWPOLYLINE
  5
1AD
330
1F
100
AcDbEntity
  8
D-4
  6
Continuous
 62
     7
370
     9
100
AcDbPolyline
 90
        4
 70
     1
 43
1.0
 10
87.20364779791839
 20
312.8020923537622
 42
0.4142135623731
 10
86.70364779791839
 20
313.3020923537622
 42
0.4142135623731
 10
86.20364779791839
 20
312.8020923537622
 42
0.4142135623731
 10
86.70364779791839
 20
312.3020923537622
 42
0.4142135623731
  0
TEXT
  5
1AE
330
1F
100
AcDbEntity
  8
D-4
  6
Continuous
 62
     2
370
   211
100
AcDbText
 10
75.0636477979193
 20
331.5520923537622
 30
0.0
 40
30.48
  1
16
 50
90.0
 41
1.0625
  7
ＭＳ ゴシック
100
AcDbText
  0
LINE
  5
1AF
330
1F
100
AcDbEntity
  8
D-4
  6
Continuous
 62
     7
370
     9
100
AcDbLine
 10
86.70364779791839
 20
312.8020923537622
 30
0.0
 11
86.70364779791839
 21
-10.23281312708718
 31
0.0
  0
LWPOLYLINE
  5
1B0
330
1F
100
AcDbEntity
  8
D-4
  6
Continuous
 62
     7
370
     9
100
AcDbPolyline
 90
        4
 70
     1
 43
1.0
 10
87.20364779791839
 20
312.8020923537622
 42
0.4142135623731
 10
86.70364779791839
 20
313.3020923537622
 42
0.4142135623731
 10
86.20364779791839
 20
312.8020923537622
 42
0.4142135623731
 10
86.70364779791839
 20
312.3020923537622
 42
0.4142135623731
  0
LWPOLYLINE
  5
1B1
330
1F
100
AcDbEntity
  8
D-4
  6
Continuous
 62
     7
370
     9
100
AcDbPolyline
 90
        4
 70
     1
 43
1.0
 10
87.20364779791839
 20
-10.23281312708718
 42
0.4142135623731
 10
86.70364779791839
 20
-9.732813127087184
 42
0.4142135623731
 10
86.20364779791839
 20
-10.23281312708718
 42
0.4142135623731
 10
86.70364779791839
 20
-10.73281312708718
 42
0.4142135623731
  0
LINE
  5
1B2
330
1F
100
AcDbEntity
  8
D-4
  6
Continuous
 62
     7
370
     9
100
AcDbLine
 10
89.70364779792021
 20
-10.23281312708718
 30
0.0
 11
-293.4742098581398
 21
-10.23281312708718
 31
0.0
  0
LINE
  5
1B3
330
1F
100
AcDbEntity
  8
D-4
  6
Continuous
 62
     7
370
     9
100
AcDbLine
 10
89.70364779792021
 20
312.8020923537622
 30
0.0
 11
-158.4607375111807
 21
312.8020923537622
 31
0.0
  0
LINE
  5
1B4
330
1F
100
AcDbEntity
  8
D-4
  6
Continuous
 62
     7
370
     9
100
AcDbLine
 10
-1463.354476379544
 20
312.8020923537622
 30
0.0
 11
-1463.354476379544
 21
114.7671868729128
 31
0.0
  0
LWPOLYLINE
  5
1B5
330
1F
100
AcDbEntity
  8
D-4
  6
Continuous
 62
     7
370
     9
100
AcDbPolyline
 90
        4
 70
     1
 43
1.0
 10
-1462.854476379544
 20
312.8020923537622
 42
0.4142135623731
 10
-1463.354476379544
 20
313.3020923537622
 42
0.4142135623731
 10
-1463.854476379544
 20
312.8020923537622
 42
0.4142135623731
 10
-1463.354476379544
 20
312.3020923537622
 42
0.4142135623731
  0
LWPOLYLINE
  5
1B6
330
1F
100
AcDbEntity
  8
D-4
  6
Continuous
 62
     7
370
     9
100
AcDbPolyline
 90
        4
 70
     1
 43
1.0
 10
-1462.854476379544
 20
114.7671868729128
 42
0.4142135623731
 10
-1463.354476379544
 20
115.2671868729128
 42
0.4142135623731
 10
-1463.854476379544
 20
114.7671868729128
 42
0.4142135623731
 10
-1463.354476379544
 20
114.2671868729128
 42
0.4142135623731
  0
LINE
  5
1B7
330
1F
100
AcDbEntity
  8
D-4
  6
Continuous
 62
     7
370
     9
100
AcDbLine
 10
-1466.354476379546
 20
114.7671868729128
 30
0.0
 11
-1098.474209858149
 21
114.7671868729128
 31
0.0
  0
LINE
  5
1B8
330
1F
100
AcDbEntity
  8
D-4
  6
Continuous
 62
     7
370
     9
100
AcDbLine
 10
-1463.354476379544
 20
312.8020923537622
 30
0.0
 11
-1463.354476379544
 21
392.8020923537622
 31
0.0
  0
LWPOLYLINE
  5
1B9
330
1F
100
AcDbEntity
  8
D-4
  6
Continuous
 62
     7
370
     9
100
AcDbPolyline
 90
        4
 70
     1
 43
1.0
 10
-1462.854476379544
 20
312.8020923537622
 42
0.4142135623731
 10
-1463.354476379544
 20
313.3020923537622
 42
0.4142135623731
 10
-1463.854476379544
 20
312.8020923537622
 42
0.4142135623731
 10
-1463.354476379544
 20
312.3020923537622
 42
0.4142135623731
  0
LWPOLYLINE
  5
1BA
330
1F
100
AcDbEntity
  8
D-4
  6
Continuous
 62
     7
370
     9
100
AcDbPolyline
 90
        4
 70
     1
 43
1.0
 10
-1462.854476379544
 20
392.8020923537622
 42
0.4142135623731
 10
-1463.354476379544
 20
393.3020923537622
 42
0.4142135623731
 10
-1463.854476379544
 20
392.8020923537622
 42
0.4142135623731
 10
-1463.354476379544
 20
392.3020923537622
 42
0.4142135623731
  0
TEXT
  5
1BB
330
1F
100
AcDbEntity
  8
D-4
  6
Continuous
 62
     2
370
   211
100
AcDbText
 10
-1474.994476379546
 20
331.5520923537622
 30
0.0
 40
30.48
  1
16
 50
90.0
 41
1.0625
  7
ＭＳ ゴシック
100
AcDbText
  0
LINE
  5
1BC
330
1F
100
AcDbEntity
  8
D-4
  6
Continuous
 62
     7
370
     9
100
AcDbLine
 10
-1466.354476379546
 20
312.8020923537622
 30
0.0
 11
-1232.68179594539
 21
312.8020923537622
 31
0.0
  0
TEXT
  5
1BD
330
1F
100
AcDbEntity
  8
D-4
  6
Continuous
 62
     2
370
   211
100
AcDbText
 10
-1474.994476379546
 20
171.2846396133375
 30
0.0
 40
30.48
  1
ｈ１
 50
90.0
 41
1.0625
  7
ＭＳ ゴシック
100
AcDbText
  0
LINE
  5
1BE
330
1F
100
AcDbEntity
  8
D-4
  6
Continuous
 62
     7
370
     9
100
AcDbLine
 10
-1543.363873844418
 20
392.8020923537622
 30
0.0
 11
-1543.363873844418
 21
67.80209235376219
 31
0.0
  0
LWPOLYLINE
  5
1BF
330
1F
100
AcDbEntity
  8
D-4
  6
Continuous
 62
     7
370
     9
100
AcDbPolyline
 90
        4
 70
     1
 43
1.0
 10
-1542.863873844417
 20
392.8020923537622
 42
0.4142135623731
 10
-1543.363873844418
 20
393.3020923537622
 42
0.4142135623731
 10
-1543.863873844418
 20
392.8020923537622
 42
0.4142135623731
 10
-1543.363873844418
 20
392.3020923537622
 42
0.4142135623731
  0
LWPOLYLINE
  5
1C0
330
1F
100
AcDbEntity
  8
D-4
  6
Continuous
 62
     7
370
     9
100
AcDbPolyline
 90
        4
 70
     1
 43
1.0
 10
-1542.863873844417
 20
67.80209235376219
 42
0.4142135623731
 10
-1543.363873844418
 20
68.30209235376219
 42
0.4142135623731
 10
-1543.863873844418
 20
67.80209235376219
 42
0.4142135623731
 10
-1543.363873844418
 20
67.30209235376219
 42
0.4142135623731
  0
LINE
  5
1C1
330
1F
100
AcDbEntity
  8
D-4
  6
Continuous
 62
     7
370
     9
100
AcDbLine
 10
-1546.363873844417
 20
392.8020923537622
 30
0.0
 11
-1289.66015417621
 21
392.8020923537622
 31
0.0
  0
TEXT
  5
1C2
330
1F
100
AcDbEntity
  8
D-4
  6
Continuous
 62
     2
370
   211
100
AcDbText
 10
-1555.003873844417
 20
187.8020923537622
 30
0.0
 40
30.48
  1
Ｈ１
 50
90.0
 41
1.0625
  7
ＭＳ ゴシック
100
AcDbText
  0
TEXT
  5
1C3
330
1F
100
AcDbEntity
  8
D-4
  6
Continuous
 62
     2
370
   211
100
AcDbText
 10
75.0636477979193
 20
108.7846396133375
 30
0.0
 40
30.48
  1
ｈ２
 50
90.0
 41
1.0625
  7
ＭＳ ゴシック
100
AcDbText
  0
LINE
  5
1C4
330
1F
100
AcDbEntity
  8
D-4
  6
Continuous
 62
     7
370
     9
100
AcDbLine
 10
-1546.363873844417
 20
67.80209235376219
 30
0.0
 11
-791.4051259025052
 21
67.80209235376219
 31
0.0
  0
LINE
  5
1C5
330
1F
100
AcDbEntity
  8
D-4
  6
Continuous
 62
     7
370
     9
100
AcDbLine
 10
176.3054372830686
 20
-57.19790764623781
 30
0.0
 11
-575.9755397976471
 21
-57.19790764623781
 31
0.0
  0
ARC
  5
1C6
330
1F
100
AcDbEntity
  8
D-3
  6
Continuous
 62
     4
370
     9
100
AcDbCircle
 10
-695.9742098581444
 20
51.10939858858842
 30
0.0
 40
107.5
100
AcDbArc
 50
270.0
 51
276.9999999999999
  0
LINE
  5
1C7
330
1F
100
AcDbEntity
  8
D-3
  6
Continuous
 62
     4
370
     9
100
AcDbLine
 10
-408.7872755238629
 20
-14.37946234553124
 30
0.0
 11
-683.7872755176284
 21
-48.14521657554337
 31
0.0
  0
ARC
  5
1C8
330
1F
100
AcDbEntity
  8
D-3
  6
Continuous
 62
     4
370
     9
100
AcDbCircle
 10
-420.9742098581489
 20
84.8751528193668
 30
0.0
 40
100.0
100
AcDbArc
 50
276.9999999964041
 51
0.0000000000000254
  0
ARC
  5
1C9
330
1F
100
AcDbEntity
  8
D-3
  6
Continuous
 62
     4
370
     9
100
AcDbCircle
 10
-420.9729591087478
 20
84.87530639208103
 30
0.0
 40
107.5
100
AcDbArc
 50
276.9999999964036
 51
0.0
  0
LINE
  5
1CA
330
1F
100
AcDbEntity
  8
D-3
  6
Continuous
 62
     4
370
     9
100
AcDbLine
 10
-407.8720046993919
 20
-21.82340491018408
 30
0.0
 11
-682.8732554420901
 21
-55.5893127128536
 31
0.0
  0
LINE
  5
1CB
330
1F
100
AcDbEntity
  8
D-3
  6
Continuous
 62
     4
370
     9
100
AcDbLine
 10
-320.9742098581489
 20
84.8751528193668
 30
0.0
 11
-320.9742098581489
 21
297.8020923537622
 31
0.0
  0
LINE
  5
1CC
330
1F
100
AcDbEntity
  8
D-3
  6
Continuous
 62
     4
370
     9
100
AcDbLine
 10
-313.4742098581398
 20
297.8020923537622
 30
0.0
 11
-313.4742098581398
 21
84.87530639208103
 31
0.0
  0
LINE
  5
1CD
330
1F
100
AcDbEntity
  8
D-3
  6
JWW_HOJO
 62
     4
370
     9
100
AcDbLine
 10
-695.9742098581489
 20
-57.19790764623781
 30
0.0
 11
-682.8732554422174
 21
-55.58931271179631
 31
0.0
  0
ARC
  5
1CE
330
1F
100
AcDbEntity
  8
D-3
  6
Continuous
 62
     4
370
     9
100
AcDbCircle
 10
-695.9742098581444
 20
51.10939858858842
 30
0.0
 40
100.0
100
AcDbArc
 50
270.0
 51
277.0
  0
ARC
  5
1CF
330
1F
100
AcDbEntity
  8
D-3
  6
Continuous
 62
     4
370
     9
100
AcDbCircle
 10
-1215.974209858149
 20
377.8020923537622
 30
0.0
 40
7.5
100
AcDbArc
 50
0.0
 51
90.00000000000001
  0
LINE
  5
1D0
330
1F
100
AcDbEntity
  8
D-3
  6
Continuous
 62
     4
370
     9
100
AcDbLine
 10
-175.9742098581489
 20
392.8020923537622
 30
0.0
 11
-130.9742098581489
 21
392.8020923537622
 31
0.0
  0
ARC
  5
1D1
330
1F
100
AcDbEntity
  8
D-3
  6
Continuous
 62
     4
370
     9
100
AcDbCircle
 10
-1215.974209858149
 20
377.8020923537622
 30
0.0
 40
15.0
100
AcDbArc
 50
0.0
 51
90.00000000000001
  0
ARC
  5
1D2
330
1F
100
AcDbEntity
  8
D-3
  6
Continuous
 62
     4
370
     9
100
AcDbCircle
 10
-1193.474209858149
 20
320.3020923537622
 30
0.0
 40
7.5
100
AcDbArc
 50
180.0
 51
270.0
  0
LINE
  5
1D3
330
1F
100
AcDbEntity
  8
D-3
  6
Continuous
 62
     4
370
     9
100
AcDbLine
 10
-1200.974209858149
 20
320.3020923537622
 30
0.0
 11
-1200.974209858149
 21
377.8020923537622
 31
0.0
  0
LINE
  5
1D4
330
1F
100
AcDbEntity
  8
D-3
  6
Continuous
 62
     4
370
     9
100
AcDbLine
 10
-1193.474209858149
 20
312.8020923537622
 30
0.0
 11
-1085.974209858149
 21
312.8020923537622
 31
0.0
  0
ARC
  5
1D5
330
1F
100
AcDbEntity
  8
D-3
  6
Continuous
 62
     4
370
     9
100
AcDbCircle
 10
-1193.474209858149
 20
320.3020923537622
 30
0.0
 40
15.0
100
AcDbArc
 50
180.0
 51
270.0
  0
LINE
  5
1D6
330
1F
100
AcDbEntity
  8
D-3
  6
Continuous
 62
     4
370
     9
100
AcDbLine
 10
-1208.474209858149
 20
320.3020923537622
 30
0.0
 11
-1208.474209858149
 21
377.8020923537622
 31
0.0
  0
LINE
  5
1D7
330
1F
100
AcDbEntity
  8
D-3
  6
Continuous
 62
     4
370
     9
100
AcDbLine
 10
-1193.474209858149
 20
305.3020923537622
 30
0.0
 11
-1085.974209858149
 21
305.3020923537622
 31
0.0
  0
ARC
  5
1D8
330
1F
100
AcDbEntity
  8
D-3
  6
Continuous
 62
     4
370
     9
100
AcDbCircle
 10
-175.9742098581489
 20
377.8020923537622
 30
0.0
 40
15.0
100
AcDbArc
 50
89.99999999999999
 51
180.0
  0
LINE
  5
1D9
330
1F
100
AcDbEntity
  8
D-3
  6
Continuous
 62
     4
370
     9
100
AcDbLine
 10
-190.9742098581489
 20
377.8020923537622
 30
0.0
 11
-190.9742098581489
 21
320.3020923537622
 31
0.0
  0
LINE
  5
1DA
330
1F
100
AcDbEntity
  8
D-3
  6
Continuous
 62
     4
370
     9
100
AcDbLine
 10
-183.4742098581489
 20
320.3020923537622
 30
0.0
 11
-183.4742098581489
 21
377.8020923537622
 31
0.0
  0
ARC
  5
1DB
330
1F
100
AcDbEntity
  8
D-3
  6
Continuous
 62
     4
370
     9
100
AcDbCircle
 10
-175.9742098581489
 20
377.8020923537622
 30
0.0
 40
7.5
100
AcDbArc
 50
89.99999999999999
 51
180.0
  0
LINE
  5
1DC
330
1F
100
AcDbEntity
  8
D-3
  6
Continuous
 62
     4
370
     9
100
AcDbLine
 10
-175.9742098581489
 20
385.3020923537622
 30
0.0
 11
-130.9742098581489
 21
385.3020923537622
 31
0.0
  0
ARC
  5
1DD
330
1F
100
AcDbEntity
  8
D-3
  6
Continuous
 62
     4
370
     9
100
AcDbCircle
 10
-130.9742098581489
 20
377.8020923537622
 30
0.0
 40
7.5
100
AcDbArc
 50
0.0
 51
90.0
  0
ARC
  5
1DE
330
1F
100
AcDbEntity
  8
D-3
  6
Continuous
 62
     4
370
     9
100
AcDbCircle
 10
-130.9742098581489
 20
377.8020923537622
 30
0.0
 40
15.0
100
AcDbArc
 50
0.0
 51
90.0
  0
ARC
  5
1DF
330
1F
100
AcDbEntity
  8
D-3
  6
Continuous
 62
     4
370
     9
100
AcDbCircle
 10
-305.9742098581489
 20
297.8020923537622
 30
0.0
 40
7.5
100
AcDbArc
 50
89.99999999999999
 51
180.0
  0
LINE
  5
1E0
330
1F
100
AcDbEntity
  8
D-3
  6
Continuous
 62
     4
370
     9
100
AcDbLine
 10
-305.9742098581489
 20
305.3020923537622
 30
0.0
 11
-198.4742098581489
 21
305.3020923537622
 31
0.0
  0
ARC
  5
1E1
330
1F
100
AcDbEntity
  8
D-3
  6
Continuous
 62
     4
370
     9
100
AcDbCircle
 10
-305.9742098581489
 20
297.8020923537622
 30
0.0
 40
15.0
100
AcDbArc
 50
90.0
 51
180.0
  0
LINE
  5
1E2
330
1F
100
AcDbEntity
  8
D-3
  6
Continuous
 62
     4
370
     9
100
AcDbLine
 10
-305.9742098581489
 20
312.8020923537622
 30
0.0
 11
-198.4742098581489
 21
312.8020923537622
 31
0.0
  0
ARC
  5
1E3
330
1F
100
AcDbEntity
  8
D-3
  6
Continuous
 62
     4
370
     9
100
AcDbCircle
 10
-198.4742098581489
 20
320.3020923537622
 30
0.0
 40
15.0
100
AcDbArc
 50
270.0
 51
0.0
  0
ARC
  5
1E4
330
1F
100
AcDbEntity
  8
D-3
  6
Continuous
 62
     4
370
     9
100
AcDbCircle
 10
-198.4742098581489
 20
320.3020923537622
 30
0.0
 40
7.5
100
AcDbArc
 50
270.0
 51
0.0
  0
LINE
  5
1E5
330
1F
100
AcDbEntity
  8
D-3
  6
Continuous
 62
     4
370
     9
100
AcDbLine
 10
-1215.974209858149
 20
392.8020923537622
 30
0.0
 11
-1260.974209858149
 21
392.8020923537622
 31
0.0
  0
ARC
  5
1E6
330
1F
100
AcDbEntity
  8
D-3
  6
Continuous
 62
     4
370
     9
100
AcDbCircle
 10
-1260.974209858149
 20
377.8020923537622
 30
0.0
 40
7.5
100
AcDbArc
 50
90.0
 51
180.0
  0
ARC
  5
1E7
330
1F
100
AcDbEntity
  8
D-3
  6
Continuous
 62
     4
370
     9
100
AcDbCircle
 10
-1260.974209858149
 20
377.8020923537622
 30
0.0
 40
15.0
100
AcDbArc
 50
90.0
 51
180.0
  0
ARC
  5
1E8
330
1F
100
AcDbEntity
  8
D-3
  6
Continuous
 62
     4
370
     9
100
AcDbCircle
 10
-1085.974209858149
 20
297.8020923537622
 30
0.0
 40
7.5
100
AcDbArc
 50
0.0
 51
90.00000000000001
  0
ARC
  5
1E9
330
1F
100
AcDbEntity
  8
D-3
  6
Continuous
 62
     4
370
     9
100
AcDbCircle
 10
-1085.974209858149
 20
297.8020923537622
 30
0.0
 40
15.0
100
AcDbArc
 50
0.0
 51
90.0
  0
LINE
  5
1EA
330
1F
100
AcDbEntity
  8
D-3
  6
JWW_CENTER2
 62
     4
370
     9
100
AcDbLine
 10
-695.9742098581444
 20
392.8020923537622
 30
0.0
 11
-695.9742098581444
 21
349.4152288820226
 31
0.0
  0
LINE
  5
1EB
330
1F
100
AcDbEntity
  8
D-3
  6
Continuous
 62
     4
370
     9
100
AcDbLine
 10
-1215.768478785393
 20
385.3020923537622
 30
0.0
 11
-1261.027227354119
 21
385.3020923537622
 31
0.0
  0
LINE
  5
1EC
330
1F
100
AcDbEntity
  8
D-3
  6
Continuous
 62
     4
370
     9
100
AcDbLine
 10
-123.4742098581489
 20
377.8020923537622
 30
0.0
 11
-123.4742098581489
 21
352.8020923537622
 31
0.0
  0
LINE
  5
1ED
330
1F
100
AcDbEntity
  8
D-3
  6
Continuous
 62
     4
370
     9
100
AcDbLine
 10
-115.9742098581489
 20
377.8020923537622
 30
0.0
 11
-115.9742098581489
 21
352.8020923537622
 31
0.0
  0
LINE
  5
1EE
330
1F
100
AcDbEntity
  8
D-3
  6
Continuous
 62
     4
370
     9
100
AcDbLine
 10
-115.9742098581489
 20
352.8020923537622
 30
0.0
 11
-123.4742098581489
 21
352.8020923537622
 31
0.0
  0
LINE
  5
1EF
330
1F
100
AcDbEntity
  8
D-3
  6
Continuous
 62
     4
370
     9
100
AcDbLine
 10
-1268.474209858149
 20
377.8020923537622
 30
0.0
 11
-1268.474209858149
 21
352.8020923537622
 31
0.0
  0
LINE
  5
1F0
330
1F
100
AcDbEntity
  8
D-3
  6
Continuous
 62
     4
370
     9
100
AcDbLine
 10
-1275.974209858149
 20
377.8020923537622
 30
0.0
 11
-1275.974209858149
 21
352.8020923537622
 31
0.0
  0
LINE
  5
1F1
330
1F
100
AcDbEntity
  8
D-3
  6
Continuous
 62
     4
370
     9
100
AcDbLine
 10
-1275.974209858149
 20
352.8020923537622
 30
0.0
 11
-1268.474209858149
 21
352.8020923537622
 31
0.0
  0
LINE
  5
1F2
330
1F
100
AcDbEntity
  8
D-3
  6
Continuous
 62
     4
370
     9
100
AcDbLine
 10
-983.1623949418224
 20
110.620691227183
 30
0.0
 11
-708.1611441986604
 21
76.85478342445435
 31
0.0
  0
ARC
  5
1F3
330
1F
100
AcDbEntity
  8
D-3
  6
Continuous
 62
     4
370
     9
100
AcDbCircle
 10
-970.9754606075364
 20
209.8753063920788
 30
0.0
 40
100.0
100
AcDbArc
 50
180.0
 51
263.0000000035964
  0
ARC
  5
1F4
330
1F
100
AcDbEntity
  8
D-3
  6
Continuous
 62
     4
370
     9
100
AcDbCircle
 10
-970.9754606075364
 20
209.8753063920788
 30
0.0
 40
107.5
100
AcDbArc
 50
180.0
 51
263.0000000035964
  0
LINE
  5
1F5
330
1F
100
AcDbEntity
  8
D-3
  6
Continuous
 62
     4
370
     9
100
AcDbLine
 10
-984.0764150168923
 20
103.1765950898159
 30
0.0
 11
-709.0751642741986
 21
69.4106872871464
 31
0.0
  0
LINE
  5
1F6
330
1F
100
AcDbEntity
  8
D-3
  6
JWW_HOJO
 62
     4
370
     9
100
AcDbLine
 10
-695.9742098581398
 20
67.80209235376219
 30
0.0
 11
-709.0751642740668
 21
69.41068728820142
 31
0.0
  0
ARC
  5
1F7
330
1F
100
AcDbEntity
  8
D-3
  6
Continuous
 62
     4
370
     9
100
AcDbCircle
 10
-695.9742098581444
 20
176.1093985885884
 30
0.0
 40
100.0
100
AcDbArc
 50
263.0
 51
270.0
  0
ARC
  5
1F8
330
1F
100
AcDbEntity
  8
D-3
  6
Continuous
 62
     4
370
     9
100
AcDbCircle
 10
-695.9742098581444
 20
176.1093985885884
 30
0.0
 40
107.5
100
AcDbArc
 50
263.0000000000001
 51
270.0
  0
LINE
  5
1F9
330
1F
100
AcDbEntity
  8
D-3
  6
Continuous
 62
     4
370
     9
100
AcDbLine
 10
-1070.975460607536
 20
209.8753063920788
 30
0.0
 11
-1070.975460607536
 21
297.8020923537622
 31
0.0
  0
LINE
  5
1FA
330
1F
100
AcDbEntity
  8
D-3
  6
Continuous
 62
     4
370
     9
100
AcDbLine
 10
-1078.474209858149
 20
297.8020923537622
 30
0.0
 11
-1078.474209858149
 21
209.8753063920788
 31
0.0
  0
LINE
  5
1FB
330
1F
100
AcDbEntity
  8
D-3
  6
JWW_CENTER2
 62
     4
370
     9
100
AcDbLine
 10
-695.9742098581444
 20
392.8020923537622
 30
0.0
 11
-695.9742098581444
 21
-103.7001834391583
 31
0.0
  0
LINE
  5
1FC
330
1F
100
AcDbEntity
  8
D-2
  6
Continuous
 62
     3
370
     9
100
AcDbLine
 10
-1385.974209858149
 20
297.8020923537622
 30
0.0
 11
-1085.974209858149
 21
297.8020923537622
 31
0.0
  0
LINE
  5
1FD
330
1F
100
AcDbEntity
  8
D-2
  6
Continuous
 62
     3
370
     9
100
AcDbLine
 10
-1085.974209858149
 20
297.8020923537622
 30
0.0
 11
-1085.974209858149
 21
305.3020923537622
 31
0.0
  0
LINE
  5
1FE
330
1F
100
AcDbEntity
  8
D-2
  6
Continuous
 62
     3
370
     9
100
AcDbLine
 10
-1085.974209858149
 20
305.3020923537622
 30
0.0
 11
-1385.974209858149
 21
305.3020923537622
 31
0.0
  0
LINE
  5
1FF
330
1F
100
AcDbEntity
  8
D-2
  6
Continuous
 62
     3
370
     9
100
AcDbLine
 10
-1385.974209858149
 20
305.3020923537622
 30
0.0
 11
-1385.974209858149
 21
297.8020923537622
 31
0.0
  0
LINE
  5
200
330
1F
100
AcDbEntity
  8
D-2
  6
Continuous
 62
     3
370
     9
100
AcDbLine
 10
-5.97420985813983
 20
297.8020923537622
 30
0.0
 11
-305.9742098581398
 21
297.8020923537622
 31
0.0
  0
LINE
  5
201
330
1F
100
AcDbEntity
  8
D-2
  6
Continuous
 62
     3
370
     9
100
AcDbLine
 10
-305.9742098581398
 20
297.8020923537622
 30
0.0
 11
-305.9742098581398
 21
305.3020923537622
 31
0.0
  0
LINE
  5
202
330
1F
100
AcDbEntity
  8
D-2
  6
Continuous
 62
     3
370
     9
100
AcDbLine
 10
-305.9742098581398
 20
305.3020923537622
 30
0.0
 11
-5.97420985813983
 21
305.3020923537622
 31
0.0
  0
LINE
  5
203
330
1F
100
AcDbEntity
  8
D-2
  6
Continuous
 62
     3
370
     9
100
AcDbLine
 10
-5.97420985813983
 20
305.3020923537622
 30
0.0
 11
-5.97420985813983
 21
297.8020923537622
 31
0.0
  0
TEXT
  5
204
330
1F
100
AcDbEntity
  8
D-5
  6
Continuous
 62
     2
370
   211
100
AcDbText
 10
-1003.923817780089
 20
174.4074287036173
 30
0.0
 40
30.48
  1
R20
 50
30.0
 41
1.083333333333323
  7
ＭＳ ゴシック
100
AcDbText
  0
LINE
  5
205
330
1F
100
AcDbEntity
  8
D-5
  6
Continuous
 62
     7
370
     9
100
AcDbLine
 10
-1041.686138726192
 20
139.1646282734257
 30
0.0
 11
-1021.852305218912
 21
154.3836639986432
 31
0.0
  0
LINE
  5
206
330
1F
100
AcDbEntity
  8
D-5
  6
Continuous
 62
     7
370
     9
100
AcDbLine
 10
-1041.686138726192
 20
139.1646282734257
 30
0.0
 11
-1018.58915041341
 21
148.7317140825519
 31
0.0
  0
LINE
  5
207
330
1F
100
AcDbEntity
  8
D-5
  6
Continuous
 62
     7
370
     9
100
AcDbLine
 10
-938.9809531841263
 20
198.4614947933085
 30
0.0
 11
-1041.686138726192
 21
139.1646282734257
 31
0.0
  0
LINE
  5
208
330
1F
100
AcDbEntity
  8
D-5
  6
Continuous
 62
     7
370
     9
100
AcDbLine
 10
-350.2622809900947
 20
14.16572547223382
 30
0.0
 11
-370.0961144973769
 21
29.38476119745133
 31
0.0
  0
LINE
  5
209
330
1F
100
AcDbEntity
  8
D-5
  6
Continuous
 62
     7
370
     9
100
AcDbLine
 10
-350.2622809900947
 20
14.16572547223382
 30
0.0
 11
-373.3592693028766
 21
23.73281128136
 31
0.0
  0
LINE
  5
20A
330
1F
100
AcDbEntity
  8
D-5
  6
Continuous
 62
     7
370
     9
100
AcDbLine
 10
-452.9674665321625
 20
73.46259199211659
 30
0.0
 11
-350.2622809900947
 21
14.16572547223382
 31
0.0
  0
TEXT
  5
20B
330
1F
100
AcDbEntity
  8
D-5
  6
Continuous
 62
     2
370
   211
100
AcDbText
 10
-444.3162531821876
 20
81.90852590242538
 30
0.0
 40
30.48
  1
R20
 50
330.0000000000003
 41
1.083333333333357
  7
ＭＳ ゴシック
100
AcDbText
  0
LINE
  5
20C
330
1F
100
AcDbEntity
  8
D-5
  6
Continuous
 62
     7
370
     9
100
AcDbLine
 10
-1222.091167952161
 20
-15.52012330608818
 30
0.0
 11
-1006.743584530353
 21
-15.52012330608818
 31
0.0
  0
TEXT
  5
20D
330
1F
100
AcDbEntity
  8
D-5
  6
Continuous
 62
     7
370
     9
100
AcDbText
 10
-1218.973803731508
 20
-46.04861626296867
 30
0.0
 40
22.86
  1
SUS304 t=1.5
 50
0.0000864829738775
 41
1.152777777777777
  7
ＭＳ ゴシック
100
AcDbText
  0
TEXT
  5
20E
330
1F
100
AcDbEntity
  8
D-5
  6
Continuous
 62
     7
370
     9
100
AcDbText
 10
-1218.973790961877
 20
-6.53149827557542
 30
0.0
 40
22.86
  1
本体
 50
359.9999135170264
 41
1.083333333333317
  7
ＭＳ ゴシック
100
AcDbText
  0
LINE
  5
20F
330
1F
100
AcDbEntity
  8
D-5
  6
Continuous
 62
     7
370
     9
100
AcDbLine
 10
-1006.743584530353
 20
-15.52012330608818
 30
0.0
 11
-898.5483874399267
 21
92.67507378433606
 31
0.0
  0
LINE
  5
210
330
1F
100
AcDbEntity
  8
D-5
  6
Continuous
 62
     7
370
     9
100
AcDbLine
 10
-898.5483874399267
 20
92.67507378433606
 30
0.0
 11
-913.7674231651442
 21
72.84124027705388
 31
0.0
  0
LINE
  5
211
330
1F
100
AcDbEntity
  8
D-5
  6
Continuous
 62
     7
370
     9
100
AcDbLine
 10
-898.5483874399267
 20
92.67507378433606
 30
0.0
 11
-918.3822209472089
 21
77.45603805911855
 31
0.0
  0
LINE
  5
212
330
1F
100
AcDbEntity
  8
D-5
  6
Continuous
 62
     7
370
     9
100
AcDbLine
 10
65.8444072441273
 20
-161.239034853885
 30
0.0
 11
286.2992548198429
 21
-161.239034853885
 31
0.0
  0
TEXT
  5
213
330
1F
100
AcDbEntity
  8
D-5
  6
Continuous
 62
     7
370
     9
100
AcDbText
 10
74.06903561868593
 20
-191.7675278107654
 30
0.0
 40
22.86
  1
SUS304 t=1.5
 50
0.0000864829738775
 41
1.152777777777777
  7
ＭＳ ゴシック
100
AcDbText
  0
TEXT
  5
214
330
1F
100
AcDbEntity
  8
D-5
  6
Continuous
 62
     7
370
     9
100
AcDbText
 10
74.06904838831686
 20
-152.2504098233722
 30
0.0
 40
22.86
  1
アンカー
 50
359.9999135170264
 41
1.125000000000012
  7
ＭＳ ゴシック
100
AcDbText
  0
LINE
  5
215
330
1F
100
AcDbEntity
  8
D-5
  6
Continuous
 62
     7
370
     9
100
AcDbLine
 10
65.8444072441273
 20
-161.239034853885
 30
0.0
 11
-134.2505389586802
 21
297.8020923537622
 31
0.0
  0
LINE
  5
216
330
1F
100
AcDbEntity
  8
D-5
  6
Continuous
 62
     7
370
     9
100
AcDbLine
 10
-134.2505389586802
 20
297.8020923537622
 30
0.0
 11
-121.3550415607972
 21
276.3846661110699
 31
0.0
  0
LINE
  5
217
330
1F
100
AcDbEntity
  8
D-5
  6
Continuous
 62
     7
370
     9
100
AcDbLine
 10
-134.2505389586802
 20
297.8020923537622
 30
0.0
 11
-127.3376827879099
 21
273.7768468906609
 31
0.0
  0
LINE
  5
218
330
1F
100
AcDbEntity
  8
D-4
  6
Continuous
 62
     7
370
     9
100
AcDbLine
 10
-320.9742098581489
 20
177.3401766606014
 30
0.0
 11
-313.4742098581398
 21
177.3401766606014
 31
0.0
  0
LWPOLYLINE
  5
219
330
1F
100
AcDbEntity
  8
D-4
  6
Continuous
 62
     7
370
     9
100
AcDbPolyline
 90
        4
 70
     1
 43
1.0
 10
-320.4742098581489
 20
177.3401766606014
 42
0.4142135623731
 10
-320.9742098581489
 20
177.8401766606014
 42
0.4142135623731
 10
-321.4742098581489
 20
177.3401766606014
 42
0.4142135623731
 10
-320.9742098581489
 20
176.8401766606014
 42
0.4142135623731
  0
LWPOLYLINE
  5
21A
330
1F
100
AcDbEntity
  8
D-4
  6
Continuous
 62
     7
370
     9
100
AcDbPolyline
 90
        4
 70
     1
 43
1.0
 10
-312.9742098581398
 20
177.3401766606014
 42
0.4142135623731
 10
-313.4742098581398
 20
177.8401766606014
 42
0.4142135623731
 10
-313.9742098581398
 20
177.3401766606014
 42
0.4142135623731
 10
-313.4742098581398
 20
176.8401766606014
 42
0.4142135623731
  0
TEXT
  5
21B
330
1F
100
AcDbEntity
  8
D-4
  6
Continuous
 62
     2
370
   211
100
AcDbText
 10
-287.3156074315216
 20
188.9801766606005
 30
0.0
 40
30.48
  1
1.5
 41
1.083333333333333
  7
ＭＳ ゴシック
100
AcDbText
  0
LINE
  5
21C
330
1F
100
AcDbEntity
  8
D-4
  6
Continuous
 62
     7
370
     9
100
AcDbLine
 10
-313.4742098581398
 20
177.3401766606014
 30
0.0
 11
-208.838096680945
 21
177.3401766606014
 31
0.0
  0
LINE
  5
21D
330
1F
100
AcDbEntity
  8
D-4
  6
Continuous
 62
     7
370
     9
100
AcDbLine
 10
-1070.974209858149
 20
477.8694025349466
 30
0.0
 11
-320.9742098581489
 21
477.8694025349466
 31
0.0
  0
LWPOLYLINE
  5
21E
330
1F
100
AcDbEntity
  8
D-4
  6
Continuous
 62
     7
370
     9
100
AcDbPolyline
 90
        4
 70
     1
 43
1.0
 10
-1070.474209858149
 20
477.8694025349466
 42
0.4142135623731
 10
-1070.974209858149
 20
478.3694025349466
 42
0.4142135623731
 10
-1071.474209858149
 20
477.8694025349466
 42
0.4142135623731
 10
-1070.974209858149
 20
477.3694025349466
 42
0.4142135623731
  0
LWPOLYLINE
  5
21F
330
1F
100
AcDbEntity
  8
D-4
  6
Continuous
 62
     7
370
     9
100
AcDbPolyline
 90
        4
 70
     1
 43
1.0
 10
-320.4742098581489
 20
477.8694025349466
 42
0.4142135623731
 10
-320.9742098581489
 20
478.3694025349466
 42
0.4142135623731
 10
-321.4742098581489
 20
477.8694025349466
 42
0.4142135623731
 10
-320.9742098581489
 20
477.3694025349466
 42
0.4142135623731
  0
LINE
  5
220
330
1F
100
AcDbEntity
  8
D-4
  6
Continuous
 62
     7
370
     9
100
AcDbLine
 10
-1200.974209858149
 20
541.4068530829365
 30
0.0
 11
-190.9742098581489
 21
541.4068530829365
 31
0.0
  0
LWPOLYLINE
  5
221
330
1F
100
AcDbEntity
  8
D-4
  6
Continuous
 62
     7
370
     9
100
AcDbPolyline
 90
        4
 70
     1
 43
1.0
 10
-1200.474209858149
 20
541.4068530829365
 42
0.4142135623731
 10
-1200.974209858149
 20
541.9068530829365
 42
0.4142135623731
 10
-1201.474209858149
 20
541.4068530829365
 42
0.4142135623731
 10
-1200.974209858149
 20
540.9068530829365
 42
0.4142135623731
  0
LWPOLYLINE
  5
222
330
1F
100
AcDbEntity
  8
D-4
  6
Continuous
 62
     7
370
     9
100
AcDbPolyline
 90
        4
 70
     1
 43
1.0
 10
-190.4742098581489
 20
541.4068530829365
 42
0.4142135623731
 10
-190.9742098581489
 20
541.9068530829365
 42
0.4142135623731
 10
-191.4742098581489
 20
541.4068530829365
 42
0.4142135623731
 10
-190.9742098581489
 20
540.9068530829365
 42
0.4142135623731
  0
LINE
  5
223
330
1F
100
AcDbEntity
  8
D-4
  6
Continuous
 62
     7
370
     9
100
AcDbLine
 10
-1275.974209858149
 20
605.6907969765905
 30
0.0
 11
-115.9742098581489
 21
605.6907969765905
 31
0.0
  0
LWPOLYLINE
  5
224
330
1F
100
AcDbEntity
  8
D-4
  6
Continuous
 62
     7
370
     9
100
AcDbPolyline
 90
        4
 70
     1
 43
1.0
 10
-1275.474209858149
 20
605.6907969765905
 42
0.4142135623731
 10
-1275.974209858149
 20
606.1907969765905
 42
0.4142135623731
 10
-1276.474209858149
 20
605.6907969765905
 42
0.4142135623731
 10
-1275.974209858149
 20
605.1907969765905
 42
0.4142135623731
  0
LWPOLYLINE
  5
225
330
1F
100
AcDbEntity
  8
D-4
  6
Continuous
 62
     7
370
     9
100
AcDbPolyline
 90
        4
 70
     1
 43
1.0
 10
-115.4742098581489
 20
605.6907969765905
 42
0.4142135623731
 10
-115.9742098581489
 20
606.1907969765905
 42
0.4142135623731
 10
-116.4742098581489
 20
605.6907969765905
 42
0.4142135623731
 10
-115.9742098581489
 20
605.1907969765905
 42
0.4142135623731
  0
TEXT
  5
226
330
1F
100
AcDbEntity
  8
D-4
  6
Continuous
 62
     2
370
   211
100
AcDbText
 10
-738.4742098581489
 20
489.509402534948
 30
0.0
 40
30.48
  1
Ｗ１
 41
1.0625
  7
ＭＳ ゴシック
100
AcDbText
  0
TEXT
  5
227
330
1F
100
AcDbEntity
  8
D-4
  6
Continuous
 62
     2
370
   211
100
AcDbText
 10
-738.4742098581489
 20
553.0468530829379
 30
0.0
 40
30.48
  1
Ｗ２
 41
1.0625
  7
ＭＳ ゴシック
100
AcDbText
  0
TEXT
  5
228
330
1F
100
AcDbEntity
  8
D-4
  6
Continuous
 62
     2
370
   211
100
AcDbText
 10
-738.4742098581489
 20
617.3307969765918
 30
0.0
 40
30.48
  1
Ｗ３
 41
1.0625
  7
ＭＳ ゴシック
100
AcDbText
  0
LINE
  5
229
330
1F
100
AcDbEntity
  8
D-4
  6
Continuous
 62
     7
370
     9
100
AcDbLine
 10
-320.9742098581489
 20
477.8694025349466
 30
0.0
 11
-190.9742098581489
 21
477.8694025349466
 31
0.0
  0
LWPOLYLINE
  5
22A
330
1F
100
AcDbEntity
  8
D-4
  6
Continuous
 62
     7
370
     9
100
AcDbPolyline
 90
        4
 70
     1
 43
1.0
 10
-320.4742098581489
 20
477.8694025349466
 42
0.4142135623731
 10
-320.9742098581489
 20
478.3694025349466
 42
0.4142135623731
 10
-321.4742098581489
 20
477.8694025349466
 42
0.4142135623731
 10
-320.9742098581489
 20
477.3694025349466
 42
0.4142135623731
  0
LWPOLYLINE
  5
22B
330
1F
100
AcDbEntity
  8
D-4
  6
Continuous
 62
     7
370
     9
100
AcDbPolyline
 90
        4
 70
     1
 43
1.0
 10
-190.4742098581489
 20
477.8694025349466
 42
0.4142135623731
 10
-190.9742098581489
 20
478.3694025349466
 42
0.4142135623731
 10
-191.4742098581489
 20
477.8694025349466
 42
0.4142135623731
 10
-190.9742098581489
 20
477.3694025349466
 42
0.4142135623731
  0
TEXT
  5
22C
330
1F
100
AcDbEntity
  8
D-4
  6
Continuous
 62
     2
370
   211
100
AcDbText
 10
-277.2242098581489
 20
489.509402534948
 30
0.0
 40
30.48
  1
26
 41
1.0625
  7
ＭＳ ゴシック
100
AcDbText
  0
LINE
  5
22D
330
1F
100
AcDbEntity
  8
D-4
  6
Continuous
 62
     7
370
     9
100
AcDbLine
 10
-1070.974209858149
 20
477.8694025349466
 30
0.0
 11
-1200.974209858149
 21
477.8694025349466
 31
0.0
  0
LWPOLYLINE
  5
22E
330
1F
100
AcDbEntity
  8
D-4
  6
Continuous
 62
     7
370
     9
100
AcDbPolyline
 90
        4
 70
     1
 43
1.0
 10
-1070.474209858149
 20
477.8694025349466
 42
0.4142135623731
 10
-1070.974209858149
 20
478.3694025349466
 42
0.4142135623731
 10
-1071.474209858149
 20
477.8694025349466
 42
0.4142135623731
 10
-1070.974209858149
 20
477.3694025349466
 42
0.4142135623731
  0
LWPOLYLINE
  5
22F
330
1F
100
AcDbEntity
  8
D-4
  6
Continuous
 62
     7
370
     9
100
AcDbPolyline
 90
        4
 70
     1
 43
1.0
 10
-1200.474209858149
 20
477.8694025349466
 42
0.4142135623731
 10
-1200.974209858149
 20
478.3694025349466
 42
0.4142135623731
 10
-1201.474209858149
 20
477.8694025349466
 42
0.4142135623731
 10
-1200.974209858149
 20
477.3694025349466
 42
0.4142135623731
  0
TEXT
  5
230
330
1F
100
AcDbEntity
  8
D-4
  6
Continuous
 62
     2
370
   211
100
AcDbText
 10
-1157.224209858149
 20
489.509402534948
 30
0.0
 40
30.48
  1
26
 41
1.0625
  7
ＭＳ ゴシック
100
AcDbText
  0
LINE
  5
231
330
1F
100
AcDbEntity
  8
D-4
  6
Continuous
 62
     7
370
     9
100
AcDbLine
 10
-1200.974209858149
 20
541.4068530829365
 30
0.0
 11
-1275.974209858149
 21
541.4068530829365
 31
0.0
  0
LWPOLYLINE
  5
232
330
1F
100
AcDbEntity
  8
D-4
  6
Continuous
 62
     7
370
     9
100
AcDbPolyline
 90
        4
 70
     1
 43
1.0
 10
-1200.474209858149
 20
541.4068530829365
 42
0.4142135623731
 10
-1200.974209858149
 20
541.9068530829365
 42
0.4142135623731
 10
-1201.474209858149
 20
541.4068530829365
 42
0.4142135623731
 10
-1200.974209858149
 20
540.9068530829365
 42
0.4142135623731
  0
LWPOLYLINE
  5
233
330
1F
100
AcDbEntity
  8
D-4
  6
Continuous
 62
     7
370
     9
100
AcDbPolyline
 90
        4
 70
     1
 43
1.0
 10
-1275.474209858149
 20
541.4068530829365
 42
0.4142135623731
 10
-1275.974209858149
 20
541.9068530829365
 42
0.4142135623731
 10
-1276.474209858149
 20
541.4068530829365
 42
0.4142135623731
 10
-1275.974209858149
 20
540.9068530829365
 42
0.4142135623731
  0
TEXT
  5
234
330
1F
100
AcDbEntity
  8
D-4
  6
Continuous
 62
     2
370
   211
100
AcDbText
 10
-1259.724209858149
 20
553.0468530829379
 30
0.0
 40
30.48
  1
15
 41
1.0625
  7
ＭＳ ゴシック
100
AcDbText
  0
LINE
  5
235
330
1F
100
AcDbEntity
  8
D-4
  6
Continuous
 62
     7
370
     9
100
AcDbLine
 10
-190.9742098581489
 20
541.4068530829365
 30
0.0
 11
-115.9742098581489
 21
541.4068530829365
 31
0.0
  0
LWPOLYLINE
  5
236
330
1F
100
AcDbEntity
  8
D-4
  6
Continuous
 62
     7
370
     9
100
AcDbPolyline
 90
        4
 70
     1
 43
1.0
 10
-190.4742098581489
 20
541.4068530829365
 42
0.4142135623731
 10
-190.9742098581489
 20
541.9068530829365
 42
0.4142135623731
 10
-191.4742098581489
 20
541.4068530829365
 42
0.4142135623731
 10
-190.9742098581489
 20
540.9068530829365
 42
0.4142135623731
  0
LWPOLYLINE
  5
237
330
1F
100
AcDbEntity
  8
D-4
  6
Continuous
 62
     7
370
     9
100
AcDbPolyline
 90
        4
 70
     1
 43
1.0
 10
-115.4742098581489
 20
541.4068530829365
 42
0.4142135623731
 10
-115.9742098581489
 20
541.9068530829365
 42
0.4142135623731
 10
-116.4742098581489
 20
541.4068530829365
 42
0.4142135623731
 10
-115.9742098581489
 20
540.9068530829365
 42
0.4142135623731
  0
TEXT
  5
238
330
1F
100
AcDbEntity
  8
D-4
  6
Continuous
 62
     2
370
   211
100
AcDbText
 10
-174.7242098581489
 20
553.0468530829379
 30
0.0
 40
30.48
  1
15
 41
1.0625
  7
ＭＳ ゴシック
100
AcDbText
  0
LINE
  5
239
330
1F
100
AcDbEntity
  8
D-4
  6
Continuous
 62
     7
370
     9
100
AcDbLine
 10
-1200.974209858149
 20
544.4068530829361
 30
0.0
 11
-1200.974209858149
 21
404.2286876646165
 31
0.0
  0
LINE
  5
23A
330
1F
100
AcDbEntity
  8
D-4
  6
Continuous
 62
     7
370
     9
100
AcDbLine
 10
-190.9742098581489
 20
544.4068530829361
 30
0.0
 11
-190.9742098581489
 21
404.2286876646165
 31
0.0
  0
LINE
  5
23B
330
1F
100
AcDbEntity
  8
D-4
  6
Continuous
 62
     7
370
     9
100
AcDbLine
 10
-1275.974209858149
 20
608.6907969765923
 30
0.0
 11
-1275.974209858149
 21
404.2286876646165
 31
0.0
  0
LINE
  5
23C
330
1F
100
AcDbEntity
  8
D-4
  6
Continuous
 62
     7
370
     9
100
AcDbLine
 10
-115.9742098581489
 20
608.6907969765923
 30
0.0
 11
-115.9742098581489
 21
404.2286876646165
 31
0.0
  0
LINE
  5
23D
330
1F
100
AcDbEntity
  8
D-4
  6
Continuous
 62
     7
370
     9
100
AcDbLine
 10
-1070.974209858149
 20
480.8694025349462
 30
0.0
 11
-1070.974209858149
 21
325.2303249235877
 31
0.0
  0
LINE
  5
23E
330
1F
100
AcDbEntity
  8
D-4
  6
Continuous
 62
     7
370
     9
100
AcDbLine
 10
-320.9742098581489
 20
480.8694025349462
 30
0.0
 11
-320.9742098581489
 21
325.2303249235877
 31
0.0
  0
LINE
  5
23F
330
1F
100
AcDbEntity
  8
D-4
  6
Continuous
 62
     7
370
     9
100
AcDbLine
 10
-1275.974209858149
 20
605.6907969765905
 30
0.0
 11
-1385.974209858149
 21
605.6907969765905
 31
0.0
  0
LWPOLYLINE
  5
240
330
1F
100
AcDbEntity
  8
D-4
  6
Continuous
 62
     7
370
     9
100
AcDbPolyline
 90
        4
 70
     1
 43
1.0
 10
-1275.474209858149
 20
605.6907969765905
 42
0.4142135623731
 10
-1275.974209858149
 20
606.1907969765905
 42
0.4142135623731
 10
-1276.474209858149
 20
605.6907969765905
 42
0.4142135623731
 10
-1275.974209858149
 20
605.1907969765905
 42
0.4142135623731
  0
LWPOLYLINE
  5
241
330
1F
100
AcDbEntity
  8
D-4
  6
Continuous
 62
     7
370
     9
100
AcDbPolyline
 90
        4
 70
     1
 43
1.0
 10
-1385.474209858149
 20
605.6907969765905
 42
0.4142135623731
 10
-1385.974209858149
 20
606.1907969765905
 42
0.4142135623731
 10
-1386.474209858149
 20
605.6907969765905
 42
0.4142135623731
 10
-1385.974209858149
 20
605.1907969765905
 42
0.4142135623731
  0
LINE
  5
242
330
1F
100
AcDbEntity
  8
D-4
  6
Continuous
 62
     7
370
     9
100
AcDbLine
 10
-1385.974209858149
 20
608.69079697659
 30
0.0
 11
-1385.974209858149
 21
325.3020923537622
 31
0.0
  0
TEXT
  5
243
330
1F
100
AcDbEntity
  8
D-4
  6
Continuous
 62
     2
370
   211
100
AcDbText
 10
-1352.224209858149
 20
617.3307969765918
 30
0.0
 40
30.48
  1
22
 41
1.0625
  7
ＭＳ ゴシック
100
AcDbText
  0
LINE
  5
244
330
1F
100
AcDbEntity
  8
D-4
  6
Continuous
 62
     7
370
     9
100
AcDbLine
 10
-115.9742098581489
 20
605.6907969765905
 30
0.0
 11
-5.97420985813983
 21
605.6907969765905
 31
0.0
  0
LWPOLYLINE
  5
245
330
1F
100
AcDbEntity
  8
D-4
  6
Continuous
 62
     7
370
     9
100
AcDbPolyline
 90
        4
 70
     1
 43
1.0
 10
-115.4742098581489
 20
605.6907969765905
 42
0.4142135623731
 10
-115.9742098581489
 20
606.1907969765905
 42
0.4142135623731
 10
-116.4742098581489
 20
605.6907969765905
 42
0.4142135623731
 10
-115.9742098581489
 20
605.1907969765905
 42
0.4142135623731
  0
LWPOLYLINE
  5
246
330
1F
100
AcDbEntity
  8
D-4
  6
Continuous
 62
     7
370
     9
100
AcDbPolyline
 90
        4
 70
     1
 43
1.0
 10
-5.47420985813983
 20
605.6907969765905
 42
0.4142135623731
 10
-5.97420985813983
 20
606.1907969765905
 42
0.4142135623731
 10
-6.47420985813983
 20
605.6907969765905
 42
0.4142135623731
 10
-5.97420985813983
 20
605.1907969765905
 42
0.4142135623731
  0
LINE
  5
247
330
1F
100
AcDbEntity
  8
D-4
  6
Continuous
 62
     7
370
     9
100
AcDbLine
 10
-5.97420985813983
 20
608.69079697659
 30
0.0
 11
-5.97420985813983
 21
325.3020923537622
 31
0.0
  0
TEXT
  5
248
330
1F
100
AcDbEntity
  8
D-4
  6
Continuous
 62
     2
370
   211
100
AcDbText
 10
-82.22420985814438
 20
617.3307969765918
 30
0.0
 40
30.48
  1
22
 41
1.0625
  7
ＭＳ ゴシック
100
AcDbText
  0
TEXT
  5
249
330
1F
100
AcDbEntity
  8
D-5
  6
Continuous
 62
     2
370
     9
100
AcDbText
 10
-940.9742098581444
 20
-204.2925978922718
 30
0.0
 40
30.48
  1
断面詳細図　Ｓ＝１：２
 41
1.113636363636364
  7
ＭＳ ゴシック
100
AcDbText
  0
LINE
  5
24A
330
1F
100
AcDbEntity
  8
D-5
  6
Continuous
 62
     7
370
     9
100
AcDbLine
 10
-958.9742098581416
 20
-154.9325978922718
 30
0.0
 11
-432.9742098581426
 21
-154.9325978922718
 31
0.0
  0
LINE
  5
24B
330
1F
100
AcDbEntity
  8
D-5
  6
Continuous
 62
     7
370
     9
100
AcDbLine
 10
-958.9742098581416
 20
-224.9325978922718
 30
0.0
 11
-432.9742098581426
 21
-224.9325978922718
 31
0.0
  0
LINE
  5
24C
330
1F
100
AcDbEntity
  8
D-5
  6
Continuous
 62
     7
370
     9
100
AcDbLine
 10
-958.9742098581416
 20
-154.9325978922718
 30
0.0
 11
-958.9742098581416
 21
-224.9325978922718
 31
0.0
  0
LINE
  5
24D
330
1F
100
AcDbEntity
  8
D-5
  6
Continuous
 62
     7
370
     9
100
AcDbLine
 10
-432.9742098581426
 20
-154.9325978922718
 30
0.0
 11
-432.9742098581426
 21
-224.9325978922718
 31
0.0
  0
LINE
  5
24E
330
1F
100
AcDbEntity
  8
C-3
  6
Continuous
 62
     4
370
     9
100
AcDbLine
 10
-111.5370661991199
 20
-596.8594759418397
 30
0.0
 11
-111.5370661991199
 21
-364.8594950153267
 31
0.0
  0
LINE
  5
24F
330
1F
100
AcDbEntity
  8
C-3
  6
Continuous
 62
     4
370
     9
100
AcDbLine
 10
-110.037066199119
 20
-718.1646176528602
 30
0.0
 11
-111.5370661991199
 21
-718.1646176528602
 31
0.0
  0
LINE
  5
250
330
1F
100
AcDbEntity
  8
C-3
  6
Continuous
 62
     4
370
     9
100
AcDbLine
 10
-111.5370661991199
 20
-714.1646176528593
 30
0.0
 11
-111.5370661991199
 21
-718.1646176528602
 31
0.0
  0
LINE
  5
251
330
1F
100
AcDbEntity
  8
C-3
  6
Continuous
 62
     4
370
     9
100
AcDbLine
 10
-99.53706619911941
 20
-711.1646176528598
 30
0.0
 11
-108.5370661991203
 21
-711.1646176528598
 31
0.0
  0
LINE
  5
252
330
1F
100
AcDbEntity
  8
C-3
  6
Continuous
 62
     4
370
     9
100
AcDbLine
 10
-110.037066199119
 20
-714.1646176528593
 30
0.0
 11
-110.037066199119
 21
-718.1646176528602
 31
0.0
  0
LINE
  5
253
330
1F
100
AcDbEntity
  8
C-3
  6
Continuous
 62
     4
370
     9
100
AcDbLine
 10
-99.53706619911941
 20
-712.6646176528607
 30
0.0
 11
-108.5370661991203
 21
-712.6646176528607
 31
0.0
  0
LINE
  5
254
330
1F
100
AcDbEntity
  8
C-3
  6
Continuous
 62
     4
370
     9
100
AcDbLine
 10
-98.03706619912077
 20
-714.1646176528593
 30
0.0
 11
-98.03706619912077
 21
-781.1646176528598
 31
0.0
  0
ARC
  5
255
330
1F
100
AcDbEntity
  8
C-3
  6
Continuous
 62
     4
370
     9
100
AcDbCircle
 10
-108.5370661991203
 20
-714.1646176528593
 30
0.0
 40
3.0
100
AcDbArc
 50
90.0
 51
180.0
  0
ARC
  5
256
330
1F
100
AcDbEntity
  8
C-3
  6
Continuous
 62
     4
370
     9
100
AcDbCircle
 10
-99.53706619911941
 20
-714.1646176528593
 30
0.0
 40
3.0
100
AcDbArc
 50
0.0
 51
90.0
  0
ARC
  5
257
330
1F
100
AcDbEntity
  8
C-3
  6
Continuous
 62
     4
370
     9
100
AcDbCircle
 10
-108.5370661991203
 20
-714.1646176528593
 30
0.0
 40
1.5
100
AcDbArc
 50
90.0
 51
180.0
  0
ARC
  5
258
330
1F
100
AcDbEntity
  8
C-3
  6
Continuous
 62
     4
370
     9
100
AcDbCircle
 10
-99.53706619911941
 20
-714.1646176528593
 30
0.0
 40
1.5
100
AcDbArc
 50
0.0
 51
90.0
  0
LINE
  5
259
330
1F
100
AcDbEntity
  8
C-3
  6
Continuous
 62
     4
370
     9
100
AcDbLine
 10
-96.53706619911986
 20
-728.6646176528598
 30
0.0
 11
7.1861214532953
 21
-728.6646176528598
 31
0.0
  0
LINE
  5
25A
330
1F
100
AcDbEntity
  8
C-3
  6
Continuous
 62
     4
370
     9
100
AcDbLine
 10
-96.53706619911986
 20
-711.1646176528598
 30
0.0
 11
7.1861214532953
 21
-711.1646176528598
 31
0.0
  0
LINE
  5
25B
330
1F
100
AcDbEntity
  8
C-3
  6
Continuous
 62
     4
370
     9
100
AcDbLine
 10
-96.53706619911986
 20
-719.1646176528604
 30
0.0
 11
7.1861214532953
 21
-719.1646176528604
 31
0.0
  0
LINE
  5
25C
330
1F
100
AcDbEntity
  8
C-3
  6
Continuous
 62
     4
370
     9
100
AcDbLine
 10
-96.53706619911986
 20
-776.1646176528598
 30
0.0
 11
7.1861214532953
 21
-777.0289775499634
 31
0.0
  0
LINE
  5
25D
330
1F
100
AcDbEntity
  8
C-3
  6
Continuous
 62
     4
370
     9
100
AcDbLine
 10
-96.53706619911986
 20
-766.7742520524803
 30
0.0
 11
7.1861214532953
 21
-767.6386119495828
 31
0.0
  0
LINE
  5
25E
330
1F
100
AcDbEntity
  8
C-3
  6
Continuous
 62
     4
370
     9
100
AcDbLine
 10
-96.53706619911986
 20
-711.1646176528598
 30
0.0
 11
-96.53706619911986
 21
-781.1646176528598
 31
0.0
  0
LINE
  5
25F
330
1F
100
AcDbEntity
  8
C-3
  6
Continuous
 62
     4
370
     9
100
AcDbLine
 10
-96.53706619911986
 20
-781.1646176528598
 30
0.0
 11
-98.03706619912077
 21
-781.1646176528598
 31
0.0
  0
LINE
  5
260
330
1F
100
AcDbEntity
  8
C-3
  6
Continuous
 62
     4
370
     9
100
AcDbLine
 10
-96.53706619911986
 20
-596.8594759418397
 30
0.0
 11
-96.53706619911986
 21
-364.8594950153267
 31
0.0
  0
LINE
  5
261
330
1F
100
AcDbEntity
  8
C-3
  6
Continuous
 62
     4
370
     9
100
AcDbLine
 10
7.1861214532953
 20
-379.8594950153267
 30
0.0
 11
-96.53706619911986
 21
-379.8594950153267
 31
0.0
  0
LINE
  5
262
330
1F
100
AcDbEntity
  8
C-3
  6
Continuous
 62
     4
370
     9
100
AcDbLine
 10
7.1861214532953
 20
-581.8594759418397
 30
0.0
 11
-96.53706619911986
 21
-581.8594759418397
 31
0.0
  0
LINE
  5
263
330
1F
100
AcDbEntity
  8
C-3
  6
Continuous
 62
     4
370
     9
100
AcDbLine
 10
7.1861214532953
 20
-480.8594873859317
 30
0.0
 11
-96.53706619911986
 21
-480.8594873859317
 31
0.0
  0
LINE
  5
264
330
1F
100
AcDbEntity
  8
C-3
  6
Continuous
 62
     4
370
     9
100
AcDbLine
 10
7.1861214532953
 20
-555.8597353412529
 30
0.0
 11
-96.53706619911986
 21
-555.8597353412529
 31
0.0
  0
LINE
  5
265
330
1F
100
AcDbEntity
  8
C-3
  6
Continuous
 62
     4
370
     9
100
AcDbLine
 10
7.1861214532953
 20
-405.8592356159124
 30
0.0
 11
-96.53706619911986
 21
-405.8592356159124
 31
0.0
  0
LINE
  5
266
330
1F
100
AcDbEntity
  8
C-3
  6
JWW_CENTER2
 62
     4
370
     9
100
AcDbLine
 10
7.1861214532953
 20
-480.8594873859317
 30
0.0
 11
48.4745499505982
 21
-480.8594873859317
 31
0.0
  0
LINE
  5
267
330
1F
100
AcDbEntity
  8
C-3
  6
Continuous
 62
     4
370
     9
100
AcDbLine
 10
7.1861214532953
 20
-364.8594950153267
 30
0.0
 11
-111.5370661991199
 21
-364.8594950153267
 31
0.0
  0
LINE
  5
268
330
1F
100
AcDbEntity
  8
C-3
  6
Continuous
 62
     4
370
     9
100
AcDbLine
 10
7.1861214532953
 20
-596.8594759418397
 30
0.0
 11
-111.5370661991199
 21
-596.8594759418397
 31
0.0
  0
LINE
  5
269
330
1F
100
AcDbEntity
  8
C-3
  6
JWW_CENTER2
 62
     4
370
     9
100
AcDbLine
 10
-96.53706619911986
 20
-480.8594873859317
 30
0.0
 11
-165.9799574923579
 21
-480.8594873859317
 31
0.0
  0
LINE
  5
26A
330
1F
100
AcDbEntity
  8
C-4
  6
Continuous
 62
     7
370
     9
100
AcDbLine
 10
-111.5370661991199
 20
-667.8438719556812
 30
0.0
 11
-96.53706619911986
 21
-667.8438719556812
 31
0.0
  0
LWPOLYLINE
  5
26B
330
1F
100
AcDbEntity
  8
C-4
  6
Continuous
 62
     7
370
     9
100
AcDbPolyline
 90
        4
 70
     1
 43
1.0
 10
-111.0370661991199
 20
-667.8438719556812
 42
0.4142135623731
 10
-111.5370661991199
 20
-667.3438719556812
 42
0.4142135623731
 10
-112.0370661991199
 20
-667.8438719556812
 42
0.4142135623731
 10
-111.5370661991199
 20
-668.3438719556812
 42
0.4142135623731
  0
LWPOLYLINE
  5
26C
330
1F
100
AcDbEntity
  8
C-4
  6
Continuous
 62
     7
370
     9
100
AcDbPolyline
 90
        4
 70
     1
 43
1.0
 10
-96.03706619911986
 20
-667.8438719556812
 42
0.4142135623731
 10
-96.53706619911986
 20
-667.3438719556812
 42
0.4142135623731
 10
-97.03706619911986
 20
-667.8438719556812
 42
0.4142135623731
 10
-96.53706619911986
 20
-668.3438719556812
 42
0.4142135623731
  0
LINE
  5
26D
330
1F
100
AcDbEntity
  8
C-4
  6
Continuous
 62
     7
370
     9
100
AcDbLine
 10
-111.5370661991199
 20
-664.8438719556816
 30
0.0
 11
-111.5370661991199
 21
-694.1646176528593
 31
0.0
  0
TEXT
  5
26E
330
1F
100
AcDbEntity
  8
C-4
  6
Continuous
 62
     2
370
   211
100
AcDbText
 10
-125.2870661991199
 20
-656.2038719556809
 30
0.0
 40
30.48
  1
15
 41
1.0625
  7
ＭＳ ゴシック
100
AcDbText
  0
LINE
  5
26F
330
1F
100
AcDbEntity
  8
C-4
  6
Continuous
 62
     7
370
     9
100
AcDbLine
 10
-96.53706619911986
 20
-664.8438719556816
 30
0.0
 11
-96.53706619911986
 21
-694.1646176528593
 31
0.0
  0
TEXT
  5
270
330
1F
100
AcDbEntity
  8
C-5
  6
Continuous
 62
     7
370
     9
100
AcDbText
 10
-417.5761314509897
 20
-395.8864406709986
 30
0.0
 40
22.86
  1
SUS304 t=1.5
 50
0.0000864829738775
 41
1.152777777777752
  7
ＭＳ ゴシック
100
AcDbText
  0
LINE
  5
271
330
1F
100
AcDbEntity
  8
C-5
  6
Continuous
 62
     7
370
     9
100
AcDbLine
 10
-420.6934956716429
 20
-365.3579477141182
 30
0.0
 11
-167.3686629017755
 21
-365.3579477141182
 31
0.0
  0
TEXT
  5
272
330
1F
100
AcDbEntity
  8
C-5
  6
Continuous
 62
     7
370
     9
100
AcDbText
 10
-417.5761186813588
 20
-356.3693226836054
 30
0.0
 40
22.86
  1
エンドプレート
 50
359.9999135170264
 41
1.142857142857145
  7
ＭＳ ゴシック
100
AcDbText
  0
LINE
  5
273
330
1F
100
AcDbEntity
  8
C-5
  6
Continuous
 62
     7
370
     9
100
AcDbLine
 10
-167.3686629017755
 20
-365.3579477141182
 30
0.0
 11
-111.5370661991199
 21
-440.8594797565377
 31
0.0
  0
LINE
  5
274
330
1F
100
AcDbEntity
  8
C-5
  6
Continuous
 62
     7
370
     9
100
AcDbLine
 10
-111.5370661991199
 20
-440.8594797565377
 30
0.0
 11
-128.8978903710051
 21
-422.8705447109917
 31
0.0
  0
LINE
  5
275
330
1F
100
AcDbEntity
  8
C-5
  6
Continuous
 62
     7
370
     9
100
AcDbLine
 10
-111.5370661991199
 20
-440.8594797565377
 30
0.0
 11
-123.6504556415071
 21
-418.9901908742479
 31
0.0
  0
LINE
  5
276
330
1F
100
AcDbEntity
  8
C-5
  6
Continuous
 62
     7
370
     9
100
AcDbLine
 10
-547.1505150305927
 20
-889.2387256584925
 30
0.0
 11
-547.1505150305927
 21
-959.2387256584925
 31
0.0
  0
TEXT
  5
277
330
1F
100
AcDbEntity
  8
C-5
  6
Continuous
 62
     2
370
     9
100
AcDbText
 10
-519.1073784953699
 20
-1021.982076865304
 30
0.0
 40
30.48
  1
水上側端部は
 41
1.104166666666667
  7
ＭＳ ゴシック
100
AcDbText
  0
TEXT
  5
278
330
1F
100
AcDbEntity
  8
C-5
  6
Continuous
 62
     2
370
     9
100
AcDbText
 10
-519.1073784953699
 20
-1075.502716950666
 30
0.0
 40
30.48
  1
エンドプレート付きの仕様となります。
 41
1.118055555555554
  7
ＭＳ ゴシック
100
AcDbText
  0
LINE
  5
279
330
1F
100
AcDbEntity
  8
C-3
  6
Continuous
 62
     4
370
     9
100
AcDbLine
 10
-1148.421828306747
 20
-711.1646176528598
 30
0.0
 11
-1148.421828306747
 21
-733.6646176528598
 31
0.0
  0
LINE
  5
27A
330
1F
100
AcDbEntity
  8
C-3
  6
JWW_DASHED3
 62
     4
370
     9
100
AcDbLine
 10
-1148.421828306747
 20
-733.6646176528598
 30
0.0
 11
-1148.421828306747
 21
-776.1646176528598
 31
0.0
  0
LINE
  5
27B
330
1F
100
AcDbEntity
  8
C-3
  6
JWW_DASHED3
 62
     4
370
     9
100
AcDbLine
 10
-1148.343580693939
 20
-766.7749041159198
 30
0.0
 11
-1123.421828306747
 21
-766.9825853858129
 31
0.0
  0
LINE
  5
27C
330
1F
100
AcDbEntity
  8
C-3
  6
JWW_DASHED3
 62
     4
370
     9
100
AcDbLine
 10
-1148.421828306747
 20
-776.1646176528598
 30
0.0
 11
-1123.421828306747
 21
-776.3729509861935
 31
0.0
  0
LINE
  5
27D
330
1F
100
AcDbEntity
  8
C-1
  6
Continuous
 62
     2
370
     9
100
AcDbLine
 10
-1173.421828306747
 20
-733.6646176528598
 30
0.0
 11
-1123.421828306747
 21
-733.6646176528598
 31
0.0
  0
LINE
  5
27E
330
1F
100
AcDbEntity
  8
C-1
  6
Continuous
 62
     2
370
     9
100
AcDbLine
 10
-1123.421828306747
 20
-766.0794639586527
 30
0.0
 11
-1173.421828306747
 21
-765.6361306253189
 31
0.0
  0
LINE
  5
27F
330
1F
100
AcDbEntity
  8
C-1
  6
Continuous
 62
     2
370
     9
100
AcDbLine
 10
-1123.421828306747
 20
-777.889950986214
 30
0.0
 11
-1173.421828306747
 21
-777.4466176528801
 31
0.0
  0
LINE
  5
280
330
1F
100
AcDbEntity
  8
C-1
  6
Continuous
 62
     2
370
     9
100
AcDbLine
 10
-1173.421828306747
 20
-733.6646176528598
 30
0.0
 11
-1173.421828306747
 21
-777.4466176528801
 31
0.0
  0
LINE
  5
281
330
1F
100
AcDbEntity
  8
C-1
  6
Continuous
 62
     2
370
     9
100
AcDbLine
 10
-1123.421828306747
 20
-733.6646176528598
 30
0.0
 11
-1123.421828306747
 21
-777.889950986214
 31
0.0
  0
LINE
  5
282
330
1F
100
AcDbEntity
  8
C-3
  6
Continuous
 62
     4
370
     9
100
AcDbLine
 10
-1148.421828306747
 20
-728.6646176528598
 30
0.0
 11
-1044.698640654332
 21
-728.6646176528598
 31
0.0
  0
LINE
  5
283
330
1F
100
AcDbEntity
  8
C-3
  6
Continuous
 62
     4
370
     9
100
AcDbLine
 10
-1148.421828306747
 20
-711.1646176528598
 30
0.0
 11
-1044.698640654332
 21
-711.1646176528598
 31
0.0
  0
LINE
  5
284
330
1F
100
AcDbEntity
  8
C-3
  6
Continuous
 62
     4
370
     9
100
AcDbLine
 10
-1148.421828306747
 20
-719.1646176528604
 30
0.0
 11
-1044.698640654332
 21
-719.1646176528604
 31
0.0
  0
LINE
  5
285
330
1F
100
AcDbEntity
  8
C-3
  6
Continuous
 62
     4
370
     9
100
AcDbLine
 10
-1123.421828306747
 20
-766.9825853858129
 30
0.0
 11
-1044.698640654332
 21
-767.6386119495828
 31
0.0
  0
LINE
  5
286
330
1F
100
AcDbEntity
  8
C-3
  6
Continuous
 62
     4
370
     9
100
AcDbLine
 10
-1123.421828306747
 20
-776.3729509861935
 30
0.0
 11
-1044.698640654332
 21
-777.0289775499634
 31
0.0
  0
LINE
  5
287
330
1F
100
AcDbEntity
  8
C-4
  6
Continuous
 62
     7
370
     9
100
AcDbLine
 10
-1173.421828306747
 20
-855.398603197134
 30
0.0
 11
-1123.421828306747
 21
-855.398603197134
 31
0.0
  0
LWPOLYLINE
  5
288
330
1F
100
AcDbEntity
  8
C-4
  6
Continuous
 62
     7
370
     9
100
AcDbPolyline
 90
        4
 70
     1
 43
1.0
 10
-1172.921828306747
 20
-855.398603197134
 42
0.4142135623731
 10
-1173.421828306747
 20
-854.898603197134
 42
0.4142135623731
 10
-1173.921828306747
 20
-855.398603197134
 42
0.4142135623731
 10
-1173.421828306747
 20
-855.898603197134
 42
0.4142135623731
  0
LWPOLYLINE
  5
289
330
1F
100
AcDbEntity
  8
C-4
  6
Continuous
 62
     7
370
     9
100
AcDbPolyline
 90
        4
 70
     1
 43
1.0
 10
-1122.921828306747
 20
-855.398603197134
 42
0.4142135623731
 10
-1123.421828306747
 20
-854.898603197134
 42
0.4142135623731
 10
-1123.921828306747
 20
-855.398603197134
 42
0.4142135623731
 10
-1123.421828306747
 20
-855.898603197134
 42
0.4142135623731
  0
LINE
  5
28A
330
1F
100
AcDbEntity
  8
C-4
  6
Continuous
 62
     7
370
     9
100
AcDbLine
 10
-1173.421828306747
 20
-858.3986031971335
 30
0.0
 11
-1173.421828306747
 21
-797.4466176528801
 31
0.0
  0
LINE
  5
28B
330
1F
100
AcDbEntity
  8
C-4
  6
Continuous
 62
     7
370
     9
100
AcDbLine
 10
-1123.421828306747
 20
-858.3986031971335
 30
0.0
 11
-1123.421828306747
 21
-797.889950986214
 31
0.0
  0
TEXT
  5
28C
330
1F
100
AcDbEntity
  8
C-4
  6
Continuous
 62
     2
370
   211
100
AcDbText
 10
-1169.671828306747
 20
-843.7586031971338
 30
0.0
 40
30.48
  1
50
 41
1.0625
  7
ＭＳ ゴシック
100
AcDbText
  0
LINE
  5
28D
330
1F
100
AcDbEntity
  8
C-3
  6
Continuous
 62
     4
370
     9
100
AcDbLine
 10
-1148.421828306747
 20
-596.8594759418397
 30
0.0
 11
-1148.421828306747
 21
-364.8594950153267
 31
0.0
  0
LINE
  5
28E
330
1F
100
AcDbEntity
  8
C-1
  6
Continuous
 62
     2
370
     9
100
AcDbLine
 10
-1173.421828306747
 20
-402.8594873859322
 30
0.0
 11
-1173.421828306747
 21
-558.8594873859313
 31
0.0
  0
LINE
  5
28F
330
1F
100
AcDbEntity
  8
C-1
  6
Continuous
 62
     2
370
     9
100
AcDbLine
 10
-1148.421828306747
 20
-402.8594873859322
 30
0.0
 11
-1173.421828306747
 21
-402.8594873859322
 31
0.0
  0
LINE
  5
290
330
1F
100
AcDbEntity
  8
C-1
  6
Continuous
 62
     2
370
     9
100
AcDbLine
 10
-1148.421828306747
 20
-558.8594873859313
 30
0.0
 11
-1173.421828306747
 21
-558.8594873859313
 31
0.0
  0
LINE
  5
291
330
1F
100
AcDbEntity
  8
C-1
  6
JWW_DASHED3
 62
     2
370
     9
100
AcDbLine
 10
-1123.421828306747
 20
-402.8594873859322
 30
0.0
 11
-1123.421828306747
 21
-558.8594873859313
 31
0.0
  0
LINE
  5
292
330
1F
100
AcDbEntity
  8
C-1
  6
JWW_DASHED3
 62
     2
370
     9
100
AcDbLine
 10
-1123.421828306747
 20
-558.8594873859313
 30
0.0
 11
-1148.421828306747
 21
-558.8594873859313
 31
0.0
  0
LINE
  5
293
330
1F
100
AcDbEntity
  8
C-1
  6
JWW_DASHED3
 62
     2
370
     9
100
AcDbLine
 10
-1123.421828306747
 20
-402.8594873859322
 30
0.0
 11
-1148.421828306747
 21
-402.8594873859322
 31
0.0
  0
LINE
  5
294
330
1F
100
AcDbEntity
  8
C-1
  6
Continuous
 62
     2
370
     9
100
AcDbLine
 10
-1148.421828306747
 20
-480.8594873859317
 30
0.0
 11
-1173.421828306747
 21
-480.8594873859317
 31
0.0
  0
LINE
  5
295
330
1F
100
AcDbEntity
  8
C-1
  6
Continuous
 62
     2
370
     9
100
AcDbLine
 10
-1148.421828306747
 20
-404.359487385932
 30
0.0
 11
-1173.421828306747
 21
-404.359487385932
 31
0.0
  0
LINE
  5
296
330
1F
100
AcDbEntity
  8
C-1
  6
JWW_DASHED3
 62
     2
370
     9
100
AcDbLine
 10
-1123.421828306747
 20
-404.359487385932
 30
0.0
 11
-1148.421828306747
 21
-404.359487385932
 31
0.0
  0
LINE
  5
297
330
1F
100
AcDbEntity
  8
C-1
  6
Continuous
 62
     2
370
     9
100
AcDbLine
 10
-1148.421828306747
 20
-557.3594873859304
 30
0.0
 11
-1173.421828306747
 21
-557.3594873859304
 31
0.0
  0
LINE
  5
298
330
1F
100
AcDbEntity
  8
C-1
  6
JWW_DASHED3
 62
     2
370
     9
100
AcDbLine
 10
-1123.421828306747
 20
-557.3594873859304
 30
0.0
 11
-1148.421828306747
 21
-557.3594873859304
 31
0.0
  0
LINE
  5
299
330
1F
100
AcDbEntity
  8
C-3
  6
Continuous
 62
     4
370
     9
100
AcDbLine
 10
-1044.698640654332
 20
-364.8594950153267
 30
0.0
 11
-1148.421828306747
 21
-364.8594950153267
 31
0.0
  0
LINE
  5
29A
330
1F
100
AcDbEntity
  8
C-3
  6
Continuous
 62
     4
370
     9
100
AcDbLine
 10
-1044.698640654332
 20
-596.8594759418397
 30
0.0
 11
-1148.421828306747
 21
-596.8594759418397
 31
0.0
  0
LINE
  5
29B
330
1F
100
AcDbEntity
  8
C-3
  6
Continuous
 62
     4
370
     9
100
AcDbLine
 10
-1044.698640654332
 20
-379.8594950153267
 30
0.0
 11
-1148.421828306747
 21
-379.8594950153267
 31
0.0
  0
LINE
  5
29C
330
1F
100
AcDbEntity
  8
C-3
  6
Continuous
 62
     4
370
     9
100
AcDbLine
 10
-1044.698640654332
 20
-581.8594759418397
 30
0.0
 11
-1148.421828306747
 21
-581.8594759418397
 31
0.0
  0
LINE
  5
29D
330
1F
100
AcDbEntity
  8
C-3
  6
Continuous
 62
     4
370
     9
100
AcDbLine
 10
-1044.698640654332
 20
-480.8594873859317
 30
0.0
 11
-1148.421828306747
 21
-480.8594873859317
 31
0.0
  0
LINE
  5
29E
330
1F
100
AcDbEntity
  8
C-3
  6
Continuous
 62
     4
370
     9
100
AcDbLine
 10
-1044.698640654332
 20
-555.8597353412529
 30
0.0
 11
-1148.421828306747
 21
-555.8597353412529
 31
0.0
  0
LINE
  5
29F
330
1F
100
AcDbEntity
  8
C-3
  6
Continuous
 62
     4
370
     9
100
AcDbLine
 10
-1044.698640654332
 20
-405.8592356159124
 30
0.0
 11
-1148.421828306747
 21
-405.8592356159124
 31
0.0
  0
LINE
  5
2A0
330
1F
100
AcDbEntity
  8
C-3
  6
JWW_CENTER2
 62
     4
370
     9
100
AcDbLine
 10
-1173.421828306747
 20
-480.8594873859317
 30
0.0
 11
-1217.864719599985
 21
-480.8594873859317
 31
0.0
  0
LINE
  5
2A1
330
1F
100
AcDbEntity
  8
C-3
  6
JWW_CENTER2
 62
     4
370
     9
100
AcDbLine
 10
-1044.698640654332
 20
-480.8594873859317
 30
0.0
 11
-1003.410212157027
 21
-480.8594873859317
 31
0.0
  0
LINE
  5
2A2
330
1F
100
AcDbEntity
  8
C-4
  6
Continuous
 62
     7
370
     9
100
AcDbLine
 10
-1173.421828306747
 20
-667.8438719556812
 30
0.0
 11
-1148.421828306747
 21
-667.8438719556812
 31
0.0
  0
LWPOLYLINE
  5
2A3
330
1F
100
AcDbEntity
  8
C-4
  6
Continuous
 62
     7
370
     9
100
AcDbPolyline
 90
        4
 70
     1
 43
1.0
 10
-1172.921828306747
 20
-667.8438719556812
 42
0.4142135623731
 10
-1173.421828306747
 20
-667.3438719556812
 42
0.4142135623731
 10
-1173.921828306747
 20
-667.8438719556812
 42
0.4142135623731
 10
-1173.421828306747
 20
-668.3438719556812
 42
0.4142135623731
  0
LWPOLYLINE
  5
2A4
330
1F
100
AcDbEntity
  8
C-4
  6
Continuous
 62
     7
370
     9
100
AcDbPolyline
 90
        4
 70
     1
 43
1.0
 10
-1147.921828306747
 20
-667.8438719556812
 42
0.4142135623731
 10
-1148.421828306747
 20
-667.3438719556812
 42
0.4142135623731
 10
-1148.921828306747
 20
-667.8438719556812
 42
0.4142135623731
 10
-1148.421828306747
 20
-668.3438719556812
 42
0.4142135623731
  0
LINE
  5
2A5
330
1F
100
AcDbEntity
  8
C-4
  6
Continuous
 62
     7
370
     9
100
AcDbLine
 10
-1173.421828306747
 20
-664.8438719556816
 30
0.0
 11
-1173.421828306747
 21
-713.6646176528598
 31
0.0
  0
LINE
  5
2A6
330
1F
100
AcDbEntity
  8
C-4
  6
Continuous
 62
     7
370
     9
100
AcDbLine
 10
-1148.421828306747
 20
-664.8438719556816
 30
0.0
 11
-1148.421828306747
 21
-691.1646176528598
 31
0.0
  0
TEXT
  5
2A7
330
1F
100
AcDbEntity
  8
C-4
  6
Continuous
 62
     2
370
   211
100
AcDbText
 10
-1182.171828306747
 20
-656.2038719556809
 30
0.0
 40
30.48
  1
25
 41
1.0625
  7
ＭＳ ゴシック
100
AcDbText
  0
TEXT
  5
2A8
330
1F
100
AcDbEntity
  8
C-5
  6
Continuous
 62
     7
370
     9
100
AcDbText
 10
-1568.127066411564
 20
-363.8442221920846
 30
0.0
 40
22.86
  1
SUS304 t=1.5
 50
0.0000864829738775
 41
1.152777777777752
  7
ＭＳ ゴシック
100
AcDbText
  0
TEXT
  5
2A9
330
1F
100
AcDbEntity
  8
C-5
  6
Continuous
 62
     7
370
     9
100
AcDbText
 10
-1568.127053641933
 20
-324.3271042046914
 30
0.0
 40
22.86
  1
ジョイント受プレート
 50
359.9999135170264
 41
1.149999999999991
  7
ＭＳ ゴシック
100
AcDbText
  0
LINE
  5
2AA
330
1F
100
AcDbEntity
  8
C-5
  6
Continuous
 62
     7
370
     9
100
AcDbLine
 10
-1571.244430632217
 20
-333.3157292352041
 30
0.0
 11
-1225.024816023773
 21
-333.3157292352041
 31
0.0
  0
LINE
  5
2AB
330
1F
100
AcDbEntity
  8
C-5
  6
Continuous
 62
     7
370
     9
100
AcDbLine
 10
-1225.024816023773
 20
-333.3157292352041
 30
0.0
 11
-1173.421828306747
 21
-402.8594873859322
 31
0.0
  0
LINE
  5
2AC
330
1F
100
AcDbEntity
  8
C-5
  6
Continuous
 62
     7
370
     9
100
AcDbLine
 10
-1173.421828306747
 20
-402.8594873859322
 30
0.0
 11
-1190.812196152048
 21
-384.8991113819295
 31
0.0
  0
LINE
  5
2AD
330
1F
100
AcDbEntity
  8
C-5
  6
Continuous
 62
     7
370
     9
100
AcDbLine
 10
-1173.421828306747
 20
-402.8594873859322
 30
0.0
 11
-1185.571146370152
 21
-381.0101379541015
 31
0.0
  0
LINE
  5
2AE
330
1F
100
AcDbEntity
  8
C-5
  6
Continuous
 62
     7
370
     9
100
AcDbLine
 10
-1548.319325302672
 20
-889.2387256584925
 30
0.0
 11
-1548.319325302672
 21
-959.2387256584925
 31
0.0
  0
TEXT
  5
2AF
330
1F
100
AcDbEntity
  8
C-5
  6
Continuous
 62
     2
370
     9
100
AcDbText
 10
-1533.180651016565
 20
-1024.207590807053
 30
0.0
 40
30.48
  1
ジョイント受プレートは
 41
1.113636363636364
  7
ＭＳ ゴシック
100
AcDbText
  0
TEXT
  5
2B0
330
1F
100
AcDbEntity
  8
C-5
  6
Continuous
 62
     2
370
     9
100
AcDbText
 10
-1533.180651016565
 20
-1077.728230892415
 30
0.0
 40
30.48
  1
水上側の本体に付きます。
 41
1.114583333333333
  7
ＭＳ ゴシック
100
AcDbText
  0
TEXT
  5
2B1
330
1F
100
AcDbEntity
  8
F-5ﾚｲﾔ
  6
Continuous
 62
     7
370
     9
100
AcDbText
 10
95.95008057259179
 20
-1344.7998598872
 30
0.0
 40
22.86
  1
排水溝　ＳＴＷＶ－Ｓ
 41
1.15
  7
ＭＳ ゴシック
100
AcDbText
  0
TEXT
  5
2B2
330
1F
100
AcDbEntity
  8
D-5
  6
Continuous
 62
     2
370
     9
100
AcDbText
 10
548.9015325817672
 20
56.86804160314331
 30
0.0
 40
30.48
  1
　　　排水溝　ＳＴＷＶ－Ｓ
 41
1.115384615384615
  7
ＭＳ ゴシック
100
AcDbText
  0
TEXT
  5
2B3
330
1F
100
AcDbEntity
  8
C-5
  6
Continuous
 62
     2
370
     9
100
AcDbText
 10
-1533.180651016565
 20
-938.5987256584925
 30
0.0
 40
30.48
  1
ジョイント受プレート　Ｓ＝１：１０
 41
1.117647058823529
  7
ＭＳ ゴシック
100
AcDbText
  0
TEXT
  5
2B4
330
1F
100
AcDbEntity
  8
C-5
  6
Continuous
 62
     2
370
     9
100
AcDbText
 10
-519.1073784953699
 20
-938.5987256584925
 30
0.0
 40
30.48
  1
水上側エンドプレート　　Ｓ＝１：１０
 41
1.118055555555555
  7
ＭＳ ゴシック
100
AcDbText
  0
LINE
  5
2B5
330
1F
100
AcDbEntity
  8
C-5
  6
Continuous
 62
     7
370
     9
100
AcDbLine
 10
306.895587933933
 20
-889.2387256584925
 30
0.0
 11
306.895587933933
 21
-959.2387256584925
 31
0.0
  0
LINE
  5
2B6
330
1F
100
AcDbEntity
  8
C-5
  6
Continuous
 62
     7
370
     9
100
AcDbLine
 10
-547.1505150305927
 20
-889.2387256584925
 30
0.0
 11
306.895587933933
 21
-889.2387256584925
 31
0.0
  0
LINE
  5
2B7
330
1F
100
AcDbEntity
  8
C-5
  6
Continuous
 62
     7
370
     9
100
AcDbLine
 10
-547.1505150305927
 20
-959.2387256584925
 30
0.0
 11
306.895587933933
 21
-959.2387256584925
 31
0.0
  0
LINE
  5
2B8
330
1F
100
AcDbEntity
  8
C-5
  6
Continuous
 62
     7
370
     9
100
AcDbLine
 10
-753.6733877971426
 20
-889.2387256584925
 30
0.0
 11
-753.6733877971426
 21
-959.2387256584925
 31
0.0
  0
LINE
  5
2B9
330
1F
100
AcDbEntity
  8
C-5
  6
Continuous
 62
     7
370
     9
100
AcDbLine
 10
-1548.319325302672
 20
-889.2387256584925
 30
0.0
 11
-753.6733877971426
 21
-889.2387256584925
 31
0.0
  0
LINE
  5
2BA
330
1F
100
AcDbEntity
  8
C-5
  6
Continuous
 62
     7
370
     9
100
AcDbLine
 10
-1548.319325302672
 20
-959.2387256584925
 30
0.0
 11
-753.6733877971426
 21
-959.2387256584925
 31
0.0
  0
ENDSEC
  0
SECTION
  2
OBJECTS
  0
DICTIONARY
  5
C
330
0
100
AcDbDictionary
281
     1
  3
ACAD_GROUP
350
D
  3
ACAD_LAYOUT
350
1A
  3
ACAD_MLEADERSTYLE
350
2BC
  3
ACAD_MLINESTYLE
350
17
  3
ACAD_PLOTSETTINGS
350
19
  3
ACAD_PLOTSTYLENAME
350
E
  3
ACAD_TABLESTYLE
350
2BB
  3
ACAD_VISUALSTYLE
350
2A
  3
AcDbVariableDictionary
350
2BD
  0
DICTIONARY
  5
D
102
{ACAD_REACTORS
330
C
102
}
330
C
100
AcDbDictionary
281
     1
  0
DICTIONARY
  5
1A
102
{ACAD_REACTORS
330
C
102
}
330
C
100
AcDbDictionary
281
     1
  3
Layout1
350
1E
  3
Layout2
350
26
  3
Model
350
22
  0
DICTIONARY
  5
2BC
102
{ACAD_REACTORS
330
C
102
}
330
C
100
AcDbDictionary
281
     1
  0
DICTIONARY
  5
17
102
{ACAD_REACTORS
330
C
102
}
330
C
100
AcDbDictionary
281
     1
  3
Standard
350
18
  0
DICTIONARY
  5
19
102
{ACAD_REACTORS
330
C
102
}
330
C
100
AcDbDictionary
281
     1
  0
ACDBDICTIONARYWDFLT
  5
E
102
{ACAD_REACTORS
330
C
102
}
330
C
100
AcDbDictionary
281
     1
  3
Normal
350
F
100
AcDbDictionaryWithDefault
340
F
  0
DICTIONARY
  5
2BB
102
{ACAD_REACTORS
330
C
102
}
330
C
100
AcDbDictionary
281
     1
  0
DICTIONARY
  5
2A
102
{ACAD_REACTORS
330
C
102
}
330
C
100
AcDbDictionary
281
     1
  3
2dWireframe
350
2F
  3
3D Hidden
350
31
  3
3dWireframe
350
30
  3
Basic
350
32
  3
Brighten
350
36
  3
ColorChange
350
3A
  3
Conceptual
350
34
  3
Dim
350
35
  3
Facepattern
350
39
  3
Flat
350
2B
  3
FlatWithEdges
350
2C
  3
Gouraud
350
2D
  3
GouraudWithEdges
350
2E
  3
Linepattern
350
38
  3
Realistic
350
33
  3
Thicken
350
37
  0
DICTIONARY
  5
2BD
102
{ACAD_REACTORS
330
C
102
}
330
C
100
AcDbDictionary
281
     1
  3
PSOLHEIGHT
350
2BF
  3
PSOLWIDTH
350
2BE
  0
LAYOUT
  5
1E
102
{ACAD_REACTORS
330
1A
102
}
102
{ACAD_XDICTIONARY
360
2C0
102
}
330
1A
100
AcDbPlotSettings
  1

  2
none_device
  4

  6

 40
0.0
 41
0.0
 42
0.0
 43
0.0
 44
0.0
 45
0.0
 46
0.0
 47
0.0
 48
0.0
 49
0.0
140
0.0
141
0.0
142
1.0
143
1.0
 70
   688
 72
     0
 73
     0
 74
     5
  7

 75
    16
147
1.0
148
0.0
149
0.0
100
AcDbLayout
  1
Layout1
 70
     1
 71
     1
 10
0.0
 20
0.0
 11
420.0
 21
297.0
 12
0.0
 22
0.0
 32
0.0
 14
1.000000000000000E+20
 24
1.000000000000000E+20
 34
1.000000000000000E+20
 15
-1.000000000000000E+20
 25
-1.000000000000000E+20
 35
-1.000000000000000E+20
146
0.0
 13
0.0
 23
0.0
 33
0.0
 16
1.0
 26
0.0
 36
0.0
 17
0.0
 27
1.0
 37
0.0
 76
     0
330
1B
  0
LAYOUT
  5
26
102
{ACAD_REACTORS
330
1A
102
}
102
{ACAD_XDICTIONARY
360
2C4
102
}
330
1A
100
AcDbPlotSettings
  1

  2
none_device
  4

  6

 40
0.0
 41
0.0
 42
0.0
 43
0.0
 44
0.0
 45
0.0
 46
0.0
 47
0.0
 48
0.0
 49
0.0
140
0.0
141
0.0
142
1.0
143
1.0
 70
   688
 72
     0
 73
     0
 74
     5
  7

 75
    16
147
1.0
148
0.0
149
0.0
100
AcDbLayout
  1
Layout2
 70
     1
 71
     2
 10
0.0
 20
0.0
 11
0.0
 21
0.0
 12
0.0
 22
0.0
 32
0.0
 14
0.0
 24
0.0
 34
0.0
 15
0.0
 25
0.0
 35
0.0
146
0.0
 13
0.0
 23
0.0
 33
0.0
 16
1.0
 26
0.0
 36
0.0
 17
0.0
 27
1.0
 37
0.0
 76
     0
330
23
  0
LAYOUT
  5
22
102
{ACAD_REACTORS
330
1A
102
}
102
{ACAD_XDICTIONARY
360
2C2
102
}
330
1A
100
AcDbPlotSettings
  1

  2
none_device
  4

  6

 40
0.0
 41
0.0
 42
0.0
 43
0.0
 44
0.0
 45
0.0
 46
0.0
 47
0.0
 48
0.0
 49
0.0
140
0.0
141
0.0
142
1.0
143
1.0
 70
  1712
 72
     0
 73
     0
 74
     0
  7

 75
     0
147
1.0
148
0.0
149
0.0
100
AcDbLayout
  1
Model
 70
     1
 71
     0
 10
-2100.0
 20
-1485.0
 11
2100.0
 21
1485.0
 12
0.0
 22
0.0
 32
0.0
 14
-2100.0
 24
-1485.0
 34
0.0
 15
2100.0
 25
1485.0
 35
0.0
146
0.0
 13
0.0
 23
0.0
 33
0.0
 16
1.0
 26
0.0
 36
0.0
 17
0.0
 27
1.0
 37
0.0
 76
     0
330
1F
331
29
  0
MLINESTYLE
  5
18
102
{ACAD_REACTORS
330
17
102
}
330
17
100
AcDbMlineStyle
  2
Standard
 70
     0
  3

 62
   256
 51
90.0
 52
90.0
 71
     2
 49
0.5
 62
   256
  6
BYLAYER
 49
-0.5
 62
   256
  6
BYLAYER
  0
ACDBPLACEHOLDER
  5
F
102
{ACAD_REACTORS
330
E
102
}
330
E
  0
VISUALSTYLE
  5
2F
102
{ACAD_REACTORS
330
2A
102
}
330
2A
100
AcDbVisualStyle
  2
2dWireframe
 70
     4
 71
     0
 72
     2
 73
     0
 90
        0
 40
-0.6
 41
-30.0
 62
     5
 63
     7
 74
     1
 91
        4
 64
     7
 65
   257
 75
     1
175
     1
 42
1.0
 92
        0
 66
   257
 43
1.0
 76
     1
 77
     6
 78
     2
 67
     7
 79
     5
170
     0
171
     0
290
     0
174
     0
 93
        1
 44
0.0
173
     0
291
     0
 45
0.0
1001
ACAD
1000
AcDbSavedByObjectVersion
1070
     0
  0
VISUALSTYLE
  5
31
102
{ACAD_REACTORS
330
2A
102
}
330
2A
100
AcDbVisualStyle
  2
3D Hidden
 70
     6
 71
     1
 72
     2
 73
     2
 90
        0
 40
-0.6
 41
-30.0
 62
     5
 63
     7
 74
     2
 91
        2
 64
     7
 65
   257
 75
     2
175
     1
 42
40.0
 92
        0
 66
   257
 43
1.0
 76
     1
 77
     6
 78
     2
 67
     7
 79
     3
170
     0
171
     0
290
     0
174
     0
 93
        1
 44
0.0
173
     0
291
     0
 45
0.0
1001
ACAD
1000
AcDbSavedByObjectVersion
1070
     0
  0
VISUALSTYLE
  5
30
102
{ACAD_REACTORS
330
2A
102
}
330
2A
100
AcDbVisualStyle
  2
3dWireframe
 70
     5
 71
     0
 72
     2
 73
     0
 90
        0
 40
-0.6
 41
-30.0
 62
     5
 63
     7
 74
     1
 91
        4
 64
     7
 65
   257
 75
     1
175
     1
 42
1.0
 92
        0
 66
   257
 43
1.0
 76
     1
 77
     6
 78
     2
 67
     7
 79
     5
170
     0
171
     0
290
     0
174
     0
 93
        1
 44
0.0
173
     0
291
     0
 45
0.0
1001
ACAD
1000
AcDbSavedByObjectVersion
1070
     0
  0
VISUALSTYLE
  5
32
102
{ACAD_REACTORS
330
2A
102
}
330
2A
100
AcDbVisualStyle
  2
Basic
 70
     7
 71
     1
 72
     0
 73
     1
 90
        0
 40
-0.6
 41
-30.0
 62
     5
 63
     7
 74
     0
 91
        4
 64
     7
 65
   257
 75
     1
175
     1
 42
1.0
 92
        8
 66
     7
 43
1.0
 76
     1
 77
     6
 78
     2
 67
     7
 79
     5
170
     0
171
     0
290
     0
174
     0
 93
        1
 44
0.0
173
     0
291
     1
 45
0.0
1001
ACAD
1000
AcDbSavedByObjectVersion
1070
     0
  0
VISUALSTYLE
  5
36
102
{ACAD_REACTORS
330
2A
102
}
330
2A
100
AcDbVisualStyle
  2
Brighten
 70
    12
 71
     2
 72
     2
 73
     0
 90
        0
 40
-0.6
 41
-30.0
 62
     5
 63
     7
 74
     1
 91
        4
 64
     7
 65
   257
 75
     1
175
     1
 42
1.0
 92
        8
 66
     7
 43
1.0
 76
     1
 77
     6
 78
     2
 67
     7
 79
     5
170
     0
171
     0
290
     0
174
     0
 93
        1
 44
50.0
173
     0
291
     1
 45
0.0
1001
ACAD
1000
AcDbSavedByObjectVersion
1070
     0
  0
VISUALSTYLE
  5
3A
102
{ACAD_REACTORS
330
2A
102
}
330
2A
100
AcDbVisualStyle
  2
ColorChange
 70
    16
 71
     2
 72
     2
 73
     3
 90
        0
 40
-0.6
 41
-30.0
 62
     5
 63
     8
 74
     1
 91
        4
 64
     7
 65
   257
 75
     1
175
     1
 42
1.0
 92
        8
 66
     8
 43
1.0
 76
     1
 77
     6
 78
     2
 67
     7
 79
     5
170
     0
171
     0
290
     0
174
     0
 93
        1
 44
0.0
173
     0
291
     1
 45
0.0
1001
ACAD
1000
AcDbSavedByObjectVersion
1070
     0
  0
VISUALSTYLE
  5
34
102
{ACAD_REACTORS
330
2A
102
}
330
2A
100
AcDbVisualStyle
  2
Conceptual
 70
     9
 71
     3
 72
     2
 73
     0
 90
        0
 40
-0.6
 41
-30.0
 62
     5
 63
     7
 74
     2
 91
        2
 64
     7
 65
   257
 75
     1
175
     1
 42
40.0
 92
        8
 66
     7
 43
1.0
 76
     1
 77
     6
 78
     2
 67
     7
 79
     3
170
     0
171
     0
290
     0
174
     0
 93
        1
 44
0.0
173
     0
291
     0
 45
0.0
1001
ACAD
1000
AcDbSavedByObjectVersion
1070
     0
  0
VISUALSTYLE
  5
35
102
{ACAD_REACTORS
330
2A
102
}
330
2A
100
AcDbVisualStyle
  2
Dim
 70
    11
 71
     2
 72
     2
 73
     0
 90
        0
 40
-0.6
 41
-30.0
 62
     5
 63
     7
 74
     1
 91
        4
 64
     7
 65
   257
 75
     1
175
     1
 42
1.0
 92
        8
 66
     7
 43
1.0
 76
     1
 77
     6
 78
     2
 67
     7
 79
     5
170
     0
171
     0
290
     0
174
     0
 93
        1
 44
-50.0
173
     0
291
     1
 45
0.0
1001
ACAD
1000
AcDbSavedByObjectVersion
1070
     0
  0
VISUALSTYLE
  5
39
102
{ACAD_REACTORS
330
2A
102
}
330
2A
100
AcDbVisualStyle
  2
Facepattern
 70
    15
 71
     2
 72
     2
 73
     0
 90
        0
 40
-0.6
 41
-30.0
 62
     5
 63
     7
 74
     1
 91
        4
 64
     7
 65
   257
 75
     1
175
     1
 42
1.0
 92
        8
 66
     7
 43
1.0
 76
     1
 77
     6
 78
     2
 67
     7
 79
     5
170
     0
171
     0
290
     0
174
     0
 93
        1
 44
0.0
173
     0
291
     1
 45
0.0
1001
ACAD
1000
AcDbSavedByObjectVersion
1070
     0
  0
VISUALSTYLE
  5
2B
102
{ACAD_REACTORS
330
2A
102
}
330
2A
100
AcDbVisualStyle
  2
Flat
 70
     0
 71
     2
 72
     1
 73
     1
 90
        2
 40
-0.6
 41
30.0
 62
     5
 63
     7
 74
     0
 91
        4
 64
     7
 65
   257
 75
     1
175
     1
 42
1.0
 92
        8
 66
     7
 43
1.0
 76
     1
 77
     6
 78
     2
 67
     7
 79
     5
170
     0
171
     0
290
     0
174
     0
 93
       13
 44
0.0
173
     0
291
     1
 45
0.0
1001
ACAD
1000
AcDbSavedByObjectVersion
1070
     0
  0
VISUALSTYLE
  5
2C
102
{ACAD_REACTORS
330
2A
102
}
330
2A
100
AcDbVisualStyle
  2
FlatWithEdges
 70
     1
 71
     2
 72
     1
 73
     1
 90
        2
 40
-0.6
 41
30.0
 62
     5
 63
     7
 74
     1
 91
        4
 64
     7
 65
   257
 75
     1
175
     1
 42
1.0
 92
        0
 66
   257
 43
1.0
 76
     1
 77
     6
 78
     2
 67
     7
 79
     5
170
     0
171
     0
290
     0
174
     0
 93
       13
 44
0.0
173
     0
291
     1
 45
0.0
1001
ACAD
1000
AcDbSavedByObjectVersion
1070
     0
  0
VISUALSTYLE
  5
2D
102
{ACAD_REACTORS
330
2A
102
}
330
2A
100
AcDbVisualStyle
  2
Gouraud
 70
     2
 71
     2
 72
     2
 73
     1
 90
        2
 40
-0.6
 41
30.0
 62
     5
 63
     7
 74
     0
 91
        4
 64
     7
 65
   257
 75
     1
175
     1
 42
1.0
 92
        0
 66
     7
 43
1.0
 76
     1
 77
     6
 78
     2
 67
     7
 79
     5
170
     0
171
     0
290
     0
174
     0
 93
       13
 44
0.0
173
     0
291
     1
 45
0.0
1001
ACAD
1000
AcDbSavedByObjectVersion
1070
     0
  0
VISUALSTYLE
  5
2E
102
{ACAD_REACTORS
330
2A
102
}
330
2A
100
AcDbVisualStyle
  2
GouraudWithEdges
 70
     3
 71
     2
 72
     2
 73
     1
 90
        2
 40
-0.6
 41
30.0
 62
     5
 63
     7
 74
     1
 91
        4
 64
     7
 65
   257
 75
     1
175
     1
 42
1.0
 92
        0
 66
   257
 43
1.0
 76
     1
 77
     6
 78
     2
 67
     7
 79
     5
170
     0
171
     0
290
     0
174
     0
 93
       13
 44
0.0
173
     0
291
     1
 45
0.0
1001
ACAD
1000
AcDbSavedByObjectVersion
1070
     0
  0
VISUALSTYLE
  5
38
102
{ACAD_REACTORS
330
2A
102
}
330
2A
100
AcDbVisualStyle
  2
Linepattern
 70
    14
 71
     2
 72
     2
 73
     0
 90
        0
 40
-0.6
 41
-30.0
 62
     5
 63
     7
 74
     1
 91
        4
 64
     7
 65
   257
 75
     7
175
     7
 42
1.0
 92
        8
 66
     7
 43
1.0
 76
     1
 77
     6
 78
     2
 67
     7
 79
     5
170
     0
171
     0
290
     0
174
     0
 93
        1
 44
0.0
173
     0
291
     1
 45
0.0
1001
ACAD
1000
AcDbSavedByObjectVersion
1070
     0
  0
VISUALSTYLE
  5
33
102
{ACAD_REACTORS
330
2A
102
}
330
2A
100
AcDbVisualStyle
  2
Realistic
 70
     8
 71
     2
 72
     2
 73
     0
 90
        0
 40
-0.6
 41
-30.0
 62
     5
 63
     7
 74
     1
 91
        0
 64
     7
 65
   257
 75
     1
175
     1
 42
1.0
 92
        8
 66
     8
 43
1.0
 76
     1
 77
     6
 78
     2
 67
     7
 79
     5
170
     0
171
     0
290
     0
174
     0
 93
       13
 44
0.0
173
     0
291
     0
 45
0.0
1001
ACAD
1000
AcDbSavedByObjectVersion
1070
     0
  0
VISUALSTYLE
  5
37
102
{ACAD_REACTORS
330
2A
102
}
330
2A
100
AcDbVisualStyle
  2
Thicken
 70
    13
 71
     2
 72
     2
 73
     0
 90
        0
 40
-0.6
 41
-30.0
 62
     5
 63
     7
 74
     1
 91
        4
 64
     7
 65
   257
 75
     1
175
     1
 42
1.0
 92
       12
 66
     7
 43
1.0
 76
     1
 77
     6
 78
     2
 67
     7
 79
     5
170
     0
171
     0
290
     0
174
     0
 93
        1
 44
0.0
173
     0
291
     1
 45
0.0
1001
ACAD
1000
AcDbSavedByObjectVersion
1070
     0
  0
DICTIONARYVAR
  5
2BF
102
{ACAD_REACTORS
330
2BD
102
}
330
2BD
100
DictionaryVariables
280
     0
  1
80.000000
  0
DICTIONARYVAR
  5
2BE
102
{ACAD_REACTORS
330
2BD
102
}
330
2BD
100
DictionaryVariables
280
     0
  1
5.000000
  0
DICTIONARY
  5
2C0
330
1E
100
AcDbDictionary
280
     1
281
     1
  3
ACAD_XREC_ROUNDTRIP
360
2C1
  0
DICTIONARY
  5
2C4
330
26
100
AcDbDictionary
280
     1
281
     1
  3
ACAD_XREC_ROUNDTRIP
360
2C5
  0
DICTIONARY
  5
2C2
330
22
100
AcDbDictionary
280
     1
281
     1
  3
ACAD_XREC_ROUNDTRIP
360
2C3
  0
XRECORD
  5
2C1
102
{ACAD_REACTORS
330
2C0
102
}
330
2C0
100
AcDbXrecord
280
     1
102
SHADEPLOT
 70
     0
102
SHADEPLOTRESLEVEL
 70
     5
102
SHADEPLOTCUSTOMDPI
 70
   300
  0
XRECORD
  5
2C5
102
{ACAD_REACTORS
330
2C4
102
}
330
2C4
100
AcDbXrecord
280
     1
102
SHADEPLOT
 70
     0
102
SHADEPLOTRESLEVEL
 70
     5
102
SHADEPLOTCUSTOMDPI
 70
   300
  0
XRECORD
  5
2C3
102
{ACAD_REACTORS
330
2C2
102
}
330
2C2
100
AcDbXrecord
280
     1
102
SHADEPLOT
 70
     0
102
SHADEPLOTRESLEVEL
 70
     5
102
SHADEPLOTCUSTOMDPI
 70
   300
  0
ENDSEC
  0
EOF
