  0
SECTION
  2
HEADER
  9
$ACADVER
  1
AC1027
  9
$ACADMAINTVER
 70
   105
  9
$DWGCODEPAGE
  3
ANSI_932
  9
$LASTSAVEDBY
  1
a.katayama
  9
$REQUIREDVERSIONS
160
                 0
  9
$INSBASE
 10
0.0
 20
0.0
 30
0.0
  9
$EXTMIN
 10
-1261.5
 20
-891.0
 30
0.0
  9
$EXTMAX
 10
1261.5
 20
891.0
 30
0.0
  9
$LIMMIN
 10
-1261.5
 20
-891.0
  9
$LIMMAX
 10
1261.5
 20
891.0
  9
$ORTHOMODE
 70
     0
  9
$REGENMODE
 70
     1
  9
$FILLMODE
 70
     1
  9
$QTEXTMODE
 70
     0
  9
$MIRRTEXT
 70
     1
  9
$LTSCALE
 40
3.0
  9
$ATTMODE
 70
     1
  9
$TEXTSIZE
 40
2.5
  9
$TRACEWID
 40
1.0
  9
$TEXTSTYLE
  7
Standard
  9
$CLAYER
  8
0
  9
$CELTYPE
  6
ByLayer
  9
$CECOLOR
 62
   256
  9
$CELTSCALE
 40
1.0
  9
$DISPSILH
 70
     0
  9
$DIMSCALE
 40
1.0
  9
$DIMASZ
 40
2.5
  9
$DIMEXO
 40
0.625
  9
$DIMDLI
 40
3.75
  9
$DIMRND
 40
0.0
  9
$DIMDLE
 40
0.0
  9
$DIMEXE
 40
1.25
  9
$DIMTP
 40
0.0
  9
$DIMTM
 40
0.0
  9
$DIMTXT
 40
2.5
  9
$DIMCEN
 40
2.5
  9
$DIMTSZ
 40
0.0
  9
$DIMTOL
 70
     0
  9
$DIMLIM
 70
     0
  9
$DIMTIH
 70
     0
  9
$DIMTOH
 70
     0
  9
$DIMSE1
 70
     0
  9
$DIMSE2
 70
     0
  9
$DIMTAD
 70
     1
  9
$DIMZIN
 70
     8
  9
$DIMBLK
  1

  9
$DIMASO
 70
     1
  9
$DIMSHO
 70
     1
  9
$DIMPOST
  1

  9
$DIMAPOST
  1

  9
$DIMALT
 70
     0
  9
$DIMALTD
 70
     3
  9
$DIMALTF
 40
0.03937007874016
  9
$DIMLFAC
 40
1.0
  9
$DIMTOFL
 70
     1
  9
$DIMTVP
 40
0.0
  9
$DIMTIX
 70
     0
  9
$DIMSOXD
 70
     0
  9
$DIMSAH
 70
     0
  9
$DIMBLK1
  1

  9
$DIMBLK2
  1

  9
$DIMSTYLE
  2
ISO-25
  9
$DIMCLRD
 70
     0
  9
$DIMCLRE
 70
     0
  9
$DIMCLRT
 70
     0
  9
$DIMTFAC
 40
1.0
  9
$DIMGAP
 40
0.625
  9
$DIMJUST
 70
     0
  9
$DIMSD1
 70
     0
  9
$DIMSD2
 70
     0
  9
$DIMTOLJ
 70
     0
  9
$DIMTZIN
 70
     8
  9
$DIMALTZ
 70
     0
  9
$DIMALTTZ
 70
     0
  9
$DIMUPT
 70
     0
  9
$DIMDEC
 70
     2
  9
$DIMTDEC
 70
     2
  9
$DIMALTU
 70
     2
  9
$DIMALTTD
 70
     3
  9
$DIMTXSTY
  7
Standard
  9
$DIMAUNIT
 70
     0
  9
$DIMADEC
 70
     0
  9
$DIMALTRND
 40
0.0
  9
$DIMAZIN
 70
     0
  9
$DIMDSEP
 70
    44
  9
$DIMATFIT
 70
     3
  9
$DIMFRAC
 70
     0
  9
$DIMLDRBLK
  1

  9
$DIMLUNIT
 70
     2
  9
$DIMLWD
 70
    -2
  9
$DIMLWE
 70
    -2
  9
$DIMTMOVE
 70
     0
  9
$DIMFXL
 40
1.0
  9
$DIMFXLON
 70
     0
  9
$DIMJOGANG
 40
0.7853981633974483
  9
$DIMTFILL
 70
     0
  9
$DIMTFILLCLR
 70
     0
  9
$DIMARCSYM
 70
     0
  9
$DIMLTYPE
  6

  9
$DIMLTEX1
  6

  9
$DIMLTEX2
  6

  9
$DIMTXTDIRECTION
 70
     0
  9
$LUNITS
 70
     2
  9
$LUPREC
 70
     4
  9
$SKETCHINC
 40
1.0
  9
$FILLETRAD
 40
10.0
  9
$AUNITS
 70
     0
  9
$AUPREC
 70
     0
  9
$MENU
  1
.
  9
$ELEVATION
 40
0.0
  9
$PELEVATION
 40
0.0
  9
$THICKNESS
 40
0.0
  9
$LIMCHECK
 70
     0
  9
$CHAMFERA
 40
0.0
  9
$CHAMFERB
 40
0.0
  9
$CHAMFERC
 40
0.0
  9
$CHAMFERD
 40
0.0
  9
$SKPOLY
 70
     0
  9
$TDCREATE
 40
2459713.474877801
  9
$TDUCREATE
 40
2459713.099877801
  9
$TDUPDATE
 40
2459713.474877974
  9
$TDUUPDATE
 40
2459713.099877974
  9
$TDINDWG
 40
0.0000000116
  9
$TDUSRTIMER
 40
0.0000000116
  9
$USRTIMER
 70
     1
  9
$ANGBASE
 50
0.0
  9
$ANGDIR
 70
     0
  9
$PDMODE
 70
     0
  9
$PDSIZE
 40
0.0
  9
$PLINEWID
 40
0.0
  9
$SPLFRAME
 70
     0
  9
$SPLINETYPE
 70
     6
  9
$SPLINESEGS
 70
     8
  9
$HANDSEED
  5
578
  9
$SURFTAB1
 70
     6
  9
$SURFTAB2
 70
     6
  9
$SURFTYPE
 70
     6
  9
$SURFU
 70
     6
  9
$SURFV
 70
     6
  9
$UCSBASE
  2

  9
$UCSNAME
  2

  9
$UCSORG
 10
0.0
 20
0.0
 30
0.0
  9
$UCSXDIR
 10
1.0
 20
0.0
 30
0.0
  9
$UCSYDIR
 10
0.0
 20
1.0
 30
0.0
  9
$UCSORTHOREF
  2

  9
$UCSORTHOVIEW
 70
     0
  9
$UCSORGTOP
 10
0.0
 20
0.0
 30
0.0
  9
$UCSORGBOTTOM
 10
0.0
 20
0.0
 30
0.0
  9
$UCSORGLEFT
 10
0.0
 20
0.0
 30
0.0
  9
$UCSORGRIGHT
 10
0.0
 20
0.0
 30
0.0
  9
$UCSORGFRONT
 10
0.0
 20
0.0
 30
0.0
  9
$UCSORGBACK
 10
0.0
 20
0.0
 30
0.0
  9
$PUCSBASE
  2

  9
$PUCSNAME
  2

  9
$PUCSORG
 10
0.0
 20
0.0
 30
0.0
  9
$PUCSXDIR
 10
1.0
 20
0.0
 30
0.0
  9
$PUCSYDIR
 10
0.0
 20
1.0
 30
0.0
  9
$PUCSORTHOREF
  2

  9
$PUCSORTHOVIEW
 70
     0
  9
$PUCSORGTOP
 10
0.0
 20
0.0
 30
0.0
  9
$PUCSORGBOTTOM
 10
0.0
 20
0.0
 30
0.0
  9
$PUCSORGLEFT
 10
0.0
 20
0.0
 30
0.0
  9
$PUCSORGRIGHT
 10
0.0
 20
0.0
 30
0.0
  9
$PUCSORGFRONT
 10
0.0
 20
0.0
 30
0.0
  9
$PUCSORGBACK
 10
0.0
 20
0.0
 30
0.0
  9
$USERI1
 70
     0
  9
$USERI2
 70
     0
  9
$USERI3
 70
     0
  9
$USERI4
 70
     0
  9
$USERI5
 70
     0
  9
$USERR1
 40
0.0
  9
$USERR2
 40
0.0
  9
$USERR3
 40
0.0
  9
$USERR4
 40
0.0
  9
$USERR5
 40
0.0
  9
$WORLDVIEW
 70
     1
  9
$SHADEDGE
 70
     3
  9
$SHADEDIF
 70
    70
  9
$TILEMODE
 70
     1
  9
$MAXACTVP
 70
    64
  9
$PINSBASE
 10
0.0
 20
0.0
 30
0.0
  9
$PLIMCHECK
 70
     0
  9
$PEXTMIN
 10
1.000000000000000E+20
 20
1.000000000000000E+20
 30
1.000000000000000E+20
  9
$PEXTMAX
 10
-1.000000000000000E+20
 20
-1.000000000000000E+20
 30
-1.000000000000000E+20
  9
$PLIMMIN
 10
0.0
 20
0.0
  9
$PLIMMAX
 10
420.0
 20
297.0
  9
$UNITMODE
 70
     0
  9
$VISRETAIN
 70
     1
  9
$PLINEGEN
 70
     0
  9
$PSLTSCALE
 70
     1
  9
$TREEDEPTH
 70
  3020
  9
$CMLSTYLE
  2
Standard
  9
$CMLJUST
 70
     0
  9
$CMLSCALE
 40
20.0
  9
$PROXYGRAPHICS
 70
     1
  9
$MEASUREMENT
 70
     1
  9
$CELWEIGHT
370
    -1
  9
$ENDCAPS
280
     0
  9
$JOINSTYLE
280
     0
  9
$LWDISPLAY
290
     0
  9
$INSUNITS
 70
     4
  9
$HYPERLINKBASE
  1

  9
$STYLESHEET
  1

  9
$XEDIT
290
     1
  9
$CEPSNTYPE
380
     0
  9
$PSTYLEMODE
290
     1
  9
$FINGERPRINTGUID
  2
{3e489902-1560-430f-aa73-00c5be00df1d}
  9
$VERSIONGUID
  2
{FAEB1C32-E019-11D5-929B-00C0DF256EC4}
  9
$EXTNAMES
290
     1
  9
$PSVPSCALE
 40
0.0
  9
$OLESTARTUP
290
     0
  9
$SORTENTS
280
   127
  9
$INDEXCTL
280
     0
  9
$HIDETEXT
280
     1
  9
$XCLIPFRAME
280
     2
  9
$HALOGAP
280
     0
  9
$OBSCOLOR
 70
   257
  9
$OBSLTYPE
280
     0
  9
$INTERSECTIONDISPLAY
280
     0
  9
$INTERSECTIONCOLOR
 70
   257
  9
$DIMASSOC
280
     2
  9
$PROJECTNAME
  1

  9
$CAMERADISPLAY
290
     0
  9
$LENSLENGTH
 40
50.0
  9
$CAMERAHEIGHT
 40
0.0
  9
$STEPSPERSEC
 40
2.0
  9
$STEPSIZE
 40
6.0
  9
$3DDWFPREC
 40
2.0
  9
$PSOLWIDTH
 40
5.0
  9
$PSOLHEIGHT
 40
80.0
  9
$LOFTANG1
 40
1.570796326794897
  9
$LOFTANG2
 40
1.570796326794897
  9
$LOFTMAG1
 40
0.0
  9
$LOFTMAG2
 40
0.0
  9
$LOFTPARAM
 70
     7
  9
$LOFTNORMALS
280
     1
  9
$LATITUDE
 40
37.795
  9
$LONGITUDE
 40
-122.394
  9
$NORTHDIRECTION
 40
0.0
  9
$TIMEZONE
 70
 -8000
  9
$LIGHTGLYPHDISPLAY
280
     1
  9
$TILEMODELIGHTSYNCH
280
     1
  9
$CMATERIAL
347
44
  9
$SOLIDHIST
280
     0
  9
$SHOWHIST
280
     1
  9
$DWFFRAME
280
     2
  9
$DGNFRAME
280
     2
  9
$REALWORLDSCALE
290
     1
  9
$INTERFERECOLOR
 62
   256
  9
$CSHADOW
280
     0
  9
$SHADOWPLANELOCATION
 40
0.0
  0
ENDSEC
  0
SECTION
  2
CLASSES
  0
CLASS
  1
ACDBDICTIONARYWDFLT
  2
AcDbDictionaryWithDefault
  3
ObjectDBX Classes
 90
        0
 91
        3
280
     0
281
     0
  0
CLASS
  1
VISUALSTYLE
  2
AcDbVisualStyle
  3
ObjectDBX Classes
 90
     4095
 91
        3
280
     0
281
     0
  0
CLASS
  1
MATERIAL
  2
AcDbMaterial
  3
ObjectDBX Classes
 90
     1153
 91
        3
280
     0
281
     0
  0
CLASS
  1
SCALE
  2
AcDbScale
  3
ObjectDBX Classes
 90
     1153
 91
        3
280
     0
281
     0
  0
CLASS
  1
TABLESTYLE
  2
AcDbTableStyle
  3
ObjectDBX Classes
 90
     4095
 91
        3
280
     0
281
     0
  0
CLASS
  1
MLEADERSTYLE
  2
AcDbMLeaderStyle
  3
ACDB_MLEADERSTYLE_CLASS
 90
     4095
 91
        3
280
     0
281
     0
  0
CLASS
  1
SUN
  2
AcDbSun
  3
SCENEOE
 90
     1153
 91
        3
280
     0
281
     0
  0
CLASS
  1
DICTIONARYVAR
  2
AcDbDictionaryVar
  3
ObjectDBX Classes
 90
        0
 91
        3
280
     0
281
     0
  0
CLASS
  1
CELLSTYLEMAP
  2
AcDbCellStyleMap
  3
ObjectDBX Classes
 90
     1152
 91
        3
280
     0
281
     0
  0
ENDSEC
  0
SECTION
  2
TABLES
  0
TABLE
  2
VPORT
  5
8
330
0
100
AcDbSymbolTable
 70
     1
  0
VPORT
  5
29
330
8
100
AcDbSymbolTableRecord
100
AcDbViewportTableRecord
  2
*Active
 70
     0
 10
0.0
 20
0.0
 11
1.0
 21
1.0
 12
0.0
 22
0.0
 13
0.0
 23
0.0
 14
10.0
 24
10.0
 15
10.0
 25
10.0
 16
0.0
 26
0.0
 36
1.0
 17
0.0
 27
0.0
 37
0.0
 40
1960.2
 41
1.415824915824916
 42
50.0
 43
0.0
 44
0.0
 50
0.0
 51
0.0
 71
     0
 72
 10000
 73
     1
 74
     3
 75
     0
 76
     0
 77
     0
 78
     0
281
     0
 65
     1
110
0.0
120
0.0
130
0.0
111
1.0
121
0.0
131
0.0
112
0.0
122
1.0
132
0.0
 79
     0
146
0.0
348
2F
 60
     3
 61
     5
292
     1
282
     1
141
0.0
142
0.0
 63
   250
361
6D
  0
ENDTAB
  0
TABLE
  2
LTYPE
  5
5
330
0
100
AcDbSymbolTable
 70
     7
  0
LTYPE
  5
14
330
5
100
AcDbSymbolTableRecord
100
AcDbLinetypeTableRecord
  2
ByBlock
 70
     0
  3

 72
    65
 73
     0
 40
0.0
  0
LTYPE
  5
15
330
5
100
AcDbSymbolTableRecord
100
AcDbLinetypeTableRecord
  2
ByLayer
 70
     0
  3

 72
    65
 73
     0
 40
0.0
  0
LTYPE
  5
16
330
5
100
AcDbSymbolTableRecord
100
AcDbLinetypeTableRecord
  2
Continuous
 70
     0
  3
Solid line
 72
    65
 73
     0
 40
0.0
  0
LTYPE
  5
6F
330
5
100
AcDbSymbolTableRecord
100
AcDbLinetypeTableRecord
  2
JWW_CENTER2
 70
     0
  3
-------------  --  -------------
 72
    65
 73
     4
 40
13.54666666666667
 49
11.00666666666667
 74
     0
 49
-0.8466666666666667
 74
     0
 49
0.8466666666666667
 74
     0
 49
-0.8466666666666667
 74
     0
  0
LTYPE
  5
70
330
5
100
AcDbSymbolTableRecord
100
AcDbLinetypeTableRecord
  2
JWW_DASHED3
 70
     0
  3
---  ------  ------  ------  ---
 72
    65
 73
     8
 40
13.54666666666667
 49
2.54
 74
     0
 49
-0.8466666666666667
 74
     0
 49
2.54
 74
     0
 49
-0.8466666666666667
 74
     0
 49
2.54
 74
     0
 49
-0.8466666666666667
 74
     0
 49
2.54
 74
     0
 49
-0.8466666666666667
 74
     0
  0
LTYPE
  5
71
330
5
100
AcDbSymbolTableRecord
100
AcDbLinetypeTableRecord
  2
JWW_CENTER1
 70
     0
  3
-----  --  ----------  --  -----
 72
    65
 73
     8
 40
13.54666666666667
 49
4.233333333333333
 74
     0
 49
-0.8466666666666667
 74
     0
 49
0.8466666666666667
 74
     0
 49
-0.8466666666666667
 74
     0
 49
4.233333333333333
 74
     0
 49
-0.8466666666666667
 74
     0
 49
0.8466666666666667
 74
     0
 49
-0.8466666666666667
 74
     0
  0
LTYPE
  5
72
330
5
100
AcDbSymbolTableRecord
100
AcDbLinetypeTableRecord
  2
JWW_DASHED1
 70
     0
  3
-  --  --  --  --  --  --  --  -
 72
    65
 73
    12
 40
10.16
 49
0.8466666666666667
 74
     0
 49
-0.8466666666666667
 74
     0
 49
0.8466666666666667
 74
     0
 49
-0.8466666666666667
 74
     0
 49
0.8466666666666667
 74
     0
 49
-0.8466666666666667
 74
     0
 49
0.8466666666666667
 74
     0
 49
-0.8466666666666667
 74
     0
 49
0.8466666666666667
 74
     0
 49
-0.8466666666666667
 74
     0
 49
0.8466666666666667
 74
     0
 49
-0.8466666666666667
 74
     0
  0
LTYPE
  5
73
330
5
100
AcDbSymbolTableRecord
100
AcDbLinetypeTableRecord
  2
JWW_PHANTOM1
 70
     0
  3
----  -  -  --------  -  -  ----
 72
    65
 73
    12
 40
13.54666666666667
 49
3.386666666666667
 74
     0
 49
-0.8466666666666667
 74
     0
 49
0.4233333333333333
 74
     0
 49
-0.8466666666666667
 74
     0
 49
0.4233333333333333
 74
     0
 49
-0.8466666666666667
 74
     0
 49
3.386666666666667
 74
     0
 49
-0.8466666666666667
 74
     0
 49
0.4233333333333333
 74
     0
 49
-0.8466666666666667
 74
     0
 49
0.4233333333333333
 74
     0
 49
-0.8466666666666667
 74
     0
  0
LTYPE
  5
74
330
5
100
AcDbSymbolTableRecord
100
AcDbLinetypeTableRecord
  2
JWW_DASHED2
 70
     0
  3
--    ----    ----    ----    --
 72
    65
 73
     8
 40
13.54666666666667
 49
1.693333333333333
 74
     0
 49
-1.693333333333333
 74
     0
 49
1.693333333333333
 74
     0
 49
-1.693333333333333
 74
     0
 49
1.693333333333333
 74
     0
 49
-1.693333333333333
 74
     0
 49
1.693333333333333
 74
     0
 49
-1.693333333333333
 74
     0
  0
ENDTAB
  0
TABLE
  2
LAYER
  5
2
330
0
100
AcDbSymbolTable
 70
    15
  0
LAYER
  5
10
330
2
100
AcDbSymbolTableRecord
100
AcDbLayerTableRecord
  2
0
 70
     0
 62
     7
  6
Continuous
370
    -3
390
F
347
46
348
0
  0
LAYER
  5
75
330
2
100
AcDbSymbolTableRecord
100
AcDbLayerTableRecord
  2
寸法
 70
     0
 62
     7
  6
Continuous
370
    -3
390
F
347
46
348
0
  0
LAYER
  5
76
330
2
100
AcDbSymbolTableRecord
100
AcDbLayerTableRecord
  2
仕上
 70
     0
 62
     7
  6
Continuous
370
    -3
390
F
347
46
348
0
  0
LAYER
  5
77
330
2
100
AcDbSymbolTableRecord
100
AcDbLayerTableRecord
  2
F-Fﾚｲﾔ
 70
     0
 62
     7
  6
Continuous
370
    -3
390
F
347
46
348
0
  0
LAYER
  5
78
330
2
100
AcDbSymbolTableRecord
100
AcDbLayerTableRecord
  2
F-5ﾚｲﾔ
 70
     0
 62
     7
  6
Continuous
370
    -3
390
F
347
46
348
0
  0
LAYER
  5
79
330
2
100
AcDbSymbolTableRecord
100
AcDbLayerTableRecord
  2
0-E
 70
     0
 62
     7
  6
Continuous
370
    -3
390
F
347
46
348
0
  0
LAYER
  5
7A
330
2
100
AcDbSymbolTableRecord
100
AcDbLayerTableRecord
  2
躯体
 70
     0
 62
     7
  6
Continuous
370
    -3
390
F
347
46
348
0
  0
LAYER
  5
7B
330
2
100
AcDbSymbolTableRecord
100
AcDbLayerTableRecord
  2
ハッチ
 70
     0
 62
     7
  6
Continuous
370
    -3
390
F
347
46
348
0
  0
LAYER
  5
7C
330
2
100
AcDbSymbolTableRecord
100
AcDbLayerTableRecord
  2
その他
 70
     0
 62
     7
  6
Continuous
370
    -3
390
F
347
46
348
0
  0
LAYER
  5
7D
330
2
100
AcDbSymbolTableRecord
100
AcDbLayerTableRecord
  2
0-7
 70
     0
 62
     7
  6
Continuous
370
    -3
390
F
347
46
348
0
  0
LAYER
  5
7E
330
2
100
AcDbSymbolTableRecord
100
AcDbLayerTableRecord
  2
D-5
 70
     0
 62
     7
  6
Continuous
370
    -3
390
F
347
46
348
0
  0
LAYER
  5
7F
330
2
100
AcDbSymbolTableRecord
100
AcDbLayerTableRecord
  2
D-1
 70
     0
 62
     7
  6
Continuous
370
    -3
390
F
347
46
348
0
  0
LAYER
  5
80
330
2
100
AcDbSymbolTableRecord
100
AcDbLayerTableRecord
  2
D-7
 70
     0
 62
     7
  6
Continuous
370
    -3
390
F
347
46
348
0
  0
LAYER
  5
81
330
2
100
AcDbSymbolTableRecord
100
AcDbLayerTableRecord
  2
D-4
 70
     0
 62
     7
  6
Continuous
370
    -3
390
F
347
46
348
0
  0
LAYER
  5
82
330
2
100
AcDbSymbolTableRecord
100
AcDbLayerTableRecord
  2
D-2
 70
     0
 62
     7
  6
Continuous
370
    -3
390
F
347
46
348
0
  0
ENDTAB
  0
TABLE
  2
STYLE
  5
3
330
0
100
AcDbSymbolTable
 70
     2
  0
STYLE
  5
11
330
3
100
AcDbSymbolTableRecord
100
AcDbTextStyleTableRecord
  2
Standard
 70
     0
 40
0.0
 41
1.0
 50
0.0
 71
     0
 42
2.5
  3
txt
  4

  0
STYLE
  5
6E
330
3
100
AcDbSymbolTableRecord
100
AcDbTextStyleTableRecord
  2
ＭＳ ゴシック
 70
     0
 40
0.0
 41
1.0
 50
0.0
 71
     0
 42
2.5
  3

  4

1001
ACAD
1000
MS Gothic
1071
    32817
  0
ENDTAB
  0
TABLE
  2
VIEW
  5
6
330
0
100
AcDbSymbolTable
 70
     0
  0
ENDTAB
  0
TABLE
  2
UCS
  5
7
330
0
100
AcDbSymbolTable
 70
     0
  0
ENDTAB
  0
TABLE
  2
APPID
  5
9
330
0
100
AcDbSymbolTable
 70
     1
  0
APPID
  5
12
330
9
100
AcDbSymbolTableRecord
100
AcDbRegAppTableRecord
  2
ACAD
 70
     0
  0
ENDTAB
  0
TABLE
  2
DIMSTYLE
  5
A
330
0
100
AcDbSymbolTable
 70
     2
100
AcDbDimStyleTable
  0
DIMSTYLE
105
27
330
A
100
AcDbSymbolTableRecord
100
AcDbDimStyleTableRecord
  2
ISO-25
 70
     0
 41
2.5
 42
0.625
 43
3.75
 44
1.25
 73
     0
 74
     0
 77
     1
 78
     8
140
2.5
141
2.5
143
0.03937007874016
147
0.625
171
     3
172
     1
178
     0
271
     2
272
     2
274
     3
278
    44
283
     0
284
     8
340
11
  0
DIMSTYLE
105
83
330
A
100
AcDbSymbolTableRecord
100
AcDbDimStyleTableRecord
  2
JWAC_DIMSTYLE
 70
     0
  3
x
  4
mm
 41
0.0
 42
0.625
 43
3.75
 44
1.25
 73
     0
 74
     0
 75
     1
 76
     1
 77
     1
 78
     8
140
2.5
141
2.5
143
0.03937007874016
147
0.625
171
     3
172
     1
173
     1
178
     0
271
     2
272
     2
274
     3
278
    32
283
     0
284
     8
340
11
371
     0
372
     0
  0
ENDTAB
  0
TABLE
  2
BLOCK_RECORD
  5
1
330
0
100
AcDbSymbolTable
 70
     1
  0
BLOCK_RECORD
  5
1F
330
1
100
AcDbSymbolTableRecord
100
AcDbBlockTableRecord
  2
*Model_Space
340
22
 70
     0
280
     1
281
     0
  0
BLOCK_RECORD
  5
1B
330
1
100
AcDbSymbolTableRecord
100
AcDbBlockTableRecord
  2
*Paper_Space
340
1E
 70
     0
280
     1
281
     0
  0
BLOCK_RECORD
  5
23
330
1
100
AcDbSymbolTableRecord
100
AcDbBlockTableRecord
  2
*Paper_Space0
340
26
 70
     0
280
     1
281
     0
  0
ENDTAB
  0
ENDSEC
  0
SECTION
  2
BLOCKS
  0
BLOCK
  5
20
330
1F
100
AcDbEntity
  8
0
100
AcDbBlockBegin
  2
*Model_Space
 70
     0
 10
0.0
 20
0.0
 30
0.0
  3
*Model_Space
  1

  0
ENDBLK
  5
21
330
1F
100
AcDbEntity
  8
0
100
AcDbBlockEnd
  0
BLOCK
  5
1C
330
1B
100
AcDbEntity
 67
     1
  8
0
100
AcDbBlockBegin
  2
*Paper_Space
 70
     0
 10
0.0
 20
0.0
 30
0.0
  3
*Paper_Space
  1

  0
ENDBLK
  5
1D
330
1B
100
AcDbEntity
 67
     1
  8
0
100
AcDbBlockEnd
  0
BLOCK
  5
24
330
23
100
AcDbEntity
  8
0
100
AcDbBlockBegin
  2
*Paper_Space0
 70
     0
 10
0.0
 20
0.0
 30
0.0
  3
*Paper_Space0
  1

  0
ENDBLK
  5
25
330
23
100
AcDbEntity
  8
0
100
AcDbBlockEnd
  0
ENDSEC
  0
SECTION
  2
ENTITIES
  0
SOLID
  5
84
330
1F
100
AcDbEntity
  8
寸法
  6
Continuous
 62
     4
370
     9
100
AcDbTrace
 10
-639.9650273013895
 20
-67.5625083887794
 30
0.0
 11
-637.9650273013913
 21
-67.5625083887794
 31
0.0
 12
-639.9650273013895
 22
-87.56250838877946
 32
0.0
 13
-637.9650273013913
 23
-87.56250838877946
 33
0.0
  0
SOLID
  5
85
330
1F
100
AcDbEntity
  8
寸法
  6
Continuous
 62
     4
370
     9
100
AcDbTrace
 10
-639.9650273013895
 20
555.4104774842058
 30
0.0
 11
-637.9650273013913
 21
555.4104774842058
 31
0.0
 12
-639.9650273013895
 22
535.4104774842058
 32
0.0
 13
-637.9650273013913
 23
535.4104774842058
 33
0.0
  0
SOLID
  5
86
330
1F
100
AcDbEntity
  8
寸法
  6
Continuous
 62
     4
370
     9
100
AcDbTrace
 10
-337.6944582554306
 20
240.170005397263
 30
0.0
 11
-317.6944582554297
 21
240.170005397263
 31
0.0
 12
-337.6944582554306
 22
238.1700053972633
 32
0.0
 13
-317.6944582554297
 23
238.1700053972633
 33
0.0
  0
SOLID
  5
87
330
1F
100
AcDbEntity
  8
寸法
  6
Continuous
 62
     4
370
     9
100
AcDbTrace
 10
-924.644106201341
 20
240.170005397263
 30
0.0
 11
-944.6441062013405
 21
240.170005397263
 31
0.0
 12
-924.644106201341
 22
238.1700053972633
 32
0.0
 13
-944.6441062013405
 23
238.1700053972633
 33
0.0
  0
LINE
  5
88
330
1F
100
AcDbEntity
  8
仕上
  6
Continuous
 62
     3
370
     9
100
AcDbLine
 10
-414.9651048325347
 20
-458.9647427145076
 30
0.0
 11
-414.9651048325347
 21
-445.9647493129029
 31
0.0
  0
LINE
  5
89
330
1F
100
AcDbEntity
  8
仕上
  6
Continuous
 62
     3
370
     9
100
AcDbLine
 10
-908.9650520453722
 20
-444.4647691080887
 30
0.0
 11
-368.9650520453722
 21
-444.4647691080887
 31
0.0
  0
LINE
  5
8A
330
1F
100
AcDbEntity
  8
F-Fﾚｲﾔ
  6
Continuous
 62
     7
370
     9
100
AcDbLine
 10
641.3600618019029
 20
639.338534166048
 30
0.0
 11
1153.446236578221
 21
639.338534166048
 31
0.0
  0
TEXT
  5
8B
330
1F
100
AcDbEntity
  8
F-Fﾚｲﾔ
  6
Continuous
 62
     3
370
     9
100
AcDbText
 10
63.25317808600175
 20
794.8765180727939
 30
0.0
 40
13.716
  1
名称
 41
1.083333333333333
  7
ＭＳ ゴシック
100
AcDbText
  0
TEXT
  5
8C
330
1F
100
AcDbEntity
  8
F-Fﾚｲﾔ
  6
Continuous
 62
     3
370
     9
100
AcDbText
 10
650.3600618019029
 20
794.876534166048
 30
0.0
 40
13.716
  1
強度性能
 41
1.125
  7
ＭＳ ゴシック
100
AcDbText
  0
TEXT
  5
8D
330
1F
100
AcDbEntity
  8
F-Fﾚｲﾔ
  6
Continuous
 62
     3
370
     9
100
AcDbText
 10
650.3600618019029
 20
765.953534166048
 30
0.0
 40
11.43
  1
強度
 41
1.05
  7
ＭＳ ゴシック
100
AcDbText
  0
TEXT
  5
8E
330
1F
100
AcDbEntity
  8
F-Fﾚｲﾔ
  6
Continuous
 62
     3
370
     9
100
AcDbText
 10
650.3600618019029
 20
717.953534166048
 30
0.0
 40
11.43
  1
主な使用場所
 41
1.083333333333333
  7
ＭＳ ゴシック
100
AcDbText
  0
LINE
  5
8F
330
1F
100
AcDbEntity
  8
F-Fﾚｲﾔ
  6
Continuous
 62
     7
370
     9
100
AcDbLine
 10
641.3600618019029
 20
816.338534166048
 30
0.0
 11
1153.446236578221
 21
816.338534166048
 31
0.0
  0
LINE
  5
90
330
1F
100
AcDbEntity
  8
F-Fﾚｲﾔ
  6
Continuous
 62
     7
370
     9
100
AcDbLine
 10
641.3600618019029
 20
786.338534166048
 30
0.0
 11
1153.446236578221
 21
786.338534166048
 31
0.0
  0
LINE
  5
91
330
1F
100
AcDbEntity
  8
F-Fﾚｲﾔ
  6
Continuous
 62
     7
370
     9
100
AcDbLine
 10
641.3600618019029
 20
783.338534166048
 30
0.0
 11
1153.446236578221
 21
783.338534166048
 31
0.0
  0
LINE
  5
92
330
1F
100
AcDbEntity
  8
F-Fﾚｲﾔ
  6
Continuous
 62
     7
370
     9
100
AcDbLine
 10
641.3600618019029
 20
735.338534166048
 30
0.0
 11
1153.446236578221
 21
735.338534166048
 31
0.0
  0
TEXT
  5
93
330
1F
100
AcDbEntity
  8
F-Fﾚｲﾔ
  6
Continuous
 62
     3
370
     9
100
AcDbText
 10
63.25317808600175
 20
713.4534912507038
 30
0.0
 40
11.43
  1
蓋
  7
ＭＳ ゴシック
100
AcDbText
  0
TEXT
  5
94
330
1F
100
AcDbEntity
  8
F-Fﾚｲﾔ
  6
Continuous
 62
     3
370
     9
100
AcDbText
 10
63.25317808600175
 20
578.4535341660483
 30
0.0
 40
11.43
  1
受枠
 41
1.05
  7
ＭＳ ゴシック
100
AcDbText
  0
TEXT
  5
95
330
1F
100
AcDbEntity
  8
F-Fﾚｲﾔ
  6
Continuous
 62
     3
370
     9
100
AcDbText
 10
63.25317808600175
 20
470.0668929602201
 30
0.0
 40
11.43
  1
品番
 41
1.05
  7
ＭＳ ゴシック
100
AcDbText
  0
TEXT
  5
96
330
1F
100
AcDbEntity
  8
F-Fﾚｲﾔ
  6
Continuous
 62
     3
370
     9
100
AcDbText
 10
168.0412407235577
 20
470.0668929602201
 30
0.0
 40
11.43
  1
カネソウ　カラー舗装用みぞ蓋
 41
1.092857142857143
  7
ＭＳ ゴシック
100
AcDbText
  0
TEXT
  5
97
330
1F
100
AcDbEntity
  8
F-Fﾚｲﾔ
  6
Continuous
 62
     3
370
     9
100
AcDbText
 10
168.0412407235579
 20
524.4535341660483
 30
0.0
 40
11.43
  1
※アンカーを回転・変形させることで境界部・壁際用
 41
1.095833333333333
  7
ＭＳ ゴシック
100
AcDbText
  0
TEXT
  5
98
330
1F
100
AcDbEntity
  8
F-Fﾚｲﾔ
  6
Continuous
 62
     3
370
     9
100
AcDbText
 10
168.0412407235579
 20
497.4535341660482
 30
0.0
 40
11.43
  1
として使用できます。
 41
1.09
  7
ＭＳ ゴシック
100
AcDbText
  0
TEXT
  5
99
330
1F
100
AcDbEntity
  8
F-Fﾚｲﾔ
  6
Continuous
 62
     3
370
     9
100
AcDbText
 10
168.0412407235577
 20
578.4535341660483
 30
0.0
 40
11.43
  1
ステンレス製　クッション材付
 41
1.092857142857143
  7
ＭＳ ゴシック
100
AcDbText
  0
TEXT
  5
9A
330
1F
100
AcDbEntity
  8
F-Fﾚｲﾔ
  6
Continuous
 62
     3
370
     9
100
AcDbText
 10
168.0412407235577
 20
743.453534166048
 30
0.0
 40
11.43
  1
ステンレス製受枠　クッション材付
 41
1.09375
  7
ＭＳ ゴシック
100
AcDbText
  0
TEXT
  5
9B
330
1F
100
AcDbEntity
  8
F-Fﾚｲﾔ
  6
Continuous
 62
     3
370
     9
100
AcDbText
 10
780.1823001222635
 20
717.953534166048
 30
0.0
 40
11.43
  1
歩道
 41
1.05
  7
ＭＳ ゴシック
100
AcDbText
  0
TEXT
  5
9C
330
1F
100
AcDbEntity
  8
F-Fﾚｲﾔ
  6
Continuous
 62
     3
370
     9
100
AcDbText
 10
650.3600618019029
 20
693.953534166048
 30
0.0
 40
11.43
  1
車両進行方向
 41
1.083333333333333
  7
ＭＳ ゴシック
100
AcDbText
  0
TEXT
  5
9D
330
1F
100
AcDbEntity
  8
F-Fﾚｲﾔ
  6
Continuous
 62
     3
370
     9
100
AcDbText
 10
650.3600618019029
 20
669.953534166048
 30
0.0
 40
11.43
  1
衝撃係数
 41
1.075
  7
ＭＳ ゴシック
100
AcDbText
  0
TEXT
  5
9E
330
1F
100
AcDbEntity
  8
F-Fﾚｲﾔ
  6
Continuous
 62
     3
370
     9
100
AcDbText
 10
650.3600618019029
 20
645.9535547296501
 30
0.0
 40
11.43
  1
荷重
 41
1.05
  7
ＭＳ ゴシック
100
AcDbText
  0
LINE
  5
9F
330
1F
100
AcDbEntity
  8
F-Fﾚｲﾔ
  6
Continuous
 62
     7
370
     9
100
AcDbLine
 10
641.3600618019029
 20
711.338534166048
 30
0.0
 11
1153.446236578221
 21
711.338534166048
 31
0.0
  0
LINE
  5
A0
330
1F
100
AcDbEntity
  8
F-Fﾚｲﾔ
  6
Continuous
 62
     7
370
     9
100
AcDbLine
 10
641.3600618019029
 20
687.338534166048
 30
0.0
 11
1153.446236578221
 21
687.338534166048
 31
0.0
  0
LINE
  5
A1
330
1F
100
AcDbEntity
  8
F-Fﾚｲﾔ
  6
Continuous
 62
     7
370
     9
100
AcDbLine
 10
641.3600618019029
 20
663.338534166048
 30
0.0
 11
1153.446236578221
 21
663.338534166048
 31
0.0
  0
TEXT
  5
A2
330
1F
100
AcDbEntity
  8
F-Fﾚｲﾔ
  6
Continuous
 62
     3
370
     9
100
AcDbText
 10
780.1823001222635
 20
693.953534166048
 30
0.0
 40
11.43
  1
縦断方向（側溝方向）
 41
1.09
  7
ＭＳ ゴシック
100
AcDbText
  0
TEXT
  5
A3
330
1F
100
AcDbEntity
  8
F-Fﾚｲﾔ
  6
Continuous
 62
     3
370
     9
100
AcDbText
 10
780.1823001222635
 20
645.953534166048
 30
0.0
 40
11.43
  1
5.0kN/㎡
 41
1.075
  7
ＭＳ ゴシック
100
AcDbText
  0
TEXT
  5
A4
330
1F
100
AcDbEntity
  8
F-Fﾚｲﾔ
  6
Continuous
 62
     3
370
     9
100
AcDbText
 10
780.1823001222635
 20
669.953534166048
 30
0.0
 40
11.43
  1
0
  7
ＭＳ ゴシック
100
AcDbText
  0
TEXT
  5
A5
330
1F
100
AcDbEntity
  8
F-Fﾚｲﾔ
  6
Continuous
 62
     3
370
     9
100
AcDbText
 10
780.1823001222635
 20
765.953534166048
 30
0.0
 40
11.43
  1
歩行用：5.0kN/㎡(等分布荷重）
 41
1.093103448275862
  7
ＭＳ ゴシック
100
AcDbText
  0
TEXT
  5
A6
330
1F
100
AcDbEntity
  8
F-Fﾚｲﾔ
  6
Continuous
 62
     3
370
     9
100
AcDbText
 10
780.1823001222635
 20
741.953534166048
 30
0.0
 40
11.43
  1
　 　 　道路橋示方書　歩道等の群集荷重
 41
1.094736842105263
  7
ＭＳ ゴシック
100
AcDbText
  0
LINE
  5
A7
330
1F
100
AcDbEntity
  8
F-Fﾚｲﾔ
  6
Continuous
 62
     7
370
     9
100
AcDbLine
 10
771.1823001222639
 20
786.338534166048
 30
0.0
 11
771.1823001222639
 21
639.338534166048
 31
0.0
  0
LINE
  5
A8
330
1F
100
AcDbEntity
  8
F-Fﾚｲﾔ
  6
Continuous
 62
     7
370
     9
100
AcDbLine
 10
641.3600618019029
 20
816.338534166048
 30
0.0
 11
641.3600618019029
 21
639.338534166048
 31
0.0
  0
LINE
  5
A9
330
1F
100
AcDbEntity
  8
F-Fﾚｲﾔ
  6
Continuous
 62
     7
370
     9
100
AcDbLine
 10
1153.446236578221
 20
816.338534166048
 30
0.0
 11
1153.446236578221
 21
639.338534166048
 31
0.0
  0
TEXT
  5
AA
330
1F
100
AcDbEntity
  8
F-5ﾚｲﾔ
  6
Continuous
 62
     2
370
     0
100
AcDbText
 10
207.7499994283478
 20
-824.3457646204221
 30
0.0
 40
9.144
  1
ステンレス製受枠　クッション材付　ＴＬ９５Ｐ
 41
0.8988636363636366
  7
ＭＳ ゴシック
100
AcDbText
  0
TEXT
  5
AB
330
1F
100
AcDbEntity
  8
F-Fﾚｲﾔ
  6
Continuous
 62
     3
370
     9
100
AcDbText
 10
168.0412407235577
 20
797.453534166048
 30
0.0
 40
11.43
  1
ステンレス製蓋
 41
1.085714285714286
  7
ＭＳ ゴシック
100
AcDbText
  0
TEXT
  5
AC
330
1F
100
AcDbEntity
  8
F-Fﾚｲﾔ
  6
Continuous
 62
     3
370
     9
100
AcDbText
 10
168.0412407235577
 20
686.453534166048
 30
0.0
 40
11.43
  1
充填深さ 65mm
 41
1.092307692307692
  7
ＭＳ ゴシック
100
AcDbText
  0
TEXT
  5
AD
330
1F
100
AcDbEntity
  8
F-Fﾚｲﾔ
  6
Continuous
 62
     3
370
     9
100
AcDbText
 10
168.0412407235577
 20
770.453534166048
 30
0.0
 40
11.43
  1
集水桝用　インターロッキングブロック用　充填深さ65mm
 41
1.098076923076923
  7
ＭＳ ゴシック
100
AcDbText
  0
LINE
  5
AE
330
1F
100
AcDbEntity
  8
F-Fﾚｲﾔ
  6
Continuous
 62
     7
370
     9
100
AcDbLine
 10
55.26801054215639
 20
735.338534166048
 30
0.0
 11
608.2912407235577
 21
735.338534166048
 31
0.0
  0
LINE
  5
AF
330
1F
100
AcDbEntity
  8
F-Fﾚｲﾔ
  6
Continuous
 62
     7
370
     9
100
AcDbLine
 10
55.26801054215639
 20
816.338534166048
 30
0.0
 11
608.2912407235577
 21
816.338534166048
 31
0.0
  0
LINE
  5
B0
330
1F
100
AcDbEntity
  8
F-Fﾚｲﾔ
  6
Continuous
 62
     7
370
     9
100
AcDbLine
 10
55.26801054215639
 20
732.338534166048
 30
0.0
 11
608.2912407235577
 21
732.338534166048
 31
0.0
  0
LINE
  5
B1
330
1F
100
AcDbEntity
  8
F-Fﾚｲﾔ
  6
Continuous
 62
     7
370
     9
100
AcDbLine
 10
155.6407701553504
 20
705.338534166048
 30
0.0
 11
608.2912407235577
 21
705.338534166048
 31
0.0
  0
LINE
  5
B2
330
1F
100
AcDbEntity
  8
F-Fﾚｲﾔ
  6
Continuous
 62
     7
370
     9
100
AcDbLine
 10
155.6407701553504
 20
678.338534166048
 30
0.0
 11
608.2912407235577
 21
678.338534166048
 31
0.0
  0
LINE
  5
B3
330
1F
100
AcDbEntity
  8
F-Fﾚｲﾔ
  6
Continuous
 62
     7
370
     9
100
AcDbLine
 10
155.6407701553504
 20
651.338534166048
 30
0.0
 11
608.2912407235577
 21
651.338534166048
 31
0.0
  0
LINE
  5
B4
330
1F
100
AcDbEntity
  8
F-Fﾚｲﾔ
  6
Continuous
 62
     7
370
     9
100
AcDbLine
 10
155.6407701553504
 20
624.3385341660482
 30
0.0
 11
608.2912407235577
 21
624.3385341660482
 31
0.0
  0
LINE
  5
B5
330
1F
100
AcDbEntity
  8
F-Fﾚｲﾔ
  6
Continuous
 62
     7
370
     9
100
AcDbLine
 10
55.26801054215639
 20
597.3385341660482
 30
0.0
 11
608.2912407235577
 21
597.3385341660482
 31
0.0
  0
LINE
  5
B6
330
1F
100
AcDbEntity
  8
F-Fﾚｲﾔ
  6
Continuous
 62
     7
370
     9
100
AcDbLine
 10
55.26801054215639
 20
488.9518929602201
 30
0.0
 11
608.2912407235577
 21
488.9518929602201
 31
0.0
  0
LINE
  5
B7
330
1F
100
AcDbEntity
  8
F-Fﾚｲﾔ
  6
Continuous
 62
     7
370
     9
100
AcDbLine
 10
55.26801054215639
 20
816.338534166048
 30
0.0
 11
55.26801054215639
 21
434.9518929602201
 31
0.0
  0
LINE
  5
B8
330
1F
100
AcDbEntity
  8
F-Fﾚｲﾔ
  6
Continuous
 62
     7
370
     9
100
AcDbLine
 10
155.6407701553504
 20
816.338534166048
 30
0.0
 11
155.6407701553504
 21
434.9518929602201
 31
0.0
  0
LINE
  5
B9
330
1F
100
AcDbEntity
  8
F-Fﾚｲﾔ
  6
Continuous
 62
     7
370
     9
100
AcDbLine
 10
55.26801054215639
 20
434.9518929602201
 30
0.0
 11
608.2912407235577
 21
434.9518929602201
 31
0.0
  0
LINE
  5
BA
330
1F
100
AcDbEntity
  8
F-Fﾚｲﾔ
  6
Continuous
 62
     7
370
     9
100
AcDbLine
 10
608.2912407235577
 20
816.338534166048
 30
0.0
 11
608.2912407235577
 21
434.9518929602201
 31
0.0
  0
CIRCLE
  5
BB
330
1F
100
AcDbEntity
  8
0-E
  6
Continuous
 62
     7
370
     9
100
AcDbCircle
 10
164.8655532982643
 20
-440.3820330110642
 30
0.0
 40
0.5
  0
CIRCLE
  5
BC
330
1F
100
AcDbEntity
  8
0-E
  6
Continuous
 62
     7
370
     9
100
AcDbCircle
 10
152.222287992142
 20
-438.6260239407695
 30
0.0
 40
0.5
  0
CIRCLE
  5
BD
330
1F
100
AcDbEntity
  8
0-E
  6
Continuous
 62
     7
370
     9
100
AcDbCircle
 10
144.8470498969037
 20
-432.3043912877082
 30
0.0
 40
0.5
  0
LINE
  5
BE
330
1F
100
AcDbEntity
  8
寸法
  6
Continuous
 62
     7
370
     9
100
AcDbLine
 10
-719.7305726317882
 20
-691.2520447548234
 30
0.0
 11
-557.4768802261267
 21
-691.2520447548234
 31
0.0
  0
TEXT
  5
BF
330
1F
100
AcDbEntity
  8
寸法
  6
Continuous
 62
     2
370
     9
100
AcDbText
 10
-719.9377032782031
 20
-685.6034443454596
 30
0.0
 40
9.144
  1
Ａ－Ａ断面図　Ｓ＝１：３
 41
1.114583333333333
  7
ＭＳ ゴシック
100
AcDbText
  0
TEXT
  5
C0
330
1F
100
AcDbEntity
  8
寸法
  6
Continuous
 62
     2
370
     9
100
AcDbText
 10
-739.1037264289571
 20
-709.2827168884778
 30
0.0
 40
9.144
  1
※Ａ－Ａ断面図は舗装材を省略。
 41
1.116666666666667
  7
ＭＳ ゴシック
100
AcDbText
  0
LINE
  5
C1
330
1F
100
AcDbEntity
  8
仕上
  6
Continuous
 62
     3
370
     9
100
AcDbLine
 10
-622.9649992582104
 20
-458.9647427145076
 30
0.0
 11
-622.9649992582104
 21
-445.9647493129029
 31
0.0
  0
LINE
  5
C2
330
1F
100
AcDbEntity
  8
仕上
  6
Continuous
 62
     3
370
     9
100
AcDbLine
 10
-653.4650256517916
 20
-460.4647229193218
 30
0.0
 11
-624.4650784389535
 21
-460.4647229193218
 31
0.0
  0
LINE
  5
C3
330
1F
100
AcDbEntity
  8
仕上
  6
Continuous
 62
     3
370
     9
100
AcDbLine
 10
-654.9651048325347
 20
-458.9647427145076
 30
0.0
 11
-654.9651048325347
 21
-445.9647493129029
 31
0.0
  0
ARC
  5
C4
330
1F
100
AcDbEntity
  8
仕上
  6
Continuous
 62
     3
370
     9
100
AcDbCircle
 10
-624.4650784389535
 20
-458.9647427145076
 30
0.0
 40
1.500000019331236
100
AcDbArc
 50
270.0
 51
0.0
  0
ARC
  5
C5
330
1F
100
AcDbEntity
  8
仕上
  6
Continuous
 62
     3
370
     9
100
AcDbCircle
 10
-653.4650256517916
 20
-458.9647427145076
 30
0.0
 40
1.500000019331236
100
AcDbArc
 50
180.0
 51
270.0
  0
ARC
  5
C6
330
1F
100
AcDbEntity
  8
仕上
  6
Continuous
 62
     3
370
     9
100
AcDbCircle
 10
-624.4650784389535
 20
-445.9647493129029
 30
0.0
 40
1.500000019331236
100
AcDbArc
 50
0.0
 51
90.0
  0
ARC
  5
C7
330
1F
100
AcDbEntity
  8
仕上
  6
Continuous
 62
     3
370
     9
100
AcDbCircle
 10
-653.4650256517916
 20
-445.9647493129029
 30
0.0
 40
1.500000019331236
100
AcDbArc
 50
90.0
 51
180.0
  0
LINE
  5
C8
330
1F
100
AcDbEntity
  8
0-E
  6
Continuous
 62
     2
370
     9
100
AcDbLine
 10
104.1560728359527
 20
-425.4647097225313
 30
0.0
 11
122.9946691799469
 21
-406.6261133785371
 31
0.0
  0
CIRCLE
  5
C9
330
1F
100
AcDbEntity
  8
0-E
  6
Continuous
 62
     7
370
     9
100
AcDbCircle
 10
393.6390085736955
 20
-431.5441139026705
 30
0.0
 40
0.5
  0
CIRCLE
  5
CA
330
1F
100
AcDbEntity
  8
0-E
  6
Continuous
 62
     7
370
     9
100
AcDbCircle
 10
368.5620406141931
 20
-437.685412178467
 30
0.0
 40
0.5
  0
CIRCLE
  5
CB
330
1F
100
AcDbEntity
  8
0-E
  6
Continuous
 62
     7
370
     9
100
AcDbCircle
 10
383.2329198285959
 20
-437.8560037972391
 30
0.0
 40
0.5
  0
CIRCLE
  5
CC
330
1F
100
AcDbEntity
  8
0-E
  6
Continuous
 62
     7
370
     9
100
AcDbCircle
 10
357.3029937752329
 20
-427.9616899084559
 30
0.0
 40
0.5
  0
CIRCLE
  5
CD
330
1F
100
AcDbEntity
  8
0-E
  6
Continuous
 62
     7
370
     9
100
AcDbCircle
 10
347.2380882676777
 20
-436.1500876095179
 30
0.0
 40
0.5
  0
CIRCLE
  5
CE
330
1F
100
AcDbEntity
  8
0-E
  6
Continuous
 62
     7
370
     9
100
AcDbCircle
 10
360.0324596755869
 20
-438.3677786535555
 30
0.0
 40
0.5
  0
CIRCLE
  5
CF
330
1F
100
AcDbEntity
  8
0-E
  6
Continuous
 62
     7
370
     9
100
AcDbCircle
 10
320.1140208829097
 20
-430.5205641900376
 30
0.0
 40
0.5
  0
CIRCLE
  5
D0
330
1F
100
AcDbEntity
  8
0-E
  6
Continuous
 62
     7
370
     9
100
AcDbCircle
 10
317.0433717450114
 20
-437.0030457033785
 30
0.0
 40
0.5
  0
CIRCLE
  5
D1
330
1F
100
AcDbEntity
  8
0-E
  6
Continuous
 62
     7
370
     9
100
AcDbCircle
 10
295.8900110172679
 20
-427.1087318145952
 30
0.0
 40
0.5
  0
CIRCLE
  5
D2
330
1F
100
AcDbEntity
  8
0-E
  6
Continuous
 62
     7
370
     9
100
AcDbCircle
 10
293.6723199732304
 20
-433.9323965654802
 30
0.0
 40
0.5
  0
CIRCLE
  5
D3
330
1F
100
AcDbEntity
  8
0-E
  6
Continuous
 62
     7
370
     9
100
AcDbCircle
 10
303.9078170995577
 20
-437.0030457033785
 30
0.0
 40
0.5
  0
CIRCLE
  5
D4
330
1F
100
AcDbEntity
  8
0-E
  6
Continuous
 62
     7
370
     9
100
AcDbCircle
 10
269.7894933451329
 20
-432.3970719965311
 30
0.0
 40
0.5
  0
CIRCLE
  5
D5
330
1F
100
AcDbEntity
  8
0-E
  6
Continuous
 62
     7
370
     9
100
AcDbCircle
 10
281.5603150404093
 20
-430.1793809524935
 30
0.0
 40
0.5
  0
CIRCLE
  5
D6
330
1F
100
AcDbEntity
  8
0-E
  6
Continuous
 62
     7
370
     9
100
AcDbCircle
 10
281.7309066591816
 20
-437.3442289409227
 30
0.0
 40
0.5
  0
CIRCLE
  5
D7
330
1F
100
AcDbEntity
  8
0-E
  6
Continuous
 62
     7
370
     9
100
AcDbCircle
 10
119.7857501798924
 20
-445.268017348712
 30
0.0
 40
0.5
  0
CIRCLE
  5
D8
330
1F
100
AcDbEntity
  8
0-E
  6
Continuous
 62
     7
370
     9
100
AcDbCircle
 10
121.3426934796175
 20
-432.5800597298673
 30
0.0
 40
0.5
  0
LINE
  5
D9
330
1F
100
AcDbEntity
  8
躯体
  6
Continuous
 62
     2
370
     9
100
AcDbLine
 10
131.9947417622948
 20
-465.4646437385785
 30
0.0
 11
176.9947912502591
 21
-465.4646437385786
 31
0.0
  0
LINE
  5
DA
330
1F
100
AcDbEntity
  8
躯体
  6
Continuous
 62
     2
370
     9
100
AcDbLine
 10
125.9947714550735
 20
-365.4647097225313
 30
0.0
 11
129.9947351638995
 21
-365.4647097225313
 31
0.0
  0
LINE
  5
DB
330
1F
100
AcDbEntity
  8
躯体
  6
Continuous
 62
     2
370
     9
100
AcDbLine
 10
131.9947417622948
 20
-460.464577754626
 30
0.0
 11
131.9947417622948
 21
-465.4646437385785
 31
0.0
  0
LINE
  5
DC
330
1F
100
AcDbEntity
  8
躯体
  6
Continuous
 62
     2
370
     9
100
AcDbLine
 10
129.9947351638995
 20
-463.4647361161122
 30
0.0
 11
129.9947351638995
 21
-365.4647097225313
 31
0.0
  0
LINE
  5
DD
330
1F
100
AcDbEntity
  8
躯体
  6
Continuous
 62
     2
370
     9
100
AcDbLine
 10
125.9947714550735
 20
-463.4647361161122
 30
0.0
 11
125.9947714550735
 21
-365.4647097225313
 31
0.0
  0
LINE
  5
DE
330
1F
100
AcDbEntity
  8
躯体
  6
Continuous
 62
     2
370
     9
100
AcDbLine
 10
176.9947912502591
 20
-460.464577754626
 30
0.0
 11
131.9947417622948
 21
-460.464577754626
 31
0.0
  0
ARC
  5
DF
330
1F
100
AcDbEntity
  8
躯体
  6
Continuous
 62
     2
370
     9
100
AcDbCircle
 10
131.9947417622948
 20
-463.4647361161122
 30
0.0
 40
2.000000025774982
100
AcDbArc
 50
180.0
 51
270.0
  0
ARC
  5
E0
330
1F
100
AcDbEntity
  8
躯体
  6
Continuous
 62
     2
370
     9
100
AcDbCircle
 10
131.9947912502591
 20
-463.4647361161122
 30
0.0
 40
6.000000077324944
100
AcDbArc
 50
180.0
 51
270.0
  0
LINE
  5
E1
330
1F
100
AcDbEntity
  8
躯体
  6
Continuous
 62
     2
370
     9
100
AcDbLine
 10
176.9947912502591
 20
-460.464577754626
 30
0.0
 11
176.9947912502591
 21
-469.4646569353692
 31
0.0
  0
LINE
  5
E2
330
1F
100
AcDbEntity
  8
躯体
  6
Continuous
 62
     2
370
     9
100
AcDbLine
 10
131.9947912502591
 20
-469.4646569353691
 30
0.0
 11
176.9947912502591
 21
-469.4646569353692
 31
0.0
  0
LINE
  5
E3
330
1F
100
AcDbEntity
  8
0-E
  6
Continuous
 62
     2
370
     9
100
AcDbLine
 10
122.9946691799469
 20
-365.4647097225313
 30
0.0
 11
122.9946691799469
 21
-425.4647097225313
 31
0.0
  0
CIRCLE
  5
E4
330
1F
100
AcDbEntity
  8
0-E
  6
Continuous
 62
     7
370
     9
100
AcDbCircle
 10
181.1421638433628
 20
-429.497014477405
 30
0.0
 40
0.5
  0
CIRCLE
  5
E5
330
1F
100
AcDbEntity
  8
0-E
  6
Continuous
 62
     7
370
     9
100
AcDbCircle
 10
176.5361901365154
 20
-435.8089043719735
 30
0.0
 40
0.5
  0
LINE
  5
E6
330
1F
100
AcDbEntity
  8
躯体
  6
Continuous
 62
     2
370
     9
100
AcDbLine
 10
176.9947912502591
 20
-462.1867589201666
 30
0.0
 11
173.7169064318471
 21
-465.4646437385785
 31
0.0
  0
LINE
  5
E7
330
1F
100
AcDbEntity
  8
躯体
  6
Continuous
 62
     2
370
     9
100
AcDbLine
 10
173.0601021666445
 20
-460.464577754626
 30
0.0
 11
168.0600361826916
 21
-465.4646437385785
 31
0.0
  0
LINE
  5
E8
330
1F
100
AcDbEntity
  8
躯体
  6
Continuous
 62
     2
370
     9
100
AcDbLine
 10
167.403231917489
 20
-460.464577754626
 30
0.0
 11
162.4031659335365
 21
-465.4646437385785
 31
0.0
  0
LINE
  5
E9
330
1F
100
AcDbEntity
  8
躯体
  6
Continuous
 62
     2
370
     9
100
AcDbLine
 10
161.7463616683335
 20
-460.464577754626
 30
0.0
 11
156.7463451723454
 21
-465.4646437385785
 31
0.0
  0
LINE
  5
EA
330
1F
100
AcDbEntity
  8
躯体
  6
Continuous
 62
     2
370
     9
100
AcDbLine
 10
156.0894914191782
 20
-460.464577754626
 30
0.0
 11
151.0894749231903
 21
-465.4646437385785
 31
0.0
  0
LINE
  5
EB
330
1F
100
AcDbEntity
  8
躯体
  6
Continuous
 62
     2
370
     9
100
AcDbLine
 10
150.4326706579873
 20
-460.464577754626
 30
0.0
 11
145.4326046740346
 21
-465.4646437385786
 31
0.0
  0
LINE
  5
EC
330
1F
100
AcDbEntity
  8
躯体
  6
Continuous
 62
     2
370
     9
100
AcDbLine
 10
144.775800408832
 20
-460.464577754626
 30
0.0
 11
139.7757344248791
 21
-465.4646437385786
 31
0.0
  0
LINE
  5
ED
330
1F
100
AcDbEntity
  8
躯体
  6
Continuous
 62
     2
370
     9
100
AcDbLine
 10
139.1189301596765
 20
-460.464577754626
 30
0.0
 11
134.118864175724
 21
-465.4646437385786
 31
0.0
  0
LINE
  5
EE
330
1F
100
AcDbEntity
  8
躯体
  6
Continuous
 62
     2
370
     9
100
AcDbLine
 10
133.462059910521
 20
-460.464577754626
 30
0.0
 11
131.9947417622948
 21
-461.9319948787813
 31
0.0
  0
LINE
  5
EF
330
1F
100
AcDbEntity
  8
ハッチ
  6
Continuous
 62
     6
370
     9
100
AcDbLine
 10
118.5363458301232
 20
-469.9643860918634
 30
0.0
 11
118.5363458301232
 21
-462.9643860918634
 31
0.0
  0
CIRCLE
  5
F0
330
1F
100
AcDbEntity
  8
0-E
  6
Continuous
 62
     7
370
     9
100
AcDbCircle
 10
191.2491539430607
 20
-431.3135748162206
 30
0.0
 40
0.5
  0
CIRCLE
  5
F1
330
1F
100
AcDbEntity
  8
0-E
  6
Continuous
 62
     7
370
     9
100
AcDbCircle
 10
203.1905672571095
 20
-436.2607317606123
 30
0.0
 40
0.5
  0
CIRCLE
  5
F2
330
1F
100
AcDbEntity
  8
0-E
  6
Continuous
 62
     7
370
     9
100
AcDbCircle
 10
203.0199756383373
 20
-429.0958837721831
 30
0.0
 40
0.5
  0
CIRCLE
  5
F3
330
1F
100
AcDbEntity
  8
0-E
  6
Continuous
 62
     7
370
     9
100
AcDbCircle
 10
213.384378529349
 20
-431.8128655963625
 30
0.0
 40
0.5
  0
CIRCLE
  5
F4
330
1F
100
AcDbEntity
  8
0-E
  6
Continuous
 62
     7
370
     9
100
AcDbCircle
 10
225.3257918433979
 20
-436.7600225407541
 30
0.0
 40
0.5
  0
CIRCLE
  5
F5
330
1F
100
AcDbEntity
  8
0-E
  6
Continuous
 62
     7
370
     9
100
AcDbCircle
 10
225.1552002246256
 20
-429.5951745523249
 30
0.0
 40
0.5
  0
CIRCLE
  5
F6
330
1F
100
AcDbEntity
  8
0-E
  6
Continuous
 62
     7
370
     9
100
AcDbCircle
 10
244.1739766380961
 20
-430.8142840360788
 30
0.0
 40
0.5
  0
CIRCLE
  5
F7
330
1F
100
AcDbEntity
  8
0-E
  6
Continuous
 62
     7
370
     9
100
AcDbCircle
 10
256.1153899521448
 20
-435.7614409804705
 30
0.0
 40
0.5
  0
CIRCLE
  5
F8
330
1F
100
AcDbEntity
  8
0-E
  6
Continuous
 62
     7
370
     9
100
AcDbCircle
 10
255.9447983333727
 20
-428.5965929920413
 30
0.0
 40
0.5
  0
CIRCLE
  5
F9
330
1F
100
AcDbEntity
  8
0-E
  6
Continuous
 62
     7
370
     9
100
AcDbCircle
 10
405.7985629265122
 20
-431.2719672512088
 30
0.0
 40
0.5
  0
CIRCLE
  5
FA
330
1F
100
AcDbEntity
  8
0-E
  6
Continuous
 62
     7
370
     9
100
AcDbCircle
 10
417.739976240561
 20
-436.2191241956005
 30
0.0
 40
0.5
  0
CIRCLE
  5
FB
330
1F
100
AcDbEntity
  8
0-E
  6
Continuous
 62
     7
370
     9
100
AcDbCircle
 10
417.5693846217888
 20
-429.0542762071713
 30
0.0
 40
0.5
  0
CIRCLE
  5
FC
330
1F
100
AcDbEntity
  8
0-E
  6
Continuous
 62
     7
370
     9
100
AcDbCircle
 10
426.269484912328
 20
-432.7698395916345
 30
0.0
 40
0.5
  0
CIRCLE
  5
FD
330
1F
100
AcDbEntity
  8
0-E
  6
Continuous
 62
     7
370
     9
100
AcDbCircle
 10
438.2108982263768
 20
-437.7169965360259
 30
0.0
 40
0.5
  0
CIRCLE
  5
FE
330
1F
100
AcDbEntity
  8
0-E
  6
Continuous
 62
     7
370
     9
100
AcDbCircle
 10
438.0403066076045
 20
-430.5521485475967
 30
0.0
 40
0.5
  0
LWPOLYLINE
  5
FF
330
1F
100
AcDbEntity
  8
その他
  6
Continuous
 62
     7
370
     9
100
AcDbPolyline
 90
        4
 70
     1
 43
0.6000000000000001
 10
126.2947714550735
 20
-236.1062314219563
 42
0.4142135623731
 10
125.9947714550735
 20
-235.8062314219563
 42
0.4142135623731
 10
125.6947714550735
 20
-236.1062314219563
 42
0.4142135623731
 10
125.9947714550735
 20
-236.4062314219563
 42
0.4142135623731
  0
LINE
  5
100
330
1F
100
AcDbEntity
  8
その他
  6
Continuous
 62
     7
370
     9
100
AcDbLine
 10
125.9947714550735
 20
-235.2062314219564
 30
0.0
 11
125.9947714550735
 21
-360.4646965257409
 31
0.0
  0
CIRCLE
  5
101
330
1F
100
AcDbEntity
  8
0-E
  6
Continuous
 62
     7
370
     9
100
AcDbCircle
 10
38.91513382870517
 20
-445.268017348712
 30
0.0
 40
0.5
  0
CIRCLE
  5
102
330
1F
100
AcDbEntity
  8
0-E
  6
Continuous
 62
     7
370
     9
100
AcDbCircle
 10
20.65402691069539
 20
-445.702805608666
 30
0.0
 40
0.5
  0
CIRCLE
  5
103
330
1F
100
AcDbEntity
  8
0-E
  6
Continuous
 62
     7
370
     9
100
AcDbCircle
 10
109.4723600067239
 20
-433.418801855497
 30
0.0
 40
0.5
  0
CIRCLE
  5
104
330
1F
100
AcDbEntity
  8
0-E
  6
Continuous
 62
     7
370
     9
100
AcDbCircle
 10
96.77750037643187
 20
-434.1722481717405
 30
0.0
 40
0.5
  0
CIRCLE
  5
105
330
1F
100
AcDbEntity
  8
0-E
  6
Continuous
 62
     7
370
     9
100
AcDbCircle
 10
105.8757200442783
 20
-444.6352007897643
 30
0.0
 40
0.5
  0
CIRCLE
  5
106
330
1F
100
AcDbEntity
  8
0-E
  6
Continuous
 62
     7
370
     9
100
AcDbCircle
 10
51.79817689351472
 20
-443.3557636489732
 30
0.0
 40
0.5
  0
CIRCLE
  5
107
330
1F
100
AcDbEntity
  8
0-E
  6
Continuous
 62
     7
370
     9
100
AcDbCircle
 10
50.26285232456559
 20
-432.8643790944875
 30
0.0
 40
0.5
  0
CIRCLE
  5
108
330
1F
100
AcDbEntity
  8
0-E
  6
Continuous
 62
     7
370
     9
100
AcDbCircle
 10
27.23298379032872
 20
-433.8026329977342
 30
0.0
 40
0.5
  0
CIRCLE
  5
109
330
1F
100
AcDbEntity
  8
0-E
  6
Continuous
 62
     7
370
     9
100
AcDbCircle
 10
30.81540778454348
 20
-443.0145804114291
 30
0.0
 40
0.5
  0
CIRCLE
  5
10A
330
1F
100
AcDbEntity
  8
0-E
  6
Continuous
 62
     7
370
     9
100
AcDbCircle
 10
34.3978317787579
 20
-434.6555910915949
 30
0.0
 40
0.5
  0
CIRCLE
  5
10B
330
1F
100
AcDbEntity
  8
0-E
  6
Continuous
 62
     7
370
     9
100
AcDbCircle
 10
-1.255816544616209
 20
-434.826182710367
 30
0.0
 40
0.5
  0
CIRCLE
  5
10C
330
1F
100
AcDbEntity
  8
0-E
  6
Continuous
 62
     7
370
     9
100
AcDbCircle
 10
14.26802076364731
 20
-437.2144653731767
 30
0.0
 40
0.5
  0
CIRCLE
  5
10D
330
1F
100
AcDbEntity
  8
0-E
  6
Continuous
 62
     7
370
     9
100
AcDbCircle
 10
6.079623062585142
 20
-446.0852295493272
 30
0.0
 40
0.5
  0
CIRCLE
  5
10E
330
1F
100
AcDbEntity
  8
0-E
  6
Continuous
 62
     7
370
     9
100
AcDbCircle
 10
-12.00308852726016
 20
-439.0909731796701
 30
0.0
 40
0.5
  0
CIRCLE
  5
10F
330
1F
100
AcDbEntity
  8
0-E
  6
Continuous
 62
     7
370
     9
100
AcDbCircle
 10
-25.99160126657438
 20
-433.1202665226457
 30
0.0
 40
0.5
  0
CIRCLE
  5
110
330
1F
100
AcDbEntity
  8
0-E
  6
Continuous
 62
     7
370
     9
100
AcDbCircle
 10
-20.36207784709399
 20
-446.938187643188
 30
0.0
 40
0.5
  0
CIRCLE
  5
111
330
1F
100
AcDbEntity
  8
0-E
  6
Continuous
 62
     7
370
     9
100
AcDbCircle
 10
-6.88533996409609
 20
-445.744046311783
 30
0.0
 40
0.5
  0
CIRCLE
  5
112
330
1F
100
AcDbEntity
  8
0-E
  6
Continuous
 62
     7
370
     9
100
AcDbCircle
 10
-13.87959633375328
 20
-433.8026329977342
 30
0.0
 40
0.5
  0
LINE
  5
113
330
1F
100
AcDbEntity
  8
0-E
  6
Continuous
 62
     2
370
     9
100
AcDbLine
 10
12.99466917994687
 20
-375.2047571773652
 30
0.0
 11
22.73472044947817
 21
-365.4647097225337
 31
0.0
  0
LINE
  5
114
330
1F
100
AcDbEntity
  8
0-E
  6
Continuous
 62
     2
370
     9
100
AcDbLine
 10
12.99466917994687
 20
-365.4647097225313
 30
0.0
 11
122.9946691799469
 21
-365.4647097225313
 31
0.0
  0
LINE
  5
115
330
1F
100
AcDbEntity
  8
0-E
  6
Continuous
 62
     2
370
     9
100
AcDbLine
 10
12.99466917994687
 20
-365.4647097225313
 30
0.0
 11
12.99466917994687
 21
-425.4647097225313
 31
0.0
  0
LINE
  5
116
330
1F
100
AcDbEntity
  8
0-E
  6
Continuous
 62
     2
370
     9
100
AcDbLine
 10
-8.843927164047159
 20
-425.4647097225313
 30
0.0
 11
9.994669179946868
 21
-406.6261133785371
 31
0.0
  0
LINE
  5
117
330
1F
100
AcDbEntity
  8
0-E
  6
Continuous
 62
     2
370
     9
100
AcDbLine
 10
9.994669179946868
 20
-365.4647097225313
 30
0.0
 11
9.994669179946868
 21
-425.4647097225313
 31
0.0
  0
LINE
  5
118
330
1F
100
AcDbEntity
  8
0-E
  6
Continuous
 62
     2
370
     9
100
AcDbLine
 10
-28.20530368959896
 20
-365.4647097225313
 30
0.0
 11
9.994669179946868
 21
-365.4647097225313
 31
0.0
  0
LINE
  5
119
330
1F
100
AcDbEntity
  8
0-E
  6
Continuous
 62
     2
370
     9
100
AcDbLine
 10
-28.20530368959896
 20
-425.4647097225313
 30
0.0
 11
9.994669179946868
 21
-425.4647097225313
 31
0.0
  0
LINE
  5
11A
330
1F
100
AcDbEntity
  8
0-E
  6
Continuous
 62
     2
370
     9
100
AcDbLine
 10
-28.20530368959896
 20
-388.2575452167449
 30
0.0
 11
-5.412469644515966
 21
-365.4647097225331
 31
0.0
  0
LINE
  5
11B
330
1F
100
AcDbEntity
  8
0-E
  6
Continuous
 62
     2
370
     9
100
AcDbLine
 10
-28.20530368959896
 20
-416.5418150078486
 30
0.0
 11
9.994669179946868
 21
-378.3418421383028
 31
0.0
  0
LWPOLYLINE
  5
11C
330
1F
100
AcDbEntity
  8
その他
  6
Continuous
 62
     7
370
     9
100
AcDbPolyline
 90
        4
 70
     1
 43
0.6000000000000001
 10
132.2947351638994
 20
-276.7423136345413
 42
0.4142135623731
 10
131.9947351638993
 20
-276.4423136345414
 42
0.4142135623731
 10
131.6947351638993
 20
-276.7423136345413
 42
0.4142135623731
 10
131.9947351638993
 20
-277.0423136345413
 42
0.4142135623731
  0
LINE
  5
11D
330
1F
100
AcDbEntity
  8
その他
  6
Continuous
 62
     7
370
     9
100
AcDbLine
 10
131.9947351638993
 20
-275.8423136345414
 30
0.0
 11
131.9947351638993
 21
-360.4646965257409
 31
0.0
  0
LINE
  5
11E
330
1F
100
AcDbEntity
  8
ハッチ
  6
Continuous
 62
     6
370
     9
100
AcDbLine
 10
76.9947912502592
 20
-618.4646965257409
 30
0.0
 11
-28.20530368959896
 21
-618.4646965257409
 31
0.0
  0
LINE
  5
11F
330
1F
100
AcDbEntity
  8
ハッチ
  6
Continuous
 62
     6
370
     9
100
AcDbLine
 10
176.9947912502591
 20
-518.4646965257408
 30
0.0
 11
76.9947912502592
 21
-518.4646965257408
 31
0.0
  0
LINE
  5
120
330
1F
100
AcDbEntity
  8
ハッチ
  6
Continuous
 62
     6
370
     9
100
AcDbLine
 10
76.9947912502592
 20
-518.4646965257408
 30
0.0
 11
-28.20530368959896
 21
-518.4646965257408
 31
0.0
  0
LINE
  5
121
330
1F
100
AcDbEntity
  8
0-E
  6
Continuous
 62
     2
370
     9
100
AcDbLine
 10
12.99466917994687
 20
-425.4647097225313
 30
0.0
 11
122.9946691799469
 21
-425.4647097225313
 31
0.0
  0
LINE
  5
122
330
1F
100
AcDbEntity
  8
0-E
  6
Continuous
 62
     2
370
     9
100
AcDbLine
 10
75.87180159571841
 20
-425.4647097225313
 30
0.0
 11
122.9946691799469
 21
-378.3418421383028
 31
0.0
  0
LINE
  5
123
330
1F
100
AcDbEntity
  8
ハッチ
  6
Continuous
 62
     6
370
     9
100
AcDbLine
 10
51.57549017998559
 20
-518.4646965257408
 30
0.0
 11
60.09919952939708
 21
-533.2281941878718
 31
0.0
  0
LINE
  5
124
330
1F
100
AcDbEntity
  8
ハッチ
  6
Continuous
 62
     6
370
     9
100
AcDbLine
 10
19.4115913092578
 20
-603.7011988636099
 30
0.0
 11
27.93530065866946
 21
-618.4646965257409
 31
0.0
  0
LINE
  5
125
330
1F
100
AcDbEntity
  8
ハッチ
  6
Continuous
 62
     6
370
     9
100
AcDbLine
 10
0.2733625204107284
 20
-518.4646965257408
 30
0.0
 11
8.79707186982256
 21
-533.2281941878718
 31
0.0
  0
LINE
  5
126
330
1F
100
AcDbEntity
  8
ハッチ
  6
Continuous
 62
     6
370
     9
100
AcDbLine
 10
17.32078121923456
 20
-518.4646965257408
 30
0.0
 11
-28.20530368959896
 21
-597.3181886575347
 31
0.0
  0
LINE
  5
127
330
1F
100
AcDbEntity
  8
ハッチ
  6
Continuous
 62
     6
370
     9
100
AcDbLine
 10
-28.20530368959896
 20
-610.0842090696849
 30
0.0
 11
-23.36682700090472
 21
-618.4646965257409
 31
0.0
  0
LINE
  5
128
330
1F
100
AcDbEntity
  8
ハッチ
  6
Continuous
 62
     6
370
     9
100
AcDbLine
 10
76.9947912502592
 20
-592.8220625461659
 30
0.0
 11
62.19000961942049
 21
-618.4646965257409
 31
0.0
  0
LINE
  5
129
330
1F
100
AcDbEntity
  8
ハッチ
  6
Continuous
 62
     6
370
     9
100
AcDbLine
 10
70.71371896883215
 20
-603.7011988636099
 30
0.0
 11
76.9947912502592
 21
-614.5803351810539
 31
0.0
  0
CIRCLE
  5
12A
330
1F
100
AcDbEntity
  8
0-E
  6
Continuous
 62
     7
370
     9
100
AcDbCircle
 10
83.08804617532996
 20
-453.5350743375462
 30
0.0
 40
0.5
  0
CIRCLE
  5
12B
330
1F
100
AcDbEntity
  8
0-E
  6
Continuous
 62
     7
370
     9
100
AcDbCircle
 10
81.55272160638083
 20
-443.0436897830605
 30
0.0
 40
0.5
  0
CIRCLE
  5
12C
330
1F
100
AcDbEntity
  8
0-E
  6
Continuous
 62
     7
370
     9
100
AcDbCircle
 10
63.86535113986895
 20
-440.0542232737164
 30
0.0
 40
0.5
  0
CIRCLE
  5
12D
330
1F
100
AcDbEntity
  8
0-E
  6
Continuous
 62
     7
370
     9
100
AcDbCircle
 10
62.33002657091998
 20
-429.5628387192308
 30
0.0
 40
0.5
  0
CIRCLE
  5
12E
330
1F
100
AcDbEntity
  8
0-E
  6
Continuous
 62
     7
370
     9
100
AcDbCircle
 10
91.57598943774161
 20
-447.5435849758441
 30
0.0
 40
0.5
  0
CIRCLE
  5
12F
330
1F
100
AcDbEntity
  8
0-E
  6
Continuous
 62
     7
370
     9
100
AcDbCircle
 10
90.0406648687923
 20
-437.0522004213584
 30
0.0
 40
0.5
  0
CIRCLE
  5
130
330
1F
100
AcDbEntity
  8
0-E
  6
Continuous
 62
     7
370
     9
100
AcDbCircle
 10
91.07669865759931
 20
-489.2343651176881
 30
0.0
 40
0.5
  0
CIRCLE
  5
131
330
1F
100
AcDbEntity
  8
0-E
  6
Continuous
 62
     7
370
     9
100
AcDbCircle
 10
89.54137408865017
 20
-478.7429805632024
 30
0.0
 40
0.5
  0
CIRCLE
  5
132
330
1F
100
AcDbEntity
  8
0-E
  6
Continuous
 62
     7
370
     9
100
AcDbCircle
 10
88.58024475689018
 20
-509.9549324935746
 30
0.0
 40
0.5
  0
CIRCLE
  5
133
330
1F
100
AcDbEntity
  8
0-E
  6
Continuous
 62
     7
370
     9
100
AcDbCircle
 10
87.04492018794105
 20
-499.4635479390888
 30
0.0
 40
0.5
  0
CIRCLE
  5
134
330
1F
100
AcDbEntity
  8
0-E
  6
Continuous
 62
     7
370
     9
100
AcDbCircle
 10
152.4894646150461
 20
-504.7123793020852
 30
0.0
 40
0.5
  0
CIRCLE
  5
135
330
1F
100
AcDbEntity
  8
0-E
  6
Continuous
 62
     7
370
     9
100
AcDbCircle
 10
150.9541400460972
 20
-494.2209947475996
 30
0.0
 40
0.5
  0
CIRCLE
  5
136
330
1F
100
AcDbEntity
  8
0-E
  6
Continuous
 62
     7
370
     9
100
AcDbCircle
 10
130.770315678876
 20
-496.2244360396738
 30
0.0
 40
0.5
  0
CIRCLE
  5
137
330
1F
100
AcDbEntity
  8
0-E
  6
Continuous
 62
     7
370
     9
100
AcDbCircle
 10
129.2349911099269
 20
-485.7330514851881
 30
0.0
 40
0.5
  0
CIRCLE
  5
138
330
1F
100
AcDbEntity
  8
0-E
  6
Continuous
 62
     7
370
     9
100
AcDbCircle
 10
165.970315678876
 20
-489.7336558978299
 30
0.0
 40
0.5
  0
CIRCLE
  5
139
330
1F
100
AcDbEntity
  8
0-E
  6
Continuous
 62
     7
370
     9
100
AcDbCircle
 10
164.4349911099269
 20
-479.2422713433442
 30
0.0
 40
0.5
  0
CIRCLE
  5
13A
330
1F
100
AcDbEntity
  8
0-E
  6
Continuous
 62
     7
370
     9
100
AcDbCircle
 10
145.2497483029895
 20
-494.7265636992483
 30
0.0
 40
0.5
  0
CIRCLE
  5
13B
330
1F
100
AcDbEntity
  8
0-E
  6
Continuous
 62
     7
370
     9
100
AcDbCircle
 10
143.7144237340403
 20
-484.2351791447628
 30
0.0
 40
0.5
  0
CIRCLE
  5
13C
330
1F
100
AcDbEntity
  8
0-E
  6
Continuous
 62
     7
370
     9
100
AcDbCircle
 10
129.5220887285213
 20
-508.457060153149
 30
0.0
 40
0.5
  0
CIRCLE
  5
13D
330
1F
100
AcDbEntity
  8
0-E
  6
Continuous
 62
     7
370
     9
100
AcDbCircle
 10
127.9867641595722
 20
-497.9656755986634
 30
0.0
 40
0.5
  0
CIRCLE
  5
13E
330
1F
100
AcDbEntity
  8
0-E
  6
Continuous
 62
     7
370
     9
100
AcDbCircle
 10
102.8100319909328
 20
-460.2754998694611
 30
0.0
 40
0.5
  0
CIRCLE
  5
13F
330
1F
100
AcDbEntity
  8
0-E
  6
Continuous
 62
     7
370
     9
100
AcDbCircle
 10
101.2747074219838
 20
-449.7841153149754
 30
0.0
 40
0.5
  0
CIRCLE
  5
140
330
1F
100
AcDbEntity
  8
0-E
  6
Continuous
 62
     7
370
     9
100
AcDbCircle
 10
103.7711613226929
 20
-494.7202855277414
 30
0.0
 40
0.5
  0
CIRCLE
  5
141
330
1F
100
AcDbEntity
  8
0-E
  6
Continuous
 62
     7
370
     9
100
AcDbCircle
 10
164.4724433384505
 20
-507.2088332027944
 30
0.0
 40
0.5
  0
CIRCLE
  5
142
330
1F
100
AcDbEntity
  8
0-E
  6
Continuous
 62
     7
370
     9
100
AcDbCircle
 10
162.9371187695015
 20
-496.7174486483087
 30
0.0
 40
0.5
  0
CIRCLE
  5
143
330
1F
100
AcDbEntity
  8
0-E
  6
Continuous
 62
     7
370
     9
100
AcDbCircle
 10
141.5050674519257
 20
-509.7052871035037
 30
0.0
 40
0.5
  0
CIRCLE
  5
144
330
1F
100
AcDbEntity
  8
0-E
  6
Continuous
 62
     7
370
     9
100
AcDbCircle
 10
139.9697428829766
 20
-499.2139025490179
 30
0.0
 40
0.5
  0
LINE
  5
145
330
1F
100
AcDbEntity
  8
ハッチ
  6
Continuous
 62
     6
370
     9
100
AcDbLine
 10
76.9947912502592
 20
-518.4646965257408
 30
0.0
 11
76.9947912502592
 21
-455.4647097225313
 31
0.0
  0
LINE
  5
146
330
1F
100
AcDbEntity
  8
ハッチ
  6
Continuous
 62
     6
370
     9
100
AcDbLine
 10
-14.50073724990165
 20
-518.4646965257408
 30
0.0
 11
48.49924955331022
 21
-455.4647097225313
 31
0.0
  0
LINE
  5
147
330
1F
100
AcDbEntity
  8
ハッチ
  6
Continuous
 62
     6
370
     9
100
AcDbLine
 10
-21.57180506176678
 20
-518.4646965257408
 30
0.0
 11
41.42818174144577
 21
-455.4647097225313
 31
0.0
  0
LINE
  5
148
330
1F
100
AcDbEntity
  8
ハッチ
  6
Continuous
 62
     6
370
     9
100
AcDbLine
 10
-28.20530368959896
 20
-518.0271273417098
 30
0.0
 11
34.3571139295791
 21
-455.4647097225313
 31
0.0
  0
CIRCLE
  5
149
330
1F
100
AcDbEntity
  8
0-E
  6
Continuous
 62
     7
370
     9
100
AcDbCircle
 10
-12.45438999869742
 20
-450.9740188729325
 30
0.0
 40
0.5
  0
CIRCLE
  5
14A
330
1F
100
AcDbEntity
  8
0-E
  6
Continuous
 62
     7
370
     9
100
AcDbCircle
 10
26.37933734566792
 20
-449.7535302992524
 30
0.0
 40
0.5
  0
CIRCLE
  5
14B
330
1F
100
AcDbEntity
  8
0-E
  6
Continuous
 62
     7
370
     9
100
AcDbCircle
 10
22.1631040911368
 20
-452.1945074466125
 30
0.0
 40
0.5
  0
CIRCLE
  5
14C
330
1F
100
AcDbEntity
  8
0-E
  6
Continuous
 62
     7
370
     9
100
AcDbCircle
 10
70.31692599815017
 20
-447.4235066585904
 30
0.0
 40
0.5
  0
CIRCLE
  5
14D
330
1F
100
AcDbEntity
  8
0-E
  6
Continuous
 62
     7
370
     9
100
AcDbCircle
 10
50.23434128577833
 20
-452.5273679667071
 30
0.0
 40
0.5
  0
CIRCLE
  5
14E
330
1F
100
AcDbEntity
  8
0-E
  6
Continuous
 62
     7
370
     9
100
AcDbCircle
 10
4.52149652612502
 20
-451.4178328997252
 30
0.0
 40
0.5
  0
LINE
  5
14F
330
1F
100
AcDbEntity
  8
その他
  6
Continuous
 62
     7
370
     9
100
AcDbLine
 10
-66.47119456922553
 20
-365.4647097225313
 30
0.0
 11
-66.47119456922553
 21
-425.4647097225313
 31
0.0
  0
LWPOLYLINE
  5
150
330
1F
100
AcDbEntity
  8
その他
  6
Continuous
 62
     7
370
     9
100
AcDbPolyline
 90
        4
 70
     1
 43
0.6000000000000001
 10
-66.17119456922552
 20
-365.4647097225313
 42
0.4142135623731
 10
-66.47119456922553
 20
-365.1647097225314
 42
0.4142135623731
 10
-66.77119456922554
 20
-365.4647097225313
 42
0.4142135623731
 10
-66.47119456922553
 20
-365.7647097225313
 42
0.4142135623731
  0
LWPOLYLINE
  5
151
330
1F
100
AcDbEntity
  8
その他
  6
Continuous
 62
     7
370
     9
100
AcDbPolyline
 90
        4
 70
     1
 43
0.6000000000000001
 10
-66.17119456922552
 20
-425.4647097225313
 42
0.4142135623731
 10
-66.47119456922553
 20
-425.1647097225313
 42
0.4142135623731
 10
-66.77119456922554
 20
-425.4647097225313
 42
0.4142135623731
 10
-66.47119456922553
 20
-425.7647097225313
 42
0.4142135623731
  0
LINE
  5
152
330
1F
100
AcDbEntity
  8
その他
  6
Continuous
 62
     7
370
     9
100
AcDbLine
 10
-67.37119456922522
 20
-365.4647097225313
 30
0.0
 11
-34.20530368959896
 21
-365.4647097225313
 31
0.0
  0
LINE
  5
153
330
1F
100
AcDbEntity
  8
その他
  6
Continuous
 62
     7
370
     9
100
AcDbLine
 10
-67.37119456922522
 20
-425.4647097225313
 30
0.0
 11
-34.20530368959896
 21
-425.4647097225313
 31
0.0
  0
TEXT
  5
154
330
1F
100
AcDbEntity
  8
その他
  6
Continuous
 62
     2
370
   211
100
AcDbText
 10
-69.96319456922527
 20
-401.8397097225313
 30
0.0
 40
9.144
  1
60
 50
90.0
 41
1.0625
  7
ＭＳ ゴシック
100
AcDbText
  0
LINE
  5
155
330
1F
100
AcDbEntity
  8
その他
  6
Continuous
 62
     7
370
     9
100
AcDbLine
 10
-66.47119456922553
 20
-425.4647097225313
 30
0.0
 11
-66.47119456922553
 21
-455.4647097225313
 31
0.0
  0
LWPOLYLINE
  5
156
330
1F
100
AcDbEntity
  8
その他
  6
Continuous
 62
     7
370
     9
100
AcDbPolyline
 90
        4
 70
     1
 43
0.6000000000000001
 10
-66.17119456922552
 20
-455.4647097225313
 42
0.4142135623731
 10
-66.47119456922553
 20
-455.1647097225313
 42
0.4142135623731
 10
-66.77119456922554
 20
-455.4647097225313
 42
0.4142135623731
 10
-66.47119456922553
 20
-455.7647097225313
 42
0.4142135623731
  0
LINE
  5
157
330
1F
100
AcDbEntity
  8
その他
  6
Continuous
 62
     7
370
     9
100
AcDbLine
 10
-67.37119456922522
 20
-455.4647097225313
 30
0.0
 11
-34.20530368959896
 21
-455.4647097225313
 31
0.0
  0
TEXT
  5
158
330
1F
100
AcDbEntity
  8
その他
  6
Continuous
 62
     2
370
   211
100
AcDbText
 10
-69.96319456922527
 20
-446.8397097225313
 30
0.0
 40
9.144
  1
30
 50
90.0
 41
1.0625
  7
ＭＳ ゴシック
100
AcDbText
  0
LINE
  5
159
330
1F
100
AcDbEntity
  8
ハッチ
  6
Continuous
 62
     6
370
     9
100
AcDbLine
 10
76.9947912502592
 20
-518.4646965257408
 30
0.0
 11
76.9947912502592
 21
-658.4646721941584
 31
0.0
  0
LINE
  5
15A
330
1F
100
AcDbEntity
  8
ハッチ
  6
Continuous
 62
     6
370
     9
100
AcDbLine
 10
105.7080620620646
 20
-658.4646721941584
 30
0.0
 11
176.9947912502591
 21
-587.1779430059671
 31
0.0
  0
LINE
  5
15B
330
1F
100
AcDbEntity
  8
ハッチ
  6
Continuous
 62
     6
370
     9
100
AcDbLine
 10
98.6369942502048
 20
-658.4646721941584
 30
0.0
 11
176.9947912502591
 21
-580.1068751941036
 31
0.0
  0
LINE
  5
15C
330
1F
100
AcDbEntity
  8
ハッチ
  6
Continuous
 62
     6
370
     9
100
AcDbLine
 10
112.7791298739296
 20
-658.4646721941584
 30
0.0
 11
176.9947912502591
 21
-594.2490108178315
 31
0.0
  0
LINE
  5
15D
330
1F
100
AcDbEntity
  8
ハッチ
  6
Continuous
 62
     6
370
     9
100
AcDbLine
 10
176.9947912502591
 20
-469.4646569353692
 30
0.0
 11
176.9947912502591
 21
-658.4646721941584
 31
0.0
  0
LINE
  5
15E
330
1F
100
AcDbEntity
  8
ハッチ
  6
Continuous
 62
     6
370
     9
100
AcDbLine
 10
109.5362542773888
 20
-469.9643860918634
 30
0.0
 11
109.5362542773888
 21
-462.9643860918634
 31
0.0
  0
LINE
  5
15F
330
1F
100
AcDbEntity
  8
ハッチ
  6
JWW_CENTER2
 62
     6
370
     9
100
AcDbLine
 10
114.036300053756
 20
-461.2716656786554
 30
0.0
 11
114.036300053756
 21
-541.1312004319909
 31
0.0
  0
LINE
  5
160
330
1F
100
AcDbEntity
  8
ハッチ
  6
Continuous
 62
     6
370
     9
100
AcDbLine
 10
118.5363458301232
 20
-518.4646965257408
 30
0.0
 11
118.5363458301232
 21
-475.7643929583184
 31
0.0
  0
LINE
  5
161
330
1F
100
AcDbEntity
  8
ハッチ
  6
Continuous
 62
     6
370
     9
100
AcDbLine
 10
109.5362542773888
 20
-518.4646965257408
 30
0.0
 11
109.5362542773888
 21
-475.7643929583184
 31
0.0
  0
LINE
  5
162
330
1F
100
AcDbEntity
  8
ハッチ
  6
JWW_DASHED3
 62
     6
370
     9
100
AcDbLine
 10
109.5362542773888
 20
-518.4646965257408
 30
0.0
 11
109.5362542773888
 21
-541.1312004319909
 31
0.0
  0
LINE
  5
163
330
1F
100
AcDbEntity
  8
ハッチ
  6
JWW_DASHED3
 62
     6
370
     9
100
AcDbLine
 10
118.5363458301232
 20
-541.1312004319909
 30
0.0
 11
118.5363458301232
 21
-518.4646965257408
 31
0.0
  0
LWPOLYLINE
  5
164
330
1F
100
AcDbEntity
  8
その他
  6
Continuous
 62
     7
370
     9
100
AcDbPolyline
 90
        4
 70
     1
 43
0.6000000000000001
 10
177.2947912502592
 20
-565.7125437687798
 42
0.4142135623731
 10
176.9947912502591
 20
-565.4125437687798
 42
0.4142135623731
 10
176.6947912502591
 20
-565.7125437687798
 42
0.4142135623731
 10
176.9947912502591
 20
-566.0125437687798
 42
0.4142135623731
  0
LINE
  5
165
330
1F
100
AcDbEntity
  8
その他
  6
Continuous
 62
     7
370
     9
100
AcDbLine
 10
96.99482094303818
 20
-565.7125437687798
 30
0.0
 11
125.9947911729342
 21
-565.7125437687798
 31
0.0
  0
LWPOLYLINE
  5
166
330
1F
100
AcDbEntity
  8
その他
  6
Continuous
 62
     7
370
     9
100
AcDbPolyline
 90
        4
 70
     1
 43
0.6000000000000001
 10
97.29482094303819
 20
-565.7125437687798
 42
0.4142135623731
 10
96.99482094303818
 20
-565.4125437687798
 42
0.4142135623731
 10
96.69482094303817
 20
-565.7125437687798
 42
0.4142135623731
 10
96.99482094303818
 20
-566.0125437687798
 42
0.4142135623731
  0
LWPOLYLINE
  5
167
330
1F
100
AcDbEntity
  8
その他
  6
Continuous
 62
     7
370
     9
100
AcDbPolyline
 90
        4
 70
     1
 43
0.6000000000000001
 10
126.2947911729343
 20
-565.7125437687798
 42
0.4142135623731
 10
125.9947911729342
 20
-565.4125437687798
 42
0.4142135623731
 10
125.6947911729342
 20
-565.7125437687798
 42
0.4142135623731
 10
125.9947911729342
 20
-566.0125437687798
 42
0.4142135623731
  0
LINE
  5
168
330
1F
100
AcDbEntity
  8
その他
  6
Continuous
 62
     7
370
     9
100
AcDbLine
 10
96.99482094303818
 20
-566.6125437687797
 30
0.0
 11
96.99482094303818
 21
-475.9643860918634
 31
0.0
  0
TEXT
  5
169
330
1F
100
AcDbEntity
  8
その他
  6
Continuous
 62
     2
370
   211
100
AcDbText
 10
105.1198060579861
 20
-562.2205437687796
 30
0.0
 40
9.144
  1
29
 41
1.0625
  7
ＭＳ ゴシック
100
AcDbText
  0
LINE
  5
16A
330
1F
100
AcDbEntity
  8
その他
  6
Continuous
 62
     7
370
     9
100
AcDbLine
 10
125.9947911729342
 20
-565.7125437687798
 30
0.0
 11
176.9947912502591
 21
-565.7125437687798
 31
0.0
  0
TEXT
  5
16B
330
1F
100
AcDbEntity
  8
その他
  6
Continuous
 62
     2
370
   211
100
AcDbText
 10
145.1197912115969
 20
-562.2205437687796
 30
0.0
 40
9.144
  1
51
 41
1.0625
  7
ＭＳ ゴシック
100
AcDbText
  0
LINE
  5
16C
330
1F
100
AcDbEntity
  8
ハッチ
  6
Continuous
 62
     6
370
     9
100
AcDbLine
 10
128.5476455792721
 20
-531.2741780728386
 30
0.0
 11
141.3571271263695
 21
-518.4646965257408
 31
0.0
  0
LINE
  5
16D
330
1F
100
AcDbEntity
  8
ハッチ
  6
Continuous
 62
     6
370
     9
100
AcDbLine
 10
128.5476455792721
 20
-538.3452458847046
 30
0.0
 11
148.4281949382367
 21
-518.4646965257408
 31
0.0
  0
LINE
  5
16E
330
1F
100
AcDbEntity
  8
ハッチ
  6
Continuous
 62
     6
370
     9
100
AcDbLine
 10
128.5476455792721
 20
-545.4163136965686
 30
0.0
 11
155.4992627501011
 21
-518.4646965257408
 31
0.0
  0
LINE
  5
16F
330
1F
100
AcDbEntity
  8
ハッチ
  6
Continuous
 62
     6
370
     9
100
AcDbLine
 10
76.9947912502592
 20
-582.8270324018515
 30
0.0
 11
95.42802382986304
 21
-564.3937998222477
 31
0.0
  0
LINE
  5
170
330
1F
100
AcDbEntity
  8
ハッチ
  6
Continuous
 62
     6
370
     9
100
AcDbLine
 10
76.9947912502592
 20
-589.8981002137148
 30
0.0
 11
95.42802382986304
 21
-571.4648676341119
 31
0.0
  0
LINE
  5
171
330
1F
100
AcDbEntity
  8
ハッチ
  6
Continuous
 62
     6
370
     9
100
AcDbLine
 10
76.9947912502592
 20
-596.9691680255793
 30
0.0
 11
95.42802382986304
 21
-578.5359354459763
 31
0.0
  0
LINE
  5
172
330
1F
100
AcDbEntity
  8
寸法
  6
Continuous
 62
     7
370
     9
100
AcDbLine
 10
109.5362542773888
 20
-469.9643860918634
 30
0.0
 11
69.12732745265839
 21
-399.9740717520974
 31
0.0
  0
LINE
  5
173
330
1F
100
AcDbEntity
  8
寸法
  6
Continuous
 62
     7
370
     9
100
AcDbLine
 10
109.5362542773888
 20
-469.9643860918634
 30
0.0
 11
104.9705435598232
 21
-464.0142360396792
 31
0.0
  0
LINE
  5
174
330
1F
100
AcDbEntity
  8
寸法
  6
Continuous
 62
     7
370
     9
100
AcDbLine
 10
109.5362542773888
 20
-469.9643860918634
 30
0.0
 11
106.6661285346506
 21
-463.0352895980287
 31
0.0
  0
TEXT
  5
175
330
1F
100
AcDbEntity
  8
寸法
  6
Continuous
 62
     2
370
     9
100
AcDbText
 10
16.34190670070006
 20
-395.7124081866463
 30
0.0
 40
9.144
  1
溶接固定
 41
1.09375
  7
ＭＳ ゴシック
100
AcDbText
  0
LINE
  5
176
330
1F
100
AcDbEntity
  8
寸法
  6
Continuous
 62
     7
370
     9
100
AcDbLine
 10
69.12732745265839
 20
-399.9740717520974
 30
0.0
 11
17.46093743356056
 21
-399.9740717520974
 31
0.0
  0
LINE
  5
177
330
1F
100
AcDbEntity
  8
0-E
  6
Continuous
 62
     2
370
     9
100
AcDbLine
 10
39.05092323060535
 20
-377.4327769809724
 30
0.0
 11
51.01899168971249
 21
-365.4647097225334
 31
0.0
  0
LINE
  5
178
330
1F
100
AcDbEntity
  8
0-E
  6
Continuous
 62
     2
370
     9
100
AcDbLine
 10
67.33519261771704
 20
-377.4327769809724
 30
0.0
 11
79.3032591152496
 21
-365.4647097225308
 31
0.0
  0
LINE
  5
179
330
1F
100
AcDbEntity
  8
0-E
  6
Continuous
 62
     2
370
     9
100
AcDbLine
 10
47.5875341701813
 20
-425.4647097225313
 30
0.0
 11
66.66060045088057
 21
-406.3916422291994
 31
0.0
  0
LINE
  5
17A
330
1F
100
AcDbEntity
  8
0-E
  6
Continuous
 62
     2
370
     9
100
AcDbLine
 10
19.30326292994664
 20
-425.4647097225313
 30
0.0
 11
38.37632921064557
 21
-406.3916422291994
 31
0.0
  0
LINE
  5
17B
330
1F
100
AcDbEntity
  8
0-E
  6
Continuous
 62
     2
370
     9
100
AcDbLine
 10
12.99466917994687
 20
-403.4890284175997
 30
0.0
 11
14.29876249266226
 21
-402.1849352357142
 31
0.0
  0
LINE
  5
17C
330
1F
100
AcDbEntity
  8
0-E
  6
Continuous
 62
     2
370
     9
100
AcDbLine
 10
81.00544933361658
 20
-392.0467924344431
 30
0.0
 11
107.5875303554838
 21
-365.4647097225331
 31
0.0
  0
TEXT
  5
17D
330
1F
100
AcDbEntity
  8
寸法
  6
Continuous
 62
     2
370
     9
100
AcDbText
 10
39.46018881259948
 20
-566.5397057751569
 30
0.0
 40
9.144
  1
差筋
 41
1.0625
  7
ＭＳ ゴシック
100
AcDbText
  0
LINE
  5
17E
330
1F
100
AcDbEntity
  8
寸法
  6
Continuous
 62
     7
370
     9
100
AcDbLine
 10
69.1501832354698
 20
-570.8013693406081
 30
0.0
 11
37.48111079841476
 21
-570.8013693406081
 31
0.0
  0
LINE
  5
17F
330
1F
100
AcDbEntity
  8
ハッチ
  6
Continuous
 62
     6
370
     9
100
AcDbLine
 10
35.87450328101869
 20
-575.1865988879861
 30
0.0
 11
10.88788195984631
 21
-618.4646965257409
 31
0.0
  0
LINE
  5
180
330
1F
100
AcDbEntity
  8
ハッチ
  6
Continuous
 62
     6
370
     9
100
AcDbLine
 10
68.62290887880874
 20
-518.4646965257408
 30
0.0
 11
49.13235655481151
 21
-552.2233234184835
 31
0.0
  0
LINE
  5
181
330
1F
100
AcDbEntity
  8
寸法
  6
Continuous
 62
     7
370
     9
100
AcDbLine
 10
109.5362542773888
 20
-500.8506423779179
 30
0.0
 11
69.1501832354698
 21
-570.8013693406081
 31
0.0
  0
LINE
  5
182
330
1F
100
AcDbEntity
  8
寸法
  6
Continuous
 62
     7
370
     9
100
AcDbLine
 10
109.5362542773888
 20
-500.8506423779179
 30
0.0
 11
106.6661285346506
 21
-507.7797388717525
 31
0.0
  0
LINE
  5
183
330
1F
100
AcDbEntity
  8
寸法
  6
Continuous
 62
     7
370
     9
100
AcDbLine
 10
109.5362542773888
 20
-500.8506423779179
 30
0.0
 11
104.9705435598232
 21
-506.8007924301021
 31
0.0
  0
LINE
  5
184
330
1F
100
AcDbEntity
  8
ハッチ
  6
Continuous
 62
     6
370
     9
100
AcDbLine
 10
125.9947714550735
 20
-455.4647097225313
 30
0.0
 11
-28.20530368959896
 21
-455.4647097225313
 31
0.0
  0
LINE
  5
185
330
1F
100
AcDbEntity
  8
仕上
  6
Continuous
 62
     3
370
     9
100
AcDbLine
 10
141.9947434118938
 20
-366.464577754626
 30
0.0
 11
141.9947434118938
 21
-441.464577754626
 31
0.0
  0
LINE
  5
186
330
1F
100
AcDbEntity
  8
仕上
  6
Continuous
 62
     3
370
     9
100
AcDbLine
 10
138.9947830022655
 20
-366.464577754626
 30
0.0
 11
138.9947830022655
 21
-444.4645381642548
 31
0.0
  0
LINE
  5
187
330
1F
100
AcDbEntity
  8
仕上
  6
Continuous
 62
     3
370
     9
100
AcDbLine
 10
131.9947599078822
 20
-444.4645381642548
 30
0.0
 11
131.9947599078822
 21
-460.4645909514168
 31
0.0
  0
CIRCLE
  5
188
330
1F
100
AcDbEntity
  8
0-E
  6
Continuous
 62
     7
370
     9
100
AcDbCircle
 10
144.1446462687859
 20
-372.9512847117445
 30
0.0
 40
0.5
  0
CIRCLE
  5
189
330
1F
100
AcDbEntity
  8
0-E
  6
Continuous
 62
     7
370
     9
100
AcDbCircle
 10
144.3202471758154
 20
-391.5649808568693
 30
0.0
 40
0.5
  0
LWPOLYLINE
  5
18A
330
1F
100
AcDbEntity
  8
その他
  6
Continuous
 62
     7
370
     9
100
AcDbPolyline
 90
        4
 70
     1
 43
0.6000000000000001
 10
142.2947434118938
 20
-317.3253648734422
 42
0.4142135623731
 10
141.9947434118938
 20
-317.0253648734422
 42
0.4142135623731
 10
141.6947434118937
 20
-317.3253648734422
 42
0.4142135623731
 10
141.9947434118938
 20
-317.6253648734422
 42
0.4142135623731
  0
LINE
  5
18B
330
1F
100
AcDbEntity
  8
その他
  6
Continuous
 62
     7
370
     9
100
AcDbLine
 10
141.9947434118938
 20
-316.4253648734422
 30
0.0
 11
141.9947434118938
 21
-360.4646965257409
 31
0.0
  0
TEXT
  5
18C
330
1F
100
AcDbEntity
  8
F-Fﾚｲﾔ
  6
Continuous
 62
     3
370
     9
100
AcDbText
 10
168.0412407235577
 20
443.0668929602201
 30
0.0
 40
11.43
  1
SUIW-M-450
 41
1.09
  7
ＭＳ ゴシック
100
AcDbText
  0
TEXT
  5
18D
330
1F
100
AcDbEntity
  8
F-Fﾚｲﾔ
  6
Continuous
 62
     3
370
     9
100
AcDbText
 10
168.0412407235579
 20
551.4535341660483
 30
0.0
 40
11.43
  1
寸法 幅552×長さ552×高さ104
 41
1.096428571428572
  7
ＭＳ ゴシック
100
AcDbText
  0
TEXT
  5
18E
330
1F
100
AcDbEntity
  8
F-Fﾚｲﾔ
  6
Continuous
 62
     3
370
     9
100
AcDbText
 10
168.0412407235577
 20
659.453534166048
 30
0.0
 40
11.43
  1
寸法 幅540×長さ540×高さ94
 41
1.096296296296296
  7
ＭＳ ゴシック
100
AcDbText
  0
TEXT
  5
18F
330
1F
100
AcDbEntity
  8
F-Fﾚｲﾔ
  6
Continuous
 62
     3
370
     9
100
AcDbText
 10
168.0412407235577
 20
632.4535341660483
 30
0.0
 40
11.43
  1
蓋質量　12kg/枚
 41
1.086666666666667
  7
ＭＳ ゴシック
100
AcDbText
  0
TEXT
  5
190
330
1F
100
AcDbEntity
  8
F-Fﾚｲﾔ
  6
Continuous
 62
     3
370
     9
100
AcDbText
 10
168.0412407235577
 20
605.4535341660484
 30
0.0
 40
11.43
  1
舗装材充填時の蓋質量　約68kg/枚
 41
1.093548387096774
  7
ＭＳ ゴシック
100
AcDbText
  0
LINE
  5
191
330
1F
100
AcDbEntity
  8
寸法
  6
Continuous
 62
     4
370
     9
100
AcDbLine
 10
-639.9650273013895
 20
-87.56250838877946
 30
0.0
 11
-639.9650273013895
 21
-67.5625083887794
 31
0.0
  0
LINE
  5
192
330
1F
100
AcDbEntity
  8
寸法
  6
Continuous
 62
     4
370
     9
100
AcDbLine
 10
-637.9650273013913
 20
-67.5625083887794
 30
0.0
 11
-637.9650273013913
 21
-87.56250838877946
 31
0.0
  0
LINE
  5
193
330
1F
100
AcDbEntity
  8
寸法
  6
Continuous
 62
     4
370
     9
100
AcDbLine
 10
-637.9650273013913
 20
-87.56250838877946
 30
0.0
 11
-639.9650273013895
 21
-87.56250838877946
 31
0.0
  0
TEXT
  5
194
330
1F
100
AcDbEntity
  8
寸法
  6
Continuous
 62
     2
370
     9
100
AcDbText
 10
-619.1300458190949
 20
-80.4430462166925
 30
0.0
 40
9.144
  1
Ｂ
  7
ＭＳ ゴシック
100
AcDbText
  0
LINE
  5
195
330
1F
100
AcDbEntity
  8
寸法
  6
Continuous
 62
     4
370
     9
100
AcDbLine
 10
-638.9650273013904
 20
-76.48574933484639
 30
0.0
 11
-633.3601228594807
 21
-75.74784966632956
 31
0.0
  0
LINE
  5
196
330
1F
100
AcDbEntity
  8
寸法
  6
Continuous
 62
     4
370
     9
100
AcDbLine
 10
-638.9650273013904
 20
-76.48574933484639
 30
0.0
 11
-633.3601228594807
 21
-77.22364900336203
 31
0.0
  0
LINE
  5
197
330
1F
100
AcDbEntity
  8
寸法
  6
Continuous
 62
     4
370
     9
100
AcDbLine
 10
-639.9650273013895
 20
-67.5625083887794
 30
0.0
 11
-637.9650273013913
 21
-67.5625083887794
 31
0.0
  0
LINE
  5
198
330
1F
100
AcDbEntity
  8
寸法
  6
Continuous
 62
     4
370
     9
100
AcDbLine
 10
-638.9650273013904
 20
-76.48574933484639
 30
0.0
 11
-621.7496738393565
 21
-76.48574933484639
 31
0.0
  0
LINE
  5
199
330
1F
100
AcDbEntity
  8
寸法
  6
JWW_CENTER1
 62
     4
370
     9
100
AcDbLine
 10
-638.9650273013904
 20
-67.5625083887794
 30
0.0
 11
-638.9650273013904
 21
-31.52178050387522
 31
0.0
  0
LINE
  5
19A
330
1F
100
AcDbEntity
  8
寸法
  6
Continuous
 62
     7
370
     9
100
AcDbLine
 10
-706.659417990234
 20
-229.3081857707373
 30
0.0
 11
-571.2707355884758
 21
-229.3081857707373
 31
0.0
  0
TEXT
  5
19B
330
1F
100
AcDbEntity
  8
寸法
  6
Continuous
 62
     2
370
     9
100
AcDbText
 10
-698.9882275111703
 20
-224.7053175738618
 30
0.0
 40
9.144
  1
平面図　Ｓ＝１：３
 41
1.111111111111111
  7
ＭＳ ゴシック
100
AcDbText
  0
TEXT
  5
19C
330
1F
100
AcDbEntity
  8
寸法
  6
Continuous
 62
     2
370
     9
100
AcDbText
 10
-719.23822751117
 20
-244.0127444197552
 30
0.0
 40
9.144
  1
※平面図は舗装材を省略。
 41
1.114583333333333
  7
ＭＳ ゴシック
100
AcDbText
  0
LINE
  5
19D
330
1F
100
AcDbEntity
  8
仕上
  6
Continuous
 62
     3
370
     9
100
AcDbLine
 10
-654.9650429725791
 20
-23.967320139793
 30
0.0
 11
-654.9650429725791
 21
-30.96734323417661
 31
0.0
  0
LINE
  5
19E
330
1F
100
AcDbEntity
  8
仕上
  6
Continuous
 62
     3
370
     9
100
AcDbLine
 10
-622.9651353501129
 20
-30.96734323417661
 30
0.0
 11
-654.9650429725791
 21
-30.96734323417661
 31
0.0
  0
LINE
  5
19F
330
1F
100
AcDbEntity
  8
仕上
  6
Continuous
 62
     3
370
     9
100
AcDbLine
 10
-622.9651353501129
 20
-23.967320139793
 30
0.0
 11
-622.9651353501129
 21
-30.96734323417661
 31
0.0
  0
LINE
  5
1A0
330
1F
100
AcDbEntity
  8
仕上
  6
JWW_DASHED3
 62
     3
370
     9
100
AcDbLine
 10
-622.9651353501129
 20
502.0327821353334
 30
0.0
 11
-622.9651353501129
 21
-23.967320139793
 31
0.0
  0
LINE
  5
1A1
330
1F
100
AcDbEntity
  8
仕上
  6
JWW_DASHED3
 62
     3
370
     9
100
AcDbLine
 10
-654.9650429725791
 20
502.0327821353334
 30
0.0
 11
-654.9650429725791
 21
-23.967320139793
 31
0.0
  0
LINE
  5
1A2
330
1F
100
AcDbEntity
  8
寸法
  6
Continuous
 62
     7
370
     9
100
AcDbLine
 10
-713.145972032042
 20
766.6721094031175
 30
0.0
 11
-553.197991135065
 21
766.6721094031175
 31
0.0
  0
LINE
  5
1A3
330
1F
100
AcDbEntity
  8
寸法
  6
Continuous
 62
     7
370
     9
100
AcDbLine
 10
-713.145972032042
 20
791.6721094031179
 30
0.0
 11
-553.197991135065
 21
791.6721094031179
 31
0.0
  0
LINE
  5
1A4
330
1F
100
AcDbEntity
  8
寸法
  6
Continuous
 62
     7
370
     9
100
AcDbLine
 10
-553.197991135065
 20
791.6721094031179
 30
0.0
 11
-553.197991135065
 21
804.1721094031175
 31
0.0
  0
LINE
  5
1A5
330
1F
100
AcDbEntity
  8
寸法
  6
Continuous
 62
     7
370
     9
100
AcDbLine
 10
-553.197991135065
 20
754.1721094031179
 30
0.0
 11
-553.197991135065
 21
766.6721094031175
 31
0.0
  0
LINE
  5
1A6
330
1F
100
AcDbEntity
  8
寸法
  6
Continuous
 62
     7
370
     9
100
AcDbLine
 10
-528.1979911350652
 20
779.1721094031177
 30
0.0
 11
-553.197991135065
 21
804.1721094031175
 31
0.0
  0
LINE
  5
1A7
330
1F
100
AcDbEntity
  8
寸法
  6
Continuous
 62
     7
370
     9
100
AcDbLine
 10
-528.1979911350652
 20
779.1721094031177
 30
0.0
 11
-553.197991135065
 21
754.1721094031179
 31
0.0
  0
LINE
  5
1A8
330
1F
100
AcDbEntity
  8
寸法
  6
Continuous
 62
     7
370
     9
100
AcDbLine
 10
-713.145972032042
 20
791.6721094031179
 30
0.0
 11
-713.145972032042
 21
804.1721094031175
 31
0.0
  0
LINE
  5
1A9
330
1F
100
AcDbEntity
  8
寸法
  6
Continuous
 62
     7
370
     9
100
AcDbLine
 10
-713.145972032042
 20
754.1721094031179
 30
0.0
 11
-713.145972032042
 21
766.6721094031175
 31
0.0
  0
LINE
  5
1AA
330
1F
100
AcDbEntity
  8
寸法
  6
Continuous
 62
     7
370
     9
100
AcDbLine
 10
-738.1459720320424
 20
779.1721094031177
 30
0.0
 11
-713.145972032042
 21
804.1721094031175
 31
0.0
  0
LINE
  5
1AB
330
1F
100
AcDbEntity
  8
寸法
  6
Continuous
 62
     7
370
     9
100
AcDbLine
 10
-738.1459720320424
 20
779.1721094031177
 30
0.0
 11
-713.145972032042
 21
754.1721094031179
 31
0.0
  0
TEXT
  5
1AC
330
1F
100
AcDbEntity
  8
寸法
  6
Continuous
 62
     6
370
     9
100
AcDbText
 10
-757.4696469532037
 20
723.5171034953958
 30
0.0
 40
18.288
  1
縦断方向（側溝方向）
 41
1.1125
  7
ＭＳ ゴシック
100
AcDbText
  0
LINE
  5
1AD
330
1F
100
AcDbEntity
  8
仕上
  6
Continuous
 62
     3
370
     9
100
AcDbLine
 10
-622.9651353501129
 20
502.0327821353334
 30
0.0
 11
-622.9651353501129
 21
509.0327557417526
 31
0.0
  0
LINE
  5
1AE
330
1F
100
AcDbEntity
  8
仕上
  6
Continuous
 62
     3
370
     9
100
AcDbLine
 10
-622.9651353501129
 20
509.0327557417526
 30
0.0
 11
-654.9650429725791
 21
509.0327557417526
 31
0.0
  0
LINE
  5
1AF
330
1F
100
AcDbEntity
  8
仕上
  6
Continuous
 62
     3
370
     9
100
AcDbLine
 10
-654.9650429725791
 20
502.0327821353334
 30
0.0
 11
-654.9650429725791
 21
509.0327557417526
 31
0.0
  0
LINE
  5
1B0
330
1F
100
AcDbEntity
  8
寸法
  6
JWW_CENTER1
 62
     4
370
     9
100
AcDbLine
 10
-638.9650273013904
 20
510.3768404575117
 30
0.0
 11
-638.9650273013904
 21
546.4397463680491
 31
0.0
  0
TEXT
  5
1B1
330
1F
100
AcDbEntity
  8
寸法
  6
Continuous
 62
     2
370
     9
100
AcDbText
 10
-619.1300458190949
 20
542.8336417585563
 30
0.0
 40
9.144
  1
Ｂ
  7
ＭＳ ゴシック
100
AcDbText
  0
LINE
  5
1B2
330
1F
100
AcDbEntity
  8
寸法
  6
Continuous
 62
     4
370
     9
100
AcDbLine
 10
-638.9650273013904
 20
546.4397463680491
 30
0.0
 11
-621.7496738393565
 21
546.4397463680491
 31
0.0
  0
LINE
  5
1B3
330
1F
100
AcDbEntity
  8
寸法
  6
Continuous
 62
     4
370
     9
100
AcDbLine
 10
-638.9650273013904
 20
546.4397463680491
 30
0.0
 11
-633.3601228594807
 21
545.7018466995322
 31
0.0
  0
LINE
  5
1B4
330
1F
100
AcDbEntity
  8
寸法
  6
Continuous
 62
     4
370
     9
100
AcDbLine
 10
-638.9650273013904
 20
546.4397463680491
 30
0.0
 11
-633.3601228594807
 21
547.1776460365647
 31
0.0
  0
LINE
  5
1B5
330
1F
100
AcDbEntity
  8
寸法
  6
Continuous
 62
     4
370
     9
100
AcDbLine
 10
-637.9650273013913
 20
535.4104774842058
 30
0.0
 11
-639.9650273013895
 21
535.4104774842058
 31
0.0
  0
LINE
  5
1B6
330
1F
100
AcDbEntity
  8
寸法
  6
Continuous
 62
     4
370
     9
100
AcDbLine
 10
-637.9650273013913
 20
555.4104774842058
 30
0.0
 11
-637.9650273013913
 21
535.4104774842058
 31
0.0
  0
LINE
  5
1B7
330
1F
100
AcDbEntity
  8
寸法
  6
Continuous
 62
     4
370
     9
100
AcDbLine
 10
-639.9650273013895
 20
555.4104774842058
 30
0.0
 11
-637.9650273013913
 21
555.4104774842058
 31
0.0
  0
LINE
  5
1B8
330
1F
100
AcDbEntity
  8
寸法
  6
Continuous
 62
     4
370
     9
100
AcDbLine
 10
-639.9650273013895
 20
535.4104774842058
 30
0.0
 11
-639.9650273013895
 21
555.4104774842058
 31
0.0
  0
LINE
  5
1B9
330
1F
100
AcDbEntity
  8
寸法
  6
Continuous
 62
     4
370
     9
100
AcDbLine
 10
-317.6944582554297
 20
238.1700053972633
 30
0.0
 11
-337.6944582554306
 21
238.1700053972633
 31
0.0
  0
LINE
  5
1BA
330
1F
100
AcDbEntity
  8
寸法
  6
Continuous
 62
     4
370
     9
100
AcDbLine
 10
-337.6944582554306
 20
238.1700053972633
 30
0.0
 11
-337.6944582554306
 21
240.170005397263
 31
0.0
  0
LINE
  5
1BB
330
1F
100
AcDbEntity
  8
寸法
  6
Continuous
 62
     4
370
     9
100
AcDbLine
 10
-317.6944582554297
 20
240.170005397263
 30
0.0
 11
-317.6944582554297
 21
238.1700053972633
 31
0.0
  0
LINE
  5
1BC
330
1F
100
AcDbEntity
  8
寸法
  6
Continuous
 62
     4
370
     9
100
AcDbLine
 10
-327.6320955944248
 20
239.1700053972636
 30
0.0
 11
-328.3674536373201
 21
233.5844065186176
 31
0.0
  0
LINE
  5
1BD
330
1F
100
AcDbEntity
  8
寸法
  6
Continuous
 62
     4
370
     9
100
AcDbLine
 10
-327.6320955944248
 20
239.1700053972636
 30
0.0
 11
-326.8967375515308
 21
233.5844065186176
 31
0.0
  0
LINE
  5
1BE
330
1F
100
AcDbEntity
  8
寸法
  6
Continuous
 62
     4
370
     9
100
AcDbLine
 10
-327.6320955944248
 20
239.1700053972636
 30
0.0
 11
-327.6320955944248
 21
230.3226991275585
 31
0.0
  0
LINE
  5
1BF
330
1F
100
AcDbEntity
  8
寸法
  6
Continuous
 62
     4
370
     9
100
AcDbLine
 10
-327.6320955944248
 20
230.3226991275585
 30
0.0
 11
-327.6320955944248
 21
229.7668354435757
 31
0.0
  0
TEXT
  5
1C0
330
1F
100
AcDbEntity
  8
寸法
  6
Continuous
 62
     2
370
     9
100
AcDbText
 10
-333.5386767170812
 20
216.734595326518
 30
0.0
 40
9.144
  1
Ａ
  7
ＭＳ ゴシック
100
AcDbText
  0
LINE
  5
1C1
330
1F
100
AcDbEntity
  8
寸法
  6
JWW_CENTER1
 62
     4
370
     9
100
AcDbLine
 10
-392.9966055460181
 20
239.1700053972636
 30
0.0
 11
-337.6944582554306
 21
239.1700053972636
 31
0.0
  0
ARC
  5
1C2
330
1F
100
AcDbEntity
  8
躯体
  6
Continuous
 62
     2
370
     9
100
AcDbCircle
 10
-455.4648819010376
 20
-35.96737245564134
 30
0.0
 40
1.999999824868206
100
AcDbArc
 50
210.0005096035584
 51
270.0
  0
ARC
  5
1C3
330
1F
100
AcDbEntity
  8
躯体
  6
Continuous
 62
     2
370
     9
100
AcDbCircle
 10
-470.4649021675368
 20
-35.96737245564134
 30
0.0
 40
1.999999824868206
100
AcDbArc
 50
270.0
 51
329.9994903964416
  0
LINE
  5
1C4
330
1F
100
AcDbEntity
  8
躯体
  6
JWW_CENTER2
 62
     2
370
     9
100
AcDbLine
 10
-462.9648920342872
 20
-56.96732155373491
 30
0.0
 11
-468.7409680675958
 21
-56.96732155373491
 31
0.0
  0
LINE
  5
1C5
330
1F
100
AcDbEntity
  8
躯体
  6
JWW_CENTER2
 62
     2
370
     9
100
AcDbLine
 10
-462.9648920342872
 20
-56.96732155373491
 30
0.0
 11
-457.188816000978
 21
-56.96732155373491
 31
0.0
  0
LINE
  5
1C6
330
1F
100
AcDbEntity
  8
躯体
  6
Continuous
 62
     2
370
     9
100
AcDbLine
 10
-471.7148708251598
 20
-37.96738176409173
 30
0.0
 11
-471.7148708251598
 21
-66.96736809598701
 31
0.0
  0
LINE
  5
1C7
330
1F
100
AcDbEntity
  8
躯体
  6
Continuous
 62
     2
370
     9
100
AcDbLine
 10
-462.9648920342872
 20
-66.96736809598701
 30
0.0
 11
-471.7148708251598
 21
-66.96736809598701
 31
0.0
  0
LINE
  5
1C8
330
1F
100
AcDbEntity
  8
躯体
  6
Continuous
 62
     2
370
     9
100
AcDbLine
 10
-462.9648920342872
 20
-66.96736809598701
 30
0.0
 11
-454.2149132434147
 21
-66.96736809598701
 31
0.0
  0
LINE
  5
1C9
330
1F
100
AcDbEntity
  8
躯体
  6
Continuous
 62
     2
370
     9
100
AcDbLine
 10
-454.2149132434147
 20
-37.96738176409173
 30
0.0
 11
-454.2149132434147
 21
-66.96736809598701
 31
0.0
  0
LINE
  5
1CA
330
1F
100
AcDbEntity
  8
躯体
  6
Continuous
 62
     2
370
     9
100
AcDbLine
 10
-471.7148708251598
 20
-37.96738176409173
 30
0.0
 11
-470.4649021675368
 21
-37.96738176409173
 31
0.0
  0
LINE
  5
1CB
330
1F
100
AcDbEntity
  8
躯体
  6
JWW_DASHED1
 62
     2
370
     9
100
AcDbLine
 10
-469.7148615167089
 20
-37.82146620611252
 30
0.0
 11
-469.7148615167089
 21
-66.96736809598701
 31
0.0
  0
LINE
  5
1CC
330
1F
100
AcDbEntity
  8
躯体
  6
Continuous
 62
     2
370
     9
100
AcDbLine
 10
-454.2149132434147
 20
-37.96738176409173
 30
0.0
 11
-455.4648819010376
 21
-37.96738176409173
 31
0.0
  0
LINE
  5
1CD
330
1F
100
AcDbEntity
  8
躯体
  6
JWW_DASHED1
 62
     2
370
     9
100
AcDbLine
 10
-456.2149225518656
 20
-37.82146620611252
 30
0.0
 11
-456.2149225518656
 21
-66.96736809598701
 31
0.0
  0
CIRCLE
  5
1CE
330
1F
100
AcDbEntity
  8
躯体
  6
Continuous
 62
     2
370
     9
100
AcDbCircle
 10
-462.9648920342872
 20
-56.96732155373491
 30
0.0
 40
4.249999652037749
  0
LINE
  5
1CF
330
1F
100
AcDbEntity
  8
躯体
  6
JWW_CENTER2
 62
     2
370
     9
100
AcDbLine
 10
-462.9648920342872
 20
-72.91493312649868
 30
0.0
 11
-462.9648920342872
 21
-34.80240357567124
 31
0.0
  0
LINE
  5
1D0
330
1F
100
AcDbEntity
  8
躯体
  6
Continuous
 62
     2
370
     9
100
AcDbLine
 10
-366.9649712150303
 20
-32.967473552483
 30
0.0
 11
-362.9650075062041
 21
-36.96738777334474
 31
0.0
  0
LWPOLYLINE
  5
1D1
330
1F
100
AcDbEntity
  8
その他
  6
Continuous
 62
     7
370
     9
100
AcDbPolyline
 90
        4
 70
     1
 43
0.6000000000000001
 10
-462.6648920342873
 20
-116.2440042999277
 42
0.4142135623731
 10
-462.9648920342872
 20
-115.9440042999277
 42
0.4142135623731
 10
-463.2648920342872
 20
-116.2440042999277
 42
0.4142135623731
 10
-462.9648920342872
 20
-116.5440042999277
 42
0.4142135623731
  0
LINE
  5
1D2
330
1F
100
AcDbEntity
  8
その他
  6
Continuous
 62
     7
370
     9
100
AcDbLine
 10
-462.9648920342872
 20
-117.1440042999278
 30
0.0
 11
-462.9648920342872
 21
-78.91493312649868
 31
0.0
  0
LINE
  5
1D3
330
1F
100
AcDbEntity
  8
その他
  6
Continuous
 62
     7
370
     9
100
AcDbLine
 10
-462.9648920342872
 20
-116.2440042999277
 30
0.0
 11
-362.9650075062041
 21
-116.2440042999277
 31
0.0
  0
LWPOLYLINE
  5
1D4
330
1F
100
AcDbEntity
  8
その他
  6
Continuous
 62
     7
370
     9
100
AcDbPolyline
 90
        4
 70
     1
 43
0.6000000000000001
 10
-362.6650075062041
 20
-116.2440042999277
 42
0.4142135623731
 10
-362.9650075062041
 20
-115.9440042999277
 42
0.4142135623731
 10
-363.265007506204
 20
-116.2440042999277
 42
0.4142135623731
 10
-362.9650075062041
 20
-116.5440042999277
 42
0.4142135623731
  0
LINE
  5
1D5
330
1F
100
AcDbEntity
  8
その他
  6
Continuous
 62
     7
370
     9
100
AcDbLine
 10
-362.9650075062041
 20
-117.1440042999278
 30
0.0
 11
-362.9650075062041
 21
-42.96738777334474
 31
0.0
  0
TEXT
  5
1D6
330
1F
100
AcDbEntity
  8
その他
  6
Continuous
 62
     2
370
   211
100
AcDbText
 10
-422.714949770246
 20
-112.752004299928
 30
0.0
 40
9.144
  1
100
 41
1.083333333333333
  7
ＭＳ ゴシック
100
AcDbText
  0
LWPOLYLINE
  5
1D7
330
1F
100
AcDbEntity
  8
その他
  6
Continuous
 62
     7
370
     9
100
AcDbPolyline
 90
        4
 70
     1
 43
0.6000000000000001
 10
-271.7978064714093
 20
-20.96735973016473
 42
0.4142135623731
 10
-272.0978064714093
 20
-20.66735973016473
 42
0.4142135623731
 10
-272.3978064714092
 20
-20.96735973016473
 42
0.4142135623731
 10
-272.0978064714093
 20
-21.26735973016473
 42
0.4142135623731
  0
LINE
  5
1D8
330
1F
100
AcDbEntity
  8
その他
  6
Continuous
 62
     7
370
     9
100
AcDbLine
 10
-271.1978064714094
 20
-20.96735973016473
 30
0.0
 11
-356.9650075062041
 21
-20.96735973016473
 31
0.0
  0
LINE
  5
1D9
330
1F
100
AcDbEntity
  8
仕上
  6
Continuous
 62
     3
370
     9
100
AcDbLine
 10
-414.9650924605435
 20
-23.967320139793
 30
0.0
 11
-414.9650924605435
 21
-30.96734323417661
 31
0.0
  0
LINE
  5
1DA
330
1F
100
AcDbEntity
  8
仕上
  6
Continuous
 62
     3
370
     9
100
AcDbLine
 10
-382.9651353501129
 20
-23.967320139793
 30
0.0
 11
-382.9651353501129
 21
-30.96734323417661
 31
0.0
  0
LWPOLYLINE
  5
1DB
330
1F
100
AcDbEntity
  8
その他
  6
Continuous
 62
     7
370
     9
100
AcDbPolyline
 90
        4
 70
     1
 43
0.6000000000000001
 10
-190.1893718859866
 20
-30.96736797815879
 42
0.4142135623731
 10
-190.4893718859866
 20
-30.66736797815879
 42
0.4142135623731
 10
-190.7893718859866
 20
-30.96736797815879
 42
0.4142135623731
 10
-190.4893718859866
 20
-31.26736797815879
 42
0.4142135623731
  0
LWPOLYLINE
  5
1DC
330
1F
100
AcDbEntity
  8
その他
  6
Continuous
 62
     7
370
     9
100
AcDbPolyline
 90
        4
 70
     1
 43
0.6000000000000001
 10
-149.2535918825048
 20
-36.96738777334474
 42
0.4142135623731
 10
-149.5535918825049
 20
-36.66738777334474
 42
0.4142135623731
 10
-149.8535918825049
 20
-36.96738777334474
 42
0.4142135623731
 10
-149.5535918825049
 20
-37.26738777334474
 42
0.4142135623731
  0
LINE
  5
1DD
330
1F
100
AcDbEntity
  8
その他
  6
Continuous
 62
     7
370
     9
100
AcDbLine
 10
-148.653591882505
 20
-36.96738777334474
 30
0.0
 11
-356.9650075062041
 21
-36.96738777334474
 31
0.0
  0
LINE
  5
1DE
330
1F
100
AcDbEntity
  8
その他
  6
Continuous
 62
     7
370
     9
100
AcDbLine
 10
-189.5893718859866
 20
-30.96736797815879
 30
0.0
 11
-356.9650075062041
 21
-30.96736797815879
 31
0.0
  0
LWPOLYLINE
  5
1DF
330
1F
100
AcDbEntity
  8
その他
  6
Continuous
 62
     7
370
     9
100
AcDbPolyline
 90
        4
 70
     1
 43
0.6000000000000001
 10
-230.9935891786979
 20
-23.967320139793
 42
0.4142135623731
 10
-231.2935891786979
 20
-23.66732013979301
 42
0.4142135623731
 10
-231.5935891786978
 20
-23.967320139793
 42
0.4142135623731
 10
-231.2935891786979
 20
-24.267320139793
 42
0.4142135623731
  0
LINE
  5
1E0
330
1F
100
AcDbEntity
  8
その他
  6
Continuous
 62
     7
370
     9
100
AcDbLine
 10
-230.393589178698
 20
-23.967320139793
 30
0.0
 11
-356.9650075062041
 21
-23.967320139793
 31
0.0
  0
LINE
  5
1E1
330
1F
100
AcDbEntity
  8
仕上
  6
JWW_DASHED3
 62
     3
370
     9
100
AcDbLine
 10
-414.9650924605435
 20
-23.967320139793
 30
0.0
 11
-414.9650924605435
 21
502.0327821353334
 31
0.0
  0
LINE
  5
1E2
330
1F
100
AcDbEntity
  8
仕上
  6
JWW_DASHED3
 62
     3
370
     9
100
AcDbLine
 10
-382.9651353501129
 20
-23.967320139793
 30
0.0
 11
-382.9651353501129
 21
502.0327821353334
 31
0.0
  0
LINE
  5
1E3
330
1F
100
AcDbEntity
  8
仕上
  6
Continuous
 62
     3
370
     9
100
AcDbLine
 10
-371.9650990589384
 20
-20.96735973016473
 30
0.0
 11
-371.9650990589384
 21
499.0327227497759
 31
0.0
  0
LINE
  5
1E4
330
1F
100
AcDbEntity
  8
仕上
  6
Continuous
 62
     3
370
     9
100
AcDbLine
 10
-368.9650396733816
 20
-23.967320139793
 30
0.0
 11
-368.9650396733816
 21
502.0327821353334
 31
0.0
  0
LINE
  5
1E5
330
1F
100
AcDbEntity
  8
躯体
  6
Continuous
 62
     2
370
     9
100
AcDbLine
 10
-362.9650075062041
 20
-36.96738777334474
 30
0.0
 11
-362.9650075062041
 21
515.0328497688852
 31
0.0
  0
LINE
  5
1E6
330
1F
100
AcDbEntity
  8
躯体
  6
Continuous
 62
     2
370
     9
100
AcDbLine
 10
-366.9649712150303
 20
-32.967473552483
 30
0.0
 11
-366.9649712150303
 21
511.0328365720947
 31
0.0
  0
LINE
  5
1E7
330
1F
100
AcDbEntity
  8
躯体
  6
JWW_DASHED3
 62
     2
370
     9
100
AcDbLine
 10
-413.9650273013904
 20
14.03263202184121
 30
0.0
 11
-413.9650273013904
 21
464.0328299736993
 31
0.0
  0
LINE
  5
1E8
330
1F
100
AcDbEntity
  8
その他
  6
Continuous
 62
     7
370
     9
100
AcDbLine
 10
-230.393589178698
 20
502.0327821353334
 30
0.0
 11
-356.9650075062041
 21
502.0327821353334
 31
0.0
  0
LWPOLYLINE
  5
1E9
330
1F
100
AcDbEntity
  8
その他
  6
Continuous
 62
     7
370
     9
100
AcDbPolyline
 90
        4
 70
     1
 43
0.6000000000000001
 10
-230.9935891786979
 20
502.0327821353334
 42
0.4142135623731
 10
-231.2935891786979
 20
502.3327821353333
 42
0.4142135623731
 10
-231.5935891786978
 20
502.0327821353334
 42
0.4142135623731
 10
-231.2935891786979
 20
501.7327821353334
 42
0.4142135623731
  0
LINE
  5
1EA
330
1F
100
AcDbEntity
  8
その他
  6
Continuous
 62
     7
370
     9
100
AcDbLine
 10
-189.5893718859866
 20
509.0327309977701
 30
0.0
 11
-356.9650075062041
 21
509.0327309977701
 31
0.0
  0
LINE
  5
1EB
330
1F
100
AcDbEntity
  8
その他
  6
Continuous
 62
     7
370
     9
100
AcDbLine
 10
-148.653591882505
 20
515.0328497688852
 30
0.0
 11
-356.9650075062041
 21
515.0328497688852
 31
0.0
  0
LWPOLYLINE
  5
1EC
330
1F
100
AcDbEntity
  8
その他
  6
Continuous
 62
     7
370
     9
100
AcDbPolyline
 90
        4
 70
     1
 43
0.6000000000000001
 10
-149.2535918825048
 20
515.0328497688852
 42
0.4142135623731
 10
-149.5535918825049
 20
515.3328497688851
 42
0.4142135623731
 10
-149.8535918825049
 20
515.0328497688852
 42
0.4142135623731
 10
-149.5535918825049
 20
514.7328497688851
 42
0.4142135623731
  0
LWPOLYLINE
  5
1ED
330
1F
100
AcDbEntity
  8
その他
  6
Continuous
 62
     7
370
     9
100
AcDbPolyline
 90
        4
 70
     1
 43
0.6000000000000001
 10
-190.1893718859866
 20
509.0327309977701
 42
0.4142135623731
 10
-190.4893718859866
 20
509.3327309977701
 42
0.4142135623731
 10
-190.7893718859866
 20
509.0327309977701
 42
0.4142135623731
 10
-190.4893718859866
 20
508.7327309977701
 42
0.4142135623731
  0
LINE
  5
1EE
330
1F
100
AcDbEntity
  8
仕上
  6
Continuous
 62
     3
370
     9
100
AcDbLine
 10
-382.9651353501129
 20
502.0327821353334
 30
0.0
 11
-382.9651353501129
 21
509.0327557417526
 31
0.0
  0
LINE
  5
1EF
330
1F
100
AcDbEntity
  8
仕上
  6
Continuous
 62
     3
370
     9
100
AcDbLine
 10
-414.9650924605435
 20
502.0327821353334
 30
0.0
 11
-414.9650924605435
 21
509.0327557417526
 31
0.0
  0
LINE
  5
1F0
330
1F
100
AcDbEntity
  8
その他
  6
Continuous
 62
     7
370
     9
100
AcDbLine
 10
-371.9650990589384
 20
594.0084910499262
 30
0.0
 11
-371.9650990589384
 21
521.0328497688852
 31
0.0
  0
LWPOLYLINE
  5
1F1
330
1F
100
AcDbEntity
  8
その他
  6
Continuous
 62
     7
370
     9
100
AcDbPolyline
 90
        4
 70
     1
 43
0.6000000000000001
 10
-371.6650990589385
 20
593.1084910499262
 42
0.4142135623731
 10
-371.9650990589384
 20
593.4084910499262
 42
0.4142135623731
 10
-372.2650990589384
 20
593.1084910499262
 42
0.4142135623731
 10
-371.9650990589384
 20
592.8084910499261
 42
0.4142135623731
  0
LINE
  5
1F2
330
1F
100
AcDbEntity
  8
その他
  6
Continuous
 62
     7
370
     9
100
AcDbLine
 10
-271.1978064714094
 20
499.0327227497759
 30
0.0
 11
-356.9650075062041
 21
499.0327227497759
 31
0.0
  0
LWPOLYLINE
  5
1F3
330
1F
100
AcDbEntity
  8
その他
  6
Continuous
 62
     7
370
     9
100
AcDbPolyline
 90
        4
 70
     1
 43
0.6000000000000001
 10
-271.7978064714093
 20
499.0327227497759
 42
0.4142135623731
 10
-272.0978064714093
 20
499.3327227497758
 42
0.4142135623731
 10
-272.3978064714092
 20
499.0327227497759
 42
0.4142135623731
 10
-272.0978064714093
 20
498.7327227497759
 42
0.4142135623731
  0
LINE
  5
1F4
330
1F
100
AcDbEntity
  8
その他
  6
Continuous
 62
     7
370
     9
100
AcDbLine
 10
-368.9649778134253
 20
625.8720439287998
 30
0.0
 11
-368.9649778134253
 21
521.0328497688852
 31
0.0
  0
LINE
  5
1F5
330
1F
100
AcDbEntity
  8
その他
  6
Continuous
 62
     7
370
     9
100
AcDbLine
 10
-362.9650075062041
 20
661.033103495396
 30
0.0
 11
-362.9650075062041
 21
521.0328497688852
 31
0.0
  0
LWPOLYLINE
  5
1F6
330
1F
100
AcDbEntity
  8
その他
  6
Continuous
 62
     7
370
     9
100
AcDbPolyline
 90
        4
 70
     1
 43
0.6000000000000001
 10
-362.6650075062041
 20
660.133103495396
 42
0.4142135623731
 10
-362.9650075062041
 20
660.4331034953959
 42
0.4142135623731
 10
-363.265007506204
 20
660.133103495396
 42
0.4142135623731
 10
-362.9650075062041
 20
659.8331034953959
 42
0.4142135623731
  0
LWPOLYLINE
  5
1F7
330
1F
100
AcDbEntity
  8
その他
  6
Continuous
 62
     7
370
     9
100
AcDbPolyline
 90
        4
 70
     1
 43
0.6000000000000001
 10
-368.6649778134254
 20
624.9720439287998
 42
0.4142135623731
 10
-368.9649778134253
 20
625.2720439287998
 42
0.4142135623731
 10
-369.2649778134253
 20
624.9720439287998
 42
0.4142135623731
 10
-368.9649778134253
 20
624.6720439287998
 42
0.4142135623731
  0
LINE
  5
1F8
330
1F
100
AcDbEntity
  8
躯体
  6
Continuous
 62
     2
370
     9
100
AcDbLine
 10
-366.9649712150303
 20
511.0328365720947
 30
0.0
 11
-362.9650075062041
 21
515.0328497688852
 31
0.0
  0
LINE
  5
1F9
330
1F
100
AcDbEntity
  8
躯体
  6
JWW_CENTER2
 62
     2
370
     9
100
AcDbLine
 10
-462.9648920342872
 20
550.9803951220392
 30
0.0
 11
-462.9648920342872
 21
512.8678655712115
 31
0.0
  0
CIRCLE
  5
1FA
330
1F
100
AcDbEntity
  8
躯体
  6
Continuous
 62
     2
370
     9
100
AcDbCircle
 10
-462.9648920342872
 20
535.0327835492753
 30
0.0
 40
4.249999652037749
  0
LINE
  5
1FB
330
1F
100
AcDbEntity
  8
躯体
  6
JWW_DASHED1
 62
     2
370
     9
100
AcDbLine
 10
-456.2149225518656
 20
515.8869282016531
 30
0.0
 11
-456.2149225518656
 21
545.0328300915276
 31
0.0
  0
LINE
  5
1FC
330
1F
100
AcDbEntity
  8
躯体
  6
Continuous
 62
     2
370
     9
100
AcDbLine
 10
-454.2149132434147
 20
516.0328437596321
 30
0.0
 11
-455.4648819010376
 21
516.0328437596321
 31
0.0
  0
LINE
  5
1FD
330
1F
100
AcDbEntity
  8
躯体
  6
JWW_DASHED1
 62
     2
370
     9
100
AcDbLine
 10
-469.7148615167089
 20
515.8869282016531
 30
0.0
 11
-469.7148615167089
 21
545.0328300915276
 31
0.0
  0
LINE
  5
1FE
330
1F
100
AcDbEntity
  8
躯体
  6
Continuous
 62
     2
370
     9
100
AcDbLine
 10
-471.7148708251598
 20
516.0328437596321
 30
0.0
 11
-470.4649021675368
 21
516.0328437596321
 31
0.0
  0
LINE
  5
1FF
330
1F
100
AcDbEntity
  8
躯体
  6
Continuous
 62
     2
370
     9
100
AcDbLine
 10
-454.2149132434147
 20
516.0328437596321
 30
0.0
 11
-454.2149132434147
 21
545.0328300915276
 31
0.0
  0
LINE
  5
200
330
1F
100
AcDbEntity
  8
躯体
  6
Continuous
 62
     2
370
     9
100
AcDbLine
 10
-462.9648920342872
 20
545.0328300915276
 30
0.0
 11
-454.2149132434147
 21
545.0328300915276
 31
0.0
  0
LINE
  5
201
330
1F
100
AcDbEntity
  8
躯体
  6
Continuous
 62
     2
370
     9
100
AcDbLine
 10
-462.9648920342872
 20
545.0328300915276
 30
0.0
 11
-471.7148708251598
 21
545.0328300915276
 31
0.0
  0
LINE
  5
202
330
1F
100
AcDbEntity
  8
躯体
  6
Continuous
 62
     2
370
     9
100
AcDbLine
 10
-471.7148708251598
 20
516.0328437596321
 30
0.0
 11
-471.7148708251598
 21
545.0328300915276
 31
0.0
  0
LINE
  5
203
330
1F
100
AcDbEntity
  8
躯体
  6
JWW_CENTER2
 62
     2
370
     9
100
AcDbLine
 10
-462.9648920342872
 20
535.0327835492753
 30
0.0
 11
-457.188816000978
 21
535.0327835492753
 31
0.0
  0
LINE
  5
204
330
1F
100
AcDbEntity
  8
躯体
  6
JWW_CENTER2
 62
     2
370
     9
100
AcDbLine
 10
-462.9648920342872
 20
535.0327835492753
 30
0.0
 11
-468.7409680675958
 21
535.0327835492753
 31
0.0
  0
ARC
  5
205
330
1F
100
AcDbEntity
  8
躯体
  6
Continuous
 62
     2
370
     9
100
AcDbCircle
 10
-470.4649021675368
 20
514.0328344511818
 30
0.0
 40
1.999999824868206
100
AcDbArc
 50
30.00050960355836
 51
89.99999999999999
  0
ARC
  5
206
330
1F
100
AcDbEntity
  8
躯体
  6
Continuous
 62
     2
370
     9
100
AcDbCircle
 10
-455.4648819010376
 20
514.0328344511818
 30
0.0
 40
1.999999824868206
100
AcDbArc
 50
90.0
 51
149.9994903964416
  0
LINE
  5
207
330
1F
100
AcDbEntity
  8
寸法
  6
Continuous
 62
     4
370
     9
100
AcDbLine
 10
-944.6441062013405
 20
240.170005397263
 30
0.0
 11
-944.6441062013405
 21
238.1700053972633
 31
0.0
  0
LINE
  5
208
330
1F
100
AcDbEntity
  8
寸法
  6
Continuous
 62
     4
370
     9
100
AcDbLine
 10
-924.644106201341
 20
240.170005397263
 30
0.0
 11
-944.6441062013405
 21
240.170005397263
 31
0.0
  0
LINE
  5
209
330
1F
100
AcDbEntity
  8
寸法
  6
Continuous
 62
     4
370
     9
100
AcDbLine
 10
-944.6441062013405
 20
238.1700053972633
 30
0.0
 11
-924.644106201341
 21
238.1700053972633
 31
0.0
  0
LINE
  5
20A
330
1F
100
AcDbEntity
  8
寸法
  6
Continuous
 62
     4
370
     9
100
AcDbLine
 10
-934.8780340850494
 20
239.1700053972636
 30
0.0
 11
-934.1426760421555
 21
233.5844065186183
 31
0.0
  0
LINE
  5
20B
330
1F
100
AcDbEntity
  8
寸法
  6
Continuous
 62
     4
370
     9
100
AcDbLine
 10
-934.8780340850494
 20
239.1700053972636
 30
0.0
 11
-935.6133921279461
 21
233.5844065186183
 31
0.0
  0
LINE
  5
20C
330
1F
100
AcDbEntity
  8
寸法
  6
Continuous
 62
     4
370
     9
100
AcDbLine
 10
-924.644106201341
 20
238.1700053972633
 30
0.0
 11
-924.644106201341
 21
240.170005397263
 31
0.0
  0
LINE
  5
20D
330
1F
100
AcDbEntity
  8
寸法
  6
Continuous
 62
     4
370
     9
100
AcDbLine
 10
-934.8780340850494
 20
239.1700053972636
 30
0.0
 11
-934.8780340850494
 21
229.7668354435759
 31
0.0
  0
TEXT
  5
20E
330
1F
100
AcDbEntity
  8
寸法
  6
Continuous
 62
     2
370
     9
100
AcDbText
 10
-940.799887739689
 20
216.7345953265187
 30
0.0
 40
9.144
  1
Ａ
  7
ＭＳ ゴシック
100
AcDbText
  0
LINE
  5
20F
330
1F
100
AcDbEntity
  8
寸法
  6
JWW_CENTER1
 62
     4
370
     9
100
AcDbLine
 10
-924.644106201341
 20
239.1700053972636
 30
0.0
 11
-878.3244240458334
 21
239.1700053972636
 31
0.0
  0
ARC
  5
210
330
1F
100
AcDbEntity
  8
躯体
  6
Continuous
 62
     2
370
     9
100
AcDbCircle
 10
-807.4650534593152
 20
-35.96737245564134
 30
0.0
 40
1.999999824868206
100
AcDbArc
 50
210.0005096035584
 51
270.0
  0
ARC
  5
211
330
1F
100
AcDbEntity
  8
躯体
  6
Continuous
 62
     2
370
     9
100
AcDbCircle
 10
-822.4650737258144
 20
-35.96737245564134
 30
0.0
 40
1.999999824868206
100
AcDbArc
 50
270.0
 51
329.9994903964416
  0
LINE
  5
212
330
1F
100
AcDbEntity
  8
躯体
  6
JWW_CENTER2
 62
     2
370
     9
100
AcDbLine
 10
-814.9650635925641
 20
-56.96732155373491
 30
0.0
 11
-820.7411396258726
 21
-56.96732155373491
 31
0.0
  0
LINE
  5
213
330
1F
100
AcDbEntity
  8
躯体
  6
JWW_CENTER2
 62
     2
370
     9
100
AcDbLine
 10
-814.9650635925641
 20
-56.96732155373491
 30
0.0
 11
-809.1889875592556
 21
-56.96732155373491
 31
0.0
  0
LINE
  5
214
330
1F
100
AcDbEntity
  8
躯体
  6
Continuous
 62
     2
370
     9
100
AcDbLine
 10
-823.7150423834373
 20
-37.96738176409173
 30
0.0
 11
-823.7150423834373
 21
-66.96736809598701
 31
0.0
  0
LINE
  5
215
330
1F
100
AcDbEntity
  8
躯体
  6
Continuous
 62
     2
370
     9
100
AcDbLine
 10
-814.9650635925641
 20
-66.96736809598701
 30
0.0
 11
-823.7150423834373
 21
-66.96736809598701
 31
0.0
  0
LINE
  5
216
330
1F
100
AcDbEntity
  8
躯体
  6
Continuous
 62
     2
370
     9
100
AcDbLine
 10
-814.9650635925641
 20
-66.96736809598701
 30
0.0
 11
-806.2150848016922
 21
-66.96736809598701
 31
0.0
  0
LINE
  5
217
330
1F
100
AcDbEntity
  8
躯体
  6
Continuous
 62
     2
370
     9
100
AcDbLine
 10
-806.2150848016922
 20
-37.96738176409173
 30
0.0
 11
-806.2150848016922
 21
-66.96736809598701
 31
0.0
  0
LINE
  5
218
330
1F
100
AcDbEntity
  8
躯体
  6
Continuous
 62
     2
370
     9
100
AcDbLine
 10
-823.7150423834373
 20
-37.96738176409173
 30
0.0
 11
-822.4650737258144
 21
-37.96738176409173
 31
0.0
  0
LINE
  5
219
330
1F
100
AcDbEntity
  8
躯体
  6
JWW_DASHED1
 62
     2
370
     9
100
AcDbLine
 10
-821.7150330749864
 20
-37.82146620611252
 30
0.0
 11
-821.7150330749864
 21
-66.96736809598701
 31
0.0
  0
LINE
  5
21A
330
1F
100
AcDbEntity
  8
躯体
  6
Continuous
 62
     2
370
     9
100
AcDbLine
 10
-806.2150848016922
 20
-37.96738176409173
 30
0.0
 11
-807.4650534593152
 21
-37.96738176409173
 31
0.0
  0
LINE
  5
21B
330
1F
100
AcDbEntity
  8
躯体
  6
JWW_DASHED1
 62
     2
370
     9
100
AcDbLine
 10
-808.2150941101431
 20
-37.82146620611252
 30
0.0
 11
-808.2150941101431
 21
-66.96736809598701
 31
0.0
  0
CIRCLE
  5
21C
330
1F
100
AcDbEntity
  8
躯体
  6
Continuous
 62
     2
370
     9
100
AcDbCircle
 10
-814.9650635925641
 20
-56.96732155373491
 30
0.0
 40
4.249999652037749
  0
LINE
  5
21D
330
1F
100
AcDbEntity
  8
躯体
  6
JWW_CENTER2
 62
     2
370
     9
100
AcDbLine
 10
-814.9650635925641
 20
-72.91493312649868
 30
0.0
 11
-814.9650635925641
 21
-34.80240357567124
 31
0.0
  0
LINE
  5
21E
330
1F
100
AcDbEntity
  8
躯体
  6
Continuous
 62
     2
370
     9
100
AcDbLine
 10
-914.9650470965767
 20
-36.96738777334474
 30
0.0
 11
-910.9650338997853
 21
-32.967473552483
 31
0.0
  0
TEXT
  5
21F
330
1F
100
AcDbEntity
  8
その他
  6
Continuous
 62
     2
370
   211
100
AcDbText
 10
-874.7150553445704
 20
-112.752004299928
 30
0.0
 40
9.144
  1
100
 41
1.083333333333333
  7
ＭＳ ゴシック
100
AcDbText
  0
LINE
  5
220
330
1F
100
AcDbEntity
  8
その他
  6
Continuous
 62
     7
370
     9
100
AcDbLine
 10
-914.9650470965767
 20
-116.2440042999277
 30
0.0
 11
-814.9650635925641
 21
-116.2440042999277
 31
0.0
  0
LWPOLYLINE
  5
221
330
1F
100
AcDbEntity
  8
その他
  6
Continuous
 62
     7
370
     9
100
AcDbPolyline
 90
        4
 70
     1
 43
0.6000000000000001
 10
-914.6650470965766
 20
-116.2440042999277
 42
0.4142135623731
 10
-914.9650470965767
 20
-115.9440042999277
 42
0.4142135623731
 10
-915.2650470965767
 20
-116.2440042999277
 42
0.4142135623731
 10
-914.9650470965767
 20
-116.5440042999277
 42
0.4142135623731
  0
LWPOLYLINE
  5
222
330
1F
100
AcDbEntity
  8
その他
  6
Continuous
 62
     7
370
     9
100
AcDbPolyline
 90
        4
 70
     1
 43
0.6000000000000001
 10
-814.665063592564
 20
-116.2440042999277
 42
0.4142135623731
 10
-814.9650635925641
 20
-115.9440042999277
 42
0.4142135623731
 10
-815.2650635925642
 20
-116.2440042999277
 42
0.4142135623731
 10
-814.9650635925641
 20
-116.5440042999277
 42
0.4142135623731
  0
LINE
  5
223
330
1F
100
AcDbEntity
  8
その他
  6
Continuous
 62
     7
370
     9
100
AcDbLine
 10
-814.9650635925641
 20
-117.1440042999278
 30
0.0
 11
-814.9650635925641
 21
-78.91493312649868
 31
0.0
  0
LINE
  5
224
330
1F
100
AcDbEntity
  8
その他
  6
Continuous
 62
     7
370
     9
100
AcDbLine
 10
-914.9650470965767
 20
-117.1440042999278
 30
0.0
 11
-914.9650470965767
 21
-42.96738777334474
 31
0.0
  0
LINE
  5
225
330
1F
100
AcDbEntity
  8
仕上
  6
Continuous
 62
     3
370
     9
100
AcDbLine
 10
-894.9650924605435
 20
-23.967320139793
 30
0.0
 11
-894.9650924605435
 21
-30.96734323417661
 31
0.0
  0
LINE
  5
226
330
1F
100
AcDbEntity
  8
仕上
  6
Continuous
 62
     3
370
     9
100
AcDbLine
 10
-862.9650858621478
 20
-23.967320139793
 30
0.0
 11
-862.9650858621478
 21
-30.96734323417661
 31
0.0
  0
LINE
  5
227
330
1F
100
AcDbEntity
  8
仕上
  6
JWW_DASHED3
 62
     3
370
     9
100
AcDbLine
 10
-862.9650858621478
 20
502.0327821353334
 30
0.0
 11
-862.9650858621478
 21
-23.967320139793
 31
0.0
  0
LINE
  5
228
330
1F
100
AcDbEntity
  8
仕上
  6
JWW_DASHED3
 62
     3
370
     9
100
AcDbLine
 10
-894.9650924605435
 20
502.0327821353334
 30
0.0
 11
-894.9650924605435
 21
-23.967320139793
 31
0.0
  0
LINE
  5
229
330
1F
100
AcDbEntity
  8
仕上
  6
Continuous
 62
     3
370
     9
100
AcDbLine
 10
-905.9651287517172
 20
499.0327227497759
 30
0.0
 11
-905.9651287517172
 21
-20.96735973016473
 31
0.0
  0
LINE
  5
22A
330
1F
100
AcDbEntity
  8
仕上
  6
Continuous
 62
     3
370
     9
100
AcDbLine
 10
-908.9651139053278
 20
502.0327821353334
 30
0.0
 11
-908.9651139053278
 21
-23.967320139793
 31
0.0
  0
LINE
  5
22B
330
1F
100
AcDbEntity
  8
躯体
  6
Continuous
 62
     2
370
     9
100
AcDbLine
 10
-914.9650470965767
 20
-36.96738777334474
 30
0.0
 11
-914.9650470965767
 21
515.0328497688852
 31
0.0
  0
LINE
  5
22C
330
1F
100
AcDbEntity
  8
躯体
  6
Continuous
 62
     2
370
     9
100
AcDbLine
 10
-910.9650338997853
 20
-32.967473552483
 30
0.0
 11
-910.9650338997853
 21
511.0328365720947
 31
0.0
  0
LINE
  5
22D
330
1F
100
AcDbEntity
  8
躯体
  6
JWW_DASHED3
 62
     2
370
     9
100
AcDbLine
 10
-863.9651262773191
 20
14.03263202184121
 30
0.0
 11
-863.9651262773191
 21
464.0328299736993
 31
0.0
  0
LINE
  5
22E
330
1F
100
AcDbEntity
  8
仕上
  6
Continuous
 62
     3
370
     9
100
AcDbLine
 10
-862.9650858621478
 20
502.0327821353334
 30
0.0
 11
-862.9650858621478
 21
509.0327557417526
 31
0.0
  0
LINE
  5
22F
330
1F
100
AcDbEntity
  8
仕上
  6
Continuous
 62
     3
370
     9
100
AcDbLine
 10
-894.9650924605435
 20
502.0327821353334
 30
0.0
 11
-894.9650924605435
 21
509.0327557417526
 31
0.0
  0
LWPOLYLINE
  5
230
330
1F
100
AcDbEntity
  8
その他
  6
Continuous
 62
     7
370
     9
100
AcDbPolyline
 90
        4
 70
     1
 43
0.6000000000000001
 10
-905.6651287517171
 20
593.1084910499262
 42
0.4142135623731
 10
-905.9651287517172
 20
593.4084910499262
 42
0.4142135623731
 10
-906.2651287517173
 20
593.1084910499262
 42
0.4142135623731
 10
-905.9651287517172
 20
592.8084910499261
 42
0.4142135623731
  0
LINE
  5
231
330
1F
100
AcDbEntity
  8
その他
  6
Continuous
 62
     7
370
     9
100
AcDbLine
 10
-914.9650470965767
 20
661.033103495396
 30
0.0
 11
-914.9650470965767
 21
521.0328497688852
 31
0.0
  0
LWPOLYLINE
  5
232
330
1F
100
AcDbEntity
  8
その他
  6
Continuous
 62
     7
370
     9
100
AcDbPolyline
 90
        4
 70
     1
 43
0.6000000000000001
 10
-914.6650470965766
 20
660.133103495396
 42
0.4142135623731
 10
-914.9650470965767
 20
660.4331034953959
 42
0.4142135623731
 10
-915.2650470965767
 20
660.133103495396
 42
0.4142135623731
 10
-914.9650470965767
 20
659.8331034953959
 42
0.4142135623731
  0
LWPOLYLINE
  5
233
330
1F
100
AcDbEntity
  8
その他
  6
Continuous
 62
     7
370
     9
100
AcDbPolyline
 90
        4
 70
     1
 43
0.6000000000000001
 10
-908.6649283254616
 20
624.9720439287998
 42
0.4142135623731
 10
-908.9649283254616
 20
625.2720439287998
 42
0.4142135623731
 10
-909.2649283254617
 20
624.9720439287998
 42
0.4142135623731
 10
-908.9649283254616
 20
624.6720439287998
 42
0.4142135623731
  0
LINE
  5
234
330
1F
100
AcDbEntity
  8
躯体
  6
Continuous
 62
     2
370
     9
100
AcDbLine
 10
-914.9650470965767
 20
515.0328497688852
 30
0.0
 11
-910.9650338997853
 21
511.0328365720947
 31
0.0
  0
LINE
  5
235
330
1F
100
AcDbEntity
  8
躯体
  6
JWW_CENTER2
 62
     2
370
     9
100
AcDbLine
 10
-814.9650635925641
 20
550.9803951220392
 30
0.0
 11
-814.9650635925641
 21
512.8678655712115
 31
0.0
  0
CIRCLE
  5
236
330
1F
100
AcDbEntity
  8
躯体
  6
Continuous
 62
     2
370
     9
100
AcDbCircle
 10
-814.9650635925641
 20
535.0327835492753
 30
0.0
 40
4.249999652037749
  0
LINE
  5
237
330
1F
100
AcDbEntity
  8
躯体
  6
JWW_DASHED1
 62
     2
370
     9
100
AcDbLine
 10
-808.2150941101431
 20
515.8869282016531
 30
0.0
 11
-808.2150941101431
 21
545.0328300915276
 31
0.0
  0
LINE
  5
238
330
1F
100
AcDbEntity
  8
躯体
  6
Continuous
 62
     2
370
     9
100
AcDbLine
 10
-806.2150848016922
 20
516.0328437596321
 30
0.0
 11
-807.4650534593152
 21
516.0328437596321
 31
0.0
  0
LINE
  5
239
330
1F
100
AcDbEntity
  8
躯体
  6
JWW_DASHED1
 62
     2
370
     9
100
AcDbLine
 10
-821.7150330749864
 20
515.8869282016531
 30
0.0
 11
-821.7150330749864
 21
545.0328300915276
 31
0.0
  0
LINE
  5
23A
330
1F
100
AcDbEntity
  8
躯体
  6
Continuous
 62
     2
370
     9
100
AcDbLine
 10
-823.7150423834373
 20
516.0328437596321
 30
0.0
 11
-822.4650737258144
 21
516.0328437596321
 31
0.0
  0
LINE
  5
23B
330
1F
100
AcDbEntity
  8
躯体
  6
Continuous
 62
     2
370
     9
100
AcDbLine
 10
-806.2150848016922
 20
516.0328437596321
 30
0.0
 11
-806.2150848016922
 21
545.0328300915276
 31
0.0
  0
LINE
  5
23C
330
1F
100
AcDbEntity
  8
躯体
  6
Continuous
 62
     2
370
     9
100
AcDbLine
 10
-814.9650635925641
 20
545.0328300915276
 30
0.0
 11
-806.2150848016922
 21
545.0328300915276
 31
0.0
  0
LINE
  5
23D
330
1F
100
AcDbEntity
  8
躯体
  6
Continuous
 62
     2
370
     9
100
AcDbLine
 10
-814.9650635925641
 20
545.0328300915276
 30
0.0
 11
-823.7150423834373
 21
545.0328300915276
 31
0.0
  0
LINE
  5
23E
330
1F
100
AcDbEntity
  8
躯体
  6
Continuous
 62
     2
370
     9
100
AcDbLine
 10
-823.7150423834373
 20
516.0328437596321
 30
0.0
 11
-823.7150423834373
 21
545.0328300915276
 31
0.0
  0
LINE
  5
23F
330
1F
100
AcDbEntity
  8
躯体
  6
JWW_CENTER2
 62
     2
370
     9
100
AcDbLine
 10
-814.9650635925641
 20
535.0327835492753
 30
0.0
 11
-809.1889875592556
 21
535.0327835492753
 31
0.0
  0
LINE
  5
240
330
1F
100
AcDbEntity
  8
躯体
  6
JWW_CENTER2
 62
     2
370
     9
100
AcDbLine
 10
-814.9650635925641
 20
535.0327835492753
 30
0.0
 11
-820.7411396258726
 21
535.0327835492753
 31
0.0
  0
ARC
  5
241
330
1F
100
AcDbEntity
  8
躯体
  6
Continuous
 62
     2
370
     9
100
AcDbCircle
 10
-822.4650737258144
 20
514.0328344511818
 30
0.0
 40
1.999999824868206
100
AcDbArc
 50
30.00050960355836
 51
89.99999999999999
  0
ARC
  5
242
330
1F
100
AcDbEntity
  8
躯体
  6
Continuous
 62
     2
370
     9
100
AcDbCircle
 10
-807.4650534593152
 20
514.0328344511818
 30
0.0
 40
1.999999824868206
100
AcDbArc
 50
90.0
 51
149.9994903964416
  0
LINE
  5
243
330
1F
100
AcDbEntity
  8
その他
  6
Continuous
 62
     7
370
     9
100
AcDbLine
 10
-908.9649283254616
 20
625.8720439287998
 30
0.0
 11
-908.9649283254616
 21
521.0328497688852
 31
0.0
  0
LINE
  5
244
330
1F
100
AcDbEntity
  8
その他
  6
Continuous
 62
     7
370
     9
100
AcDbLine
 10
-905.9651287517172
 20
594.0084910499262
 30
0.0
 11
-905.9651287517172
 21
521.0328497688852
 31
0.0
  0
LINE
  5
245
330
1F
100
AcDbEntity
  8
躯体
  6
JWW_DASHED3
 62
     2
370
     9
100
AcDbLine
 10
-863.9651262773191
 20
14.03263202184121
 30
0.0
 11
-413.9650273013904
 21
14.03263202184121
 31
0.0
  0
LINE
  5
246
330
1F
100
AcDbEntity
  8
躯体
  6
Continuous
 62
     2
370
     9
100
AcDbLine
 10
-910.9650338997853
 20
-32.967473552483
 30
0.0
 11
-366.9649712150303
 21
-32.967473552483
 31
0.0
  0
LINE
  5
247
330
1F
100
AcDbEntity
  8
躯体
  6
Continuous
 62
     2
370
     9
100
AcDbLine
 10
-914.9650470965767
 20
-36.96738777334474
 30
0.0
 11
-362.9650075062041
 21
-36.96738777334474
 31
0.0
  0
LINE
  5
248
330
1F
100
AcDbEntity
  8
仕上
  6
Continuous
 62
     3
370
     9
100
AcDbLine
 10
-908.9651139053278
 20
-23.967320139793
 30
0.0
 11
-368.9650396733816
 21
-23.967320139793
 31
0.0
  0
LINE
  5
249
330
1F
100
AcDbEntity
  8
仕上
  6
Continuous
 62
     3
370
     9
100
AcDbLine
 10
-908.9651139053278
 20
-20.96735973016473
 30
0.0
 11
-368.9650396733816
 21
-20.96735973016473
 31
0.0
  0
LINE
  5
24A
330
1F
100
AcDbEntity
  8
仕上
  6
Continuous
 62
     3
370
     9
100
AcDbLine
 10
-908.9651139053278
 20
499.0327227497759
 30
0.0
 11
-368.9650396733816
 21
499.0327227497759
 31
0.0
  0
LINE
  5
24B
330
1F
100
AcDbEntity
  8
仕上
  6
Continuous
 62
     3
370
     9
100
AcDbLine
 10
-908.9651139053278
 20
502.0327821353334
 30
0.0
 11
-368.9650396733816
 21
502.0327821353334
 31
0.0
  0
LINE
  5
24C
330
1F
100
AcDbEntity
  8
躯体
  6
Continuous
 62
     2
370
     9
100
AcDbLine
 10
-914.9650470965767
 20
515.0328497688852
 30
0.0
 11
-362.9650075062041
 21
515.0328497688852
 31
0.0
  0
LINE
  5
24D
330
1F
100
AcDbEntity
  8
躯体
  6
Continuous
 62
     2
370
     9
100
AcDbLine
 10
-910.9650338997853
 20
511.0328365720947
 30
0.0
 11
-366.9649712150303
 21
511.0328365720947
 31
0.0
  0
LINE
  5
24E
330
1F
100
AcDbEntity
  8
躯体
  6
JWW_DASHED3
 62
     2
370
     9
100
AcDbLine
 10
-863.9651262773191
 20
464.0328299736993
 30
0.0
 11
-413.9650273013904
 21
464.0328299736993
 31
0.0
  0
LINE
  5
24F
330
1F
100
AcDbEntity
  8
その他
  6
Continuous
 62
     7
370
     9
100
AcDbLine
 10
-814.9650635925641
 20
-116.2440042999277
 30
0.0
 11
-462.9648920342872
 21
-116.2440042999277
 31
0.0
  0
TEXT
  5
250
330
1F
100
AcDbEntity
  8
その他
  6
Continuous
 62
     2
370
   211
100
AcDbText
 10
-648.7149778134257
 20
-112.752004299928
 30
0.0
 40
9.144
  1
352
 41
1.083333333333333
  7
ＭＳ ゴシック
100
AcDbText
  0
LINE
  5
251
330
1F
100
AcDbEntity
  8
その他
  6
Continuous
 62
     7
370
     9
100
AcDbLine
 10
-149.5535918825049
 20
515.0328497688852
 30
0.0
 11
-149.5535918825049
 21
-36.96738777334474
 31
0.0
  0
TEXT
  5
252
330
1F
100
AcDbEntity
  8
その他
  6
Continuous
 62
     2
370
   211
100
AcDbText
 10
-153.0455918825049
 20
229.2827309977702
 30
0.0
 40
9.144
  1
552
 50
90.0
 41
1.083333333333333
  7
ＭＳ ゴシック
100
AcDbText
  0
LINE
  5
253
330
1F
100
AcDbEntity
  8
その他
  6
Continuous
 62
     7
370
     9
100
AcDbLine
 10
-190.4893718859866
 20
509.0327309977701
 30
0.0
 11
-190.4893718859866
 21
-30.96736797815879
 31
0.0
  0
TEXT
  5
254
330
1F
100
AcDbEntity
  8
その他
  6
Continuous
 62
     2
370
   211
100
AcDbText
 10
-193.9813718859868
 20
229.2826815098057
 30
0.0
 40
9.144
  1
540
 50
90.0
 41
1.083333333333333
  7
ＭＳ ゴシック
100
AcDbText
  0
LINE
  5
255
330
1F
100
AcDbEntity
  8
その他
  6
Continuous
 62
     7
370
     9
100
AcDbLine
 10
-231.2935891786979
 20
-23.967320139793
 30
0.0
 11
-231.2935891786979
 21
502.0327821353334
 31
0.0
  0
TEXT
  5
256
330
1F
100
AcDbEntity
  8
その他
  6
Continuous
 62
     2
370
   211
100
AcDbText
 10
-234.7855891786979
 20
229.2827309977702
 30
0.0
 40
9.144
  1
526
 50
90.0
 41
1.083333333333333
  7
ＭＳ ゴシック
100
AcDbText
  0
LINE
  5
257
330
1F
100
AcDbEntity
  8
その他
  6
Continuous
 62
     7
370
     9
100
AcDbLine
 10
-272.0978064714093
 20
499.0327227497759
 30
0.0
 11
-272.0978064714093
 21
-20.96735973016473
 31
0.0
  0
TEXT
  5
258
330
1F
100
AcDbEntity
  8
その他
  6
Continuous
 62
     2
370
   211
100
AcDbText
 10
-275.5898064714097
 20
229.2826815098056
 30
0.0
 40
9.144
  1
520
 50
90.0
 41
1.083333333333333
  7
ＭＳ ゴシック
100
AcDbText
  0
LINE
  5
259
330
1F
100
AcDbEntity
  8
その他
  6
Continuous
 62
     7
370
     9
100
AcDbLine
 10
-905.9651287517172
 20
593.1084910499262
 30
0.0
 11
-371.9650990589384
 21
593.1084910499262
 31
0.0
  0
TEXT
  5
25A
330
1F
100
AcDbEntity
  8
その他
  6
Continuous
 62
     2
370
   211
100
AcDbText
 10
-648.7151139053278
 20
596.600491049926
 30
0.0
 40
9.144
  1
534
 41
1.083333333333333
  7
ＭＳ ゴシック
100
AcDbText
  0
LINE
  5
25B
330
1F
100
AcDbEntity
  8
その他
  6
Continuous
 62
     7
370
     9
100
AcDbLine
 10
-908.9649283254616
 20
624.9720439287998
 30
0.0
 11
-368.9649778134253
 21
624.9720439287998
 31
0.0
  0
TEXT
  5
25C
330
1F
100
AcDbEntity
  8
その他
  6
Continuous
 62
     2
370
   211
100
AcDbText
 10
-648.7149530694435
 20
628.4640439287996
 30
0.0
 40
9.144
  1
540
 41
1.083333333333333
  7
ＭＳ ゴシック
100
AcDbText
  0
LINE
  5
25D
330
1F
100
AcDbEntity
  8
その他
  6
Continuous
 62
     7
370
     9
100
AcDbLine
 10
-914.9650470965767
 20
660.133103495396
 30
0.0
 11
-362.9650075062041
 21
660.133103495396
 31
0.0
  0
TEXT
  5
25E
330
1F
100
AcDbEntity
  8
その他
  6
Continuous
 62
     2
370
   211
100
AcDbText
 10
-648.7150273013904
 20
663.6251034953957
 30
0.0
 40
9.144
  1
552
 41
1.083333333333333
  7
ＭＳ ゴシック
100
AcDbText
  0
LINE
  5
25F
330
1F
100
AcDbEntity
  8
仕上
  6
Continuous
 62
     3
370
     9
100
AcDbLine
 10
-748.9650688359324
 20
339.5781642428765
 30
0.0
 11
-748.9650688359324
 21
388.4872977526639
 31
0.0
  0
LINE
  5
260
330
1F
100
AcDbEntity
  8
仕上
  6
Continuous
 62
     3
370
     9
100
AcDbLine
 10
-778.9651094867595
 20
388.4872977526639
 30
0.0
 11
-778.9651094867595
 21
339.5781642428765
 31
0.0
  0
LINE
  5
261
330
1F
100
AcDbEntity
  8
仕上
  6
Continuous
 62
     3
370
     9
100
AcDbLine
 10
-778.9651094867595
 20
387.9872977526639
 30
0.0
 11
-748.9650688359324
 21
387.9872977526639
 31
0.0
  0
LINE
  5
262
330
1F
100
AcDbEntity
  8
仕上
  6
Continuous
 62
     3
370
     9
100
AcDbLine
 10
-778.9651094867595
 20
388.4872977526639
 30
0.0
 11
-748.9650688359324
 21
388.4872977526639
 31
0.0
  0
LINE
  5
263
330
1F
100
AcDbEntity
  8
仕上
  6
Continuous
 62
     3
370
     9
100
AcDbLine
 10
-778.9651094867595
 20
372.3987564015546
 30
0.0
 11
-748.9650688359324
 21
372.3987564015546
 31
0.0
  0
LINE
  5
264
330
1F
100
AcDbEntity
  8
仕上
  6
Continuous
 62
     3
370
     9
100
AcDbLine
 10
-778.9651094867595
 20
339.5781642428765
 30
0.0
 11
-748.9650688359324
 21
339.5781642428765
 31
0.0
  0
LINE
  5
265
330
1F
100
AcDbEntity
  8
仕上
  6
Continuous
 62
     3
370
     9
100
AcDbLine
 10
-778.9651094867595
 20
340.0781642428765
 30
0.0
 11
-748.9650688359324
 21
340.0781642428765
 31
0.0
  0
LINE
  5
266
330
1F
100
AcDbEntity
  8
仕上
  6
Continuous
 62
     3
370
     9
100
AcDbLine
 10
-778.9651094867595
 20
355.6667055939856
 30
0.0
 11
-748.9650688359324
 21
355.6667055939856
 31
0.0
  0
LINE
  5
267
330
1F
100
AcDbEntity
  8
仕上
  6
Continuous
 62
     3
370
     9
100
AcDbLine
 10
-528.96510948676
 20
355.6667055939856
 30
0.0
 11
-498.965068835932
 21
355.6667055939856
 31
0.0
  0
LINE
  5
268
330
1F
100
AcDbEntity
  8
仕上
  6
Continuous
 62
     3
370
     9
100
AcDbLine
 10
-528.96510948676
 20
340.0781642428765
 30
0.0
 11
-498.965068835932
 21
340.0781642428765
 31
0.0
  0
LINE
  5
269
330
1F
100
AcDbEntity
  8
仕上
  6
Continuous
 62
     3
370
     9
100
AcDbLine
 10
-528.96510948676
 20
339.5781642428765
 30
0.0
 11
-498.965068835932
 21
339.5781642428765
 31
0.0
  0
LINE
  5
26A
330
1F
100
AcDbEntity
  8
仕上
  6
Continuous
 62
     3
370
     9
100
AcDbLine
 10
-528.96510948676
 20
372.3987564015546
 30
0.0
 11
-498.965068835932
 21
372.3987564015546
 31
0.0
  0
LINE
  5
26B
330
1F
100
AcDbEntity
  8
仕上
  6
Continuous
 62
     3
370
     9
100
AcDbLine
 10
-528.96510948676
 20
388.4872977526639
 30
0.0
 11
-498.965068835932
 21
388.4872977526639
 31
0.0
  0
LINE
  5
26C
330
1F
100
AcDbEntity
  8
仕上
  6
Continuous
 62
     3
370
     9
100
AcDbLine
 10
-528.96510948676
 20
387.9872977526639
 30
0.0
 11
-498.965068835932
 21
387.9872977526639
 31
0.0
  0
LINE
  5
26D
330
1F
100
AcDbEntity
  8
仕上
  6
Continuous
 62
     3
370
     9
100
AcDbLine
 10
-528.96510948676
 20
388.4872977526639
 30
0.0
 11
-528.96510948676
 21
339.5781642428765
 31
0.0
  0
LINE
  5
26E
330
1F
100
AcDbEntity
  8
仕上
  6
Continuous
 62
     3
370
     9
100
AcDbLine
 10
-498.965068835932
 20
339.5781642428765
 30
0.0
 11
-498.965068835932
 21
388.4872977526639
 31
0.0
  0
LINE
  5
26F
330
1F
100
AcDbEntity
  8
仕上
  6
Continuous
 62
     3
370
     9
100
AcDbLine
 10
-748.9650688359324
 20
138.4872977526639
 30
0.0
 11
-748.9650688359324
 21
89.57816424287643
 31
0.0
  0
LINE
  5
270
330
1F
100
AcDbEntity
  8
仕上
  6
Continuous
 62
     3
370
     9
100
AcDbLine
 10
-778.9651094867595
 20
89.57816424287643
 30
0.0
 11
-778.9651094867595
 21
138.4872977526639
 31
0.0
  0
LINE
  5
271
330
1F
100
AcDbEntity
  8
仕上
  6
Continuous
 62
     3
370
     9
100
AcDbLine
 10
-778.9651094867595
 20
90.07816424287648
 30
0.0
 11
-748.9650688359324
 21
90.07816424287648
 31
0.0
  0
LINE
  5
272
330
1F
100
AcDbEntity
  8
仕上
  6
Continuous
 62
     3
370
     9
100
AcDbLine
 10
-778.9651094867595
 20
89.57816424287643
 30
0.0
 11
-748.9650688359324
 21
89.57816424287643
 31
0.0
  0
LINE
  5
273
330
1F
100
AcDbEntity
  8
仕上
  6
Continuous
 62
     3
370
     9
100
AcDbLine
 10
-778.9651094867595
 20
105.6667055939858
 30
0.0
 11
-748.9650688359324
 21
105.6667055939858
 31
0.0
  0
LINE
  5
274
330
1F
100
AcDbEntity
  8
仕上
  6
Continuous
 62
     3
370
     9
100
AcDbLine
 10
-778.9651094867595
 20
138.4872977526639
 30
0.0
 11
-748.9650688359324
 21
138.4872977526639
 31
0.0
  0
LINE
  5
275
330
1F
100
AcDbEntity
  8
仕上
  6
Continuous
 62
     3
370
     9
100
AcDbLine
 10
-778.9651094867595
 20
137.9872977526639
 30
0.0
 11
-748.9650688359324
 21
137.9872977526639
 31
0.0
  0
LINE
  5
276
330
1F
100
AcDbEntity
  8
仕上
  6
Continuous
 62
     3
370
     9
100
AcDbLine
 10
-778.9651094867595
 20
122.3987564015547
 30
0.0
 11
-748.9650688359324
 21
122.3987564015547
 31
0.0
  0
LINE
  5
277
330
1F
100
AcDbEntity
  8
仕上
  6
Continuous
 62
     3
370
     9
100
AcDbLine
 10
-528.96510948676
 20
122.3987564015547
 30
0.0
 11
-498.965068835932
 21
122.3987564015547
 31
0.0
  0
LINE
  5
278
330
1F
100
AcDbEntity
  8
仕上
  6
Continuous
 62
     3
370
     9
100
AcDbLine
 10
-528.96510948676
 20
137.9872977526639
 30
0.0
 11
-498.965068835932
 21
137.9872977526639
 31
0.0
  0
LINE
  5
279
330
1F
100
AcDbEntity
  8
仕上
  6
Continuous
 62
     3
370
     9
100
AcDbLine
 10
-528.96510948676
 20
138.4872977526639
 30
0.0
 11
-498.965068835932
 21
138.4872977526639
 31
0.0
  0
LINE
  5
27A
330
1F
100
AcDbEntity
  8
仕上
  6
Continuous
 62
     3
370
     9
100
AcDbLine
 10
-528.96510948676
 20
105.6667055939858
 30
0.0
 11
-498.965068835932
 21
105.6667055939858
 31
0.0
  0
LINE
  5
27B
330
1F
100
AcDbEntity
  8
仕上
  6
Continuous
 62
     3
370
     9
100
AcDbLine
 10
-528.96510948676
 20
89.57816424287643
 30
0.0
 11
-498.965068835932
 21
89.57816424287643
 31
0.0
  0
LINE
  5
27C
330
1F
100
AcDbEntity
  8
仕上
  6
Continuous
 62
     3
370
     9
100
AcDbLine
 10
-528.96510948676
 20
90.07816424287648
 30
0.0
 11
-498.965068835932
 21
90.07816424287648
 31
0.0
  0
LINE
  5
27D
330
1F
100
AcDbEntity
  8
仕上
  6
Continuous
 62
     3
370
     9
100
AcDbLine
 10
-528.96510948676
 20
89.57816424287643
 30
0.0
 11
-528.96510948676
 21
138.4872977526639
 31
0.0
  0
LINE
  5
27E
330
1F
100
AcDbEntity
  8
仕上
  6
Continuous
 62
     3
370
     9
100
AcDbLine
 10
-498.965068835932
 20
138.4872977526639
 30
0.0
 11
-498.965068835932
 21
89.57816424287643
 31
0.0
  0
LINE
  5
27F
330
1F
100
AcDbEntity
  8
ハッチ
  6
JWW_PHANTOM1
 62
     6
370
     9
100
AcDbLine
 10
-362.9651559700978
 20
-365.4647097225314
 30
0.0
 11
-212.9651559700978
 21
-365.4647097225314
 31
0.0
  0
LINE
  5
280
330
1F
100
AcDbEntity
  8
躯体
  6
Continuous
 62
     2
370
     9
100
AcDbLine
 10
-413.9651757652841
 20
-469.4646569353692
 30
0.0
 11
-413.9651757652841
 21
-460.4647757064843
 31
0.0
  0
LINE
  5
281
330
1F
100
AcDbEntity
  8
躯体
  6
Continuous
 62
     2
370
     9
100
AcDbLine
 10
-368.9652252532485
 20
-460.4647757064843
 30
0.0
 11
-368.9652252532485
 21
-465.4647427145077
 31
0.0
  0
LINE
  5
282
330
1F
100
AcDbEntity
  8
躯体
  6
Continuous
 62
     2
370
     9
100
AcDbLine
 10
-368.9652252532485
 20
-465.4647427145077
 30
0.0
 11
-413.9651757652841
 21
-465.4647427145077
 31
0.0
  0
LINE
  5
283
330
1F
100
AcDbEntity
  8
躯体
  6
Continuous
 62
     2
370
     9
100
AcDbLine
 10
-366.9651691668885
 20
-463.4647361161124
 30
0.0
 11
-366.9651691668885
 21
-365.4647097225314
 31
0.0
  0
LINE
  5
284
330
1F
100
AcDbEntity
  8
躯体
  6
Continuous
 62
     2
370
     9
100
AcDbLine
 10
-368.9652252532485
 20
-469.4646569353692
 30
0.0
 11
-413.9651757652841
 21
-469.4646569353692
 31
0.0
  0
LINE
  5
285
330
1F
100
AcDbEntity
  8
躯体
  6
Continuous
 62
     2
370
     9
100
AcDbLine
 10
-366.9651691668885
 20
-365.4647097225314
 30
0.0
 11
-362.9651559700978
 21
-365.4647097225314
 31
0.0
  0
LINE
  5
286
330
1F
100
AcDbEntity
  8
躯体
  6
Continuous
 62
     2
370
     9
100
AcDbLine
 10
-413.9651757652841
 20
-460.4647757064843
 30
0.0
 11
-368.9652252532485
 21
-460.4647757064843
 31
0.0
  0
LINE
  5
287
330
1F
100
AcDbEntity
  8
躯体
  6
Continuous
 62
     2
370
     9
100
AcDbLine
 10
-362.9651559700978
 20
-463.4647361161124
 30
0.0
 11
-362.9651559700978
 21
-365.4647097225314
 31
0.0
  0
LINE
  5
288
330
1F
100
AcDbEntity
  8
躯体
  6
Continuous
 62
     2
370
     9
100
AcDbLine
 10
-369.430065704051
 20
-465.4647427145077
 30
0.0
 11
-368.9652252532485
 21
-464.9998527757408
 31
0.0
  0
LINE
  5
289
330
1F
100
AcDbEntity
  8
躯体
  6
Continuous
 62
     2
370
     9
100
AcDbLine
 10
-375.086935953206
 20
-465.4647427145077
 30
0.0
 11
-370.0869689451822
 21
-460.4647757064843
 31
0.0
  0
LINE
  5
28A
330
1F
100
AcDbEntity
  8
躯体
  6
Continuous
 62
     2
370
     9
100
AcDbLine
 10
-380.7438062023616
 20
-465.4647427145077
 30
0.0
 11
-375.7438391943379
 21
-460.4647757064843
 31
0.0
  0
LINE
  5
28B
330
1F
100
AcDbEntity
  8
躯体
  6
Continuous
 62
     2
370
     9
100
AcDbLine
 10
-386.4006764515173
 20
-465.4647427145077
 30
0.0
 11
-381.4007094434935
 21
-460.4647757064843
 31
0.0
  0
LINE
  5
28C
330
1F
100
AcDbEntity
  8
躯体
  6
Continuous
 62
     2
370
     9
100
AcDbLine
 10
-392.0575467006722
 20
-465.4647427145077
 30
0.0
 11
-387.0575796926485
 21
-460.4647757064843
 31
0.0
  0
LINE
  5
28D
330
1F
100
AcDbEntity
  8
躯体
  6
Continuous
 62
     2
370
     9
100
AcDbLine
 10
-397.7144169498279
 20
-465.4647427145077
 30
0.0
 11
-392.7144004538397
 21
-460.4647757064843
 31
0.0
  0
LINE
  5
28E
330
1F
100
AcDbEntity
  8
躯体
  6
Continuous
 62
     2
370
     9
100
AcDbLine
 10
-403.3711882230541
 20
-465.4647427145077
 30
0.0
 11
-398.3712212150303
 21
-460.4647757064843
 31
0.0
  0
LINE
  5
28F
330
1F
100
AcDbEntity
  8
躯体
  6
Continuous
 62
     2
370
     9
100
AcDbLine
 10
-409.0280584722098
 20
-465.4647427145077
 30
0.0
 11
-404.028091464186
 21
-460.4647757064843
 31
0.0
  0
LINE
  5
290
330
1F
100
AcDbEntity
  8
躯体
  6
Continuous
 62
     2
370
     9
100
AcDbLine
 10
-413.9651757652841
 20
-464.7449897584268
 30
0.0
 11
-409.6849617133416
 21
-460.4647757064843
 31
0.0
  0
ARC
  5
291
330
1F
100
AcDbEntity
  8
躯体
  6
Continuous
 62
     2
370
     9
100
AcDbCircle
 10
-368.9652252532485
 20
-463.4647361161124
 30
0.0
 40
2.000000219087343
100
AcDbArc
 50
270.0
 51
0.0
  0
ARC
  5
292
330
1F
100
AcDbEntity
  8
躯体
  6
Continuous
 62
     2
370
     9
100
AcDbCircle
 10
-368.9652252532485
 20
-463.4647361161124
 30
0.0
 40
6.000000463949668
100
AcDbArc
 50
270.0
 51
0.0
  0
LINE
  5
293
330
1F
100
AcDbEntity
  8
ハッチ
  6
JWW_PHANTOM1
 62
     6
370
     9
100
AcDbLine
 10
-413.9651757652841
 20
-469.4646569353691
 30
0.0
 11
-413.9651757652841
 21
-658.4646721941584
 31
0.0
  0
LWPOLYLINE
  5
294
330
1F
100
AcDbEntity
  8
その他
  6
Continuous
 62
     7
370
     9
100
AcDbPolyline
 90
        4
 70
     1
 43
0.6000000000000001
 10
-280.1525205652961
 20
-469.4646965644034
 42
0.4142135623731
 10
-280.452520565296
 20
-469.1646965644035
 42
0.4142135623731
 10
-280.752520565296
 20
-469.4646965644034
 42
0.4142135623731
 10
-280.452520565296
 20
-469.7646965644034
 42
0.4142135623731
  0
LWPOLYLINE
  5
295
330
1F
100
AcDbEntity
  8
その他
  6
Continuous
 62
     7
370
     9
100
AcDbPolyline
 90
        4
 70
     1
 43
0.6000000000000001
 10
-280.1525205652961
 20
-365.4647097225314
 42
0.4142135623731
 10
-280.452520565296
 20
-365.1647097225315
 42
0.4142135623731
 10
-280.752520565296
 20
-365.4647097225314
 42
0.4142135623731
 10
-280.452520565296
 20
-365.7647097225314
 42
0.4142135623731
  0
LINE
  5
296
330
1F
100
AcDbEntity
  8
その他
  6
Continuous
 62
     7
370
     9
100
AcDbLine
 10
-280.452520565296
 20
-365.4647097225314
 30
0.0
 11
-280.452520565296
 21
-469.4646965644034
 31
0.0
  0
TEXT
  5
297
330
1F
100
AcDbEntity
  8
その他
  6
Continuous
 62
     2
370
   211
100
AcDbText
 10
-283.9445205652964
 20
-427.2147031434674
 30
0.0
 40
9.144
  1
104
 50
90.0
 41
1.083333333333333
  7
ＭＳ ゴシック
100
AcDbText
  0
LINE
  5
298
330
1F
100
AcDbEntity
  8
その他
  6
Continuous
 62
     7
370
     9
100
AcDbLine
 10
-279.5525205652962
 20
-469.4646965644034
 30
0.0
 11
-356.9651559700978
 21
-469.4646965644034
 31
0.0
  0
LINE
  5
299
330
1F
100
AcDbEntity
  8
その他
  6
Continuous
 62
     7
370
     9
100
AcDbLine
 10
-318.6866236395138
 20
-460.4647427338389
 30
0.0
 11
-318.6866236395138
 21
-366.4647097225314
 31
0.0
  0
LWPOLYLINE
  5
29A
330
1F
100
AcDbEntity
  8
その他
  6
Continuous
 62
     7
370
     9
100
AcDbPolyline
 90
        4
 70
     1
 43
0.6000000000000001
 10
-318.3866236395138
 20
-460.4647427338389
 42
0.4142135623731
 10
-318.6866236395138
 20
-460.1647427338389
 42
0.4142135623731
 10
-318.9866236395137
 20
-460.4647427338389
 42
0.4142135623731
 10
-318.6866236395138
 20
-460.7647427338389
 42
0.4142135623731
  0
LWPOLYLINE
  5
29B
330
1F
100
AcDbEntity
  8
その他
  6
Continuous
 62
     7
370
     9
100
AcDbPolyline
 90
        4
 70
     1
 43
0.6000000000000001
 10
-318.3866236395138
 20
-366.4647097225314
 42
0.4142135623731
 10
-318.6866236395138
 20
-366.1647097225314
 42
0.4142135623731
 10
-318.9866236395137
 20
-366.4647097225314
 42
0.4142135623731
 10
-318.6866236395138
 20
-366.7647097225314
 42
0.4142135623731
  0
TEXT
  5
29C
330
1F
100
AcDbEntity
  8
その他
  6
Continuous
 62
     2
370
   211
100
AcDbText
 10
-322.1786236395135
 20
-419.8397262281852
 30
0.0
 40
9.144
  1
94
 50
90.0
 41
1.0625
  7
ＭＳ ゴシック
100
AcDbText
  0
LINE
  5
29D
330
1F
100
AcDbEntity
  8
その他
  6
Continuous
 62
     7
370
     9
100
AcDbLine
 10
-317.7866236395132
 20
-366.4647097225314
 30
0.0
 11
-356.9651559700978
 21
-366.4647097225314
 31
0.0
  0
LINE
  5
29E
330
1F
100
AcDbEntity
  8
その他
  6
Continuous
 62
     7
370
     9
100
AcDbLine
 10
-317.7866236395132
 20
-460.4647427338389
 30
0.0
 11
-356.9651559700978
 21
-460.4647427338389
 31
0.0
  0
LINE
  5
29F
330
1F
100
AcDbEntity
  8
仕上
  6
Continuous
 62
     3
370
     9
100
AcDbLine
 10
-368.9650520453722
 20
-366.4647097225314
 30
0.0
 11
-368.9650520453722
 21
-444.4647691080887
 31
0.0
  0
LINE
  5
2A0
330
1F
100
AcDbEntity
  8
仕上
  6
Continuous
 62
     3
370
     9
100
AcDbLine
 10
-384.4651774148822
 20
-460.4647229193218
 30
0.0
 11
-413.4651246277207
 21
-460.4647229193218
 31
0.0
  0
LINE
  5
2A1
330
1F
100
AcDbEntity
  8
仕上
  6
Continuous
 62
     3
370
     9
100
AcDbLine
 10
-382.9650982341394
 20
-458.9647427145076
 30
0.0
 11
-382.9650982341394
 21
-445.9647493129029
 31
0.0
  0
ARC
  5
2A2
330
1F
100
AcDbEntity
  8
仕上
  6
Continuous
 62
     3
370
     9
100
AcDbCircle
 10
-413.4651246277207
 20
-458.9647427145076
 30
0.0
 40
1.500000019331236
100
AcDbArc
 50
180.0
 51
270.0
  0
ARC
  5
2A3
330
1F
100
AcDbEntity
  8
仕上
  6
Continuous
 62
     3
370
     9
100
AcDbCircle
 10
-384.4651774148822
 20
-458.9647427145076
 30
0.0
 40
1.500000019331236
100
AcDbArc
 50
270.0
 51
0.0
  0
ARC
  5
2A4
330
1F
100
AcDbEntity
  8
仕上
  6
Continuous
 62
     3
370
     9
100
AcDbCircle
 10
-413.4651246277207
 20
-445.9647493129029
 30
0.0
 40
1.500000019331236
100
AcDbArc
 50
90.0
 51
180.0
  0
ARC
  5
2A5
330
1F
100
AcDbEntity
  8
仕上
  6
Continuous
 62
     3
370
     9
100
AcDbCircle
 10
-384.4651774148822
 20
-445.9647493129029
 30
0.0
 40
1.500000019331236
100
AcDbArc
 50
0.0
 51
90.0
  0
LINE
  5
2A6
330
1F
100
AcDbEntity
  8
仕上
  6
Continuous
 62
     3
370
     9
100
AcDbLine
 10
-371.9651114309297
 20
-366.4647097225314
 30
0.0
 11
-371.9651114309297
 21
-441.4647097225314
 31
0.0
  0
LINE
  5
2A7
330
1F
100
AcDbEntity
  8
仕上
  6
Continuous
 62
     3
370
     9
100
AcDbLine
 10
-908.9650520453722
 20
-366.4647097225314
 30
0.0
 11
-908.9650520453722
 21
-444.4647691080887
 31
0.0
  0
LINE
  5
2A8
330
1F
100
AcDbEntity
  8
躯体
  6
Continuous
 62
     2
370
     9
100
AcDbLine
 10
-914.9649976086116
 20
-463.4647361161124
 30
0.0
 11
-914.9649976086116
 21
-365.4647097225314
 31
0.0
  0
LINE
  5
2A9
330
1F
100
AcDbEntity
  8
躯体
  6
Continuous
 62
     2
370
     9
100
AcDbLine
 10
-863.964977813426
 20
-469.4646569353692
 30
0.0
 11
-863.964977813426
 21
-460.4647757064843
 31
0.0
  0
LINE
  5
2AA
330
1F
100
AcDbEntity
  8
躯体
  6
Continuous
 62
     2
370
     9
100
AcDbLine
 10
-908.964977813426
 20
-460.4647757064843
 30
0.0
 11
-908.964977813426
 21
-465.4647427145077
 31
0.0
  0
LINE
  5
2AB
330
1F
100
AcDbEntity
  8
躯体
  6
Continuous
 62
     2
370
     9
100
AcDbLine
 10
-908.964977813426
 20
-465.4647427145077
 30
0.0
 11
-863.964977813426
 21
-465.4647427145077
 31
0.0
  0
LINE
  5
2AC
330
1F
100
AcDbEntity
  8
躯体
  6
Continuous
 62
     2
370
     9
100
AcDbLine
 10
-910.9649349238566
 20
-463.4647361161124
 30
0.0
 11
-910.9649349238566
 21
-365.4647097225314
 31
0.0
  0
LINE
  5
2AD
330
1F
100
AcDbEntity
  8
躯体
  6
Continuous
 62
     2
370
     9
100
AcDbLine
 10
-908.964977813426
 20
-469.4646569353692
 30
0.0
 11
-863.964977813426
 21
-469.4646569353692
 31
0.0
  0
LINE
  5
2AE
330
1F
100
AcDbEntity
  8
躯体
  6
Continuous
 62
     2
370
     9
100
AcDbLine
 10
-863.964977813426
 20
-460.4647757064843
 30
0.0
 11
-908.964977813426
 21
-460.4647757064843
 31
0.0
  0
LINE
  5
2AF
330
1F
100
AcDbEntity
  8
躯体
  6
Continuous
 62
     2
370
     9
100
AcDbLine
 10
-864.4298182642285
 20
-465.4647427145077
 30
0.0
 11
-863.964977813426
 21
-464.9998527757408
 31
0.0
  0
LINE
  5
2B0
330
1F
100
AcDbEntity
  8
躯体
  6
Continuous
 62
     2
370
     9
100
AcDbLine
 10
-870.0866390254191
 20
-465.4647427145077
 30
0.0
 11
-865.0867215053594
 21
-460.4647757064843
 31
0.0
  0
LINE
  5
2B1
330
1F
100
AcDbEntity
  8
躯体
  6
Continuous
 62
     2
370
     9
100
AcDbLine
 10
-875.7436082505035
 20
-465.4647427145077
 30
0.0
 11
-870.7435917545154
 21
-460.4647757064843
 31
0.0
  0
LINE
  5
2B2
330
1F
100
AcDbEntity
  8
躯体
  6
Continuous
 62
     2
370
     9
100
AcDbLine
 10
-881.4004290116941
 20
-465.4647427145077
 30
0.0
 11
-876.400462003671
 21
-460.4647757064843
 31
0.0
  0
LINE
  5
2B3
330
1F
100
AcDbEntity
  8
躯体
  6
Continuous
 62
     2
370
     9
100
AcDbLine
 10
-887.0572992608494
 20
-465.4647427145077
 30
0.0
 11
-882.0573817407903
 21
-460.4647757064843
 31
0.0
  0
LINE
  5
2B4
330
1F
100
AcDbEntity
  8
躯体
  6
Continuous
 62
     2
370
     9
100
AcDbLine
 10
-892.7141695100054
 20
-465.4647427145077
 30
0.0
 11
-887.7141530140169
 21
-460.4647757064843
 31
0.0
  0
LINE
  5
2B5
330
1F
100
AcDbEntity
  8
躯体
  6
Continuous
 62
     2
370
     9
100
AcDbLine
 10
-898.3709407832316
 20
-465.4647427145077
 30
0.0
 11
-893.3709737752079
 21
-460.4647757064843
 31
0.0
  0
LINE
  5
2B6
330
1F
100
AcDbEntity
  8
躯体
  6
Continuous
 62
     2
370
     9
100
AcDbLine
 10
-904.0278110323869
 20
-465.4647427145077
 30
0.0
 11
-899.0278440243635
 21
-460.4647757064843
 31
0.0
  0
LINE
  5
2B7
330
1F
100
AcDbEntity
  8
躯体
  6
Continuous
 62
     2
370
     9
100
AcDbLine
 10
-908.964977813426
 20
-464.7449897584268
 30
0.0
 11
-904.6847637614835
 21
-460.4647757064843
 31
0.0
  0
ARC
  5
2B8
330
1F
100
AcDbEntity
  8
躯体
  6
Continuous
 62
     2
370
     9
100
AcDbCircle
 10
-908.964977813426
 20
-463.4647361161124
 30
0.0
 40
2.000000219087343
100
AcDbArc
 50
180.0
 51
270.0
  0
ARC
  5
2B9
330
1F
100
AcDbEntity
  8
躯体
  6
Continuous
 62
     2
370
     9
100
AcDbCircle
 10
-908.964977813426
 20
-463.4647361161124
 30
0.0
 40
6.000000463949668
100
AcDbArc
 50
180.0
 51
270.0
  0
LINE
  5
2BA
330
1F
100
AcDbEntity
  8
躯体
  6
Continuous
 62
     2
370
     9
100
AcDbLine
 10
-910.9649349238566
 20
-365.4647097225314
 30
0.0
 11
-914.9649976086116
 21
-365.4647097225314
 31
0.0
  0
LINE
  5
2BB
330
1F
100
AcDbEntity
  8
ハッチ
  6
JWW_PHANTOM1
 62
     6
370
     9
100
AcDbLine
 10
-863.964977813426
 20
-469.4646569353691
 30
0.0
 11
-863.964977813426
 21
-658.4646721941584
 31
0.0
  0
LINE
  5
2BC
330
1F
100
AcDbEntity
  8
ハッチ
  6
JWW_PHANTOM1
 62
     6
370
     9
100
AcDbLine
 10
-1064.964997608611
 20
-365.4647097225314
 30
0.0
 11
-914.9649976086116
 21
-365.4647097225314
 31
0.0
  0
LINE
  5
2BD
330
1F
100
AcDbEntity
  8
仕上
  6
Continuous
 62
     3
370
     9
100
AcDbLine
 10
-862.964900282281
 20
-458.9647427145076
 30
0.0
 11
-862.964900282281
 21
-445.9647493129029
 31
0.0
  0
LINE
  5
2BE
330
1F
100
AcDbEntity
  8
仕上
  6
Continuous
 62
     3
370
     9
100
AcDbLine
 10
-893.4649266758615
 20
-460.4647229193218
 30
0.0
 11
-864.4648804870953
 21
-460.4647229193218
 31
0.0
  0
LINE
  5
2BF
330
1F
100
AcDbEntity
  8
仕上
  6
Continuous
 62
     3
370
     9
100
AcDbLine
 10
-894.9649068806766
 20
-458.9647427145076
 30
0.0
 11
-894.9649068806766
 21
-445.9647493129029
 31
0.0
  0
ARC
  5
2C0
330
1F
100
AcDbEntity
  8
仕上
  6
Continuous
 62
     3
370
     9
100
AcDbCircle
 10
-864.4648804870953
 20
-458.9647427145076
 30
0.0
 40
1.500000019331236
100
AcDbArc
 50
270.0
 51
0.0
  0
ARC
  5
2C1
330
1F
100
AcDbEntity
  8
仕上
  6
Continuous
 62
     3
370
     9
100
AcDbCircle
 10
-893.4649266758615
 20
-458.9647427145076
 30
0.0
 40
1.500000019331236
100
AcDbArc
 50
180.0
 51
270.0
  0
ARC
  5
2C2
330
1F
100
AcDbEntity
  8
仕上
  6
Continuous
 62
     3
370
     9
100
AcDbCircle
 10
-864.4648804870953
 20
-445.9647493129029
 30
0.0
 40
1.500000019331236
100
AcDbArc
 50
0.0
 51
90.0
  0
ARC
  5
2C3
330
1F
100
AcDbEntity
  8
仕上
  6
Continuous
 62
     3
370
     9
100
AcDbCircle
 10
-893.4649266758615
 20
-445.9647493129029
 30
0.0
 40
1.500000019331236
100
AcDbArc
 50
90.0
 51
180.0
  0
LINE
  5
2C4
330
1F
100
AcDbEntity
  8
仕上
  6
Continuous
 62
     3
370
     9
100
AcDbLine
 10
-905.9648936838856
 20
-366.4647097225314
 30
0.0
 11
-905.9648936838856
 21
-441.4647097225314
 31
0.0
  0
LINE
  5
2C5
330
1F
100
AcDbEntity
  8
仕上
  6
Continuous
 62
     3
370
     9
100
AcDbLine
 10
-908.9650520453722
 20
-366.4647097225314
 30
0.0
 11
-368.9650520453722
 21
-366.4647097225314
 31
0.0
  0
LINE
  5
2C6
330
1F
100
AcDbEntity
  8
躯体
  6
Continuous
 62
     2
370
     9
100
AcDbLine
 10
-863.964977813426
 20
-465.4647427145077
 30
0.0
 11
-413.9651757652841
 21
-465.4647427145077
 31
0.0
  0
LINE
  5
2C7
330
1F
100
AcDbEntity
  8
躯体
  6
Continuous
 62
     2
370
     9
100
AcDbLine
 10
-863.964977813426
 20
-469.4646569353692
 30
0.0
 11
-413.9651757652841
 21
-469.4646569353692
 31
0.0
  0
LINE
  5
2C8
330
1F
100
AcDbEntity
  8
躯体
  6
Continuous
 62
     2
370
     9
100
AcDbLine
 10
-863.964977813426
 20
-460.4647757064843
 30
0.0
 11
-413.9651757652841
 21
-460.4647757064843
 31
0.0
  0
LINE
  5
2C9
330
1F
100
AcDbEntity
  8
仕上
  6
Continuous
 62
     3
370
     9
100
AcDbLine
 10
-908.9650520453722
 20
-441.4647097225314
 30
0.0
 11
-368.9650520453722
 21
-441.4647097225314
 31
0.0
  0
CIRCLE
  5
2CA
330
1F
100
AcDbEntity
  8
0-E
  6
Continuous
 62
     7
370
     9
100
AcDbCircle
 10
687.3305670659379
 20
-445.786694216476
 30
0.0
 40
0.5
  0
CIRCLE
  5
2CB
330
1F
100
AcDbEntity
  8
0-E
  6
Continuous
 62
     7
370
     9
100
AcDbCircle
 10
681.4167242818378
 20
-436.1056198511579
 30
0.0
 40
0.5
  0
LINE
  5
2CC
330
1F
100
AcDbEntity
  8
躯体
  6
Continuous
 62
     2
370
     9
100
AcDbLine
 10
671.9947104199172
 20
-465.4646437385786
 30
0.0
 11
626.9947104199172
 21
-465.4646437385786
 31
0.0
  0
LINE
  5
2CD
330
1F
100
AcDbEntity
  8
躯体
  6
Continuous
 62
     2
370
     9
100
AcDbLine
 10
677.994631239174
 20
-365.4647097225313
 30
0.0
 11
673.9947170183125
 21
-365.4647097225313
 31
0.0
  0
LINE
  5
2CE
330
1F
100
AcDbEntity
  8
躯体
  6
Continuous
 62
     2
370
     9
100
AcDbLine
 10
671.9947104199172
 20
-460.464577754626
 30
0.0
 11
671.9947104199172
 21
-465.4646437385786
 31
0.0
  0
LINE
  5
2CF
330
1F
100
AcDbEntity
  8
躯体
  6
Continuous
 62
     2
370
     9
100
AcDbLine
 10
673.9947170183125
 20
-463.4647361161124
 30
0.0
 11
673.9947170183125
 21
-365.4647097225313
 31
0.0
  0
LINE
  5
2D0
330
1F
100
AcDbEntity
  8
躯体
  6
Continuous
 62
     2
370
     9
100
AcDbLine
 10
677.994631239174
 20
-463.4647361161124
 30
0.0
 11
677.994631239174
 21
-365.4647097225313
 31
0.0
  0
LINE
  5
2D1
330
1F
100
AcDbEntity
  8
躯体
  6
Continuous
 62
     2
370
     9
100
AcDbLine
 10
626.9947104199172
 20
-460.464577754626
 30
0.0
 11
671.9947104199172
 21
-460.464577754626
 31
0.0
  0
ARC
  5
2D2
330
1F
100
AcDbEntity
  8
躯体
  6
Continuous
 62
     2
370
     9
100
AcDbCircle
 10
671.9947104199172
 20
-463.4647361161124
 30
0.0
 40
2.000000025774982
100
AcDbArc
 50
270.0
 51
0.0
  0
ARC
  5
2D3
330
1F
100
AcDbEntity
  8
躯体
  6
Continuous
 62
     2
370
     9
100
AcDbCircle
 10
671.9947104199172
 20
-463.4647361161124
 30
0.0
 40
6.000000077324944
100
AcDbArc
 50
270.0
 51
0.0
  0
LINE
  5
2D4
330
1F
100
AcDbEntity
  8
躯体
  6
Continuous
 62
     2
370
     9
100
AcDbLine
 10
672.0255501758699
 20
-469.4646569353692
 30
0.0
 11
626.9947104199172
 21
-469.4646569353692
 31
0.0
  0
LINE
  5
2D5
330
1F
100
AcDbEntity
  8
躯体
  6
Continuous
 62
     2
370
     9
100
AcDbLine
 10
626.9947104199172
 20
-460.464577754626
 30
0.0
 11
626.9947104199172
 21
-469.4646569353692
 31
0.0
  0
LINE
  5
2D6
330
1F
100
AcDbEntity
  8
0-E
  6
Continuous
 62
     2
370
     9
100
AcDbLine
 10
680.9947516598875
 20
-365.4647097225313
 30
0.0
 11
680.9947516598875
 21
-425.4647097225313
 31
0.0
  0
CIRCLE
  5
2D7
330
1F
100
AcDbEntity
  8
0-E
  6
Continuous
 62
     7
370
     9
100
AcDbCircle
 10
632.9687045505541
 20
-430.6911558088098
 30
0.0
 40
0.5
  0
CIRCLE
  5
2D8
330
1F
100
AcDbEntity
  8
0-E
  6
Continuous
 62
     7
370
     9
100
AcDbCircle
 10
627.1685895123017
 20
-436.491270847062
 30
0.0
 40
0.5
  0
LINE
  5
2D9
330
1F
100
AcDbEntity
  8
躯体
  6
Continuous
 62
     2
370
     9
100
AcDbLine
 10
671.9947104199172
 20
-462.1867589201666
 30
0.0
 11
668.716825601505
 21
-465.4646437385786
 31
0.0
  0
LINE
  5
2DA
330
1F
100
AcDbEntity
  8
躯体
  6
Continuous
 62
     2
370
     9
100
AcDbLine
 10
668.0600213363022
 20
-460.464577754626
 30
0.0
 11
663.0599553523497
 21
-465.4646437385786
 31
0.0
  0
LINE
  5
2DB
330
1F
100
AcDbEntity
  8
躯体
  6
Continuous
 62
     2
370
     9
100
AcDbLine
 10
662.4031510871469
 20
-460.464577754626
 30
0.0
 11
657.4030851031944
 21
-465.4646437385786
 31
0.0
  0
LINE
  5
2DC
330
1F
100
AcDbEntity
  8
躯体
  6
Continuous
 62
     2
370
     9
100
AcDbLine
 10
656.7462808379915
 20
-460.464577754626
 30
0.0
 11
651.7462148540387
 21
-465.4646437385786
 31
0.0
  0
LINE
  5
2DD
330
1F
100
AcDbEntity
  8
躯体
  6
Continuous
 62
     2
370
     9
100
AcDbLine
 10
651.0894105888362
 20
-460.464577754626
 30
0.0
 11
646.0893446048834
 21
-465.4646437385786
 31
0.0
  0
LINE
  5
2DE
330
1F
100
AcDbEntity
  8
躯体
  6
Continuous
 62
     2
370
     9
100
AcDbLine
 10
645.4325403396806
 20
-460.464577754626
 30
0.0
 11
640.4324743557281
 21
-465.4646437385786
 31
0.0
  0
LINE
  5
2DF
330
1F
100
AcDbEntity
  8
躯体
  6
Continuous
 62
     2
370
     9
100
AcDbLine
 10
639.7756700905253
 20
-460.464577754626
 30
0.0
 11
634.7756041065725
 21
-465.4646437385786
 31
0.0
  0
LINE
  5
2E0
330
1F
100
AcDbEntity
  8
躯体
  6
Continuous
 62
     2
370
     9
100
AcDbLine
 10
634.11879984137
 20
-460.464577754626
 30
0.0
 11
629.1187338574172
 21
-465.4646437385786
 31
0.0
  0
LINE
  5
2E1
330
1F
100
AcDbEntity
  8
躯体
  6
Continuous
 62
     2
370
     9
100
AcDbLine
 10
628.4619295922143
 20
-460.464577754626
 30
0.0
 11
626.9947104199172
 21
-461.9319948787813
 31
0.0
  0
CIRCLE
  5
2E2
330
1F
100
AcDbEntity
  8
0-E
  6
Continuous
 62
     7
370
     9
100
AcDbCircle
 10
688.1982643060765
 20
-457.5240972323059
 30
0.0
 40
0.5
  0
LINE
  5
2E3
330
1F
100
AcDbEntity
  8
ハッチ
  6
Continuous
 62
     6
370
     9
100
AcDbLine
 10
685.453106352089
 20
-469.9643860918634
 30
0.0
 11
685.453106352089
 21
-462.9643860918634
 31
0.0
  0
CIRCLE
  5
2E4
330
1F
100
AcDbEntity
  8
0-E
  6
Continuous
 62
     7
370
     9
100
AcDbCircle
 10
602.8983265198927
 20
-432.2705488114925
 30
0.0
 40
0.5
  0
CIRCLE
  5
2E5
330
1F
100
AcDbEntity
  8
0-E
  6
Continuous
 62
     7
370
     9
100
AcDbCircle
 10
614.8397398339415
 20
-437.2177057558841
 30
0.0
 40
0.5
  0
CIRCLE
  5
2E6
330
1F
100
AcDbEntity
  8
0-E
  6
Continuous
 62
     7
370
     9
100
AcDbCircle
 10
614.6691482151693
 20
-430.0528577674549
 30
0.0
 40
0.5
  0
CIRCLE
  5
2E7
330
1F
100
AcDbEntity
  8
0-E
  6
Continuous
 62
     7
370
     9
100
AcDbCircle
 10
690.4283475220661
 20
-435.3338029601715
 30
0.0
 40
0.5
  0
CIRCLE
  5
2E8
330
1F
100
AcDbEntity
  8
0-E
  6
Continuous
 62
     7
370
     9
100
AcDbCircle
 10
701.0916243135562
 20
-431.9403411594718
 30
0.0
 40
0.5
  0
CIRCLE
  5
2E9
330
1F
100
AcDbEntity
  8
0-E
  6
Continuous
 62
     7
370
     9
100
AcDbCircle
 10
698.7033416507463
 20
-441.4934718107109
 30
0.0
 40
0.5
  0
CIRCLE
  5
2EA
330
1F
100
AcDbEntity
  8
0-E
  6
Continuous
 62
     7
370
     9
100
AcDbCircle
 10
710.9859382023394
 20
-446.6112203738746
 30
0.0
 40
0.5
  0
CIRCLE
  5
2EB
330
1F
100
AcDbEntity
  8
0-E
  6
Continuous
 62
     7
370
     9
100
AcDbCircle
 10
711.3271214398837
 20
-437.7404561977241
 30
0.0
 40
0.5
  0
CIRCLE
  5
2EC
330
1F
100
AcDbEntity
  8
0-E
  6
Continuous
 62
     7
370
     9
100
AcDbCircle
 10
725.0881786875018
 20
-432.5089798887122
 30
0.0
 40
0.5
  0
CIRCLE
  5
2ED
330
1F
100
AcDbEntity
  8
0-E
  6
Continuous
 62
     7
370
     9
100
AcDbCircle
 10
732.4804821676272
 20
-439.6738278771415
 30
0.0
 40
0.5
  0
CIRCLE
  5
2EE
330
1F
100
AcDbEntity
  8
0-E
  6
Continuous
 62
     7
370
     9
100
AcDbCircle
 10
725.315634179198
 20
-445.5876706612418
 30
0.0
 40
0.5
  0
CIRCLE
  5
2EF
330
1F
100
AcDbEntity
  8
0-E
  6
Continuous
 62
     7
370
     9
100
AcDbCircle
 10
746.6964503986377
 20
-446.1563093904822
 30
0.0
 40
0.5
  0
CIRCLE
  5
2F0
330
1F
100
AcDbEntity
  8
0-E
  6
Continuous
 62
     7
370
     9
100
AcDbCircle
 10
742.0336128188662
 20
-432.3952521428641
 30
0.0
 40
0.5
  0
CIRCLE
  5
2F1
330
1F
100
AcDbEntity
  8
0-E
  6
Continuous
 62
     7
370
     9
100
AcDbCircle
 10
763.0732458007617
 20
-433.7599850930413
 30
0.0
 40
0.5
  0
CIRCLE
  5
2F2
330
1F
100
AcDbEntity
  8
0-E
  6
Continuous
 62
     7
370
     9
100
AcDbCircle
 10
753.7475706412188
 20
-439.7875556229896
 30
0.0
 40
0.5
  0
CIRCLE
  5
2F3
330
1F
100
AcDbEntity
  8
0-E
  6
Continuous
 62
     7
370
     9
100
AcDbCircle
 10
760.0025966628634
 20
-446.2700371363303
 30
0.0
 40
0.5
  0
CIRCLE
  5
2F4
330
1F
100
AcDbEntity
  8
0-E
  6
Continuous
 62
     7
370
     9
100
AcDbCircle
 10
777.175486285924
 20
-445.2464874236977
 30
0.0
 40
0.5
  0
CIRCLE
  5
2F5
330
1F
100
AcDbEntity
  8
0-E
  6
Continuous
 62
     7
370
     9
100
AcDbCircle
 10
775.3558423523546
 20
-435.0109902973701
 30
0.0
 40
0.5
  0
CIRCLE
  5
2F6
330
1F
100
AcDbEntity
  8
0-E
  6
Continuous
 62
     7
370
     9
100
AcDbCircle
 10
770.4655492808873
 20
-441.1522885731666
 30
0.0
 40
0.5
  0
CIRCLE
  5
2F7
330
1F
100
AcDbEntity
  8
0-E
  6
Continuous
 62
     7
370
     9
100
AcDbCircle
 10
785.9325227162266
 20
-432.8501631262565
 30
0.0
 40
0.5
  0
CIRCLE
  5
2F8
330
1F
100
AcDbEntity
  8
0-E
  6
Continuous
 62
     7
370
     9
100
AcDbCircle
 10
792.301276483719
 20
-441.720927302407
 30
0.0
 40
0.5
  0
CIRCLE
  5
2F9
330
1F
100
AcDbEntity
  8
0-E
  6
Continuous
 62
     7
370
     9
100
AcDbCircle
 10
801.570087770338
 20
-434.3286238222817
 30
0.0
 40
0.5
  0
CIRCLE
  5
2FA
330
1F
100
AcDbEntity
  8
0-E
  6
Continuous
 62
     7
370
     9
100
AcDbCircle
 10
804.9819201457804
 20
-445.5876706612418
 30
0.0
 40
0.5
  0
CIRCLE
  5
2FB
330
1F
100
AcDbEntity
  8
0-E
  6
Continuous
 62
     7
370
     9
100
AcDbCircle
 10
820.2214380894237
 20
-446.6112203738746
 30
0.0
 40
0.5
  0
CIRCLE
  5
2FC
330
1F
100
AcDbEntity
  8
0-E
  6
Continuous
 62
     7
370
     9
100
AcDbCircle
 10
812.71540686345
 20
-433.7599850930413
 30
0.0
 40
0.5
  0
CIRCLE
  5
2FD
330
1F
100
AcDbEntity
  8
0-E
  6
Continuous
 62
     7
370
     9
100
AcDbCircle
 10
826.1352808735239
 20
-432.7364353804085
 30
0.0
 40
0.5
  0
CIRCLE
  5
2FE
330
1F
100
AcDbEntity
  8
0-E
  6
Continuous
 62
     7
370
     9
100
AcDbCircle
 10
813.5115010843867
 20
-442.6307492691918
 30
0.0
 40
0.5
  0
CIRCLE
  5
2FF
330
1F
100
AcDbEntity
  8
0-E
  6
Continuous
 62
     7
370
     9
100
AcDbCircle
 10
821.4724432937525
 20
-438.1953671811165
 30
0.0
 40
0.5
  0
CIRCLE
  5
300
330
1F
100
AcDbEntity
  8
0-E
  6
Continuous
 62
     7
370
     9
100
AcDbCircle
 10
829.2059300114221
 20
-447.066131357267
 30
0.0
 40
0.5
  0
LINE
  5
301
330
1F
100
AcDbEntity
  8
0-E
  6
Continuous
 62
     2
370
     9
100
AcDbLine
 10
680.9947516598875
 20
-375.2047571773652
 30
0.0
 11
690.7348029294187
 21
-365.4647097225337
 31
0.0
  0
LINE
  5
302
330
1F
100
AcDbEntity
  8
0-E
  6
Continuous
 62
     2
370
     9
100
AcDbLine
 10
680.9947516598875
 20
-403.4890284175997
 30
0.0
 11
719.0190741696531
 21
-365.4647097225334
 31
0.0
  0
LINE
  5
303
330
1F
100
AcDbEntity
  8
0-E
  6
Continuous
 62
     2
370
     9
100
AcDbLine
 10
687.3033454098874
 20
-425.4647097225313
 30
0.0
 11
747.3033415951902
 21
-365.4647097225308
 31
0.0
  0
LINE
  5
304
330
1F
100
AcDbEntity
  8
0-E
  6
Continuous
 62
     2
370
     9
100
AcDbLine
 10
715.5876166501218
 20
-425.4647097225313
 30
0.0
 11
775.5876128354245
 21
-365.4647097225331
 31
0.0
  0
LINE
  5
305
330
1F
100
AcDbEntity
  8
0-E
  6
Continuous
 62
     2
370
     9
100
AcDbLine
 10
743.871884075659
 20
-425.4647097225313
 30
0.0
 11
790.9947516598872
 21
-378.3418421383028
 31
0.0
  0
LINE
  5
306
330
1F
100
AcDbEntity
  8
0-E
  6
Continuous
 62
     2
370
     9
100
AcDbLine
 10
772.1561553158934
 20
-425.4647097225313
 30
0.0
 11
790.9947516598872
 21
-406.6261133785371
 31
0.0
  0
LINE
  5
307
330
1F
100
AcDbEntity
  8
0-E
  6
Continuous
 62
     2
370
     9
100
AcDbLine
 10
790.9947516598872
 20
-365.4647097225313
 30
0.0
 11
790.9947516598872
 21
-425.4647097225313
 31
0.0
  0
LINE
  5
308
330
1F
100
AcDbEntity
  8
0-E
  6
Continuous
 62
     2
370
     9
100
AcDbLine
 10
680.9947516598875
 20
-365.4647097225313
 30
0.0
 11
790.9947516598872
 21
-365.4647097225313
 31
0.0
  0
LINE
  5
309
330
1F
100
AcDbEntity
  8
0-E
  6
Continuous
 62
     2
370
     9
100
AcDbLine
 10
680.9947516598875
 20
-425.4647097225313
 30
0.0
 11
790.9947516598872
 21
-425.4647097225313
 31
0.0
  0
LINE
  5
30A
330
1F
100
AcDbEntity
  8
0-E
  6
Continuous
 62
     2
370
     9
100
AcDbLine
 10
793.9947516598875
 20
-375.2047571773652
 30
0.0
 11
803.7348029294187
 21
-365.4647097225337
 31
0.0
  0
LINE
  5
30B
330
1F
100
AcDbEntity
  8
0-E
  6
Continuous
 62
     2
370
     9
100
AcDbLine
 10
793.9947516598875
 20
-365.4647097225313
 30
0.0
 11
793.9947516598875
 21
-425.4647097225313
 31
0.0
  0
LINE
  5
30C
330
1F
100
AcDbEntity
  8
0-E
  6
Continuous
 62
     2
370
     9
100
AcDbLine
 10
793.9947516598875
 20
-365.4647097225313
 30
0.0
 11
832.1947245294333
 21
-365.4647097225313
 31
0.0
  0
LINE
  5
30D
330
1F
100
AcDbEntity
  8
0-E
  6
Continuous
 62
     2
370
     9
100
AcDbLine
 10
793.9947516598875
 20
-425.4647097225313
 30
0.0
 11
832.1947245294333
 21
-425.4647097225313
 31
0.0
  0
LINE
  5
30E
330
1F
100
AcDbEntity
  8
0-E
  6
Continuous
 62
     2
370
     9
100
AcDbLine
 10
800.3033454098876
 20
-425.4647097225313
 30
0.0
 11
832.1947245294333
 21
-393.5733285753859
 31
0.0
  0
LINE
  5
30F
330
1F
100
AcDbEntity
  8
0-E
  6
Continuous
 62
     2
370
     9
100
AcDbLine
 10
828.5876166501218
 20
-425.4647097225313
 30
0.0
 11
832.1947245294333
 21
-421.8576016138863
 31
0.0
  0
LINE
  5
310
330
1F
100
AcDbEntity
  8
0-E
  6
Continuous
 62
     2
370
     9
100
AcDbLine
 10
793.9947516598875
 20
-403.4890284175997
 30
0.0
 11
832.0190741696551
 21
-365.4647097225313
 31
0.0
  0
LWPOLYLINE
  5
311
330
1F
100
AcDbEntity
  8
その他
  6
Continuous
 62
     7
370
     9
100
AcDbPolyline
 90
        4
 70
     1
 43
0.6000000000000001
 10
672.294784651864
 20
-276.7423136345413
 42
0.4142135623731
 10
671.994784651864
 20
-276.4423136345414
 42
0.4142135623731
 10
671.6947846518641
 20
-276.7423136345413
 42
0.4142135623731
 10
671.994784651864
 20
-277.0423136345413
 42
0.4142135623731
  0
LINE
  5
312
330
1F
100
AcDbEntity
  8
その他
  6
Continuous
 62
     7
370
     9
100
AcDbLine
 10
671.994784651864
 20
-275.8423136345414
 30
0.0
 11
671.994784651864
 21
-360.4646965257409
 31
0.0
  0
LWPOLYLINE
  5
313
330
1F
100
AcDbEntity
  8
その他
  6
Continuous
 62
     7
370
     9
100
AcDbPolyline
 90
        4
 70
     1
 43
0.6000000000000001
 10
678.294631239174
 20
-236.1062314219563
 42
0.4142135623731
 10
677.994631239174
 20
-235.8062314219563
 42
0.4142135623731
 10
677.6946312391741
 20
-236.1062314219563
 42
0.4142135623731
 10
677.994631239174
 20
-236.4062314219563
 42
0.4142135623731
  0
LINE
  5
314
330
1F
100
AcDbEntity
  8
その他
  6
Continuous
 62
     7
370
     9
100
AcDbLine
 10
677.994631239174
 20
-235.2062314219564
 30
0.0
 11
677.994631239174
 21
-360.4646965257409
 31
0.0
  0
CIRCLE
  5
315
330
1F
100
AcDbEntity
  8
0-E
  6
Continuous
 62
     7
370
     9
100
AcDbCircle
 10
692.691881327353
 20
-451.7822532606746
 30
0.0
 40
0.5
  0
CIRCLE
  5
316
330
1F
100
AcDbEntity
  8
0-E
  6
Continuous
 62
     7
370
     9
100
AcDbCircle
 10
714.9103210436651
 20
-462.5170050337243
 30
0.0
 40
0.5
  0
CIRCLE
  5
317
330
1F
100
AcDbEntity
  8
0-E
  6
Continuous
 62
     7
370
     9
100
AcDbCircle
 10
717.1571295543034
 20
-487.4815440408165
 30
0.0
 40
0.5
  0
CIRCLE
  5
318
330
1F
100
AcDbEntity
  8
0-E
  6
Continuous
 62
     7
370
     9
100
AcDbCircle
 10
645.5089026039489
 20
-484.9850901401073
 30
0.0
 40
0.5
  0
CIRCLE
  5
319
330
1F
100
AcDbEntity
  8
0-E
  6
Continuous
 62
     7
370
     9
100
AcDbCircle
 10
634.7741508308991
 20
-478.4943099982634
 30
0.0
 40
0.5
  0
CIRCLE
  5
31A
330
1F
100
AcDbEntity
  8
0-E
  6
Continuous
 62
     7
370
     9
100
AcDbCircle
 10
635.7727323911829
 20
-492.2248064521642
 30
0.0
 40
0.5
  0
CIRCLE
  5
31B
330
1F
100
AcDbEntity
  8
0-E
  6
Continuous
 62
     7
370
     9
100
AcDbCircle
 10
673.4691862918921
 20
-494.4716149628023
 30
0.0
 40
0.5
  0
CIRCLE
  5
31C
330
1F
100
AcDbEntity
  8
0-E
  6
Continuous
 62
     7
370
     9
100
AcDbCircle
 10
671.2223777812538
 20
-481.2404092890434
 30
0.0
 40
0.5
  0
CIRCLE
  5
31D
330
1F
100
AcDbEntity
  8
0-E
  6
Continuous
 62
     7
370
     9
100
AcDbCircle
 10
658.4904628876368
 20
-487.7311894308874
 30
0.0
 40
0.5
  0
CIRCLE
  5
31E
330
1F
100
AcDbEntity
  8
0-E
  6
Continuous
 62
     7
370
     9
100
AcDbCircle
 10
710.9159948025303
 20
-496.2191326932988
 30
0.0
 40
0.5
  0
CIRCLE
  5
31F
330
1F
100
AcDbEntity
  8
0-E
  6
Continuous
 62
     7
370
     9
100
AcDbCircle
 10
720.1528742351545
 20
-472.5028206365612
 30
0.0
 40
0.5
  0
CIRCLE
  5
320
330
1F
100
AcDbEntity
  8
0-E
  6
Continuous
 62
     7
370
     9
100
AcDbCircle
 10
706.172732391183
 20
-485.9836717003911
 30
0.0
 40
0.5
  0
LINE
  5
321
330
1F
100
AcDbEntity
  8
ハッチ
  6
Continuous
 62
     6
370
     9
100
AcDbLine
 10
726.9946609319526
 20
-618.4646965257409
 30
0.0
 11
832.1947558718109
 21
-618.4646965257409
 31
0.0
  0
LINE
  5
322
330
1F
100
AcDbEntity
  8
ハッチ
  6
Continuous
 62
     6
370
     9
100
AcDbLine
 10
626.9946609319528
 20
-518.4646965257408
 30
0.0
 11
726.9946609319526
 21
-518.4646965257408
 31
0.0
  0
LINE
  5
323
330
1F
100
AcDbEntity
  8
ハッチ
  6
Continuous
 62
     6
370
     9
100
AcDbLine
 10
726.9946609319526
 20
-518.4646965257408
 30
0.0
 11
832.1947558718109
 21
-518.4646965257408
 31
0.0
  0
LINE
  5
324
330
1F
100
AcDbEntity
  8
ハッチ
  6
Continuous
 62
     6
370
     9
100
AcDbLine
 10
626.9946609319528
 20
-554.8448793638904
 30
0.0
 11
663.3748437701021
 21
-518.4646965257408
 31
0.0
  0
LINE
  5
325
330
1F
100
AcDbEntity
  8
ハッチ
  6
Continuous
 62
     6
370
     9
100
AcDbLine
 10
626.9946609319528
 20
-561.9159471757552
 30
0.0
 11
670.4459115819691
 21
-518.4646965257408
 31
0.0
  0
LINE
  5
326
330
1F
100
AcDbEntity
  8
ハッチ
  6
Continuous
 62
     6
370
     9
100
AcDbLine
 10
626.9946609319528
 20
-568.9870149876194
 30
0.0
 11
677.5169793938334
 21
-518.4646965257408
 31
0.0
  0
LINE
  5
327
330
1F
100
AcDbEntity
  8
ハッチ
  6
Continuous
 62
     6
370
     9
100
AcDbLine
 10
809.6282493523445
 20
-518.4646965257408
 30
0.0
 11
751.8932224333819
 21
-618.4646965257409
 31
0.0
  0
LINE
  5
328
330
1F
100
AcDbEntity
  8
ハッチ
  6
Continuous
 62
     6
370
     9
100
AcDbLine
 10
792.5808306535212
 20
-518.4646965257408
 30
0.0
 11
801.1045400029328
 21
-533.2281941878718
 31
0.0
  0
LINE
  5
329
330
1F
100
AcDbEntity
  8
ハッチ
  6
Continuous
 62
     6
370
     9
100
AcDbLine
 10
760.4169317827937
 20
-603.7011988636099
 30
0.0
 11
768.9406411322055
 21
-618.4646965257409
 31
0.0
  0
LINE
  5
32A
330
1F
100
AcDbEntity
  8
ハッチ
  6
Continuous
 62
     6
370
     9
100
AcDbLine
 10
741.2787029939468
 20
-518.4646965257408
 30
0.0
 11
749.8024123433585
 21
-533.2281941878718
 31
0.0
  0
LINE
  5
32B
330
1F
100
AcDbEntity
  8
ハッチ
  6
Continuous
 62
     6
370
     9
100
AcDbLine
 10
758.3261216927701
 20
-518.4646965257408
 30
0.0
 11
726.9946609319526
 21
-572.7323784388275
 31
0.0
  0
LINE
  5
32C
330
1F
100
AcDbEntity
  8
ハッチ
  6
Continuous
 62
     6
370
     9
100
AcDbLine
 10
832.1947558718109
 20
-568.236252327458
 30
0.0
 11
803.1953500929562
 21
-618.4646965257409
 31
0.0
  0
LINE
  5
32D
330
1F
100
AcDbEntity
  8
ハッチ
  6
Continuous
 62
     6
370
     9
100
AcDbLine
 10
811.719059442368
 20
-603.7011988636099
 30
0.0
 11
820.2427687917799
 21
-618.4646965257409
 31
0.0
  0
CIRCLE
  5
32E
330
1F
100
AcDbEntity
  8
0-E
  6
Continuous
 62
     7
370
     9
100
AcDbCircle
 10
654.7682606091812
 20
-501.2735340610037
 30
0.0
 40
0.5
  0
CIRCLE
  5
32F
330
1F
100
AcDbEntity
  8
0-E
  6
Continuous
 62
     7
370
     9
100
AcDbCircle
 10
646.8905616336099
 20
-492.0643930050542
 30
0.0
 40
0.5
  0
CIRCLE
  5
330
330
1F
100
AcDbEntity
  8
0-E
  6
Continuous
 62
     7
370
     9
100
AcDbCircle
 10
632.4666057628455
 20
-510.0388610901607
 30
0.0
 40
0.5
  0
CIRCLE
  5
331
330
1F
100
AcDbEntity
  8
0-E
  6
Continuous
 62
     7
370
     9
100
AcDbCircle
 10
639.3457231781331
 20
-502.604976141382
 30
0.0
 40
0.5
  0
CIRCLE
  5
332
330
1F
100
AcDbEntity
  8
0-E
  6
Continuous
 62
     7
370
     9
100
AcDbCircle
 10
681.286148710048
 20
-506.5993023825167
 30
0.0
 40
0.5
  0
CIRCLE
  5
333
330
1F
100
AcDbEntity
  8
0-E
  6
Continuous
 62
     7
370
     9
100
AcDbCircle
 10
666.0855182923965
 20
-504.8240462753458
 30
0.0
 40
0.5
  0
CIRCLE
  5
334
330
1F
100
AcDbEntity
  8
0-E
  6
Continuous
 62
     7
370
     9
100
AcDbCircle
 10
650.7739343680464
 20
-512.701745250917
 30
0.0
 40
0.5
  0
CIRCLE
  5
335
330
1F
100
AcDbEntity
  8
0-E
  6
Continuous
 62
     7
370
     9
100
AcDbCircle
 10
714.1283866927115
 20
-506.3773953691204
 30
0.0
 40
0.5
  0
CIRCLE
  5
336
330
1F
100
AcDbEntity
  8
0-E
  6
Continuous
 62
     7
370
     9
100
AcDbCircle
 10
700.9249193956273
 20
-510.5936286236515
 30
0.0
 40
0.5
  0
LINE
  5
337
330
1F
100
AcDbEntity
  8
ハッチ
  6
Continuous
 62
     6
370
     9
100
AcDbLine
 10
726.9946609319526
 20
-518.4646965257408
 30
0.0
 11
726.9946609319526
 21
-455.4647097225313
 31
0.0
  0
LINE
  5
338
330
1F
100
AcDbEntity
  8
ハッチ
  6
Continuous
 62
     6
370
     9
100
AcDbLine
 10
726.9946609319526
 20
-518.0271273417098
 30
0.0
 11
789.557078551131
 21
-455.4647097225313
 31
0.0
  0
LINE
  5
339
330
1F
100
AcDbEntity
  8
ハッチ
  6
Continuous
 62
     6
370
     9
100
AcDbLine
 10
733.6281595597851
 20
-518.4646965257408
 30
0.0
 11
796.6281463629977
 21
-455.4647097225313
 31
0.0
  0
LINE
  5
33A
330
1F
100
AcDbEntity
  8
ハッチ
  6
Continuous
 62
     6
370
     9
100
AcDbLine
 10
740.6992273716497
 20
-518.4646965257408
 30
0.0
 11
803.6992141748619
 21
-455.4647097225313
 31
0.0
  0
CIRCLE
  5
33B
330
1F
100
AcDbEntity
  8
0-E
  6
Continuous
 62
     7
370
     9
100
AcDbCircle
 10
790.3383601983076
 20
-451.9413947594572
 30
0.0
 40
0.5
  0
CIRCLE
  5
33C
330
1F
100
AcDbEntity
  8
0-E
  6
Continuous
 62
     7
370
     9
100
AcDbCircle
 10
738.4121190635558
 20
-451.0537667058718
 30
0.0
 40
0.5
  0
CIRCLE
  5
33D
330
1F
100
AcDbEntity
  8
0-E
  6
Continuous
 62
     7
370
     9
100
AcDbCircle
 10
771.8091245797106
 20
-450.609952679079
 30
0.0
 40
0.5
  0
CIRCLE
  5
33E
330
1F
100
AcDbEntity
  8
0-E
  6
Continuous
 62
     7
370
     9
100
AcDbCircle
 10
753.9456100013022
 20
-452.2742552795519
 30
0.0
 40
0.5
  0
CIRCLE
  5
33F
330
1F
100
AcDbEntity
  8
0-E
  6
Continuous
 62
     7
370
     9
100
AcDbCircle
 10
814.8590851786072
 20
-452.1633017728536
 30
0.0
 40
0.5
  0
LINE
  5
340
330
1F
100
AcDbEntity
  8
ハッチ
  6
Continuous
 62
     6
370
     9
100
AcDbLine
 10
626.9946609319528
 20
-469.4646569353692
 30
0.0
 11
626.9946609319528
 21
-658.4646721941584
 31
0.0
  0
LINE
  5
341
330
1F
100
AcDbEntity
  8
ハッチ
  6
Continuous
 62
     6
370
     9
100
AcDbLine
 10
648.6368639318982
 20
-658.4646721941584
 30
0.0
 11
726.9946609319526
 21
-580.1068751941036
 31
0.0
  0
LINE
  5
342
330
1F
100
AcDbEntity
  8
ハッチ
  6
Continuous
 62
     6
370
     9
100
AcDbLine
 10
655.7079317437581
 20
-658.4646721941584
 30
0.0
 11
726.9946609319526
 21
-587.1779430059671
 31
0.0
  0
LINE
  5
343
330
1F
100
AcDbEntity
  8
ハッチ
  6
Continuous
 62
     6
370
     9
100
AcDbLine
 10
662.7789995556229
 20
-658.4646721941584
 30
0.0
 11
726.9946609319526
 21
-594.2490108178315
 31
0.0
  0
LINE
  5
344
330
1F
100
AcDbEntity
  8
ハッチ
  6
Continuous
 62
     6
370
     9
100
AcDbLine
 10
726.9946609319526
 20
-518.4646965257408
 30
0.0
 11
726.9946609319526
 21
-658.4646721941584
 31
0.0
  0
LINE
  5
345
330
1F
100
AcDbEntity
  8
ハッチ
  6
JWW_CENTER2
 62
     6
370
     9
100
AcDbLine
 10
689.9531521284562
 20
-461.2716656786554
 30
0.0
 11
689.9531521284562
 21
-541.1312004319909
 31
0.0
  0
LINE
  5
346
330
1F
100
AcDbEntity
  8
ハッチ
  6
Continuous
 62
     6
370
     9
100
AcDbLine
 10
694.4531979048234
 20
-469.9643860918634
 30
0.0
 11
694.4531979048234
 21
-462.9643860918634
 31
0.0
  0
LINE
  5
347
330
1F
100
AcDbEntity
  8
ハッチ
  6
Continuous
 62
     6
370
     9
100
AcDbLine
 10
694.4531979048234
 20
-518.4646965257408
 30
0.0
 11
694.4531979048234
 21
-475.7643929583184
 31
0.0
  0
LINE
  5
348
330
1F
100
AcDbEntity
  8
ハッチ
  6
Continuous
 62
     6
370
     9
100
AcDbLine
 10
685.453106352089
 20
-518.4646965257408
 30
0.0
 11
685.453106352089
 21
-475.7643929583184
 31
0.0
  0
LINE
  5
349
330
1F
100
AcDbEntity
  8
ハッチ
  6
JWW_DASHED3
 62
     6
370
     9
100
AcDbLine
 10
685.453106352089
 20
-541.1312004319909
 30
0.0
 11
685.453106352089
 21
-518.4646965257408
 31
0.0
  0
LINE
  5
34A
330
1F
100
AcDbEntity
  8
ハッチ
  6
JWW_DASHED3
 62
     6
370
     9
100
AcDbLine
 10
694.4531979048234
 20
-518.4646965257408
 30
0.0
 11
694.4531979048234
 21
-541.1312004319909
 31
0.0
  0
LWPOLYLINE
  5
34B
330
1F
100
AcDbEntity
  8
その他
  6
Continuous
 62
     7
370
     9
100
AcDbPolyline
 90
        4
 70
     1
 43
0.6000000000000001
 10
627.2946609319528
 20
-565.7125437687798
 42
0.4142135623731
 10
626.9946609319528
 20
-565.4125437687798
 42
0.4142135623731
 10
626.6946609319529
 20
-565.7125437687798
 42
0.4142135623731
 10
626.9946609319528
 20
-566.0125437687798
 42
0.4142135623731
  0
LINE
  5
34C
330
1F
100
AcDbEntity
  8
その他
  6
Continuous
 62
     7
370
     9
100
AcDbLine
 10
626.9946609319528
 20
-565.7125437687798
 30
0.0
 11
677.994631239174
 21
-565.7125437687798
 31
0.0
  0
LWPOLYLINE
  5
34D
330
1F
100
AcDbEntity
  8
その他
  6
Continuous
 62
     7
370
     9
100
AcDbPolyline
 90
        4
 70
     1
 43
0.6000000000000001
 10
678.294631239174
 20
-565.7125437687798
 42
0.4142135623731
 10
677.994631239174
 20
-565.4125437687798
 42
0.4142135623731
 10
677.6946312391741
 20
-565.7125437687798
 42
0.4142135623731
 10
677.994631239174
 20
-566.0125437687798
 42
0.4142135623731
  0
TEXT
  5
34E
330
1F
100
AcDbEntity
  8
その他
  6
Continuous
 62
     2
370
   211
100
AcDbText
 10
646.1196460855634
 20
-562.2205437687796
 30
0.0
 40
9.144
  1
51
 41
1.0625
  7
ＭＳ ゴシック
100
AcDbText
  0
LINE
  5
34F
330
1F
100
AcDbEntity
  8
その他
  6
Continuous
 62
     7
370
     9
100
AcDbLine
 10
677.994631239174
 20
-565.7125437687798
 30
0.0
 11
706.9946698629838
 21
-565.7125437687798
 31
0.0
  0
LWPOLYLINE
  5
350
330
1F
100
AcDbEntity
  8
その他
  6
Continuous
 62
     7
370
     9
100
AcDbPolyline
 90
        4
 70
     1
 43
0.6000000000000001
 10
707.2946698629837
 20
-565.7125437687798
 42
0.4142135623731
 10
706.9946698629838
 20
-565.4125437687798
 42
0.4142135623731
 10
706.6946698629838
 20
-565.7125437687798
 42
0.4142135623731
 10
706.9946698629838
 20
-566.0125437687798
 42
0.4142135623731
  0
LINE
  5
351
330
1F
100
AcDbEntity
  8
その他
  6
Continuous
 62
     7
370
     9
100
AcDbLine
 10
706.9946698629838
 20
-566.6125437687797
 30
0.0
 11
706.9946698629838
 21
-478.7643796068781
 31
0.0
  0
TEXT
  5
352
330
1F
100
AcDbEntity
  8
その他
  6
Continuous
 62
     2
370
   211
100
AcDbText
 10
686.1196505510788
 20
-562.2205437687796
 30
0.0
 40
9.144
  1
29
 41
1.0625
  7
ＭＳ ゴシック
100
AcDbText
  0
LINE
  5
353
330
1F
100
AcDbEntity
  8
ハッチ
  6
Continuous
 62
     6
370
     9
100
AcDbLine
 10
677.994631239174
 20
-455.4647097225313
 30
0.0
 11
832.1947245294333
 21
-455.4647097225313
 31
0.0
  0
LINE
  5
354
330
1F
100
AcDbEntity
  8
仕上
  6
Continuous
 62
     3
370
     9
100
AcDbLine
 10
664.9947863014629
 20
-441.464577754626
 30
0.0
 11
138.9947830022655
 21
-441.464577754626
 31
0.0
  0
LINE
  5
355
330
1F
100
AcDbEntity
  8
仕上
  6
Continuous
 62
     3
370
     9
100
AcDbLine
 10
661.9948258918346
 20
-366.464577754626
 30
0.0
 11
661.9948258918346
 21
-441.464577754626
 31
0.0
  0
LINE
  5
356
330
1F
100
AcDbEntity
  8
仕上
  6
Continuous
 62
     3
370
     9
100
AcDbLine
 10
664.9947863014629
 20
-366.464577754626
 30
0.0
 11
664.9947863014629
 21
-444.4645381642548
 31
0.0
  0
LINE
  5
357
330
1F
100
AcDbEntity
  8
仕上
  6
Continuous
 62
     3
370
     9
100
AcDbLine
 10
671.9947599078821
 20
-460.4645909514168
 30
0.0
 11
131.9947599078822
 21
-460.4645909514168
 31
0.0
  0
LINE
  5
358
330
1F
100
AcDbEntity
  8
仕上
  6
Continuous
 62
     3
370
     9
100
AcDbLine
 10
671.9947599078821
 20
-444.4645381642548
 30
0.0
 11
131.9947599078822
 21
-444.4645381642548
 31
0.0
  0
LINE
  5
359
330
1F
100
AcDbEntity
  8
仕上
  6
Continuous
 62
     3
370
     9
100
AcDbLine
 10
671.9947599078821
 20
-444.4645381642548
 30
0.0
 11
671.9947599078821
 21
-460.4645909514168
 31
0.0
  0
CIRCLE
  5
35A
330
1F
100
AcDbEntity
  8
0-E
  6
Continuous
 62
     7
370
     9
100
AcDbCircle
 10
639.002877561303
 20
-439.5698788160529
 30
0.0
 40
0.5
  0
CIRCLE
  5
35B
330
1F
100
AcDbEntity
  8
0-E
  6
Continuous
 62
     7
370
     9
100
AcDbCircle
 10
646.2610483851881
 20
-431.9605061781089
 30
0.0
 40
0.5
  0
CIRCLE
  5
35C
330
1F
100
AcDbEntity
  8
0-E
  6
Continuous
 62
     7
370
     9
100
AcDbCircle
 10
656.7971028069569
 20
-438.1650715598171
 30
0.0
 40
0.5
  0
CIRCLE
  5
35D
330
1F
100
AcDbEntity
  8
0-E
  6
Continuous
 62
     7
370
     9
100
AcDbCircle
 10
659.2555155053694
 20
-426.8095462385775
 30
0.0
 40
0.5
  0
LWPOLYLINE
  5
35E
330
1F
100
AcDbEntity
  8
その他
  6
Continuous
 62
     7
370
     9
100
AcDbPolyline
 90
        4
 70
     1
 43
0.6000000000000001
 10
662.2948258918345
 20
-317.3253648734422
 42
0.4142135623731
 10
661.9948258918346
 20
-317.0253648734422
 42
0.4142135623731
 10
661.6948258918346
 20
-317.3253648734422
 42
0.4142135623731
 10
661.9948258918346
 20
-317.6253648734422
 42
0.4142135623731
  0
LINE
  5
35F
330
1F
100
AcDbEntity
  8
その他
  6
Continuous
 62
     7
370
     9
100
AcDbLine
 10
661.9948258918346
 20
-316.4253648734422
 30
0.0
 11
661.9948258918346
 21
-360.4646965257409
 31
0.0
  0
LINE
  5
360
330
1F
100
AcDbEntity
  8
その他
  6
Continuous
 62
     7
370
     9
100
AcDbLine
 10
176.9947912502591
 20
-565.7125437687798
 30
0.0
 11
626.9946609319528
 21
-565.7125437687798
 31
0.0
  0
TEXT
  5
361
330
1F
100
AcDbEntity
  8
その他
  6
Continuous
 62
     2
370
   211
100
AcDbText
 10
392.244726091106
 20
-562.2205437687796
 30
0.0
 40
9.144
  1
450
 41
1.083333333333333
  7
ＭＳ ゴシック
100
AcDbText
  0
LINE
  5
362
330
1F
100
AcDbEntity
  8
その他
  6
Continuous
 62
     7
370
     9
100
AcDbLine
 10
141.9947434118938
 20
-317.3253648734422
 30
0.0
 11
661.9948258918346
 21
-317.3253648734422
 31
0.0
  0
TEXT
  5
363
330
1F
100
AcDbEntity
  8
その他
  6
Continuous
 62
     2
370
   211
100
AcDbText
 10
392.2447846518642
 20
-313.8333648734422
 30
0.0
 40
9.144
  1
520
 41
1.083333333333333
  7
ＭＳ ゴシック
100
AcDbText
  0
LINE
  5
364
330
1F
100
AcDbEntity
  8
その他
  6
Continuous
 62
     7
370
     9
100
AcDbLine
 10
671.994784651864
 20
-276.7423136345413
 30
0.0
 11
131.9947351638993
 21
-276.7423136345413
 31
0.0
  0
TEXT
  5
365
330
1F
100
AcDbEntity
  8
その他
  6
Continuous
 62
     2
370
   211
100
AcDbText
 10
392.2447599078817
 20
-273.2503136345415
 30
0.0
 40
9.144
  1
540
 41
1.083333333333333
  7
ＭＳ ゴシック
100
AcDbText
  0
LINE
  5
366
330
1F
100
AcDbEntity
  8
その他
  6
Continuous
 62
     7
370
     9
100
AcDbLine
 10
125.9947714550735
 20
-236.1062314219563
 30
0.0
 11
677.994631239174
 21
-236.1062314219563
 31
0.0
  0
TEXT
  5
367
330
1F
100
AcDbEntity
  8
その他
  6
Continuous
 62
     2
370
   211
100
AcDbText
 10
392.2447013471238
 20
-232.6142314219563
 30
0.0
 40
9.144
  1
552
 41
1.083333333333333
  7
ＭＳ ゴシック
100
AcDbText
  0
LINE
  5
368
330
1F
100
AcDbEntity
  8
0-E
  6
Continuous
 62
     2
370
     9
100
AcDbLine
 10
572.9947846518642
 20
-365.4647097225313
 30
0.0
 11
572.9947846518642
 21
-425.4647097225313
 31
0.0
  0
CIRCLE
  5
369
330
1F
100
AcDbEntity
  8
0-E
  6
Continuous
 62
     7
370
     9
100
AcDbCircle
 10
466.0152287845582
 20
-427.1087318145952
 30
0.0
 40
0.5
  0
LINE
  5
36A
330
1F
100
AcDbEntity
  8
0-E
  6
Continuous
 62
     2
370
     9
100
AcDbLine
 10
233.9947846518645
 20
-365.4647097225313
 30
0.0
 11
233.9947846518645
 21
-425.4647097225313
 31
0.0
  0
LINE
  5
36B
330
1F
100
AcDbEntity
  8
0-E
  6
Continuous
 62
     2
370
     9
100
AcDbLine
 10
240.3033784018643
 20
-425.4647097225313
 30
0.0
 11
300.3033745871672
 21
-365.4647097225308
 31
0.0
  0
LINE
  5
36C
330
1F
100
AcDbEntity
  8
0-E
  6
Continuous
 62
     2
370
     9
100
AcDbLine
 10
268.5876496420988
 20
-425.4647097225313
 30
0.0
 11
328.5876458274014
 21
-365.4647097225331
 31
0.0
  0
LINE
  5
36D
330
1F
100
AcDbEntity
  8
0-E
  6
Continuous
 62
     2
370
     9
100
AcDbLine
 10
296.8719170676359
 20
-425.4647097225313
 30
0.0
 11
343.9947846518643
 21
-378.3418421383028
 31
0.0
  0
LINE
  5
36E
330
1F
100
AcDbEntity
  8
0-E
  6
Continuous
 62
     2
370
     9
100
AcDbLine
 10
325.1561883078704
 20
-425.4647097225313
 30
0.0
 11
343.9947846518643
 21
-406.6261133785371
 31
0.0
  0
LINE
  5
36F
330
1F
100
AcDbEntity
  8
0-E
  6
Continuous
 62
     2
370
     9
100
AcDbLine
 10
343.9947846518643
 20
-365.4647097225313
 30
0.0
 11
343.9947846518643
 21
-425.4647097225313
 31
0.0
  0
LINE
  5
370
330
1F
100
AcDbEntity
  8
0-E
  6
Continuous
 62
     2
370
     9
100
AcDbLine
 10
233.9947846518645
 20
-365.4647097225313
 30
0.0
 11
343.9947846518643
 21
-365.4647097225313
 31
0.0
  0
LINE
  5
371
330
1F
100
AcDbEntity
  8
0-E
  6
Continuous
 62
     2
370
     9
100
AcDbLine
 10
233.9947846518645
 20
-425.4647097225313
 30
0.0
 11
343.9947846518643
 21
-425.4647097225313
 31
0.0
  0
LINE
  5
372
330
1F
100
AcDbEntity
  8
0-E
  6
Continuous
 62
     2
370
     9
100
AcDbLine
 10
346.9947846518644
 20
-365.4647097225313
 30
0.0
 11
346.9947846518644
 21
-425.4647097225313
 31
0.0
  0
LINE
  5
373
330
1F
100
AcDbEntity
  8
0-E
  6
Continuous
 62
     2
370
     9
100
AcDbLine
 10
346.9947846518644
 20
-375.2047571773652
 30
0.0
 11
356.7348359213956
 21
-365.4647097225337
 31
0.0
  0
LINE
  5
374
330
1F
100
AcDbEntity
  8
0-E
  6
Continuous
 62
     2
370
     9
100
AcDbLine
 10
346.9947846518644
 20
-403.4890284175997
 30
0.0
 11
385.0191071616301
 21
-365.4647097225334
 31
0.0
  0
LINE
  5
375
330
1F
100
AcDbEntity
  8
0-E
  6
Continuous
 62
     2
370
     9
100
AcDbLine
 10
353.3033784018643
 20
-425.4647097225313
 30
0.0
 11
413.3033745871672
 21
-365.4647097225308
 31
0.0
  0
LINE
  5
376
330
1F
100
AcDbEntity
  8
0-E
  6
Continuous
 62
     2
370
     9
100
AcDbLine
 10
381.5876496420988
 20
-425.4647097225313
 30
0.0
 11
441.5876458274014
 21
-365.4647097225331
 31
0.0
  0
LINE
  5
377
330
1F
100
AcDbEntity
  8
0-E
  6
Continuous
 62
     2
370
     9
100
AcDbLine
 10
409.8719170676359
 20
-425.4647097225313
 30
0.0
 11
456.9947846518643
 21
-378.3418421383028
 31
0.0
  0
LINE
  5
378
330
1F
100
AcDbEntity
  8
0-E
  6
Continuous
 62
     2
370
     9
100
AcDbLine
 10
438.1561883078704
 20
-425.4647097225313
 30
0.0
 11
456.9947846518643
 21
-406.6261133785371
 31
0.0
  0
LINE
  5
379
330
1F
100
AcDbEntity
  8
0-E
  6
Continuous
 62
     2
370
     9
100
AcDbLine
 10
456.9947846518643
 20
-365.4647097225313
 30
0.0
 11
456.9947846518643
 21
-425.4647097225313
 31
0.0
  0
LINE
  5
37A
330
1F
100
AcDbEntity
  8
0-E
  6
Continuous
 62
     2
370
     9
100
AcDbLine
 10
346.9947846518644
 20
-365.4647097225313
 30
0.0
 11
456.9947846518643
 21
-365.4647097225313
 31
0.0
  0
LINE
  5
37B
330
1F
100
AcDbEntity
  8
0-E
  6
Continuous
 62
     2
370
     9
100
AcDbLine
 10
346.9947846518644
 20
-425.4647097225313
 30
0.0
 11
456.9947846518643
 21
-425.4647097225313
 31
0.0
  0
LINE
  5
37C
330
1F
100
AcDbEntity
  8
0-E
  6
Continuous
 62
     2
370
     9
100
AcDbLine
 10
459.9947846518644
 20
-365.4647097225313
 30
0.0
 11
459.9947846518644
 21
-425.4647097225313
 31
0.0
  0
LINE
  5
37D
330
1F
100
AcDbEntity
  8
0-E
  6
Continuous
 62
     2
370
     9
100
AcDbLine
 10
459.9947846518644
 20
-375.2047571773652
 30
0.0
 11
469.7348359213956
 21
-365.4647097225337
 31
0.0
  0
LINE
  5
37E
330
1F
100
AcDbEntity
  8
0-E
  6
Continuous
 62
     2
370
     9
100
AcDbLine
 10
459.9947846518644
 20
-403.4890284175997
 30
0.0
 11
498.01910716163
 21
-365.4647097225334
 31
0.0
  0
LINE
  5
37F
330
1F
100
AcDbEntity
  8
0-E
  6
Continuous
 62
     2
370
     9
100
AcDbLine
 10
466.3033784018643
 20
-425.4647097225313
 30
0.0
 11
526.3033745871671
 21
-365.4647097225308
 31
0.0
  0
LINE
  5
380
330
1F
100
AcDbEntity
  8
0-E
  6
Continuous
 62
     2
370
     9
100
AcDbLine
 10
494.5876496420988
 20
-425.4647097225313
 30
0.0
 11
554.5876458274014
 21
-365.4647097225331
 31
0.0
  0
LINE
  5
381
330
1F
100
AcDbEntity
  8
0-E
  6
Continuous
 62
     2
370
     9
100
AcDbLine
 10
569.9947846518642
 20
-365.4647097225313
 30
0.0
 11
569.9947846518642
 21
-425.4647097225313
 31
0.0
  0
LINE
  5
382
330
1F
100
AcDbEntity
  8
0-E
  6
Continuous
 62
     2
370
     9
100
AcDbLine
 10
459.9947846518644
 20
-365.4647097225313
 30
0.0
 11
569.9947846518642
 21
-365.4647097225313
 31
0.0
  0
LINE
  5
383
330
1F
100
AcDbEntity
  8
0-E
  6
Continuous
 62
     2
370
     9
100
AcDbLine
 10
459.9947846518644
 20
-425.4647097225313
 30
0.0
 11
569.9947846518642
 21
-425.4647097225313
 31
0.0
  0
LINE
  5
384
330
1F
100
AcDbEntity
  8
0-E
  6
Continuous
 62
     2
370
     9
100
AcDbLine
 10
230.9947846518643
 20
-365.4647097225313
 30
0.0
 11
230.9947846518643
 21
-425.4647097225313
 31
0.0
  0
LINE
  5
385
330
1F
100
AcDbEntity
  8
0-E
  6
Continuous
 62
     2
370
     9
100
AcDbLine
 10
522.8719170676359
 20
-425.4647097225313
 30
0.0
 11
569.9947846518642
 21
-378.3418421383028
 31
0.0
  0
LINE
  5
386
330
1F
100
AcDbEntity
  8
0-E
  6
Continuous
 62
     2
370
     9
100
AcDbLine
 10
572.9947846518642
 20
-375.3418421383028
 30
0.0
 11
582.8719170676356
 21
-365.4647097225313
 31
0.0
  0
LINE
  5
387
330
1F
100
AcDbEntity
  8
0-E
  6
Continuous
 62
     2
370
     9
100
AcDbLine
 10
551.1561883078704
 20
-425.4647097225313
 30
0.0
 11
569.9947846518642
 21
-406.6261133785371
 31
0.0
  0
LINE
  5
388
330
1F
100
AcDbEntity
  8
0-E
  6
Continuous
 62
     2
370
     9
100
AcDbLine
 10
579.440459548104
 20
-425.4647097225313
 30
0.0
 11
639.4404595481027
 21
-365.4647097225313
 31
0.0
  0
LINE
  5
389
330
1F
100
AcDbEntity
  8
0-E
  6
Continuous
 62
     2
370
     9
100
AcDbLine
 10
572.9947846518642
 20
-403.626113378537
 30
0.0
 11
611.1561883078691
 21
-365.4647097225313
 31
0.0
  0
LINE
  5
38A
330
1F
100
AcDbEntity
  8
0-E
  6
Continuous
 62
     2
370
     9
100
AcDbLine
 10
183.7348124223354
 20
-425.4647097225313
 30
0.0
 11
230.9947846518643
 21
-378.2047560024126
 31
0.0
  0
LINE
  5
38B
330
1F
100
AcDbEntity
  8
0-E
  6
Continuous
 62
     2
370
     9
100
AcDbLine
 10
233.9947846518645
 20
-375.2047571773652
 30
0.0
 11
243.7348359213957
 21
-365.4647097225337
 31
0.0
  0
LINE
  5
38C
330
1F
100
AcDbEntity
  8
0-E
  6
Continuous
 62
     2
370
     9
100
AcDbLine
 10
212.0191011422749
 20
-425.4647097225313
 30
0.0
 11
230.9947846518643
 21
-406.489028116632
 31
0.0
  0
LINE
  5
38D
330
1F
100
AcDbEntity
  8
0-E
  6
Continuous
 62
     2
370
     9
100
AcDbLine
 10
233.9947846518645
 20
-403.4890284175997
 30
0.0
 11
272.0191071616301
 21
-365.4647097225334
 31
0.0
  0
LINE
  5
38E
330
1F
100
AcDbEntity
  8
0-E
  6
Continuous
 62
     2
370
     9
100
AcDbLine
 10
155.4505237023959
 20
-425.4647097225313
 30
0.0
 11
215.4505472014585
 21
-365.4647097225313
 31
0.0
  0
TEXT
  5
38F
330
1F
100
AcDbEntity
  8
寸法
  6
Continuous
 62
     2
370
     9
100
AcDbText
 10
321.7527526755464
 20
-721.7748785471184
 30
0.0
 40
9.144
  1
Ｂ－Ｂ断面図　Ｓ＝１：３
 41
1.114583333333333
  7
ＭＳ ゴシック
100
AcDbText
  0
LINE
  5
390
330
1F
100
AcDbEntity
  8
寸法
  6
Continuous
 62
     7
370
     9
100
AcDbLine
 10
320.6839225521777
 20
-727.4234789564821
 30
0.0
 11
483.297503045594
 21
-727.4234789564821
 31
0.0
  0
TEXT
  5
391
330
1F
100
AcDbEntity
  8
寸法
  6
Continuous
 62
     2
370
     9
100
AcDbText
 10
362.2407127988859
 20
-745.4541510901366
 30
0.0
 40
9.144
  1
（納まり図）
 41
1.104166666666666
  7
ＭＳ ゴシック
100
AcDbText
  0
TEXT
  5
392
330
1F
100
AcDbEntity
  8
F-5ﾚｲﾔ
  6
Continuous
 62
     2
370
     0
100
AcDbText
 10
207.7499994283478
 20
-810.030926159753
 30
0.0
 40
9.144
  1
ステンレス製蓋　集水桝用　インターロッキングブロック用　充填深さ６５ｍｍ ＳＵＩＷ－Ｍ－４５０
 41
0.8994623655913976
  7
ＭＳ ゴシック
100
AcDbText
  0
CIRCLE
  5
393
330
1F
100
AcDbEntity
  8
0-E
  6
Continuous
 62
     7
370
     9
100
AcDbCircle
 10
462.8864799360696
 20
-438.2466165908668
 30
0.0
 40
0.5
  0
CIRCLE
  5
394
330
1F
100
AcDbEntity
  8
0-E
  6
Continuous
 62
     7
370
     9
100
AcDbCircle
 10
452.4701534054574
 20
-433.2180451622953
 30
0.0
 40
0.5
  0
CIRCLE
  5
395
330
1F
100
AcDbEntity
  8
0-E
  6
Continuous
 62
     7
370
     9
100
AcDbCircle
 10
479.4089289156615
 20
-435.732330876581
 30
0.0
 40
0.5
  0
CIRCLE
  5
396
330
1F
100
AcDbEntity
  8
0-E
  6
Continuous
 62
     7
370
     9
100
AcDbCircle
 10
482.2823983034166
 20
-431.062943121479
 30
0.0
 40
0.5
  0
CIRCLE
  5
397
330
1F
100
AcDbEntity
  8
0-E
  6
Continuous
 62
     7
370
     9
100
AcDbCircle
 10
494.4946432013758
 20
-437.1690655704585
 30
0.0
 40
0.5
  0
CIRCLE
  5
398
330
1F
100
AcDbEntity
  8
0-E
  6
Continuous
 62
     7
370
     9
100
AcDbCircle
 10
521.0742350381105
 20
-433.9364125092341
 30
0.0
 40
0.5
  0
CIRCLE
  5
399
330
1F
100
AcDbEntity
  8
0-E
  6
Continuous
 62
     7
370
     9
100
AcDbCircle
 10
514.6089289156615
 20
-429.2670247541321
 30
0.0
 40
0.5
  0
CIRCLE
  5
39A
330
1F
100
AcDbEntity
  8
0-E
  6
Continuous
 62
     7
370
     9
100
AcDbCircle
 10
533.645663609539
 20
-430.3445757745402
 30
0.0
 40
0.5
  0
CIRCLE
  5
39B
330
1F
100
AcDbEntity
  8
0-E
  6
Continuous
 62
     7
370
     9
100
AcDbCircle
 10
530.0538268748452
 20
-438.2466165908668
 30
0.0
 40
0.5
  0
CIRCLE
  5
39C
330
1F
100
AcDbEntity
  8
0-E
  6
Continuous
 62
     7
370
     9
100
AcDbCircle
 10
545.1395411605595
 20
-429.9853921010708
 30
0.0
 40
0.5
  0
CIRCLE
  5
39D
330
1F
100
AcDbEntity
  8
0-E
  6
Continuous
 62
     7
370
     9
100
AcDbCircle
 10
555.5558676911717
 20
-429.2670247541321
 30
0.0
 40
0.5
  0
CIRCLE
  5
39E
330
1F
100
AcDbEntity
  8
0-E
  6
Continuous
 62
     7
370
     9
100
AcDbCircle
 10
554.4783166707635
 20
-438.9649839378055
 30
0.0
 40
0.5
  0
CIRCLE
  5
39F
330
1F
100
AcDbEntity
  8
0-E
  6
Continuous
 62
     7
370
     9
100
AcDbCircle
 10
566.6905615687227
 20
-437.1690655704585
 30
0.0
 40
0.5
  0
CIRCLE
  5
3A0
330
1F
100
AcDbEntity
  8
0-E
  6
Continuous
 62
     7
370
     9
100
AcDbCircle
 10
562.7395411605594
 20
-432.8588614888259
 30
0.0
 40
0.5
  0
CIRCLE
  5
3A1
330
1F
100
AcDbEntity
  8
0-E
  6
Continuous
 62
     7
370
     9
100
AcDbCircle
 10
581.0579085074983
 20
-432.1404941418871
 30
0.0
 40
0.5
  0
CIRCLE
  5
3A2
330
1F
100
AcDbEntity
  8
0-E
  6
Continuous
 62
     7
370
     9
100
AcDbCircle
 10
587.1640309564779
 20
-437.1690655704585
 30
0.0
 40
0.5
  0
CIRCLE
  5
3A3
330
1F
100
AcDbEntity
  8
0-E
  6
Continuous
 62
     7
370
     9
100
AcDbCircle
 10
579.98035748709
 20
-438.2466165908668
 30
0.0
 40
0.5
  0
CIRCLE
  5
3A4
330
1F
100
AcDbEntity
  8
0-E
  6
Continuous
 62
     7
370
     9
100
AcDbCircle
 10
589.6783166707635
 20
-431.4221267949484
 30
0.0
 40
0.5
  0
CIRCLE
  5
3A5
330
1F
100
AcDbEntity
  8
0-E
  6
Continuous
 62
     7
370
     9
100
AcDbCircle
 10
599.0170921809677
 20
-435.732330876581
 30
0.0
 40
0.5
  0
CIRCLE
  5
3A6
330
1F
100
AcDbEntity
  8
0-E
  6
Continuous
 62
     7
370
     9
100
AcDbCircle
 10
160.0946432013758
 20
-431.062943121479
 30
0.0
 40
0.5
  0
TEXT
  5
3A7
330
1F
100
AcDbEntity
  8
F-Fﾚｲﾔ
  6
Continuous
 62
     3
370
     9
100
AcDbText
 10
168.0412407235577
 20
713.4534912507038
 30
0.0
 40
11.43
  1
ステンレス製 SUS304
 41
1.094736842105263
  7
ＭＳ ゴシック
100
AcDbText
  0
LINE
  5
3A8
330
1F
100
AcDbEntity
  8
仕上
  6
Continuous
 62
     3
370
     9
100
AcDbLine
 10
-414.9650924605435
 20
-30.96734323417661
 30
0.0
 11
-408.9651097813311
 21
-30.96734323417661
 31
0.0
  0
LINE
  5
3A9
330
1F
100
AcDbEntity
  8
仕上
  6
Continuous
 62
     3
370
     9
100
AcDbLine
 10
-388.9651180293252
 20
-30.96734323417661
 30
0.0
 11
-382.9651353501129
 21
-30.96734323417661
 31
0.0
  0
LINE
  5
3AA
330
1F
100
AcDbEntity
  8
仕上
  6
Continuous
 62
     3
370
     9
100
AcDbLine
 10
-888.9650850373487
 20
-30.96734323417661
 30
0.0
 11
-894.9650924605435
 21
-30.96734323417661
 31
0.0
  0
LINE
  5
3AB
330
1F
100
AcDbEntity
  8
仕上
  6
Continuous
 62
     3
370
     9
100
AcDbLine
 10
-862.9650858621478
 20
-30.96734323417661
 30
0.0
 11
-868.9650932853426
 21
-30.96734323417661
 31
0.0
  0
LINE
  5
3AC
330
1F
100
AcDbEntity
  8
仕上
  6
Continuous
 62
     3
370
     9
100
AcDbLine
 10
-388.9651180293252
 20
509.0327557417526
 30
0.0
 11
-382.9651353501129
 21
509.0327557417526
 31
0.0
  0
LINE
  5
3AD
330
1F
100
AcDbEntity
  8
仕上
  6
Continuous
 62
     3
370
     9
100
AcDbLine
 10
-414.9650924605435
 20
509.0327557417526
 30
0.0
 11
-408.9651097813311
 21
509.0327557417526
 31
0.0
  0
LINE
  5
3AE
330
1F
100
AcDbEntity
  8
仕上
  6
Continuous
 62
     3
370
     9
100
AcDbLine
 10
-862.9650858621478
 20
509.0327557417526
 30
0.0
 11
-868.9650932853426
 21
509.0327557417526
 31
0.0
  0
LINE
  5
3AF
330
1F
100
AcDbEntity
  8
仕上
  6
Continuous
 62
     3
370
     9
100
AcDbLine
 10
-888.9650850373487
 20
509.0327557417526
 30
0.0
 11
-894.9650924605435
 21
509.0327557417526
 31
0.0
  0
LINE
  5
3B0
330
1F
100
AcDbEntity
  8
0-7
  6
Continuous
 62
     2
370
     9
100
AcDbLine
 10
137.9948291910324
 20
-420.4644589835115
 30
0.0
 11
137.9948291910324
 21
-424.964498573883
 31
0.0
  0
LINE
  5
3B1
330
1F
100
AcDbEntity
  8
0-7
  6
Continuous
 62
     2
370
     9
100
AcDbLine
 10
138.9948819781945
 20
-438.9645447626502
 30
0.0
 11
138.9948819781945
 21
-443.9645117706735
 31
0.0
  0
LINE
  5
3B2
330
1F
100
AcDbEntity
  8
0-7
  6
Continuous
 62
     2
370
     9
100
AcDbLine
 10
138.9948819781945
 20
-419.964333614001
 30
0.0
 11
138.9948819781945
 21
-424.964498573883
 31
0.0
  0
LINE
  5
3B3
330
1F
100
AcDbEntity
  8
0-7
  6
Continuous
 62
     2
370
     9
100
AcDbLine
 10
137.9948291910324
 20
-438.9645447626502
 30
0.0
 11
137.9948291910324
 21
-443.4644853770927
 31
0.0
  0
LINE
  5
3B4
330
1F
100
AcDbEntity
  8
0-7
  6
Continuous
 62
     2
370
     9
100
AcDbLine
 10
137.9948291910324
 20
-438.9645447626502
 30
0.0
 11
138.9948819781945
 21
-438.9645447626502
 31
0.0
  0
LINE
  5
3B5
330
1F
100
AcDbEntity
  8
0-7
  6
Continuous
 62
     2
370
     9
100
AcDbLine
 10
137.9948291910324
 20
-424.964498573883
 30
0.0
 11
138.9948819781945
 21
-424.964498573883
 31
0.0
  0
ARC
  5
3B6
330
1F
100
AcDbEntity
  8
0-7
  6
Continuous
 62
     2
370
     9
100
AcDbCircle
 10
138.4948555846134
 20
-419.964333614001
 30
0.0
 40
0.4999999581156551
100
AcDbArc
 50
0.0
 51
90.0
  0
ARC
  5
3B7
330
1F
100
AcDbEntity
  8
0-7
  6
Continuous
 62
     2
370
     9
100
AcDbCircle
 10
138.4948555846134
 20
-443.9645117706735
 30
0.0
 40
0.4999999581156551
100
AcDbArc
 50
270.0
 51
0.0
  0
LINE
  5
3B8
330
1F
100
AcDbEntity
  8
0-7
  6
Continuous
 62
     2
370
     9
100
AcDbLine
 10
665.9946906247321
 20
-420.4644589835115
 30
0.0
 11
665.9946906247321
 21
-424.964498573883
 31
0.0
  0
LINE
  5
3B9
330
1F
100
AcDbEntity
  8
0-7
  6
Continuous
 62
     2
370
     9
100
AcDbLine
 10
664.9946378375698
 20
-438.9645447626502
 30
0.0
 11
664.9946378375698
 21
-443.9645117706735
 31
0.0
  0
LINE
  5
3BA
330
1F
100
AcDbEntity
  8
0-7
  6
Continuous
 62
     2
370
     9
100
AcDbLine
 10
664.9946378375698
 20
-419.964333614001
 30
0.0
 11
664.9946378375698
 21
-424.964498573883
 31
0.0
  0
LINE
  5
3BB
330
1F
100
AcDbEntity
  8
0-7
  6
Continuous
 62
     2
370
     9
100
AcDbLine
 10
665.9946906247321
 20
-438.9645447626502
 30
0.0
 11
665.9946906247321
 21
-443.4644853770927
 31
0.0
  0
LINE
  5
3BC
330
1F
100
AcDbEntity
  8
0-7
  6
Continuous
 62
     2
370
     9
100
AcDbLine
 10
665.9946906247321
 20
-438.9645447626502
 30
0.0
 11
664.9946378375698
 21
-438.9645447626502
 31
0.0
  0
LINE
  5
3BD
330
1F
100
AcDbEntity
  8
0-7
  6
Continuous
 62
     2
370
     9
100
AcDbLine
 10
665.9946906247321
 20
-424.964498573883
 30
0.0
 11
664.9946378375698
 21
-424.964498573883
 31
0.0
  0
ARC
  5
3BE
330
1F
100
AcDbEntity
  8
0-7
  6
Continuous
 62
     2
370
     9
100
AcDbCircle
 10
665.494664231151
 20
-419.964333614001
 30
0.0
 40
0.4999999581156551
100
AcDbArc
 50
90.0
 51
180.0
  0
ARC
  5
3BF
330
1F
100
AcDbEntity
  8
0-7
  6
Continuous
 62
     2
370
     9
100
AcDbCircle
 10
665.494664231151
 20
-443.9645117706735
 30
0.0
 40
0.4999999581156551
100
AcDbArc
 50
180.0
 51
270.0
  0
LINE
  5
3C0
330
1F
100
AcDbEntity
  8
その他
  6
Continuous
 62
     7
370
     9
100
AcDbLine
 10
-908.9650520453722
 20
-276.7423136345413
 30
0.0
 11
-368.9650520453722
 21
-276.7423136345413
 31
0.0
  0
LWPOLYLINE
  5
3C1
330
1F
100
AcDbEntity
  8
その他
  6
Continuous
 62
     7
370
     9
100
AcDbPolyline
 90
        4
 70
     1
 43
0.6000000000000001
 10
-908.6650520453721
 20
-276.7423136345413
 42
0.4142135623731
 10
-908.9650520453722
 20
-276.4423136345414
 42
0.4142135623731
 10
-909.2650520453723
 20
-276.7423136345413
 42
0.4142135623731
 10
-908.9650520453722
 20
-277.0423136345413
 42
0.4142135623731
  0
LWPOLYLINE
  5
3C2
330
1F
100
AcDbEntity
  8
その他
  6
Continuous
 62
     7
370
     9
100
AcDbPolyline
 90
        4
 70
     1
 43
0.6000000000000001
 10
-368.6650520453722
 20
-276.7423136345413
 42
0.4142135623731
 10
-368.9650520453722
 20
-276.4423136345414
 42
0.4142135623731
 10
-369.2650520453722
 20
-276.7423136345413
 42
0.4142135623731
 10
-368.9650520453722
 20
-277.0423136345413
 42
0.4142135623731
  0
LINE
  5
3C3
330
1F
100
AcDbEntity
  8
その他
  6
Continuous
 62
     7
370
     9
100
AcDbLine
 10
-908.9650520453722
 20
-275.8423136345414
 30
0.0
 11
-908.9650520453722
 21
-360.4647097225314
 31
0.0
  0
LINE
  5
3C4
330
1F
100
AcDbEntity
  8
その他
  6
Continuous
 62
     7
370
     9
100
AcDbLine
 10
-368.9650520453722
 20
-275.8423136345414
 30
0.0
 11
-368.9650520453722
 21
-360.4647097225314
 31
0.0
  0
TEXT
  5
3C5
330
1F
100
AcDbEntity
  8
その他
  6
Continuous
 62
     2
370
   211
100
AcDbText
 10
-648.7150520453722
 20
-273.2503136345414
 30
0.0
 40
9.144
  1
540
 41
1.083333333333333
  7
ＭＳ ゴシック
100
AcDbText
  0
LINE
  5
3C6
330
1F
100
AcDbEntity
  8
その他
  6
Continuous
 62
     7
370
     9
100
AcDbLine
 10
-905.9648936838856
 20
-317.3253648734422
 30
0.0
 11
-371.9651114309297
 21
-317.3253648734422
 31
0.0
  0
LWPOLYLINE
  5
3C7
330
1F
100
AcDbEntity
  8
その他
  6
Continuous
 62
     7
370
     9
100
AcDbPolyline
 90
        4
 70
     1
 43
0.6000000000000001
 10
-905.6648936838856
 20
-317.3253648734422
 42
0.4142135623731
 10
-905.9648936838856
 20
-317.0253648734422
 42
0.4142135623731
 10
-906.2648936838857
 20
-317.3253648734422
 42
0.4142135623731
 10
-905.9648936838856
 20
-317.6253648734422
 42
0.4142135623731
  0
LWPOLYLINE
  5
3C8
330
1F
100
AcDbEntity
  8
その他
  6
Continuous
 62
     7
370
     9
100
AcDbPolyline
 90
        4
 70
     1
 43
0.6000000000000001
 10
-371.6651114309298
 20
-317.3253648734422
 42
0.4142135623731
 10
-371.9651114309297
 20
-317.0253648734422
 42
0.4142135623731
 10
-372.2651114309297
 20
-317.3253648734422
 42
0.4142135623731
 10
-371.9651114309297
 20
-317.6253648734422
 42
0.4142135623731
  0
LINE
  5
3C9
330
1F
100
AcDbEntity
  8
その他
  6
Continuous
 62
     7
370
     9
100
AcDbLine
 10
-905.9648936838856
 20
-316.4253648734422
 30
0.0
 11
-905.9648936838856
 21
-360.4647097225314
 31
0.0
  0
LINE
  5
3CA
330
1F
100
AcDbEntity
  8
その他
  6
Continuous
 62
     7
370
     9
100
AcDbLine
 10
-371.9651114309297
 20
-316.4253648734422
 30
0.0
 11
-371.9651114309297
 21
-360.4647097225314
 31
0.0
  0
TEXT
  5
3CB
330
1F
100
AcDbEntity
  8
その他
  6
Continuous
 62
     2
370
   211
100
AcDbText
 10
-648.7150025574076
 20
-313.8333648734422
 30
0.0
 40
9.144
  1
534
 41
1.083333333333333
  7
ＭＳ ゴシック
100
AcDbText
  0
LINE
  5
3CC
330
1F
100
AcDbEntity
  8
その他
  6
Continuous
 62
     7
370
     9
100
AcDbLine
 10
-371.9651114309297
 20
-317.3253648734422
 30
0.0
 11
-368.9650520453722
 21
-317.3253648734422
 31
0.0
  0
LWPOLYLINE
  5
3CD
330
1F
100
AcDbEntity
  8
その他
  6
Continuous
 62
     7
370
     9
100
AcDbPolyline
 90
        4
 70
     1
 43
0.6000000000000001
 10
-371.6651114309298
 20
-317.3253648734422
 42
0.4142135623731
 10
-371.9651114309297
 20
-317.0253648734422
 42
0.4142135623731
 10
-372.2651114309297
 20
-317.3253648734422
 42
0.4142135623731
 10
-371.9651114309297
 20
-317.6253648734422
 42
0.4142135623731
  0
LWPOLYLINE
  5
3CE
330
1F
100
AcDbEntity
  8
その他
  6
Continuous
 62
     7
370
     9
100
AcDbPolyline
 90
        4
 70
     1
 43
0.6000000000000001
 10
-368.6650520453722
 20
-317.3253648734422
 42
0.4142135623731
 10
-368.9650520453722
 20
-317.0253648734422
 42
0.4142135623731
 10
-369.2650520453722
 20
-317.3253648734422
 42
0.4142135623731
 10
-368.9650520453722
 20
-317.6253648734422
 42
0.4142135623731
  0
TEXT
  5
3CF
330
1F
100
AcDbEntity
  8
その他
  6
Continuous
 62
     2
370
   211
100
AcDbText
 10
-379.7695998057274
 20
-313.8333648734422
 30
0.0
 40
9.144
  1
3
  7
ＭＳ ゴシック
100
AcDbText
  0
LINE
  5
3D0
330
1F
100
AcDbEntity
  8
その他
  6
Continuous
 62
     7
370
     9
100
AcDbLine
 10
-905.9648936838856
 20
-317.3253648734422
 30
0.0
 11
-908.9650520453722
 21
-317.3253648734422
 31
0.0
  0
LWPOLYLINE
  5
3D1
330
1F
100
AcDbEntity
  8
その他
  6
Continuous
 62
     7
370
     9
100
AcDbPolyline
 90
        4
 70
     1
 43
0.6000000000000001
 10
-905.6648936838856
 20
-317.3253648734422
 42
0.4142135623731
 10
-905.9648936838856
 20
-317.0253648734422
 42
0.4142135623731
 10
-906.2648936838857
 20
-317.3253648734422
 42
0.4142135623731
 10
-905.9648936838856
 20
-317.6253648734422
 42
0.4142135623731
  0
LWPOLYLINE
  5
3D2
330
1F
100
AcDbEntity
  8
その他
  6
Continuous
 62
     7
370
     9
100
AcDbPolyline
 90
        4
 70
     1
 43
0.6000000000000001
 10
-908.6650520453721
 20
-317.3253648734422
 42
0.4142135623731
 10
-908.9650520453722
 20
-317.0253648734422
 42
0.4142135623731
 10
-909.2650520453723
 20
-317.3253648734422
 42
0.4142135623731
 10
-908.9650520453722
 20
-317.6253648734422
 42
0.4142135623731
  0
TEXT
  5
3D3
330
1F
100
AcDbEntity
  8
その他
  6
Continuous
 62
     2
370
   211
100
AcDbText
 10
-902.5722323574018
 20
-313.8333648734422
 30
0.0
 40
9.144
  1
3
  7
ＭＳ ゴシック
100
AcDbText
  0
LINE
  5
3D4
330
1F
100
AcDbEntity
  8
仕上
  6
Continuous
 62
     3
370
     9
100
AcDbLine
 10
-778.9650891613459
 20
-441.4647097225314
 30
0.0
 11
-748.9650891613459
 21
-441.4647097225314
 31
0.0
  0
LINE
  5
3D5
330
1F
100
AcDbEntity
  8
仕上
  6
Continuous
 62
     3
370
     9
100
AcDbLine
 10
-778.9650891613459
 20
-432.3307351263159
 30
0.0
 11
-748.9650891613459
 21
-432.3307351263159
 31
0.0
  0
LINE
  5
3D6
330
1F
100
AcDbEntity
  8
仕上
  6
Continuous
 62
     3
370
     9
100
AcDbLine
 10
-778.9650891613459
 20
-431.4647097225313
 30
0.0
 11
-748.9650891613459
 21
-431.4647097225313
 31
0.0
  0
LINE
  5
3D7
330
1F
100
AcDbEntity
  8
仕上
  6
Continuous
 62
     3
370
     9
100
AcDbLine
 10
-778.9650891613459
 20
-431.4647097225313
 30
0.0
 11
-778.9650891613459
 21
-441.4647097225314
 31
0.0
  0
LINE
  5
3D8
330
1F
100
AcDbEntity
  8
仕上
  6
Continuous
 62
     3
370
     9
100
AcDbLine
 10
-748.9650891613459
 20
-431.4647097225313
 30
0.0
 11
-748.9650891613459
 21
-441.4647097225314
 31
0.0
  0
LINE
  5
3D9
330
1F
100
AcDbEntity
  8
仕上
  6
Continuous
 62
     3
370
     9
100
AcDbLine
 10
-528.965089161346
 20
-441.4647097225314
 30
0.0
 11
-498.965089161346
 21
-441.4647097225314
 31
0.0
  0
LINE
  5
3DA
330
1F
100
AcDbEntity
  8
仕上
  6
Continuous
 62
     3
370
     9
100
AcDbLine
 10
-528.965089161346
 20
-432.3307351263159
 30
0.0
 11
-498.965089161346
 21
-432.3307351263159
 31
0.0
  0
LINE
  5
3DB
330
1F
100
AcDbEntity
  8
仕上
  6
Continuous
 62
     3
370
     9
100
AcDbLine
 10
-528.965089161346
 20
-431.4647097225313
 30
0.0
 11
-498.965089161346
 21
-431.4647097225313
 31
0.0
  0
LINE
  5
3DC
330
1F
100
AcDbEntity
  8
仕上
  6
Continuous
 62
     3
370
     9
100
AcDbLine
 10
-528.965089161346
 20
-431.4647097225313
 30
0.0
 11
-528.965089161346
 21
-441.4647097225314
 31
0.0
  0
LINE
  5
3DD
330
1F
100
AcDbEntity
  8
仕上
  6
Continuous
 62
     3
370
     9
100
AcDbLine
 10
-498.965089161346
 20
-431.4647097225313
 30
0.0
 11
-498.965089161346
 21
-441.4647097225314
 31
0.0
  0
LINE
  5
3DE
330
1F
100
AcDbEntity
  8
仕上
  6
Continuous
 62
     3
370
     9
100
AcDbLine
 10
269.2268107154509
 20
-441.464577754626
 30
0.0
 11
253.4063026397621
 21
-432.3306031584106
 31
0.0
  0
LINE
  5
3DF
330
1F
100
AcDbEntity
  8
仕上
  6
Continuous
 62
     3
370
     9
100
AcDbLine
 10
269.2268107154509
 20
-441.464577754626
 30
0.0
 11
284.7627091003133
 21
-441.464577754626
 31
0.0
  0
LINE
  5
3E0
330
1F
100
AcDbEntity
  8
仕上
  6
Continuous
 62
     3
370
     9
100
AcDbLine
 10
284.7627091003133
 20
-441.464577754626
 30
0.0
 11
300.583217176002
 21
-432.3306031584106
 31
0.0
  0
LINE
  5
3E1
330
1F
100
AcDbEntity
  8
仕上
  6
Continuous
 62
     3
370
     9
100
AcDbLine
 10
300.0832171760019
 20
-431.4645777546261
 30
0.0
 11
300.583217176002
 21
-432.3306031584106
 31
0.0
  0
LINE
  5
3E2
330
1F
100
AcDbEntity
  8
仕上
  6
Continuous
 62
     3
370
     9
100
AcDbLine
 10
253.9063026397621
 20
-431.4645777546261
 30
0.0
 11
253.4063026397621
 21
-432.3306031584106
 31
0.0
  0
LINE
  5
3E3
330
1F
100
AcDbEntity
  8
仕上
  6
Continuous
 62
     3
370
     9
100
AcDbLine
 10
269.4947599078822
 20
-440.4645777546261
 30
0.0
 11
253.9063026397621
 21
-431.4645777546261
 31
0.0
  0
LINE
  5
3E4
330
1F
100
AcDbEntity
  8
仕上
  6
Continuous
 62
     3
370
     9
100
AcDbLine
 10
269.4947599078822
 20
-440.4645777546261
 30
0.0
 11
284.4947599078822
 21
-440.4645777546261
 31
0.0
  0
LINE
  5
3E5
330
1F
100
AcDbEntity
  8
仕上
  6
Continuous
 62
     3
370
     9
100
AcDbLine
 10
284.4947599078822
 20
-440.4645777546261
 30
0.0
 11
300.0832171760019
 21
-431.4645777546261
 31
0.0
  0
LINE
  5
3E6
330
1F
100
AcDbEntity
  8
仕上
  6
Continuous
 62
     3
370
     9
100
AcDbLine
 10
519.2268371090317
 20
-441.464577754626
 30
0.0
 11
503.4063290333428
 21
-432.3306031584106
 31
0.0
  0
LINE
  5
3E7
330
1F
100
AcDbEntity
  8
仕上
  6
Continuous
 62
     3
370
     9
100
AcDbLine
 10
519.2268371090317
 20
-441.464577754626
 30
0.0
 11
534.7627354938941
 21
-441.464577754626
 31
0.0
  0
LINE
  5
3E8
330
1F
100
AcDbEntity
  8
仕上
  6
Continuous
 62
     3
370
     9
100
AcDbLine
 10
534.7627354938941
 20
-441.464577754626
 30
0.0
 11
550.5832435695827
 21
-432.3306031584106
 31
0.0
  0
LINE
  5
3E9
330
1F
100
AcDbEntity
  8
仕上
  6
Continuous
 62
     3
370
     9
100
AcDbLine
 10
550.0832435695827
 20
-431.4645777546261
 30
0.0
 11
550.5832435695827
 21
-432.3306031584106
 31
0.0
  0
LINE
  5
3EA
330
1F
100
AcDbEntity
  8
仕上
  6
Continuous
 62
     3
370
     9
100
AcDbLine
 10
503.9063290333429
 20
-431.4645777546261
 30
0.0
 11
503.4063290333428
 21
-432.3306031584106
 31
0.0
  0
LINE
  5
3EB
330
1F
100
AcDbEntity
  8
仕上
  6
Continuous
 62
     3
370
     9
100
AcDbLine
 10
519.4947863014629
 20
-440.4645777546261
 30
0.0
 11
503.9063290333429
 21
-431.4645777546261
 31
0.0
  0
LINE
  5
3EC
330
1F
100
AcDbEntity
  8
仕上
  6
Continuous
 62
     3
370
     9
100
AcDbLine
 10
519.4947863014629
 20
-440.4645777546261
 30
0.0
 11
534.4947863014629
 21
-440.4645777546261
 31
0.0
  0
LINE
  5
3ED
330
1F
100
AcDbEntity
  8
仕上
  6
Continuous
 62
     3
370
     9
100
AcDbLine
 10
534.4947863014629
 20
-440.4645777546261
 30
0.0
 11
550.0832435695827
 21
-431.4645777546261
 31
0.0
  0
LINE
  5
3EE
330
1F
100
AcDbEntity
  8
寸法
  6
Continuous
 62
     7
370
     9
100
AcDbLine
 10
906.8527278308635
 20
-331.5630639547135
 30
0.0
 11
715.8490323909418
 21
-331.5630639547135
 31
0.0
  0
LINE
  5
3EF
330
1F
100
AcDbEntity
  8
寸法
  6
Continuous
 62
     7
370
     9
100
AcDbLine
 10
715.8490323909418
 20
-331.5630639547135
 30
0.0
 11
678.1967694140936
 21
-396.7786964505591
 31
0.0
  0
LINE
  5
3F0
330
1F
100
AcDbEntity
  8
寸法
  6
Continuous
 62
     7
370
     9
100
AcDbLine
 10
678.1967694140936
 20
-396.7786964505591
 30
0.0
 11
682.7624801316592
 21
-390.8285463983747
 31
0.0
  0
LINE
  5
3F1
330
1F
100
AcDbEntity
  8
寸法
  6
Continuous
 62
     7
370
     9
100
AcDbLine
 10
678.1967694140936
 20
-396.7786964505591
 30
0.0
 11
681.0668951568318
 21
-389.8495999567245
 31
0.0
  0
LINE
  5
3F2
330
1F
100
AcDbEntity
  8
寸法
  6
Continuous
 62
     7
370
     9
100
AcDbLine
 10
697.4213467253905
 20
-279.8566220679867
 30
0.0
 11
647.9947330429859
 21
-365.4660282119906
 31
0.0
  0
LINE
  5
3F3
330
1F
100
AcDbEntity
  8
寸法
  6
Continuous
 62
     7
370
     9
100
AcDbLine
 10
647.9947330429859
 20
-365.4660282119906
 30
0.0
 11
652.5604437605512
 21
-359.5158781598064
 31
0.0
  0
LINE
  5
3F4
330
1F
100
AcDbEntity
  8
寸法
  6
Continuous
 62
     7
370
     9
100
AcDbLine
 10
647.9947330429859
 20
-365.4660282119906
 30
0.0
 11
650.8648587857241
 21
-358.5369317181561
 31
0.0
  0
LINE
  5
3F5
330
1F
100
AcDbEntity
  8
寸法
  6
Continuous
 62
     7
370
     9
100
AcDbLine
 10
1101.060119070087
 20
-279.8566220679867
 30
0.0
 11
697.4213467253905
 21
-279.8566220679867
 31
0.0
  0
TEXT
  5
3F6
330
1F
100
AcDbEntity
  8
寸法
  6
Continuous
 62
     2
370
   211
100
AcDbText
 10
716.8516542533912
 20
-312.0335628525155
 30
0.0
 40
9.14400000000026
  1
クッション付
 41
1.104166666666605
  7
ＭＳ ゴシック
100
AcDbText
  0
TEXT
  5
3F7
330
1F
100
AcDbEntity
  8
寸法
  6
Continuous
 62
     2
370
   211
100
AcDbText
 10
716.8516542533912
 20
-327.8634384921578
 30
0.0
 40
9.14399999999987
  1
ステンレス製受枠：ＴＬ９５Ｐ
 41
1.11607142857146
  7
ＭＳ ゴシック
100
AcDbText
  0
TEXT
  5
3F8
330
1F
100
AcDbEntity
  8
寸法
  6
Continuous
 62
     2
370
   211
100
AcDbText
 10
697.5601190700983
 20
-260.3271209657889
 30
0.0
 40
9.14400000000026
  1
インターロッキングブロック用　ステンレス製　排水目地なし
 41
1.120535714285652
  7
ＭＳ ゴシック
100
AcDbText
  0
TEXT
  5
3F9
330
1F
100
AcDbEntity
  8
寸法
  6
Continuous
 62
     2
370
   211
100
AcDbText
 10
697.5601190700984
 20
-276.1569966054311
 30
0.0
 40
9.14400000000026
  1
ＳＵＩＷ－Ｍ－４５０
 41
1.112499999999939
  7
ＭＳ ゴシック
100
AcDbText
  0
LINE
  5
3FA
330
1F
100
AcDbEntity
  8
D-5
  6
Continuous
 62
     7
370
     9
100
AcDbLine
 10
518.7357643444831
 20
-67.64324736961277
 30
0.0
 11
666.8045944678514
 21
-67.64324736961277
 31
0.0
  0
TEXT
  5
3FB
330
1F
100
AcDbEntity
  8
D-5
  6
Continuous
 62
     2
370
   211
100
AcDbText
 10
519.8045944678521
 20
-61.994646960249
 30
0.0
 40
9.14400000000026
  1
拡大詳細図　Ｓ＝１：２
 41
1.113636363636327
  7
ＭＳ ゴシック
100
AcDbText
  0
LINE
  5
3FC
330
1F
100
AcDbEntity
  8
D-1
  6
Continuous
 62
     2
370
     9
100
AcDbLine
 10
686.0756134784075
 20
57.52625795222762
 30
0.0
 11
618.5755392464608
 21
57.52625795222745
 31
0.0
  0
LINE
  5
3FD
330
1F
100
AcDbEntity
  8
D-1
  6
Continuous
 62
     2
370
     9
100
AcDbLine
 10
695.0755689392397
 20
207.5261589762984
 30
0.0
 11
689.0756233760005
 21
207.5261589762984
 31
0.0
  0
LINE
  5
3FE
330
1F
100
AcDbEntity
  8
D-1
  6
Continuous
 62
     2
370
     9
100
AcDbLine
 10
686.0756134784075
 20
65.02635692815652
 30
0.0
 11
686.0756134784075
 21
57.52625795222762
 31
0.0
  0
LINE
  5
3FF
330
1F
100
AcDbEntity
  8
D-1
  6
Continuous
 62
     2
370
     9
100
AcDbLine
 10
689.0756233760005
 20
60.526119385927
 30
0.0
 11
689.0756233760005
 21
207.5261589762984
 31
0.0
  0
LINE
  5
400
330
1F
100
AcDbEntity
  8
D-1
  6
Continuous
 62
     2
370
     9
100
AcDbLine
 10
695.0755689392397
 20
60.526119385927
 30
0.0
 11
695.0755689392397
 21
207.5261589762984
 31
0.0
  0
LINE
  5
401
330
1F
100
AcDbEntity
  8
D-1
  6
Continuous
 62
     2
370
     9
100
AcDbLine
 10
618.5755392464608
 20
65.02635692815652
 30
0.0
 11
686.0756134784075
 21
65.02635692815652
 31
0.0
  0
ARC
  5
402
330
1F
100
AcDbEntity
  8
D-1
  6
Continuous
 62
     2
370
     9
100
AcDbCircle
 10
686.0756134784075
 20
60.526119385927
 30
0.0
 40
3.000000038662472
100
AcDbArc
 50
270.0
 51
0.0
  0
ARC
  5
403
330
1F
100
AcDbEntity
  8
D-1
  6
Continuous
 62
     2
370
     9
100
AcDbCircle
 10
686.0755392464608
 20
60.526119385927
 30
0.0
 40
9.000000115987415
100
AcDbArc
 50
270.0
 51
0.0
  0
LINE
  5
404
330
1F
100
AcDbEntity
  8
D-1
  6
Continuous
 62
     2
370
     9
100
AcDbLine
 10
618.5755392464608
 20
65.02635692815652
 30
0.0
 11
618.5755392464608
 21
51.5262381570415
 31
0.0
  0
LINE
  5
405
330
1F
100
AcDbEntity
  8
D-1
  6
Continuous
 62
     2
370
     9
100
AcDbLine
 10
686.0755392464608
 20
51.52623815704167
 30
0.0
 11
618.5755392464608
 21
51.5262381570415
 31
0.0
  0
LINE
  5
406
330
1F
100
AcDbEntity
  8
D-7
  6
Continuous
 62
     2
370
     9
100
AcDbLine
 10
677.0755330604655
 20
125.0265548800146
 30
0.0
 11
677.0755330604655
 21
118.2764954944571
 31
0.0
  0
LINE
  5
407
330
1F
100
AcDbEntity
  8
D-7
  6
Continuous
 62
     2
370
     9
100
AcDbLine
 10
675.5754538797222
 20
97.2764262113064
 30
0.0
 11
675.5754538797222
 21
89.77647569927136
 31
0.0
  0
LINE
  5
408
330
1F
100
AcDbEntity
  8
D-7
  6
Continuous
 62
     2
370
     9
100
AcDbLine
 10
675.5754538797222
 20
125.7767429342801
 30
0.0
 11
675.5754538797222
 21
118.2764954944571
 31
0.0
  0
LINE
  5
409
330
1F
100
AcDbEntity
  8
D-7
  6
Continuous
 62
     2
370
     9
100
AcDbLine
 10
677.0755330604655
 20
97.2764262113064
 30
0.0
 11
677.0755330604655
 21
90.52651528964266
 31
0.0
  0
LINE
  5
40A
330
1F
100
AcDbEntity
  8
D-7
  6
Continuous
 62
     2
370
     9
100
AcDbLine
 10
677.0755330604655
 20
97.2764262113064
 30
0.0
 11
675.5754538797222
 21
97.2764262113064
 31
0.0
  0
LINE
  5
40B
330
1F
100
AcDbEntity
  8
D-7
  6
Continuous
 62
     2
370
     9
100
AcDbLine
 10
677.0755330604655
 20
118.2764954944571
 30
0.0
 11
675.5754538797222
 21
118.2764954944571
 31
0.0
  0
ARC
  5
40C
330
1F
100
AcDbEntity
  8
D-7
  6
Continuous
 62
     2
370
     9
100
AcDbCircle
 10
676.325493470094
 20
125.7767429342801
 30
0.0
 40
0.7499999371734826
100
AcDbArc
 50
90.0
 51
180.0
  0
ARC
  5
40D
330
1F
100
AcDbEntity
  8
D-7
  6
Continuous
 62
     2
370
     9
100
AcDbCircle
 10
676.325493470094
 20
89.77647569927136
 30
0.0
 40
0.7499999371734826
100
AcDbArc
 50
180.0
 51
270.0
  0
LINE
  5
40E
330
1F
100
AcDbEntity
  8
D-1
  6
Continuous
 62
     2
370
     9
100
AcDbLine
 10
686.0756134784075
 20
62.44308517984574
 30
0.0
 11
681.1587862507893
 21
57.52625795222779
 31
0.0
  0
LINE
  5
40F
330
1F
100
AcDbEntity
  8
D-1
  6
Continuous
 62
     2
370
     9
100
AcDbLine
 10
680.1735798529853
 20
65.02635692815669
 30
0.0
 11
672.6734808770562
 21
57.52625795222779
 31
0.0
  0
LINE
  5
410
330
1F
100
AcDbEntity
  8
D-1
  6
Continuous
 62
     2
370
     9
100
AcDbLine
 10
671.6882744792521
 20
65.02635692815669
 30
0.0
 11
664.1881755033231
 21
57.52625795222779
 31
0.0
  0
LINE
  5
411
330
1F
100
AcDbEntity
  8
D-1
  6
Continuous
 62
     2
370
     9
100
AcDbLine
 10
663.2029691055191
 20
65.02635692815669
 30
0.0
 11
655.7029443615368
 21
57.52625795222779
 31
0.0
  0
LINE
  5
412
330
1F
100
AcDbEntity
  8
D-1
  6
Continuous
 62
     2
370
     9
100
AcDbLine
 10
654.7176637317859
 20
65.02635692815669
 30
0.0
 11
647.2176389878034
 21
57.52625795222779
 31
0.0
  0
LINE
  5
413
330
1F
100
AcDbEntity
  8
D-1
  6
Continuous
 62
     2
370
     9
100
AcDbLine
 10
646.2324325899997
 20
65.02635692815669
 30
0.0
 11
638.7323336140705
 21
57.52625795222762
 31
0.0
  0
LINE
  5
414
330
1F
100
AcDbEntity
  8
D-1
  6
Continuous
 62
     2
370
     9
100
AcDbLine
 10
637.7471272162666
 20
65.02635692815669
 30
0.0
 11
630.2470282403375
 21
57.52625795222762
 31
0.0
  0
LINE
  5
415
330
1F
100
AcDbEntity
  8
D-1
  6
Continuous
 62
     2
370
     9
100
AcDbLine
 10
629.2618218425333
 20
65.02635692815669
 30
0.0
 11
621.7617228666044
 21
57.52625795222762
 31
0.0
  0
LINE
  5
416
330
1F
100
AcDbEntity
  8
D-1
  6
Continuous
 62
     2
370
     9
100
AcDbLine
 10
620.7765164688003
 20
65.02635692815669
 30
0.0
 11
618.5755392464608
 21
62.82523124192373
 31
0.0
  0
LINE
  5
417
330
1F
100
AcDbEntity
  8
D-4
  6
Continuous
 62
     7
370
     9
100
AcDbLine
 10
759.4340536937342
 20
206.0263767233427
 30
0.0
 11
759.4340536937342
 21
65.02635692815652
 31
0.0
  0
LWPOLYLINE
  5
418
330
1F
100
AcDbEntity
  8
D-4
  6
Continuous
 62
     7
370
     9
100
AcDbPolyline
 90
        4
 70
     1
 43
0.6000000000000001
 10
759.7340536937342
 20
206.0263767233427
 42
0.4142135623731
 10
759.4340536937342
 20
206.3263767233426
 42
0.4142135623731
 10
759.1340536937341
 20
206.0263767233427
 42
0.4142135623731
 10
759.4340536937342
 20
205.7263767233426
 42
0.4142135623731
  0
LWPOLYLINE
  5
419
330
1F
100
AcDbEntity
  8
D-4
  6
Continuous
 62
     7
370
     9
100
AcDbPolyline
 90
        4
 70
     1
 43
0.6000000000000001
 10
759.7340536937342
 20
65.02635692815652
 42
0.4142135623731
 10
759.4340536937342
 20
65.32635692815651
 42
0.4142135623731
 10
759.1340536937341
 20
65.02635692815652
 42
0.4142135623731
 10
759.4340536937342
 20
64.72635692815652
 42
0.4142135623731
  0
TEXT
  5
41A
330
1F
100
AcDbEntity
  8
D-4
  6
Continuous
 62
     2
370
   211
100
AcDbText
 10
755.9420536937341
 20
129.1513668257496
 30
0.0
 40
9.144
  1
94
 50
90.0
 41
1.0625
  7
ＭＳ ゴシック
100
AcDbText
  0
LINE
  5
41B
330
1F
100
AcDbEntity
  8
D-4
  6
Continuous
 62
     7
370
     9
100
AcDbLine
 10
790.0773993209405
 20
207.5261589762984
 30
0.0
 11
790.0773993209405
 21
51.52623815704163
 31
0.0
  0
LWPOLYLINE
  5
41C
330
1F
100
AcDbEntity
  8
D-4
  6
Continuous
 62
     7
370
     9
100
AcDbPolyline
 90
        4
 70
     1
 43
0.6000000000000001
 10
790.3773993209405
 20
207.5261589762984
 42
0.4142135623731
 10
790.0773993209405
 20
207.8261589762984
 42
0.4142135623731
 10
789.7773993209404
 20
207.5261589762984
 42
0.4142135623731
 10
790.0773993209405
 20
207.2261589762984
 42
0.4142135623731
  0
LWPOLYLINE
  5
41D
330
1F
100
AcDbEntity
  8
D-4
  6
Continuous
 62
     7
370
     9
100
AcDbPolyline
 90
        4
 70
     1
 43
0.6000000000000001
 10
790.3773993209405
 20
51.52623815704163
 42
0.4142135623731
 10
790.0773993209405
 20
51.82623815704164
 42
0.4142135623731
 10
789.7773993209404
 20
51.52623815704163
 42
0.4142135623731
 10
790.0773993209405
 20
51.22623815704163
 42
0.4142135623731
  0
LINE
  5
41E
330
1F
100
AcDbEntity
  8
D-4
  6
Continuous
 62
     7
370
     9
100
AcDbLine
 10
790.9773993209405
 20
207.5261589762984
 30
0.0
 11
701.0755689392397
 21
207.5261589762984
 31
0.0
  0
LINE
  5
41F
330
1F
100
AcDbEntity
  8
D-4
  6
Continuous
 62
     7
370
     9
100
AcDbLine
 10
790.9773993209405
 20
51.52623815704163
 30
0.0
 11
692.0755392464608
 21
51.52623815704167
 31
0.0
  0
TEXT
  5
420
330
1F
100
AcDbEntity
  8
D-4
  6
Continuous
 62
     2
370
   211
100
AcDbText
 10
786.5853993209404
 20
119.77619856667
 30
0.0
 40
9.144
  1
104
 50
90.0
 41
1.083333333333333
  7
ＭＳ ゴシック
100
AcDbText
  0
LINE
  5
421
330
1F
100
AcDbEntity
  8
D-4
  6
Continuous
 62
     7
370
     9
100
AcDbLine
 10
790.0773993209405
 20
51.52623815704163
 30
0.0
 11
790.0773993209405
 21
41.77682752776917
 31
0.0
  0
LWPOLYLINE
  5
422
330
1F
100
AcDbEntity
  8
D-4
  6
Continuous
 62
     7
370
     9
100
AcDbPolyline
 90
        4
 70
     1
 43
0.6000000000000001
 10
790.3773993209405
 20
41.77682752776917
 42
0.4142135623731
 10
790.0773993209405
 20
42.07682752776917
 42
0.4142135623731
 10
789.7773993209404
 20
41.77682752776917
 42
0.4142135623731
 10
790.0773993209405
 20
41.47682752776917
 42
0.4142135623731
  0
LINE
  5
423
330
1F
100
AcDbEntity
  8
D-4
  6
Continuous
 62
     7
370
     9
100
AcDbLine
 10
790.9773993209405
 20
41.77682752776917
 30
0.0
 11
672.5752343542043
 21
41.77682752776917
 31
0.0
  0
TEXT
  5
424
330
1F
100
AcDbEntity
  8
D-4
  6
Continuous
 62
     2
370
   211
100
AcDbText
 10
802.1853993209405
 20
36.9015328424054
 30
0.0
 40
9.144
  1
6.5
 50
90.0
 41
1.083333333333333
  7
ＭＳ ゴシック
100
AcDbText
  0
LINE
  5
425
330
1F
100
AcDbEntity
  8
D-4
  6
Continuous
 62
     7
370
     9
100
AcDbLine
 10
618.5755392464608
 20
-4.838018704749373
 30
0.0
 11
695.0755689392397
 21
-4.838018704749373
 31
0.0
  0
LWPOLYLINE
  5
426
330
1F
100
AcDbEntity
  8
D-4
  6
Continuous
 62
     7
370
     9
100
AcDbPolyline
 90
        4
 70
     1
 43
0.6000000000000001
 10
618.8755392464608
 20
-4.838018704749373
 42
0.4142135623731
 10
618.5755392464608
 20
-4.538018704749373
 42
0.4142135623731
 10
618.2755392464608
 20
-4.838018704749373
 42
0.4142135623731
 10
618.5755392464608
 20
-5.138018704749374
 42
0.4142135623731
  0
LWPOLYLINE
  5
427
330
1F
100
AcDbEntity
  8
D-4
  6
Continuous
 62
     7
370
     9
100
AcDbPolyline
 90
        4
 70
     1
 43
0.6000000000000001
 10
695.3755689392397
 20
-4.838018704749373
 42
0.4142135623731
 10
695.0755689392397
 20
-4.538018704749373
 42
0.4142135623731
 10
694.7755689392397
 20
-4.838018704749373
 42
0.4142135623731
 10
695.0755689392397
 20
-5.138018704749374
 42
0.4142135623731
  0
LINE
  5
428
330
1F
100
AcDbEntity
  8
D-4
  6
Continuous
 62
     7
370
     9
100
AcDbLine
 10
618.5755392464608
 20
-5.738018704749322
 30
0.0
 11
618.5755392464608
 21
45.52623815704146
 31
0.0
  0
TEXT
  5
429
330
1F
100
AcDbEntity
  8
D-4
  6
Continuous
 62
     2
370
   211
100
AcDbText
 10
650.4505540928503
 20
-1.34601870474939
 30
0.0
 40
9.144
  1
51
 41
1.0625
  7
ＭＳ ゴシック
100
AcDbText
  0
LINE
  5
42A
330
1F
100
AcDbEntity
  8
D-4
  6
Continuous
 62
     7
370
     9
100
AcDbLine
 10
695.0755689392397
 20
-4.838018704749373
 30
0.0
 11
738.575494707293
 21
-4.838018704749373
 31
0.0
  0
LWPOLYLINE
  5
42B
330
1F
100
AcDbEntity
  8
D-4
  6
Continuous
 62
     7
370
     9
100
AcDbPolyline
 90
        4
 70
     1
 43
0.6000000000000001
 10
738.875494707293
 20
-4.838018704749373
 42
0.4142135623731
 10
738.575494707293
 20
-4.538018704749373
 42
0.4142135623731
 10
738.2754947072931
 20
-4.838018704749373
 42
0.4142135623731
 10
738.575494707293
 20
-5.138018704749374
 42
0.4142135623731
  0
LINE
  5
42C
330
1F
100
AcDbEntity
  8
D-4
  6
Continuous
 62
     7
370
     9
100
AcDbLine
 10
738.575494707293
 20
-5.738018704749322
 30
0.0
 11
738.575494707293
 21
40.57665414977828
 31
0.0
  0
TEXT
  5
42D
330
1F
100
AcDbEntity
  8
D-4
  6
Continuous
 62
     2
370
   211
100
AcDbText
 10
710.4505318232664
 20
-1.34601870474939
 30
0.0
 40
9.144
  1
29
 41
1.0625
  7
ＭＳ ゴシック
100
AcDbText
  0
LINE
  5
42E
330
1F
100
AcDbEntity
  8
D-4
  6
Continuous
 62
     7
370
     9
100
AcDbLine
 10
760.3340536937342
 20
206.0263767233427
 30
0.0
 11
701.0755689392397
 21
206.0263767233427
 31
0.0
  0
LINE
  5
42F
330
1F
100
AcDbEntity
  8
D-4
  6
Continuous
 62
     7
370
     9
100
AcDbLine
 10
391.8014777996781
 20
206.0263767233427
 30
0.0
 11
391.8014777996781
 21
93.52637672334264
 31
0.0
  0
LWPOLYLINE
  5
430
330
1F
100
AcDbEntity
  8
D-4
  6
Continuous
 62
     7
370
     9
100
AcDbPolyline
 90
        4
 70
     1
 43
0.6000000000000001
 10
392.1014777996781
 20
206.0263767233427
 42
0.4142135623731
 10
391.8014777996781
 20
206.3263767233426
 42
0.4142135623731
 10
391.5014777996781
 20
206.0263767233427
 42
0.4142135623731
 10
391.8014777996781
 20
205.7263767233426
 42
0.4142135623731
  0
LWPOLYLINE
  5
431
330
1F
100
AcDbEntity
  8
D-4
  6
Continuous
 62
     7
370
     9
100
AcDbPolyline
 90
        4
 70
     1
 43
0.6000000000000001
 10
392.1014777996781
 20
93.52637672334264
 42
0.4142135623731
 10
391.8014777996781
 20
93.82637672334263
 42
0.4142135623731
 10
391.5014777996781
 20
93.52637672334264
 42
0.4142135623731
 10
391.8014777996781
 20
93.22637672334264
 42
0.4142135623731
  0
LINE
  5
432
330
1F
100
AcDbEntity
  8
D-4
  6
Continuous
 62
     7
370
     9
100
AcDbLine
 10
390.9014777996781
 20
206.0263767233427
 30
0.0
 11
452.1435836120417
 21
206.0263767233427
 31
0.0
  0
LINE
  5
433
330
1F
100
AcDbEntity
  8
D-4
  6
Continuous
 62
     7
370
     9
100
AcDbLine
 10
390.9014777996781
 20
93.52637672334264
 30
0.0
 11
452.1435836120417
 21
93.52637672334264
 31
0.0
  0
TEXT
  5
434
330
1F
100
AcDbEntity
  8
D-4
  6
Continuous
 62
     2
370
   211
100
AcDbText
 10
388.3094777996781
 20
143.4013767233427
 30
0.0
 40
9.144
  1
75
 50
90.0
 41
1.0625
  7
ＭＳ ゴシック
100
AcDbText
  0
LINE
  5
435
330
1F
100
AcDbEntity
  8
D-4
  6
Continuous
 62
     7
370
     9
100
AcDbLine
 10
391.8014777996781
 20
93.52637672334264
 30
0.0
 11
391.8014777996781
 21
89.02643610889946
 31
0.0
  0
LWPOLYLINE
  5
436
330
1F
100
AcDbEntity
  8
D-4
  6
Continuous
 62
     7
370
     9
100
AcDbPolyline
 90
        4
 70
     1
 43
0.6000000000000001
 10
392.1014777996781
 20
89.02643610889946
 42
0.4142135623731
 10
391.8014777996781
 20
89.32643610889946
 42
0.4142135623731
 10
391.5014777996781
 20
89.02643610889946
 42
0.4142135623731
 10
391.8014777996781
 20
88.72643610889946
 42
0.4142135623731
  0
LINE
  5
437
330
1F
100
AcDbEntity
  8
D-4
  6
Continuous
 62
     7
370
     9
100
AcDbLine
 10
390.9014777996781
 20
89.02643610889946
 30
0.0
 11
452.1435836120417
 21
89.02643610889946
 31
0.0
  0
TEXT
  5
438
330
1F
100
AcDbEntity
  8
D-4
  6
Continuous
 62
     2
370
   211
100
AcDbText
 10
388.3094777996781
 20
88.27640641612105
 30
0.0
 40
9.144
  1
3
 50
90.0
  7
ＭＳ ゴシック
100
AcDbText
  0
LINE
  5
439
330
1F
100
AcDbEntity
  8
D-4
  6
Continuous
 62
     7
370
     9
100
AcDbLine
 10
391.8014777996781
 20
89.02643610889946
 30
0.0
 11
391.8014777996781
 21
65.02635692815635
 31
0.0
  0
LWPOLYLINE
  5
43A
330
1F
100
AcDbEntity
  8
D-4
  6
Continuous
 62
     7
370
     9
100
AcDbPolyline
 90
        4
 70
     1
 43
0.6000000000000001
 10
392.1014777996781
 20
65.02635692815635
 42
0.4142135623731
 10
391.8014777996781
 20
65.32635692815634
 42
0.4142135623731
 10
391.5014777996781
 20
65.02635692815635
 42
0.4142135623731
 10
391.8014777996781
 20
64.72635692815635
 42
0.4142135623731
  0
LINE
  5
43B
330
1F
100
AcDbEntity
  8
D-4
  6
Continuous
 62
     7
370
     9
100
AcDbLine
 10
390.9014777996781
 20
65.02635692815635
 30
0.0
 11
452.1435836120417
 21
65.02635692815635
 31
0.0
  0
TEXT
  5
43C
330
1F
100
AcDbEntity
  8
D-4
  6
Continuous
 62
     2
370
   211
100
AcDbText
 10
388.3094777996781
 20
70.6513965185279
 30
0.0
 40
9.144
  1
16
 50
90.0
 41
1.0625
  7
ＭＳ ゴシック
100
AcDbText
  0
LINE
  5
43D
330
1F
100
AcDbEntity
  8
D-4
  6
Continuous
 62
     7
370
     9
100
AcDbLine
 10
420.7096506958189
 20
206.0263767233427
 30
0.0
 11
420.7096506958189
 21
108.5263767233427
 31
0.0
  0
LWPOLYLINE
  5
43E
330
1F
100
AcDbEntity
  8
D-4
  6
Continuous
 62
     7
370
     9
100
AcDbPolyline
 90
        4
 70
     1
 43
0.6000000000000001
 10
421.0096506958189
 20
206.0263767233427
 42
0.4142135623731
 10
420.7096506958189
 20
206.3263767233426
 42
0.4142135623731
 10
420.409650695819
 20
206.0263767233427
 42
0.4142135623731
 10
420.7096506958189
 20
205.7263767233426
 42
0.4142135623731
  0
LWPOLYLINE
  5
43F
330
1F
100
AcDbEntity
  8
D-4
  6
Continuous
 62
     7
370
     9
100
AcDbPolyline
 90
        4
 70
     1
 43
0.6000000000000001
 10
421.0096506958189
 20
108.5263767233427
 42
0.4142135623731
 10
420.7096506958189
 20
108.8263767233427
 42
0.4142135623731
 10
420.409650695819
 20
108.5263767233427
 42
0.4142135623731
 10
420.7096506958189
 20
108.2263767233427
 42
0.4142135623731
  0
TEXT
  5
440
330
1F
100
AcDbEntity
  8
D-4
  6
Continuous
 62
     2
370
   211
100
AcDbText
 10
417.217650695819
 20
150.9013767233427
 30
0.0
 40
9.144
  1
65
 50
90.0
 41
1.0625
  7
ＭＳ ゴシック
100
AcDbText
  0
TEXT
  5
441
330
1F
100
AcDbEntity
  8
D-5
  6
Continuous
 62
     2
370
     9
100
AcDbText
 10
757.084419606653
 20
-21.40013361661426
 30
0.0
 40
9.144
  1
回転アンカー：ｔ＝２.０
 41
1.114130434782609
  7
ＭＳ ゴシック
100
AcDbText
  0
LINE
  5
442
330
1F
100
AcDbEntity
  8
D-5
  6
Continuous
 62
     7
370
     9
100
AcDbLine
 10
716.8256071957558
 20
42.07663412261797
 30
0.0
 11
721.391317913321
 21
36.12648407043366
 31
0.0
  0
LINE
  5
443
330
1F
100
AcDbEntity
  8
D-5
  6
Continuous
 62
     7
370
     9
100
AcDbLine
 10
716.8256071957558
 20
42.07663412261797
 30
0.0
 11
719.695732938494
 21
35.14753762878325
 31
0.0
  0
LINE
  5
444
330
1F
100
AcDbEntity
  8
D-5
  6
Continuous
 62
     7
370
     9
100
AcDbLine
 10
757.084419606653
 20
-27.65367442544104
 30
0.0
 11
716.8256071957558
 21
42.07663412261797
 31
0.0
  0
TEXT
  5
445
330
1F
100
AcDbEntity
  8
D-5
  6
Continuous
 62
     2
370
     9
100
AcDbText
 10
757.084419606653
 20
-42.52321523426782
 30
0.0
 40
9.144
  1
ＳＥＣＣ
 41
1.09375
  7
ＭＳ ゴシック
100
AcDbText
  0
LINE
  5
446
330
1F
100
AcDbEntity
  8
D-5
  6
Continuous
 62
     7
370
     9
100
AcDbLine
 10
757.084419606653
 20
-27.65367442544104
 30
0.0
 11
910.834419606653
 21
-27.65367442544104
 31
0.0
  0
LINE
  5
447
330
1F
100
AcDbEntity
  8
D-5
  6
Continuous
 62
     7
370
     9
100
AcDbLine
 10
636.7901898246575
 20
61.02262403145221
 30
0.0
 11
633.9200640819193
 21
54.09352753761753
 31
0.0
  0
LINE
  5
448
330
1F
100
AcDbEntity
  8
D-5
  6
Continuous
 62
     7
370
     9
100
AcDbLine
 10
636.7901898246575
 20
61.02262403145221
 30
0.0
 11
632.224479107092
 21
55.0724739792679
 31
0.0
  0
LINE
  5
449
330
1F
100
AcDbEntity
  8
D-5
  6
Continuous
 62
     7
370
     9
100
AcDbLine
 10
426.9099674677303
 20
232.1453385427919
 30
0.0
 11
273.1599674677303
 21
232.1453385427919
 31
0.0
  0
TEXT
  5
44A
330
1F
100
AcDbEntity
  8
D-5
  6
Continuous
 62
     2
370
     9
100
AcDbText
 10
273.1599674677303
 20
236.0596659124088
 30
0.0
 40
9.144
  1
モルタル止め：ｔ＝１.０
 41
1.114130434782609
  7
ＭＳ ゴシック
100
AcDbText
  0
LINE
  5
44B
330
1F
100
AcDbEntity
  8
D-5
  6
Continuous
 62
     7
370
     9
100
AcDbLine
 10
426.9099674677303
 20
232.1453385427919
 30
0.0
 11
506.075636985191
 21
95.02637672334276
 31
0.0
  0
LINE
  5
44C
330
1F
100
AcDbEntity
  8
D-5
  6
Continuous
 62
     7
370
     9
100
AcDbLine
 10
506.075636985191
 20
95.02637672334276
 30
0.0
 11
501.5099262676256
 21
100.976526775527
 31
0.0
  0
LINE
  5
44D
330
1F
100
AcDbEntity
  8
D-5
  6
Continuous
 62
     7
370
     9
100
AcDbLine
 10
506.075636985191
 20
95.02637672334276
 30
0.0
 11
503.2055112424528
 21
101.9554732171774
 31
0.0
  0
LINE
  5
44E
330
1F
100
AcDbEntity
  8
D-5
  6
Continuous
 62
     7
370
     9
100
AcDbLine
 10
597.6608430384331
 20
-6.75139266927053
 30
0.0
 11
636.7901898246575
 21
61.02262403145221
 31
0.0
  0
TEXT
  5
44F
330
1F
100
AcDbEntity
  8
D-5
  6
Continuous
 62
     2
370
     9
100
AcDbText
 10
457.4108430384331
 20
-0.4978518604437525
 30
0.0
 40
9.144
  1
クッション：ｔ＝５.０
 41
1.113095238095238
  7
ＭＳ ゴシック
100
AcDbText
  0
LINE
  5
450
330
1F
100
AcDbEntity
  8
D-5
  6
Continuous
 62
     7
370
     9
100
AcDbLine
 10
597.6608430384331
 20
-6.75139266927053
 30
0.0
 11
457.4108430384331
 21
-6.75139266927053
 31
0.0
  0
TEXT
  5
451
330
1F
100
AcDbEntity
  8
D-5
  6
Continuous
 62
     2
370
     9
100
AcDbText
 10
457.4108430384331
 20
-21.62093347809731
 30
0.0
 40
9.144
  1
クロロプレンゴム
 41
1.109375
  7
ＭＳ ゴシック
100
AcDbText
  0
LWPOLYLINE
  5
452
330
1F
100
AcDbEntity
  8
D-4
  6
Continuous
 62
     7
370
     9
100
AcDbPolyline
 90
        4
 70
     1
 43
0.6000000000000001
 10
689.3756233760005
 20
230.143713316165
 42
0.4142135623731
 10
689.0756233760005
 20
230.443713316165
 42
0.4142135623731
 10
688.7756233760006
 20
230.143713316165
 42
0.4142135623731
 10
689.0756233760005
 20
229.843713316165
 42
0.4142135623731
  0
LINE
  5
453
330
1F
100
AcDbEntity
  8
D-4
  6
Continuous
 62
     7
370
     9
100
AcDbLine
 10
695.0755689392397
 20
231.043713316165
 30
0.0
 11
695.0755689392397
 21
213.5261589762984
 31
0.0
  0
LINE
  5
454
330
1F
100
AcDbEntity
  8
D-4
  6
Continuous
 62
     7
370
     9
100
AcDbLine
 10
689.0756233760005
 20
231.043713316165
 30
0.0
 11
689.0756233760005
 21
213.5261589762984
 31
0.0
  0
LINE
  5
455
330
1F
100
AcDbEntity
  8
D-4
  6
Continuous
 62
     7
370
     9
100
AcDbLine
 10
689.0756233760005
 20
230.143713316165
 30
0.0
 11
675.5756023436159
 21
230.143713316165
 31
0.0
  0
LWPOLYLINE
  5
456
330
1F
100
AcDbEntity
  8
D-4
  6
Continuous
 62
     7
370
     9
100
AcDbPolyline
 90
        4
 70
     1
 43
0.6000000000000001
 10
675.8756023436158
 20
230.143713316165
 42
0.4142135623731
 10
675.5756023436159
 20
230.443713316165
 42
0.4142135623731
 10
675.2756023436159
 20
230.143713316165
 42
0.4142135623731
 10
675.5756023436159
 20
229.843713316165
 42
0.4142135623731
  0
LINE
  5
457
330
1F
100
AcDbEntity
  8
D-4
  6
Continuous
 62
     7
370
     9
100
AcDbLine
 10
675.5756023436159
 20
231.043713316165
 30
0.0
 11
675.5756023436159
 21
212.0263767233427
 31
0.0
  0
TEXT
  5
458
330
1F
100
AcDbEntity
  8
D-4
  6
Continuous
 62
     2
370
   211
100
AcDbText
 10
679.3256128598082
 20
233.635713316165
 30
0.0
 40
9.144
  1
9
  7
ＭＳ ゴシック
100
AcDbText
  0
LINE
  5
459
330
1F
100
AcDbEntity
  8
D-4
  6
Continuous
 62
     7
370
     9
100
AcDbLine
 10
675.5756023436159
 20
230.143713316165
 30
0.0
 11
458.1435836120417
 21
230.143713316165
 31
0.0
  0
LINE
  5
45A
330
1F
100
AcDbEntity
  8
D-4
  6
Continuous
 62
     7
370
     9
100
AcDbLine
 10
695.0755689392397
 20
311.4448809221417
 30
0.0
 11
458.1435836120417
 21
311.4448809221417
 31
0.0
  0
LWPOLYLINE
  5
45B
330
1F
100
AcDbEntity
  8
D-4
  6
Continuous
 62
     7
370
     9
100
AcDbPolyline
 90
        4
 70
     1
 43
0.6000000000000001
 10
695.3755689392397
 20
311.4448809221417
 42
0.4142135623731
 10
695.0755689392397
 20
311.7448809221416
 42
0.4142135623731
 10
694.7755689392397
 20
311.4448809221417
 42
0.4142135623731
 10
695.0755689392397
 20
311.1448809221417
 42
0.4142135623731
  0
LINE
  5
45C
330
1F
100
AcDbEntity
  8
D-4
  6
Continuous
 62
     7
370
     9
100
AcDbLine
 10
695.0755689392397
 20
312.3448809221416
 30
0.0
 11
695.0755689392397
 21
213.5261589762984
 31
0.0
  0
LWPOLYLINE
  5
45D
330
1F
100
AcDbEntity
  8
D-4
  6
Continuous
 62
     7
370
     9
100
AcDbPolyline
 90
        4
 70
     1
 43
0.6000000000000001
 10
695.3755689392397
 20
270.2909737512631
 42
0.4142135623731
 10
695.0755689392397
 20
270.5909737512631
 42
0.4142135623731
 10
694.7755689392397
 20
270.2909737512631
 42
0.4142135623731
 10
695.0755689392397
 20
269.9909737512631
 42
0.4142135623731
  0
LWPOLYLINE
  5
45E
330
1F
100
AcDbEntity
  8
D-4
  6
Continuous
 62
     7
370
     9
100
AcDbPolyline
 90
        4
 70
     1
 43
0.6000000000000001
 10
689.3756233760005
 20
270.2909737512631
 42
0.4142135623731
 10
689.0756233760005
 20
270.5909737512631
 42
0.4142135623731
 10
688.7756233760006
 20
270.2909737512631
 42
0.4142135623731
 10
689.0756233760005
 20
269.9909737512631
 42
0.4142135623731
  0
LINE
  5
45F
330
1F
100
AcDbEntity
  8
D-4
  6
Continuous
 62
     7
370
     9
100
AcDbLine
 10
689.0756233760005
 20
271.1909737512631
 30
0.0
 11
689.0756233760005
 21
213.5261589762984
 31
0.0
  0
LINE
  5
460
330
1F
100
AcDbEntity
  8
D-4
  6
Continuous
 62
     7
370
     9
100
AcDbLine
 10
689.0756233760005
 20
270.2909737512631
 30
0.0
 11
686.0755627532443
 21
270.2909737512631
 31
0.0
  0
LWPOLYLINE
  5
461
330
1F
100
AcDbEntity
  8
D-4
  6
Continuous
 62
     7
370
     9
100
AcDbPolyline
 90
        4
 70
     1
 43
0.6000000000000001
 10
686.3755627532443
 20
270.2909737512631
 42
0.4142135623731
 10
686.0755627532443
 20
270.5909737512631
 42
0.4142135623731
 10
685.7755627532442
 20
270.2909737512631
 42
0.4142135623731
 10
686.0755627532443
 20
269.9909737512631
 42
0.4142135623731
  0
LINE
  5
462
330
1F
100
AcDbEntity
  8
D-4
  6
Continuous
 62
     7
370
     9
100
AcDbLine
 10
686.0755627532443
 20
270.2909737512631
 30
0.0
 11
458.1435836120417
 21
270.2909737512631
 31
0.0
  0
TEXT
  5
463
330
1F
100
AcDbEntity
  8
D-4
  6
Continuous
 62
     2
370
   211
100
AcDbText
 10
678.1699529897803
 20
273.7829737512631
 30
0.0
 40
9.144
  1
2
  7
ＭＳ ゴシック
100
AcDbText
  0
TEXT
  5
464
330
1F
100
AcDbEntity
  8
D-4
  6
Continuous
 62
     2
370
   211
100
AcDbText
 10
698.4283142256627
 20
273.7829737512631
 30
0.0
 40
9.144
  1
4
  7
ＭＳ ゴシック
100
AcDbText
  0
LINE
  5
465
330
1F
100
AcDbEntity
  8
D-4
  6
Continuous
 62
     7
370
     9
100
AcDbLine
 10
686.0755627532443
 20
271.1909737512631
 30
0.0
 11
686.0755627532443
 21
246.3405329055448
 31
0.0
  0
LINE
  5
466
330
1F
100
AcDbEntity
  8
D-4
  6
Continuous
 62
     7
370
     9
100
AcDbLine
 10
706.5594863099348
 20
270.2909737512631
 30
0.0
 11
689.0756233760005
 21
270.2909737512631
 31
0.0
  0
TEXT
  5
467
330
1F
100
AcDbEntity
  8
D-4
  6
Continuous
 62
     2
370
   211
100
AcDbText
 10
465.8676120950344
 20
314.9368809221416
 30
0.0
 40
9.144
  1
552
 41
1.083333333333333
  7
ＭＳ ゴシック
100
AcDbText
  0
TEXT
  5
468
330
1F
100
AcDbEntity
  8
D-4
  6
Continuous
 62
     2
370
   211
100
AcDbText
 10
465.8676120950344
 20
273.7829737512631
 30
0.0
 40
9.144
  1
540
 41
1.083333333333333
  7
ＭＳ ゴシック
100
AcDbText
  0
TEXT
  5
469
330
1F
100
AcDbEntity
  8
D-4
  6
Continuous
 62
     2
370
   211
100
AcDbText
 10
465.8676120950344
 20
233.635713316165
 30
0.0
 40
9.144
  1
526
 41
1.083333333333333
  7
ＭＳ ゴシック
100
AcDbText
  0
LINE
  5
46A
330
1F
100
AcDbEntity
  8
躯体
  6
Continuous
 62
     2
370
     9
100
AcDbLine
 10
-454.2151771792244
 20
-475.7643800837151
 30
0.0
 11
-456.2151771792246
 21
-475.7643800837151
 31
0.0
  0
LINE
  5
46B
330
1F
100
AcDbEntity
  8
躯体
  6
Continuous
 62
     2
370
     9
100
AcDbLine
 10
-469.7151347609699
 20
-475.7643800837151
 30
0.0
 11
-471.7151347609705
 21
-475.7643800837151
 31
0.0
  0
ARC
  5
46C
330
1F
100
AcDbEntity
  8
躯体
  6
Continuous
 62
     2
370
     9
100
AcDbCircle
 10
-469.7151347609699
 20
-471.9643860918634
 30
0.0
 40
2.0
100
AcDbArc
 50
90.0
 51
180.0
  0
LINE
  5
46D
330
1F
100
AcDbEntity
  8
躯体
  6
Continuous
 62
     2
370
     9
100
AcDbLine
 10
-456.2151771792246
 20
-469.9643860918634
 30
0.0
 11
-469.7151347609699
 21
-469.9643860918634
 31
0.0
  0
ARC
  5
46E
330
1F
100
AcDbEntity
  8
躯体
  6
Continuous
 62
     2
370
     9
100
AcDbCircle
 10
-456.2151771792246
 20
-471.9643860918634
 30
0.0
 40
2.0
100
AcDbArc
 50
0.0
 51
90.0
  0
ARC
  5
46F
330
1F
100
AcDbEntity
  8
躯体
  6
JWW_DASHED2
 62
     2
370
     9
100
AcDbCircle
 10
-468.7151347609702
 20
-472.9643860918634
 30
0.0
 40
1.0
100
AcDbArc
 50
90.0
 51
180.0
  0
LINE
  5
470
330
1F
100
AcDbEntity
  8
躯体
  6
Continuous
 62
     2
370
     9
100
AcDbLine
 10
-471.7151347609702
 20
-473.964653120672
 30
0.0
 11
-471.7151347609702
 21
-475.7643800837151
 31
0.0
  0
LINE
  5
471
330
1F
100
AcDbEntity
  8
躯体
  6
JWW_DASHED2
 62
     2
370
     9
100
AcDbLine
 10
-471.7151347609702
 20
-473.964653120672
 30
0.0
 11
-471.7151347609702
 21
-471.9643860918634
 31
0.0
  0
LINE
  5
472
330
1F
100
AcDbEntity
  8
躯体
  6
Continuous
 62
     2
370
     9
100
AcDbLine
 10
-469.7151347609699
 20
-473.964653120672
 30
0.0
 11
-469.7151347609699
 21
-475.7643800837151
 31
0.0
  0
LINE
  5
473
330
1F
100
AcDbEntity
  8
躯体
  6
JWW_DASHED2
 62
     2
370
     9
100
AcDbLine
 10
-469.7151347609699
 20
-473.964653120672
 30
0.0
 11
-469.7151347609699
 21
-472.9643860918634
 31
0.0
  0
ARC
  5
474
330
1F
100
AcDbEntity
  8
躯体
  6
JWW_DASHED2
 62
     2
370
     9
100
AcDbCircle
 10
-457.2151771792244
 20
-472.9643860918634
 30
0.0
 40
1.0
100
AcDbArc
 50
0.0
 51
90.0
  0
LINE
  5
475
330
1F
100
AcDbEntity
  8
躯体
  6
Continuous
 62
     2
370
     9
100
AcDbLine
 10
-454.2151771792244
 20
-473.964653120672
 30
0.0
 11
-454.2151771792244
 21
-475.7643800837151
 31
0.0
  0
LINE
  5
476
330
1F
100
AcDbEntity
  8
躯体
  6
JWW_DASHED2
 62
     2
370
     9
100
AcDbLine
 10
-454.2151771792244
 20
-473.964653120672
 30
0.0
 11
-454.2151771792244
 21
-471.9643860918634
 31
0.0
  0
LINE
  5
477
330
1F
100
AcDbEntity
  8
躯体
  6
Continuous
 62
     2
370
     9
100
AcDbLine
 10
-456.2151771792246
 20
-473.964653120672
 30
0.0
 11
-456.2151771792246
 21
-475.7643800837151
 31
0.0
  0
LINE
  5
478
330
1F
100
AcDbEntity
  8
躯体
  6
JWW_DASHED2
 62
     2
370
     9
100
AcDbLine
 10
-456.2151771792246
 20
-473.964653120672
 30
0.0
 11
-456.2151771792246
 21
-472.9643860918634
 31
0.0
  0
LINE
  5
479
330
1F
100
AcDbEntity
  8
躯体
  6
Continuous
 62
     2
370
     9
100
AcDbLine
 10
-806.2150188177386
 20
-475.7643800837151
 30
0.0
 11
-808.2150188177392
 21
-475.7643800837151
 31
0.0
  0
LINE
  5
47A
330
1F
100
AcDbEntity
  8
躯体
  6
Continuous
 62
     2
370
     9
100
AcDbLine
 10
-821.7149763994842
 20
-475.7643800837151
 30
0.0
 11
-823.7149763994847
 21
-475.7643800837151
 31
0.0
  0
ARC
  5
47B
330
1F
100
AcDbEntity
  8
躯体
  6
Continuous
 62
     2
370
     9
100
AcDbCircle
 10
-821.7149763994842
 20
-471.9643860918634
 30
0.0
 40
2.0
100
AcDbArc
 50
90.0
 51
180.0
  0
LINE
  5
47C
330
1F
100
AcDbEntity
  8
躯体
  6
Continuous
 62
     2
370
     9
100
AcDbLine
 10
-808.2150188177392
 20
-469.9643860918634
 30
0.0
 11
-821.7149763994842
 21
-469.9643860918634
 31
0.0
  0
ARC
  5
47D
330
1F
100
AcDbEntity
  8
躯体
  6
Continuous
 62
     2
370
     9
100
AcDbCircle
 10
-808.2150188177392
 20
-471.9643860918634
 30
0.0
 40
2.0
100
AcDbArc
 50
0.0
 51
90.0
  0
ARC
  5
47E
330
1F
100
AcDbEntity
  8
躯体
  6
JWW_DASHED2
 62
     2
370
     9
100
AcDbCircle
 10
-820.7149763994847
 20
-472.9643860918634
 30
0.0
 40
1.0
100
AcDbArc
 50
90.0
 51
180.0
  0
LINE
  5
47F
330
1F
100
AcDbEntity
  8
躯体
  6
Continuous
 62
     2
370
     9
100
AcDbLine
 10
-823.7149763994847
 20
-473.964653120672
 30
0.0
 11
-823.7149763994847
 21
-475.7643800837151
 31
0.0
  0
LINE
  5
480
330
1F
100
AcDbEntity
  8
躯体
  6
JWW_DASHED2
 62
     2
370
     9
100
AcDbLine
 10
-823.7149763994847
 20
-473.964653120672
 30
0.0
 11
-823.7149763994847
 21
-471.9643860918634
 31
0.0
  0
LINE
  5
481
330
1F
100
AcDbEntity
  8
躯体
  6
Continuous
 62
     2
370
     9
100
AcDbLine
 10
-821.7149763994842
 20
-473.964653120672
 30
0.0
 11
-821.7149763994842
 21
-475.7643800837151
 31
0.0
  0
LINE
  5
482
330
1F
100
AcDbEntity
  8
躯体
  6
JWW_DASHED2
 62
     2
370
     9
100
AcDbLine
 10
-821.7149763994842
 20
-473.964653120672
 30
0.0
 11
-821.7149763994842
 21
-472.9643860918634
 31
0.0
  0
ARC
  5
483
330
1F
100
AcDbEntity
  8
躯体
  6
JWW_DASHED2
 62
     2
370
     9
100
AcDbCircle
 10
-809.2150188177386
 20
-472.9643860918634
 30
0.0
 40
1.0
100
AcDbArc
 50
0.0
 51
90.0
  0
LINE
  5
484
330
1F
100
AcDbEntity
  8
躯体
  6
Continuous
 62
     2
370
     9
100
AcDbLine
 10
-806.2150188177386
 20
-473.964653120672
 30
0.0
 11
-806.2150188177386
 21
-475.7643800837151
 31
0.0
  0
LINE
  5
485
330
1F
100
AcDbEntity
  8
躯体
  6
JWW_DASHED2
 62
     2
370
     9
100
AcDbLine
 10
-806.2150188177386
 20
-473.964653120672
 30
0.0
 11
-806.2150188177386
 21
-471.9643860918634
 31
0.0
  0
LINE
  5
486
330
1F
100
AcDbEntity
  8
躯体
  6
Continuous
 62
     2
370
     9
100
AcDbLine
 10
-808.2150188177392
 20
-473.964653120672
 30
0.0
 11
-808.2150188177392
 21
-475.7643800837151
 31
0.0
  0
LINE
  5
487
330
1F
100
AcDbEntity
  8
躯体
  6
JWW_DASHED2
 62
     2
370
     9
100
AcDbLine
 10
-808.2150188177392
 20
-473.964653120672
 30
0.0
 11
-808.2150188177392
 21
-472.9643860918634
 31
0.0
  0
LINE
  5
488
330
1F
100
AcDbEntity
  8
0-7
  6
JWW_DASHED1
 62
     2
370
     9
100
AcDbLine
 10
-888.9650355493839
 20
-444.4647492935717
 30
0.0
 11
-888.9650355493839
 21
-419.4647410455776
 31
0.0
  0
LINE
  5
489
330
1F
100
AcDbEntity
  8
0-7
  6
JWW_DASHED1
 62
     2
370
     9
100
AcDbLine
 10
-868.965043797378
 20
-419.4647410455776
 30
0.0
 11
-888.9650355493839
 21
-419.4647410455776
 31
0.0
  0
LINE
  5
48A
330
1F
100
AcDbEntity
  8
0-7
  6
JWW_DASHED1
 62
     2
370
     9
100
AcDbLine
 10
-868.965043797378
 20
-424.9647344471823
 30
0.0
 11
-888.9650355493839
 21
-424.9647344471823
 31
0.0
  0
LINE
  5
48B
330
1F
100
AcDbEntity
  8
0-7
  6
JWW_DASHED1
 62
     2
370
     9
100
AcDbLine
 10
-868.965043797378
 20
-438.964755891967
 30
0.0
 11
-888.9650355493839
 21
-438.964755891967
 31
0.0
  0
LINE
  5
48C
330
1F
100
AcDbEntity
  8
0-7
  6
JWW_DASHED1
 62
     2
370
     9
100
AcDbLine
 10
-868.965043797378
 20
-444.4647492935717
 30
0.0
 11
-868.965043797378
 21
-419.4647410455776
 31
0.0
  0
LINE
  5
48D
330
1F
100
AcDbEntity
  8
0-7
  6
JWW_DASHED1
 62
     2
370
     9
100
AcDbLine
 10
-408.9651468973044
 20
-444.4647492935717
 30
0.0
 11
-408.9651468973044
 21
-419.4647410455776
 31
0.0
  0
LINE
  5
48E
330
1F
100
AcDbEntity
  8
0-7
  6
JWW_DASHED1
 62
     2
370
     9
100
AcDbLine
 10
-388.9651551452985
 20
-419.4647410455776
 30
0.0
 11
-408.9651468973044
 21
-419.4647410455776
 31
0.0
  0
LINE
  5
48F
330
1F
100
AcDbEntity
  8
0-7
  6
JWW_DASHED1
 62
     2
370
     9
100
AcDbLine
 10
-388.9651551452985
 20
-424.9647344471823
 30
0.0
 11
-408.9651468973044
 21
-424.9647344471823
 31
0.0
  0
LINE
  5
490
330
1F
100
AcDbEntity
  8
0-7
  6
JWW_DASHED1
 62
     2
370
     9
100
AcDbLine
 10
-388.9651551452985
 20
-438.964755891967
 30
0.0
 11
-408.9651468973044
 21
-438.964755891967
 31
0.0
  0
LINE
  5
491
330
1F
100
AcDbEntity
  8
0-7
  6
JWW_DASHED1
 62
     2
370
     9
100
AcDbLine
 10
-388.9651551452985
 20
-444.4647492935717
 30
0.0
 11
-388.9651551452985
 21
-419.4647410455776
 31
0.0
  0
LINE
  5
492
330
1F
100
AcDbEntity
  8
0-7
  6
Continuous
 62
     2
370
     9
100
AcDbLine
 10
-868.9650932853426
 20
-23.967320139793
 30
0.0
 11
-868.9650932853426
 21
-31.9673465333741
 31
0.0
  0
LINE
  5
493
330
1F
100
AcDbEntity
  8
0-7
  6
Continuous
 62
     2
370
     9
100
AcDbLine
 10
-888.9650850373487
 20
-23.967320139793
 30
0.0
 11
-888.9650850373487
 21
-31.9673465333741
 31
0.0
  0
LINE
  5
494
330
1F
100
AcDbEntity
  8
0-7
  6
Continuous
 62
     2
370
     9
100
AcDbLine
 10
-888.9650850373487
 20
-31.9673465333741
 30
0.0
 11
-868.9650932853426
 21
-31.9673465333741
 31
0.0
  0
LINE
  5
495
330
1F
100
AcDbEntity
  8
0-7
  6
JWW_DASHED1
 62
     2
370
     9
100
AcDbLine
 10
-888.9650850373487
 20
-30.96739272214097
 30
0.0
 11
-868.9650932853426
 21
-30.96739272214097
 31
0.0
  0
LINE
  5
496
330
1F
100
AcDbEntity
  8
0-7
  6
JWW_DASHED1
 62
     2
370
     9
100
AcDbLine
 10
-888.9650850373487
 20
-24.96727395102613
 30
0.0
 11
-868.9650932853426
 21
-24.96727395102613
 31
0.0
  0
LINE
  5
497
330
1F
100
AcDbEntity
  8
0-7
  6
Continuous
 62
     2
370
     9
100
AcDbLine
 10
-388.9651180293252
 20
-23.967320139793
 30
0.0
 11
-388.9651180293252
 21
-31.9673465333741
 31
0.0
  0
LINE
  5
498
330
1F
100
AcDbEntity
  8
0-7
  6
Continuous
 62
     2
370
     9
100
AcDbLine
 10
-408.9651097813311
 20
-23.967320139793
 30
0.0
 11
-408.9651097813311
 21
-31.9673465333741
 31
0.0
  0
LINE
  5
499
330
1F
100
AcDbEntity
  8
0-7
  6
Continuous
 62
     2
370
     9
100
AcDbLine
 10
-408.9651097813311
 20
-31.9673465333741
 30
0.0
 11
-388.9651180293252
 21
-31.9673465333741
 31
0.0
  0
LINE
  5
49A
330
1F
100
AcDbEntity
  8
0-7
  6
JWW_DASHED1
 62
     2
370
     9
100
AcDbLine
 10
-408.9651097813311
 20
-30.96739272214097
 30
0.0
 11
-388.9651180293252
 21
-30.96739272214097
 31
0.0
  0
LINE
  5
49B
330
1F
100
AcDbEntity
  8
0-7
  6
JWW_DASHED1
 62
     2
370
     9
100
AcDbLine
 10
-408.9651097813311
 20
-24.96727395102613
 30
0.0
 11
-388.9651180293252
 21
-24.96727395102613
 31
0.0
  0
LINE
  5
49C
330
1F
100
AcDbEntity
  8
0-7
  6
Continuous
 62
     2
370
     9
100
AcDbLine
 10
-868.9650932853426
 20
502.0327821353334
 30
0.0
 11
-868.9650932853426
 21
510.0328085289145
 31
0.0
  0
LINE
  5
49D
330
1F
100
AcDbEntity
  8
0-7
  6
Continuous
 62
     2
370
     9
100
AcDbLine
 10
-888.9650850373487
 20
502.0327821353334
 30
0.0
 11
-888.9650850373487
 21
510.0328085289145
 31
0.0
  0
LINE
  5
49E
330
1F
100
AcDbEntity
  8
0-7
  6
Continuous
 62
     2
370
     9
100
AcDbLine
 10
-888.9650850373487
 20
510.0328085289145
 30
0.0
 11
-868.9650932853426
 21
510.0328085289145
 31
0.0
  0
LINE
  5
49F
330
1F
100
AcDbEntity
  8
0-7
  6
JWW_DASHED1
 62
     2
370
     9
100
AcDbLine
 10
-888.9650850373487
 20
509.0328547176813
 30
0.0
 11
-868.9650932853426
 21
509.0328547176813
 31
0.0
  0
LINE
  5
4A0
330
1F
100
AcDbEntity
  8
0-7
  6
JWW_DASHED1
 62
     2
370
     9
100
AcDbLine
 10
-888.9650850373487
 20
503.0327359465665
 30
0.0
 11
-868.9650932853426
 21
503.0327359465665
 31
0.0
  0
LINE
  5
4A1
330
1F
100
AcDbEntity
  8
0-7
  6
Continuous
 62
     2
370
     9
100
AcDbLine
 10
-388.9651180293252
 20
502.0327821353334
 30
0.0
 11
-388.9651180293252
 21
510.0328085289145
 31
0.0
  0
LINE
  5
4A2
330
1F
100
AcDbEntity
  8
0-7
  6
Continuous
 62
     2
370
     9
100
AcDbLine
 10
-408.9651097813311
 20
502.0327821353334
 30
0.0
 11
-408.9651097813311
 21
510.0328085289145
 31
0.0
  0
LINE
  5
4A3
330
1F
100
AcDbEntity
  8
0-7
  6
Continuous
 62
     2
370
     9
100
AcDbLine
 10
-408.9651097813311
 20
510.0328085289145
 30
0.0
 11
-388.9651180293252
 21
510.0328085289145
 31
0.0
  0
LINE
  5
4A4
330
1F
100
AcDbEntity
  8
0-7
  6
JWW_DASHED1
 62
     2
370
     9
100
AcDbLine
 10
-408.9651097813311
 20
509.0328547176813
 30
0.0
 11
-388.9651180293252
 21
509.0328547176813
 31
0.0
  0
LINE
  5
4A5
330
1F
100
AcDbEntity
  8
0-7
  6
JWW_DASHED1
 62
     2
370
     9
100
AcDbLine
 10
-408.9651097813311
 20
503.0327359465665
 30
0.0
 11
-388.9651180293252
 21
503.0327359465665
 31
0.0
  0
LINE
  5
4A6
330
1F
100
AcDbEntity
  8
0-7
  6
Continuous
 62
     2
370
     9
100
AcDbLine
 10
-888.9650850373487
 20
-23.967320139793
 30
0.0
 11
-868.9650932853426
 21
-23.967320139793
 31
0.0
  0
LINE
  5
4A7
330
1F
100
AcDbEntity
  8
0-7
  6
Continuous
 62
     2
370
     9
100
AcDbLine
 10
-408.9651097813311
 20
-23.967320139793
 30
0.0
 11
-388.9651180293252
 21
-23.967320139793
 31
0.0
  0
LINE
  5
4A8
330
1F
100
AcDbEntity
  8
0-7
  6
Continuous
 62
     2
370
     9
100
AcDbLine
 10
-888.9650850373487
 20
502.0327821353334
 30
0.0
 11
-868.9650932853426
 21
502.0327821353334
 31
0.0
  0
LINE
  5
4A9
330
1F
100
AcDbEntity
  8
0-7
  6
Continuous
 62
     2
370
     9
100
AcDbLine
 10
-408.9651097813311
 20
502.0327821353334
 30
0.0
 11
-388.9651180293252
 21
502.0327821353334
 31
0.0
  0
LINE
  5
4AA
330
1F
100
AcDbEntity
  8
0-7
  6
JWW_DASHED1
 62
     2
370
     9
100
AcDbLine
 10
-868.965043797378
 20
-444.4647492935717
 30
0.0
 11
-888.9650355493839
 21
-444.4647492935717
 31
0.0
  0
LINE
  5
4AB
330
1F
100
AcDbEntity
  8
0-7
  6
JWW_DASHED1
 62
     2
370
     9
100
AcDbLine
 10
-388.9651551452985
 20
-444.4647492935717
 30
0.0
 11
-408.9651468973044
 21
-444.4647492935717
 31
0.0
  0
LINE
  5
4AC
330
1F
100
AcDbEntity
  8
躯体
  6
Continuous
 62
     2
370
     9
100
AcDbLine
 10
125.9948056842491
 20
-472.7643796068781
 30
0.0
 11
125.9948056842491
 21
-469.9643860918634
 31
0.0
  0
LINE
  5
4AD
330
1F
100
AcDbEntity
  8
躯体
  6
Continuous
 62
     2
370
     9
100
AcDbLine
 10
129.9948242808983
 20
-471.9643956286066
 30
0.0
 11
129.9948242808983
 21
-469.9643860918634
 31
0.0
  0
LINE
  5
4AE
330
1F
100
AcDbEntity
  8
躯体
  6
Continuous
 62
     2
370
     9
100
AcDbLine
 10
125.9898008014366
 20
-471.9643956286066
 30
0.0
 11
135.9947664772805
 21
-471.9643956286066
 31
0.0
  0
LINE
  5
4AF
330
1F
100
AcDbEntity
  8
躯体
  6
Continuous
 62
     2
370
     9
100
AcDbLine
 10
155.99483238713
 20
-469.4646569353692
 30
0.0
 11
155.99483238713
 21
-473.964653120672
 31
0.0
  0
LINE
  5
4B0
330
1F
100
AcDbEntity
  8
躯体
  6
Continuous
 62
     2
370
     9
100
AcDbLine
 10
135.9947664772805
 20
-473.964653120672
 30
0.0
 11
155.99483238713
 21
-473.964653120672
 31
0.0
  0
LINE
  5
4B1
330
1F
100
AcDbEntity
  8
躯体
  6
Continuous
 62
     2
370
     9
100
AcDbLine
 10
135.9947664772805
 20
-469.4646569353692
 30
0.0
 11
155.99483238713
 21
-469.4646569353692
 31
0.0
  0
LINE
  5
4B2
330
1F
100
AcDbEntity
  8
躯体
  6
Continuous
 62
     2
370
     9
100
AcDbLine
 10
143.2448524142907
 20
-474.4643822771662
 30
0.0
 11
143.2448524142907
 21
-473.964653120672
 31
0.0
  0
LINE
  5
4B3
330
1F
100
AcDbEntity
  8
躯体
  6
Continuous
 62
     2
370
     9
100
AcDbLine
 10
144.9949945117638
 20
-475.9642640215508
 30
0.0
 11
143.2448524142907
 21
-474.4643822771662
 31
0.0
  0
LINE
  5
4B4
330
1F
100
AcDbEntity
  8
躯体
  6
Continuous
 62
     2
370
     9
100
AcDbLine
 10
146.994778027694
 20
-475.9642640215508
 30
0.0
 11
144.9949945117638
 21
-475.9642640215508
 31
0.0
  0
LINE
  5
4B5
330
1F
100
AcDbEntity
  8
躯体
  6
Continuous
 62
     2
370
     9
100
AcDbLine
 10
148.7448705341026
 20
-474.4643822771662
 30
0.0
 11
146.994778027694
 21
-475.9642640215508
 31
0.0
  0
LINE
  5
4B6
330
1F
100
AcDbEntity
  8
躯体
  6
Continuous
 62
     2
370
     9
100
AcDbLine
 10
148.7448705341026
 20
-474.4643822771662
 30
0.0
 11
148.7448705341026
 21
-473.964653120672
 31
0.0
  0
LINE
  5
4B7
330
1F
100
AcDbEntity
  8
躯体
  6
Continuous
 62
     2
370
     9
100
AcDbLine
 10
148.7448705341026
 20
-474.4643822771662
 30
0.0
 11
143.2448524142907
 21
-474.4643822771662
 31
0.0
  0
LINE
  5
4B8
330
1F
100
AcDbEntity
  8
躯体
  6
Continuous
 62
     2
370
     9
100
AcDbLine
 10
135.9947664772805
 20
-469.4646569353692
 30
0.0
 11
135.9947664772805
 21
-473.964653120672
 31
0.0
  0
LINE
  5
4B9
330
1F
100
AcDbEntity
  8
躯体
  6
Continuous
 62
     2
370
     9
100
AcDbLine
 10
135.9947664772805
 20
-471.4646569353693
 30
0.0
 11
155.99483238713
 21
-471.4646569353693
 31
0.0
  0
LINE
  5
4BA
330
1F
100
AcDbEntity
  8
躯体
  6
JWW_DASHED2
 62
     2
370
     9
100
AcDbLine
 10
135.9947664772805
 20
-471.964653120672
 30
0.0
 11
155.99483238713
 21
-471.964653120672
 31
0.0
  0
ARC
  5
4BB
330
1F
100
AcDbEntity
  8
躯体
  6
Continuous
 62
     2
370
     9
100
AcDbCircle
 10
122.9947913791343
 20
-472.7643796068781
 30
0.0
 40
3.000000476837158
100
AcDbArc
 50
270.0
 51
0.0000000000000254
  0
LINE
  5
4BC
330
1F
100
AcDbEntity
  8
躯体
  6
Continuous
 62
     2
370
     9
100
AcDbLine
 10
122.9947913791343
 20
-475.7643929583184
 30
0.0
 11
99.99478279606558
 21
-475.7643929583184
 31
0.0
  0
LINE
  5
4BD
330
1F
100
AcDbEntity
  8
躯体
  6
Continuous
 62
     2
370
     9
100
AcDbLine
 10
96.99482094303818
 20
-472.7643796068781
 30
0.0
 11
96.99482094303818
 21
-469.9643860918634
 31
0.0
  0
LINE
  5
4BE
330
1F
100
AcDbEntity
  8
躯体
  6
Continuous
 62
     2
370
     9
100
AcDbLine
 10
96.99482094303818
 20
-469.9643860918634
 30
0.0
 11
135.9947664772805
 21
-469.9643860918634
 31
0.0
  0
LINE
  5
4BF
330
1F
100
AcDbEntity
  8
躯体
  6
JWW_CENTER1
 62
     2
370
     9
100
AcDbLine
 10
145.994799008529
 20
-477.5124569994562
 30
0.0
 11
145.994799008529
 21
-469.4646569353692
 31
0.0
  0
ARC
  5
4C0
330
1F
100
AcDbEntity
  8
躯体
  6
Continuous
 62
     2
370
     9
100
AcDbCircle
 10
99.99478279606558
 20
-472.7643796068781
 30
0.0
 40
3.000000476837158
100
AcDbArc
 50
180.0
 51
270.0
  0
LINE
  5
4C1
330
1F
100
AcDbEntity
  8
躯体
  6
Continuous
 62
     2
370
     9
100
AcDbLine
 10
-465.7151025643359
 20
-474.4643822771662
 30
0.0
 11
-465.7151025643359
 21
-473.964653120672
 31
0.0
  0
LINE
  5
4C2
330
1F
100
AcDbEntity
  8
躯体
  6
Continuous
 62
     2
370
     9
100
AcDbLine
 10
-463.9649604668627
 20
-475.9642640215508
 30
0.0
 11
-465.7151025643359
 21
-474.4643822771662
 31
0.0
  0
LINE
  5
4C3
330
1F
100
AcDbEntity
  8
躯体
  6
Continuous
 62
     2
370
     9
100
AcDbLine
 10
-461.9651769509326
 20
-475.9642640215508
 30
0.0
 11
-463.9649604668627
 21
-475.9642640215508
 31
0.0
  0
LINE
  5
4C4
330
1F
100
AcDbEntity
  8
躯体
  6
Continuous
 62
     2
370
     9
100
AcDbLine
 10
-460.215084444524
 20
-474.4643822771662
 30
0.0
 11
-461.9651769509326
 21
-475.9642640215508
 31
0.0
  0
LINE
  5
4C5
330
1F
100
AcDbEntity
  8
躯体
  6
Continuous
 62
     2
370
     9
100
AcDbLine
 10
-460.215084444524
 20
-474.4643822771662
 30
0.0
 11
-460.215084444524
 21
-473.964653120672
 31
0.0
  0
LINE
  5
4C6
330
1F
100
AcDbEntity
  8
躯体
  6
Continuous
 62
     2
370
     9
100
AcDbLine
 10
-460.215084444524
 20
-474.4643822771662
 30
0.0
 11
-465.7151025643359
 21
-474.4643822771662
 31
0.0
  0
LINE
  5
4C7
330
1F
100
AcDbEntity
  8
躯体
  6
JWW_CENTER1
 62
     2
370
     9
100
AcDbLine
 10
-462.9651559700976
 20
-468.8684372952567
 30
0.0
 11
-462.9651559700976
 21
-477.152965795388
 31
0.0
  0
LINE
  5
4C8
330
1F
100
AcDbEntity
  8
躯体
  6
Continuous
 62
     2
370
     9
100
AcDbLine
 10
-422.9651559700972
 20
-469.4646569353692
 30
0.0
 11
-422.9651559700972
 21
-471.4646569353693
 31
0.0
  0
LINE
  5
4C9
330
1F
100
AcDbEntity
  8
躯体
  6
Continuous
 62
     2
370
     9
100
AcDbLine
 10
-472.9651559700974
 20
-471.964653120672
 30
0.0
 11
-472.9651559700974
 21
-473.964653120672
 31
0.0
  0
LINE
  5
4CA
330
1F
100
AcDbEntity
  8
躯体
  6
Continuous
 62
     2
370
     9
100
AcDbLine
 10
-448.1367297391911
 20
-471.4646569353693
 30
0.0
 11
-422.9651559700972
 21
-471.4646569353693
 31
0.0
  0
LINE
  5
4CB
330
1F
100
AcDbEntity
  8
躯体
  6
Continuous
 62
     2
370
     9
100
AcDbLine
 10
-449.7580503604318
 20
-473.0859750826713
 30
0.0
 11
-448.1367297391911
 21
-471.4646569353693
 31
0.0
  0
ARC
  5
4CC
330
1F
100
AcDbEntity
  8
躯体
  6
Continuous
 62
     2
370
     9
100
AcDbCircle
 10
-451.8793690855508
 20
-470.964653120672
 30
0.0
 40
3.0
100
AcDbArc
 50
270.0
 51
314.9999562867555
  0
LINE
  5
4CD
330
1F
100
AcDbEntity
  8
躯体
  6
Continuous
 62
     2
370
     9
100
AcDbLine
 10
-447.7225166237374
 20
-469.4646569353692
 30
0.0
 11
-422.9651559700972
 21
-469.4646569353692
 31
0.0
  0
LINE
  5
4CE
330
1F
100
AcDbEntity
  8
躯体
  6
Continuous
 62
     2
370
     9
100
AcDbLine
 10
-449.8438353488561
 20
-470.34333497337
 30
0.0
 11
-451.4651559700972
 21
-471.964653120672
 31
0.0
  0
ARC
  5
4CF
330
1F
100
AcDbEntity
  8
躯体
  6
Continuous
 62
     2
370
     9
100
AcDbCircle
 10
-447.7225166237374
 20
-472.4646569353692
 30
0.0
 40
3.0
100
AcDbArc
 50
90.0
 51
134.9999562867556
  0
LINE
  5
4D0
330
1F
100
AcDbEntity
  8
躯体
  6
Continuous
 62
     2
370
     9
100
AcDbLine
 10
-451.8793690855508
 20
-473.964653120672
 30
0.0
 11
-472.9651559700974
 21
-473.964653120672
 31
0.0
  0
LINE
  5
4D1
330
1F
100
AcDbEntity
  8
躯体
  6
Continuous
 62
     2
370
     9
100
AcDbLine
 10
-472.9651559700974
 20
-471.964653120672
 30
0.0
 11
-451.4651559700972
 21
-471.964653120672
 31
0.0
  0
LINE
  5
4D2
330
1F
100
AcDbEntity
  8
躯体
  6
Continuous
 62
     2
370
     9
100
AcDbLine
 10
-817.7149442028498
 20
-474.4643822771662
 30
0.0
 11
-817.7149442028498
 21
-473.964653120672
 31
0.0
  0
LINE
  5
4D3
330
1F
100
AcDbEntity
  8
躯体
  6
Continuous
 62
     2
370
     9
100
AcDbLine
 10
-815.9648021053766
 20
-475.9642640215508
 30
0.0
 11
-817.7149442028498
 21
-474.4643822771662
 31
0.0
  0
LINE
  5
4D4
330
1F
100
AcDbEntity
  8
躯体
  6
Continuous
 62
     2
370
     9
100
AcDbLine
 10
-813.9650185894465
 20
-475.9642640215508
 30
0.0
 11
-815.9648021053766
 21
-475.9642640215508
 31
0.0
  0
LINE
  5
4D5
330
1F
100
AcDbEntity
  8
躯体
  6
Continuous
 62
     2
370
     9
100
AcDbLine
 10
-812.2149260830382
 20
-474.4643822771662
 30
0.0
 11
-813.9650185894465
 21
-475.9642640215508
 31
0.0
  0
LINE
  5
4D6
330
1F
100
AcDbEntity
  8
躯体
  6
Continuous
 62
     2
370
     9
100
AcDbLine
 10
-812.2149260830382
 20
-474.4643822771662
 30
0.0
 11
-812.2149260830382
 21
-473.964653120672
 31
0.0
  0
LINE
  5
4D7
330
1F
100
AcDbEntity
  8
躯体
  6
Continuous
 62
     2
370
     9
100
AcDbLine
 10
-812.2149260830382
 20
-474.4643822771662
 30
0.0
 11
-817.7149442028498
 21
-474.4643822771662
 31
0.0
  0
LINE
  5
4D8
330
1F
100
AcDbEntity
  8
躯体
  6
JWW_CENTER1
 62
     2
370
     9
100
AcDbLine
 10
-814.9649976086115
 20
-468.8684372952567
 30
0.0
 11
-814.9649976086115
 21
-477.152965795388
 31
0.0
  0
LINE
  5
4D9
330
1F
100
AcDbEntity
  8
躯体
  6
Continuous
 62
     2
370
     9
100
AcDbLine
 10
-774.9649976086114
 20
-469.4646569353692
 30
0.0
 11
-774.9649976086114
 21
-471.4646569353693
 31
0.0
  0
LINE
  5
4DA
330
1F
100
AcDbEntity
  8
躯体
  6
Continuous
 62
     2
370
     9
100
AcDbLine
 10
-824.964997608612
 20
-471.964653120672
 30
0.0
 11
-824.964997608612
 21
-473.964653120672
 31
0.0
  0
LINE
  5
4DB
330
1F
100
AcDbEntity
  8
躯体
  6
Continuous
 62
     2
370
     9
100
AcDbLine
 10
-800.1365713777053
 20
-471.4646569353693
 30
0.0
 11
-774.9649976086114
 21
-471.4646569353693
 31
0.0
  0
LINE
  5
4DC
330
1F
100
AcDbEntity
  8
躯体
  6
Continuous
 62
     2
370
     9
100
AcDbLine
 10
-801.7578919989463
 20
-473.0859750826713
 30
0.0
 11
-800.1365713777053
 21
-471.4646569353693
 31
0.0
  0
ARC
  5
4DD
330
1F
100
AcDbEntity
  8
躯体
  6
Continuous
 62
     2
370
     9
100
AcDbCircle
 10
-803.879210724065
 20
-470.964653120672
 30
0.0
 40
3.0
100
AcDbArc
 50
270.0
 51
314.9999562867555
  0
LINE
  5
4DE
330
1F
100
AcDbEntity
  8
躯体
  6
Continuous
 62
     2
370
     9
100
AcDbLine
 10
-799.7223582622516
 20
-469.4646569353692
 30
0.0
 11
-774.9649976086114
 21
-469.4646569353692
 31
0.0
  0
LINE
  5
4DF
330
1F
100
AcDbEntity
  8
躯体
  6
Continuous
 62
     2
370
     9
100
AcDbLine
 10
-801.843676987371
 20
-470.34333497337
 30
0.0
 11
-803.4649976086114
 21
-471.964653120672
 31
0.0
  0
ARC
  5
4E0
330
1F
100
AcDbEntity
  8
躯体
  6
Continuous
 62
     2
370
     9
100
AcDbCircle
 10
-799.7223582622516
 20
-472.4646569353692
 30
0.0
 40
3.0
100
AcDbArc
 50
90.0
 51
134.9999562867556
  0
LINE
  5
4E1
330
1F
100
AcDbEntity
  8
躯体
  6
Continuous
 62
     2
370
     9
100
AcDbLine
 10
-803.879210724065
 20
-473.964653120672
 30
0.0
 11
-824.964997608612
 21
-473.964653120672
 31
0.0
  0
LINE
  5
4E2
330
1F
100
AcDbEntity
  8
躯体
  6
Continuous
 62
     2
370
     9
100
AcDbLine
 10
-824.964997608612
 20
-471.964653120672
 30
0.0
 11
-803.4649976086114
 21
-471.964653120672
 31
0.0
  0
LINE
  5
4E3
330
1F
100
AcDbEntity
  8
躯体
  6
Continuous
 62
     2
370
     9
100
AcDbLine
 10
677.994646497963
 20
-472.7643796068781
 30
0.0
 11
677.994646497963
 21
-469.9643860918634
 31
0.0
  0
LINE
  5
4E4
330
1F
100
AcDbEntity
  8
躯体
  6
Continuous
 62
     2
370
     9
100
AcDbLine
 10
673.9946279013138
 20
-471.9643956286066
 30
0.0
 11
673.9946279013138
 21
-469.9643860918634
 31
0.0
  0
LINE
  5
4E5
330
1F
100
AcDbEntity
  8
躯体
  6
Continuous
 62
     2
370
     9
100
AcDbLine
 10
677.9996513807757
 20
-471.9643956286066
 30
0.0
 11
667.9946857049317
 21
-471.9643956286066
 31
0.0
  0
LINE
  5
4E6
330
1F
100
AcDbEntity
  8
躯体
  6
Continuous
 62
     2
370
     9
100
AcDbLine
 10
647.9946197950821
 20
-469.4646569353692
 30
0.0
 11
647.9946197950821
 21
-473.964653120672
 31
0.0
  0
LINE
  5
4E7
330
1F
100
AcDbEntity
  8
躯体
  6
Continuous
 62
     2
370
     9
100
AcDbLine
 10
667.9946857049317
 20
-473.964653120672
 30
0.0
 11
647.9946197950821
 21
-473.964653120672
 31
0.0
  0
LINE
  5
4E8
330
1F
100
AcDbEntity
  8
躯体
  6
Continuous
 62
     2
370
     9
100
AcDbLine
 10
667.9946857049317
 20
-469.4646569353692
 30
0.0
 11
647.9946197950821
 21
-469.4646569353692
 31
0.0
  0
LINE
  5
4E9
330
1F
100
AcDbEntity
  8
躯体
  6
Continuous
 62
     2
370
     9
100
AcDbLine
 10
660.7445997679215
 20
-474.4643822771662
 30
0.0
 11
660.7445997679215
 21
-473.964653120672
 31
0.0
  0
LINE
  5
4EA
330
1F
100
AcDbEntity
  8
躯体
  6
Continuous
 62
     2
370
     9
100
AcDbLine
 10
658.9944576704484
 20
-475.9642640215508
 30
0.0
 11
660.7445997679215
 21
-474.4643822771662
 31
0.0
  0
LINE
  5
4EB
330
1F
100
AcDbEntity
  8
躯体
  6
Continuous
 62
     2
370
     9
100
AcDbLine
 10
656.9946741545182
 20
-475.9642640215508
 30
0.0
 11
658.9944576704484
 21
-475.9642640215508
 31
0.0
  0
LINE
  5
4EC
330
1F
100
AcDbEntity
  8
躯体
  6
Continuous
 62
     2
370
     9
100
AcDbLine
 10
655.2445816481095
 20
-474.4643822771662
 30
0.0
 11
656.9946741545182
 21
-475.9642640215508
 31
0.0
  0
LINE
  5
4ED
330
1F
100
AcDbEntity
  8
躯体
  6
Continuous
 62
     2
370
     9
100
AcDbLine
 10
655.2445816481095
 20
-474.4643822771662
 30
0.0
 11
655.2445816481095
 21
-473.964653120672
 31
0.0
  0
LINE
  5
4EE
330
1F
100
AcDbEntity
  8
躯体
  6
Continuous
 62
     2
370
     9
100
AcDbLine
 10
655.2445816481095
 20
-474.4643822771662
 30
0.0
 11
660.7445997679215
 21
-474.4643822771662
 31
0.0
  0
LINE
  5
4EF
330
1F
100
AcDbEntity
  8
躯体
  6
Continuous
 62
     2
370
     9
100
AcDbLine
 10
667.9946857049317
 20
-469.4646569353692
 30
0.0
 11
667.9946857049317
 21
-473.964653120672
 31
0.0
  0
LINE
  5
4F0
330
1F
100
AcDbEntity
  8
躯体
  6
Continuous
 62
     2
370
     9
100
AcDbLine
 10
667.9946857049317
 20
-471.4646569353693
 30
0.0
 11
647.9946197950821
 21
-471.4646569353693
 31
0.0
  0
LINE
  5
4F1
330
1F
100
AcDbEntity
  8
躯体
  6
JWW_DASHED2
 62
     2
370
     9
100
AcDbLine
 10
667.9946857049317
 20
-471.964653120672
 30
0.0
 11
647.9946197950821
 21
-471.964653120672
 31
0.0
  0
ARC
  5
4F2
330
1F
100
AcDbEntity
  8
躯体
  6
Continuous
 62
     2
370
     9
100
AcDbCircle
 10
680.9946608030777
 20
-472.7643796068781
 30
0.0
 40
3.000000476837158
100
AcDbArc
 50
180.0
 51
270.0
  0
LINE
  5
4F3
330
1F
100
AcDbEntity
  8
躯体
  6
Continuous
 62
     2
370
     9
100
AcDbLine
 10
680.9946608030777
 20
-475.7643929583184
 30
0.0
 11
703.9946693861466
 21
-475.7643929583184
 31
0.0
  0
LINE
  5
4F4
330
1F
100
AcDbEntity
  8
躯体
  6
Continuous
 62
     2
370
     9
100
AcDbLine
 10
706.9946312391742
 20
-472.7643796068781
 30
0.0
 11
706.9946312391742
 21
-469.9643860918634
 31
0.0
  0
LINE
  5
4F5
330
1F
100
AcDbEntity
  8
躯体
  6
Continuous
 62
     2
370
     9
100
AcDbLine
 10
706.9946312391742
 20
-469.9643860918634
 30
0.0
 11
667.9946857049317
 21
-469.9643860918634
 31
0.0
  0
LINE
  5
4F6
330
1F
100
AcDbEntity
  8
躯体
  6
JWW_CENTER1
 62
     2
370
     9
100
AcDbLine
 10
657.9946531736832
 20
-477.5124569994562
 30
0.0
 11
657.9946531736832
 21
-469.4646569353692
 31
0.0
  0
ARC
  5
4F7
330
1F
100
AcDbEntity
  8
躯体
  6
Continuous
 62
     2
370
     9
100
AcDbCircle
 10
703.9946693861466
 20
-472.7643796068781
 30
0.0
 40
3.000000476837158
100
AcDbArc
 50
270.0
 51
0.0
  0
LINE
  5
4F8
330
1F
100
AcDbEntity
  8
0-E
  6
Continuous
 62
     2
370
     9
100
AcDbLine
 10
9.994669179946868
 20
-366.4647097225313
 30
0.0
 11
12.99466917994687
 21
-366.4647097225313
 31
0.0
  0
LINE
  5
4F9
330
1F
100
AcDbEntity
  8
0-E
  6
Continuous
 62
     2
370
     9
100
AcDbLine
 10
122.9947714550735
 20
-366.4647097225313
 30
0.0
 11
125.9947714550735
 21
-366.4647097225313
 31
0.0
  0
LINE
  5
4FA
330
1F
100
AcDbEntity
  8
0-E
  6
Continuous
 62
     2
370
     9
100
AcDbLine
 10
677.9947516598875
 20
-366.4647097225313
 30
0.0
 11
680.9947516598875
 21
-366.4647097225313
 31
0.0
  0
LINE
  5
4FB
330
1F
100
AcDbEntity
  8
0-E
  6
Continuous
 62
     2
370
     9
100
AcDbLine
 10
790.9947516598875
 20
-366.4647097225313
 30
0.0
 11
793.9947516598875
 21
-366.4647097225313
 31
0.0
  0
LINE
  5
4FC
330
1F
100
AcDbEntity
  8
D-1
  6
Continuous
 62
     2
370
     9
100
AcDbLine
 10
699.5755390531485
 20
42.0766341226178
 30
0.0
 11
734.0755519277517
 21
42.0766341226178
 31
0.0
  0
LINE
  5
4FD
330
1F
100
AcDbEntity
  8
D-1
  6
Continuous
 62
     2
370
     9
100
AcDbLine
 10
695.0755175954764
 20
46.57665414977828
 30
0.0
 11
695.0755175954764
 21
50.77664442230025
 31
0.0
  0
LINE
  5
4FE
330
1F
100
AcDbEntity
  8
D-1
  6
Continuous
 62
     2
370
     9
100
AcDbLine
 10
738.575494707293
 20
46.57665414977828
 30
0.0
 11
738.575494707293
 21
50.77664442230025
 31
0.0
  0
LINE
  5
4FF
330
1F
100
AcDbEntity
  8
D-1
  6
Continuous
 62
     2
370
     9
100
AcDbLine
 10
689.0754897005025
 20
47.7766301171855
 30
0.0
 11
689.0754897005025
 21
50.77664442230025
 31
0.0
  0
LINE
  5
500
330
1F
100
AcDbEntity
  8
D-1
  6
Continuous
 62
     2
370
     9
100
AcDbLine
 10
695.0830249196954
 20
47.7766301171855
 30
0.0
 11
680.0755764059294
 21
47.7766301171855
 31
0.0
  0
LINE
  5
501
330
1F
100
AcDbEntity
  8
D-1
  6
Continuous
 62
     2
370
     9
100
AcDbLine
 10
738.575494707293
 20
50.77664442230025
 30
0.0
 11
680.0755764059294
 21
50.77664442230025
 31
0.0
  0
LINE
  5
502
330
1F
100
AcDbEntity
  8
D-1
  6
Continuous
 62
     2
370
     9
100
AcDbLine
 10
650.075477541155
 20
51.5262381570415
 30
0.0
 11
650.075477541155
 21
44.77624387908736
 31
0.0
  0
LINE
  5
503
330
1F
100
AcDbEntity
  8
D-1
  6
Continuous
 62
     2
370
     9
100
AcDbLine
 10
680.0755764059294
 20
44.77624387908736
 30
0.0
 11
650.075477541155
 21
44.77624387908736
 31
0.0
  0
LINE
  5
504
330
1F
100
AcDbEntity
  8
D-1
  6
Continuous
 62
     2
370
     9
100
AcDbLine
 10
680.0755764059294
 20
51.5262381570415
 30
0.0
 11
650.075477541155
 21
51.5262381570415
 31
0.0
  0
LINE
  5
505
330
1F
100
AcDbEntity
  8
D-1
  6
Continuous
 62
     2
370
     9
100
AcDbLine
 10
669.200447500414
 20
44.02665014434615
 30
0.0
 11
669.200447500414
 21
44.77624387908736
 31
0.0
  0
LINE
  5
506
330
1F
100
AcDbEntity
  8
D-1
  6
Continuous
 62
     2
370
     9
100
AcDbLine
 10
666.5752343542043
 20
41.77682752776917
 30
0.0
 11
669.200447500414
 21
44.02665014434615
 31
0.0
  0
LINE
  5
507
330
1F
100
AcDbEntity
  8
D-1
  6
Continuous
 62
     2
370
     9
100
AcDbLine
 10
663.5755590803091
 20
41.77682752776917
 30
0.0
 11
666.5752343542043
 21
41.77682752776917
 31
0.0
  0
LINE
  5
508
330
1F
100
AcDbEntity
  8
D-1
  6
Continuous
 62
     2
370
     9
100
AcDbLine
 10
660.9504203206961
 20
44.02665014434615
 30
0.0
 11
663.5755590803091
 21
41.77682752776917
 31
0.0
  0
LINE
  5
509
330
1F
100
AcDbEntity
  8
D-1
  6
Continuous
 62
     2
370
     9
100
AcDbLine
 10
660.9504203206961
 20
44.02665014434615
 30
0.0
 11
660.9504203206961
 21
44.77624387908736
 31
0.0
  0
LINE
  5
50A
330
1F
100
AcDbEntity
  8
D-1
  6
Continuous
 62
     2
370
     9
100
AcDbLine
 10
660.9504203206961
 20
44.02665014434615
 30
0.0
 11
669.200447500414
 21
44.02665014434615
 31
0.0
  0
LINE
  5
50B
330
1F
100
AcDbEntity
  8
D-1
  6
Continuous
 62
     2
370
     9
100
AcDbLine
 10
680.0755764059294
 20
51.5262381570415
 30
0.0
 11
680.0755764059294
 21
44.77624387908736
 31
0.0
  0
LINE
  5
50C
330
1F
100
AcDbEntity
  8
D-1
  6
Continuous
 62
     2
370
     9
100
AcDbLine
 10
680.0755764059294
 20
48.52623815704146
 30
0.0
 11
650.075477541155
 21
48.52623815704146
 31
0.0
  0
LINE
  5
50D
330
1F
100
AcDbEntity
  8
D-1
  6
JWW_DASHED2
 62
     2
370
     9
100
AcDbLine
 10
680.0755764059294
 20
47.77624387908736
 30
0.0
 11
650.075477541155
 21
47.77624387908736
 31
0.0
  0
LINE
  5
50E
330
1F
100
AcDbEntity
  8
D-1
  6
JWW_CENTER1
 62
     2
370
     9
100
AcDbLine
 10
665.0755276090566
 20
39.45453806091109
 30
0.0
 11
665.0755276090566
 21
51.5262381570415
 31
0.0
  0
ARC
  5
50F
330
1F
100
AcDbEntity
  8
D-1
  6
Continuous
 62
     2
370
     9
100
AcDbCircle
 10
699.5755390531485
 20
46.57665414977828
 30
0.0
 40
4.500000715255737
100
AcDbArc
 50
180.0
 51
270.0
  0
ARC
  5
510
330
1F
100
AcDbEntity
  8
D-1
  6
Continuous
 62
     2
370
     9
100
AcDbCircle
 10
734.0755519277517
 20
46.57665414977828
 30
0.0
 40
4.500000715255737
100
AcDbArc
 50
270.0
 51
0.0000000000000127
  0
LINE
  5
511
330
1F
100
AcDbEntity
  8
D-2
  6
Continuous
 62
     3
370
     9
100
AcDbLine
 10
671.0756617291735
 20
206.0263767233427
 30
0.0
 11
671.0756617291735
 21
93.52637672334264
 31
0.0
  0
LINE
  5
512
330
1F
100
AcDbEntity
  8
D-2
  6
Continuous
 62
     3
370
     9
100
AcDbLine
 10
675.5756023436159
 20
206.0263767233427
 30
0.0
 11
675.5756023436159
 21
89.02643610889946
 31
0.0
  0
LINE
  5
513
330
1F
100
AcDbEntity
  8
D-2
  6
Continuous
 62
     3
370
     9
100
AcDbLine
 10
686.075636985191
 20
89.02643610889946
 30
0.0
 11
686.075636985191
 21
65.02635692815652
 31
0.0
  0
LINE
  5
514
330
1F
100
AcDbEntity
  8
D-2
  6
Continuous
 62
     3
370
     9
100
AcDbLine
 10
458.1435836120417
 20
93.52637672334264
 30
0.0
 11
675.5756023436159
 21
93.52637672334264
 31
0.0
  0
LINE
  5
515
330
1F
100
AcDbEntity
  8
D-2
  6
Continuous
 62
     3
370
     9
100
AcDbLine
 10
458.1435836120417
 20
65.02635692815635
 30
0.0
 11
686.075636985191
 21
65.02635692815652
 31
0.0
  0
LINE
  5
516
330
1F
100
AcDbEntity
  8
D-2
  6
Continuous
 62
     3
370
     9
100
AcDbLine
 10
458.1435836120417
 20
89.02643610889946
 30
0.0
 11
686.075636985191
 21
89.02643610889946
 31
0.0
  0
LINE
  5
517
330
1F
100
AcDbEntity
  8
D-2
  6
Continuous
 62
     3
370
     9
100
AcDbLine
 10
458.1435836120417
 20
206.0263767233427
 30
0.0
 11
675.5756023436159
 21
206.0263767233427
 31
0.0
  0
LINE
  5
518
330
1F
100
AcDbEntity
  8
D-2
  6
Continuous
 62
     3
370
     9
100
AcDbLine
 10
517.7275607738377
 20
93.52637672334264
 30
0.0
 11
541.458322887371
 21
107.2273386176658
 31
0.0
  0
LINE
  5
519
330
1F
100
AcDbEntity
  8
D-2
  6
Continuous
 62
     3
370
     9
100
AcDbLine
 10
517.7275607738377
 20
93.52637672334264
 30
0.0
 11
494.4237131965441
 21
93.52637672334264
 31
0.0
  0
LINE
  5
51A
330
1F
100
AcDbEntity
  8
D-2
  6
Continuous
 62
     3
370
     9
100
AcDbLine
 10
494.4237131965441
 20
93.52637672334264
 30
0.0
 11
470.6929510830113
 21
107.2273386176658
 31
0.0
  0
LINE
  5
51B
330
1F
100
AcDbEntity
  8
D-2
  6
Continuous
 62
     3
370
     9
100
AcDbLine
 10
471.4429510830112
 20
108.5263767233427
 30
0.0
 11
470.6929510830113
 21
107.2273386176658
 31
0.0
  0
LINE
  5
51C
330
1F
100
AcDbEntity
  8
D-2
  6
Continuous
 62
     3
370
     9
100
AcDbLine
 10
540.7083228873709
 20
108.5263767233427
 30
0.0
 11
541.458322887371
 21
107.2273386176658
 31
0.0
  0
LINE
  5
51D
330
1F
100
AcDbEntity
  8
D-2
  6
Continuous
 62
     3
370
     9
100
AcDbLine
 10
517.325636985191
 20
95.02637672334272
 30
0.0
 11
540.7083228873709
 21
108.5263767233427
 31
0.0
  0
LINE
  5
51E
330
1F
100
AcDbEntity
  8
D-2
  6
Continuous
 62
     3
370
     9
100
AcDbLine
 10
517.325636985191
 20
95.02637672334272
 30
0.0
 11
494.825636985191
 21
95.02637672334272
 31
0.0
  0
LINE
  5
51F
330
1F
100
AcDbEntity
  8
D-2
  6
Continuous
 62
     3
370
     9
100
AcDbLine
 10
494.825636985191
 20
95.02637672334272
 30
0.0
 11
471.4429510830112
 21
108.5263767233427
 31
0.0
  0
ARC
  5
520
330
1F
100
AcDbEntity
  8
ハッチ
  6
Continuous
 62
     6
370
     9
100
AcDbCircle
 10
116.2862733508752
 20
-464.9952698135209
 30
0.0
 40
3.031006813049316
100
AcDbArc
 50
42.07145690917969
 51
137.9285430908203
  0
ARC
  5
521
330
1F
100
AcDbEntity
  8
ハッチ
  6
Continuous
 62
     6
370
     9
100
AcDbCircle
 10
111.7861779834435
 20
-464.9952698135209
 30
0.0
 40
3.031006813049316
100
AcDbArc
 50
42.07145690917968
 51
137.9285430908203
  0
ARC
  5
522
330
1F
100
AcDbEntity
  8
ハッチ
  6
Continuous
 62
     6
370
     9
100
AcDbCircle
 10
111.7861779834435
 20
-460.9334144973587
 30
0.0
 40
3.031006813049316
100
AcDbArc
 50
222.0714569091797
 51
317.9285430908203
  0
ARC
  5
523
330
1F
100
AcDbEntity
  8
ハッチ
  6
Continuous
 62
     6
370
     9
100
AcDbCircle
 10
692.2031254255754
 20
-464.9952698135209
 30
0.0
 40
3.031006813049316
100
AcDbArc
 50
42.07145690917969
 51
137.9285430908203
  0
ARC
  5
524
330
1F
100
AcDbEntity
  8
ハッチ
  6
Continuous
 62
     6
370
     9
100
AcDbCircle
 10
687.7030300581437
 20
-464.9952698135209
 30
0.0
 40
3.031006813049316
100
AcDbArc
 50
42.07145690917968
 51
137.9285430908203
  0
ARC
  5
525
330
1F
100
AcDbEntity
  8
ハッチ
  6
Continuous
 62
     6
370
     9
100
AcDbCircle
 10
687.7030300581437
 20
-460.9334144973587
 30
0.0
 40
3.031006813049316
100
AcDbArc
 50
222.0714569091797
 51
317.9285430908203
  0
LINE
  5
526
330
1F
100
AcDbEntity
  8
D-7
  6
Continuous
 62
     2
370
     9
100
AcDbLine
 10
687.5755627532443
 20
89.77647569927136
 30
0.0
 11
687.5755627532443
 21
125.7767429342801
 31
0.0
  0
LINE
  5
527
330
1F
100
AcDbEntity
  8
D-7
  6
Continuous
 62
     2
370
     9
100
AcDbLine
 10
686.0760774280753
 20
90.52651528964266
 30
0.0
 11
686.0760774280753
 21
125.0265548800146
 31
0.0
  0
LINE
  5
528
330
1F
100
AcDbEntity
  8
D-7
  6
Continuous
 62
     2
370
     9
100
AcDbLine
 10
686.0760774280753
 20
125.0265548800146
 30
0.0
 11
677.0755330604655
 21
125.0265548800146
 31
0.0
  0
LINE
  5
529
330
1F
100
AcDbEntity
  8
D-7
  6
Continuous
 62
     2
370
     9
100
AcDbLine
 10
686.8255231628725
 20
126.5266340607578
 30
0.0
 11
676.325493470094
 21
126.5266340607578
 31
0.0
  0
LINE
  5
52A
330
1F
100
AcDbEntity
  8
D-7
  6
Continuous
 62
     2
370
     9
100
AcDbLine
 10
676.325493470094
 20
89.02643610889946
 30
0.0
 11
686.8255231628725
 21
89.02643610889946
 31
0.0
  0
LINE
  5
52B
330
1F
100
AcDbEntity
  8
D-7
  6
Continuous
 62
     2
370
     9
100
AcDbLine
 10
677.0755330604655
 20
90.52651528964266
 30
0.0
 11
686.0760774280753
 21
90.52651528964266
 31
0.0
  0
ARC
  5
52C
330
1F
100
AcDbEntity
  8
D-7
  6
Continuous
 62
     2
370
     9
100
AcDbCircle
 10
686.8255231628725
 20
125.7767429342801
 30
0.0
 40
0.7499999371734826
100
AcDbArc
 50
0.0
 51
90.0
  0
ARC
  5
52D
330
1F
100
AcDbEntity
  8
D-7
  6
Continuous
 62
     2
370
     9
100
AcDbCircle
 10
686.8255231628725
 20
89.77647569927136
 30
0.0
 40
0.7499999371734826
100
AcDbArc
 50
270.0
 51
0.0
  0
LINE
  5
52E
330
1F
100
AcDbEntity
  8
0-7
  6
Continuous
 62
     2
370
     9
100
AcDbLine
 10
672.9947104199179
 20
-443.9645117706735
 30
0.0
 11
672.9947104199179
 21
-419.964333614001
 31
0.0
  0
LINE
  5
52F
330
1F
100
AcDbEntity
  8
0-7
  6
Continuous
 62
     2
370
     9
100
AcDbLine
 10
671.9950535364719
 20
-443.4644853770927
 30
0.0
 11
671.9950535364719
 21
-420.4644589835115
 31
0.0
  0
LINE
  5
530
330
1F
100
AcDbEntity
  8
0-7
  6
Continuous
 62
     2
370
     9
100
AcDbLine
 10
671.9950535364719
 20
-420.4644589835115
 30
0.0
 11
665.9946906247321
 21
-420.4644589835115
 31
0.0
  0
LINE
  5
531
330
1F
100
AcDbEntity
  8
0-7
  6
Continuous
 62
     2
370
     9
100
AcDbLine
 10
672.4946840263368
 20
-419.4644061963493
 30
0.0
 11
665.494664231151
 21
-419.4644061963493
 31
0.0
  0
LINE
  5
532
330
1F
100
AcDbEntity
  8
0-7
  6
Continuous
 62
     2
370
     9
100
AcDbLine
 10
665.494664231151
 20
-444.4645381642548
 30
0.0
 11
672.4946840263368
 21
-444.4645381642548
 31
0.0
  0
LINE
  5
533
330
1F
100
AcDbEntity
  8
0-7
  6
Continuous
 62
     2
370
     9
100
AcDbLine
 10
665.9946906247321
 20
-443.4644853770927
 30
0.0
 11
671.9950535364719
 21
-443.4644853770927
 31
0.0
  0
ARC
  5
534
330
1F
100
AcDbEntity
  8
0-7
  6
Continuous
 62
     2
370
     9
100
AcDbCircle
 10
672.4946840263368
 20
-419.964333614001
 30
0.0
 40
0.4999999581156551
100
AcDbArc
 50
0.0
 51
90.0
  0
ARC
  5
535
330
1F
100
AcDbEntity
  8
0-7
  6
Continuous
 62
     2
370
     9
100
AcDbCircle
 10
672.4946840263368
 20
-443.9645117706735
 30
0.0
 40
0.4999999581156551
100
AcDbArc
 50
270.0
 51
0.0
  0
LINE
  5
536
330
1F
100
AcDbEntity
  8
0-7
  6
Continuous
 62
     2
370
     9
100
AcDbLine
 10
130.9948093958466
 20
-443.9645117706735
 30
0.0
 11
130.9948093958466
 21
-419.964333614001
 31
0.0
  0
LINE
  5
537
330
1F
100
AcDbEntity
  8
0-7
  6
Continuous
 62
     2
370
     9
100
AcDbLine
 10
131.9944662792925
 20
-443.4644853770927
 30
0.0
 11
131.9944662792925
 21
-420.4644589835115
 31
0.0
  0
LINE
  5
538
330
1F
100
AcDbEntity
  8
0-7
  6
Continuous
 62
     2
370
     9
100
AcDbLine
 10
131.9944662792925
 20
-420.4644589835115
 30
0.0
 11
137.9948291910324
 21
-420.4644589835115
 31
0.0
  0
LINE
  5
539
330
1F
100
AcDbEntity
  8
0-7
  6
Continuous
 62
     2
370
     9
100
AcDbLine
 10
131.4948357894277
 20
-419.4644061963493
 30
0.0
 11
138.4948555846134
 21
-419.4644061963493
 31
0.0
  0
LINE
  5
53A
330
1F
100
AcDbEntity
  8
0-7
  6
Continuous
 62
     2
370
     9
100
AcDbLine
 10
138.4948555846134
 20
-444.4645381642548
 30
0.0
 11
131.4948357894277
 21
-444.4645381642548
 31
0.0
  0
LINE
  5
53B
330
1F
100
AcDbEntity
  8
0-7
  6
Continuous
 62
     2
370
     9
100
AcDbLine
 10
137.9948291910324
 20
-443.4644853770927
 30
0.0
 11
131.9944662792925
 21
-443.4644853770927
 31
0.0
  0
ARC
  5
53C
330
1F
100
AcDbEntity
  8
0-7
  6
Continuous
 62
     2
370
     9
100
AcDbCircle
 10
131.4948357894277
 20
-419.964333614001
 30
0.0
 40
0.4999999581156551
100
AcDbArc
 50
90.0
 51
180.0
  0
ARC
  5
53D
330
1F
100
AcDbEntity
  8
0-7
  6
Continuous
 62
     2
370
     9
100
AcDbCircle
 10
131.4948357894277
 20
-443.9645117706735
 30
0.0
 40
0.4999999581156551
100
AcDbArc
 50
180.0
 51
270.0
  0
LINE
  5
53E
330
1F
100
AcDbEntity
  8
仕上
  6
Continuous
 62
     3
370
     9
100
AcDbLine
 10
-413.4651246277208
 20
-458.9647427145077
 30
0.0
 11
-413.4651246277208
 21
-445.9647493129029
 31
0.0
  0
LINE
  5
53F
330
1F
100
AcDbEntity
  8
仕上
  6
Continuous
 62
     3
370
     9
100
AcDbLine
 10
-413.4651246277208
 20
-445.9647493129029
 30
0.0
 11
-384.4651774148824
 21
-445.9647493129029
 31
0.0
  0
LINE
  5
540
330
1F
100
AcDbEntity
  8
仕上
  6
Continuous
 62
     3
370
     9
100
AcDbLine
 10
-384.4651774148824
 20
-458.9647427145077
 30
0.0
 11
-413.4651246277208
 21
-458.9647427145077
 31
0.0
  0
LINE
  5
541
330
1F
100
AcDbEntity
  8
仕上
  6
Continuous
 62
     3
370
     9
100
AcDbLine
 10
-384.4651774148824
 20
-445.9647493129029
 30
0.0
 11
-384.4651774148824
 21
-458.9647427145077
 31
0.0
  0
LINE
  5
542
330
1F
100
AcDbEntity
  8
仕上
  6
Continuous
 62
     3
370
     9
100
AcDbLine
 10
-624.4650784389537
 20
-458.9647427145077
 30
0.0
 11
-624.4650784389537
 21
-445.9647493129029
 31
0.0
  0
LINE
  5
543
330
1F
100
AcDbEntity
  8
仕上
  6
Continuous
 62
     3
370
     9
100
AcDbLine
 10
-624.4650784389537
 20
-445.9647493129029
 30
0.0
 11
-653.4650256517914
 21
-445.9647493129029
 31
0.0
  0
LINE
  5
544
330
1F
100
AcDbEntity
  8
仕上
  6
Continuous
 62
     3
370
     9
100
AcDbLine
 10
-653.4650256517914
 20
-458.9647427145077
 30
0.0
 11
-624.4650784389537
 21
-458.9647427145077
 31
0.0
  0
LINE
  5
545
330
1F
100
AcDbEntity
  8
仕上
  6
Continuous
 62
     3
370
     9
100
AcDbLine
 10
-653.4650256517914
 20
-445.9647493129029
 30
0.0
 11
-653.4650256517914
 21
-458.9647427145077
 31
0.0
  0
LINE
  5
546
330
1F
100
AcDbEntity
  8
仕上
  6
Continuous
 62
     3
370
     9
100
AcDbLine
 10
-864.464880487095
 20
-458.9647427145077
 30
0.0
 11
-864.464880487095
 21
-445.9647493129029
 31
0.0
  0
LINE
  5
547
330
1F
100
AcDbEntity
  8
仕上
  6
Continuous
 62
     3
370
     9
100
AcDbLine
 10
-864.464880487095
 20
-445.9647493129029
 30
0.0
 11
-893.4649266758619
 21
-445.9647493129029
 31
0.0
  0
LINE
  5
548
330
1F
100
AcDbEntity
  8
仕上
  6
Continuous
 62
     3
370
     9
100
AcDbLine
 10
-893.4649266758619
 20
-458.9647427145077
 30
0.0
 11
-864.464880487095
 21
-458.9647427145077
 31
0.0
  0
LINE
  5
549
330
1F
100
AcDbEntity
  8
仕上
  6
Continuous
 62
     3
370
     9
100
AcDbLine
 10
-893.4649266758619
 20
-445.9647493129029
 30
0.0
 11
-893.4649266758619
 21
-458.9647427145077
 31
0.0
  0
LINE
  5
54A
330
1F
100
AcDbEntity
  8
仕上
  6
Continuous
 62
     3
370
     9
100
AcDbLine
 10
671.9947599078821
 20
-458.9645909514168
 30
0.0
 11
131.9947599078822
 21
-458.9645909514168
 31
0.0
  0
LINE
  5
54B
330
1F
100
AcDbEntity
  8
仕上
  6
Continuous
 62
     3
370
     9
100
AcDbLine
 10
671.9947599078821
 20
-445.9645381642548
 30
0.0
 11
131.9947599078822
 21
-445.9645381642548
 31
0.0
  0
LINE
  5
54C
330
1F
100
AcDbEntity
  8
D-2
  6
Continuous
 62
     3
370
     9
100
AcDbLine
 10
458.1435836120417
 20
67.27635692815635
 30
0.0
 11
686.075636985191
 21
67.27635692815652
 31
0.0
  0
LINE
  5
54D
330
1F
100
AcDbEntity
  8
D-2
  6
Continuous
 62
     3
370
     9
100
AcDbLine
 10
458.1435836120417
 20
86.77643610889946
 30
0.0
 11
686.075636985191
 21
86.77643610889946
 31
0.0
  0
LINE
  5
54E
330
1F
100
AcDbEntity
  8
0-E
  6
Continuous
 62
     2
370
     9
100
AcDbLine
 10
144.9947434118938
 20
-425.4647097225313
 30
0.0
 11
230.9947846518643
 21
-425.4647097225313
 31
0.0
  0
LINE
  5
54F
330
1F
100
AcDbEntity
  8
0-E
  6
Continuous
 62
     2
370
     9
100
AcDbLine
 10
144.9947434118938
 20
-365.4647097225313
 30
0.0
 11
144.9947434118938
 21
-425.4647097225313
 31
0.0
  0
LINE
  5
550
330
1F
100
AcDbEntity
  8
0-E
  6
Continuous
 62
     2
370
     9
100
AcDbLine
 10
144.9947434118938
 20
-365.4647097225313
 30
0.0
 11
230.9947846518643
 21
-365.4647097225313
 31
0.0
  0
LINE
  5
551
330
1F
100
AcDbEntity
  8
仕上
  6
Continuous
 62
     3
370
     9
100
AcDbLine
 10
144.9947434118938
 20
-366.464577754626
 30
0.0
 11
138.9947830022655
 21
-366.464577754626
 31
0.0
  0
CIRCLE
  5
552
330
1F
100
AcDbEntity
  8
0-E
  6
Continuous
 62
     7
370
     9
100
AcDbCircle
 10
144.0719349329684
 20
-413.0985702084376
 30
0.0
 40
0.5
  0
LINE
  5
553
330
1F
100
AcDbEntity
  8
0-E
  6
Continuous
 62
     2
370
     9
100
AcDbLine
 10
144.9947434118938
 20
-407.6362082756451
 30
0.0
 11
187.166258481519
 21
-365.4647097225313
 31
0.0
  0
LINE
  5
554
330
1F
100
AcDbEntity
  8
0-E
  6
Continuous
 62
     2
370
     9
100
AcDbLine
 10
144.9947434118938
 20
-379.3519306332724
 30
0.0
 11
158.8819697615795
 21
-365.4647097225313
 31
0.0
  0
LINE
  5
555
330
1F
100
AcDbEntity
  8
0-E
  6
Continuous
 62
     2
370
     9
100
AcDbLine
 10
572.9947846518642
 20
-365.4647097225313
 30
0.0
 11
658.9948258918346
 21
-365.4647097225313
 31
0.0
  0
LINE
  5
556
330
1F
100
AcDbEntity
  8
仕上
  6
Continuous
 62
     3
370
     9
100
AcDbLine
 10
664.9947863014629
 20
-366.464577754626
 30
0.0
 11
658.9948258918346
 21
-366.464577754626
 31
0.0
  0
LINE
  5
557
330
1F
100
AcDbEntity
  8
0-E
  6
Continuous
 62
     2
370
     9
100
AcDbLine
 10
572.9947846518642
 20
-425.4647097225313
 30
0.0
 11
658.9948258918346
 21
-425.4647097225313
 31
0.0
  0
LINE
  5
558
330
1F
100
AcDbEntity
  8
0-E
  6
Continuous
 62
     2
370
     9
100
AcDbLine
 10
658.9948258918346
 20
-365.4647097225313
 30
0.0
 11
658.9948258918346
 21
-425.4647097225313
 31
0.0
  0
CIRCLE
  5
559
330
1F
100
AcDbEntity
  8
0-E
  6
Continuous
 62
     7
370
     9
100
AcDbCircle
 10
660.9936522027709
 20
-400.1552560485994
 30
0.0
 40
0.5
  0
CIRCLE
  5
55A
330
1F
100
AcDbEntity
  8
0-E
  6
Continuous
 62
     7
370
     9
100
AcDbCircle
 10
661.5054270590871
 20
-413.8025855503695
 30
0.0
 40
0.5
  0
CIRCLE
  5
55B
330
1F
100
AcDbEntity
  8
0-E
  6
Continuous
 62
     7
370
     9
100
AcDbCircle
 10
660.4903367660404
 20
-386.3800292758935
 30
0.0
 40
0.5
  0
CIRCLE
  5
55C
330
1F
100
AcDbEntity
  8
0-E
  6
Continuous
 62
     7
370
     9
100
AcDbCircle
 10
660.157758757023
 20
-374.6151809957113
 30
0.0
 40
0.5
  0
LINE
  5
55D
330
1F
100
AcDbEntity
  8
0-E
  6
Continuous
 62
     2
370
     9
100
AcDbLine
 10
607.7247307883374
 20
-425.4647097225313
 30
0.0
 11
658.9948258918346
 21
-374.1946146190332
 31
0.0
  0
LINE
  5
55E
330
1F
100
AcDbEntity
  8
0-E
  6
Continuous
 62
     2
370
     9
100
AcDbLine
 10
636.009002028571
 20
-425.4647097225313
 30
0.0
 11
658.9948258918346
 21
-402.4788858592673
 31
0.0
  0
LINE
  5
55F
330
1F
100
AcDbEntity
  8
0-E
  6
Continuous
 62
     2
370
     9
100
AcDbLine
 10
233.9947846518645
 20
-366.464577754626
 30
0.0
 11
230.9947846518643
 21
-366.464577754626
 31
0.0
  0
LINE
  5
560
330
1F
100
AcDbEntity
  8
0-E
  6
Continuous
 62
     2
370
     9
100
AcDbLine
 10
346.9947846518644
 20
-366.464577754626
 30
0.0
 11
343.9947846518643
 21
-366.464577754626
 31
0.0
  0
LINE
  5
561
330
1F
100
AcDbEntity
  8
0-E
  6
Continuous
 62
     2
370
     9
100
AcDbLine
 10
459.9947846518644
 20
-366.464577754626
 30
0.0
 11
456.9947846518643
 21
-366.464577754626
 31
0.0
  0
LINE
  5
562
330
1F
100
AcDbEntity
  8
0-E
  6
Continuous
 62
     2
370
     9
100
AcDbLine
 10
572.9947846518642
 20
-366.464577754626
 30
0.0
 11
569.994784651864
 21
-366.464577754626
 31
0.0
  0
LINE
  5
563
330
1F
100
AcDbEntity
  8
その他
  6
Continuous
 62
     7
370
     9
100
AcDbLine
 10
125.9947911729342
 20
-566.6125437687797
 30
0.0
 11
125.9947911729342
 21
-475.9643860918634
 31
0.0
  0
LINE
  5
564
330
1F
100
AcDbEntity
  8
その他
  6
Continuous
 62
     7
370
     9
100
AcDbLine
 10
677.994631239174
 20
-566.6125437687797
 30
0.0
 11
677.994631239174
 21
-478.7643796068781
 31
0.0
  0
LINE
  5
565
330
1F
100
AcDbEntity
  8
D-4
  6
Continuous
 62
     7
370
     9
100
AcDbLine
 10
695.0755689392397
 20
-5.738018704749322
 30
0.0
 11
695.0755689392397
 21
40.57665414977828
 31
0.0
  0
LINE
  5
566
330
1F
100
AcDbEntity
  8
D-4
  6
Continuous
 62
     7
370
     9
100
AcDbLine
 10
760.3340536937342
 20
65.02635692815652
 30
0.0
 11
701.0755689392397
 21
65.02635692815652
 31
0.0
  0
LINE
  5
567
330
1F
100
AcDbEntity
  8
D-4
  6
Continuous
 62
     7
370
     9
100
AcDbLine
 10
686.0755627532443
 20
226.7141415807099
 30
0.0
 11
686.0755627532443
 21
213.5261589762984
 31
0.0
  0
LINE
  5
568
330
1F
100
AcDbEntity
  8
D-4
  6
Continuous
 62
     7
370
     9
100
AcDbLine
 10
419.8096506958189
 20
108.5263767233427
 30
0.0
 11
452.1435836120417
 21
108.5263767233427
 31
0.0
  0
LWPOLYLINE
  5
569
330
1F
100
AcDbEntity
  8
その他
  6
Continuous
 62
     7
370
     9
100
AcDbPolyline
 90
        4
 70
     1
 43
0.6000000000000001
 10
-413.6651757652842
 20
-565.7125437687798
 42
0.4142135623731
 10
-413.9651757652841
 20
-565.4125437687798
 42
0.4142135623731
 10
-414.2651757652841
 20
-565.7125437687798
 42
0.4142135623731
 10
-413.9651757652841
 20
-566.0125437687798
 42
0.4142135623731
  0
LWPOLYLINE
  5
56A
330
1F
100
AcDbEntity
  8
その他
  6
Continuous
 62
     7
370
     9
100
AcDbPolyline
 90
        4
 70
     1
 43
0.6000000000000001
 10
-863.6649778134259
 20
-565.7125437687798
 42
0.4142135623731
 10
-863.964977813426
 20
-565.4125437687798
 42
0.4142135623731
 10
-864.2649778134261
 20
-565.7125437687798
 42
0.4142135623731
 10
-863.964977813426
 20
-566.0125437687798
 42
0.4142135623731
  0
LINE
  5
56B
330
1F
100
AcDbEntity
  8
その他
  6
Continuous
 62
     7
370
     9
100
AcDbLine
 10
-863.964977813426
 20
-565.7125437687798
 30
0.0
 11
-413.9651757652841
 21
-565.7125437687798
 31
0.0
  0
TEXT
  5
56C
330
1F
100
AcDbEntity
  8
その他
  6
Continuous
 62
     2
370
   211
100
AcDbText
 10
-648.7150767893551
 20
-562.2205437687797
 30
0.0
 40
9.144
  1
450
 41
1.083333333333333
  7
ＭＳ ゴシック
100
AcDbText
  0
ENDSEC
  0
SECTION
  2
OBJECTS
  0
DICTIONARY
  5
C
330
0
100
AcDbDictionary
281
     1
  3
ACAD_DETAILVIEWSTYLE
350
574
  3
ACAD_GROUP
350
D
  3
ACAD_LAYOUT
350
1A
  3
ACAD_MATERIAL
350
43
  3
ACAD_MLEADERSTYLE
350
6B
  3
ACAD_MLINESTYLE
350
17
  3
ACAD_PLOTSETTINGS
350
19
  3
ACAD_PLOTSTYLENAME
350
E
  3
ACAD_SCALELIST
350
47
  3
ACAD_SECTIONVIEWSTYLE
350
575
  3
ACAD_TABLESTYLE
350
69
  3
ACAD_VISUALSTYLE
350
2A
  3
ACDB_RECOMPOSE_DATA
350
571
  3
AcDbVariableDictionary
350
56D
  0
SUN
  5
6D
330
29
100
AcDbSun
 90
        1
290
     0
 63
     7
421
 16777215
 40
1.0
291
     1
 91
  2455826
 92
 54000000
292
     0
 70
     2
 71
   256
280
     1
  0
DICTIONARY
  5
574
102
{ACAD_REACTORS
330
C
102
}
330
C
100
AcDbDictionary
281
     1
  0
DICTIONARY
  5
D
102
{ACAD_REACTORS
330
C
102
}
330
C
100
AcDbDictionary
281
     1
  0
DICTIONARY
  5
1A
102
{ACAD_REACTORS
330
C
102
}
330
C
100
AcDbDictionary
281
     1
  3
Layout1
350
1E
  3
Layout2
350
26
  3
Model
350
22
  0
DICTIONARY
  5
43
102
{ACAD_REACTORS
330
C
102
}
330
C
100
AcDbDictionary
281
     1
  3
ByBlock
350
45
  3
ByLayer
350
44
  3
Global
350
46
  0
DICTIONARY
  5
6B
102
{ACAD_REACTORS
330
C
102
}
330
C
100
AcDbDictionary
281
     1
  3
Standard
350
6C
  0
DICTIONARY
  5
17
102
{ACAD_REACTORS
330
C
102
}
330
C
100
AcDbDictionary
281
     1
  3
Standard
350
18
  0
DICTIONARY
  5
19
102
{ACAD_REACTORS
330
C
102
}
330
C
100
AcDbDictionary
281
     1
  0
ACDBDICTIONARYWDFLT
  5
E
102
{ACAD_REACTORS
330
C
102
}
330
C
100
AcDbDictionary
281
     1
  3
Normal
350
F
100
AcDbDictionaryWithDefault
340
F
  0
DICTIONARY
  5
47
102
{ACAD_REACTORS
330
C
102
}
330
C
100
AcDbDictionary
281
     1
  3
A0
350
48
  3
A1
350
49
  3
A2
350
4A
  3
A3
350
4B
  3
A4
350
4C
  3
A5
350
4D
  3
A6
350
4E
  3
A7
350
4F
  3
A8
350
50
  3
A9
350
51
  3
B0
350
52
  3
B1
350
53
  3
B2
350
54
  3
B3
350
55
  3
B4
350
56
  3
B5
350
57
  3
B6
350
58
  3
B7
350
59
  3
B8
350
5A
  3
B9
350
5B
  3
C0
350
5C
  3
C1
350
5D
  3
C2
350
5E
  3
C3
350
5F
  3
C4
350
60
  3
C5
350
61
  3
C6
350
62
  3
C7
350
63
  3
C8
350
64
  3
C9
350
65
  3
D0
350
66
  3
D1
350
67
  3
D2
350
68
  0
DICTIONARY
  5
575
102
{ACAD_REACTORS
330
C
102
}
330
C
100
AcDbDictionary
281
     1
  0
DICTIONARY
  5
69
102
{ACAD_REACTORS
330
C
102
}
330
C
100
AcDbDictionary
281
     1
  3
Standard
350
6A
  0
DICTIONARY
  5
2A
102
{ACAD_REACTORS
330
C
102
}
330
C
100
AcDbDictionary
281
     1
  3
2dWireframe
350
2F
  3
Basic
350
32
  3
Brighten
350
36
  3
ColorChange
350
3A
  3
Conceptual
350
34
  3
Dim
350
35
  3
EdgeColorOff
350
3D
  3
Facepattern
350
39
  3
Flat
350
2B
  3
FlatWithEdges
350
2C
  3
Gouraud
350
2D
  3
GouraudWithEdges
350
2E
  3
Hidden
350
31
  3
JitterOff
350
3B
  3
Linepattern
350
38
  3
OverhangOff
350
3C
  3
Realistic
350
33
  3
Shaded
350
42
  3
Shaded with edges
350
41
  3
Shades of Gray
350
3E
  3
Sketchy
350
3F
  3
Thicken
350
37
  3
Wireframe
350
30
  3
X-Ray
350
40
  0
XRECORD
  5
571
102
{ACAD_REACTORS
330
C
102
}
330
C
100
AcDbXrecord
280
     1
 90
        1
330
6A
  0
DICTIONARY
  5
56D
102
{ACAD_REACTORS
330
C
102
}
330
C
100
AcDbDictionary
281
     1
  3
CANNOSCALE
350
56E
  3
CENTEREXE
350
576
  3
CENTERLTYPEFILE
350
577
  3
CMLEADERSTYLE
350
573
  3
CTABLESTYLE
350
572
  0
LAYOUT
  5
1E
102
{ACAD_REACTORS
330
1A
102
}
330
1A
100
AcDbPlotSettings
  1

  2
none_device
  4

  6

 40
0.0
 41
0.0
 42
0.0
 43
0.0
 44
0.0
 45
0.0
 46
0.0
 47
0.0
 48
0.0
 49
0.0
140
0.0
141
0.0
142
1.0
143
1.0
 70
   688
 72
     1
 73
     0
 74
     5
  7

 75
    16
 76
     0
 77
     5
 78
   300
147
1.0
148
0.0
149
0.0
100
AcDbLayout
  1
Layout1
 70
     1
 71
     1
 10
0.0
 20
0.0
 11
420.0
 21
297.0
 12
0.0
 22
0.0
 32
0.0
 14
1.000000000000000E+20
 24
1.000000000000000E+20
 34
1.000000000000000E+20
 15
-1.000000000000000E+20
 25
-1.000000000000000E+20
 35
-1.000000000000000E+20
146
0.0
 13
0.0
 23
0.0
 33
0.0
 16
1.0
 26
0.0
 36
0.0
 17
0.0
 27
1.0
 37
0.0
 76
     0
330
1B
  0
LAYOUT
  5
26
102
{ACAD_REACTORS
330
1A
102
}
330
1A
100
AcDbPlotSettings
  1

  2
none_device
  4

  6

 40
0.0
 41
0.0
 42
0.0
 43
0.0
 44
0.0
 45
0.0
 46
0.0
 47
0.0
 48
0.0
 49
0.0
140
0.0
141
0.0
142
1.0
143
1.0
 70
   688
 72
     1
 73
     0
 74
     5
  7

 75
    16
 76
     0
 77
     5
 78
   300
147
1.0
148
0.0
149
0.0
100
AcDbLayout
  1
Layout2
 70
     1
 71
     2
 10
0.0
 20
0.0
 11
0.0
 21
0.0
 12
0.0
 22
0.0
 32
0.0
 14
0.0
 24
0.0
 34
0.0
 15
0.0
 25
0.0
 35
0.0
146
0.0
 13
0.0
 23
0.0
 33
0.0
 16
1.0
 26
0.0
 36
0.0
 17
0.0
 27
1.0
 37
0.0
 76
     0
330
23
  0
LAYOUT
  5
22
102
{ACAD_REACTORS
330
1A
102
}
330
1A
100
AcDbPlotSettings
  1

  2
none_device
  4
Letter_(8.50_x_11.00_Inches)
  6

 40
6.35
 41
6.35
 42
6.35000508
 43
6.35000508
 44
215.9
 45
279.4
 46
0.0
 47
0.0
 48
0.0
 49
0.0
140
0.0
141
0.0
142
1.0
143
1.0
 70
  1712
 72
     1
 73
     0
 74
     0
  7

 75
     0
 76
     0
 77
     5
 78
   300
147
1.0
148
0.0
149
0.0
100
AcDbLayout
  1
Model
 70
     1
 71
     0
 10
-1261.5
 20
-891.0
 11
1261.5
 21
891.0
 12
0.0
 22
0.0
 32
0.0
 14
-1261.5
 24
-891.0
 34
0.0
 15
1261.5
 25
891.0
 35
0.0
146
0.0
 13
0.0
 23
0.0
 33
0.0
 16
1.0
 26
0.0
 36
0.0
 17
0.0
 27
1.0
 37
0.0
 76
     0
330
1F
331
29
  0
MATERIAL
  5
45
102
{ACAD_REACTORS
330
43
102
}
330
43
100
AcDbMaterial
  1
ByBlock
 72
     1
 94
      127
  0
MATERIAL
  5
44
102
{ACAD_REACTORS
330
43
102
}
330
43
100
AcDbMaterial
  1
ByLayer
 72
     1
 94
      127
  0
MATERIAL
  5
46
102
{ACAD_REACTORS
330
43
102
}
330
43
100
AcDbMaterial
  1
Global
 72
     1
 94
      127
  0
MLEADERSTYLE
  5
6C
102
{ACAD_REACTORS
330
6B
102
}
330
6B
100
AcDbMLeaderStyle
179
     2
170
     2
171
     1
172
     0
 90
        2
 40
0.0
 41
0.0
173
     1
 91
-1056964608
340
14
 92
       -2
290
     1
 42
2.0
291
     1
 43
8.0
  3
Standard
341
0
 44
4.0
300

342
11
174
     1
178
     6
175
     1
176
     0
 93
-1056964608
 45
4.0
292
     0
297
     0
 46
4.0
343
0
 94
-1056964608
 47
1.0
 49
1.0
140
1.0
293
     1
141
0.0
294
     1
177
     0
142
1.0
295
     0
296
     0
143
3.75
271
     0
272
     9
273
     9
298
     0
  0
MLINESTYLE
  5
18
102
{ACAD_REACTORS
330
17
102
}
330
17
100
AcDbMlineStyle
  2
Standard
 70
     0
  3

 62
   256
 51
90.0
 52
90.0
 71
     2
 49
0.5
 62
   256
  6
BYLAYER
 49
-0.5
 62
   256
  6
BYLAYER
  0
ACDBPLACEHOLDER
  5
F
102
{ACAD_REACTORS
330
E
102
}
330
E
  0
SCALE
  5
48
102
{ACAD_REACTORS
330
47
102
}
330
47
100
AcDbScale
 70
     0
300
1:1
140
1.0
141
1.0
290
     1
  0
SCALE
  5
49
102
{ACAD_REACTORS
330
47
102
}
330
47
100
AcDbScale
 70
     0
300
1:2
140
1.0
141
2.0
290
     0
  0
SCALE
  5
4A
102
{ACAD_REACTORS
330
47
102
}
330
47
100
AcDbScale
 70
     0
300
1:4
140
1.0
141
4.0
290
     0
  0
SCALE
  5
4B
102
{ACAD_REACTORS
330
47
102
}
330
47
100
AcDbScale
 70
     0
300
1:5
140
1.0
141
5.0
290
     0
  0
SCALE
  5
4C
102
{ACAD_REACTORS
330
47
102
}
330
47
100
AcDbScale
 70
     0
300
1:8
140
1.0
141
8.0
290
     0
  0
SCALE
  5
4D
102
{ACAD_REACTORS
330
47
102
}
330
47
100
AcDbScale
 70
     0
300
1:10
140
1.0
141
10.0
290
     0
  0
SCALE
  5
4E
102
{ACAD_REACTORS
330
47
102
}
330
47
100
AcDbScale
 70
     0
300
1:16
140
1.0
141
16.0
290
     0
  0
SCALE
  5
4F
102
{ACAD_REACTORS
330
47
102
}
330
47
100
AcDbScale
 70
     0
300
1:20
140
1.0
141
20.0
290
     0
  0
SCALE
  5
50
102
{ACAD_REACTORS
330
47
102
}
330
47
100
AcDbScale
 70
     0
300
1:30
140
1.0
141
30.0
290
     0
  0
SCALE
  5
51
102
{ACAD_REACTORS
330
47
102
}
330
47
100
AcDbScale
 70
     0
300
1:40
140
1.0
141
40.0
290
     0
  0
SCALE
  5
52
102
{ACAD_REACTORS
330
47
102
}
330
47
100
AcDbScale
 70
     0
300
1:50
140
1.0
141
50.0
290
     0
  0
SCALE
  5
53
102
{ACAD_REACTORS
330
47
102
}
330
47
100
AcDbScale
 70
     0
300
1:100
140
1.0
141
100.0
290
     0
  0
SCALE
  5
54
102
{ACAD_REACTORS
330
47
102
}
330
47
100
AcDbScale
 70
     0
300
2:1
140
2.0
141
1.0
290
     0
  0
SCALE
  5
55
102
{ACAD_REACTORS
330
47
102
}
330
47
100
AcDbScale
 70
     0
300
4:1
140
4.0
141
1.0
290
     0
  0
SCALE
  5
56
102
{ACAD_REACTORS
330
47
102
}
330
47
100
AcDbScale
 70
     0
300
8:1
140
8.0
141
1.0
290
     0
  0
SCALE
  5
57
102
{ACAD_REACTORS
330
47
102
}
330
47
100
AcDbScale
 70
     0
300
10:1
140
10.0
141
1.0
290
     0
  0
SCALE
  5
58
102
{ACAD_REACTORS
330
47
102
}
330
47
100
AcDbScale
 70
     0
300
100:1
140
100.0
141
1.0
290
     0
  0
SCALE
  5
59
102
{ACAD_REACTORS
330
47
102
}
330
47
100
AcDbScale
 70
     0
300
1/128" = 1'-0"
140
0.0078125
141
12.0
290
     0
  0
SCALE
  5
5A
102
{ACAD_REACTORS
330
47
102
}
330
47
100
AcDbScale
 70
     0
300
1/64" = 1'-0"
140
0.015625
141
12.0
290
     0
  0
SCALE
  5
5B
102
{ACAD_REACTORS
330
47
102
}
330
47
100
AcDbScale
 70
     0
300
1/32" = 1'-0"
140
0.03125
141
12.0
290
     0
  0
SCALE
  5
5C
102
{ACAD_REACTORS
330
47
102
}
330
47
100
AcDbScale
 70
     0
300
1/16" = 1'-0"
140
0.0625
141
12.0
290
     0
  0
SCALE
  5
5D
102
{ACAD_REACTORS
330
47
102
}
330
47
100
AcDbScale
 70
     0
300
3/32" = 1'-0"
140
0.09375
141
12.0
290
     0
  0
SCALE
  5
5E
102
{ACAD_REACTORS
330
47
102
}
330
47
100
AcDbScale
 70
     0
300
1/8" = 1'-0"
140
0.125
141
12.0
290
     0
  0
SCALE
  5
5F
102
{ACAD_REACTORS
330
47
102
}
330
47
100
AcDbScale
 70
     0
300
3/16" = 1'-0"
140
0.1875
141
12.0
290
     0
  0
SCALE
  5
60
102
{ACAD_REACTORS
330
47
102
}
330
47
100
AcDbScale
 70
     0
300
1/4" = 1'-0"
140
0.25
141
12.0
290
     0
  0
SCALE
  5
61
102
{ACAD_REACTORS
330
47
102
}
330
47
100
AcDbScale
 70
     0
300
3/8" = 1'-0"
140
0.375
141
12.0
290
     0
  0
SCALE
  5
62
102
{ACAD_REACTORS
330
47
102
}
330
47
100
AcDbScale
 70
     0
300
1/2" = 1'-0"
140
0.5
141
12.0
290
     0
  0
SCALE
  5
63
102
{ACAD_REACTORS
330
47
102
}
330
47
100
AcDbScale
 70
     0
300
3/4" = 1'-0"
140
0.75
141
12.0
290
     0
  0
SCALE
  5
64
102
{ACAD_REACTORS
330
47
102
}
330
47
100
AcDbScale
 70
     0
300
1" = 1'-0"
140
1.0
141
12.0
290
     0
  0
SCALE
  5
65
102
{ACAD_REACTORS
330
47
102
}
330
47
100
AcDbScale
 70
     0
300
1-1/2" = 1'-0"
140
1.5
141
12.0
290
     0
  0
SCALE
  5
66
102
{ACAD_REACTORS
330
47
102
}
330
47
100
AcDbScale
 70
     0
300
3" = 1'-0"
140
3.0
141
12.0
290
     0
  0
SCALE
  5
67
102
{ACAD_REACTORS
330
47
102
}
330
47
100
AcDbScale
 70
     0
300
6" = 1'-0"
140
6.0
141
12.0
290
     0
  0
SCALE
  5
68
102
{ACAD_REACTORS
330
47
102
}
330
47
100
AcDbScale
 70
     0
300
1'-0" = 1'-0"
140
12.0
141
12.0
290
     0
  0
TABLESTYLE
  5
6A
102
{ACAD_REACTORS
330
69
102
}
102
{ACAD_XDICTIONARY
360
56F
102
}
330
69
100
AcDbTableStyle
  3
Standard
 70
     0
 71
     0
 40
0.06
 41
0.06
280
     0
281
     0
  7
Standard
140
4.5
170
     2
 62
     0
 63
   257
283
     0
 90
        4
 91
        0
  1

274
    -2
284
     1
 64
     0
275
    -2
285
     1
 65
     0
276
    -2
286
     1
 66
     0
277
    -2
287
     1
 67
     0
278
    -2
288
     1
 68
     0
279
    -2
289
     1
 69
     0
  7
Standard
140
6.0
170
     5
 62
     0
 63
   257
283
     0
 90
        4
 91
        0
  1

274
    -2
284
     1
 64
     0
275
    -2
285
     1
 65
     0
276
    -2
286
     1
 66
     0
277
    -2
287
     1
 67
     0
278
    -2
288
     1
 68
     0
279
    -2
289
     1
 69
     0
  7
Standard
140
4.5
170
     5
 62
     0
 63
   257
283
     0
 90
        4
 91
        0
  1

274
    -2
284
     1
 64
     0
275
    -2
285
     1
 65
     0
276
    -2
286
     1
 66
     0
277
    -2
287
     1
 67
     0
278
    -2
288
     1
 68
     0
279
    -2
289
     1
 69
     0
  0
VISUALSTYLE
  5
2F
102
{ACAD_REACTORS
330
2A
102
}
330
2A
100
AcDbVisualStyle
  2
2dWireframe
 70
     4
177
     3
291
     0
 70
    58
 90
        0
176
     1
 90
        2
176
     1
 90
        0
176
     1
 90
        0
176
     1
 40
0.6
176
     1
 40
30.0
176
     1
 62
     7
420
 16777215
176
     1
 90
        1
176
     1
 90
        4
176
     1
 62
     7
176
     1
 62
   257
176
     1
 90
        1
176
     1
 90
        1
176
     1
 40
1.0
176
     1
 90
        0
176
     1
 62
   257
176
     1
 40
1.0
176
     1
 90
        1
176
     1
 90
        6
176
     1
 90
        2
176
     1
 62
     7
176
     1
 90
        5
176
     1
 90
        0
176
     1
 90
        0
176
     1
290
     0
176
     1
 90
        1
176
     1
 40
0.0
176
     1
 90
        0
176
     1
290
     1
176
     1
290
     1
176
     1
290
     0
176
     1
290
     0
176
     1
290
     0
176
     1
290
     0
176
     1
290
     0
176
     1
290
     0
176
     1
290
     0
176
     1
 90
       50
176
     1
 40
0.0
176
     1
 40
1.0
176
     1
 90
        0
176
     1
 62
    18
420
        0
176
     1
 90
       50
176
     1
 90
        3
176
     1
 62
     5
420
      255
176
     1
290
     0
176
     1
 90
       50
176
     1
 90
       50
176
     1
 90
       50
176
     1
290
     0
176
     1
 90
       50
176
     1
 62
   256
176
     0
 40
1.0
176
     0
 90
        2
176
     1
  1
strokes_ogs.tif
176
     1
290
     0
176
     1
 40
1.0
176
     1
 40
1.0
176
     1
  0
VISUALSTYLE
  5
32
102
{ACAD_REACTORS
330
2A
102
}
330
2A
100
AcDbVisualStyle
  2
Basic
 70
     7
177
     3
291
     1
 70
    58
 90
        1
176
     1
 90
        0
176
     1
 90
        1
176
     1
 90
        0
176
     1
 40
0.6
176
     1
 40
30.0
176
     1
 62
     7
420
 16777215
176
     1
 90
        0
176
     1
 90
        4
176
     1
 62
     7
176
     1
 62
   257
176
     1
 90
        1
176
     1
 90
        1
176
     1
 40
1.0
176
     1
 90
        8
176
     1
 62
     7
176
     1
 40
1.0
176
     1
 90
        1
176
     1
 90
        6
176
     1
 90
        2
176
     1
 62
     7
176
     1
 90
        5
176
     1
 90
        0
176
     1
 90
        0
176
     1
290
     0
176
     1
 90
        1
176
     1
 40
0.0
176
     1
 90
        0
176
     1
290
     0
176
     1
290
     1
176
     1
290
     1
176
     1
290
     0
176
     1
290
     0
176
     1
290
     0
176
     1
290
     0
176
     1
290
     0
176
     1
290
     0
176
     1
 90
       50
176
     1
 40
0.0
176
     1
 40
1.0
176
     1
 90
        0
176
     1
 62
    18
420
        0
176
     1
 90
       50
176
     1
 90
        3
176
     1
 62
     5
420
      255
176
     1
290
     0
176
     1
 90
       50
176
     1
 90
       50
176
     1
 90
       50
176
     1
290
     0
176
     1
 90
       50
176
     1
 62
   256
176
     0
 40
1.0
176
     0
 90
        2
176
     1
  1
strokes_ogs.tif
176
     1
290
     0
176
     1
 40
1.0
176
     1
 40
1.0
176
     1
  0
VISUALSTYLE
  5
36
102
{ACAD_REACTORS
330
2A
102
}
330
2A
100
AcDbVisualStyle
  2
Brighten
 70
    12
177
     3
291
     1
 70
    58
 90
        2
176
     1
 90
        2
176
     1
 90
        0
176
     1
 90
        0
176
     1
 40
0.6
176
     1
 40
30.0
176
     1
 62
     7
420
 16777215
176
     1
 90
        1
176
     1
 90
        4
176
     1
 62
     7
176
     1
 62
   257
176
     1
 90
        1
176
     1
 90
        1
176
     1
 40
1.0
176
     1
 90
        8
176
     1
 62
     7
176
     1
 40
1.0
176
     1
 90
        1
176
     1
 90
        6
176
     1
 90
        2
176
     1
 62
     7
176
     1
 90
        5
176
     1
 90
        0
176
     1
 90
        0
176
     1
290
     0
176
     1
 90
        1
176
     1
 40
50.0
176
     1
 90
        0
176
     1
290
     0
176
     1
290
     1
176
     1
290
     1
176
     1
290
     0
176
     1
290
     0
176
     1
290
     0
176
     1
290
     0
176
     1
290
     0
176
     1
290
     0
176
     1
 90
       50
176
     1
 40
0.0
176
     1
 40
1.0
176
     1
 90
        0
176
     1
 62
    18
420
        0
176
     1
 90
       50
176
     1
 90
        3
176
     1
 62
     5
420
      255
176
     1
290
     0
176
     1
 90
       50
176
     1
 90
       50
176
     1
 90
       50
176
     1
290
     0
176
     1
 90
       50
176
     1
 62
   256
176
     0
 40
1.0
176
     0
 90
        2
176
     1
  1
strokes_ogs.tif
176
     1
290
     0
176
     1
 40
1.0
176
     1
 40
1.0
176
     1
  0
VISUALSTYLE
  5
3A
102
{ACAD_REACTORS
330
2A
102
}
330
2A
100
AcDbVisualStyle
  2
ColorChange
 70
    16
177
     3
291
     1
 70
    58
 90
        2
176
     1
 90
        2
176
     1
 90
        3
176
     1
 90
        0
176
     1
 40
0.6
176
     1
 40
30.0
176
     1
 62
     8
420
  8421504
176
     1
 90
        1
176
     1
 90
        4
176
     1
 62
     7
176
     1
 62
   257
176
     1
 90
        1
176
     1
 90
        1
176
     1
 40
1.0
176
     1
 90
        8
176
     1
 62
     8
420
  8421504
176
     1
 40
1.0
176
     1
 90
        1
176
     1
 90
        6
176
     1
 90
        2
176
     1
 62
     7
176
     1
 90
        5
176
     1
 90
        0
176
     1
 90
        0
176
     1
290
     0
176
     1
 90
        1
176
     1
 40
0.0
176
     1
 90
        0
176
     1
290
     0
176
     1
290
     1
176
     1
290
     1
176
     1
290
     0
176
     1
290
     0
176
     1
290
     0
176
     1
290
     0
176
     1
290
     0
176
     1
290
     0
176
     1
 90
       50
176
     1
 40
0.0
176
     1
 40
1.0
176
     1
 90
        0
176
     1
 62
    18
420
        0
176
     1
 90
       50
176
     1
 90
        3
176
     1
 62
     5
420
      255
176
     1
290
     0
176
     1
 90
       50
176
     1
 90
       50
176
     1
 90
       50
176
     1
290
     0
176
     1
 90
       50
176
     1
 62
   256
176
     0
 40
1.0
176
     0
 90
        2
176
     1
  1
strokes_ogs.tif
176
     1
290
     0
176
     1
 40
1.0
176
     1
 40
1.0
176
     1
  0
VISUALSTYLE
  5
34
102
{ACAD_REACTORS
330
2A
102
}
330
2A
100
AcDbVisualStyle
  2
Conceptual
 70
     9
177
     3
291
     0
 70
    58
 90
        3
176
     1
 90
        2
176
     1
 90
        0
176
     1
 90
        0
176
     1
 40
0.6
176
     1
 40
30.0
176
     1
 62
     7
420
 16777215
176
     1
 90
        2
176
     1
 90
        2
176
     1
 62
     7
176
     1
 62
   257
176
     1
 90
        1
176
     1
 90
        1
176
     1
 40
179.0
176
     1
 90
        8
176
     1
 62
     7
176
     1
 40
1.0
176
     1
 90
        1
176
     1
 90
        6
176
     1
 90
        2
176
     1
 62
     7
176
     1
 90
        3
176
     1
 90
        0
176
     1
 90
        0
176
     1
290
     0
176
     1
 90
        1
176
     1
 40
0.0
176
     1
 90
        0
176
     1
290
     0
176
     1
290
     1
176
     1
290
     1
176
     1
290
     0
176
     1
290
     0
176
     1
290
     0
176
     1
290
     0
176
     1
290
     0
176
     1
290
     0
176
     1
 90
       50
176
     1
 40
0.0
176
     1
 40
1.0
176
     1
 90
        0
176
     1
 62
    18
420
        0
176
     1
 90
       50
176
     1
 90
        3
176
     1
 62
     5
420
      255
176
     1
290
     0
176
     1
 90
       50
176
     1
 90
       50
176
     1
 90
       50
176
     1
290
     0
176
     1
 90
       50
176
     1
 62
   256
176
     0
 40
1.0
176
     0
 90
        2
176
     1
  1
strokes_ogs.tif
176
     1
290
     0
176
     1
 40
1.0
176
     1
 40
1.0
176
     1
  0
VISUALSTYLE
  5
35
102
{ACAD_REACTORS
330
2A
102
}
330
2A
100
AcDbVisualStyle
  2
Dim
 70
    11
177
     3
291
     1
 70
    58
 90
        2
176
     1
 90
        2
176
     1
 90
        0
176
     1
 90
        0
176
     1
 40
0.6
176
     1
 40
30.0
176
     1
 62
     7
420
 16777215
176
     1
 90
        1
176
     1
 90
        4
176
     1
 62
     7
176
     1
 62
   257
176
     1
 90
        1
176
     1
 90
        1
176
     1
 40
1.0
176
     1
 90
        8
176
     1
 62
     7
176
     1
 40
1.0
176
     1
 90
        1
176
     1
 90
        6
176
     1
 90
        2
176
     1
 62
     7
176
     1
 90
        5
176
     1
 90
        0
176
     1
 90
        0
176
     1
290
     0
176
     1
 90
        1
176
     1
 40
-50.0
176
     1
 90
        0
176
     1
290
     0
176
     1
290
     1
176
     1
290
     1
176
     1
290
     0
176
     1
290
     0
176
     1
290
     0
176
     1
290
     0
176
     1
290
     0
176
     1
290
     0
176
     1
 90
       50
176
     1
 40
0.0
176
     1
 40
1.0
176
     1
 90
        0
176
     1
 62
    18
420
        0
176
     1
 90
       50
176
     1
 90
        3
176
     1
 62
     5
420
      255
176
     1
290
     0
176
     1
 90
       50
176
     1
 90
       50
176
     1
 90
       50
176
     1
290
     0
176
     1
 90
       50
176
     1
 62
   256
176
     0
 40
1.0
176
     0
 90
        2
176
     1
  1
strokes_ogs.tif
176
     1
290
     0
176
     1
 40
1.0
176
     1
 40
1.0
176
     1
  0
VISUALSTYLE
  5
3D
102
{ACAD_REACTORS
330
2A
102
}
330
2A
100
AcDbVisualStyle
  2
EdgeColorOff
 70
    22
177
     3
291
     1
 70
    58
 90
        2
176
     0
 90
        2
176
     0
 90
        0
176
     0
 90
        0
176
     0
 40
0.6
176
     0
 40
30.0
176
     0
 62
     7
420
 16777215
176
     0
 90
        1
176
     0
 90
        4
176
     0
 62
     7
176
     0
 62
   257
176
     0
 90
        1
176
     0
 90
        1
176
     0
 40
1.0
176
     0
 90
        8
176
     2
 62
     7
176
     0
 40
1.0
176
     0
 90
        1
176
     0
 90
        6
176
     0
 90
        2
176
     0
 62
     7
176
     0
 90
        5
176
     0
 90
        0
176
     0
 90
        0
176
     0
290
     0
176
     0
 90
        1
176
     0
 40
0.0
176
     0
 90
        0
176
     0
290
     0
176
     0
290
     1
176
     0
290
     1
176
     0
290
     0
176
     0
290
     0
176
     0
290
     0
176
     0
290
     0
176
     0
290
     0
176
     0
290
     0
176
     0
 90
       50
176
     0
 40
0.0
176
     0
 40
1.0
176
     0
 90
        0
176
     0
 62
    18
420
        0
176
     0
 90
       50
176
     0
 90
        3
176
     0
 62
     5
420
      255
176
     0
290
     0
176
     0
 90
       50
176
     0
 90
       50
176
     0
 90
       50
176
     0
290
     0
176
     0
 90
       50
176
     0
 62
   256
176
     0
 40
1.0
176
     0
 90
        2
176
     0
  1
strokes_ogs.tif
176
     0
290
     0
176
     0
 40
1.0
176
     0
 40
1.0
176
     0
  0
VISUALSTYLE
  5
39
102
{ACAD_REACTORS
330
2A
102
}
330
2A
100
AcDbVisualStyle
  2
Facepattern
 70
    15
177
     3
291
     1
 70
    58
 90
        2
176
     1
 90
        2
176
     1
 90
        0
176
     1
 90
        0
176
     1
 40
0.6
176
     1
 40
30.0
176
     1
 62
     7
420
 16777215
176
     1
 90
        1
176
     1
 90
        4
176
     1
 62
     7
176
     1
 62
   257
176
     1
 90
        1
176
     1
 90
        1
176
     1
 40
1.0
176
     1
 90
        8
176
     1
 62
     7
176
     1
 40
1.0
176
     1
 90
        1
176
     1
 90
        6
176
     1
 90
        2
176
     1
 62
     7
176
     1
 90
        5
176
     1
 90
        0
176
     1
 90
        0
176
     1
290
     0
176
     1
 90
        1
176
     1
 40
0.0
176
     1
 90
        0
176
     1
290
     0
176
     1
290
     1
176
     1
290
     1
176
     1
290
     0
176
     1
290
     0
176
     1
290
     0
176
     1
290
     0
176
     1
290
     0
176
     1
290
     0
176
     1
 90
       50
176
     1
 40
0.0
176
     1
 40
1.0
176
     1
 90
        0
176
     1
 62
    18
420
        0
176
     1
 90
       50
176
     1
 90
        3
176
     1
 62
     5
420
      255
176
     1
290
     0
176
     1
 90
       50
176
     1
 90
       50
176
     1
 90
       50
176
     1
290
     0
176
     1
 90
       50
176
     1
 62
   256
176
     0
 40
1.0
176
     0
 90
        2
176
     1
  1
strokes_ogs.tif
176
     1
290
     0
176
     1
 40
1.0
176
     1
 40
1.0
176
     1
  0
VISUALSTYLE
  5
2B
102
{ACAD_REACTORS
330
2A
102
}
330
2A
100
AcDbVisualStyle
  2
Flat
 70
     0
177
     3
291
     1
 70
    58
 90
        2
176
     1
 90
        1
176
     1
 90
        1
176
     1
 90
        2
176
     1
 40
0.6
176
     1
 40
30.0
176
     1
 62
     7
420
 16777215
176
     1
 90
        0
176
     1
 90
        0
176
     1
 62
     7
176
     1
 62
   257
176
     1
 90
        1
176
     1
 90
        1
176
     1
 40
1.0
176
     1
 90
        8
176
     1
 62
     7
176
     1
 40
1.0
176
     1
 90
        1
176
     1
 90
        6
176
     1
 90
        2
176
     1
 62
     7
176
     1
 90
        5
176
     1
 90
        0
176
     1
 90
        0
176
     1
290
     0
176
     1
 90
       13
176
     1
 40
0.0
176
     1
 90
        0
176
     1
290
     0
176
     1
290
     1
176
     1
290
     1
176
     1
290
     0
176
     1
290
     0
176
     1
290
     0
176
     1
290
     0
176
     1
290
     0
176
     1
290
     0
176
     1
 90
       50
176
     1
 40
0.0
176
     1
 40
1.0
176
     1
 90
        0
176
     1
 62
    18
420
        0
176
     1
 90
       50
176
     1
 90
        3
176
     1
 62
     5
420
      255
176
     1
290
     0
176
     1
 90
       50
176
     1
 90
       50
176
     1
 90
       50
176
     1
290
     0
176
     1
 90
       50
176
     1
 62
   256
176
     0
 40
1.0
176
     0
 90
        2
176
     1
  1
strokes_ogs.tif
176
     1
290
     0
176
     1
 40
1.0
176
     1
 40
1.0
176
     1
  0
VISUALSTYLE
  5
2C
102
{ACAD_REACTORS
330
2A
102
}
330
2A
100
AcDbVisualStyle
  2
FlatWithEdges
 70
     1
177
     3
291
     1
 70
    58
 90
        2
176
     1
 90
        1
176
     1
 90
        1
176
     1
 90
        2
176
     1
 40
0.6
176
     1
 40
30.0
176
     1
 62
     7
420
 16777215
176
     1
 90
        1
176
     1
 90
        0
176
     1
 62
     7
176
     1
 62
   257
176
     1
 90
        1
176
     1
 90
        1
176
     1
 40
1.0
176
     1
 90
        0
176
     1
 62
   257
176
     1
 40
1.0
176
     1
 90
        1
176
     1
 90
        6
176
     1
 90
        2
176
     1
 62
     7
176
     1
 90
        5
176
     1
 90
        0
176
     1
 90
        0
176
     1
290
     0
176
     1
 90
       13
176
     1
 40
0.0
176
     1
 90
        0
176
     1
290
     0
176
     1
290
     1
176
     1
290
     1
176
     1
290
     0
176
     1
290
     0
176
     1
290
     0
176
     1
290
     0
176
     1
290
     0
176
     1
290
     0
176
     1
 90
       50
176
     1
 40
0.0
176
     1
 40
1.0
176
     1
 90
        0
176
     1
 62
    18
420
        0
176
     1
 90
       50
176
     1
 90
        3
176
     1
 62
     5
420
      255
176
     1
290
     0
176
     1
 90
       50
176
     1
 90
       50
176
     1
 90
       50
176
     1
290
     0
176
     1
 90
       50
176
     1
 62
   256
176
     0
 40
1.0
176
     0
 90
        2
176
     1
  1
strokes_ogs.tif
176
     1
290
     0
176
     1
 40
1.0
176
     1
 40
1.0
176
     1
  0
VISUALSTYLE
  5
2D
102
{ACAD_REACTORS
330
2A
102
}
330
2A
100
AcDbVisualStyle
  2
Gouraud
 70
     2
177
     3
291
     1
 70
    58
 90
        2
176
     1
 90
        2
176
     1
 90
        1
176
     1
 90
        2
176
     1
 40
0.6
176
     1
 40
30.0
176
     1
 62
     7
420
 16777215
176
     1
 90
        0
176
     1
 90
        0
176
     1
 62
     7
176
     1
 62
   257
176
     1
 90
        1
176
     1
 90
        1
176
     1
 40
1.0
176
     1
 90
        0
176
     1
 62
     7
176
     1
 40
1.0
176
     1
 90
        1
176
     1
 90
        6
176
     1
 90
        2
176
     1
 62
     7
176
     1
 90
        5
176
     1
 90
        0
176
     1
 90
        0
176
     1
290
     0
176
     1
 90
       13
176
     1
 40
0.0
176
     1
 90
        0
176
     1
290
     0
176
     1
290
     1
176
     1
290
     1
176
     1
290
     0
176
     1
290
     0
176
     1
290
     0
176
     1
290
     0
176
     1
290
     0
176
     1
290
     0
176
     1
 90
       50
176
     1
 40
0.0
176
     1
 40
1.0
176
     1
 90
        0
176
     1
 62
    18
420
        0
176
     1
 90
       50
176
     1
 90
        3
176
     1
 62
     5
420
      255
176
     1
290
     0
176
     1
 90
       50
176
     1
 90
       50
176
     1
 90
       50
176
     1
290
     0
176
     1
 90
       50
176
     1
 62
   256
176
     0
 40
1.0
176
     0
 90
        2
176
     1
  1
strokes_ogs.tif
176
     1
290
     0
176
     1
 40
1.0
176
     1
 40
1.0
176
     1
  0
VISUALSTYLE
  5
2E
102
{ACAD_REACTORS
330
2A
102
}
330
2A
100
AcDbVisualStyle
  2
GouraudWithEdges
 70
     3
177
     3
291
     1
 70
    58
 90
        2
176
     1
 90
        2
176
     1
 90
        1
176
     1
 90
        2
176
     1
 40
0.6
176
     1
 40
30.0
176
     1
 62
     7
420
 16777215
176
     1
 90
        1
176
     1
 90
        0
176
     1
 62
     7
176
     1
 62
   257
176
     1
 90
        1
176
     1
 90
        1
176
     1
 40
1.0
176
     1
 90
        0
176
     1
 62
   257
176
     1
 40
1.0
176
     1
 90
        1
176
     1
 90
        6
176
     1
 90
        2
176
     1
 62
     7
176
     1
 90
        5
176
     1
 90
        0
176
     1
 90
        0
176
     1
290
     0
176
     1
 90
       13
176
     1
 40
0.0
176
     1
 90
        0
176
     1
290
     0
176
     1
290
     1
176
     1
290
     1
176
     1
290
     0
176
     1
290
     0
176
     1
290
     0
176
     1
290
     0
176
     1
290
     0
176
     1
290
     0
176
     1
 90
       50
176
     1
 40
0.0
176
     1
 40
1.0
176
     1
 90
        0
176
     1
 62
    18
420
        0
176
     1
 90
       50
176
     1
 90
        3
176
     1
 62
     5
420
      255
176
     1
290
     0
176
     1
 90
       50
176
     1
 90
       50
176
     1
 90
       50
176
     1
290
     0
176
     1
 90
       50
176
     1
 62
   256
176
     0
 40
1.0
176
     0
 90
        2
176
     1
  1
strokes_ogs.tif
176
     1
290
     0
176
     1
 40
1.0
176
     1
 40
1.0
176
     1
  0
VISUALSTYLE
  5
31
102
{ACAD_REACTORS
330
2A
102
}
330
2A
100
AcDbVisualStyle
  2
Hidden
 70
     6
177
     3
291
     0
 70
    58
 90
        1
176
     1
 90
        2
176
     1
 90
        2
176
     1
 90
        0
176
     1
 40
0.6
176
     1
 40
30.0
176
     1
 62
     7
420
 16777215
176
     1
 90
        2
176
     1
 90
        2
176
     1
 62
     7
176
     1
 62
   257
176
     1
 90
        2
176
     1
 90
        1
176
     1
 40
40.0
176
     1
 90
        0
176
     1
 62
   257
176
     1
 40
1.0
176
     1
 90
        1
176
     1
 90
        6
176
     1
 90
        2
176
     1
 62
     7
176
     1
 90
        3
176
     1
 90
        0
176
     1
 90
        0
176
     1
290
     0
176
     1
 90
        1
176
     1
 40
0.0
176
     1
 90
        0
176
     1
290
     0
176
     1
290
     1
176
     1
290
     1
176
     1
290
     0
176
     1
290
     0
176
     1
290
     0
176
     1
290
     0
176
     1
290
     0
176
     1
290
     0
176
     1
 90
       50
176
     1
 40
0.0
176
     1
 40
1.0
176
     1
 90
        0
176
     1
 62
    18
420
        0
176
     1
 90
       50
176
     1
 90
        3
176
     1
 62
     5
420
      255
176
     1
290
     0
176
     1
 90
       50
176
     1
 90
       50
176
     1
 90
       50
176
     1
290
     0
176
     1
 90
       50
176
     1
 62
   256
176
     0
 40
1.0
176
     0
 90
        2
176
     1
  1
strokes_ogs.tif
176
     1
290
     0
176
     1
 40
1.0
176
     1
 40
1.0
176
     1
  0
VISUALSTYLE
  5
3B
102
{ACAD_REACTORS
330
2A
102
}
330
2A
100
AcDbVisualStyle
  2
JitterOff
 70
    20
177
     3
291
     1
 70
    58
 90
        2
176
     0
 90
        2
176
     0
 90
        0
176
     0
 90
        0
176
     0
 40
0.6
176
     0
 40
30.0
176
     0
 62
     7
420
 16777215
176
     0
 90
        1
176
     0
 90
        4
176
     0
 62
     7
176
     0
 62
   257
176
     0
 90
        1
176
     0
 90
        1
176
     0
 40
1.0
176
     0
 90
       10
176
     2
 62
     7
176
     0
 40
1.0
176
     0
 90
        1
176
     0
 90
        6
176
     0
 90
        2
176
     0
 62
     7
176
     0
 90
        5
176
     0
 90
        0
176
     0
 90
        0
176
     0
290
     0
176
     0
 90
        1
176
     0
 40
0.0
176
     0
 90
        0
176
     0
290
     0
176
     0
290
     1
176
     0
290
     1
176
     0
290
     0
176
     0
290
     0
176
     0
290
     0
176
     0
290
     0
176
     0
290
     0
176
     0
290
     0
176
     0
 90
       50
176
     0
 40
0.0
176
     0
 40
1.0
176
     0
 90
        0
176
     0
 62
    18
420
        0
176
     0
 90
       50
176
     0
 90
        3
176
     0
 62
     5
420
      255
176
     0
290
     0
176
     0
 90
       50
176
     0
 90
       50
176
     0
 90
       50
176
     0
290
     0
176
     0
 90
       50
176
     0
 62
   256
176
     0
 40
1.0
176
     0
 90
        2
176
     0
  1
strokes_ogs.tif
176
     0
290
     0
176
     0
 40
1.0
176
     0
 40
1.0
176
     0
  0
VISUALSTYLE
  5
38
102
{ACAD_REACTORS
330
2A
102
}
330
2A
100
AcDbVisualStyle
  2
Linepattern
 70
    14
177
     3
291
     1
 70
    58
 90
        2
176
     1
 90
        2
176
     1
 90
        0
176
     1
 90
        0
176
     1
 40
0.6
176
     1
 40
30.0
176
     1
 62
     7
420
 16777215
176
     1
 90
        1
176
     1
 90
        4
176
     1
 62
     7
176
     1
 62
   257
176
     1
 90
        7
176
     1
 90
        7
176
     1
 40
1.0
176
     1
 90
        8
176
     1
 62
     7
176
     1
 40
1.0
176
     1
 90
        1
176
     1
 90
        6
176
     1
 90
        2
176
     1
 62
     7
176
     1
 90
        5
176
     1
 90
        0
176
     1
 90
        0
176
     1
290
     0
176
     1
 90
        1
176
     1
 40
0.0
176
     1
 90
        0
176
     1
290
     0
176
     1
290
     1
176
     1
290
     1
176
     1
290
     0
176
     1
290
     0
176
     1
290
     0
176
     1
290
     0
176
     1
290
     0
176
     1
290
     0
176
     1
 90
       50
176
     1
 40
0.0
176
     1
 40
1.0
176
     1
 90
        0
176
     1
 62
    18
420
        0
176
     1
 90
       50
176
     1
 90
        3
176
     1
 62
     5
420
      255
176
     1
290
     0
176
     1
 90
       50
176
     1
 90
       50
176
     1
 90
       50
176
     1
290
     0
176
     1
 90
       50
176
     1
 62
   256
176
     0
 40
1.0
176
     0
 90
        2
176
     1
  1
strokes_ogs.tif
176
     1
290
     0
176
     1
 40
1.0
176
     1
 40
1.0
176
     1
  0
VISUALSTYLE
  5
3C
102
{ACAD_REACTORS
330
2A
102
}
330
2A
100
AcDbVisualStyle
  2
OverhangOff
 70
    21
177
     3
291
     1
 70
    58
 90
        2
176
     0
 90
        2
176
     0
 90
        0
176
     0
 90
        0
176
     0
 40
0.6
176
     0
 40
30.0
176
     0
 62
     7
420
 16777215
176
     0
 90
        1
176
     0
 90
        4
176
     0
 62
     7
176
     0
 62
   257
176
     0
 90
        1
176
     0
 90
        1
176
     0
 40
1.0
176
     0
 90
        9
176
     2
 62
     7
176
     0
 40
1.0
176
     0
 90
        1
176
     0
 90
        6
176
     0
 90
        2
176
     0
 62
     7
176
     0
 90
        5
176
     0
 90
        0
176
     0
 90
        0
176
     0
290
     0
176
     0
 90
        1
176
     0
 40
0.0
176
     0
 90
        0
176
     0
290
     0
176
     0
290
     1
176
     0
290
     1
176
     0
290
     0
176
     0
290
     0
176
     0
290
     0
176
     0
290
     0
176
     0
290
     0
176
     0
290
     0
176
     0
 90
       50
176
     0
 40
0.0
176
     0
 40
1.0
176
     0
 90
        0
176
     0
 62
    18
420
        0
176
     0
 90
       50
176
     0
 90
        3
176
     0
 62
     5
420
      255
176
     0
290
     0
176
     0
 90
       50
176
     0
 90
       50
176
     0
 90
       50
176
     0
290
     0
176
     0
 90
       50
176
     0
 62
   256
176
     0
 40
1.0
176
     0
 90
        2
176
     0
  1
strokes_ogs.tif
176
     0
290
     0
176
     0
 40
1.0
176
     0
 40
1.0
176
     0
  0
VISUALSTYLE
  5
33
102
{ACAD_REACTORS
330
2A
102
}
330
2A
100
AcDbVisualStyle
  2
Realistic
 70
     8
177
     3
291
     0
 70
    58
 90
        2
176
     1
 90
        3
176
     1
 90
        0
176
     1
 90
        2
176
     1
 40
0.6
176
     1
 40
30.0
176
     1
 62
     7
420
 16777215
176
     1
 90
        0
176
     1
 90
        0
176
     1
 62
     7
176
     1
 62
   257
176
     1
 90
        1
176
     1
 90
        1
176
     1
 40
1.0
176
     1
 90
        8
176
     1
 62
   257
176
     1
 40
1.0
176
     1
 90
        1
176
     1
 90
        6
176
     1
 90
        2
176
     1
 62
     7
176
     1
 90
        3
176
     1
 90
        0
176
     1
 90
        0
176
     1
290
     0
176
     1
 90
       13
176
     1
 40
0.0
176
     1
 90
        0
176
     1
290
     0
176
     1
290
     1
176
     1
290
     1
176
     1
290
     0
176
     1
290
     0
176
     1
290
     0
176
     1
290
     0
176
     1
290
     0
176
     1
290
     0
176
     1
 90
       50
176
     1
 40
0.0
176
     1
 40
1.0
176
     1
 90
        0
176
     1
 62
    18
420
        0
176
     1
 90
       50
176
     1
 90
        3
176
     1
 62
     5
420
      255
176
     1
290
     0
176
     1
 90
       50
176
     1
 90
       50
176
     1
 90
       50
176
     1
290
     0
176
     1
 90
       50
176
     1
 62
   256
176
     0
 40
1.0
176
     0
 90
        2
176
     1
  1
strokes_ogs.tif
176
     1
290
     0
176
     1
 40
1.0
176
     1
 40
1.0
176
     1
  0
VISUALSTYLE
  5
42
102
{ACAD_REACTORS
330
2A
102
}
330
2A
100
AcDbVisualStyle
  2
Shaded
 70
    27
177
     3
291
     0
 70
    58
 90
        2
176
     1
 90
        2
176
     1
 90
        1
176
     1
 90
        2
176
     1
 40
0.6
176
     1
 40
30.0
176
     1
 62
     7
420
 16777215
176
     1
 90
        0
176
     1
 90
        4
176
     1
 62
     7
176
     1
 62
   257
176
     1
 90
        1
176
     1
 90
        1
176
     1
 40
1.0
176
     1
 90
        8
176
     1
 62
   257
176
     1
 40
1.0
176
     1
 90
        1
176
     1
 90
        6
176
     1
 90
        2
176
     1
 62
     8
420
  7895160
176
     1
 90
        3
176
     1
 90
        0
176
     1
 90
        0
176
     1
290
     0
176
     1
 90
        5
176
     1
 40
0.0
176
     1
 90
        0
176
     1
290
     0
176
     1
290
     1
176
     1
290
     1
176
     1
290
     0
176
     1
290
     0
176
     1
290
     0
176
     1
290
     0
176
     1
290
     0
176
     1
290
     0
176
     1
 90
       50
176
     1
 40
0.0
176
     1
 40
1.0
176
     1
 90
        0
176
     1
 62
    18
420
        0
176
     1
 90
       50
176
     1
 90
        3
176
     1
 62
     5
420
      255
176
     1
290
     0
176
     1
 90
       50
176
     1
 90
       50
176
     1
 90
       50
176
     1
290
     0
176
     1
 90
       50
176
     1
 62
   256
176
     0
 40
1.0
176
     0
 90
        2
176
     1
  1
strokes_ogs.tif
176
     1
290
     0
176
     1
 40
1.0
176
     1
 40
1.0
176
     1
  0
VISUALSTYLE
  5
41
102
{ACAD_REACTORS
330
2A
102
}
330
2A
100
AcDbVisualStyle
  2
Shaded with edges
 70
    26
177
     3
291
     0
 70
    58
 90
        2
176
     1
 90
        2
176
     1
 90
        1
176
     1
 90
        2
176
     1
 40
0.6
176
     1
 40
30.0
176
     1
 62
     7
420
 16777215
176
     1
 90
        1
176
     1
 90
       10
176
     1
 62
     7
176
     1
 62
   257
176
     1
 90
        2
176
     1
 90
        1
176
     1
 40
1.0
176
     1
 90
        8
176
     1
 62
   257
176
     1
 40
1.0
176
     1
 90
        1
176
     1
 90
        6
176
     1
 90
        2
176
     1
 62
     7
176
     1
 90
        3
176
     1
 90
        0
176
     1
 90
        0
176
     1
290
     0
176
     1
 90
        5
176
     1
 40
0.0
176
     1
 90
        0
176
     1
290
     0
176
     1
290
     1
176
     1
290
     1
176
     1
290
     0
176
     1
290
     0
176
     1
290
     0
176
     1
290
     0
176
     1
290
     0
176
     1
290
     0
176
     1
 90
       50
176
     1
 40
0.0
176
     1
 40
1.0
176
     1
 90
        0
176
     1
 62
    18
420
        0
176
     1
 90
       50
176
     1
 90
        3
176
     1
 62
     5
420
      255
176
     1
290
     0
176
     1
 90
       50
176
     1
 90
       50
176
     1
 90
       50
176
     1
290
     0
176
     1
 90
       50
176
     1
 62
   256
176
     0
 40
1.0
176
     0
 90
        2
176
     1
  1
strokes_ogs.tif
176
     1
290
     0
176
     1
 40
1.0
176
     1
 40
1.0
176
     1
  0
VISUALSTYLE
  5
3E
102
{ACAD_REACTORS
330
2A
102
}
330
2A
100
AcDbVisualStyle
  2
Shades of Gray
 70
    23
177
     3
291
     0
 70
    58
 90
        2
176
     1
 90
        2
176
     1
 90
        3
176
     1
 90
        0
176
     1
 40
0.6
176
     1
 40
30.0
176
     1
 62
     7
420
 16777215
176
     1
 90
        2
176
     1
 90
        2
176
     1
 62
     7
176
     1
 62
     7
176
     1
 90
        1
176
     1
 90
        1
176
     1
 40
40.0
176
     1
 90
        8
176
     1
 62
     7
176
     1
 40
1.0
176
     1
 90
        1
176
     1
 90
        6
176
     1
 90
        2
176
     1
 62
     7
176
     1
 90
        3
176
     1
 90
        0
176
     1
 90
        0
176
     1
290
     0
176
     1
 90
        1
176
     1
 40
0.0
176
     1
 90
        0
176
     1
290
     0
176
     1
290
     1
176
     1
290
     1
176
     1
290
     0
176
     1
290
     0
176
     1
290
     0
176
     1
290
     0
176
     1
290
     0
176
     1
290
     0
176
     1
 90
       50
176
     1
 40
0.0
176
     1
 40
1.0
176
     1
 90
        0
176
     1
 62
    18
420
        0
176
     1
 90
       50
176
     1
 90
        3
176
     1
 62
     5
420
      255
176
     1
290
     0
176
     1
 90
       50
176
     1
 90
       50
176
     1
 90
       50
176
     1
290
     0
176
     1
 90
       50
176
     1
 62
   256
176
     0
 40
1.0
176
     0
 90
        2
176
     1
  1
strokes_ogs.tif
176
     1
290
     0
176
     1
 40
1.0
176
     1
 40
1.0
176
     1
  0
VISUALSTYLE
  5
3F
102
{ACAD_REACTORS
330
2A
102
}
330
2A
100
AcDbVisualStyle
  2
Sketchy
 70
    24
177
     3
291
     0
 70
    58
 90
        1
176
     1
 90
        2
176
     1
 90
        2
176
     1
 90
        0
176
     1
 40
0.6
176
     1
 40
30.0
176
     1
 62
     7
420
 16777215
176
     1
 90
        2
176
     1
 90
        2
176
     1
 62
     7
176
     1
 62
     7
176
     1
 90
        1
176
     1
 90
        1
176
     1
 40
40.0
176
     1
 90
       11
176
     1
 62
     7
176
     1
 40
1.0
176
     1
 90
        1
176
     1
 90
        6
176
     1
 90
        2
176
     1
 62
     7
176
     1
 90
        6
176
     1
 90
        0
176
     1
 90
        0
176
     1
290
     0
176
     1
 90
        1
176
     1
 40
0.0
176
     1
 90
        0
176
     1
290
     0
176
     1
290
     1
176
     1
290
     1
176
     1
290
     0
176
     1
290
     0
176
     1
290
     0
176
     1
290
     0
176
     1
290
     0
176
     1
290
     0
176
     1
 90
       50
176
     1
 40
0.0
176
     1
 40
1.0
176
     1
 90
        0
176
     1
 62
    18
420
        0
176
     1
 90
       50
176
     1
 90
        3
176
     1
 62
     5
420
      255
176
     1
290
     0
176
     1
 90
       50
176
     1
 90
       50
176
     1
 90
       50
176
     1
290
     0
176
     1
 90
       50
176
     1
 62
   256
176
     0
 40
1.0
176
     0
 90
        2
176
     1
  1
strokes_ogs.tif
176
     1
290
     0
176
     1
 40
1.0
176
     1
 40
1.0
176
     1
  0
VISUALSTYLE
  5
37
102
{ACAD_REACTORS
330
2A
102
}
330
2A
100
AcDbVisualStyle
  2
Thicken
 70
    13
177
     3
291
     1
 70
    58
 90
        2
176
     1
 90
        2
176
     1
 90
        0
176
     1
 90
        0
176
     1
 40
0.6
176
     1
 40
30.0
176
     1
 62
     7
420
 16777215
176
     1
 90
        1
176
     1
 90
        4
176
     1
 62
     7
176
     1
 62
   257
176
     1
 90
        1
176
     1
 90
        1
176
     1
 40
1.0
176
     1
 90
       12
176
     1
 62
     7
176
     1
 40
1.0
176
     1
 90
        1
176
     1
 90
        6
176
     1
 90
        2
176
     1
 62
     7
176
     1
 90
        5
176
     1
 90
        0
176
     1
 90
        0
176
     1
290
     0
176
     1
 90
        1
176
     1
 40
0.0
176
     1
 90
        0
176
     1
290
     0
176
     1
290
     1
176
     1
290
     1
176
     1
290
     0
176
     1
290
     0
176
     1
290
     0
176
     1
290
     0
176
     1
290
     0
176
     1
290
     0
176
     1
 90
       50
176
     1
 40
0.0
176
     1
 40
1.0
176
     1
 90
        0
176
     1
 62
    18
420
        0
176
     1
 90
       50
176
     1
 90
        3
176
     1
 62
     5
420
      255
176
     1
290
     0
176
     1
 90
       50
176
     1
 90
       50
176
     1
 90
       50
176
     1
290
     0
176
     1
 90
       50
176
     1
 62
   256
176
     0
 40
1.0
176
     0
 90
        2
176
     1
  1
strokes_ogs.tif
176
     1
290
     0
176
     1
 40
1.0
176
     1
 40
1.0
176
     1
  0
VISUALSTYLE
  5
30
102
{ACAD_REACTORS
330
2A
102
}
330
2A
100
AcDbVisualStyle
  2
Wireframe
 70
     5
177
     3
291
     0
 70
    58
 90
        0
176
     1
 90
        2
176
     1
 90
        0
176
     1
 90
        0
176
     1
 40
0.6
176
     1
 40
30.0
176
     1
 62
     7
420
 16777215
176
     1
 90
        1
176
     1
 90
        4
176
     1
 62
     7
176
     1
 62
   257
176
     1
 90
        1
176
     1
 90
        1
176
     1
 40
1.0
176
     1
 90
        0
176
     1
 62
   257
176
     1
 40
1.0
176
     1
 90
        1
176
     1
 90
        6
176
     1
 90
        2
176
     1
 62
     7
176
     1
 90
        3
176
     1
 90
        0
176
     1
 90
        0
176
     1
290
     0
176
     1
 90
        1
176
     1
 40
0.0
176
     1
 90
        0
176
     1
290
     0
176
     1
290
     1
176
     1
290
     1
176
     1
290
     0
176
     1
290
     0
176
     1
290
     0
176
     1
290
     0
176
     1
290
     0
176
     1
290
     0
176
     1
 90
       50
176
     1
 40
0.0
176
     1
 40
1.0
176
     1
 90
        0
176
     1
 62
    18
420
        0
176
     1
 90
       50
176
     1
 90
        3
176
     1
 62
     5
420
      255
176
     1
290
     0
176
     1
 90
       50
176
     1
 90
       50
176
     1
 90
       50
176
     1
290
     0
176
     1
 90
       50
176
     1
 62
   256
176
     0
 40
1.0
176
     0
 90
        2
176
     1
  1
strokes_ogs.tif
176
     1
290
     0
176
     1
 40
1.0
176
     1
 40
1.0
176
     1
  0
VISUALSTYLE
  5
40
102
{ACAD_REACTORS
330
2A
102
}
330
2A
100
AcDbVisualStyle
  2
X-Ray
 70
    25
177
     3
291
     0
 70
    58
 90
        2
176
     1
 90
        2
176
     1
 90
        1
176
     1
 90
        1
176
     1
 40
0.5
176
     1
 40
30.0
176
     1
 62
     7
420
 16777215
176
     1
 90
        1
176
     1
 90
        0
176
     1
 62
     7
176
     1
 62
   257
176
     1
 90
        1
176
     1
 90
        1
176
     1
 40
1.0
176
     1
 90
        8
176
     1
 62
     7
176
     1
 40
1.0
176
     1
 90
        1
176
     1
 90
        6
176
     1
 90
        2
176
     1
 62
     7
176
     1
 90
        3
176
     1
 90
        0
176
     1
 90
        0
176
     1
290
     0
176
     1
 90
       13
176
     1
 40
0.0
176
     1
 90
        0
176
     1
290
     0
176
     1
290
     1
176
     1
290
     1
176
     1
290
     0
176
     1
290
     0
176
     1
290
     0
176
     1
290
     0
176
     1
290
     0
176
     1
290
     0
176
     1
 90
       50
176
     1
 40
0.0
176
     1
 40
1.0
176
     1
 90
        0
176
     1
 62
    18
420
        0
176
     1
 90
       50
176
     1
 90
        3
176
     1
 62
     5
420
      255
176
     1
290
     0
176
     1
 90
       50
176
     1
 90
       50
176
     1
 90
       50
176
     1
290
     0
176
     1
 90
       50
176
     1
 62
   256
176
     0
 40
1.0
176
     0
 90
        2
176
     1
  1
strokes_ogs.tif
176
     1
290
     0
176
     1
 40
1.0
176
     1
 40
1.0
176
     1
  0
DICTIONARYVAR
  5
56E
102
{ACAD_REACTORS
330
56D
102
}
330
56D
100
DictionaryVariables
280
     0
  1
1:1
  0
DICTIONARYVAR
  5
576
102
{ACAD_REACTORS
330
56D
102
}
330
56D
100
DictionaryVariables
280
     0
  1
3.500000
  0
DICTIONARYVAR
  5
577
102
{ACAD_REACTORS
330
56D
102
}
330
56D
100
DictionaryVariables
280
     0
  1
acadiso.lin
  0
DICTIONARYVAR
  5
573
102
{ACAD_REACTORS
330
56D
102
}
330
56D
100
DictionaryVariables
280
     0
  1
Standard
  0
DICTIONARYVAR
  5
572
102
{ACAD_REACTORS
330
56D
102
}
330
56D
100
DictionaryVariables
280
     0
  1
Standard
  0
DICTIONARY
  5
56F
330
6A
100
AcDbDictionary
280
     1
281
     1
  3
ACAD_ROUNDTRIP_2008_TABLESTYLE_CELLSTYLEMAP
360
570
  0
CELLSTYLEMAP
  5
570
102
{ACAD_REACTORS
330
56F
102
}
330
56F
100
AcDbCellStyleMap
 90
        3
300
CELLSTYLE
  1
TABLEFORMAT_BEGIN
 90
        5
170
     1
 91
        0
 92
    32768
 62
   257
 93
        1
300
CONTENTFORMAT
  1
CONTENTFORMAT_BEGIN
 90
        0
 91
        0
 92
        4
 93
        0
300

 40
0.0
140
1.0
 94
        5
 62
     0
340
11
144
6.0
309
CONTENTFORMAT_END
171
     1
301
MARGIN
  1
CELLMARGIN_BEGIN
 40
1.5
 40
1.5
 40
1.5
 40
1.5
 40
1.5
 40
1.5
309
CELLMARGIN_END
 94
        6
 95
        1
302
GRIDFORMAT
  1
GRIDFORMAT_BEGIN
 90
        0
 91
        1
 62
     0
 92
       -2
340
14
 93
        0
 40
0.045
309
GRIDFORMAT_END
 95
        2
302
GRIDFORMAT
  1
GRIDFORMAT_BEGIN
 90
        0
 91
        1
 62
     0
 92
       -2
340
14
 93
        0
 40
0.045
309
GRIDFORMAT_END
 95
        4
302
GRIDFORMAT
  1
GRIDFORMAT_BEGIN
 90
        0
 91
        1
 62
     0
 92
       -2
340
14
 93
        0
 40
0.045
309
GRIDFORMAT_END
 95
        8
302
GRIDFORMAT
  1
GRIDFORMAT_BEGIN
 90
        0
 91
        1
 62
     0
 92
       -2
340
14
 93
        0
 40
0.045
309
GRIDFORMAT_END
 95
       16
302
GRIDFORMAT
  1
GRIDFORMAT_BEGIN
 90
        0
 91
        1
 62
     0
 92
       -2
340
14
 93
        0
 40
0.045
309
GRIDFORMAT_END
 95
       32
302
GRIDFORMAT
  1
GRIDFORMAT_BEGIN
 90
        0
 91
        1
 62
     0
 92
       -2
340
14
 93
        0
 40
0.045
309
GRIDFORMAT_END
309
TABLEFORMAT_END
  1
CELLSTYLE_BEGIN
 90
        1
 91
        1
300
_TITLE
309
CELLSTYLE_END
300
CELLSTYLE
  1
TABLEFORMAT_BEGIN
 90
        5
170
     1
 91
        0
 92
        0
 62
   257
 93
        1
300
CONTENTFORMAT
  1
CONTENTFORMAT_BEGIN
 90
        0
 91
        0
 92
        4
 93
        0
300

 40
0.0
140
1.0
 94
        5
 62
     0
340
11
144
4.5
309
CONTENTFORMAT_END
171
     1
301
MARGIN
  1
CELLMARGIN_BEGIN
 40
1.5
 40
1.5
 40
1.5
 40
1.5
 40
1.5
 40
1.5
309
CELLMARGIN_END
 94
        6
 95
        1
302
GRIDFORMAT
  1
GRIDFORMAT_BEGIN
 90
        0
 91
        1
 62
     0
 92
       -2
340
14
 93
        0
 40
0.045
309
GRIDFORMAT_END
 95
        2
302
GRIDFORMAT
  1
GRIDFORMAT_BEGIN
 90
        0
 91
        1
 62
     0
 92
       -2
340
14
 93
        0
 40
0.045
309
GRIDFORMAT_END
 95
        4
302
GRIDFORMAT
  1
GRIDFORMAT_BEGIN
 90
        0
 91
        1
 62
     0
 92
       -2
340
14
 93
        0
 40
0.045
309
GRIDFORMAT_END
 95
        8
302
GRIDFORMAT
  1
GRIDFORMAT_BEGIN
 90
        0
 91
        1
 62
     0
 92
       -2
340
14
 93
        0
 40
0.045
309
GRIDFORMAT_END
 95
       16
302
GRIDFORMAT
  1
GRIDFORMAT_BEGIN
 90
        0
 91
        1
 62
     0
 92
       -2
340
14
 93
        0
 40
0.045
309
GRIDFORMAT_END
 95
       32
302
GRIDFORMAT
  1
GRIDFORMAT_BEGIN
 90
        0
 91
        1
 62
     0
 92
       -2
340
14
 93
        0
 40
0.045
309
GRIDFORMAT_END
309
TABLEFORMAT_END
  1
CELLSTYLE_BEGIN
 90
        2
 91
        1
300
_HEADER
309
CELLSTYLE_END
300
CELLSTYLE
  1
TABLEFORMAT_BEGIN
 90
        5
170
     1
 91
        0
 92
        0
 62
   257
 93
        1
300
CONTENTFORMAT
  1
CONTENTFORMAT_BEGIN
 90
        0
 91
        0
 92
        4
 93
        0
300

 40
0.0
140
1.0
 94
        2
 62
     0
340
11
144
4.5
309
CONTENTFORMAT_END
171
     1
301
MARGIN
  1
CELLMARGIN_BEGIN
 40
1.5
 40
1.5
 40
1.5
 40
1.5
 40
1.5
 40
1.5
309
CELLMARGIN_END
 94
        6
 95
        1
302
GRIDFORMAT
  1
GRIDFORMAT_BEGIN
 90
        0
 91
        1
 62
     0
 92
       -2
340
14
 93
        0
 40
0.045
309
GRIDFORMAT_END
 95
        2
302
GRIDFORMAT
  1
GRIDFORMAT_BEGIN
 90
        0
 91
        1
 62
     0
 92
       -2
340
14
 93
        0
 40
0.045
309
GRIDFORMAT_END
 95
        4
302
GRIDFORMAT
  1
GRIDFORMAT_BEGIN
 90
        0
 91
        1
 62
     0
 92
       -2
340
14
 93
        0
 40
0.045
309
GRIDFORMAT_END
 95
        8
302
GRIDFORMAT
  1
GRIDFORMAT_BEGIN
 90
        0
 91
        1
 62
     0
 92
       -2
340
14
 93
        0
 40
0.045
309
GRIDFORMAT_END
 95
       16
302
GRIDFORMAT
  1
GRIDFORMAT_BEGIN
 90
        0
 91
        1
 62
     0
 92
       -2
340
14
 93
        0
 40
0.045
309
GRIDFORMAT_END
 95
       32
302
GRIDFORMAT
  1
GRIDFORMAT_BEGIN
 90
        0
 91
        1
 62
     0
 92
       -2
340
14
 93
        0
 40
0.045
309
GRIDFORMAT_END
309
TABLEFORMAT_END
  1
CELLSTYLE_BEGIN
 90
        3
 91
        2
300
_DATA
309
CELLSTYLE_END
  0
ENDSEC
  0
EOF
