  0
SECTION
  2
HEADER
  9
$ACADVER
  1
AC1021
  9
$ACADMAINTVER
 70
    25
  9
$DWGCODEPAGE
  3
ANSI_932
  9
$INSBASE
 10
0.0
 20
0.0
 30
0.0
  9
$EXTMIN
 10
-840.0
 20
-594.0
 30
0.0
  9
$EXTMAX
 10
840.0
 20
594.0
 30
0.0
  9
$LIMMIN
 10
-840.0
 20
-594.0
  9
$LIMMAX
 10
840.0
 20
594.0
  9
$ORTHOMODE
 70
     0
  9
$REGENMODE
 70
     1
  9
$FILLMODE
 70
     1
  9
$QTEXTMODE
 70
     0
  9
$MIRRTEXT
 70
     1
  9
$LTSCALE
 40
4.0
  9
$ATTMODE
 70
     1
  9
$TEXTSIZE
 40
2.5
  9
$TRACEWID
 40
1.0
  9
$TEXTSTYLE
  7
Standard
  9
$CLAYER
  8
0
  9
$CELTYPE
  6
ByLayer
  9
$CECOLOR
 62
   256
  9
$CELTSCALE
 40
1.0
  9
$DISPSILH
 70
     0
  9
$DIMSCALE
 40
1.0
  9
$DIMASZ
 40
2.5
  9
$DIMEXO
 40
0.625
  9
$DIMDLI
 40
3.75
  9
$DIMRND
 40
0.0
  9
$DIMDLE
 40
0.0
  9
$DIMEXE
 40
1.25
  9
$DIMTP
 40
0.0
  9
$DIMTM
 40
0.0
  9
$DIMTXT
 40
2.5
  9
$DIMCEN
 40
2.5
  9
$DIMTSZ
 40
0.0
  9
$DIMTOL
 70
     0
  9
$DIMLIM
 70
     0
  9
$DIMTIH
 70
     0
  9
$DIMTOH
 70
     0
  9
$DIMSE1
 70
     0
  9
$DIMSE2
 70
     0
  9
$DIMTAD
 70
     1
  9
$DIMZIN
 70
     8
  9
$DIMBLK
  1

  9
$DIMASO
 70
     1
  9
$DIMSHO
 70
     1
  9
$DIMPOST
  1

  9
$DIMAPOST
  1

  9
$DIMALT
 70
     0
  9
$DIMALTD
 70
     3
  9
$DIMALTF
 40
0.03937007874016
  9
$DIMLFAC
 40
1.0
  9
$DIMTOFL
 70
     1
  9
$DIMTVP
 40
0.0
  9
$DIMTIX
 70
     0
  9
$DIMSOXD
 70
     0
  9
$DIMSAH
 70
     0
  9
$DIMBLK1
  1

  9
$DIMBLK2
  1

  9
$DIMSTYLE
  2
ISO-25
  9
$DIMCLRD
 70
     0
  9
$DIMCLRE
 70
     0
  9
$DIMCLRT
 70
     0
  9
$DIMTFAC
 40
1.0
  9
$DIMGAP
 40
0.625
  9
$DIMJUST
 70
     0
  9
$DIMSD1
 70
     0
  9
$DIMSD2
 70
     0
  9
$DIMTOLJ
 70
     0
  9
$DIMTZIN
 70
     8
  9
$DIMALTZ
 70
     0
  9
$DIMALTTZ
 70
     0
  9
$DIMUPT
 70
     0
  9
$DIMDEC
 70
     2
  9
$DIMTDEC
 70
     2
  9
$DIMALTU
 70
     2
  9
$DIMALTTD
 70
     3
  9
$DIMTXSTY
  7
Standard
  9
$DIMAUNIT
 70
     0
  9
$DIMADEC
 70
     0
  9
$DIMALTRND
 40
0.0
  9
$DIMAZIN
 70
     0
  9
$DIMDSEP
 70
    44
  9
$DIMATFIT
 70
     3
  9
$DIMFRAC
 70
     0
  9
$DIMLDRBLK
  1

  9
$DIMLUNIT
 70
     2
  9
$DIMLWD
 70
    -2
  9
$DIMLWE
 70
    -2
  9
$DIMTMOVE
 70
     0
  9
$DIMFXL
 40
1.0
  9
$DIMFXLON
 70
     0
  9
$DIMJOGANG
 40
0.7853981633974483
  9
$DIMTFILL
 70
     0
  9
$DIMTFILLCLR
 70
     0
  9
$DIMARCSYM
 70
     0
  9
$DIMLTYPE
  6

  9
$DIMLTEX1
  6

  9
$DIMLTEX2
  6

  9
$LUNITS
 70
     2
  9
$LUPREC
 70
     4
  9
$SKETCHINC
 40
1.0
  9
$FILLETRAD
 40
10.0
  9
$AUNITS
 70
     0
  9
$AUPREC
 70
     0
  9
$MENU
  1
.
  9
$ELEVATION
 40
0.0
  9
$PELEVATION
 40
0.0
  9
$THICKNESS
 40
0.0
  9
$LIMCHECK
 70
     0
  9
$CHAMFERA
 40
10.0
  9
$CHAMFERB
 40
10.0
  9
$CHAMFERC
 40
20.0
  9
$CHAMFERD
 40
0.0
  9
$SKPOLY
 70
     0
  9
$TDCREATE
 40
2458858.770308785
  9
$TDUCREATE
 40
2458858.395308785
  9
$TDUPDATE
 40
2458858.770308796
  9
$TDUUPDATE
 40
2458858.395308796
  9
$TDINDWG
 40
0.0000000116
  9
$TDUSRTIMER
 40
0.0000000116
  9
$USRTIMER
 70
     1
  9
$ANGBASE
 50
0.0
  9
$ANGDIR
 70
     0
  9
$PDMODE
 70
     0
  9
$PDSIZE
 40
0.0
  9
$PLINEWID
 40
0.0
  9
$SPLFRAME
 70
     0
  9
$SPLINETYPE
 70
     6
  9
$SPLINESEGS
 70
     8
  9
$HANDSEED
  5
2B4
  9
$SURFTAB1
 70
     6
  9
$SURFTAB2
 70
     6
  9
$SURFTYPE
 70
     6
  9
$SURFU
 70
     6
  9
$SURFV
 70
     6
  9
$UCSBASE
  2

  9
$UCSNAME
  2

  9
$UCSORG
 10
0.0
 20
0.0
 30
0.0
  9
$UCSXDIR
 10
1.0
 20
0.0
 30
0.0
  9
$UCSYDIR
 10
0.0
 20
1.0
 30
0.0
  9
$UCSORTHOREF
  2

  9
$UCSORTHOVIEW
 70
     0
  9
$UCSORGTOP
 10
0.0
 20
0.0
 30
0.0
  9
$UCSORGBOTTOM
 10
0.0
 20
0.0
 30
0.0
  9
$UCSORGLEFT
 10
0.0
 20
0.0
 30
0.0
  9
$UCSORGRIGHT
 10
0.0
 20
0.0
 30
0.0
  9
$UCSORGFRONT
 10
0.0
 20
0.0
 30
0.0
  9
$UCSORGBACK
 10
0.0
 20
0.0
 30
0.0
  9
$PUCSBASE
  2

  9
$PUCSNAME
  2

  9
$PUCSORG
 10
0.0
 20
0.0
 30
0.0
  9
$PUCSXDIR
 10
1.0
 20
0.0
 30
0.0
  9
$PUCSYDIR
 10
0.0
 20
1.0
 30
0.0
  9
$PUCSORTHOREF
  2

  9
$PUCSORTHOVIEW
 70
     0
  9
$PUCSORGTOP
 10
0.0
 20
0.0
 30
0.0
  9
$PUCSORGBOTTOM
 10
0.0
 20
0.0
 30
0.0
  9
$PUCSORGLEFT
 10
0.0
 20
0.0
 30
0.0
  9
$PUCSORGRIGHT
 10
0.0
 20
0.0
 30
0.0
  9
$PUCSORGFRONT
 10
0.0
 20
0.0
 30
0.0
  9
$PUCSORGBACK
 10
0.0
 20
0.0
 30
0.0
  9
$USERI1
 70
     0
  9
$USERI2
 70
     0
  9
$USERI3
 70
     0
  9
$USERI4
 70
     0
  9
$USERI5
 70
     0
  9
$USERR1
 40
0.0
  9
$USERR2
 40
0.0
  9
$USERR3
 40
0.0
  9
$USERR4
 40
0.0
  9
$USERR5
 40
0.0
  9
$WORLDVIEW
 70
     1
  9
$SHADEDGE
 70
     3
  9
$SHADEDIF
 70
    70
  9
$TILEMODE
 70
     1
  9
$MAXACTVP
 70
    64
  9
$PINSBASE
 10
0.0
 20
0.0
 30
0.0
  9
$PLIMCHECK
 70
     0
  9
$PEXTMIN
 10
1.000000000000000E+20
 20
1.000000000000000E+20
 30
1.000000000000000E+20
  9
$PEXTMAX
 10
-1.000000000000000E+20
 20
-1.000000000000000E+20
 30
-1.000000000000000E+20
  9
$PLIMMIN
 10
0.0
 20
0.0
  9
$PLIMMAX
 10
420.0
 20
297.0
  9
$UNITMODE
 70
     0
  9
$VISRETAIN
 70
     1
  9
$PLINEGEN
 70
     0
  9
$PSLTSCALE
 70
     1
  9
$TREEDEPTH
 70
  3020
  9
$CMLSTYLE
  2
Standard
  9
$CMLJUST
 70
     0
  9
$CMLSCALE
 40
20.0
  9
$PROXYGRAPHICS
 70
     1
  9
$MEASUREMENT
 70
     1
  9
$CELWEIGHT
370
    -1
  9
$ENDCAPS
280
     0
  9
$JOINSTYLE
280
     0
  9
$LWDISPLAY
290
     0
  9
$INSUNITS
 70
     4
  9
$HYPERLINKBASE
  1

  9
$STYLESHEET
  1

  9
$XEDIT
290
     1
  9
$CEPSNTYPE
380
     0
  9
$PSTYLEMODE
290
     1
  9
$FINGERPRINTGUID
  2
{B2FCECDA-83DE-4C8D-A9AF-F5E3572AC240}
  9
$VERSIONGUID
  2
{FAEB1C32-E019-11D5-929B-00C0DF256EC4}
  9
$EXTNAMES
290
     1
  9
$PSVPSCALE
 40
0.0
  9
$OLESTARTUP
290
     0
  9
$SORTENTS
280
   127
  9
$INDEXCTL
280
     0
  9
$HIDETEXT
280
     1
  9
$XCLIPFRAME
290
     0
  9
$HALOGAP
280
     0
  9
$OBSCOLOR
 70
   257
  9
$OBSLTYPE
280
     0
  9
$INTERSECTIONDISPLAY
280
     0
  9
$INTERSECTIONCOLOR
 70
   257
  9
$DIMASSOC
280
     2
  9
$PROJECTNAME
  1

  9
$CAMERADISPLAY
290
     0
  9
$LENSLENGTH
 40
50.0
  9
$CAMERAHEIGHT
 40
0.0
  9
$STEPSPERSEC
 40
2.0
  9
$STEPSIZE
 40
6.0
  9
$3DDWFPREC
 40
2.0
  9
$PSOLWIDTH
 40
5.0
  9
$PSOLHEIGHT
 40
80.0
  9
$LOFTANG1
 40
1.570796326794897
  9
$LOFTANG2
 40
1.570796326794897
  9
$LOFTMAG1
 40
0.0
  9
$LOFTMAG2
 40
0.0
  9
$LOFTPARAM
 70
     7
  9
$LOFTNORMALS
280
     1
  9
$LATITUDE
 40
37.795
  9
$LONGITUDE
 40
-122.394
  9
$NORTHDIRECTION
 40
0.0
  9
$TIMEZONE
 70
 -8000
  9
$LIGHTGLYPHDISPLAY
280
     1
  9
$TILEMODELIGHTSYNCH
280
     1
  9
$SOLIDHIST
280
     1
  9
$SHOWHIST
280
     1
  9
$DWFFRAME
280
     2
  9
$DGNFRAME
280
     2
  9
$REALWORLDSCALE
290
     1
  9
$INTERFERECOLOR
 62
   256
  9
$CSHADOW
280
     0
  9
$SHADOWPLANELOCATION
 40
0.0
  0
ENDSEC
  0
SECTION
  2
CLASSES
  0
CLASS
  1
ACDBDICTIONARYWDFLT
  2
AcDbDictionaryWithDefault
  3
ObjectDBX Classes
 90
        0
 91
        4
280
     0
281
     0
  0
CLASS
  1
VISUALSTYLE
  2
AcDbVisualStyle
  3
ObjectDBX Classes
 90
     4095
 91
        4
280
     0
281
     0
  0
ENDSEC
  0
SECTION
  2
TABLES
  0
TABLE
  2
VPORT
  5
8
330
0
100
AcDbSymbolTable
 70
     1
  0
VPORT
  5
29
330
8
100
AcDbSymbolTableRecord
100
AcDbViewportTableRecord
  2
*Active
 70
     0
 10
0.0
 20
0.0
 11
1.0
 21
1.0
 12
0.0
 22
0.0
 13
0.0
 23
0.0
 14
10.0
 24
10.0
 15
10.0
 25
10.0
 16
0.0
 26
0.0
 36
1.0
 17
0.0
 27
0.0
 37
0.0
 40
1306.8
 41
1.414141414141414
 42
50.0
 43
0.0
 44
0.0
 50
0.0
 51
0.0
 71
     0
 72
 10000
 73
     1
 74
     3
 75
     0
 76
     0
 77
     0
 78
     0
281
     0
 65
     1
110
0.0
120
0.0
130
0.0
111
1.0
121
0.0
131
0.0
112
0.0
122
1.0
132
0.0
 79
     0
146
0.0
 60
     3
 61
     5
292
     1
282
     1
141
0.0
142
0.0
 63
   256
  0
ENDTAB
  0
TABLE
  2
LTYPE
  5
5
330
0
100
AcDbSymbolTable
 70
     5
  0
LTYPE
  5
14
330
5
100
AcDbSymbolTableRecord
100
AcDbLinetypeTableRecord
  2
ByBlock
 70
     0
  3

 72
    65
 73
     0
 40
0.0
  0
LTYPE
  5
15
330
5
100
AcDbSymbolTableRecord
100
AcDbLinetypeTableRecord
  2
ByLayer
 70
     0
  3

 72
    65
 73
     0
 40
0.0
  0
LTYPE
  5
16
330
5
100
AcDbSymbolTableRecord
100
AcDbLinetypeTableRecord
  2
Continuous
 70
     0
  3
Solid line
 72
    65
 73
     0
 40
0.0
  0
LTYPE
  5
3C
330
5
100
AcDbSymbolTableRecord
100
AcDbLinetypeTableRecord
  2
JWW_DASHED1
 70
     0
  3
-  --  --  --  --  --  --  --  -
 72
    65
 73
     2
 40
1.693333333333333
 49
0.8466666666666667
 74
     0
 49
-0.8466666666666667
 74
     0
  0
LTYPE
  5
3D
330
5
100
AcDbSymbolTableRecord
100
AcDbLinetypeTableRecord
  2
JWW_CENTER2
 70
     0
  3
-------------  --  -------------
 72
    65
 73
     4
 40
13.54666666666667
 49
11.00666666666667
 74
     0
 49
-0.8466666666666667
 74
     0
 49
0.8466666666666667
 74
     0
 49
-0.8466666666666667
 74
     0
  0
LTYPE
  5
3E
330
5
100
AcDbSymbolTableRecord
100
AcDbLinetypeTableRecord
  2
JWW_DASHED3
 70
     0
  3
---  ------  ------  ------  ---
 72
    65
 73
     2
 40
3.386666666666667
 49
2.54
 74
     0
 49
-0.8466666666666667
 74
     0
  0
LTYPE
  5
3F
330
5
100
AcDbSymbolTableRecord
100
AcDbLinetypeTableRecord
  2
JWW_CENTER1
 70
     0
  3
-----  --  ----------  --  -----
 72
    65
 73
     4
 40
6.773333333333333
 49
4.233333333333333
 74
     0
 49
-0.8466666666666667
 74
     0
 49
0.8466666666666667
 74
     0
 49
-0.8466666666666667
 74
     0
  0
ENDTAB
  0
TABLE
  2
LAYER
  5
2
330
0
100
AcDbSymbolTable
 70
    13
  0
LAYER
  5
10
330
2
100
AcDbSymbolTableRecord
100
AcDbLayerTableRecord
  2
0
 70
     0
 62
     7
  6
Continuous
370
    -3
390
F
347
0
  0
LAYER
  5
40
330
2
100
AcDbSymbolTableRecord
100
AcDbLayerTableRecord
  2
F-5ﾚｲﾔ
 70
     0
 62
     7
  6
Continuous
370
    -1
390
F
347
0
  0
LAYER
  5
41
330
2
100
AcDbSymbolTableRecord
100
AcDbLayerTableRecord
  2
F-0ﾚｲﾔ
 70
     0
 62
     7
  6
Continuous
370
    -1
390
F
347
0
  0
LAYER
  5
42
330
2
100
AcDbSymbolTableRecord
100
AcDbLayerTableRecord
  2
その他
 70
     0
 62
     7
  6
Continuous
370
    -1
390
F
347
0
  0
LAYER
  5
43
330
2
100
AcDbSymbolTableRecord
100
AcDbLayerTableRecord
  2
仕上
 70
     0
 62
     7
  6
Continuous
370
    -1
390
F
347
0
  0
LAYER
  5
44
330
2
100
AcDbSymbolTableRecord
100
AcDbLayerTableRecord
  2
建具
 70
     0
 62
     7
  6
Continuous
370
    -1
390
F
347
0
  0
LAYER
  5
45
330
2
100
AcDbSymbolTableRecord
100
AcDbLayerTableRecord
  2
寸法
 70
     0
 62
     7
  6
Continuous
370
    -1
390
F
347
0
  0
LAYER
  5
46
330
2
100
AcDbSymbolTableRecord
100
AcDbLayerTableRecord
  2
躯体
 70
     0
 62
     7
  6
Continuous
370
    -1
390
F
347
0
  0
LAYER
  5
47
330
2
100
AcDbSymbolTableRecord
100
AcDbLayerTableRecord
  2
通り芯
 70
     0
 62
     7
  6
Continuous
370
    -1
390
F
347
0
  0
LAYER
  5
48
330
2
100
AcDbSymbolTableRecord
100
AcDbLayerTableRecord
  2
0-A
 70
     0
 62
     7
  6
Continuous
370
    -1
390
F
347
0
  0
LAYER
  5
49
330
2
100
AcDbSymbolTableRecord
100
AcDbLayerTableRecord
  2
ハッチ
 70
     0
 62
     7
  6
Continuous
370
    -1
390
F
347
0
  0
LAYER
  5
4A
330
2
100
AcDbSymbolTableRecord
100
AcDbLayerTableRecord
  2
0-E
 70
     0
 62
     7
  6
Continuous
370
    -1
390
F
347
0
  0
LAYER
  5
4B
330
2
100
AcDbSymbolTableRecord
100
AcDbLayerTableRecord
  2
0-F
 70
     0
 62
     7
  6
Continuous
370
    -1
390
F
347
0
  0
ENDTAB
  0
TABLE
  2
STYLE
  5
3
330
0
100
AcDbSymbolTable
 70
     2
  0
STYLE
  5
11
330
3
100
AcDbSymbolTableRecord
100
AcDbTextStyleTableRecord
  2
Standard
 70
     0
 40
0.0
 41
1.0
 50
0.0
 71
     0
 42
2.5
  3
txt
  4

1001
ACAD
1000

1071
        0
  0
STYLE
  5
3B
330
3
100
AcDbSymbolTableRecord
100
AcDbTextStyleTableRecord
  2
ＭＳ ゴシック
 70
     0
 40
1.0
 41
1.0
 50
0.0
 71
     0
 42
10.0
  3

  4

1001
ACAD
1000
MS Gothic
1071
    32817
  0
ENDTAB
  0
TABLE
  2
VIEW
  5
6
330
0
100
AcDbSymbolTable
 70
     0
  0
ENDTAB
  0
TABLE
  2
UCS
  5
7
330
0
100
AcDbSymbolTable
 70
     0
  0
ENDTAB
  0
TABLE
  2
APPID
  5
9
330
0
100
AcDbSymbolTable
 70
     1
  0
APPID
  5
12
330
9
100
AcDbSymbolTableRecord
100
AcDbRegAppTableRecord
  2
ACAD
 70
     0
  0
ENDTAB
  0
TABLE
  2
DIMSTYLE
  5
A
330
0
100
AcDbSymbolTable
 70
     1
100
AcDbDimStyleTable
  0
DIMSTYLE
105
27
330
A
100
AcDbSymbolTableRecord
100
AcDbDimStyleTableRecord
  2
ISO-25
 70
     0
 41
2.5
 42
0.625
 43
3.75
 44
1.25
 73
     0
 74
     0
 77
     1
 78
     8
140
2.5
141
2.5
143
0.03937007874016
147
0.625
171
     3
172
     1
271
     2
272
     2
274
     3
278
    44
283
     0
284
     8
340
11
  0
ENDTAB
  0
TABLE
  2
BLOCK_RECORD
  5
1
330
0
100
AcDbSymbolTable
 70
     1
  0
BLOCK_RECORD
  5
1F
330
1
100
AcDbSymbolTableRecord
100
AcDbBlockTableRecord
  2
*Model_Space
340
22
 70
     0
280
     1
281
     0
  0
BLOCK_RECORD
  5
1B
330
1
100
AcDbSymbolTableRecord
100
AcDbBlockTableRecord
  2
*Paper_Space
340
1E
 70
     0
280
     1
281
     0
  0
BLOCK_RECORD
  5
23
330
1
100
AcDbSymbolTableRecord
100
AcDbBlockTableRecord
  2
*Paper_Space0
340
26
 70
     0
280
     1
281
     0
  0
ENDTAB
  0
ENDSEC
  0
SECTION
  2
BLOCKS
  0
BLOCK
  5
20
330
1F
100
AcDbEntity
  8
0
100
AcDbBlockBegin
  2
*Model_Space
 70
     0
 10
0.0
 20
0.0
 30
0.0
  3
*Model_Space
  1

  0
ENDBLK
  5
21
330
1F
100
AcDbEntity
  8
0
100
AcDbBlockEnd
  0
BLOCK
  5
1C
330
1B
100
AcDbEntity
 67
     1
  8
0
100
AcDbBlockBegin
  2
*Paper_Space
 70
     0
 10
0.0
 20
0.0
 30
0.0
  3
*Paper_Space
  1

  0
ENDBLK
  5
1D
330
1B
100
AcDbEntity
 67
     1
  8
0
100
AcDbBlockEnd
  0
BLOCK
  5
24
330
23
100
AcDbEntity
  8
0
100
AcDbBlockBegin
  2
*Paper_Space0
 70
     0
 10
0.0
 20
0.0
 30
0.0
  3
*Paper_Space0
  1

  0
ENDBLK
  5
25
330
23
100
AcDbEntity
  8
0
100
AcDbBlockEnd
  0
ENDSEC
  0
SECTION
  2
ENTITIES
  0
TEXT
  5
4C
330
1F
100
AcDbEntity
  8
F-5ﾚｲﾔ
  6
Continuous
 62
     2
370
     9
100
AcDbText
 10
-280.5353909124905
 20
-548.3976547334289
 30
0.0
 40
12.192
  1
 　　　　　　　　　　　　　　　　　　　　　ＳＵＷ－Ｍ－３００－ｂ
 41
0.7742307692307693
  7
ＭＳ ゴシック
100
AcDbText
  0
TEXT
  5
4D
330
1F
100
AcDbEntity
  8
F-5ﾚｲﾔ
  6
Continuous
 62
     2
370
     9
100
AcDbText
 10
-311.108903544954
 20
-528.5084724110112
 30
0.0
 40
12.192
  1
タイル用　充填深さ３５ｍｍ　ステンレス製　集水桝用　カラー舗装用みぞ蓋
 41
0.7742857142857144
  7
ＭＳ ゴシック
100
AcDbText
  0
TEXT
  5
4E
330
1F
100
AcDbEntity
  8
F-0ﾚｲﾔ
  6
Continuous
 62
     2
370
     9
100
AcDbText
 10
441.0810678842906
 20
-403.530308769632
 30
0.0
 40
12.192
  1
蓋 質 量：６．１ｋｇ
 41
1.1125
  7
ＭＳ ゴシック
100
AcDbText
  0
TEXT
  5
4F
330
1F
100
AcDbEntity
  8
その他
  6
Continuous
 62
     2
370
   211
100
AcDbText
 10
337.4729531777873
 20
-199.7441088735219
 30
0.0
 40
12.192
  1
66
 41
1.0625
  7
ＭＳ ゴシック
100
AcDbText
  0
LINE
  5
50
330
1F
100
AcDbEntity
  8
その他
  6
Continuous
 62
     7
370
     9
100
AcDbLine
 10
312.9729729729731
 20
-204.0000907279349
 30
0.0
 11
378.9729333826015
 21
-204.0000907279349
 31
0.0
  0
LINE
  5
51
330
1F
100
AcDbEntity
  8
仕上
  6
Continuous
 62
     3
370
     9
100
AcDbLine
 10
-276.148681640625
 20
-87.00002639358104
 30
0.0
 11
-276.148681640625
 21
-94.00004948796447
 31
0.0
  0
LINE
  5
52
330
1F
100
AcDbEntity
  8
仕上
  6
Continuous
 62
     3
370
     9
100
AcDbLine
 10
-301.1486156566723
 20
-87.00002639358104
 30
0.0
 11
-301.1486156566723
 21
-94.00004948796447
 31
0.0
  0
LINE
  5
53
330
1F
100
AcDbEntity
  8
仕上
  6
Continuous
 62
     3
370
     9
100
AcDbLine
 10
-276.148681640625
 20
-94.00004948796447
 30
0.0
 11
-301.1486156566723
 21
-94.00004948796447
 31
0.0
  0
LINE
  5
54
330
1F
100
AcDbEntity
  8
仕上
  6
Continuous
 62
     3
370
     9
100
AcDbLine
 10
-276.1487311285895
 20
-369.5675279771959
 30
0.0
 11
-276.1487311285895
 21
-381.5675675675676
 31
0.0
  0
LINE
  5
55
330
1F
100
AcDbEntity
  8
仕上
  6
Continuous
 62
     3
370
     9
100
AcDbLine
 10
-301.1487146326014
 20
-369.5675279771959
 30
0.0
 11
-301.1487146326014
 21
-381.5675675675676
 31
0.0
  0
LINE
  5
56
330
1F
100
AcDbEntity
  8
仕上
  6
Continuous
 62
     3
370
     9
100
AcDbLine
 10
-301.1487146326014
 20
-381.5675675675676
 30
0.0
 11
-276.1487311285895
 21
-381.5675675675676
 31
0.0
  0
TEXT
  5
57
330
1F
100
AcDbEntity
  8
F-0ﾚｲﾔ
  6
Continuous
 62
     2
370
     9
100
AcDbText
 10
441.0810876794765
 20
-355.635881994299
 30
0.0
 40
12.192
  1
仕様
 41
1.0625
  7
ＭＳ ゴシック
100
AcDbText
  0
TEXT
  5
58
330
1F
100
AcDbEntity
  8
F-0ﾚｲﾔ
  6
Continuous
 62
     2
370
     9
100
AcDbText
 10
441.0810678842906
 20
-379.6358621991131
 30
0.0
 40
12.192
  1
適用荷重：歩行用
 41
1.109375
  7
ＭＳ ゴシック
100
AcDbText
  0
LINE
  5
59
330
1F
100
AcDbEntity
  8
仕上
  6
Continuous
 62
     3
370
     9
100
AcDbLine
 10
312.9729729729731
 20
-87.00002639358104
 30
0.0
 11
360.9730323585304
 21
-87.00002639358104
 31
0.0
  0
LINE
  5
5A
330
1F
100
AcDbEntity
  8
仕上
  6
Continuous
 62
     3
370
     9
100
AcDbLine
 10
312.9729729729731
 20
-84.00001649598812
 30
0.0
 11
357.9729729729731
 21
-84.00001649598812
 31
0.0
  0
LINE
  5
5B
330
1F
100
AcDbEntity
  8
建具
  6
Continuous
 62
     4
370
     9
100
AcDbLine
 10
359.9729795713683
 20
-87.99998020481416
 30
0.0
 11
355.4729399809967
 21
-87.99998020481416
 31
0.0
  0
LINE
  5
5C
330
1F
100
AcDbEntity
  8
建具
  6
Continuous
 62
     4
370
     9
100
AcDbLine
 10
336.4730257601352
 20
-95.00005278716219
 30
0.0
 11
360.4730059649494
 21
-95.00005278716219
 31
0.0
  0
LINE
  5
5D
330
1F
100
AcDbEntity
  8
建具
  6
Continuous
 62
     4
370
     9
100
AcDbLine
 10
360.4730059649494
 20
-87.00002639358104
 30
0.0
 11
355.4729399809967
 21
-87.00002639358104
 31
0.0
  0
LINE
  5
5E
330
1F
100
AcDbEntity
  8
建具
  6
Continuous
 62
     4
370
     9
100
AcDbLine
 10
336.9729531777873
 20
-94.0
 30
0.0
 11
359.9729795713683
 21
-94.0
 31
0.0
  0
LINE
  5
5F
330
1F
100
AcDbEntity
  8
建具
  6
Continuous
 62
     4
370
     9
100
AcDbLine
 10
359.9729795713683
 20
-94.0
 30
0.0
 11
359.9729795713683
 21
-87.99998020481416
 31
0.0
  0
LINE
  5
60
330
1F
100
AcDbEntity
  8
建具
  6
Continuous
 62
     4
370
     9
100
AcDbLine
 10
341.4729927681587
 20
-87.99998020481416
 30
0.0
 11
336.9729531777873
 21
-87.99998020481416
 31
0.0
  0
LINE
  5
61
330
1F
100
AcDbEntity
  8
建具
  6
Continuous
 62
     4
370
     9
100
AcDbLine
 10
336.9729531777873
 20
-87.99998020481416
 30
0.0
 11
336.9729531777873
 21
-94.0
 31
0.0
  0
LINE
  5
62
330
1F
100
AcDbEntity
  8
建具
  6
Continuous
 62
     4
370
     9
100
AcDbLine
 10
341.4729927681587
 20
-87.99998020481416
 30
0.0
 11
341.4729927681587
 21
-87.00002639358104
 31
0.0
  0
LINE
  5
63
330
1F
100
AcDbEntity
  8
建具
  6
Continuous
 62
     4
370
     9
100
AcDbLine
 10
355.4729399809967
 20
-87.99998020481416
 30
0.0
 11
355.4729399809967
 21
-87.00002639358104
 31
0.0
  0
LINE
  5
64
330
1F
100
AcDbEntity
  8
建具
  6
Continuous
 62
     4
370
     9
100
AcDbLine
 10
360.9730323585304
 20
-94.50002639358104
 30
0.0
 11
360.9730323585304
 21
-87.50005278716208
 31
0.0
  0
LINE
  5
65
330
1F
100
AcDbEntity
  8
建具
  6
Continuous
 62
     4
370
     9
100
AcDbLine
 10
335.9729993665542
 20
-87.50005278716208
 30
0.0
 11
335.9729993665542
 21
-94.50002639358104
 31
0.0
  0
LINE
  5
66
330
1F
100
AcDbEntity
  8
建具
  6
Continuous
 62
     4
370
     9
100
AcDbLine
 10
341.4729927681587
 20
-87.00002639358104
 30
0.0
 11
336.4730257601352
 21
-87.00002639358104
 31
0.0
  0
ARC
  5
67
330
1F
100
AcDbEntity
  8
建具
  6
Continuous
 62
     4
370
     9
100
AcDbCircle
 10
360.4730059649494
 20
-94.50002639358104
 30
0.0
 40
0.4999999581156551
100
AcDbArc
 50
270.0
 51
0.0
  0
ARC
  5
68
330
1F
100
AcDbEntity
  8
建具
  6
Continuous
 62
     4
370
     9
100
AcDbCircle
 10
360.4730059649494
 20
-87.50005278716208
 30
0.0
 40
0.4999999581156551
100
AcDbArc
 50
0.0
 51
90.0
  0
ARC
  5
69
330
1F
100
AcDbEntity
  8
建具
  6
Continuous
 62
     4
370
     9
100
AcDbCircle
 10
336.4730257601352
 20
-94.50002639358104
 30
0.0
 40
0.4999999581156551
100
AcDbArc
 50
180.0
 51
270.0
  0
ARC
  5
6A
330
1F
100
AcDbEntity
  8
建具
  6
Continuous
 62
     4
370
     9
100
AcDbCircle
 10
336.4730257601352
 20
-87.50005278716208
 30
0.0
 40
0.4999999581156551
100
AcDbArc
 50
90.0
 51
180.0
  0
LINE
  5
6B
330
1F
100
AcDbEntity
  8
その他
  6
Continuous
 62
     7
370
     9
100
AcDbLine
 10
275.1464373464373
 20
-84.00001649598812
 30
0.0
 11
273.5801230397967
 21
-72.10267815950239
 31
0.0
  0
LINE
  5
6C
330
1F
100
AcDbEntity
  8
その他
  6
Continuous
 62
     7
370
     9
100
AcDbLine
 10
275.1464373464373
 20
-84.00001649598812
 30
0.0
 11
276.7127516530779
 21
-72.10267815950239
 31
0.0
  0
LINE
  5
6D
330
1F
100
AcDbEntity
  8
その他
  6
Continuous
 62
     7
370
     9
100
AcDbLine
 10
273.9464373464373
 20
-84.00001649598812
 30
0.0
 11
304.9729729729731
 21
-84.00001649598812
 31
0.0
  0
LINE
  5
6E
330
1F
100
AcDbEntity
  8
その他
  6
Continuous
 62
     7
370
     9
100
AcDbLine
 10
307.9730059649494
 20
-99.00006598395271
 30
0.0
 11
206.7730877850506
 21
-99.00006598395271
 31
0.0
  0
LINE
  5
6F
330
1F
100
AcDbEntity
  8
その他
  6
Continuous
 62
     7
370
     9
100
AcDbLine
 10
207.9730719489021
 20
-99.00006598395271
 30
0.0
 11
206.4067778716217
 21
-87.10271391997458
 31
0.0
  0
LINE
  5
70
330
1F
100
AcDbEntity
  8
その他
  6
Continuous
 62
     7
370
     9
100
AcDbLine
 10
207.9730719489021
 20
-99.00006598395271
 30
0.0
 11
209.5393660261825
 21
-87.10271391997458
 31
0.0
  0
LINE
  5
71
330
1F
100
AcDbEntity
  8
その他
  6
Continuous
 62
     7
370
     9
100
AcDbLine
 10
460.9729663745777
 20
-99.00006598395271
 30
0.0
 11
459.4066722972973
 21
-87.10271391997458
 31
0.0
  0
LINE
  5
72
330
1F
100
AcDbEntity
  8
その他
  6
Continuous
 62
     7
370
     9
100
AcDbLine
 10
460.9729663745777
 20
-99.00006598395271
 30
0.0
 11
462.5392604518581
 21
-87.10271391997458
 31
0.0
  0
LINE
  5
73
330
1F
100
AcDbEntity
  8
その他
  6
Continuous
 62
     7
370
     9
100
AcDbLine
 10
312.9729729729731
 20
-154.000098975929
 30
0.0
 11
372.9729729729731
 21
-154.000098975929
 31
0.0
  0
LINE
  5
74
330
1F
100
AcDbEntity
  8
その他
  6
Continuous
 62
     7
370
     9
100
AcDbLine
 10
372.9729729729731
 20
-104.0000824799408
 30
0.0
 11
372.9729729729731
 21
-155.2000831397804
 31
0.0
  0
LINE
  5
75
330
1F
100
AcDbEntity
  8
その他
  6
Continuous
 62
     7
370
     9
100
AcDbLine
 10
312.9729729729731
 20
-104.0000824799408
 30
0.0
 11
312.9729729729731
 21
-205.2000996357685
 31
0.0
  0
LINE
  5
76
330
1F
100
AcDbEntity
  8
その他
  6
Continuous
 62
     7
370
     9
100
AcDbLine
 10
312.9729729729731
 20
-154.000098975929
 30
0.0
 11
324.8702755489865
 21
-152.4338048986486
 31
0.0
  0
LINE
  5
77
330
1F
100
AcDbEntity
  8
その他
  6
Continuous
 62
     7
370
     9
100
AcDbLine
 10
312.9729729729731
 20
-154.000098975929
 30
0.0
 11
324.8702755489865
 21
-155.5663930532094
 31
0.0
  0
LINE
  5
78
330
1F
100
AcDbEntity
  8
その他
  6
Continuous
 62
     7
370
     9
100
AcDbLine
 10
372.9729729729731
 20
-154.000098975929
 30
0.0
 11
361.0756703969596
 21
-152.4338048986486
 31
0.0
  0
LINE
  5
79
330
1F
100
AcDbEntity
  8
その他
  6
Continuous
 62
     7
370
     9
100
AcDbLine
 10
372.9729729729731
 20
-154.000098975929
 30
0.0
 11
361.0756703969596
 21
-155.5663930532094
 31
0.0
  0
LINE
  5
7A
330
1F
100
AcDbEntity
  8
その他
  6
Continuous
 62
     7
370
     9
100
AcDbLine
 10
312.9729729729731
 20
-204.0000907279349
 30
0.0
 11
324.8702755489865
 21
-202.4337719066723
 31
0.0
  0
LINE
  5
7B
330
1F
100
AcDbEntity
  8
その他
  6
Continuous
 62
     7
370
     9
100
AcDbLine
 10
312.9729729729731
 20
-204.0000907279349
 30
0.0
 11
324.8702755489865
 21
-205.5664095491976
 31
0.0
  0
TEXT
  5
7C
330
1F
100
AcDbEntity
  8
その他
  6
Continuous
 62
     2
370
     9
100
AcDbText
 10
456.7169597761825
 20
-82.5000329919763
 30
0.0
 40
12.192
  1
50
 50
90.0
 41
1.0625
  7
ＭＳ ゴシック
100
AcDbText
  0
TEXT
  5
7D
330
1F
100
AcDbEntity
  8
その他
  6
Continuous
 62
     2
370
     9
100
AcDbText
 10
334.4730224609376
 20
-149.7440923775337
 30
0.0
 40
12.192
  1
60
 41
1.0625
  7
ＭＳ ゴシック
100
AcDbText
  0
LINE
  5
7E
330
1F
100
AcDbEntity
  8
その他
  6
Continuous
 62
     7
370
     9
100
AcDbLine
 10
307.9730059649494
 20
-87.00002639358104
 30
0.0
 11
241.2482747295857
 21
-87.00002639358104
 31
0.0
  0
LINE
  5
7F
330
1F
100
AcDbEntity
  8
その他
  6
Continuous
 62
     7
370
     9
100
AcDbLine
 10
307.9730059649494
 20
-96.00005608635979
 30
0.0
 11
241.2482747295857
 21
-96.00005608635979
 31
0.0
  0
LINE
  5
80
330
1F
100
AcDbEntity
  8
その他
  6
Continuous
 62
     7
370
     9
100
AcDbLine
 10
242.4482588934372
 20
-87.00002639358104
 30
0.0
 11
240.8819648161567
 21
-75.10267432960302
 31
0.0
  0
LINE
  5
81
330
1F
100
AcDbEntity
  8
その他
  6
Continuous
 62
     7
370
     9
100
AcDbLine
 10
242.4482588934372
 20
-87.00002639358104
 30
0.0
 11
244.0145529707173
 21
-75.10267432960302
 31
0.0
  0
LINE
  5
82
330
1F
100
AcDbEntity
  8
その他
  6
Continuous
 62
     7
370
     9
100
AcDbLine
 10
242.4482588934372
 20
-99.00006598395271
 30
0.0
 11
240.8819648161567
 21
-110.8974180479307
 31
0.0
  0
LINE
  5
83
330
1F
100
AcDbEntity
  8
その他
  6
Continuous
 62
     7
370
     9
100
AcDbLine
 10
242.4482588934372
 20
-99.00006598395271
 30
0.0
 11
244.0145529707173
 21
-110.8974180479307
 31
0.0
  0
TEXT
  5
84
330
1F
100
AcDbEntity
  8
その他
  6
Continuous
 62
     2
370
     9
100
AcDbText
 10
238.1922522950417
 20
-95.50004123997036
 30
0.0
 40
12.192
  1
9
 50
90.0
  7
ＭＳ ゴシック
100
AcDbText
  0
TEXT
  5
85
330
1F
100
AcDbEntity
  8
その他
  6
Continuous
 62
     2
370
     9
100
AcDbText
 10
238.1922522950417
 20
-119.8467836122255
 30
0.0
 40
12.192
  1
3
 50
90.0
  7
ＭＳ ゴシック
100
AcDbText
  0
LWPOLYLINE
  5
86
330
1F
100
AcDbEntity
  8
その他
  6
Continuous
 62
     7
370
     9
100
AcDbPolyline
 90
        4
 70
     1
 43
0.4
 10
242.6482588934371
 20
-96.00005608635979
 42
0.4142135623731
 10
242.4482588934372
 20
-95.80005608635979
 42
0.4142135623731
 10
242.2482588934372
 20
-96.00005608635979
 42
0.4142135623731
 10
242.4482588934372
 20
-96.2000560863598
 42
0.4142135623731
  0
LINE
  5
87
330
1F
100
AcDbEntity
  8
その他
  6
Continuous
 62
     7
370
     9
100
AcDbLine
 10
460.9729663745777
 20
-99.00006598395271
 30
0.0
 11
460.9729663745777
 21
-48.99999999999999
 31
0.0
  0
LINE
  5
88
330
1F
100
AcDbEntity
  8
その他
  6
Continuous
 62
     7
370
     9
100
AcDbLine
 10
242.4482588934372
 20
-122.0280530774915
 30
0.0
 11
242.4482588934372
 21
-99.00006598395271
 31
0.0
  0
LINE
  5
89
330
1F
100
AcDbEntity
  8
その他
  6
Continuous
 62
     7
370
     9
100
AcDbLine
 10
242.4482588934372
 20
-99.00006598395271
 30
0.0
 11
242.4482588934372
 21
-96.00005608635979
 31
0.0
  0
LINE
  5
8A
330
1F
100
AcDbEntity
  8
その他
  6
Continuous
 62
     7
370
     9
100
AcDbLine
 10
242.4482588934372
 20
-96.00005608635979
 30
0.0
 11
242.4482588934372
 21
-87.00002639358104
 31
0.0
  0
LINE
  5
8B
330
1F
100
AcDbEntity
  8
その他
  6
Continuous
 62
     7
370
     9
100
AcDbLine
 10
460.9729663745777
 20
-129.0000659839527
 30
0.0
 11
460.9729663745777
 21
-99.00006598395271
 31
0.0
  0
LINE
  5
8C
330
1F
100
AcDbEntity
  8
その他
  6
Continuous
 62
     7
370
     9
100
AcDbLine
 10
460.9729663745777
 20
-129.0000659839527
 30
0.0
 11
459.4066520679371
 21
-117.102727647467
 31
0.0
  0
LINE
  5
8D
330
1F
100
AcDbEntity
  8
その他
  6
Continuous
 62
     7
370
     9
100
AcDbLine
 10
460.9729663745777
 20
-129.0000659839527
 30
0.0
 11
462.5392806812183
 21
-117.102727647467
 31
0.0
  0
LINE
  5
8E
330
1F
100
AcDbEntity
  8
その他
  6
Continuous
 62
     7
370
     9
100
AcDbLine
 10
460.9729663745777
 20
-99.00006598395271
 30
0.0
 11
459.4066520679371
 21
-110.8974043204384
 31
0.0
  0
LINE
  5
8F
330
1F
100
AcDbEntity
  8
その他
  6
Continuous
 62
     7
370
     9
100
AcDbLine
 10
460.9729663745777
 20
-99.00006598395271
 30
0.0
 11
462.5392806812183
 21
-110.8974043204384
 31
0.0
  0
TEXT
  5
90
330
1F
100
AcDbEntity
  8
その他
  6
Continuous
 62
     2
370
   211
100
AcDbText
 10
456.7169663745777
 20
-122.5000659839527
 30
0.0
 40
12.192
  1
30
 50
90.0
 41
1.0625
  7
ＭＳ ゴシック
100
AcDbText
  0
LINE
  5
91
330
1F
100
AcDbEntity
  8
建具
  6
Continuous
 62
     4
370
     9
100
AcDbLine
 10
357.9729729729731
 20
93.23205080756885
 30
0.0
 11
348.8389983767576
 21
77.4115427318801
 31
0.0
  0
LINE
  5
92
330
1F
100
AcDbEntity
  8
建具
  6
Continuous
 62
     4
370
     9
100
AcDbLine
 10
357.9729729729731
 20
93.23205080756885
 30
0.0
 11
357.9729729729731
 21
108.7679491924311
 31
0.0
  0
LINE
  5
93
330
1F
100
AcDbEntity
  8
建具
  6
Continuous
 62
     4
370
     9
100
AcDbLine
 10
357.9729729729731
 20
108.7679491924311
 30
0.0
 11
348.8389983767576
 21
124.5884572681199
 31
0.0
  0
LINE
  5
94
330
1F
100
AcDbEntity
  8
建具
  6
Continuous
 62
     4
370
     9
100
AcDbLine
 10
347.9729729729731
 20
124.0884572681199
 30
0.0
 11
348.8389983767576
 21
124.5884572681199
 31
0.0
  0
LINE
  5
95
330
1F
100
AcDbEntity
  8
建具
  6
Continuous
 62
     4
370
     9
100
AcDbLine
 10
347.9729729729731
 20
77.9115427318801
 30
0.0
 11
348.8389983767576
 21
77.4115427318801
 31
0.0
  0
LINE
  5
96
330
1F
100
AcDbEntity
  8
建具
  6
Continuous
 62
     4
370
     9
100
AcDbLine
 10
356.9729729729731
 20
93.5
 30
0.0
 11
347.9729729729731
 21
77.9115427318801
 31
0.0
  0
LINE
  5
97
330
1F
100
AcDbEntity
  8
建具
  6
Continuous
 62
     4
370
     9
100
AcDbLine
 10
356.9729729729731
 20
93.5
 30
0.0
 11
356.9729729729731
 21
108.5
 31
0.0
  0
LINE
  5
98
330
1F
100
AcDbEntity
  8
建具
  6
Continuous
 62
     4
370
     9
100
AcDbLine
 10
356.9729729729731
 20
108.5
 30
0.0
 11
347.9729729729731
 21
124.0884572681199
 31
0.0
  0
LINE
  5
99
330
1F
100
AcDbEntity
  8
寸法
  6
Continuous
 62
     7
370
     9
100
AcDbLine
 10
483.6599319045608
 20
171.0570926150759
 30
0.0
 11
357.9729729729731
 21
101.0
 31
0.0
  0
LINE
  5
9A
330
1F
100
AcDbEntity
  8
寸法
  6
Continuous
 62
     7
370
     9
100
AcDbLine
 10
357.9729729729731
 20
101.0
 30
0.0
 11
369.127560177365
 21
105.4243230046452
 31
0.0
  0
LINE
  5
9B
330
1F
100
AcDbEntity
  8
寸法
  6
Continuous
 62
     7
370
     9
100
AcDbLine
 10
357.9729729729731
 20
101.0
 30
0.0
 11
367.6024400865711
 21
108.1605620513091
 31
0.0
  0
TEXT
  5
9C
330
1F
100
AcDbEntity
  8
寸法
  6
Continuous
 62
     7
370
     9
100
AcDbText
 10
486.2490409592506
 20
176.1634484097105
 30
0.0
 40
9.144
  1
モルタル止め：ｔ＝１.０
 41
1.152173913043478
  7
ＭＳ ゴシック
100
AcDbText
  0
TEXT
  5
9D
330
1F
100
AcDbEntity
  8
寸法
  6
Continuous
 62
     7
370
     9
100
AcDbText
 10
519.7488345227628
 20
158.3055682793967
 30
0.0
 40
9.144
  1
ＳＵＳ４３０
 41
1.138888888888889
  7
ＭＳ ゴシック
100
AcDbText
  0
LINE
  5
9E
330
1F
100
AcDbEntity
  8
寸法
  6
Continuous
 62
     7
370
     9
100
AcDbLine
 10
483.6599319045608
 20
171.0570926150759
 30
0.0
 11
647.1835470400819
 21
171.0570926150759
 31
0.0
  0
LINE
  5
9F
330
1F
100
AcDbEntity
  8
その他
  6
Continuous
 62
     7
370
     9
100
AcDbLine
 10
312.9729729729731
 20
157.3072134677498
 30
0.0
 11
347.9729729729731
 21
157.3072134677498
 31
0.0
  0
LINE
  5
A0
330
1F
100
AcDbEntity
  8
その他
  6
Continuous
 62
     7
370
     9
100
AcDbLine
 10
312.9729729729731
 20
157.3072134677498
 30
0.0
 11
324.8703113094589
 21
158.8735277743905
 31
0.0
  0
LINE
  5
A1
330
1F
100
AcDbEntity
  8
その他
  6
Continuous
 62
     7
370
     9
100
AcDbLine
 10
312.9729729729731
 20
157.3072134677498
 30
0.0
 11
324.8703113094589
 21
155.7408991611092
 31
0.0
  0
LINE
  5
A2
330
1F
100
AcDbEntity
  8
その他
  6
Continuous
 62
     7
370
     9
100
AcDbLine
 10
347.9729729729731
 20
157.3072134677498
 30
0.0
 11
336.0756346364874
 21
158.8735277743905
 31
0.0
  0
LINE
  5
A3
330
1F
100
AcDbEntity
  8
その他
  6
Continuous
 62
     7
370
     9
100
AcDbLine
 10
347.9729729729731
 20
157.3072134677498
 30
0.0
 11
336.0756346364874
 21
155.7408991611092
 31
0.0
  0
LINE
  5
A4
330
1F
100
AcDbEntity
  8
その他
  6
Continuous
 62
     7
370
     9
100
AcDbLine
 10
347.9729729729731
 20
158.5072134677498
 30
0.0
 11
347.9729729729731
 21
136.0884572681199
 31
0.0
  0
TEXT
  5
A5
330
1F
100
AcDbEntity
  8
その他
  6
Continuous
 62
     2
370
   211
100
AcDbText
 10
321.9729729729731
 20
161.5632134677498
 30
0.0
 40
12.192
  1
35
 41
1.0625
  7
ＭＳ ゴシック
100
AcDbText
  0
LINE
  5
A6
330
1F
100
AcDbEntity
  8
寸法
  6
Continuous
 62
     7
370
     9
100
AcDbLine
 10
170.2643317145271
 20
-1.837837837837803
 30
0.0
 11
312.9729729729731
 21
-59.41164088893571
 31
0.0
  0
LINE
  5
A7
330
1F
100
AcDbEntity
  8
寸法
  6
Continuous
 62
     7
370
     9
100
AcDbLine
 10
312.9729729729731
 20
-59.41164088893571
 30
0.0
 11
301.3536937816723
 21
-56.41296716638509
 31
0.0
  0
LINE
  5
A8
330
1F
100
AcDbEntity
  8
寸法
  6
Continuous
 62
     7
370
     9
100
AcDbLine
 10
312.9729729729731
 20
-59.41164088893571
 30
0.0
 11
302.5256677576015
 21
-53.50787518475499
 31
0.0
  0
TEXT
  5
A9
330
1F
100
AcDbEntity
  8
寸法
  6
Continuous
 62
     7
370
     9
100
AcDbText
 10
63.94897343298213
 20
-14.66147996743724
 30
0.0
 40
9.144
  1
ＳＵＳ３０４
 41
1.138888888888889
  7
ＭＳ ゴシック
100
AcDbText
  0
LINE
  5
AA
330
1F
100
AcDbEntity
  8
寸法
  6
Continuous
 62
     7
370
     9
100
AcDbLine
 10
49.52018984991477
 20
-1.837837837837803
 30
0.0
 11
170.2643317145271
 21
-1.837837837837803
 31
0.0
  0
TEXT
  5
AB
330
1F
100
AcDbEntity
  8
寸法
  6
Continuous
 62
     7
370
     9
100
AcDbText
 10
50.11749646233581
 20
2.418229067011609
 30
0.0
 40
9.144
  1
蓋本体：ｔ＝３.０
 41
1.147058823529412
  7
ＭＳ ゴシック
100
AcDbText
  0
LINE
  5
AC
330
1F
100
AcDbEntity
  8
その他
  6
Continuous
 62
     7
370
     9
100
AcDbLine
 10
312.9729729729731
 20
39.07015660928295
 30
0.0
 11
391.5446183488177
 21
39.07015660928295
 31
0.0
  0
LINE
  5
AD
330
1F
100
AcDbEntity
  8
その他
  6
Continuous
 62
     7
370
     9
100
AcDbLine
 10
357.9730719489021
 20
39.07015660928295
 30
0.0
 11
357.9730719489021
 21
37.8701724454316
 31
0.0
  0
LINE
  5
AE
330
1F
100
AcDbEntity
  8
その他
  6
Continuous
 62
     7
370
     9
100
AcDbLine
 10
312.9729729729731
 20
39.07015660928295
 30
0.0
 11
312.9729729729731
 21
37.8701724454316
 31
0.0
  0
LINE
  5
AF
330
1F
100
AcDbEntity
  8
その他
  6
Continuous
 62
     7
370
     9
100
AcDbLine
 10
312.9729729729731
 20
39.07015660928295
 30
0.0
 11
324.8702755489865
 21
40.63645068656336
 31
0.0
  0
LINE
  5
B0
330
1F
100
AcDbEntity
  8
その他
  6
Continuous
 62
     7
370
     9
100
AcDbLine
 10
312.9729729729731
 20
39.07015660928295
 30
0.0
 11
324.8702755489865
 21
37.50386253200254
 31
0.0
  0
LINE
  5
B1
330
1F
100
AcDbEntity
  8
その他
  6
Continuous
 62
     7
370
     9
100
AcDbLine
 10
357.9730719489021
 20
39.07015660928295
 30
0.0
 11
346.0757693728885
 21
40.63645068656336
 31
0.0
  0
LINE
  5
B2
330
1F
100
AcDbEntity
  8
その他
  6
Continuous
 62
     7
370
     9
100
AcDbLine
 10
357.9730719489021
 20
39.07015660928295
 30
0.0
 11
346.0757693728885
 21
37.50386253200254
 31
0.0
  0
LINE
  5
B3
330
1F
100
AcDbEntity
  8
その他
  6
Continuous
 62
     7
370
     9
100
AcDbLine
 10
360.9730323585304
 20
39.07015660928295
 30
0.0
 11
360.9730323585304
 21
37.8701724454316
 31
0.0
  0
LINE
  5
B4
330
1F
100
AcDbEntity
  8
その他
  6
Continuous
 62
     7
370
     9
100
AcDbLine
 10
360.9730323585304
 20
39.07015660928295
 30
0.0
 11
372.870334934544
 21
40.63645068656336
 31
0.0
  0
LINE
  5
B5
330
1F
100
AcDbEntity
  8
その他
  6
Continuous
 62
     7
370
     9
100
AcDbLine
 10
360.9730323585304
 20
39.07015660928295
 30
0.0
 11
372.870334934544
 21
37.50386253200254
 31
0.0
  0
TEXT
  5
B6
330
1F
100
AcDbEntity
  8
その他
  6
Continuous
 62
     2
370
     9
100
AcDbText
 10
326.9730224609376
 20
43.32616320767815
 30
0.0
 40
12.192
  1
45
 41
1.0625
  7
ＭＳ ゴシック
100
AcDbText
  0
TEXT
  5
B7
330
1F
100
AcDbEntity
  8
その他
  6
Continuous
 62
     2
370
     9
100
AcDbText
 10
379.8983319256757
 20
43.32616320767815
 30
0.0
 40
12.192
  1
3
  7
ＭＳ ゴシック
100
AcDbText
  0
LINE
  5
B8
330
1F
100
AcDbEntity
  8
寸法
  6
Continuous
 62
     7
370
     9
100
AcDbLine
 10
498.6599319045608
 20
61.48032427857584
 30
0.0
 11
372.9729729729731
 21
-8.576768336500091
 31
0.0
  0
TEXT
  5
B9
330
1F
100
AcDbEntity
  8
寸法
  6
Continuous
 62
     7
370
     9
100
AcDbText
 10
526.9037894243374
 20
47.39941594154993
 30
0.0
 40
9.144
  1
ＳＵＳ３０４
 41
1.138888888888889
  7
ＭＳ ゴシック
100
AcDbText
  0
TEXT
  5
BA
330
1F
100
AcDbEntity
  8
寸法
  6
Continuous
 62
     7
370
     9
100
AcDbText
 10
502.0970023179297
 20
81.85676864015832
 30
0.0
 40
9.144
  1
かさ上げ材
 41
1.133333333333333
  7
ＭＳ ゴシック
100
AcDbText
  0
LINE
  5
BB
330
1F
100
AcDbEntity
  8
寸法
  6
Continuous
 62
     7
370
     9
100
AcDbLine
 10
372.9729729729731
 20
-8.576768336500091
 30
0.0
 11
384.127560177365
 21
-4.152445331854889
 31
0.0
  0
LINE
  5
BC
330
1F
100
AcDbEntity
  8
寸法
  6
Continuous
 62
     7
370
     9
100
AcDbLine
 10
372.9729729729731
 20
-8.576768336500091
 30
0.0
 11
382.6024400865711
 21
-1.416206285191034
 31
0.0
  0
LINE
  5
BD
330
1F
100
AcDbEntity
  8
寸法
  6
Continuous
 62
     7
370
     9
100
AcDbLine
 10
498.6599319045608
 20
61.48032427857584
 30
0.0
 11
634.6089964307953
 21
61.48032427857584
 31
0.0
  0
LINE
  5
BE
330
1F
100
AcDbEntity
  8
仕上
  6
JWW_DASHED1
 62
     3
370
     9
100
AcDbLine
 10
-276.148681640625
 20
289.0000263935812
 30
0.0
 11
-276.148681640625
 21
-87.00002639358104
 31
0.0
  0
LINE
  5
BF
330
1F
100
AcDbEntity
  8
仕上
  6
JWW_DASHED1
 62
     3
370
     9
100
AcDbLine
 10
-301.1486156566723
 20
289.0000263935812
 30
0.0
 11
-301.1486156566723
 21
-87.00002639358104
 31
0.0
  0
LINE
  5
C0
330
1F
100
AcDbEntity
  8
仕上
  6
Continuous
 62
     3
370
     9
100
AcDbLine
 10
-276.148681640625
 20
296.0
 30
0.0
 11
-301.1486156566723
 21
296.0
 31
0.0
  0
LINE
  5
C1
330
1F
100
AcDbEntity
  8
仕上
  6
Continuous
 62
     3
370
     9
100
AcDbLine
 10
-301.1486156566723
 20
289.0000263935812
 30
0.0
 11
-301.1486156566723
 21
296.0
 31
0.0
  0
LINE
  5
C2
330
1F
100
AcDbEntity
  8
仕上
  6
Continuous
 62
     3
370
     9
100
AcDbLine
 10
-276.148681640625
 20
289.0000263935812
 30
0.0
 11
-276.148681640625
 21
296.0
 31
0.0
  0
LINE
  5
C3
330
1F
100
AcDbEntity
  8
仕上
  6
Continuous
 62
     3
370
     9
100
AcDbLine
 10
312.9729729729731
 20
289.0000263935812
 30
0.0
 11
360.9730323585304
 21
289.0000263935812
 31
0.0
  0
LINE
  5
C4
330
1F
100
AcDbEntity
  8
仕上
  6
Continuous
 62
     3
370
     9
100
AcDbLine
 10
312.9729729729731
 20
285.9999670080236
 30
0.0
 11
357.9729729729731
 21
285.9999670080236
 31
0.0
  0
LINE
  5
C5
330
1F
100
AcDbEntity
  8
建具
  6
Continuous
 62
     4
370
     9
100
AcDbLine
 10
312.9729729729731
 20
298.0001055743244
 30
0.0
 11
312.9729729729731
 21
301.0000659839527
 31
0.0
  0
LINE
  5
C6
330
1F
100
AcDbEntity
  8
建具
  6
Continuous
 62
     4
370
     9
100
AcDbLine
 10
359.9729795713683
 20
289.9999802048143
 30
0.0
 11
355.4729399809967
 21
289.9999802048143
 31
0.0
  0
LINE
  5
C7
330
1F
100
AcDbEntity
  8
建具
  6
Continuous
 62
     4
370
     9
100
AcDbLine
 10
336.4730257601352
 20
297.0000527871622
 30
0.0
 11
360.4730059649494
 21
297.0000527871622
 31
0.0
  0
LINE
  5
C8
330
1F
100
AcDbEntity
  8
建具
  6
Continuous
 62
     4
370
     9
100
AcDbLine
 10
360.4730059649494
 20
289.0000263935812
 30
0.0
 11
355.4729399809967
 21
289.0000263935812
 31
0.0
  0
LINE
  5
C9
330
1F
100
AcDbEntity
  8
建具
  6
Continuous
 62
     4
370
     9
100
AcDbLine
 10
336.9729531777873
 20
296.0
 30
0.0
 11
359.9729795713683
 21
296.0
 31
0.0
  0
LINE
  5
CA
330
1F
100
AcDbEntity
  8
建具
  6
Continuous
 62
     4
370
     9
100
AcDbLine
 10
359.9729795713683
 20
296.0
 30
0.0
 11
359.9729795713683
 21
289.9999802048143
 31
0.0
  0
LINE
  5
CB
330
1F
100
AcDbEntity
  8
建具
  6
Continuous
 62
     4
370
     9
100
AcDbLine
 10
341.4729927681587
 20
289.9999802048143
 30
0.0
 11
336.9729531777873
 21
289.9999802048143
 31
0.0
  0
LINE
  5
CC
330
1F
100
AcDbEntity
  8
建具
  6
Continuous
 62
     4
370
     9
100
AcDbLine
 10
336.9729531777873
 20
289.9999802048143
 30
0.0
 11
336.9729531777873
 21
296.0
 31
0.0
  0
LINE
  5
CD
330
1F
100
AcDbEntity
  8
建具
  6
Continuous
 62
     4
370
     9
100
AcDbLine
 10
341.4729927681587
 20
289.9999802048143
 30
0.0
 11
341.4729927681587
 21
289.0000263935812
 31
0.0
  0
LINE
  5
CE
330
1F
100
AcDbEntity
  8
建具
  6
Continuous
 62
     4
370
     9
100
AcDbLine
 10
355.4729399809967
 20
289.9999802048143
 30
0.0
 11
355.4729399809967
 21
289.0000263935812
 31
0.0
  0
LINE
  5
CF
330
1F
100
AcDbEntity
  8
建具
  6
Continuous
 62
     4
370
     9
100
AcDbLine
 10
360.9730323585304
 20
296.5000263935812
 30
0.0
 11
360.9730323585304
 21
289.5000527871622
 31
0.0
  0
LINE
  5
D0
330
1F
100
AcDbEntity
  8
建具
  6
Continuous
 62
     4
370
     9
100
AcDbLine
 10
335.9729993665542
 20
289.5000527871622
 30
0.0
 11
335.9729993665542
 21
296.5000263935812
 31
0.0
  0
LINE
  5
D1
330
1F
100
AcDbEntity
  8
建具
  6
Continuous
 62
     4
370
     9
100
AcDbLine
 10
341.4729927681587
 20
289.0000263935812
 30
0.0
 11
336.4730257601352
 21
289.0000263935812
 31
0.0
  0
ARC
  5
D2
330
1F
100
AcDbEntity
  8
建具
  6
Continuous
 62
     4
370
     9
100
AcDbCircle
 10
360.4730059649494
 20
296.5000263935812
 30
0.0
 40
0.4999999581156551
100
AcDbArc
 50
0.0
 51
90.0
  0
ARC
  5
D3
330
1F
100
AcDbEntity
  8
建具
  6
Continuous
 62
     4
370
     9
100
AcDbCircle
 10
360.4730059649494
 20
289.5000527871622
 30
0.0
 40
0.4999999581156551
100
AcDbArc
 50
270.0
 51
0.0
  0
ARC
  5
D4
330
1F
100
AcDbEntity
  8
建具
  6
Continuous
 62
     4
370
     9
100
AcDbCircle
 10
336.4730257601352
 20
296.5000263935812
 30
0.0
 40
0.4999999581156551
100
AcDbArc
 50
90.0
 51
180.0
  0
ARC
  5
D5
330
1F
100
AcDbEntity
  8
建具
  6
Continuous
 62
     4
370
     9
100
AcDbCircle
 10
336.4730257601352
 20
289.5000527871622
 30
0.0
 40
0.4999999581156551
100
AcDbArc
 50
180.0
 51
270.0
  0
LINE
  5
D6
330
1F
100
AcDbEntity
  8
その他
  6
Continuous
 62
     7
370
     9
100
AcDbLine
 10
275.1464373464373
 20
285.9999670080236
 30
0.0
 11
273.5801230397967
 21
274.1026286715379
 31
0.0
  0
LINE
  5
D7
330
1F
100
AcDbEntity
  8
その他
  6
Continuous
 62
     7
370
     9
100
AcDbLine
 10
275.1464373464373
 20
285.9999670080236
 30
0.0
 11
276.7127516530779
 21
274.1026286715379
 31
0.0
  0
LINE
  5
D8
330
1F
100
AcDbEntity
  8
その他
  6
Continuous
 62
     7
370
     9
100
AcDbLine
 10
273.9464373464373
 20
285.9999670080236
 30
0.0
 11
304.9729729729731
 21
285.9999670080236
 31
0.0
  0
LINE
  5
D9
330
1F
100
AcDbEntity
  8
その他
  6
Continuous
 62
     7
370
     9
100
AcDbLine
 10
307.9730059649494
 20
301.0000659839527
 30
0.0
 11
206.7730877850506
 21
301.0000659839527
 31
0.0
  0
LINE
  5
DA
330
1F
100
AcDbEntity
  8
その他
  6
Continuous
 62
     7
370
     9
100
AcDbLine
 10
207.9730719489021
 20
301.0000659839527
 30
0.0
 11
206.4067778716217
 21
289.1027634079393
 31
0.0
  0
LINE
  5
DB
330
1F
100
AcDbEntity
  8
その他
  6
Continuous
 62
     7
370
     9
100
AcDbLine
 10
207.9730719489021
 20
301.0000659839527
 30
0.0
 11
209.5393660261825
 21
289.1027634079393
 31
0.0
  0
LINE
  5
DC
330
1F
100
AcDbEntity
  8
その他
  6
Continuous
 62
     7
370
     9
100
AcDbLine
 10
462.5392604518581
 20
262.8973025760135
 30
0.0
 11
459.4066722972973
 21
239.1026974239866
 31
0.0
  0
LINE
  5
DD
330
1F
100
AcDbEntity
  8
その他
  6
Continuous
 62
     7
370
     9
100
AcDbLine
 10
459.4066722972973
 20
262.8973025760135
 30
0.0
 11
462.5392604518581
 21
239.1026974239866
 31
0.0
  0
LINE
  5
DE
330
1F
100
AcDbEntity
  8
その他
  6
Continuous
 62
     7
370
     9
100
AcDbLine
 10
460.9729663745777
 20
301.0000659839527
 30
0.0
 11
459.4066722972973
 21
289.1027634079393
 31
0.0
  0
LINE
  5
DF
330
1F
100
AcDbEntity
  8
その他
  6
Continuous
 62
     7
370
     9
100
AcDbLine
 10
460.9729663745777
 20
301.0000659839527
 30
0.0
 11
462.5392604518581
 21
289.1027634079393
 31
0.0
  0
TEXT
  5
E0
330
1F
100
AcDbEntity
  8
その他
  6
Continuous
 62
     2
370
     9
100
AcDbText
 10
456.7169597761825
 20
267.5000824799409
 30
0.0
 40
12.192
  1
50
 50
90.0
 41
1.0625
  7
ＭＳ ゴシック
100
AcDbText
  0
LINE
  5
E1
330
1F
100
AcDbEntity
  8
その他
  6
Continuous
 62
     7
370
     9
100
AcDbLine
 10
307.9730059649494
 20
289.0000263935812
 30
0.0
 11
241.2482747295857
 21
289.0000263935812
 31
0.0
  0
LINE
  5
E2
330
1F
100
AcDbEntity
  8
その他
  6
Continuous
 62
     7
370
     9
100
AcDbLine
 10
242.4482588934372
 20
289.0000263935812
 30
0.0
 11
240.8819648161567
 21
277.1027238175676
 31
0.0
  0
LINE
  5
E3
330
1F
100
AcDbEntity
  8
その他
  6
Continuous
 62
     7
370
     9
100
AcDbLine
 10
242.4482588934372
 20
289.0000263935812
 30
0.0
 11
244.0145529707173
 21
277.1027238175676
 31
0.0
  0
LINE
  5
E4
330
1F
100
AcDbEntity
  8
その他
  6
Continuous
 62
     7
370
     9
100
AcDbLine
 10
307.9730059649494
 20
298.0000065983953
 30
0.0
 11
241.2482747295857
 21
298.0000065983953
 31
0.0
  0
LINE
  5
E5
330
1F
100
AcDbEntity
  8
その他
  6
Continuous
 62
     7
370
     9
100
AcDbLine
 10
242.4482588934372
 20
301.0000659839527
 30
0.0
 11
240.8819648161567
 21
312.8973685599663
 31
0.0
  0
LINE
  5
E6
330
1F
100
AcDbEntity
  8
その他
  6
Continuous
 62
     7
370
     9
100
AcDbLine
 10
242.4482588934372
 20
301.0000659839527
 30
0.0
 11
244.0145529707173
 21
312.8973685599663
 31
0.0
  0
TEXT
  5
E7
330
1F
100
AcDbEntity
  8
その他
  6
Continuous
 62
     2
370
     9
100
AcDbText
 10
238.1922522950417
 20
289.5000659839528
 30
0.0
 40
12.192
  1
9
 50
90.0
  7
ＭＳ ゴシック
100
AcDbText
  0
TEXT
  5
E8
330
1F
100
AcDbEntity
  8
その他
  6
Continuous
 62
     2
370
     9
100
AcDbText
 10
238.1922522950417
 20
314.3490617081926
 30
0.0
 40
12.192
  1
3
 50
90.0
  7
ＭＳ ゴシック
100
AcDbText
  0
LWPOLYLINE
  5
E9
330
1F
100
AcDbEntity
  8
その他
  6
Continuous
 62
     7
370
     9
100
AcDbPolyline
 90
        4
 70
     1
 43
0.4
 10
242.6482588934371
 20
298.0000065983953
 42
0.4142135623731
 10
242.4482588934372
 20
298.2000065983953
 42
0.4142135623731
 10
242.2482588934372
 20
298.0000065983953
 42
0.4142135623731
 10
242.4482588934372
 20
297.8000065983953
 42
0.4142135623731
  0
LINE
  5
EA
330
1F
100
AcDbEntity
  8
その他
  6
Continuous
 62
     7
370
     9
100
AcDbLine
 10
460.9729663745777
 20
251.0
 30
0.0
 11
460.9729663745777
 21
301.0000659839527
 31
0.0
  0
LINE
  5
EB
330
1F
100
AcDbEntity
  8
その他
  6
Continuous
 62
     7
370
     9
100
AcDbLine
 10
242.4482588934372
 20
289.0000263935812
 30
0.0
 11
242.4482588934372
 21
298.0000065983953
 31
0.0
  0
LINE
  5
EC
330
1F
100
AcDbEntity
  8
その他
  6
Continuous
 62
     7
370
     9
100
AcDbLine
 10
242.4482588934372
 20
298.0000065983953
 30
0.0
 11
242.4482588934372
 21
301.0000659839527
 31
0.0
  0
LINE
  5
ED
330
1F
100
AcDbEntity
  8
その他
  6
Continuous
 62
     7
370
     9
100
AcDbLine
 10
242.4482588934372
 20
301.0000659839527
 30
0.0
 11
242.4482588934372
 21
324.2920713682433
 31
0.0
  0
LINE
  5
EE
330
1F
100
AcDbEntity
  8
仕上
  6
Continuous
 62
     3
370
     9
100
AcDbLine
 10
357.9729729729731
 20
-87.00002639358104
 30
0.0
 11
357.9729729729731
 21
289.0000263935812
 31
0.0
  0
LINE
  5
EF
330
1F
100
AcDbEntity
  8
仕上
  6
Continuous
 62
     3
370
     9
100
AcDbLine
 10
312.9729729729731
 20
-87.00002639358104
 30
0.0
 11
312.9729729729731
 21
289.0000263935812
 31
0.0
  0
LINE
  5
F0
330
1F
100
AcDbEntity
  8
仕上
  6
Continuous
 62
     3
370
     9
100
AcDbLine
 10
360.9730323585304
 20
-94.00004948796447
 30
0.0
 11
360.9730323585304
 21
296.0
 31
0.0
  0
LINE
  5
F1
330
1F
100
AcDbEntity
  8
その他
  6
Continuous
 62
     7
370
     9
100
AcDbLine
 10
460.9729663745777
 20
301.0000659839527
 30
0.0
 11
460.9729663745777
 21
331.0000659839527
 31
0.0
  0
LINE
  5
F2
330
1F
100
AcDbEntity
  8
その他
  6
Continuous
 62
     7
370
     9
100
AcDbLine
 10
460.9729663745777
 20
301.0000659839527
 30
0.0
 11
459.4066520679371
 21
312.8974043204385
 31
0.0
  0
LINE
  5
F3
330
1F
100
AcDbEntity
  8
その他
  6
Continuous
 62
     7
370
     9
100
AcDbLine
 10
460.9729663745777
 20
301.0000659839527
 30
0.0
 11
462.5392806812183
 21
312.8974043204385
 31
0.0
  0
LINE
  5
F4
330
1F
100
AcDbEntity
  8
その他
  6
Continuous
 62
     7
370
     9
100
AcDbLine
 10
460.9729663745777
 20
331.0000659839527
 30
0.0
 11
459.4066520679371
 21
319.102727647467
 31
0.0
  0
LINE
  5
F5
330
1F
100
AcDbEntity
  8
その他
  6
Continuous
 62
     7
370
     9
100
AcDbLine
 10
460.9729663745777
 20
331.0000659839527
 30
0.0
 11
462.5392806812183
 21
319.102727647467
 31
0.0
  0
TEXT
  5
F6
330
1F
100
AcDbEntity
  8
その他
  6
Continuous
 62
     2
370
   211
100
AcDbText
 10
456.7169663745777
 20
307.5000659839527
 30
0.0
 40
12.192
  1
30
 50
90.0
 41
1.0625
  7
ＭＳ ゴシック
100
AcDbText
  0
LINE
  5
F7
330
1F
100
AcDbEntity
  8
その他
  6
Continuous
 62
     7
370
     9
100
AcDbLine
 10
-480.6486882390203
 20
-274.3675923115498
 30
0.0
 11
-480.6486882390203
 21
-313.5675675675676
 31
0.0
  0
LINE
  5
F8
330
1F
100
AcDbEntity
  8
その他
  6
Continuous
 62
     7
370
     9
100
AcDbLine
 10
-480.6486882390203
 20
-275.5675923115498
 30
0.0
 11
-468.7513499025345
 21
-277.1339066181904
 31
0.0
  0
LINE
  5
F9
330
1F
100
AcDbEntity
  8
その他
  6
Continuous
 62
     7
370
     9
100
AcDbLine
 10
-480.6486882390203
 20
-275.5675923115498
 30
0.0
 11
-468.7513499025345
 21
-274.0012780049092
 31
0.0
  0
TEXT
  5
FA
330
1F
100
AcDbEntity
  8
その他
  6
Continuous
 62
     2
370
     9
100
AcDbText
 10
-480.527731101969
 20
-236.8115857131545
 30
0.0
 40
12.192
  1
2
  7
ＭＳ ゴシック
100
AcDbText
  0
LINE
  5
FB
330
1F
100
AcDbEntity
  8
その他
  6
Continuous
 62
     7
370
     9
100
AcDbLine
 10
-485.6486552470439
 20
-241.0675923115498
 30
0.0
 11
-483.6486981366132
 21
-241.0675923115498
 31
0.0
  0
LINE
  5
FC
330
1F
100
AcDbEntity
  8
その他
  6
Continuous
 62
     7
370
     9
100
AcDbLine
 10
-488.6486651446369
 20
-241.0675923115498
 30
0.0
 11
-485.6486552470439
 21
-241.0675923115498
 31
0.0
  0
LINE
  5
FD
330
1F
100
AcDbEntity
  8
その他
  6
Continuous
 62
     7
370
     9
100
AcDbLine
 10
-511.5012668918919
 20
-241.0675923115498
 30
0.0
 11
-488.6486651446369
 21
-241.0675923115498
 31
0.0
  0
LWPOLYLINE
  5
FE
330
1F
100
AcDbEntity
  8
その他
  6
Continuous
 62
     7
370
     9
100
AcDbPolyline
 90
        4
 70
     1
 43
0.4
 10
-485.4486552470439
 20
-241.0675923115498
 42
0.4142135623731
 10
-485.6486552470439
 20
-240.8675923115498
 42
0.4142135623731
 10
-485.8486552470439
 20
-241.0675923115498
 42
0.4142135623731
 10
-485.6486552470439
 20
-241.2675923115498
 42
0.4142135623731
  0
TEXT
  5
FF
330
1F
100
AcDbEntity
  8
その他
  6
Continuous
 62
     2
370
     9
100
AcDbText
 10
-509.8300822489971
 20
-236.8115857131545
 30
0.0
 40
12.192
  1
3
  7
ＭＳ ゴシック
100
AcDbText
  0
LINE
  5
100
330
1F
100
AcDbEntity
  8
その他
  6
Continuous
 62
     7
370
     9
100
AcDbLine
 10
-488.6486651446369
 20
-241.0675923115498
 30
0.0
 11
-500.5459924646326
 21
-242.6339111328124
 31
0.0
  0
LINE
  5
101
330
1F
100
AcDbEntity
  8
その他
  6
Continuous
 62
     7
370
     9
100
AcDbLine
 10
-488.6486651446369
 20
-241.0675923115498
 30
0.0
 11
-500.5459924646326
 21
-239.5012734902871
 31
0.0
  0
LINE
  5
102
330
1F
100
AcDbEntity
  8
その他
  6
Continuous
 62
     7
370
     9
100
AcDbLine
 10
-483.6486981366132
 20
-241.0675923115498
 30
0.0
 11
-471.7513708166174
 21
-242.6339111328124
 31
0.0
  0
LINE
  5
103
330
1F
100
AcDbEntity
  8
その他
  6
Continuous
 62
     7
370
     9
100
AcDbLine
 10
-483.6486981366132
 20
-241.0675923115498
 30
0.0
 11
-471.7513708166174
 21
-239.5012734902871
 31
0.0
  0
LINE
  5
104
330
1F
100
AcDbEntity
  8
その他
  6
Continuous
 62
     7
370
     9
100
AcDbLine
 10
-483.6486981366132
 20
-316.5676005595439
 30
0.0
 11
-483.6486981366132
 21
-239.8675834037162
 31
0.0
  0
LINE
  5
105
330
1F
100
AcDbEntity
  8
その他
  6
Continuous
 62
     7
370
     9
100
AcDbLine
 10
-485.6486552470439
 20
-316.5676005595439
 30
0.0
 11
-485.6486552470439
 21
-239.8675834037162
 31
0.0
  0
LINE
  5
106
330
1F
100
AcDbEntity
  8
その他
  6
Continuous
 62
     7
370
     9
100
AcDbLine
 10
-488.6486651446369
 20
-206.5675923115498
 30
0.0
 11
-476.751337824641
 21
-208.1339111328125
 31
0.0
  0
LINE
  5
107
330
1F
100
AcDbEntity
  8
その他
  6
Continuous
 62
     7
370
     9
100
AcDbLine
 10
-488.6486651446369
 20
-206.5675923115498
 30
0.0
 11
-476.751337824641
 21
-205.0012734902871
 31
0.0
  0
LINE
  5
108
330
1F
100
AcDbEntity
  8
その他
  6
Continuous
 62
     7
370
     9
100
AcDbLine
 10
-488.6486651446369
 20
-316.5676005595439
 30
0.0
 11
-488.6486651446369
 21
-205.3675834037162
 31
0.0
  0
LINE
  5
109
330
1F
100
AcDbEntity
  8
仕上
  6
Continuous
 62
     3
370
     9
100
AcDbLine
 10
-463.648681640625
 20
-94.0
 30
0.0
 11
-466.1486651446368
 21
-94.0
 31
0.0
  0
LINE
  5
10A
330
1F
100
AcDbEntity
  8
仕上
  6
Continuous
 62
     3
370
     9
100
AcDbLine
 10
-441.1487311285895
 20
-94.0
 30
0.0
 11
-443.6486898886191
 21
-94.0
 31
0.0
  0
LINE
  5
10B
330
1F
100
AcDbEntity
  8
建具
  6
JWW_DASHED1
 62
     4
370
     9
100
AcDbLine
 10
-463.648681640625
 20
-87.99998020481416
 30
0.0
 11
-443.6486898886191
 21
-87.99998020481416
 31
0.0
  0
LINE
  5
10C
330
1F
100
AcDbEntity
  8
建具
  6
JWW_DASHED1
 62
     4
370
     9
100
AcDbLine
 10
-463.648681640625
 20
-94.00009897592906
 30
0.0
 11
-443.6486898886191
 21
-94.00009897592906
 31
0.0
  0
LINE
  5
10D
330
1F
100
AcDbEntity
  8
建具
  6
Continuous
 62
     4
370
     9
100
AcDbLine
 10
-463.648681640625
 20
-95.00005278716219
 30
0.0
 11
-443.6486898886191
 21
-95.00005278716219
 31
0.0
  0
LINE
  5
10E
330
1F
100
AcDbEntity
  8
建具
  6
Continuous
 62
     4
370
     9
100
AcDbLine
 10
-463.648681640625
 20
-87.00002639358104
 30
0.0
 11
-463.648681640625
 21
-95.00005278716219
 31
0.0
  0
LINE
  5
10F
330
1F
100
AcDbEntity
  8
建具
  6
Continuous
 62
     4
370
     9
100
AcDbLine
 10
-443.6486898886191
 20
-87.00002639358104
 30
0.0
 11
-443.6486898886191
 21
-95.00005278716219
 31
0.0
  0
LINE
  5
110
330
1F
100
AcDbEntity
  8
仕上
  6
Continuous
 62
     3
370
     9
100
AcDbLine
 10
-466.1486651446368
 20
-87.00002639358104
 30
0.0
 11
-466.1486651446368
 21
-94.0
 31
0.0
  0
LINE
  5
111
330
1F
100
AcDbEntity
  8
仕上
  6
Continuous
 62
     3
370
     9
100
AcDbLine
 10
-441.1487311285895
 20
-87.00002639358104
 30
0.0
 11
-441.1487311285895
 21
-94.0
 31
0.0
  0
LINE
  5
112
330
1F
100
AcDbEntity
  8
仕上
  6
Continuous
 62
     3
370
     9
100
AcDbLine
 10
-441.148681640625
 20
-369.5675279771959
 30
0.0
 11
-441.148681640625
 21
-381.5675675675676
 31
0.0
  0
LINE
  5
113
330
1F
100
AcDbEntity
  8
仕上
  6
Continuous
 62
     3
370
     9
100
AcDbLine
 10
-466.1486651446368
 20
-369.5675279771959
 30
0.0
 11
-466.1486651446368
 21
-381.5675675675676
 31
0.0
  0
LINE
  5
114
330
1F
100
AcDbEntity
  8
仕上
  6
Continuous
 62
     3
370
     9
100
AcDbLine
 10
-483.6486981366132
 20
-321.5675675675676
 30
0.0
 11
-483.6486981366132
 21
-369.5675279771959
 31
0.0
  0
LINE
  5
115
330
1F
100
AcDbEntity
  8
仕上
  6
Continuous
 62
     3
370
     9
100
AcDbLine
 10
-480.6486882390203
 20
-321.5675675675676
 30
0.0
 11
-480.6486882390203
 21
-366.5675675675676
 31
0.0
  0
LINE
  5
116
330
1F
100
AcDbEntity
  8
建具
  6
JWW_DASHED1
 62
     4
370
     9
100
AcDbLine
 10
-463.648681640625
 20
-369.5675279771959
 30
0.0
 11
-463.648681640625
 21
-344.5674949852196
 31
0.0
  0
LINE
  5
117
330
1F
100
AcDbEntity
  8
建具
  6
JWW_DASHED1
 62
     4
370
     9
100
AcDbLine
 10
-443.6486898886191
 20
-344.5674949852196
 30
0.0
 11
-463.648681640625
 21
-344.5674949852196
 31
0.0
  0
LINE
  5
118
330
1F
100
AcDbEntity
  8
建具
  6
JWW_DASHED1
 62
     4
370
     9
100
AcDbLine
 10
-443.6486898886191
 20
-369.5675279771959
 30
0.0
 11
-443.6486898886191
 21
-344.5674949852196
 31
0.0
  0
LINE
  5
119
330
1F
100
AcDbEntity
  8
建具
  6
JWW_DASHED1
 62
     4
370
     9
100
AcDbLine
 10
-443.6486898886191
 20
-350.0675131308066
 30
0.0
 11
-463.648681640625
 21
-350.0675131308066
 31
0.0
  0
LINE
  5
11A
330
1F
100
AcDbEntity
  8
建具
  6
JWW_DASHED1
 62
     4
370
     9
100
AcDbLine
 10
-443.6486898886191
 20
-364.0675345755912
 30
0.0
 11
-463.648681640625
 21
-364.0675345755912
 31
0.0
  0
LINE
  5
11B
330
1F
100
AcDbEntity
  8
建具
  6
Continuous
 62
     4
370
     9
100
AcDbLine
 10
-403.6782547423317
 20
-366.5675675675676
 30
0.0
 11
-373.6782547423317
 21
-366.5675675675676
 31
0.0
  0
LINE
  5
11C
330
1F
100
AcDbEntity
  8
建具
  6
Continuous
 62
     4
370
     9
100
AcDbLine
 10
-403.6782547423317
 20
-357.433592971352
 30
0.0
 11
-373.6782547423317
 21
-357.433592971352
 31
0.0
  0
LINE
  5
11D
330
1F
100
AcDbEntity
  8
建具
  6
Continuous
 62
     4
370
     9
100
AcDbLine
 10
-403.6782547423317
 20
-356.5675675675676
 30
0.0
 11
-373.6782547423317
 21
-356.5675675675676
 31
0.0
  0
LINE
  5
11E
330
1F
100
AcDbEntity
  8
建具
  6
Continuous
 62
     4
370
     9
100
AcDbLine
 10
-403.6782547423317
 20
-356.5675675675676
 30
0.0
 11
-403.6782547423317
 21
-366.5675675675676
 31
0.0
  0
LINE
  5
11F
330
1F
100
AcDbEntity
  8
建具
  6
Continuous
 62
     4
370
     9
100
AcDbLine
 10
-373.6782547423317
 20
-356.5675675675676
 30
0.0
 11
-373.6782547423317
 21
-366.5675675675676
 31
0.0
  0
LINE
  5
120
330
1F
100
AcDbEntity
  8
躯体
  6
JWW_CENTER2
 62
     2
370
     9
100
AcDbLine
 10
-388.6485661687078
 20
-129.7805284183462
 30
0.0
 11
-388.6485661687078
 21
-90.00013220356254
 31
0.0
  0
CIRCLE
  5
121
330
1F
100
AcDbEntity
  8
躯体
  6
Continuous
 62
     2
370
     9
100
AcDbCircle
 10
-388.6485661687078
 20
-119.0000194417005
 30
0.0
 40
4.249999652037749
  0
LINE
  5
122
330
1F
100
AcDbEntity
  8
躯体
  6
JWW_DASHED1
 62
     2
370
     9
100
AcDbLine
 10
-395.3985356511297
 20
-99.85416409407821
 30
0.0
 11
-395.3985356511297
 21
-129.0000659839527
 31
0.0
  0
LINE
  5
123
330
1F
100
AcDbEntity
  8
躯体
  6
Continuous
 62
     2
370
     9
100
AcDbLine
 10
-397.3985449595806
 20
-100.0000796520574
 30
0.0
 11
-396.1485763019576
 21
-100.0000796520574
 31
0.0
  0
LINE
  5
124
330
1F
100
AcDbEntity
  8
躯体
  6
JWW_DASHED1
 62
     2
370
     9
100
AcDbLine
 10
-381.8985966862859
 20
-99.85416409407821
 30
0.0
 11
-381.8985966862859
 21
-129.0000659839527
 31
0.0
  0
LINE
  5
125
330
1F
100
AcDbEntity
  8
躯体
  6
Continuous
 62
     2
370
     9
100
AcDbLine
 10
-379.898587377835
 20
-100.0000796520574
 30
0.0
 11
-381.148556035458
 21
-100.0000796520574
 31
0.0
  0
LINE
  5
126
330
1F
100
AcDbEntity
  8
躯体
  6
Continuous
 62
     2
370
     9
100
AcDbLine
 10
-397.3985449595806
 20
-100.0000796520574
 30
0.0
 11
-397.3985449595806
 21
-129.0000659839527
 31
0.0
  0
LINE
  5
127
330
1F
100
AcDbEntity
  8
躯体
  6
Continuous
 62
     2
370
     9
100
AcDbLine
 10
-388.6485661687078
 20
-129.0000659839527
 30
0.0
 11
-397.3985449595806
 21
-129.0000659839527
 31
0.0
  0
LINE
  5
128
330
1F
100
AcDbEntity
  8
躯体
  6
Continuous
 62
     2
370
     9
100
AcDbLine
 10
-388.6485661687078
 20
-129.0000659839527
 30
0.0
 11
-379.898587377835
 21
-129.0000659839527
 31
0.0
  0
LINE
  5
129
330
1F
100
AcDbEntity
  8
躯体
  6
Continuous
 62
     2
370
     9
100
AcDbLine
 10
-379.898587377835
 20
-100.0000796520574
 30
0.0
 11
-379.898587377835
 21
-129.0000659839527
 31
0.0
  0
LINE
  5
12A
330
1F
100
AcDbEntity
  8
躯体
  6
JWW_CENTER2
 62
     2
370
     9
100
AcDbLine
 10
-388.6485661687078
 20
-119.0000194417005
 30
0.0
 11
-394.4246422020173
 21
-119.0000194417005
 31
0.0
  0
LINE
  5
12B
330
1F
100
AcDbEntity
  8
躯体
  6
JWW_CENTER2
 62
     2
370
     9
100
AcDbLine
 10
-388.6485661687078
 20
-119.0000194417005
 30
0.0
 11
-382.8724901353993
 21
-119.0000194417005
 31
0.0
  0
ARC
  5
12C
330
1F
100
AcDbEntity
  8
躯体
  6
Continuous
 62
     2
370
     9
100
AcDbCircle
 10
-381.148556035458
 20
-98.00007034360692
 30
0.0
 40
1.999999824868206
100
AcDbArc
 50
210.0005096035584
 51
270.0
  0
ARC
  5
12D
330
1F
100
AcDbEntity
  8
躯体
  6
Continuous
 62
     2
370
     9
100
AcDbCircle
 10
-396.1485763019576
 20
-98.00007034360692
 30
0.0
 40
1.999999824868206
100
AcDbArc
 50
270.0
 51
329.9994903964416
  0
LINE
  5
12E
330
1F
100
AcDbEntity
  8
仕上
  6
Continuous
 62
     3
370
     9
100
AcDbLine
 10
-373.6782344169181
 20
76.54469532822162
 30
0.0
 11
-373.6782344169181
 21
125.4538288380089
 31
0.0
  0
LINE
  5
12F
330
1F
100
AcDbEntity
  8
仕上
  6
Continuous
 62
     3
370
     9
100
AcDbLine
 10
-403.6782750677453
 20
125.4538288380089
 30
0.0
 11
-403.6782750677453
 21
76.54469532822162
 31
0.0
  0
LINE
  5
130
330
1F
100
AcDbEntity
  8
仕上
  6
Continuous
 62
     3
370
     9
100
AcDbLine
 10
-403.6782750677453
 20
124.953828838009
 30
0.0
 11
-373.6782344169181
 21
124.953828838009
 31
0.0
  0
LINE
  5
131
330
1F
100
AcDbEntity
  8
仕上
  6
Continuous
 62
     3
370
     9
100
AcDbLine
 10
-403.6782750677453
 20
125.4538288380089
 30
0.0
 11
-373.6782344169181
 21
125.4538288380089
 31
0.0
  0
LINE
  5
132
330
1F
100
AcDbEntity
  8
仕上
  6
Continuous
 62
     3
370
     9
100
AcDbLine
 10
-403.6782750677453
 20
109.3652874868996
 30
0.0
 11
-373.6782344169181
 21
109.3652874868996
 31
0.0
  0
LINE
  5
133
330
1F
100
AcDbEntity
  8
仕上
  6
Continuous
 62
     3
370
     9
100
AcDbLine
 10
-403.6782750677453
 20
76.54469532822162
 30
0.0
 11
-373.6782344169181
 21
76.54469532822162
 31
0.0
  0
LINE
  5
134
330
1F
100
AcDbEntity
  8
仕上
  6
Continuous
 62
     3
370
     9
100
AcDbLine
 10
-403.6782750677453
 20
77.0446953282216
 30
0.0
 11
-373.6782344169181
 21
77.0446953282216
 31
0.0
  0
LINE
  5
135
330
1F
100
AcDbEntity
  8
仕上
  6
Continuous
 62
     3
370
     9
100
AcDbLine
 10
-403.6782750677453
 20
92.63323667933076
 30
0.0
 11
-373.6782344169181
 21
92.63323667933076
 31
0.0
  0
LINE
  5
136
330
1F
100
AcDbEntity
  8
通り芯
  6
JWW_CENTER2
 62
     7
370
     9
100
AcDbLine
 10
-388.6782547423317
 20
132.5210450896448
 30
0.0
 11
-388.6782547423317
 21
71.4922374142796
 31
0.0
  0
LINE
  5
137
330
1F
100
AcDbEntity
  8
通り芯
  6
JWW_CENTER2
 62
     7
370
     9
100
AcDbLine
 10
-413.0890434458942
 20
100.9992620831153
 30
0.0
 11
-365.6743544058029
 21
100.9992620831153
 31
0.0
  0
LINE
  5
138
330
1F
100
AcDbEntity
  8
0-A
  6
JWW_DASHED3
 62
     2
370
     9
100
AcDbLine
 10
-438.6486651446368
 20
250.9999670080236
 30
0.0
 11
-438.6486651446368
 21
-49.00006598395271
 31
0.0
  0
LINE
  5
139
330
1F
100
AcDbEntity
  8
建具
  6
Continuous
 62
     4
370
     9
100
AcDbLine
 10
-488.6486651446369
 20
300.9999670080236
 30
0.0
 11
-488.6486651446369
 21
-99.00006598395271
 31
0.0
  0
LINE
  5
13A
330
1F
100
AcDbEntity
  8
仕上
  6
JWW_DASHED1
 62
     3
370
     9
100
AcDbLine
 10
-441.148681640625
 20
289.0000263935812
 30
0.0
 11
-441.148681640625
 21
-87.00002639358104
 31
0.0
  0
LINE
  5
13B
330
1F
100
AcDbEntity
  8
仕上
  6
JWW_DASHED1
 62
     3
370
     9
100
AcDbLine
 10
-466.1486651446368
 20
289.0000263935812
 30
0.0
 11
-466.1486651446368
 21
-87.00002639358104
 31
0.0
  0
LINE
  5
13C
330
1F
100
AcDbEntity
  8
建具
  6
Continuous
 62
     4
370
     9
100
AcDbLine
 10
-485.6486552470439
 20
298.0000065983953
 30
0.0
 11
-485.6486552470439
 21
-96.00005608635979
 31
0.0
  0
LINE
  5
13D
330
1F
100
AcDbEntity
  8
仕上
  6
Continuous
 62
     3
370
     9
100
AcDbLine
 10
-480.6486882390203
 20
285.9999670080236
 30
0.0
 11
-480.6486882390203
 21
-84.00001649598812
 31
0.0
  0
LINE
  5
13E
330
1F
100
AcDbEntity
  8
仕上
  6
Continuous
 62
     3
370
     9
100
AcDbLine
 10
-483.6486981366132
 20
289.0000263935812
 30
0.0
 11
-483.6486981366132
 21
-87.00002639358104
 31
0.0
  0
LINE
  5
13F
330
1F
100
AcDbEntity
  8
仕上
  6
Continuous
 62
     3
370
     9
100
AcDbLine
 10
-463.648681640625
 20
296.0
 30
0.0
 11
-466.1486651446368
 21
296.0
 31
0.0
  0
LINE
  5
140
330
1F
100
AcDbEntity
  8
仕上
  6
Continuous
 62
     3
370
     9
100
AcDbLine
 10
-441.1487311285895
 20
296.0
 30
0.0
 11
-443.6486898886191
 21
296.0
 31
0.0
  0
LINE
  5
141
330
1F
100
AcDbEntity
  8
建具
  6
JWW_DASHED1
 62
     4
370
     9
100
AcDbLine
 10
-463.648681640625
 20
289.9999802048143
 30
0.0
 11
-443.6486898886191
 21
289.9999802048143
 31
0.0
  0
LINE
  5
142
330
1F
100
AcDbEntity
  8
建具
  6
JWW_DASHED1
 62
     4
370
     9
100
AcDbLine
 10
-463.648681640625
 20
296.0000989759291
 30
0.0
 11
-443.6486898886191
 21
296.0000989759291
 31
0.0
  0
LINE
  5
143
330
1F
100
AcDbEntity
  8
建具
  6
Continuous
 62
     4
370
     9
100
AcDbLine
 10
-463.648681640625
 20
297.0000527871622
 30
0.0
 11
-443.6486898886191
 21
297.0000527871622
 31
0.0
  0
LINE
  5
144
330
1F
100
AcDbEntity
  8
建具
  6
Continuous
 62
     4
370
     9
100
AcDbLine
 10
-463.648681640625
 20
289.0000263935812
 30
0.0
 11
-463.648681640625
 21
297.0000527871622
 31
0.0
  0
LINE
  5
145
330
1F
100
AcDbEntity
  8
建具
  6
Continuous
 62
     4
370
     9
100
AcDbLine
 10
-443.6486898886191
 20
289.0000263935812
 30
0.0
 11
-443.6486898886191
 21
297.0000527871622
 31
0.0
  0
LINE
  5
146
330
1F
100
AcDbEntity
  8
仕上
  6
Continuous
 62
     3
370
     9
100
AcDbLine
 10
-466.1486651446368
 20
289.0000263935812
 30
0.0
 11
-466.1486651446368
 21
296.0
 31
0.0
  0
LINE
  5
147
330
1F
100
AcDbEntity
  8
仕上
  6
Continuous
 62
     3
370
     9
100
AcDbLine
 10
-441.1487311285895
 20
289.0000263935812
 30
0.0
 11
-441.1487311285895
 21
296.0
 31
0.0
  0
LINE
  5
148
330
1F
100
AcDbEntity
  8
躯体
  6
JWW_CENTER2
 62
     2
370
     9
100
AcDbLine
 10
-388.6485661687078
 20
331.7805284183462
 30
0.0
 11
-388.6485661687078
 21
292.0001322035625
 31
0.0
  0
CIRCLE
  5
149
330
1F
100
AcDbEntity
  8
躯体
  6
Continuous
 62
     2
370
     9
100
AcDbCircle
 10
-388.6485661687078
 20
321.0000194417005
 30
0.0
 40
4.24999965203775
  0
LINE
  5
14A
330
1F
100
AcDbEntity
  8
躯体
  6
JWW_DASHED1
 62
     2
370
     9
100
AcDbLine
 10
-395.3985356511297
 20
301.8541640940782
 30
0.0
 11
-395.3985356511297
 21
331.0000659839527
 31
0.0
  0
LINE
  5
14B
330
1F
100
AcDbEntity
  8
躯体
  6
Continuous
 62
     2
370
     9
100
AcDbLine
 10
-397.3985449595806
 20
302.0000796520574
 30
0.0
 11
-396.1485763019576
 21
302.0000796520574
 31
0.0
  0
LINE
  5
14C
330
1F
100
AcDbEntity
  8
躯体
  6
JWW_DASHED1
 62
     2
370
     9
100
AcDbLine
 10
-381.8985966862859
 20
301.8541640940782
 30
0.0
 11
-381.8985966862859
 21
331.0000659839527
 31
0.0
  0
LINE
  5
14D
330
1F
100
AcDbEntity
  8
躯体
  6
Continuous
 62
     2
370
     9
100
AcDbLine
 10
-379.898587377835
 20
302.0000796520574
 30
0.0
 11
-381.148556035458
 21
302.0000796520574
 31
0.0
  0
LINE
  5
14E
330
1F
100
AcDbEntity
  8
躯体
  6
Continuous
 62
     2
370
     9
100
AcDbLine
 10
-397.3985449595806
 20
302.0000796520574
 30
0.0
 11
-397.3985449595806
 21
331.0000659839527
 31
0.0
  0
LINE
  5
14F
330
1F
100
AcDbEntity
  8
躯体
  6
Continuous
 62
     2
370
     9
100
AcDbLine
 10
-388.6485661687078
 20
331.0000659839527
 30
0.0
 11
-397.3985449595806
 21
331.0000659839527
 31
0.0
  0
LINE
  5
150
330
1F
100
AcDbEntity
  8
躯体
  6
Continuous
 62
     2
370
     9
100
AcDbLine
 10
-388.6485661687078
 20
331.0000659839527
 30
0.0
 11
-379.898587377835
 21
331.0000659839527
 31
0.0
  0
LINE
  5
151
330
1F
100
AcDbEntity
  8
躯体
  6
Continuous
 62
     2
370
     9
100
AcDbLine
 10
-379.898587377835
 20
302.0000796520574
 30
0.0
 11
-379.898587377835
 21
331.0000659839527
 31
0.0
  0
LINE
  5
152
330
1F
100
AcDbEntity
  8
躯体
  6
JWW_CENTER2
 62
     2
370
     9
100
AcDbLine
 10
-388.6485661687078
 20
321.0000194417005
 30
0.0
 11
-394.4246422020173
 21
321.0000194417005
 31
0.0
  0
LINE
  5
153
330
1F
100
AcDbEntity
  8
躯体
  6
JWW_CENTER2
 62
     2
370
     9
100
AcDbLine
 10
-388.6485661687078
 20
321.0000194417005
 30
0.0
 11
-382.8724901353993
 21
321.0000194417005
 31
0.0
  0
ARC
  5
154
330
1F
100
AcDbEntity
  8
躯体
  6
Continuous
 62
     2
370
     9
100
AcDbCircle
 10
-381.148556035458
 20
300.0000703436069
 30
0.0
 40
1.999999824868206
100
AcDbArc
 50
89.99999999999994
 51
149.9994903964416
  0
ARC
  5
155
330
1F
100
AcDbEntity
  8
躯体
  6
Continuous
 62
     2
370
     9
100
AcDbCircle
 10
-396.1485763019576
 20
300.0000703436069
 30
0.0
 40
1.999999824868206
100
AcDbArc
 50
30.00050960355831
 51
89.99999999999994
  0
TEXT
  5
156
330
1F
100
AcDbEntity
  8
その他
  6
Continuous
 62
     2
370
     9
100
AcDbText
 10
-451.6486610206398
 20
373.7494609902872
 30
0.0
 40
12.192
  1
100
 41
1.083333333333333
  7
ＭＳ ゴシック
100
AcDbText
  0
LINE
  5
157
330
1F
100
AcDbEntity
  8
その他
  6
Continuous
 62
     7
370
     9
100
AcDbLine
 10
-488.6486651446369
 20
305.9999340160474
 30
0.0
 11
-488.6486651446369
 21
370.6934385557433
 31
0.0
  0
LINE
  5
158
330
1F
100
AcDbEntity
  8
その他
  6
Continuous
 62
     7
370
     9
100
AcDbLine
 10
-388.648681640625
 20
369.493454391892
 30
0.0
 11
-400.546033704603
 21
367.9271603146116
 31
0.0
  0
LINE
  5
159
330
1F
100
AcDbEntity
  8
その他
  6
Continuous
 62
     7
370
     9
100
AcDbLine
 10
-388.648681640625
 20
369.493454391892
 30
0.0
 11
-400.546033704603
 21
371.0597484691724
 31
0.0
  0
LINE
  5
15A
330
1F
100
AcDbEntity
  8
その他
  6
Continuous
 62
     7
370
     9
100
AcDbLine
 10
-488.6486651446369
 20
369.493454391892
 30
0.0
 11
-476.751337824641
 21
367.9271603146116
 31
0.0
  0
LINE
  5
15B
330
1F
100
AcDbEntity
  8
その他
  6
Continuous
 62
     7
370
     9
100
AcDbLine
 10
-488.6486651446369
 20
369.493454391892
 30
0.0
 11
-476.751337824641
 21
371.0597484691724
 31
0.0
  0
LINE
  5
15C
330
1F
100
AcDbEntity
  8
その他
  6
Continuous
 62
     7
370
     9
100
AcDbLine
 10
-488.6486651446369
 20
369.493454391892
 30
0.0
 11
-388.648681640625
 21
369.493454391892
 31
0.0
  0
LINE
  5
15D
330
1F
100
AcDbEntity
  8
その他
  6
Continuous
 62
     7
370
     9
100
AcDbLine
 10
-388.648681640625
 20
339.5268199392165
 30
0.0
 11
-388.648681640625
 21
370.6934385557433
 31
0.0
  0
LINE
  5
15E
330
1F
100
AcDbEntity
  8
その他
  6
Continuous
 62
     7
370
     9
100
AcDbLine
 10
-96.64870803420604
 20
-274.3675923115498
 30
0.0
 11
-96.64870803420604
 21
-313.5675675675676
 31
0.0
  0
LINE
  5
15F
330
1F
100
AcDbEntity
  8
その他
  6
Continuous
 62
     7
370
     9
100
AcDbLine
 10
-96.64870803420604
 20
-275.5675923115498
 30
0.0
 11
-108.5460463706918
 21
-277.1339066181904
 31
0.0
  0
LINE
  5
160
330
1F
100
AcDbEntity
  8
その他
  6
Continuous
 62
     7
370
     9
100
AcDbLine
 10
-96.64870803420604
 20
-275.5675923115498
 30
0.0
 11
-108.5460463706918
 21
-274.0012780049092
 31
0.0
  0
TEXT
  5
161
330
1F
100
AcDbEntity
  8
その他
  6
Continuous
 62
     2
370
     9
100
AcDbText
 10
-106.8464188519151
 20
-236.8115857131545
 30
0.0
 40
12.192
  1
2
  7
ＭＳ ゴシック
100
AcDbText
  0
LINE
  5
162
330
1F
100
AcDbEntity
  8
その他
  6
Continuous
 62
     7
370
     9
100
AcDbLine
 10
-88.64863215266041
 20
-241.0675923115498
 30
0.0
 11
-65.15214249894416
 21
-241.0675923115498
 31
0.0
  0
LINE
  5
163
330
1F
100
AcDbEntity
  8
その他
  6
Continuous
 62
     7
370
     9
100
AcDbLine
 10
-91.64874102618239
 20
-241.0675923115498
 30
0.0
 11
-88.64863215266041
 21
-241.0675923115498
 31
0.0
  0
LINE
  5
164
330
1F
100
AcDbEntity
  8
その他
  6
Continuous
 62
     7
370
     9
100
AcDbLine
 10
-93.64864864864865
 20
-241.0675923115498
 30
0.0
 11
-91.64874102618239
 21
-241.0675923115498
 31
0.0
  0
LWPOLYLINE
  5
165
330
1F
100
AcDbEntity
  8
その他
  6
Continuous
 62
     7
370
     9
100
AcDbPolyline
 90
        4
 70
     1
 43
0.4
 10
-91.44874102618239
 20
-241.0675923115498
 42
0.4142135623731
 10
-91.64874102618239
 20
-240.8675923115498
 42
0.4142135623731
 10
-91.8487410261824
 20
-241.0675923115498
 42
0.4142135623731
 10
-91.64874102618239
 20
-241.2675923115498
 42
0.4142135623731
  0
TEXT
  5
166
330
1F
100
AcDbEntity
  8
その他
  6
Continuous
 62
     2
370
     9
100
AcDbText
 10
-74.3131185995565
 20
-236.8115857131545
 30
0.0
 40
12.192
  1
3
  7
ＭＳ ゴシック
100
AcDbText
  0
LINE
  5
167
330
1F
100
AcDbEntity
  8
その他
  6
Continuous
 62
     7
370
     9
100
AcDbLine
 10
-88.64863215266041
 20
-241.0675923115498
 30
0.0
 11
-76.75128008868239
 21
-242.6339111328124
 31
0.0
  0
LINE
  5
168
330
1F
100
AcDbEntity
  8
その他
  6
Continuous
 62
     7
370
     9
100
AcDbLine
 10
-88.64863215266041
 20
-241.0675923115498
 30
0.0
 11
-76.75128008868239
 21
-239.5012734902871
 31
0.0
  0
LINE
  5
169
330
1F
100
AcDbEntity
  8
その他
  6
Continuous
 62
     7
370
     9
100
AcDbLine
 10
-91.64874102618239
 20
-316.5676005595439
 30
0.0
 11
-91.64874102618239
 21
-239.8675834037162
 31
0.0
  0
LINE
  5
16A
330
1F
100
AcDbEntity
  8
その他
  6
Continuous
 62
     7
370
     9
100
AcDbLine
 10
-93.64864864864865
 20
-241.0675923115498
 30
0.0
 11
-105.5460007126267
 21
-242.6339111328124
 31
0.0
  0
LINE
  5
16B
330
1F
100
AcDbEntity
  8
その他
  6
Continuous
 62
     7
370
     9
100
AcDbLine
 10
-93.64864864864865
 20
-241.0675923115498
 30
0.0
 11
-105.5460007126267
 21
-239.5012734902871
 31
0.0
  0
LINE
  5
16C
330
1F
100
AcDbEntity
  8
その他
  6
Continuous
 62
     7
370
     9
100
AcDbLine
 10
-93.64864864864865
 20
-316.5676005595439
 30
0.0
 11
-93.64864864864865
 21
-239.8675834037162
 31
0.0
  0
LINE
  5
16D
330
1F
100
AcDbEntity
  8
その他
  6
Continuous
 62
     7
370
     9
100
AcDbLine
 10
-88.64863215266041
 20
-206.5675923115498
 30
0.0
 11
-100.5459842166384
 21
-208.1339111328125
 31
0.0
  0
LINE
  5
16E
330
1F
100
AcDbEntity
  8
その他
  6
Continuous
 62
     7
370
     9
100
AcDbLine
 10
-88.64863215266041
 20
-206.5675923115498
 30
0.0
 11
-100.5459842166384
 21
-205.0012734902871
 31
0.0
  0
LINE
  5
16F
330
1F
100
AcDbEntity
  8
その他
  6
Continuous
 62
     7
370
     9
100
AcDbLine
 10
-88.64863215266041
 20
-316.5676005595439
 30
0.0
 11
-88.64863215266041
 21
-205.3675834037162
 31
0.0
  0
LINE
  5
170
330
1F
100
AcDbEntity
  8
仕上
  6
Continuous
 62
     3
370
     9
100
AcDbLine
 10
-133.6487311285895
 20
-94.0
 30
0.0
 11
-136.1487146326014
 21
-94.0
 31
0.0
  0
LINE
  5
171
330
1F
100
AcDbEntity
  8
仕上
  6
Continuous
 62
     3
370
     9
100
AcDbLine
 10
-111.1487806165541
 20
-94.0
 30
0.0
 11
-113.6487146326014
 21
-94.0
 31
0.0
  0
LINE
  5
172
330
1F
100
AcDbEntity
  8
建具
  6
JWW_DASHED1
 62
     4
370
     9
100
AcDbLine
 10
-133.6487311285895
 20
-87.99998020481416
 30
0.0
 11
-113.6487146326014
 21
-87.99998020481416
 31
0.0
  0
LINE
  5
173
330
1F
100
AcDbEntity
  8
建具
  6
JWW_DASHED1
 62
     4
370
     9
100
AcDbLine
 10
-133.6487311285895
 20
-94.00009897592906
 30
0.0
 11
-113.6487146326014
 21
-94.00009897592906
 31
0.0
  0
LINE
  5
174
330
1F
100
AcDbEntity
  8
建具
  6
Continuous
 62
     4
370
     9
100
AcDbLine
 10
-133.6487311285895
 20
-95.00005278716219
 30
0.0
 11
-113.6487146326014
 21
-95.00005278716219
 31
0.0
  0
LINE
  5
175
330
1F
100
AcDbEntity
  8
建具
  6
Continuous
 62
     4
370
     9
100
AcDbLine
 10
-133.6487311285895
 20
-87.00002639358104
 30
0.0
 11
-133.6487311285895
 21
-95.00005278716219
 31
0.0
  0
LINE
  5
176
330
1F
100
AcDbEntity
  8
建具
  6
Continuous
 62
     4
370
     9
100
AcDbLine
 10
-113.6487146326014
 20
-87.00002639358104
 30
0.0
 11
-113.6487146326014
 21
-95.00005278716219
 31
0.0
  0
LINE
  5
177
330
1F
100
AcDbEntity
  8
仕上
  6
Continuous
 62
     3
370
     9
100
AcDbLine
 10
-136.1487146326014
 20
-87.00002639358104
 30
0.0
 11
-136.1487146326014
 21
-94.0
 31
0.0
  0
LINE
  5
178
330
1F
100
AcDbEntity
  8
仕上
  6
Continuous
 62
     3
370
     9
100
AcDbLine
 10
-111.1487806165541
 20
-87.00002639358104
 30
0.0
 11
-111.1487806165541
 21
-94.0
 31
0.0
  0
LINE
  5
179
330
1F
100
AcDbEntity
  8
仕上
  6
Continuous
 62
     3
370
     9
100
AcDbLine
 10
-111.148681640625
 20
-369.5675279771959
 30
0.0
 11
-111.148681640625
 21
-381.5675675675676
 31
0.0
  0
LINE
  5
17A
330
1F
100
AcDbEntity
  8
仕上
  6
Continuous
 62
     3
370
     9
100
AcDbLine
 10
-136.1487146326014
 20
-369.5675279771959
 30
0.0
 11
-136.1487146326014
 21
-381.5675675675676
 31
0.0
  0
LINE
  5
17B
330
1F
100
AcDbEntity
  8
仕上
  6
Continuous
 62
     3
370
     9
100
AcDbLine
 10
-93.64864864864865
 20
-321.5675675675676
 30
0.0
 11
-93.64864864864865
 21
-369.5675279771959
 31
0.0
  0
LINE
  5
17C
330
1F
100
AcDbEntity
  8
仕上
  6
Continuous
 62
     3
370
     9
100
AcDbLine
 10
-96.64870803420604
 20
-321.5675675675676
 30
0.0
 11
-96.64870803420604
 21
-366.5675675675676
 31
0.0
  0
LINE
  5
17D
330
1F
100
AcDbEntity
  8
建具
  6
Continuous
 62
     4
370
     9
100
AcDbLine
 10
-88.64863215266041
 20
-321.5675675675676
 30
0.0
 11
-91.64864205025333
 21
-321.5675675675676
 31
0.0
  0
LINE
  5
17E
330
1F
100
AcDbEntity
  8
建具
  6
JWW_DASHED1
 62
     4
370
     9
100
AcDbLine
 10
-133.6487311285895
 20
-369.5675279771959
 30
0.0
 11
-133.6487311285895
 21
-344.5674949852196
 31
0.0
  0
LINE
  5
17F
330
1F
100
AcDbEntity
  8
建具
  6
JWW_DASHED1
 62
     4
370
     9
100
AcDbLine
 10
-113.6487146326014
 20
-344.5674949852196
 30
0.0
 11
-133.6487311285895
 21
-344.5674949852196
 31
0.0
  0
LINE
  5
180
330
1F
100
AcDbEntity
  8
建具
  6
JWW_DASHED1
 62
     4
370
     9
100
AcDbLine
 10
-113.6487146326014
 20
-369.5675279771959
 30
0.0
 11
-113.6487146326014
 21
-344.5674949852196
 31
0.0
  0
LINE
  5
181
330
1F
100
AcDbEntity
  8
建具
  6
JWW_DASHED1
 62
     4
370
     9
100
AcDbLine
 10
-113.6487146326014
 20
-350.0675131308066
 30
0.0
 11
-133.6487311285895
 21
-350.0675131308066
 31
0.0
  0
LINE
  5
182
330
1F
100
AcDbEntity
  8
建具
  6
JWW_DASHED1
 62
     4
370
     9
100
AcDbLine
 10
-113.6487146326014
 20
-364.0675345755912
 30
0.0
 11
-133.6487311285895
 21
-364.0675345755912
 31
0.0
  0
LINE
  5
183
330
1F
100
AcDbEntity
  8
建具
  6
Continuous
 62
     4
370
     9
100
AcDbLine
 10
-203.6782547423316
 20
-366.5675675675676
 30
0.0
 11
-173.6782547423316
 21
-366.5675675675676
 31
0.0
  0
LINE
  5
184
330
1F
100
AcDbEntity
  8
建具
  6
Continuous
 62
     4
370
     9
100
AcDbLine
 10
-203.6782547423316
 20
-357.433592971352
 30
0.0
 11
-173.6782547423316
 21
-357.433592971352
 31
0.0
  0
LINE
  5
185
330
1F
100
AcDbEntity
  8
建具
  6
Continuous
 62
     4
370
     9
100
AcDbLine
 10
-203.6782547423316
 20
-356.5675675675676
 30
0.0
 11
-173.6782547423316
 21
-356.5675675675676
 31
0.0
  0
LINE
  5
186
330
1F
100
AcDbEntity
  8
建具
  6
Continuous
 62
     4
370
     9
100
AcDbLine
 10
-203.6782547423316
 20
-356.5675675675676
 30
0.0
 11
-203.6782547423316
 21
-366.5675675675676
 31
0.0
  0
LINE
  5
187
330
1F
100
AcDbEntity
  8
建具
  6
Continuous
 62
     4
370
     9
100
AcDbLine
 10
-173.6782547423316
 20
-356.5675675675676
 30
0.0
 11
-173.6782547423316
 21
-366.5675675675676
 31
0.0
  0
LINE
  5
188
330
1F
100
AcDbEntity
  8
躯体
  6
JWW_CENTER2
 62
     2
370
     9
100
AcDbLine
 10
-188.6487311285895
 20
-129.7805284183462
 30
0.0
 11
-188.6487311285895
 21
-90.00013220356254
 31
0.0
  0
CIRCLE
  5
189
330
1F
100
AcDbEntity
  8
躯体
  6
Continuous
 62
     2
370
     9
100
AcDbCircle
 10
-188.6487311285895
 20
-119.0000194417005
 30
0.0
 40
4.249999652037749
  0
LINE
  5
18A
330
1F
100
AcDbEntity
  8
躯体
  6
JWW_DASHED1
 62
     2
370
     9
100
AcDbLine
 10
-181.8987616461676
 20
-99.85416409407821
 30
0.0
 11
-181.8987616461676
 21
-129.0000659839527
 31
0.0
  0
LINE
  5
18B
330
1F
100
AcDbEntity
  8
躯体
  6
Continuous
 62
     2
370
     9
100
AcDbLine
 10
-179.8987523377167
 20
-100.0000796520574
 30
0.0
 11
-181.1487209953397
 21
-100.0000796520574
 31
0.0
  0
LINE
  5
18C
330
1F
100
AcDbEntity
  8
躯体
  6
JWW_DASHED1
 62
     2
370
     9
100
AcDbLine
 10
-195.3987006110113
 20
-99.85416409407821
 30
0.0
 11
-195.3987006110113
 21
-129.0000659839527
 31
0.0
  0
LINE
  5
18D
330
1F
100
AcDbEntity
  8
躯体
  6
Continuous
 62
     2
370
     9
100
AcDbLine
 10
-197.3987099194622
 20
-100.0000796520574
 30
0.0
 11
-196.1487412618393
 21
-100.0000796520574
 31
0.0
  0
LINE
  5
18E
330
1F
100
AcDbEntity
  8
躯体
  6
Continuous
 62
     2
370
     9
100
AcDbLine
 10
-179.8987523377167
 20
-100.0000796520574
 30
0.0
 11
-179.8987523377167
 21
-129.0000659839527
 31
0.0
  0
LINE
  5
18F
330
1F
100
AcDbEntity
  8
躯体
  6
Continuous
 62
     2
370
     9
100
AcDbLine
 10
-188.6487311285895
 20
-129.0000659839527
 30
0.0
 11
-179.8987523377167
 21
-129.0000659839527
 31
0.0
  0
LINE
  5
190
330
1F
100
AcDbEntity
  8
躯体
  6
Continuous
 62
     2
370
     9
100
AcDbLine
 10
-188.6487311285895
 20
-129.0000659839527
 30
0.0
 11
-197.3987099194622
 21
-129.0000659839527
 31
0.0
  0
LINE
  5
191
330
1F
100
AcDbEntity
  8
躯体
  6
Continuous
 62
     2
370
     9
100
AcDbLine
 10
-197.3987099194622
 20
-100.0000796520574
 30
0.0
 11
-197.3987099194622
 21
-129.0000659839527
 31
0.0
  0
LINE
  5
192
330
1F
100
AcDbEntity
  8
躯体
  6
JWW_CENTER2
 62
     2
370
     9
100
AcDbLine
 10
-188.6487311285895
 20
-119.0000194417005
 30
0.0
 11
-182.87265509528
 21
-119.0000194417005
 31
0.0
  0
LINE
  5
193
330
1F
100
AcDbEntity
  8
躯体
  6
JWW_CENTER2
 62
     2
370
     9
100
AcDbLine
 10
-188.6487311285895
 20
-119.0000194417005
 30
0.0
 11
-194.424807161898
 21
-119.0000194417005
 31
0.0
  0
ARC
  5
194
330
1F
100
AcDbEntity
  8
躯体
  6
Continuous
 62
     2
370
     9
100
AcDbCircle
 10
-196.1487412618393
 20
-98.00007034360692
 30
0.0
 40
1.999999824868206
100
AcDbArc
 50
270.0
 51
329.9994903964416
  0
ARC
  5
195
330
1F
100
AcDbEntity
  8
躯体
  6
Continuous
 62
     2
370
     9
100
AcDbCircle
 10
-181.1487209953397
 20
-98.00007034360692
 30
0.0
 40
1.999999824868206
100
AcDbArc
 50
210.0005096035584
 51
270.0
  0
LINE
  5
196
330
1F
100
AcDbEntity
  8
仕上
  6
Continuous
 62
     3
370
     9
100
AcDbLine
 10
-173.6782344169179
 20
76.54469532822162
 30
0.0
 11
-173.6782344169179
 21
125.4538288380089
 31
0.0
  0
LINE
  5
197
330
1F
100
AcDbEntity
  8
仕上
  6
Continuous
 62
     3
370
     9
100
AcDbLine
 10
-203.6782750677454
 20
125.4538288380089
 30
0.0
 11
-203.6782750677454
 21
76.54469532822162
 31
0.0
  0
LINE
  5
198
330
1F
100
AcDbEntity
  8
仕上
  6
Continuous
 62
     3
370
     9
100
AcDbLine
 10
-203.6782750677454
 20
124.953828838009
 30
0.0
 11
-173.6782344169179
 21
124.953828838009
 31
0.0
  0
LINE
  5
199
330
1F
100
AcDbEntity
  8
仕上
  6
Continuous
 62
     3
370
     9
100
AcDbLine
 10
-203.6782750677454
 20
125.4538288380089
 30
0.0
 11
-173.6782344169179
 21
125.4538288380089
 31
0.0
  0
LINE
  5
19A
330
1F
100
AcDbEntity
  8
仕上
  6
Continuous
 62
     3
370
     9
100
AcDbLine
 10
-203.6782750677454
 20
109.3652874868996
 30
0.0
 11
-173.6782344169179
 21
109.3652874868996
 31
0.0
  0
LINE
  5
19B
330
1F
100
AcDbEntity
  8
仕上
  6
Continuous
 62
     3
370
     9
100
AcDbLine
 10
-203.6782750677454
 20
76.54469532822162
 30
0.0
 11
-173.6782344169179
 21
76.54469532822162
 31
0.0
  0
LINE
  5
19C
330
1F
100
AcDbEntity
  8
仕上
  6
Continuous
 62
     3
370
     9
100
AcDbLine
 10
-203.6782750677454
 20
77.0446953282216
 30
0.0
 11
-173.6782344169179
 21
77.0446953282216
 31
0.0
  0
LINE
  5
19D
330
1F
100
AcDbEntity
  8
仕上
  6
Continuous
 62
     3
370
     9
100
AcDbLine
 10
-203.6782750677454
 20
92.63323667933076
 30
0.0
 11
-173.6782344169179
 21
92.63323667933076
 31
0.0
  0
LINE
  5
19E
330
1F
100
AcDbEntity
  8
通り芯
  6
JWW_CENTER2
 62
     7
370
     9
100
AcDbLine
 10
-188.6782547423316
 20
132.5210450896448
 30
0.0
 11
-188.6782547423316
 21
71.4922374142796
 31
0.0
  0
LINE
  5
19F
330
1F
100
AcDbEntity
  8
通り芯
  6
JWW_CENTER2
 62
     7
370
     9
100
AcDbLine
 10
-213.0890434458941
 20
100.9992620831153
 30
0.0
 11
-165.6743544058028
 21
100.9992620831153
 31
0.0
  0
LINE
  5
1A0
330
1F
100
AcDbEntity
  8
0-A
  6
JWW_DASHED3
 62
     2
370
     9
100
AcDbLine
 10
-138.6487311285895
 20
-49.00006598395271
 30
0.0
 11
-138.6487311285895
 21
250.9999670080236
 31
0.0
  0
LINE
  5
1A1
330
1F
100
AcDbEntity
  8
建具
  6
Continuous
 62
     4
370
     9
100
AcDbLine
 10
-88.64873112858947
 20
-99.00006598395271
 30
0.0
 11
-88.64873112858947
 21
300.9999670080236
 31
0.0
  0
LINE
  5
1A2
330
1F
100
AcDbEntity
  8
仕上
  6
JWW_DASHED1
 62
     3
370
     9
100
AcDbLine
 10
-136.1487146326014
 20
-87.00002639358104
 30
0.0
 11
-136.1487146326014
 21
289.0000263935812
 31
0.0
  0
LINE
  5
1A3
330
1F
100
AcDbEntity
  8
仕上
  6
JWW_DASHED1
 62
     3
370
     9
100
AcDbLine
 10
-111.148681640625
 20
-87.00002639358104
 30
0.0
 11
-111.148681640625
 21
289.0000263935812
 31
0.0
  0
LINE
  5
1A4
330
1F
100
AcDbEntity
  8
建具
  6
Continuous
 62
     4
370
     9
100
AcDbLine
 10
-91.64874102618239
 20
-96.00005608635979
 30
0.0
 11
-91.64874102618239
 21
298.0000065983953
 31
0.0
  0
LINE
  5
1A5
330
1F
100
AcDbEntity
  8
仕上
  6
Continuous
 62
     3
370
     9
100
AcDbLine
 10
-96.64870803420604
 20
-84.00001649598812
 30
0.0
 11
-96.64870803420604
 21
285.9999670080236
 31
0.0
  0
LINE
  5
1A6
330
1F
100
AcDbEntity
  8
仕上
  6
Continuous
 62
     3
370
     9
100
AcDbLine
 10
-93.64864864864865
 20
-87.00002639358104
 30
0.0
 11
-93.64864864864865
 21
289.0000263935812
 31
0.0
  0
LINE
  5
1A7
330
1F
100
AcDbEntity
  8
仕上
  6
Continuous
 62
     3
370
     9
100
AcDbLine
 10
-133.6487311285895
 20
296.0
 30
0.0
 11
-136.1487146326014
 21
296.0
 31
0.0
  0
LINE
  5
1A8
330
1F
100
AcDbEntity
  8
仕上
  6
Continuous
 62
     3
370
     9
100
AcDbLine
 10
-111.1487806165541
 20
296.0
 30
0.0
 11
-113.6487146326014
 21
296.0
 31
0.0
  0
LINE
  5
1A9
330
1F
100
AcDbEntity
  8
建具
  6
JWW_DASHED1
 62
     4
370
     9
100
AcDbLine
 10
-133.6487311285895
 20
289.9999802048143
 30
0.0
 11
-113.6487146326014
 21
289.9999802048143
 31
0.0
  0
LINE
  5
1AA
330
1F
100
AcDbEntity
  8
建具
  6
JWW_DASHED1
 62
     4
370
     9
100
AcDbLine
 10
-133.6487311285895
 20
296.0000989759291
 30
0.0
 11
-113.6487146326014
 21
296.0000989759291
 31
0.0
  0
LINE
  5
1AB
330
1F
100
AcDbEntity
  8
建具
  6
Continuous
 62
     4
370
     9
100
AcDbLine
 10
-133.6487311285895
 20
297.0000527871622
 30
0.0
 11
-113.6487146326014
 21
297.0000527871622
 31
0.0
  0
LINE
  5
1AC
330
1F
100
AcDbEntity
  8
建具
  6
Continuous
 62
     4
370
     9
100
AcDbLine
 10
-133.6487311285895
 20
289.0000263935812
 30
0.0
 11
-133.6487311285895
 21
297.0000527871622
 31
0.0
  0
LINE
  5
1AD
330
1F
100
AcDbEntity
  8
建具
  6
Continuous
 62
     4
370
     9
100
AcDbLine
 10
-113.6487146326014
 20
289.0000263935812
 30
0.0
 11
-113.6487146326014
 21
297.0000527871622
 31
0.0
  0
LINE
  5
1AE
330
1F
100
AcDbEntity
  8
仕上
  6
Continuous
 62
     3
370
     9
100
AcDbLine
 10
-136.1487146326014
 20
289.0000263935812
 30
0.0
 11
-136.1487146326014
 21
296.0
 31
0.0
  0
LINE
  5
1AF
330
1F
100
AcDbEntity
  8
仕上
  6
Continuous
 62
     3
370
     9
100
AcDbLine
 10
-111.1487806165541
 20
289.0000263935812
 30
0.0
 11
-111.1487806165541
 21
296.0
 31
0.0
  0
LINE
  5
1B0
330
1F
100
AcDbEntity
  8
躯体
  6
JWW_CENTER2
 62
     2
370
     9
100
AcDbLine
 10
-188.6487311285895
 20
331.7805284183462
 30
0.0
 11
-188.6487311285895
 21
292.0001322035625
 31
0.0
  0
CIRCLE
  5
1B1
330
1F
100
AcDbEntity
  8
躯体
  6
Continuous
 62
     2
370
     9
100
AcDbCircle
 10
-188.6487311285895
 20
321.0000194417005
 30
0.0
 40
4.249999652037748
  0
LINE
  5
1B2
330
1F
100
AcDbEntity
  8
躯体
  6
JWW_DASHED1
 62
     2
370
     9
100
AcDbLine
 10
-181.8987616461676
 20
301.8541640940782
 30
0.0
 11
-181.8987616461676
 21
331.0000659839527
 31
0.0
  0
LINE
  5
1B3
330
1F
100
AcDbEntity
  8
躯体
  6
Continuous
 62
     2
370
     9
100
AcDbLine
 10
-179.8987523377167
 20
302.0000796520574
 30
0.0
 11
-181.1487209953397
 21
302.0000796520574
 31
0.0
  0
LINE
  5
1B4
330
1F
100
AcDbEntity
  8
躯体
  6
JWW_DASHED1
 62
     2
370
     9
100
AcDbLine
 10
-195.3987006110113
 20
301.8541640940782
 30
0.0
 11
-195.3987006110113
 21
331.0000659839527
 31
0.0
  0
LINE
  5
1B5
330
1F
100
AcDbEntity
  8
躯体
  6
Continuous
 62
     2
370
     9
100
AcDbLine
 10
-197.3987099194622
 20
302.0000796520574
 30
0.0
 11
-196.1487412618393
 21
302.0000796520574
 31
0.0
  0
LINE
  5
1B6
330
1F
100
AcDbEntity
  8
躯体
  6
Continuous
 62
     2
370
     9
100
AcDbLine
 10
-179.8987523377167
 20
302.0000796520574
 30
0.0
 11
-179.8987523377167
 21
331.0000659839527
 31
0.0
  0
LINE
  5
1B7
330
1F
100
AcDbEntity
  8
躯体
  6
Continuous
 62
     2
370
     9
100
AcDbLine
 10
-188.6487311285895
 20
331.0000659839527
 30
0.0
 11
-179.8987523377167
 21
331.0000659839527
 31
0.0
  0
LINE
  5
1B8
330
1F
100
AcDbEntity
  8
躯体
  6
Continuous
 62
     2
370
     9
100
AcDbLine
 10
-188.6487311285895
 20
331.0000659839527
 30
0.0
 11
-197.3987099194622
 21
331.0000659839527
 31
0.0
  0
LINE
  5
1B9
330
1F
100
AcDbEntity
  8
躯体
  6
Continuous
 62
     2
370
     9
100
AcDbLine
 10
-197.3987099194622
 20
302.0000796520574
 30
0.0
 11
-197.3987099194622
 21
331.0000659839527
 31
0.0
  0
LINE
  5
1BA
330
1F
100
AcDbEntity
  8
躯体
  6
JWW_CENTER2
 62
     2
370
     9
100
AcDbLine
 10
-188.6487311285895
 20
321.0000194417005
 30
0.0
 11
-182.87265509528
 21
321.0000194417005
 31
0.0
  0
LINE
  5
1BB
330
1F
100
AcDbEntity
  8
躯体
  6
JWW_CENTER2
 62
     2
370
     9
100
AcDbLine
 10
-188.6487311285895
 20
321.0000194417005
 30
0.0
 11
-194.424807161898
 21
321.0000194417005
 31
0.0
  0
ARC
  5
1BC
330
1F
100
AcDbEntity
  8
躯体
  6
Continuous
 62
     2
370
     9
100
AcDbCircle
 10
-196.1487412618393
 20
300.0000703436069
 30
0.0
 40
1.999999824868205
100
AcDbArc
 50
30.00050960355837
 51
89.99999999999999
  0
ARC
  5
1BD
330
1F
100
AcDbEntity
  8
躯体
  6
Continuous
 62
     2
370
     9
100
AcDbCircle
 10
-181.1487209953397
 20
300.0000703436069
 30
0.0
 40
1.999999824868205
100
AcDbArc
 50
90.0
 51
149.9994903964416
  0
TEXT
  5
1BE
330
1F
100
AcDbEntity
  8
その他
  6
Continuous
 62
     2
370
     9
100
AcDbText
 10
-151.6486486486486
 20
373.7494609902872
 30
0.0
 40
12.192
  1
100
 41
1.083333333333333
  7
ＭＳ ゴシック
100
AcDbText
  0
LINE
  5
1BF
330
1F
100
AcDbEntity
  8
その他
  6
Continuous
 62
     7
370
     9
100
AcDbLine
 10
-88.64863215266041
 20
305.9999340160474
 30
0.0
 11
-88.64863215266041
 21
370.6934385557433
 31
0.0
  0
LINE
  5
1C0
330
1F
100
AcDbEntity
  8
その他
  6
Continuous
 62
     7
370
     9
100
AcDbLine
 10
-188.6486156566723
 20
369.493454391892
 30
0.0
 11
-176.7512635926943
 21
367.9271603146116
 31
0.0
  0
LINE
  5
1C1
330
1F
100
AcDbEntity
  8
その他
  6
Continuous
 62
     7
370
     9
100
AcDbLine
 10
-188.6486156566723
 20
369.493454391892
 30
0.0
 11
-176.7512635926943
 21
371.0597484691724
 31
0.0
  0
LINE
  5
1C2
330
1F
100
AcDbEntity
  8
その他
  6
Continuous
 62
     7
370
     9
100
AcDbLine
 10
-88.64863215266041
 20
369.493454391892
 30
0.0
 11
-100.5459842166384
 21
367.9271603146116
 31
0.0
  0
LINE
  5
1C3
330
1F
100
AcDbEntity
  8
その他
  6
Continuous
 62
     7
370
     9
100
AcDbLine
 10
-88.64863215266041
 20
369.493454391892
 30
0.0
 11
-100.5459842166384
 21
371.0597484691724
 31
0.0
  0
LINE
  5
1C4
330
1F
100
AcDbEntity
  8
その他
  6
Continuous
 62
     7
370
     9
100
AcDbLine
 10
-88.64863215266041
 20
369.493454391892
 30
0.0
 11
-188.6486156566723
 21
369.493454391892
 31
0.0
  0
LINE
  5
1C5
330
1F
100
AcDbEntity
  8
その他
  6
Continuous
 62
     7
370
     9
100
AcDbLine
 10
-188.6486156566723
 20
339.5268199392165
 30
0.0
 11
-188.6486156566723
 21
370.6934385557433
 31
0.0
  0
LINE
  5
1C6
330
1F
100
AcDbEntity
  8
0-A
  6
JWW_DASHED3
 62
     2
370
     9
100
AcDbLine
 10
-438.6486651446368
 20
-49.00006598395271
 30
0.0
 11
-138.6487311285895
 21
-49.00006598395271
 31
0.0
  0
LINE
  5
1C7
330
1F
100
AcDbEntity
  8
建具
  6
Continuous
 62
     4
370
     9
100
AcDbLine
 10
-488.6486651446369
 20
-99.00006598395271
 30
0.0
 11
-88.64873112858947
 21
-99.00006598395271
 31
0.0
  0
LINE
  5
1C8
330
1F
100
AcDbEntity
  8
仕上
  6
Continuous
 62
     3
370
     9
100
AcDbLine
 10
-483.6486981366132
 20
-84.00001649598812
 30
0.0
 11
-93.64864864864865
 21
-84.00001649598812
 31
0.0
  0
LINE
  5
1C9
330
1F
100
AcDbEntity
  8
仕上
  6
Continuous
 62
     3
370
     9
100
AcDbLine
 10
-483.6486981366132
 20
-87.00002639358104
 30
0.0
 11
-93.64864864864865
 21
-87.00002639358104
 31
0.0
  0
LINE
  5
1CA
330
1F
100
AcDbEntity
  8
建具
  6
Continuous
 62
     4
370
     9
100
AcDbLine
 10
-485.6486552470439
 20
-96.00005608635979
 30
0.0
 11
-91.64874102618239
 21
-96.00005608635979
 31
0.0
  0
LINE
  5
1CB
330
1F
100
AcDbEntity
  8
仕上
  6
Continuous
 62
     3
370
     9
100
AcDbLine
 10
-93.64864864864865
 20
-321.5675675675676
 30
0.0
 11
-483.6486981366132
 21
-321.5675675675676
 31
0.0
  0
LINE
  5
1CC
330
1F
100
AcDbEntity
  8
仕上
  6
Continuous
 62
     3
370
     9
100
AcDbLine
 10
-93.64864864864865
 20
-369.5675279771959
 30
0.0
 11
-483.6486981366132
 21
-369.5675279771959
 31
0.0
  0
LINE
  5
1CD
330
1F
100
AcDbEntity
  8
仕上
  6
Continuous
 62
     3
370
     9
100
AcDbLine
 10
-93.64864864864865
 20
-366.5675675675676
 30
0.0
 11
-483.6486981366132
 21
-366.5675675675676
 31
0.0
  0
LINE
  5
1CE
330
1F
100
AcDbEntity
  8
0-A
  6
JWW_DASHED3
 62
     2
370
     9
100
AcDbLine
 10
-438.6486651446368
 20
250.9999670080236
 30
0.0
 11
-138.6487311285895
 21
250.9999670080236
 31
0.0
  0
LINE
  5
1CF
330
1F
100
AcDbEntity
  8
建具
  6
Continuous
 62
     4
370
     9
100
AcDbLine
 10
-488.6486651446369
 20
300.9999670080236
 30
0.0
 11
-88.64873112858947
 21
300.9999670080236
 31
0.0
  0
LINE
  5
1D0
330
1F
100
AcDbEntity
  8
仕上
  6
Continuous
 62
     3
370
     9
100
AcDbLine
 10
-483.6486981366132
 20
285.9999670080236
 30
0.0
 11
-93.64864864864865
 21
285.9999670080236
 31
0.0
  0
LINE
  5
1D1
330
1F
100
AcDbEntity
  8
建具
  6
Continuous
 62
     4
370
     9
100
AcDbLine
 10
-485.6486552470439
 20
298.0000065983953
 30
0.0
 11
-91.64874102618239
 21
298.0000065983953
 31
0.0
  0
LINE
  5
1D2
330
1F
100
AcDbEntity
  8
仕上
  6
Continuous
 62
     3
370
     9
100
AcDbLine
 10
-483.6486981366132
 20
289.0000263935812
 30
0.0
 11
-93.64864864864865
 21
289.0000263935812
 31
0.0
  0
LINE
  5
1D3
330
1F
100
AcDbEntity
  8
仕上
  6
Continuous
 62
     3
370
     9
100
AcDbLine
 10
360.9730323585304
 20
296.0
 30
0.0
 11
372.9729729729731
 21
296.0
 31
0.0
  0
LINE
  5
1D4
330
1F
100
AcDbEntity
  8
仕上
  6
Continuous
 62
     3
370
     9
100
AcDbLine
 10
372.9729729729731
 20
52.26779249727088
 30
0.0
 11
372.9729729729731
 21
296.0
 31
0.0
  0
LINE
  5
1D5
330
1F
100
AcDbEntity
  8
建具
  6
Continuous
 62
     3
370
     9
100
AcDbLine
 10
360.9730323585304
 20
296.0
 30
0.0
 11
372.9729729729731
 21
296.0
 31
0.0
  0
LINE
  5
1D6
330
1F
100
AcDbEntity
  8
ハッチ
  6
Continuous
 62
     6
370
     9
100
AcDbLine
 10
372.9729729729731
 20
254.5000000000002
 30
0.0
 11
375.9729729729731
 21
254.5000000000002
 31
0.0
  0
LINE
  5
1D7
330
1F
100
AcDbEntity
  8
ハッチ
  6
Continuous
 62
     6
370
     9
100
AcDbLine
 10
372.9729729729731
 20
292.184578181955
 30
0.0
 11
375.2883947910184
 21
294.5
 31
0.0
  0
LINE
  5
1D8
330
1F
100
AcDbEntity
  8
ハッチ
  6
Continuous
 62
     6
370
     9
100
AcDbLine
 10
372.9729729729736
 20
286.5277239324621
 30
0.0
 11
375.9729729729736
 21
289.5277239324623
 31
0.0
  0
LINE
  5
1D9
330
1F
100
AcDbEntity
  8
ハッチ
  6
Continuous
 62
     6
370
     9
100
AcDbLine
 10
372.9729729729727
 20
280.8708696829679
 30
0.0
 11
375.9729729729727
 21
283.8708696829679
 31
0.0
  0
LINE
  5
1DA
330
1F
100
AcDbEntity
  8
ハッチ
  6
Continuous
 62
     6
370
     9
100
AcDbLine
 10
372.9729729729731
 20
275.2140154334752
 30
0.0
 11
375.9729729729731
 21
278.2140154334752
 31
0.0
  0
LINE
  5
1DB
330
1F
100
AcDbEntity
  8
ハッチ
  6
Continuous
 62
     6
370
     9
100
AcDbLine
 10
372.9729729729727
 20
269.5571611839812
 30
0.0
 11
375.9729729729731
 21
272.5571611839814
 31
0.0
  0
LINE
  5
1DC
330
1F
100
AcDbEntity
  8
ハッチ
  6
Continuous
 62
     6
370
     9
100
AcDbLine
 10
372.9729729729731
 20
263.9003069344883
 30
0.0
 11
375.9729729729713
 21
266.9003069344865
 31
0.0
  0
LINE
  5
1DD
330
1F
100
AcDbEntity
  8
ハッチ
  6
Continuous
 62
     6
370
     9
100
AcDbLine
 10
372.9729729729722
 20
258.2434526850011
 30
0.0
 11
375.9729729729722
 21
261.2434526850013
 31
0.0
  0
LINE
  5
1DE
330
1F
100
AcDbEntity
  8
ハッチ
  6
Continuous
 62
     6
370
     9
100
AcDbLine
 10
374.8863745374649
 20
254.5000000000007
 30
0.0
 11
375.9729729729727
 21
255.5865984355084
 31
0.0
  0
LINE
  5
1DF
330
1F
100
AcDbEntity
  8
ハッチ
  6
Continuous
 62
     6
370
     9
100
AcDbLine
 10
372.9729729729731
 20
294.5000000000002
 30
0.0
 11
372.9729729729731
 21
254.5000000000002
 31
0.0
  0
LINE
  5
1E0
330
1F
100
AcDbEntity
  8
ハッチ
  6
Continuous
 62
     6
370
     9
100
AcDbLine
 10
375.9729729729731
 20
294.5000000000002
 30
0.0
 11
372.9729729729731
 21
294.5000000000002
 31
0.0
  0
LINE
  5
1E1
330
1F
100
AcDbEntity
  8
ハッチ
  6
Continuous
 62
     6
370
     9
100
AcDbLine
 10
375.9729729729731
 20
254.5000000000002
 30
0.0
 11
375.9729729729731
 21
294.5000000000002
 31
0.0
  0
LINE
  5
1E2
330
1F
100
AcDbEntity
  8
0-E
  6
Continuous
 62
     7
370
     9
100
AcDbLine
 10
282.3818887246623
 20
379.7435335726352
 30
0.0
 11
343.2506004539698
 21
301.0000659839527
 31
0.0
  0
LINE
  5
1E3
330
1F
100
AcDbEntity
  8
0-F
  6
Continuous
 62
     7
370
     9
100
AcDbLine
 10
343.2506004539698
 20
301.0000659839527
 30
0.0
 11
334.7351074218752
 21
309.4551836993244
 31
0.0
  0
LINE
  5
1E4
330
1F
100
AcDbEntity
  8
0-F
  6
Continuous
 62
     7
370
     9
100
AcDbLine
 10
343.2506004539698
 20
301.0000659839527
 30
0.0
 11
337.2136626372469
 21
311.3709617820948
 31
0.0
  0
LINE
  5
1E5
330
1F
100
AcDbEntity
  8
建具
  6
Continuous
 62
     4
370
     9
100
AcDbLine
 10
375.9729729729731
 20
298.0001055743244
 30
0.0
 11
312.9729729729731
 21
298.0001055743244
 31
0.0
  0
LINE
  5
1E6
330
1F
100
AcDbEntity
  8
建具
  6
Continuous
 62
     4
370
     9
100
AcDbLine
 10
375.9729729729731
 20
298.0001055743244
 30
0.0
 11
375.9729729729731
 21
251.0000000000002
 31
0.0
  0
LINE
  5
1E7
330
1F
100
AcDbEntity
  8
建具
  6
Continuous
 62
     4
370
     9
100
AcDbLine
 10
375.9729729729731
 20
301.0000659839527
 30
0.0
 11
312.9729729729731
 21
301.0000659839527
 31
0.0
  0
LINE
  5
1E8
330
1F
100
AcDbEntity
  8
建具
  6
Continuous
 62
     4
370
     9
100
AcDbLine
 10
378.9729333826015
 20
251.0000000000002
 30
0.0
 11
375.9731709248315
 21
251.0000000000002
 31
0.0
  0
ARC
  5
1E9
330
1F
100
AcDbEntity
  8
建具
  6
Continuous
 62
     4
370
     9
100
AcDbCircle
 10
375.9729729729731
 20
298.0001055743244
 30
0.0
 40
3.000000038662472
100
AcDbArc
 50
0.0
 51
90.0
  0
LINE
  5
1EA
330
1F
100
AcDbEntity
  8
建具
  6
Continuous
 62
     4
370
     9
100
AcDbLine
 10
378.9729333826015
 20
298.0001055743244
 30
0.0
 11
378.9729333826015
 21
251.0000000000002
 31
0.0
  0
LINE
  5
1EB
330
1F
100
AcDbEntity
  8
躯体
  6
Continuous
 62
     2
370
     9
100
AcDbLine
 10
381.4726721568456
 20
292.0000657482958
 30
0.0
 11
383.4729296710041
 21
292.0000657482958
 31
0.0
  0
LINE
  5
1EC
330
1F
100
AcDbEntity
  8
躯体
  6
Continuous
 62
     2
370
     9
100
AcDbLine
 10
378.9729333826015
 20
292.0000657482958
 30
0.0
 11
379.4726628483952
 21
292.0000657482958
 31
0.0
  0
LINE
  5
1ED
330
1F
100
AcDbEntity
  8
躯体
  6
Continuous
 62
     2
370
     9
100
AcDbLine
 10
383.4729296710041
 20
292.0000657482958
 30
0.0
 11
383.4729296710041
 21
271.9999997643433
 31
0.0
  0
LINE
  5
1EE
330
1F
100
AcDbEntity
  8
躯体
  6
JWW_DASHED1
 62
     2
370
     9
100
AcDbLine
 10
383.4726814652961
 20
284.2500060681675
 30
0.0
 11
381.272651407249
 21
284.2500060681675
 31
0.0
  0
LINE
  5
1EF
330
1F
100
AcDbEntity
  8
躯体
  6
JWW_DASHED1
 62
     2
370
     9
100
AcDbLine
 10
381.272651407249
 20
284.2500060681675
 30
0.0
 11
379.4726628483952
 21
285.9999522794631
 31
0.0
  0
LINE
  5
1F0
330
1F
100
AcDbEntity
  8
躯体
  6
JWW_DASHED1
 62
     2
370
     9
100
AcDbLine
 10
381.272651407249
 20
279.7500098975931
 30
0.0
 11
383.4726814652961
 21
279.7500098975931
 31
0.0
  0
LINE
  5
1F1
330
1F
100
AcDbEntity
  8
躯体
  6
JWW_DASHED1
 62
     2
370
     9
100
AcDbLine
 10
381.272651407249
 20
284.2500060681675
 30
0.0
 11
381.272651407249
 21
279.7500098975931
 31
0.0
  0
LINE
  5
1F2
330
1F
100
AcDbEntity
  8
躯体
  6
JWW_DASHED1
 62
     2
370
     9
100
AcDbLine
 10
381.272651407249
 20
279.7500098975931
 30
0.0
 11
379.4726628483952
 21
278.0001132331761
 31
0.0
  0
LINE
  5
1F3
330
1F
100
AcDbEntity
  8
躯体
  6
Continuous
 62
     2
370
     9
100
AcDbLine
 10
379.4726628483952
 20
271.9999862140673
 30
0.0
 11
381.4726721568456
 21
271.9999862140673
 31
0.0
  0
LINE
  5
1F4
330
1F
100
AcDbEntity
  8
躯体
  6
Continuous
 62
     2
370
     9
100
AcDbLine
 10
381.4726721568456
 20
302.0050309818223
 30
0.0
 11
381.4726721568456
 21
271.9999862140673
 31
0.0
  0
LINE
  5
1F5
330
1F
100
AcDbEntity
  8
躯体
  6
Continuous
 62
     2
370
     9
100
AcDbLine
 10
379.4726628483952
 20
331.000013078962
 30
0.0
 11
379.4726628483952
 21
271.9999862140673
 31
0.0
  0
ARC
  5
1F6
330
1F
100
AcDbEntity
  8
躯体
  6
Continuous
 62
     2
370
     9
100
AcDbCircle
 10
382.2726560614744
 20
305.0000407097421
 30
0.0
 40
3.000000414701042
100
AcDbArc
 50
270.0
 51
0.0
  0
ARC
  5
1F7
330
1F
100
AcDbEntity
  8
躯体
  6
Continuous
 62
     2
370
     9
100
AcDbCircle
 10
382.2726560614744
 20
328.000048663165
 30
0.0
 40
3.000000414701042
100
AcDbArc
 50
0.0
 51
90.0
  0
LINE
  5
1F8
330
1F
100
AcDbEntity
  8
躯体
  6
Continuous
 62
     2
370
     9
100
AcDbLine
 10
385.2726700241499
 20
305.0000407097421
 30
0.0
 11
385.2726700241499
 21
328.000048663165
 31
0.0
  0
LINE
  5
1F9
330
1F
100
AcDbEntity
  8
躯体
  6
Continuous
 62
     2
370
     9
100
AcDbLine
 10
382.2726560614744
 20
302.0000267470666
 30
0.0
 11
379.4726628483952
 21
302.0000267470666
 31
0.0
  0
LINE
  5
1FA
330
1F
100
AcDbEntity
  8
躯体
  6
Continuous
 62
     2
370
     9
100
AcDbLine
 10
382.2726560614744
 20
331.000013078962
 30
0.0
 11
379.4726628483952
 21
331.000013078962
 31
0.0
  0
LINE
  5
1FB
330
1F
100
AcDbEntity
  8
躯体
  6
JWW_DASHED1
 62
     2
370
     9
100
AcDbLine
 10
381.4726721568456
 20
330.9950088442063
 30
0.0
 11
381.4726721568456
 21
302.0050309818223
 31
0.0
  0
LINE
  5
1FC
330
1F
100
AcDbEntity
  8
躯体
  6
Continuous
 62
     2
370
     9
100
AcDbLine
 10
381.4726721568456
 20
298.0000081301657
 30
0.0
 11
379.4726628483952
 21
298.0000081301657
 31
0.0
  0
LINE
  5
1FD
330
1F
100
AcDbEntity
  8
躯体
  6
JWW_DASHED1
 62
     2
370
     9
100
AcDbLine
 10
381.4726721568456
 20
316.7500334632903
 30
0.0
 11
379.4726628483952
 21
316.7500334632903
 31
0.0
  0
LINE
  5
1FE
330
1F
100
AcDbEntity
  8
躯体
  6
JWW_DASHED1
 62
     2
370
     9
100
AcDbLine
 10
381.4726721568456
 20
325.2499987038871
 30
0.0
 11
379.4726628483952
 21
325.2499987038871
 31
0.0
  0
LINE
  5
1FF
330
1F
100
AcDbEntity
  8
躯体
  6
JWW_CENTER2
 62
     2
370
     9
100
AcDbLine
 10
387.0207342199376
 20
282.0000327563196
 30
0.0
 11
377.9363584776181
 21
282.0000327563196
 31
0.0
  0
LINE
  5
200
330
1F
100
AcDbEntity
  8
躯体
  6
Continuous
 62
     2
370
     9
100
AcDbLine
 10
381.4729663745777
 20
290.7500245083254
 30
0.0
 11
381.4729663745777
 21
292.0000657482958
 31
0.0
  0
LINE
  5
201
330
1F
100
AcDbEntity
  8
躯体
  6
Continuous
 62
     2
370
     9
100
AcDbLine
 10
381.4729663745777
 20
273.2500410043137
 30
0.0
 11
381.4729663745777
 21
271.9999997643433
 31
0.0
  0
LINE
  5
202
330
1F
100
AcDbEntity
  8
躯体
  6
Continuous
 62
     2
370
     9
100
AcDbLine
 10
378.9729333826015
 20
271.9999997643433
 30
0.0
 11
383.4729296710041
 21
271.9999997643433
 31
0.0
  0
LINE
  5
203
330
1F
100
AcDbEntity
  8
躯体
  6
Continuous
 62
     2
370
     9
100
AcDbLine
 10
379.4726628483952
 20
277.9998958396179
 30
0.0
 11
379.2724964038746
 21
277.9998958396179
 31
0.0
  0
LINE
  5
204
330
1F
100
AcDbEntity
  8
躯体
  6
Continuous
 62
     2
370
     9
100
AcDbLine
 10
379.4726628483952
 20
285.9997737693054
 30
0.0
 11
379.2724964038746
 21
285.9997737693054
 31
0.0
  0
LINE
  5
205
330
1F
100
AcDbEntity
  8
躯体
  6
Continuous
 62
     2
370
     9
100
AcDbLine
 10
379.2724964038746
 20
285.9997737693054
 30
0.0
 11
379.2724964038746
 21
282.0000327563196
 31
0.0
  0
LINE
  5
206
330
1F
100
AcDbEntity
  8
躯体
  6
Continuous
 62
     2
370
     9
100
AcDbLine
 10
379.2724964038746
 20
277.9998958396179
 30
0.0
 11
379.2724964038746
 21
282.0000327563196
 31
0.0
  0
LINE
  5
207
330
1F
100
AcDbEntity
  8
躯体
  6
Continuous
 62
     2
370
     9
100
AcDbLine
 10
383.9726591367978
 20
284.7499799691575
 30
0.0
 11
383.4729296710041
 21
284.7499799691575
 31
0.0
  0
LINE
  5
208
330
1F
100
AcDbEntity
  8
躯体
  6
Continuous
 62
     2
370
     9
100
AcDbLine
 10
385.4725403656832
 20
282.9998381036592
 30
0.0
 11
383.9726591367978
 21
284.7499799691575
 31
0.0
  0
LINE
  5
209
330
1F
100
AcDbEntity
  8
躯体
  6
Continuous
 62
     2
370
     9
100
AcDbLine
 10
385.4725403656832
 20
281.0000542011041
 30
0.0
 11
385.4725403656832
 21
282.9998381036592
 31
0.0
  0
LINE
  5
20A
330
1F
100
AcDbEntity
  8
躯体
  6
Continuous
 62
     2
370
     9
100
AcDbLine
 10
383.9726591367978
 20
279.2499618235704
 30
0.0
 11
385.4725403656832
 21
281.0000542011041
 31
0.0
  0
LINE
  5
20B
330
1F
100
AcDbEntity
  8
躯体
  6
Continuous
 62
     2
370
     9
100
AcDbLine
 10
383.9726591367978
 20
279.2499618235704
 30
0.0
 11
383.4729296710041
 21
279.2499618235704
 31
0.0
  0
LINE
  5
20C
330
1F
100
AcDbEntity
  8
躯体
  6
Continuous
 62
     2
370
     9
100
AcDbLine
 10
383.9726591367978
 20
279.2499618235704
 30
0.0
 11
383.9726591367978
 21
284.7499799691575
 31
0.0
  0
LINE
  5
20D
330
1F
100
AcDbEntity
  8
躯体
  6
Continuous
 62
     2
370
     9
100
AcDbLine
 10
378.9729333826015
 20
292.0000657482958
 30
0.0
 11
378.9729333826015
 21
271.9999997643433
 31
0.0
  0
LINE
  5
20E
330
1F
100
AcDbEntity
  8
躯体
  6
JWW_CENTER2
 62
     2
370
     9
100
AcDbLine
 10
383.4726814652961
 20
320.9999665367102
 30
0.0
 11
377.4727030868237
 21
320.9999665367102
 31
0.0
  0
LINE
  5
20F
330
1F
100
AcDbEntity
  8
0-E
  6
Continuous
 62
     7
370
     9
100
AcDbLine
 10
84.11373049971758
 20
379.7435335726352
 30
0.0
 11
282.3818887246623
 21
379.7435335726352
 31
0.0
  0
TEXT
  5
210
330
1F
100
AcDbEntity
  8
0-E
  6
Continuous
 62
     7
370
     9
100
AcDbText
 10
140.2478096121902
 20
363.887213055223
 30
0.0
 40
9.144
  1
ＳＵＳ３０４
 41
1.138888888888888
  7
ＭＳ ゴシック
100
AcDbText
  0
TEXT
  5
211
330
1F
100
AcDbEntity
  8
0-E
  6
Continuous
 62
     7
370
     9
100
AcDbText
 10
87.36563442275315
 20
385.5331549420351
 30
0.0
 40
9.144
  1
受枠：ＴＬ６０Ｐ，ｔ＝３.０
 41
1.154320987654321
  7
ＭＳ ゴシック
100
AcDbText
  0
LINE
  5
212
330
1F
100
AcDbEntity
  8
その他
  6
Continuous
 62
     7
370
     9
100
AcDbLine
 10
462.1729663745777
 20
331.0000659839527
 30
0.0
 11
394.2014229325723
 21
331.0000659839527
 31
0.0
  0
LINE
  5
213
330
1F
100
AcDbEntity
  8
その他
  6
Continuous
 62
     7
370
     9
100
AcDbLine
 10
394.2014229325723
 20
251.0
 30
0.0
 11
462.1729505384292
 21
251.0
 31
0.0
  0
LINE
  5
214
330
1F
100
AcDbEntity
  8
その他
  6
Continuous
 62
     7
370
     9
100
AcDbLine
 10
394.2014229325723
 20
301.0000659839527
 30
0.0
 11
462.1729505384292
 21
301.0000659839527
 31
0.0
  0
LINE
  5
215
330
1F
100
AcDbEntity
  8
その他
  6
Continuous
 62
     7
370
     9
100
AcDbLine
 10
394.2014229325723
 20
-48.99999999999999
 30
0.0
 11
462.1729505384292
 21
-48.99999999999999
 31
0.0
  0
LINE
  5
216
330
1F
100
AcDbEntity
  8
その他
  6
Continuous
 62
     7
370
     9
100
AcDbLine
 10
394.2014229325723
 20
-99.00006598395271
 30
0.0
 11
462.1729505384292
 21
-99.00006598395271
 31
0.0
  0
LINE
  5
217
330
1F
100
AcDbEntity
  8
その他
  6
Continuous
 62
     7
370
     9
100
AcDbLine
 10
462.1729663745777
 20
-129.0000659839527
 30
0.0
 11
394.2014229325723
 21
-129.0000659839527
 31
0.0
  0
LINE
  5
218
330
1F
100
AcDbEntity
  8
仕上
  6
Continuous
 62
     3
370
     9
100
AcDbLine
 10
360.9730323585304
 20
-94.00004948796447
 30
0.0
 11
372.9729729729731
 21
-94.00004948796447
 31
0.0
  0
LINE
  5
219
330
1F
100
AcDbEntity
  8
仕上
  6
Continuous
 62
     3
370
     9
100
AcDbLine
 10
372.9729729729731
 20
29.51999222817119
 30
0.0
 11
372.9729729729731
 21
-94.00004948796447
 31
0.0
  0
LINE
  5
21A
330
1F
100
AcDbEntity
  8
建具
  6
Continuous
 62
     4
370
     9
100
AcDbLine
 10
312.9729729729731
 20
-96.00010557432438
 30
0.0
 11
312.9729729729731
 21
-99.00006598395271
 31
0.0
  0
LINE
  5
21B
330
1F
100
AcDbEntity
  8
ハッチ
  6
Continuous
 62
     6
370
     9
100
AcDbLine
 10
372.9729729729731
 20
-52.50000000000023
 30
0.0
 11
375.9729729729731
 21
-52.50000000000023
 31
0.0
  0
LINE
  5
21C
330
1F
100
AcDbEntity
  8
ハッチ
  6
Continuous
 62
     6
370
     9
100
AcDbLine
 10
372.9729729729731
 20
-90.18457818195498
 30
0.0
 11
375.2883947910184
 21
-92.5
 31
0.0
  0
LINE
  5
21D
330
1F
100
AcDbEntity
  8
ハッチ
  6
Continuous
 62
     6
370
     9
100
AcDbLine
 10
372.9729729729736
 20
-84.5277239324621
 30
0.0
 11
375.9729729729736
 21
-87.52772393246232
 31
0.0
  0
LINE
  5
21E
330
1F
100
AcDbEntity
  8
ハッチ
  6
Continuous
 62
     6
370
     9
100
AcDbLine
 10
372.9729729729727
 20
-78.87086968296785
 30
0.0
 11
375.9729729729727
 21
-81.87086968296785
 31
0.0
  0
LINE
  5
21F
330
1F
100
AcDbEntity
  8
ハッチ
  6
Continuous
 62
     6
370
     9
100
AcDbLine
 10
372.9729729729731
 20
-73.2140154334752
 30
0.0
 11
375.9729729729731
 21
-76.2140154334752
 31
0.0
  0
LINE
  5
220
330
1F
100
AcDbEntity
  8
ハッチ
  6
Continuous
 62
     6
370
     9
100
AcDbLine
 10
372.9729729729727
 20
-67.55716118398118
 30
0.0
 11
375.9729729729731
 21
-70.5571611839814
 31
0.0
  0
LINE
  5
221
330
1F
100
AcDbEntity
  8
ハッチ
  6
Continuous
 62
     6
370
     9
100
AcDbLine
 10
372.9729729729731
 20
-61.9003069344883
 30
0.0
 11
375.9729729729713
 21
-64.90030693448648
 31
0.0
  0
LINE
  5
222
330
1F
100
AcDbEntity
  8
ハッチ
  6
Continuous
 62
     6
370
     9
100
AcDbLine
 10
372.9729729729722
 20
-56.2434526850011
 30
0.0
 11
375.9729729729722
 21
-59.24345268500133
 31
0.0
  0
LINE
  5
223
330
1F
100
AcDbEntity
  8
ハッチ
  6
Continuous
 62
     6
370
     9
100
AcDbLine
 10
374.8863745374649
 20
-52.50000000000068
 30
0.0
 11
375.9729729729727
 21
-53.58659843550845
 31
0.0
  0
LINE
  5
224
330
1F
100
AcDbEntity
  8
ハッチ
  6
Continuous
 62
     6
370
     9
100
AcDbLine
 10
372.9729729729731
 20
-92.50000000000023
 30
0.0
 11
372.9729729729731
 21
-52.50000000000023
 31
0.0
  0
LINE
  5
225
330
1F
100
AcDbEntity
  8
ハッチ
  6
Continuous
 62
     6
370
     9
100
AcDbLine
 10
375.9729729729731
 20
-92.50000000000023
 30
0.0
 11
372.9729729729731
 21
-92.50000000000023
 31
0.0
  0
LINE
  5
226
330
1F
100
AcDbEntity
  8
ハッチ
  6
Continuous
 62
     6
370
     9
100
AcDbLine
 10
375.9729729729731
 20
-52.50000000000023
 30
0.0
 11
375.9729729729731
 21
-92.50000000000023
 31
0.0
  0
LINE
  5
227
330
1F
100
AcDbEntity
  8
建具
  6
Continuous
 62
     4
370
     9
100
AcDbLine
 10
375.9729729729731
 20
-96.00010557432438
 30
0.0
 11
312.9729729729731
 21
-96.00010557432438
 31
0.0
  0
LINE
  5
228
330
1F
100
AcDbEntity
  8
建具
  6
Continuous
 62
     4
370
     9
100
AcDbLine
 10
375.9729729729731
 20
-96.00010557432438
 30
0.0
 11
375.9729729729731
 21
-49.00000000000023
 31
0.0
  0
LINE
  5
229
330
1F
100
AcDbEntity
  8
建具
  6
Continuous
 62
     4
370
     9
100
AcDbLine
 10
375.9729729729731
 20
-99.00006598395271
 30
0.0
 11
312.9729729729731
 21
-99.00006598395271
 31
0.0
  0
LINE
  5
22A
330
1F
100
AcDbEntity
  8
建具
  6
Continuous
 62
     4
370
     9
100
AcDbLine
 10
378.9729333826015
 20
-49.00000000000023
 30
0.0
 11
375.9731709248315
 21
-49.00000000000023
 31
0.0
  0
ARC
  5
22B
330
1F
100
AcDbEntity
  8
建具
  6
Continuous
 62
     4
370
     9
100
AcDbCircle
 10
375.9729729729731
 20
-96.00010557432438
 30
0.0
 40
3.000000038662472
100
AcDbArc
 50
270.0
 51
0.0
  0
LINE
  5
22C
330
1F
100
AcDbEntity
  8
建具
  6
Continuous
 62
     4
370
     9
100
AcDbLine
 10
378.9729333826015
 20
-96.00010557432438
 30
0.0
 11
378.9729333826015
 21
-49.00000000000023
 31
0.0
  0
LINE
  5
22D
330
1F
100
AcDbEntity
  8
躯体
  6
Continuous
 62
     2
370
     9
100
AcDbLine
 10
381.4726721568456
 20
-90.00006574829581
 30
0.0
 11
383.4729296710041
 21
-90.00006574829581
 31
0.0
  0
LINE
  5
22E
330
1F
100
AcDbEntity
  8
躯体
  6
Continuous
 62
     2
370
     9
100
AcDbLine
 10
378.9729333826015
 20
-90.00006574829581
 30
0.0
 11
379.4726628483952
 21
-90.00006574829581
 31
0.0
  0
LINE
  5
22F
330
1F
100
AcDbEntity
  8
躯体
  6
Continuous
 62
     2
370
     9
100
AcDbLine
 10
383.4729296710041
 20
-90.00006574829581
 30
0.0
 11
383.4729296710041
 21
-69.99999976434333
 31
0.0
  0
LINE
  5
230
330
1F
100
AcDbEntity
  8
躯体
  6
JWW_DASHED1
 62
     2
370
     9
100
AcDbLine
 10
383.4726814652961
 20
-82.25000606816752
 30
0.0
 11
381.272651407249
 21
-82.25000606816752
 31
0.0
  0
LINE
  5
231
330
1F
100
AcDbEntity
  8
躯体
  6
JWW_DASHED1
 62
     2
370
     9
100
AcDbLine
 10
381.272651407249
 20
-82.25000606816752
 30
0.0
 11
379.4726628483952
 21
-83.99995227946306
 31
0.0
  0
LINE
  5
232
330
1F
100
AcDbEntity
  8
躯体
  6
JWW_DASHED1
 62
     2
370
     9
100
AcDbLine
 10
381.272651407249
 20
-77.75000989759315
 30
0.0
 11
383.4726814652961
 21
-77.75000989759315
 31
0.0
  0
LINE
  5
233
330
1F
100
AcDbEntity
  8
躯体
  6
JWW_DASHED1
 62
     2
370
     9
100
AcDbLine
 10
381.272651407249
 20
-82.25000606816752
 30
0.0
 11
381.272651407249
 21
-77.75000989759315
 31
0.0
  0
LINE
  5
234
330
1F
100
AcDbEntity
  8
躯体
  6
JWW_DASHED1
 62
     2
370
     9
100
AcDbLine
 10
381.272651407249
 20
-77.75000989759315
 30
0.0
 11
379.4726628483952
 21
-76.00011323317608
 31
0.0
  0
LINE
  5
235
330
1F
100
AcDbEntity
  8
躯体
  6
Continuous
 62
     2
370
     9
100
AcDbLine
 10
379.4726628483952
 20
-69.99998621406735
 30
0.0
 11
381.4726721568456
 21
-69.99998621406735
 31
0.0
  0
LINE
  5
236
330
1F
100
AcDbEntity
  8
躯体
  6
Continuous
 62
     2
370
     9
100
AcDbLine
 10
381.4726721568456
 20
-100.0050309818223
 30
0.0
 11
381.4726721568456
 21
-69.99998621406735
 31
0.0
  0
LINE
  5
237
330
1F
100
AcDbEntity
  8
躯体
  6
Continuous
 62
     2
370
     9
100
AcDbLine
 10
379.4726628483952
 20
-129.000013078962
 30
0.0
 11
379.4726628483952
 21
-69.99998621406735
 31
0.0
  0
ARC
  5
238
330
1F
100
AcDbEntity
  8
躯体
  6
Continuous
 62
     2
370
     9
100
AcDbCircle
 10
382.2726560614744
 20
-103.0000407097421
 30
0.0
 40
3.000000414701042
100
AcDbArc
 50
0.0
 51
90.0
  0
ARC
  5
239
330
1F
100
AcDbEntity
  8
躯体
  6
Continuous
 62
     2
370
     9
100
AcDbCircle
 10
382.2726560614744
 20
-126.000048663165
 30
0.0
 40
3.000000414701042
100
AcDbArc
 50
270.0
 51
0.0
  0
LINE
  5
23A
330
1F
100
AcDbEntity
  8
躯体
  6
Continuous
 62
     2
370
     9
100
AcDbLine
 10
385.2726700241499
 20
-103.0000407097421
 30
0.0
 11
385.2726700241499
 21
-126.000048663165
 31
0.0
  0
LINE
  5
23B
330
1F
100
AcDbEntity
  8
躯体
  6
Continuous
 62
     2
370
     9
100
AcDbLine
 10
382.2726560614744
 20
-100.0000267470666
 30
0.0
 11
379.4726628483952
 21
-100.0000267470666
 31
0.0
  0
LINE
  5
23C
330
1F
100
AcDbEntity
  8
躯体
  6
Continuous
 62
     2
370
     9
100
AcDbLine
 10
382.2726560614744
 20
-129.000013078962
 30
0.0
 11
379.4726628483952
 21
-129.000013078962
 31
0.0
  0
LINE
  5
23D
330
1F
100
AcDbEntity
  8
躯体
  6
JWW_DASHED1
 62
     2
370
     9
100
AcDbLine
 10
381.4726721568456
 20
-128.9950088442063
 30
0.0
 11
381.4726721568456
 21
-100.0050309818223
 31
0.0
  0
LINE
  5
23E
330
1F
100
AcDbEntity
  8
躯体
  6
Continuous
 62
     2
370
     9
100
AcDbLine
 10
381.4726721568456
 20
-96.00000813016572
 30
0.0
 11
379.4726628483952
 21
-96.00000813016572
 31
0.0
  0
LINE
  5
23F
330
1F
100
AcDbEntity
  8
躯体
  6
JWW_DASHED1
 62
     2
370
     9
100
AcDbLine
 10
381.4726721568456
 20
-114.7500334632903
 30
0.0
 11
379.4726628483952
 21
-114.7500334632903
 31
0.0
  0
LINE
  5
240
330
1F
100
AcDbEntity
  8
躯体
  6
JWW_DASHED1
 62
     2
370
     9
100
AcDbLine
 10
381.4726721568456
 20
-123.2499987038871
 30
0.0
 11
379.4726628483952
 21
-123.2499987038871
 31
0.0
  0
LINE
  5
241
330
1F
100
AcDbEntity
  8
躯体
  6
JWW_CENTER2
 62
     2
370
     9
100
AcDbLine
 10
387.0207342199376
 20
-80.00003275631957
 30
0.0
 11
377.9363584776181
 21
-80.00003275631957
 31
0.0
  0
LINE
  5
242
330
1F
100
AcDbEntity
  8
躯体
  6
Continuous
 62
     2
370
     9
100
AcDbLine
 10
381.4729663745777
 20
-88.7500245083254
 30
0.0
 11
381.4729663745777
 21
-90.00006574829581
 31
0.0
  0
LINE
  5
243
330
1F
100
AcDbEntity
  8
躯体
  6
Continuous
 62
     2
370
     9
100
AcDbLine
 10
381.4729663745777
 20
-71.25004100431374
 30
0.0
 11
381.4729663745777
 21
-69.99999976434333
 31
0.0
  0
LINE
  5
244
330
1F
100
AcDbEntity
  8
躯体
  6
Continuous
 62
     2
370
     9
100
AcDbLine
 10
378.9729333826015
 20
-69.99999976434333
 30
0.0
 11
383.4729296710041
 21
-69.99999976434333
 31
0.0
  0
LINE
  5
245
330
1F
100
AcDbEntity
  8
躯体
  6
Continuous
 62
     2
370
     9
100
AcDbLine
 10
379.4726628483952
 20
-75.99989583961792
 30
0.0
 11
379.2724964038746
 21
-75.99989583961792
 31
0.0
  0
LINE
  5
246
330
1F
100
AcDbEntity
  8
躯体
  6
Continuous
 62
     2
370
     9
100
AcDbLine
 10
379.4726628483952
 20
-83.99977376930542
 30
0.0
 11
379.2724964038746
 21
-83.99977376930542
 31
0.0
  0
LINE
  5
247
330
1F
100
AcDbEntity
  8
躯体
  6
Continuous
 62
     2
370
     9
100
AcDbLine
 10
379.2724964038746
 20
-83.99977376930542
 30
0.0
 11
379.2724964038746
 21
-80.00003275631957
 31
0.0
  0
LINE
  5
248
330
1F
100
AcDbEntity
  8
躯体
  6
Continuous
 62
     2
370
     9
100
AcDbLine
 10
379.2724964038746
 20
-75.99989583961792
 30
0.0
 11
379.2724964038746
 21
-80.00003275631957
 31
0.0
  0
LINE
  5
249
330
1F
100
AcDbEntity
  8
躯体
  6
Continuous
 62
     2
370
     9
100
AcDbLine
 10
383.9726591367978
 20
-82.7499799691575
 30
0.0
 11
383.4729296710041
 21
-82.7499799691575
 31
0.0
  0
LINE
  5
24A
330
1F
100
AcDbEntity
  8
躯体
  6
Continuous
 62
     2
370
     9
100
AcDbLine
 10
385.4725403656832
 20
-80.99983810365916
 30
0.0
 11
383.9726591367978
 21
-82.7499799691575
 31
0.0
  0
LINE
  5
24B
330
1F
100
AcDbEntity
  8
躯体
  6
Continuous
 62
     2
370
     9
100
AcDbLine
 10
385.4725403656832
 20
-79.00005420110415
 30
0.0
 11
385.4725403656832
 21
-80.99983810365916
 31
0.0
  0
LINE
  5
24C
330
1F
100
AcDbEntity
  8
躯体
  6
Continuous
 62
     2
370
     9
100
AcDbLine
 10
383.9726591367978
 20
-77.2499618235704
 30
0.0
 11
385.4725403656832
 21
-79.00005420110415
 31
0.0
  0
LINE
  5
24D
330
1F
100
AcDbEntity
  8
躯体
  6
Continuous
 62
     2
370
     9
100
AcDbLine
 10
383.9726591367978
 20
-77.2499618235704
 30
0.0
 11
383.4729296710041
 21
-77.2499618235704
 31
0.0
  0
LINE
  5
24E
330
1F
100
AcDbEntity
  8
躯体
  6
Continuous
 62
     2
370
     9
100
AcDbLine
 10
383.9726591367978
 20
-77.2499618235704
 30
0.0
 11
383.9726591367978
 21
-82.7499799691575
 31
0.0
  0
LINE
  5
24F
330
1F
100
AcDbEntity
  8
躯体
  6
Continuous
 62
     2
370
     9
100
AcDbLine
 10
378.9729333826015
 20
-90.00006574829581
 30
0.0
 11
378.9729333826015
 21
-69.99999976434333
 31
0.0
  0
LINE
  5
250
330
1F
100
AcDbEntity
  8
躯体
  6
JWW_CENTER2
 62
     2
370
     9
100
AcDbLine
 10
383.4726814652961
 20
-118.9999665367102
 30
0.0
 11
377.4727030868237
 21
-118.9999665367102
 31
0.0
  0
LINE
  5
251
330
1F
100
AcDbEntity
  8
0-F
  6
Continuous
 62
     7
370
     9
100
AcDbLine
 10
381.4726721568456
 20
331.000013078962
 30
0.0
 11
385.5042586750044
 21
342.3024703213607
 31
0.0
  0
LINE
  5
252
330
1F
100
AcDbEntity
  8
0-F
  6
Continuous
 62
     7
370
     9
100
AcDbLine
 10
381.4726721568456
 20
331.000013078962
 30
0.0
 11
388.292212644599
 21
340.8740497132524
 31
0.0
  0
LINE
  5
253
330
1F
100
AcDbEntity
  8
0-E
  6
Continuous
 62
     7
370
     9
100
AcDbLine
 10
406.4495166135864
 20
379.7435335726352
 30
0.0
 11
381.4726721568456
 21
331.000013078962
 31
0.0
  0
TEXT
  5
254
330
1F
100
AcDbEntity
  8
0-E
  6
Continuous
 62
     7
370
     9
100
AcDbText
 10
407.9126422437574
 20
384.121800568943
 30
0.0
 40
9.144
  1
回転アンカー：ｔ＝２.０
 50
359.9998356259526
 41
1.152173913043478
  7
ＭＳ ゴシック
100
AcDbText
  0
LINE
  5
255
330
1F
100
AcDbEntity
  8
0-E
  6
Continuous
 62
     7
370
     9
100
AcDbLine
 10
406.4495166135864
 20
379.7435335726352
 30
0.0
 11
570.3448523003697
 21
379.7435335726352
 31
0.0
  0
TEXT
  5
256
330
1F
100
AcDbEntity
  8
0-E
  6
Continuous
 62
     7
370
     9
100
AcDbText
 10
459.7971782546762
 20
362.8344674549701
 30
0.0
 40
9.144
  1
ＳＥＣＣ
 50
0.0002100335215765
 41
1.125000000000001
  7
ＭＳ ゴシック
100
AcDbText
  0
TEXT
  5
257
330
1F
100
AcDbEntity
  8
寸法
  6
Continuous
 62
     7
370
     9
100
AcDbText
 10
407.9126373896322
 20
406.102334129828
 30
0.0
 40
9.144
  1
境界部・壁際用として使用できます
 41
1.15625
  7
ＭＳ ゴシック
100
AcDbText
  0
TEXT
  5
258
330
1F
100
AcDbEntity
  8
寸法
  6
Continuous
 62
     7
370
     9
100
AcDbText
 10
407.9126373896322
 20
421.2829011243964
 30
0.0
 40
9.144
  1
アンカーを回転・変形させることで
 41
1.15625
  7
ＭＳ ゴシック
100
AcDbText
  0
TEXT
  5
259
330
1F
100
AcDbEntity
  8
寸法
  6
Continuous
 62
     7
370
     9
100
AcDbText
 10
393.9126373896322
 20
421.2829011243964
 30
0.0
 40
9.144
  1
※
  7
ＭＳ ゴシック
100
AcDbText
  0
LINE
  5
25A
330
1F
100
AcDbEntity
  8
その他
  6
Continuous
 62
     7
370
     9
100
AcDbLine
 10
378.9729333826015
 20
-204.0000907279349
 30
0.0
 11
367.0756308065879
 21
-205.5664095491976
 31
0.0
  0
LINE
  5
25B
330
1F
100
AcDbEntity
  8
その他
  6
Continuous
 62
     7
370
     9
100
AcDbLine
 10
378.9729333826015
 20
-204.0000907279349
 30
0.0
 11
367.0756308065879
 21
-202.4337719066723
 31
0.0
  0
LINE
  5
25C
330
1F
100
AcDbEntity
  8
その他
  6
Continuous
 62
     7
370
     9
100
AcDbLine
 10
378.9729333826015
 20
-204.0000907279349
 30
0.0
 11
385.4725403656832
 21
-204.0000907279349
 31
0.0
  0
LINE
  5
25D
330
1F
100
AcDbEntity
  8
その他
  6
Continuous
 62
     7
370
     9
100
AcDbLine
 10
385.4725403656832
 20
-204.0000907279349
 30
0.0
 11
397.369878702169
 21
-202.4337764212943
 31
0.0
  0
LINE
  5
25E
330
1F
100
AcDbEntity
  8
その他
  6
Continuous
 62
     7
370
     9
100
AcDbLine
 10
385.4725403656832
 20
-204.0000907279349
 30
0.0
 11
397.369878702169
 21
-205.5664050345756
 31
0.0
  0
TEXT
  5
25F
330
1F
100
AcDbEntity
  8
その他
  6
Continuous
 62
     2
370
   211
100
AcDbText
 10
400.0594629114473
 20
-199.7440907279349
 30
0.0
 40
12.192
  1
6.5
 41
1.083333333333333
  7
ＭＳ ゴシック
100
AcDbText
  0
LINE
  5
260
330
1F
100
AcDbEntity
  8
その他
  6
Continuous
 62
     7
370
     9
100
AcDbLine
 10
385.4725403656832
 20
-204.0000907279349
 30
0.0
 11
427.5663716532644
 21
-204.0000907279349
 31
0.0
  0
LINE
  5
261
330
1F
100
AcDbEntity
  8
その他
  6
Continuous
 62
     7
370
     9
100
AcDbLine
 10
385.4725403656832
 20
-205.2000907279349
 30
0.0
 11
385.4725403656832
 21
-143.6883327052061
 31
0.0
  0
LINE
  5
262
330
1F
100
AcDbEntity
  8
その他
  6
Continuous
 62
     7
370
     9
100
AcDbLine
 10
378.9729333826015
 20
-143.6883327052061
 30
0.0
 11
378.9729333826015
 21
-205.2000996357685
 31
0.0
  0
LINE
  5
263
330
1F
100
AcDbEntity
  8
通り芯
  6
JWW_CENTER1
 62
     7
370
     9
100
AcDbLine
 10
-508.648681640625
 20
101.0
 30
0.0
 11
-68.64871463260135
 21
101.0
 31
0.0
  0
LINE
  5
264
330
1F
100
AcDbEntity
  8
通り芯
  6
JWW_CENTER1
 62
     7
370
     9
100
AcDbLine
 10
-288.6486486486486
 20
-119.0000329919763
 30
0.0
 11
-288.6486486486486
 21
321.0000329919764
 31
0.0
  0
LINE
  5
265
330
1F
100
AcDbEntity
  8
通り芯
  6
JWW_CENTER1
 62
     7
370
     9
100
AcDbLine
 10
-288.6486486486486
 20
-303.5089144320101
 30
0.0
 11
-288.6486486486486
 21
-412.1189624683277
 31
0.0
  0
LINE
  5
266
330
1F
100
AcDbEntity
  8
通り芯
  6
JWW_CENTER1
 62
     7
370
     9
100
AcDbLine
 10
294.9144188133446
 20
101.0
 30
0.0
 11
403.5243678737331
 21
101.0
 31
0.0
  0
LINE
  5
267
330
1F
100
AcDbEntity
  8
その他
  6
Continuous
 62
     7
370
     9
100
AcDbLine
 10
462.5392604518581
 20
-37.10269742398651
 30
0.0
 11
459.4066722972973
 21
-60.89730257601349
 31
0.0
  0
LINE
  5
268
330
1F
100
AcDbEntity
  8
その他
  6
Continuous
 62
     7
370
     9
100
AcDbLine
 10
459.4066722972973
 20
-37.10269742398651
 30
0.0
 11
462.5392604518581
 21
-60.89730257601349
 31
0.0
  0
TEXT
  5
269
330
1F
100
AcDbEntity
  8
0-E
  6
Continuous
 62
     7
370
     9
100
AcDbText
 10
472.4815629308578
 20
9.438916241463382
 30
0.0
 40
9.144
  1
クッション：ｔ＝３．０
 41
1.151515151515152
  7
ＭＳ ゴシック
100
AcDbText
  0
LINE
  5
26A
330
1F
100
AcDbEntity
  8
0-E
  6
Continuous
 62
     7
370
     9
100
AcDbLine
 10
468.2505116988768
 20
4.460779249294305
 30
0.0
 11
629.2522642475774
 21
4.460779249294305
 31
0.0
  0
TEXT
  5
26B
330
1F
100
AcDbEntity
  8
0-E
  6
Continuous
 62
     7
370
     9
100
AcDbText
 10
491.3513879732272
 20
-10.3051769875814
 30
0.0
 40
9.144
  1
クロロプレンゴム
 41
1.145833333333333
  7
ＭＳ ゴシック
100
AcDbText
  0
LINE
  5
26C
330
1F
100
AcDbEntity
  8
0-E
  6
Continuous
 62
     7
370
     9
100
AcDbLine
 10
375.7371139681746
 20
-57.1343097864028
 30
0.0
 11
468.2505116988768
 21
4.460779249294305
 31
0.0
  0
LINE
  5
26D
330
1F
100
AcDbEntity
  8
0-E
  6
Continuous
 62
     7
370
     9
100
AcDbLine
 10
375.7371139681746
 20
-57.1343097864028
 30
0.0
 11
384.7722244616786
 21
-49.23704580637948
 31
0.0
  0
LINE
  5
26E
330
1F
100
AcDbEntity
  8
0-E
  6
Continuous
 62
     7
370
     9
100
AcDbLine
 10
375.7371139681746
 20
-57.1343097864028
 30
0.0
 11
386.5083228594576
 21
-51.84459722140035
 31
0.0
  0
LINE
  5
26F
330
1F
100
AcDbEntity
  8
建具
  6
Continuous
 62
     4
370
     9
100
AcDbLine
 10
-485.6487047350086
 20
-387.5676269531251
 30
0.0
 11
-438.6485991606839
 21
-387.5676269531251
 31
0.0
  0
LINE
  5
270
330
1F
100
AcDbEntity
  8
建具
  6
Continuous
 62
     4
370
     9
100
AcDbLine
 10
-488.6486651446369
 20
-384.5676665434967
 30
0.0
 11
-488.6486651446369
 21
-321.5675675675676
 31
0.0
  0
LINE
  5
271
330
1F
100
AcDbEntity
  8
建具
  6
Continuous
 62
     4
370
     9
100
AcDbLine
 10
-438.6485991606839
 20
-384.5676665434967
 30
0.0
 11
-485.6487047350086
 21
-384.5676665434967
 31
0.0
  0
LINE
  5
272
330
1F
100
AcDbEntity
  8
建具
  6
Continuous
 62
     4
370
     9
100
AcDbLine
 10
-485.6487047350086
 20
-384.5676665434967
 30
0.0
 11
-485.6487047350086
 21
-321.5675675675676
 31
0.0
  0
ARC
  5
273
330
1F
100
AcDbEntity
  8
建具
  6
Continuous
 62
     4
370
     9
100
AcDbCircle
 10
-485.6487047350086
 20
-384.5676665434967
 30
0.0
 40
3.000000038662472
100
AcDbArc
 50
180.0
 51
270.0
  0
LINE
  5
274
330
1F
100
AcDbEntity
  8
ハッチ
  6
Continuous
 62
     6
370
     9
100
AcDbLine
 10
-482.1485991606844
 20
-381.5674685916384
 30
0.0
 11
-482.1485991606844
 21
-384.5674685916384
 31
0.0
  0
LINE
  5
275
330
1F
100
AcDbEntity
  8
ハッチ
  6
Continuous
 62
     6
370
     9
100
AcDbLine
 10
-444.4640209787292
 20
-381.5674685916381
 30
0.0
 11
-442.1485991606844
 21
-383.8828904096832
 31
0.0
  0
LINE
  5
276
330
1F
100
AcDbEntity
  8
ハッチ
  6
Continuous
 62
     6
370
     9
100
AcDbLine
 10
-450.1208752282225
 20
-381.5674685916386
 30
0.0
 11
-447.1208752282221
 21
-384.5674685916388
 31
0.0
  0
LINE
  5
277
330
1F
100
AcDbEntity
  8
ハッチ
  6
Continuous
 62
     6
370
     9
100
AcDbLine
 10
-455.7777294777168
 20
-381.5674685916375
 30
0.0
 11
-452.7777294777168
 21
-384.5674685916377
 31
0.0
  0
LINE
  5
278
330
1F
100
AcDbEntity
  8
ハッチ
  6
Continuous
 62
     6
370
     9
100
AcDbLine
 10
-461.4345837272092
 20
-381.5674685916384
 30
0.0
 11
-458.4345837272092
 21
-384.5674685916384
 31
0.0
  0
LINE
  5
279
330
1F
100
AcDbEntity
  8
ハッチ
  6
Continuous
 62
     6
370
     9
100
AcDbLine
 10
-467.0914379767034
 20
-381.5674685916377
 30
0.0
 11
-464.091437976703
 21
-384.5674685916379
 31
0.0
  0
LINE
  5
27A
330
1F
100
AcDbEntity
  8
ハッチ
  6
Continuous
 62
     6
370
     9
100
AcDbLine
 10
-472.7482922261959
 20
-381.5674685916381
 30
0.0
 11
-469.7482922261977
 21
-384.5674685916363
 31
0.0
  0
LINE
  5
27B
330
1F
100
AcDbEntity
  8
ハッチ
  6
Continuous
 62
     6
370
     9
100
AcDbLine
 10
-478.4051464756833
 20
-381.567468591637
 30
0.0
 11
-475.4051464756828
 21
-384.5674685916372
 31
0.0
  0
LINE
  5
27C
330
1F
100
AcDbEntity
  8
ハッチ
  6
Continuous
 62
     6
370
     9
100
AcDbLine
 10
-482.1485991606835
 20
-383.4808701561299
 30
0.0
 11
-481.0620007251757
 21
-384.5674685916377
 31
0.0
  0
LINE
  5
27D
330
1F
100
AcDbEntity
  8
ハッチ
  6
Continuous
 62
     6
370
     9
100
AcDbLine
 10
-442.1485991606844
 20
-381.5674685916384
 30
0.0
 11
-482.1485991606844
 21
-381.5674685916384
 31
0.0
  0
LINE
  5
27E
330
1F
100
AcDbEntity
  8
ハッチ
  6
Continuous
 62
     6
370
     9
100
AcDbLine
 10
-442.1485991606844
 20
-384.5674685916384
 30
0.0
 11
-442.1485991606844
 21
-381.5674685916384
 31
0.0
  0
LINE
  5
27F
330
1F
100
AcDbEntity
  8
ハッチ
  6
Continuous
 62
     6
370
     9
100
AcDbLine
 10
-482.1485991606844
 20
-384.5674685916384
 30
0.0
 11
-442.1485991606844
 21
-384.5674685916384
 31
0.0
  0
LINE
  5
280
330
1F
100
AcDbEntity
  8
建具
  6
Continuous
 62
     4
370
     9
100
AcDbLine
 10
-485.6487047350086
 20
-321.5675675675676
 30
0.0
 11
-488.6486651446369
 21
-321.5675675675676
 31
0.0
  0
LINE
  5
281
330
1F
100
AcDbEntity
  8
建具
  6
Continuous
 62
     4
370
     9
100
AcDbLine
 10
-438.6485991606839
 20
-387.5676269531251
 30
0.0
 11
-438.6485991606839
 21
-384.5676665434967
 31
0.0
  0
LINE
  5
282
330
1F
100
AcDbEntity
  8
建具
  6
Continuous
 62
     4
370
     9
100
AcDbLine
 10
-138.6486486486486
 20
-387.5676269531251
 30
0.0
 11
-138.6486486486486
 21
-384.5676665434967
 31
0.0
  0
LINE
  5
283
330
1F
100
AcDbEntity
  8
建具
  6
Continuous
 62
     4
370
     9
100
AcDbLine
 10
-92.14866844383437
 20
-384.5676665434967
 30
0.0
 11
-138.6486486486486
 21
-384.5676665434967
 31
0.0
  0
LINE
  5
284
330
1F
100
AcDbEntity
  8
建具
  6
Continuous
 62
     4
370
     9
100
AcDbLine
 10
-92.14866844383437
 20
-387.5676764410896
 30
0.0
 11
-138.6486486486486
 21
-387.5676764410896
 31
0.0
  0
ARC
  5
285
330
1F
100
AcDbEntity
  8
建具
  6
Continuous
 62
     4
370
     9
100
AcDbCircle
 10
-92.14866844383437
 20
-384.0676648938979
 30
0.0
 40
0.5000000064437454
100
AcDbArc
 50
270.0
 51
0.0
  0
ARC
  5
286
330
1F
100
AcDbEntity
  8
建具
  6
Continuous
 62
     4
370
     9
100
AcDbCircle
 10
-92.14866844383437
 20
-384.0676648938979
 30
0.0
 40
3.499999948450037
100
AcDbArc
 50
270.0
 51
0.0
  0
LINE
  5
287
330
1F
100
AcDbEntity
  8
建具
  6
Continuous
 62
     4
370
     9
100
AcDbLine
 10
-91.64864205025333
 20
-384.0676648938979
 30
0.0
 11
-91.64864205025333
 21
-321.5675675675676
 31
0.0
  0
LINE
  5
288
330
1F
100
AcDbEntity
  8
建具
  6
Continuous
 62
     4
370
     9
100
AcDbLine
 10
-88.64863215266041
 20
-384.0676648938979
 30
0.0
 11
-88.64863215266041
 21
-321.5675675675676
 31
0.0
  0
LINE
  5
289
330
1F
100
AcDbEntity
  8
仕上
  6
Continuous
 62
     3
370
     9
100
AcDbLine
 10
-441.148681640625
 20
-381.5675675675676
 30
0.0
 11
-466.1486651446368
 21
-381.5675675675676
 31
0.0
  0
LINE
  5
28A
330
1F
100
AcDbEntity
  8
仕上
  6
Continuous
 62
     3
370
     9
100
AcDbLine
 10
-136.1487146326014
 20
-381.5675675675676
 30
0.0
 11
-111.148681640625
 21
-381.5675675675676
 31
0.0
  0
LINE
  5
28B
330
1F
100
AcDbEntity
  8
ハッチ
  6
Continuous
 62
     6
370
     9
100
AcDbLine
 10
-135.1486486486486
 20
-381.5674685916384
 30
0.0
 11
-135.1486486486486
 21
-384.5674685916384
 31
0.0
  0
LINE
  5
28C
330
1F
100
AcDbEntity
  8
ハッチ
  6
Continuous
 62
     6
370
     9
100
AcDbLine
 10
-97.46407046669344
 20
-381.5674685916381
 30
0.0
 11
-95.14864864864865
 21
-383.8828904096832
 31
0.0
  0
LINE
  5
28D
330
1F
100
AcDbEntity
  8
ハッチ
  6
Continuous
 62
     6
370
     9
100
AcDbLine
 10
-103.1209247161868
 20
-381.5674685916386
 30
0.0
 11
-100.1209247161863
 21
-384.5674685916388
 31
0.0
  0
LINE
  5
28E
330
1F
100
AcDbEntity
  8
ハッチ
  6
Continuous
 62
     6
370
     9
100
AcDbLine
 10
-108.777778965681
 20
-381.5674685916375
 30
0.0
 11
-105.777778965681
 21
-384.5674685916377
 31
0.0
  0
LINE
  5
28F
330
1F
100
AcDbEntity
  8
ハッチ
  6
Continuous
 62
     6
370
     9
100
AcDbLine
 10
-114.4346332151734
 20
-381.5674685916384
 30
0.0
 11
-111.4346332151734
 21
-384.5674685916384
 31
0.0
  0
LINE
  5
290
330
1F
100
AcDbEntity
  8
ハッチ
  6
Continuous
 62
     6
370
     9
100
AcDbLine
 10
-120.0914874646677
 20
-381.5674685916377
 30
0.0
 11
-117.0914874646672
 21
-384.5674685916379
 31
0.0
  0
LINE
  5
291
330
1F
100
AcDbEntity
  8
ハッチ
  6
Continuous
 62
     6
370
     9
100
AcDbLine
 10
-125.7483417141601
 20
-381.5674685916381
 30
0.0
 11
-122.7483417141619
 21
-384.5674685916363
 31
0.0
  0
LINE
  5
292
330
1F
100
AcDbEntity
  8
ハッチ
  6
Continuous
 62
     6
370
     9
100
AcDbLine
 10
-131.4051959636475
 20
-381.567468591637
 30
0.0
 11
-128.4051959636471
 21
-384.5674685916372
 31
0.0
  0
LINE
  5
293
330
1F
100
AcDbEntity
  8
ハッチ
  6
Continuous
 62
     6
370
     9
100
AcDbLine
 10
-135.1486486486477
 20
-383.4808701561299
 30
0.0
 11
-134.06205021314
 21
-384.5674685916377
 31
0.0
  0
LINE
  5
294
330
1F
100
AcDbEntity
  8
ハッチ
  6
Continuous
 62
     6
370
     9
100
AcDbLine
 10
-95.14864864864865
 20
-381.5674685916384
 30
0.0
 11
-135.1486486486486
 21
-381.5674685916384
 31
0.0
  0
LINE
  5
295
330
1F
100
AcDbEntity
  8
ハッチ
  6
Continuous
 62
     6
370
     9
100
AcDbLine
 10
-95.14864864864865
 20
-384.5674685916384
 30
0.0
 11
-95.14864864864865
 21
-381.5674685916384
 31
0.0
  0
LINE
  5
296
330
1F
100
AcDbEntity
  8
ハッチ
  6
Continuous
 62
     6
370
     9
100
AcDbLine
 10
-135.1486486486486
 20
-384.5674685916384
 30
0.0
 11
-95.14864864864865
 21
-384.5674685916384
 31
0.0
  0
LINE
  5
297
330
1F
100
AcDbEntity
  8
その他
  6
Continuous
 62
     7
370
     9
100
AcDbLine
 10
-480.6486882390203
 20
-275.5675923115498
 30
0.0
 11
-96.64870803420604
 21
-275.5675923115498
 31
0.0
  0
TEXT
  5
298
330
1F
100
AcDbEntity
  8
その他
  6
Continuous
 62
     2
370
   211
100
AcDbText
 10
-301.6486981366131
 20
-271.3115923115498
 30
0.0
 40
12.192
  1
384
 41
1.083333333333333
  7
ＭＳ ゴシック
100
AcDbText
  0
LINE
  5
299
330
1F
100
AcDbEntity
  8
その他
  6
Continuous
 62
     7
370
     9
100
AcDbLine
 10
-483.6486981366132
 20
-241.0675923115498
 30
0.0
 11
-93.64864864864865
 21
-241.0675923115498
 31
0.0
  0
TEXT
  5
29A
330
1F
100
AcDbEntity
  8
その他
  6
Continuous
 62
     2
370
   211
100
AcDbText
 10
-301.6486733926309
 20
-236.8115857131545
 30
0.0
 40
12.192
  1
390
 41
1.083333333333333
  7
ＭＳ ゴシック
100
AcDbText
  0
LINE
  5
29B
330
1F
100
AcDbEntity
  8
その他
  6
Continuous
 62
     7
370
     9
100
AcDbLine
 10
-488.6486651446369
 20
-206.5675923115498
 30
0.0
 11
-88.64863215266041
 21
-206.5675923115498
 31
0.0
  0
TEXT
  5
29C
330
1F
100
AcDbEntity
  8
その他
  6
Continuous
 62
     2
370
   211
100
AcDbText
 10
-301.6486486486486
 20
-202.3115857131545
 30
0.0
 40
12.192
  1
400
 41
1.083333333333333
  7
ＭＳ ゴシック
100
AcDbText
  0
LINE
  5
29D
330
1F
100
AcDbEntity
  8
その他
  6
Continuous
 62
     7
370
     9
100
AcDbLine
 10
207.9730719489021
 20
-99.00006598395271
 30
0.0
 11
207.9730719489021
 21
301.0000659839527
 31
0.0
  0
TEXT
  5
29E
330
1F
100
AcDbEntity
  8
その他
  6
Continuous
 62
     2
370
   211
100
AcDbText
 10
203.7170653505069
 20
88.0
 30
0.0
 40
12.192
  1
400
 50
90.0
 41
1.083333333333333
  7
ＭＳ ゴシック
100
AcDbText
  0
LINE
  5
29F
330
1F
100
AcDbEntity
  8
その他
  6
Continuous
 62
     7
370
     9
100
AcDbLine
 10
242.4482588934372
 20
-87.00002639358104
 30
0.0
 11
242.4482588934372
 21
289.0000263935812
 31
0.0
  0
TEXT
  5
2A0
330
1F
100
AcDbEntity
  8
その他
  6
Continuous
 62
     2
370
   211
100
AcDbText
 10
238.1922522950417
 20
88.00000000000006
 30
0.0
 40
12.192
  1
376
 50
90.0
 41
1.083333333333333
  7
ＭＳ ゴシック
100
AcDbText
  0
LINE
  5
2A1
330
1F
100
AcDbEntity
  8
その他
  6
Continuous
 62
     7
370
     9
100
AcDbLine
 10
275.1464373464373
 20
-84.00001649598812
 30
0.0
 11
275.1464373464373
 21
285.9999670080236
 31
0.0
  0
TEXT
  5
2A2
330
1F
100
AcDbEntity
  8
その他
  6
Continuous
 62
     2
370
   211
100
AcDbText
 10
270.8904373464374
 20
87.99997525601776
 30
0.0
 40
12.192
  1
370
 50
90.0
 41
1.083333333333333
  7
ＭＳ ゴシック
100
AcDbText
  0
LINE
  5
2A3
330
1F
100
AcDbEntity
  8
その他
  6
Continuous
 62
     7
370
     9
100
AcDbLine
 10
460.9729663745777
 20
-48.99999999999999
 30
0.0
 11
460.9729663745777
 21
251.0
 31
0.0
  0
TEXT
  5
2A4
330
1F
100
AcDbEntity
  8
その他
  6
Continuous
 62
     2
370
   211
100
AcDbText
 10
456.7169597761825
 20
88.0
 30
0.0
 40
12.192
  1
300
 50
90.0
 41
1.083333333333333
  7
ＭＳ ゴシック
100
AcDbText
  0
LINE
  5
2A5
330
1F
100
AcDbEntity
  8
仕上
  6
Continuous
 62
     3
370
     9
100
AcDbLine
 10
-464.9486354518581
 20
-370.7675576699747
 30
0.0
 11
-464.9486354518581
 21
-380.3675378747889
 31
0.0
  0
LINE
  5
2A6
330
1F
100
AcDbEntity
  8
仕上
  6
Continuous
 62
     3
370
     9
100
AcDbLine
 10
-464.9486354518581
 20
-380.3675378747889
 30
0.0
 11
-442.3486618454392
 21
-380.3675378747889
 31
0.0
  0
LINE
  5
2A7
330
1F
100
AcDbEntity
  8
仕上
  6
Continuous
 62
     3
370
     9
100
AcDbLine
 10
-442.3486618454392
 20
-370.7675576699747
 30
0.0
 11
-464.9486354518581
 21
-370.7675576699747
 31
0.0
  0
LINE
  5
2A8
330
1F
100
AcDbEntity
  8
仕上
  6
Continuous
 62
     3
370
     9
100
AcDbLine
 10
-442.3486618454392
 20
-380.3675378747889
 30
0.0
 11
-442.3486618454392
 21
-370.7675576699747
 31
0.0
  0
LINE
  5
2A9
330
1F
100
AcDbEntity
  8
仕上
  6
Continuous
 62
     3
370
     9
100
AcDbLine
 10
-299.9486849398226
 20
-380.3675378747889
 30
0.0
 11
-277.3487113334036
 21
-380.3675378747889
 31
0.0
  0
LINE
  5
2AA
330
1F
100
AcDbEntity
  8
仕上
  6
Continuous
 62
     3
370
     9
100
AcDbLine
 10
-277.3487113334036
 20
-380.3675378747889
 30
0.0
 11
-277.3487113334036
 21
-370.7675576699747
 31
0.0
  0
LINE
  5
2AB
330
1F
100
AcDbEntity
  8
仕上
  6
Continuous
 62
     3
370
     9
100
AcDbLine
 10
-299.9486849398226
 20
-370.7675576699747
 30
0.0
 11
-299.9486849398226
 21
-380.3675378747889
 31
0.0
  0
LINE
  5
2AC
330
1F
100
AcDbEntity
  8
仕上
  6
Continuous
 62
     3
370
     9
100
AcDbLine
 10
-277.3487113334036
 20
-370.7675576699747
 30
0.0
 11
-299.9486849398226
 21
-370.7675576699747
 31
0.0
  0
LINE
  5
2AD
330
1F
100
AcDbEntity
  8
仕上
  6
Continuous
 62
     3
370
     9
100
AcDbLine
 10
-134.9486849398226
 20
-380.3675378747889
 30
0.0
 11
-112.3487113334036
 21
-380.3675378747889
 31
0.0
  0
LINE
  5
2AE
330
1F
100
AcDbEntity
  8
仕上
  6
Continuous
 62
     3
370
     9
100
AcDbLine
 10
-112.3487113334036
 20
-380.3675378747889
 30
0.0
 11
-112.3487113334036
 21
-370.7675576699747
 31
0.0
  0
LINE
  5
2AF
330
1F
100
AcDbEntity
  8
仕上
  6
Continuous
 62
     3
370
     9
100
AcDbLine
 10
-134.9486849398226
 20
-370.7675576699747
 30
0.0
 11
-134.9486849398226
 21
-380.3675378747889
 31
0.0
  0
LINE
  5
2B0
330
1F
100
AcDbEntity
  8
仕上
  6
Continuous
 62
     3
370
     9
100
AcDbLine
 10
-112.3487113334036
 20
-370.7675576699747
 30
0.0
 11
-134.9486849398226
 21
-370.7675576699747
 31
0.0
  0
TEXT
  5
2B1
330
1F
100
AcDbEntity
  8
寸法
  6
Continuous
 62
     7
370
     9
100
AcDbText
 10
501.9840548372848
 20
66.00296201766358
 30
0.0
 40
9.144
  1
□２５×１２×１.２
 41
1.149122807017544
  7
ＭＳ ゴシック
100
AcDbText
  0
ENDSEC
  0
SECTION
  2
OBJECTS
  0
DICTIONARY
  5
C
330
0
100
AcDbDictionary
281
     1
  3
ACAD_GROUP
350
D
  3
ACAD_LAYOUT
350
1A
  3
ACAD_MLEADERSTYLE
350
2B3
  3
ACAD_MLINESTYLE
350
17
  3
ACAD_PLOTSETTINGS
350
19
  3
ACAD_PLOTSTYLENAME
350
E
  3
ACAD_TABLESTYLE
350
2B2
  3
ACAD_VISUALSTYLE
350
2A
  0
DICTIONARY
  5
D
102
{ACAD_REACTORS
330
C
102
}
330
C
100
AcDbDictionary
281
     1
  0
DICTIONARY
  5
1A
102
{ACAD_REACTORS
330
C
102
}
330
C
100
AcDbDictionary
281
     1
  3
Layout1
350
1E
  3
Layout2
350
26
  3
Model
350
22
  0
DICTIONARY
  5
2B3
102
{ACAD_REACTORS
330
C
102
}
330
C
100
AcDbDictionary
281
     1
  0
DICTIONARY
  5
17
102
{ACAD_REACTORS
330
C
102
}
330
C
100
AcDbDictionary
281
     1
  3
Standard
350
18
  0
DICTIONARY
  5
19
102
{ACAD_REACTORS
330
C
102
}
330
C
100
AcDbDictionary
281
     1
  0
ACDBDICTIONARYWDFLT
  5
E
102
{ACAD_REACTORS
330
C
102
}
330
C
100
AcDbDictionary
281
     1
  3
Normal
350
F
100
AcDbDictionaryWithDefault
340
F
  0
DICTIONARY
  5
2B2
102
{ACAD_REACTORS
330
C
102
}
330
C
100
AcDbDictionary
281
     1
  0
DICTIONARY
  5
2A
102
{ACAD_REACTORS
330
C
102
}
330
C
100
AcDbDictionary
281
     1
  3
2dWireframe
350
2F
  3
3D Hidden
350
31
  3
3dWireframe
350
30
  3
Basic
350
32
  3
Brighten
350
36
  3
ColorChange
350
3A
  3
Conceptual
350
34
  3
Dim
350
35
  3
Facepattern
350
39
  3
Flat
350
2B
  3
FlatWithEdges
350
2C
  3
Gouraud
350
2D
  3
GouraudWithEdges
350
2E
  3
Linepattern
350
38
  3
Realistic
350
33
  3
Thicken
350
37
  0
LAYOUT
  5
1E
102
{ACAD_REACTORS
330
1A
102
}
330
1A
100
AcDbPlotSettings
  1

  2
none_device
  4

  6

 40
0.0
 41
0.0
 42
0.0
 43
0.0
 44
0.0
 45
0.0
 46
0.0
 47
0.0
 48
0.0
 49
0.0
140
0.0
141
0.0
142
1.0
143
1.0
 70
   688
 72
     0
 73
     0
 74
     5
  7

 75
    16
 76
     0
 77
     5
 78
   300
147
1.0
148
0.0
149
0.0
100
AcDbLayout
  1
Layout1
 70
     1
 71
     1
 10
0.0
 20
0.0
 11
420.0
 21
297.0
 12
0.0
 22
0.0
 32
0.0
 14
1.000000000000000E+20
 24
1.000000000000000E+20
 34
1.000000000000000E+20
 15
-1.000000000000000E+20
 25
-1.000000000000000E+20
 35
-1.000000000000000E+20
146
0.0
 13
0.0
 23
0.0
 33
0.0
 16
1.0
 26
0.0
 36
0.0
 17
0.0
 27
1.0
 37
0.0
 76
     0
330
1B
  0
LAYOUT
  5
26
102
{ACAD_REACTORS
330
1A
102
}
330
1A
100
AcDbPlotSettings
  1

  2
none_device
  4

  6

 40
0.0
 41
0.0
 42
0.0
 43
0.0
 44
0.0
 45
0.0
 46
0.0
 47
0.0
 48
0.0
 49
0.0
140
0.0
141
0.0
142
1.0
143
1.0
 70
   688
 72
     0
 73
     0
 74
     5
  7

 75
    16
 76
     0
 77
     5
 78
   300
147
1.0
148
0.0
149
0.0
100
AcDbLayout
  1
Layout2
 70
     1
 71
     2
 10
0.0
 20
0.0
 11
0.0
 21
0.0
 12
0.0
 22
0.0
 32
0.0
 14
0.0
 24
0.0
 34
0.0
 15
0.0
 25
0.0
 35
0.0
146
0.0
 13
0.0
 23
0.0
 33
0.0
 16
1.0
 26
0.0
 36
0.0
 17
0.0
 27
1.0
 37
0.0
 76
     0
330
23
  0
LAYOUT
  5
22
102
{ACAD_REACTORS
330
1A
102
}
330
1A
100
AcDbPlotSettings
  1

  2
none_device
  4

  6

 40
0.0
 41
0.0
 42
0.0
 43
0.0
 44
0.0
 45
0.0
 46
0.0
 47
0.0
 48
0.0
 49
0.0
140
0.0
141
0.0
142
1.0
143
1.0
 70
  1712
 72
     0
 73
     0
 74
     0
  7

 75
     0
 76
     0
 77
     5
 78
   300
147
1.0
148
0.0
149
0.0
100
AcDbLayout
  1
Model
 70
     1
 71
     0
 10
-840.0
 20
-594.0
 11
840.0
 21
594.0
 12
0.0
 22
0.0
 32
0.0
 14
-840.0
 24
-594.0
 34
0.0
 15
840.0
 25
594.0
 35
0.0
146
0.0
 13
0.0
 23
0.0
 33
0.0
 16
1.0
 26
0.0
 36
0.0
 17
0.0
 27
1.0
 37
0.0
 76
     0
330
1F
331
29
  0
MLINESTYLE
  5
18
102
{ACAD_REACTORS
330
17
102
}
330
17
100
AcDbMlineStyle
  2
Standard
 70
     0
  3

 62
   256
 51
90.0
 52
90.0
 71
     2
 49
0.5
 62
   256
  6
BYLAYER
 49
-0.5
 62
   256
  6
BYLAYER
  0
ACDBPLACEHOLDER
  5
F
102
{ACAD_REACTORS
330
E
102
}
330
E
  0
VISUALSTYLE
  5
2F
102
{ACAD_REACTORS
330
2A
102
}
330
2A
100
AcDbVisualStyle
  2
2dWireframe
 70
     4
 71
     0
 72
     2
 73
     0
 90
        0
 40
-0.6
 41
-30.0
 62
     5
 63
     7
421
 16777215
 74
     1
 91
        4
 64
     7
 65
   257
 75
     1
175
     1
 42
1.0
 92
        0
 66
   257
 43
1.0
 76
     1
 77
     6
 78
     2
 67
     7
 79
     5
170
     0
171
     0
290
     0
174
     0
 93
        1
 44
0.0
173
     0
291
     0
 45
0.0
  0
VISUALSTYLE
  5
31
102
{ACAD_REACTORS
330
2A
102
}
330
2A
100
AcDbVisualStyle
  2
3D Hidden
 70
     6
 71
     1
 72
     2
 73
     2
 90
        0
 40
-0.6
 41
-30.0
 62
     5
 63
     7
421
 16777215
 74
     2
 91
        2
 64
     7
 65
   257
 75
     2
175
     1
 42
40.0
 92
        0
 66
   257
 43
1.0
 76
     1
 77
     6
 78
     2
 67
     7
 79
     3
170
     0
171
     0
290
     0
174
     0
 93
        1
 44
0.0
173
     0
291
     0
 45
0.0
  0
VISUALSTYLE
  5
30
102
{ACAD_REACTORS
330
2A
102
}
330
2A
100
AcDbVisualStyle
  2
3dWireframe
 70
     5
 71
     0
 72
     2
 73
     0
 90
        0
 40
-0.6
 41
-30.0
 62
     5
 63
     7
421
 16777215
 74
     1
 91
        4
 64
     7
 65
   257
 75
     1
175
     1
 42
1.0
 92
        0
 66
   257
 43
1.0
 76
     1
 77
     6
 78
     2
 67
     7
 79
     5
170
     0
171
     0
290
     0
174
     0
 93
        1
 44
0.0
173
     0
291
     0
 45
0.0
  0
VISUALSTYLE
  5
32
102
{ACAD_REACTORS
330
2A
102
}
330
2A
100
AcDbVisualStyle
  2
Basic
 70
     7
 71
     1
 72
     0
 73
     1
 90
        0
 40
-0.6
 41
-30.0
 62
     5
 63
     7
421
 16777215
 74
     0
 91
        4
 64
     7
 65
   257
 75
     1
175
     1
 42
1.0
 92
        8
 66
     7
 43
1.0
 76
     1
 77
     6
 78
     2
 67
     7
 79
     5
170
     0
171
     0
290
     0
174
     0
 93
        1
 44
0.0
173
     0
291
     1
 45
0.0
  0
VISUALSTYLE
  5
36
102
{ACAD_REACTORS
330
2A
102
}
330
2A
100
AcDbVisualStyle
  2
Brighten
 70
    12
 71
     2
 72
     2
 73
     0
 90
        0
 40
-0.6
 41
-30.0
 62
     5
 63
     7
421
 16777215
 74
     1
 91
        4
 64
     7
 65
   257
 75
     1
175
     1
 42
1.0
 92
        8
 66
     7
 43
1.0
 76
     1
 77
     6
 78
     2
 67
     7
 79
     5
170
     0
171
     0
290
     0
174
     0
 93
        1
 44
50.0
173
     0
291
     1
 45
0.0
  0
VISUALSTYLE
  5
3A
102
{ACAD_REACTORS
330
2A
102
}
330
2A
100
AcDbVisualStyle
  2
ColorChange
 70
    16
 71
     2
 72
     2
 73
     3
 90
        0
 40
-0.6
 41
-30.0
 62
     5
 63
     8
421
  8421504
 74
     1
 91
        4
 64
     7
 65
   257
 75
     1
175
     1
 42
1.0
 92
        8
 66
     8
424
  8421504
 43
1.0
 76
     1
 77
     6
 78
     2
 67
     7
 79
     5
170
     0
171
     0
290
     0
174
     0
 93
        1
 44
0.0
173
     0
291
     1
 45
0.0
  0
VISUALSTYLE
  5
34
102
{ACAD_REACTORS
330
2A
102
}
330
2A
100
AcDbVisualStyle
  2
Conceptual
 70
     9
 71
     3
 72
     2
 73
     0
 90
        0
 40
-0.6
 41
-30.0
 62
     5
 63
     7
421
 16777215
 74
     2
 91
        2
 64
     7
 65
   257
 75
     1
175
     1
 42
40.0
 92
        8
 66
     7
 43
1.0
 76
     1
 77
     6
 78
     2
 67
     7
 79
     3
170
     0
171
     0
290
     0
174
     0
 93
        1
 44
0.0
173
     0
291
     0
 45
0.0
  0
VISUALSTYLE
  5
35
102
{ACAD_REACTORS
330
2A
102
}
330
2A
100
AcDbVisualStyle
  2
Dim
 70
    11
 71
     2
 72
     2
 73
     0
 90
        0
 40
-0.6
 41
-30.0
 62
     5
 63
     7
421
 16777215
 74
     1
 91
        4
 64
     7
 65
   257
 75
     1
175
     1
 42
1.0
 92
        8
 66
     7
 43
1.0
 76
     1
 77
     6
 78
     2
 67
     7
 79
     5
170
     0
171
     0
290
     0
174
     0
 93
        1
 44
-50.0
173
     0
291
     1
 45
0.0
  0
VISUALSTYLE
  5
39
102
{ACAD_REACTORS
330
2A
102
}
330
2A
100
AcDbVisualStyle
  2
Facepattern
 70
    15
 71
     2
 72
     2
 73
     0
 90
        0
 40
-0.6
 41
-30.0
 62
     5
 63
     7
421
 16777215
 74
     1
 91
        4
 64
     7
 65
   257
 75
     1
175
     1
 42
1.0
 92
        8
 66
     7
 43
1.0
 76
     1
 77
     6
 78
     2
 67
     7
 79
     5
170
     0
171
     0
290
     0
174
     0
 93
        1
 44
0.0
173
     0
291
     1
 45
0.0
  0
VISUALSTYLE
  5
2B
102
{ACAD_REACTORS
330
2A
102
}
330
2A
100
AcDbVisualStyle
  2
Flat
 70
     0
 71
     2
 72
     1
 73
     1
 90
        2
 40
-0.6
 41
30.0
 62
     5
 63
     7
421
 16777215
 74
     0
 91
        4
 64
     7
 65
   257
 75
     1
175
     1
 42
1.0
 92
        8
 66
     7
 43
1.0
 76
     1
 77
     6
 78
     2
 67
     7
 79
     5
170
     0
171
     0
290
     0
174
     0
 93
       13
 44
0.0
173
     0
291
     1
 45
0.0
  0
VISUALSTYLE
  5
2C
102
{ACAD_REACTORS
330
2A
102
}
330
2A
100
AcDbVisualStyle
  2
FlatWithEdges
 70
     1
 71
     2
 72
     1
 73
     1
 90
        2
 40
-0.6
 41
30.0
 62
     5
 63
     7
421
 16777215
 74
     1
 91
        4
 64
     7
 65
   257
 75
     1
175
     1
 42
1.0
 92
        0
 66
   257
 43
1.0
 76
     1
 77
     6
 78
     2
 67
     7
 79
     5
170
     0
171
     0
290
     0
174
     0
 93
       13
 44
0.0
173
     0
291
     1
 45
0.0
  0
VISUALSTYLE
  5
2D
102
{ACAD_REACTORS
330
2A
102
}
330
2A
100
AcDbVisualStyle
  2
Gouraud
 70
     2
 71
     2
 72
     2
 73
     1
 90
        2
 40
-0.6
 41
30.0
 62
     5
 63
     7
421
 16777215
 74
     0
 91
        4
 64
     7
 65
   257
 75
     1
175
     1
 42
1.0
 92
        0
 66
     7
 43
1.0
 76
     1
 77
     6
 78
     2
 67
     7
 79
     5
170
     0
171
     0
290
     0
174
     0
 93
       13
 44
0.0
173
     0
291
     1
 45
0.0
  0
VISUALSTYLE
  5
2E
102
{ACAD_REACTORS
330
2A
102
}
330
2A
100
AcDbVisualStyle
  2
GouraudWithEdges
 70
     3
 71
     2
 72
     2
 73
     1
 90
        2
 40
-0.6
 41
30.0
 62
     5
 63
     7
421
 16777215
 74
     1
 91
        4
 64
     7
 65
   257
 75
     1
175
     1
 42
1.0
 92
        0
 66
   257
 43
1.0
 76
     1
 77
     6
 78
     2
 67
     7
 79
     5
170
     0
171
     0
290
     0
174
     0
 93
       13
 44
0.0
173
     0
291
     1
 45
0.0
  0
VISUALSTYLE
  5
38
102
{ACAD_REACTORS
330
2A
102
}
330
2A
100
AcDbVisualStyle
  2
Linepattern
 70
    14
 71
     2
 72
     2
 73
     0
 90
        0
 40
-0.6
 41
-30.0
 62
     5
 63
     7
421
 16777215
 74
     1
 91
        4
 64
     7
 65
   257
 75
     7
175
     7
 42
1.0
 92
        8
 66
     7
 43
1.0
 76
     1
 77
     6
 78
     2
 67
     7
 79
     5
170
     0
171
     0
290
     0
174
     0
 93
        1
 44
0.0
173
     0
291
     1
 45
0.0
  0
VISUALSTYLE
  5
33
102
{ACAD_REACTORS
330
2A
102
}
330
2A
100
AcDbVisualStyle
  2
Realistic
 70
     8
 71
     2
 72
     2
 73
     0
 90
        0
 40
-0.6
 41
-30.0
 62
     5
 63
     7
421
 16777215
 74
     1
 91
        0
 64
     7
 65
   257
 75
     1
175
     1
 42
1.0
 92
        8
 66
     8
424
  7895160
 43
1.0
 76
     1
 77
     6
 78
     2
 67
     7
 79
     5
170
     0
171
     0
290
     0
174
     0
 93
       13
 44
0.0
173
     0
291
     0
 45
0.0
  0
VISUALSTYLE
  5
37
102
{ACAD_REACTORS
330
2A
102
}
330
2A
100
AcDbVisualStyle
  2
Thicken
 70
    13
 71
     2
 72
     2
 73
     0
 90
        0
 40
-0.6
 41
-30.0
 62
     5
 63
     7
421
 16777215
 74
     1
 91
        4
 64
     7
 65
   257
 75
     1
175
     1
 42
1.0
 92
       12
 66
     7
 43
1.0
 76
     1
 77
     6
 78
     2
 67
     7
 79
     5
170
     0
171
     0
290
     0
174
     0
 93
        1
 44
0.0
173
     0
291
     1
 45
0.0
  0
ENDSEC
  0
EOF
