  0
SECTION
  2
HEADER
  9
$ACADVER
  1
AC1018
  9
$ACADMAINTVER
 70
     0
  9
$DWGCODEPAGE
  3
ANSI_932
  9
$INSBASE
 10
0.0
 20
0.0
 30
0.0
  9
$EXTMIN
 10
-1050.0
 20
-742.5
 30
0.0
  9
$EXTMAX
 10
1050.0
 20
742.5
 30
0.0
  9
$LIMMIN
 10
-1050.0
 20
-742.5
  9
$LIMMAX
 10
1050.0
 20
742.5
  9
$ORTHOMODE
 70
     0
  9
$REGENMODE
 70
     1
  9
$FILLMODE
 70
     1
  9
$QTEXTMODE
 70
     0
  9
$MIRRTEXT
 70
     1
  9
$LTSCALE
 40
5.0
  9
$ATTMODE
 70
     1
  9
$TEXTSIZE
 40
2.5
  9
$TRACEWID
 40
1.0
  9
$TEXTSTYLE
  7
Standard
  9
$CLAYER
  8
0
  9
$CELTYPE
  6
ByLayer
  9
$CECOLOR
 62
   256
  9
$CELTSCALE
 40
1.0
  9
$DISPSILH
 70
     0
  9
$DIMSCALE
 40
1.0
  9
$DIMASZ
 40
2.5
  9
$DIMEXO
 40
0.625
  9
$DIMDLI
 40
3.75
  9
$DIMRND
 40
0.0
  9
$DIMDLE
 40
0.0
  9
$DIMEXE
 40
1.25
  9
$DIMTP
 40
0.0
  9
$DIMTM
 40
0.0
  9
$DIMTXT
 40
2.5
  9
$DIMCEN
 40
2.5
  9
$DIMTSZ
 40
0.0
  9
$DIMTOL
 70
     0
  9
$DIMLIM
 70
     0
  9
$DIMTIH
 70
     0
  9
$DIMTOH
 70
     0
  9
$DIMSE1
 70
     0
  9
$DIMSE2
 70
     0
  9
$DIMTAD
 70
     1
  9
$DIMZIN
 70
     8
  9
$DIMBLK
  1

  9
$DIMASO
 70
     1
  9
$DIMSHO
 70
     1
  9
$DIMPOST
  1

  9
$DIMAPOST
  1

  9
$DIMALT
 70
     0
  9
$DIMALTD
 70
     3
  9
$DIMALTF
 40
0.03937007874016
  9
$DIMLFAC
 40
1.0
  9
$DIMTOFL
 70
     1
  9
$DIMTVP
 40
0.0
  9
$DIMTIX
 70
     0
  9
$DIMSOXD
 70
     0
  9
$DIMSAH
 70
     0
  9
$DIMBLK1
  1

  9
$DIMBLK2
  1

  9
$DIMSTYLE
  2
ISO-25
  9
$DIMCLRD
 70
     0
  9
$DIMCLRE
 70
     0
  9
$DIMCLRT
 70
     0
  9
$DIMTFAC
 40
1.0
  9
$DIMGAP
 40
0.625
  9
$DIMJUST
 70
     0
  9
$DIMSD1
 70
     0
  9
$DIMSD2
 70
     0
  9
$DIMTOLJ
 70
     0
  9
$DIMTZIN
 70
     8
  9
$DIMALTZ
 70
     0
  9
$DIMALTTZ
 70
     0
  9
$DIMUPT
 70
     0
  9
$DIMDEC
 70
     2
  9
$DIMTDEC
 70
     2
  9
$DIMALTU
 70
     2
  9
$DIMALTTD
 70
     3
  9
$DIMTXSTY
  7
Standard
  9
$DIMAUNIT
 70
     0
  9
$DIMADEC
 70
     0
  9
$DIMALTRND
 40
0.0
  9
$DIMAZIN
 70
     0
  9
$DIMDSEP
 70
    44
  9
$DIMATFIT
 70
     3
  9
$DIMFRAC
 70
     0
  9
$DIMLDRBLK
  1

  9
$DIMLUNIT
 70
     2
  9
$DIMLWD
 70
    -2
  9
$DIMLWE
 70
    -2
  9
$DIMTMOVE
 70
     0
  9
$LUNITS
 70
     2
  9
$LUPREC
 70
     4
  9
$SKETCHINC
 40
1.0
  9
$FILLETRAD
 40
10.0
  9
$AUNITS
 70
     0
  9
$AUPREC
 70
     0
  9
$MENU
  1
.
  9
$ELEVATION
 40
0.0
  9
$PELEVATION
 40
0.0
  9
$THICKNESS
 40
0.0
  9
$LIMCHECK
 70
     0
  9
$CHAMFERA
 40
10.0
  9
$CHAMFERB
 40
10.0
  9
$CHAMFERC
 40
20.0
  9
$CHAMFERD
 40
0.0
  9
$SKPOLY
 70
     0
  9
$TDCREATE
 40
2456499.586139977
  9
$TDUCREATE
 40
2456499.211139977
  9
$TDUPDATE
 40
2456499.586139989
  9
$TDUUPDATE
 40
2456499.211139989
  9
$TDINDWG
 40
0.0000000116
  9
$TDUSRTIMER
 40
0.0000000116
  9
$USRTIMER
 70
     1
  9
$ANGBASE
 50
0.0
  9
$ANGDIR
 70
     0
  9
$PDMODE
 70
     0
  9
$PDSIZE
 40
0.0
  9
$PLINEWID
 40
0.0
  9
$SPLFRAME
 70
     0
  9
$SPLINETYPE
 70
     6
  9
$SPLINESEGS
 70
     8
  9
$HANDSEED
  5
232
  9
$SURFTAB1
 70
     6
  9
$SURFTAB2
 70
     6
  9
$SURFTYPE
 70
     6
  9
$SURFU
 70
     6
  9
$SURFV
 70
     6
  9
$UCSBASE
  2

  9
$UCSNAME
  2

  9
$UCSORG
 10
0.0
 20
0.0
 30
0.0
  9
$UCSXDIR
 10
1.0
 20
0.0
 30
0.0
  9
$UCSYDIR
 10
0.0
 20
1.0
 30
0.0
  9
$UCSORTHOREF
  2

  9
$UCSORTHOVIEW
 70
     0
  9
$UCSORGTOP
 10
0.0
 20
0.0
 30
0.0
  9
$UCSORGBOTTOM
 10
0.0
 20
0.0
 30
0.0
  9
$UCSORGLEFT
 10
0.0
 20
0.0
 30
0.0
  9
$UCSORGRIGHT
 10
0.0
 20
0.0
 30
0.0
  9
$UCSORGFRONT
 10
0.0
 20
0.0
 30
0.0
  9
$UCSORGBACK
 10
0.0
 20
0.0
 30
0.0
  9
$PUCSBASE
  2

  9
$PUCSNAME
  2

  9
$PUCSORG
 10
0.0
 20
0.0
 30
0.0
  9
$PUCSXDIR
 10
1.0
 20
0.0
 30
0.0
  9
$PUCSYDIR
 10
0.0
 20
1.0
 30
0.0
  9
$PUCSORTHOREF
  2

  9
$PUCSORTHOVIEW
 70
     0
  9
$PUCSORGTOP
 10
0.0
 20
0.0
 30
0.0
  9
$PUCSORGBOTTOM
 10
0.0
 20
0.0
 30
0.0
  9
$PUCSORGLEFT
 10
0.0
 20
0.0
 30
0.0
  9
$PUCSORGRIGHT
 10
0.0
 20
0.0
 30
0.0
  9
$PUCSORGFRONT
 10
0.0
 20
0.0
 30
0.0
  9
$PUCSORGBACK
 10
0.0
 20
0.0
 30
0.0
  9
$USERI1
 70
     0
  9
$USERI2
 70
     0
  9
$USERI3
 70
     0
  9
$USERI4
 70
     0
  9
$USERI5
 70
     0
  9
$USERR1
 40
0.0
  9
$USERR2
 40
0.0
  9
$USERR3
 40
0.0
  9
$USERR4
 40
0.0
  9
$USERR5
 40
0.0
  9
$WORLDVIEW
 70
     1
  9
$SHADEDGE
 70
     3
  9
$SHADEDIF
 70
    70
  9
$TILEMODE
 70
     1
  9
$MAXACTVP
 70
    64
  9
$PINSBASE
 10
0.0
 20
0.0
 30
0.0
  9
$PLIMCHECK
 70
     0
  9
$PEXTMIN
 10
1.000000000000000E+20
 20
1.000000000000000E+20
 30
1.000000000000000E+20
  9
$PEXTMAX
 10
-1.000000000000000E+20
 20
-1.000000000000000E+20
 30
-1.000000000000000E+20
  9
$PLIMMIN
 10
0.0
 20
0.0
  9
$PLIMMAX
 10
420.0
 20
297.0
  9
$UNITMODE
 70
     0
  9
$VISRETAIN
 70
     1
  9
$PLINEGEN
 70
     0
  9
$PSLTSCALE
 70
     1
  9
$TREEDEPTH
 70
  3020
  9
$CMLSTYLE
  2
Standard
  9
$CMLJUST
 70
     0
  9
$CMLSCALE
 40
20.0
  9
$PROXYGRAPHICS
 70
     1
  9
$MEASUREMENT
 70
     1
  9
$CELWEIGHT
370
    -1
  9
$ENDCAPS
280
     0
  9
$JOINSTYLE
280
     0
  9
$LWDISPLAY
290
     0
  9
$INSUNITS
 70
     4
  9
$HYPERLINKBASE
  1

  9
$STYLESHEET
  1

  9
$XEDIT
290
     1
  9
$CEPSNTYPE
380
     0
  9
$PSTYLEMODE
290
     1
  9
$FINGERPRINTGUID
  2
{2BE81ACE-CBE9-4ADF-BF03-173974DAF426}
  9
$VERSIONGUID
  2
{FAEB1C32-E019-11D5-929B-00C0DF256EC4}
  9
$EXTNAMES
290
     1
  9
$PSVPSCALE
 40
0.0
  9
$OLESTARTUP
290
     0
  9
$SORTENTS
280
   127
  9
$INDEXCTL
280
     0
  9
$HIDETEXT
280
     1
  9
$XCLIPFRAME
290
     0
  9
$HALOGAP
280
     0
  9
$OBSCOLOR
 70
   257
  9
$OBSLTYPE
280
     0
  9
$INTERSECTIONDISPLAY
280
     0
  9
$INTERSECTIONCOLOR
 70
   257
  9
$DIMASSOC
280
     2
  9
$PROJECTNAME
  1

  0
ENDSEC
  0
SECTION
  2
CLASSES
  0
CLASS
  1
ACDBDICTIONARYWDFLT
  2
AcDbDictionaryWithDefault
  3
ObjectDBX Classes
 90
        0
 91
        4
280
     0
281
     0
  0
CLASS
  1
VISUALSTYLE
  2
AcDbVisualStyle
  3
ObjectDBX Classes
 90
     4095
 91
        4
280
     0
281
     0
  0
ENDSEC
  0
SECTION
  2
TABLES
  0
TABLE
  2
VPORT
  5
8
330
0
100
AcDbSymbolTable
 70
     1
  0
VPORT
  5
29
330
8
100
AcDbSymbolTableRecord
100
AcDbViewportTableRecord
  2
*Active
 70
     0
 10
0.0
 20
0.0
 11
1.0
 21
1.0
 12
0.0
 22
0.0
 13
0.0
 23
0.0
 14
10.0
 24
10.0
 15
10.0
 25
10.0
 16
0.0
 26
0.0
 36
1.0
 17
0.0
 27
0.0
 37
0.0
 40
1633.5
 41
1.414141414141414
 42
50.0
 43
0.0
 44
0.0
 50
0.0
 51
0.0
 71
     0
 72
 10000
 73
     1
 74
     3
 75
     0
 76
     0
 77
     0
 78
     0
281
     0
 65
     1
110
0.0
120
0.0
130
0.0
111
1.0
121
0.0
131
0.0
112
0.0
122
1.0
132
0.0
 79
     0
146
0.0
  0
ENDTAB
  0
TABLE
  2
LTYPE
  5
5
330
0
100
AcDbSymbolTable
 70
     5
  0
LTYPE
  5
14
330
5
100
AcDbSymbolTableRecord
100
AcDbLinetypeTableRecord
  2
ByBlock
 70
     0
  3

 72
    65
 73
     0
 40
0.0
  0
LTYPE
  5
15
330
5
100
AcDbSymbolTableRecord
100
AcDbLinetypeTableRecord
  2
ByLayer
 70
     0
  3

 72
    65
 73
     0
 40
0.0
  0
LTYPE
  5
16
330
5
100
AcDbSymbolTableRecord
100
AcDbLinetypeTableRecord
  2
Continuous
 70
     0
  3
Solid line
 72
    65
 73
     0
 40
0.0
  0
LTYPE
  5
3C
330
5
100
AcDbSymbolTableRecord
100
AcDbLinetypeTableRecord
  2
JWW_DASHED3
 70
     0
  3
---  ------  ------  ------  ---
 72
    65
 73
     2
 40
3.386666666666667
 49
2.54
 74
     0
 49
-0.8466666666666667
 74
     0
  0
LTYPE
  5
3D
330
5
100
AcDbSymbolTableRecord
100
AcDbLinetypeTableRecord
  2
JWW_DASHED2
 70
     0
  3
--    ----    ----    ----    --
 72
    65
 73
     2
 40
3.386666666666667
 49
1.693333333333333
 74
     0
 49
-1.693333333333333
 74
     0
  0
LTYPE
  5
3E
330
5
100
AcDbSymbolTableRecord
100
AcDbLinetypeTableRecord
  2
JWW_DASHED1
 70
     0
  3
-  --  --  --  --  --  --  --  -
 72
    65
 73
     2
 40
1.693333333333333
 49
0.8466666666666667
 74
     0
 49
-0.8466666666666667
 74
     0
  0
LTYPE
  5
3F
330
5
100
AcDbSymbolTableRecord
100
AcDbLinetypeTableRecord
  2
JWW_CENTER1
 70
     0
  3
-----  --  ----------  --  -----
 72
    65
 73
     4
 40
6.773333333333333
 49
4.233333333333333
 74
     0
 49
-0.8466666666666667
 74
     0
 49
0.8466666666666667
 74
     0
 49
-0.8466666666666667
 74
     0
  0
ENDTAB
  0
TABLE
  2
LAYER
  5
2
330
0
100
AcDbSymbolTable
 70
    14
  0
LAYER
  5
10
330
2
100
AcDbSymbolTableRecord
100
AcDbLayerTableRecord
  2
0
 70
     0
 62
     7
  6
Continuous
370
    -3
390
F
  0
LAYER
  5
40
330
2
100
AcDbSymbolTableRecord
100
AcDbLayerTableRecord
  2
D-2
 70
     0
 62
     7
  6
Continuous
370
    -3
390
F
  0
LAYER
  5
41
330
2
100
AcDbSymbolTableRecord
100
AcDbLayerTableRecord
  2
D-1
 70
     0
 62
     7
  6
Continuous
370
    -3
390
F
  0
LAYER
  5
42
330
2
100
AcDbSymbolTableRecord
100
AcDbLayerTableRecord
  2
D-0
 70
     0
 62
     7
  6
Continuous
370
    -3
390
F
  0
LAYER
  5
43
330
2
100
AcDbSymbolTableRecord
100
AcDbLayerTableRecord
  2
E-2
 70
     0
 62
     7
  6
Continuous
370
    -3
390
F
  0
LAYER
  5
44
330
2
100
AcDbSymbolTableRecord
100
AcDbLayerTableRecord
  2
E-1
 70
     0
 62
     7
  6
Continuous
370
    -3
390
F
  0
LAYER
  5
45
330
2
100
AcDbSymbolTableRecord
100
AcDbLayerTableRecord
  2
E-0
 70
     0
 62
     7
  6
Continuous
370
    -3
390
F
  0
LAYER
  5
46
330
2
100
AcDbSymbolTableRecord
100
AcDbLayerTableRecord
  2
D-4
 70
     0
 62
     7
  6
Continuous
370
    -3
390
F
  0
LAYER
  5
47
330
2
100
AcDbSymbolTableRecord
100
AcDbLayerTableRecord
  2
F-1
 70
     0
 62
     7
  6
Continuous
370
    -3
390
F
  0
LAYER
  5
48
330
2
100
AcDbSymbolTableRecord
100
AcDbLayerTableRecord
  2
F-4
 70
     0
 62
     7
  6
Continuous
370
    -3
390
F
  0
LAYER
  5
49
330
2
100
AcDbSymbolTableRecord
100
AcDbLayerTableRecord
  2
E-4
 70
     0
 62
     7
  6
Continuous
370
    -3
390
F
  0
LAYER
  5
4A
330
2
100
AcDbSymbolTableRecord
100
AcDbLayerTableRecord
  2
D-5
 70
     0
 62
     7
  6
Continuous
370
    -3
390
F
  0
LAYER
  5
4B
330
2
100
AcDbSymbolTableRecord
100
AcDbLayerTableRecord
  2
F-5
 70
     0
 62
     7
  6
Continuous
370
    -3
390
F
  0
LAYER
  5
4C
330
2
100
AcDbSymbolTableRecord
100
AcDbLayerTableRecord
  2
E-5
 70
     0
 62
     7
  6
Continuous
370
    -3
390
F
  0
ENDTAB
  0
TABLE
  2
STYLE
  5
3
330
0
100
AcDbSymbolTable
 70
     2
  0
STYLE
  5
11
330
3
100
AcDbSymbolTableRecord
100
AcDbTextStyleTableRecord
  2
Standard
 70
     0
 40
0.0
 41
1.0
 50
0.0
 71
     0
 42
2.5
  3
txt
  4

1001
ACAD
1000

1071
        0
  0
STYLE
  5
3B
330
3
100
AcDbSymbolTableRecord
100
AcDbTextStyleTableRecord
  2
ＭＳ ゴシック
 70
     0
 40
1.0
 41
1.0
 50
0.0
 71
     0
 42
10.0
  3

  4

1001
ACAD
1000
MS Gothic
1071
    32817
  0
ENDTAB
  0
TABLE
  2
VIEW
  5
6
330
0
100
AcDbSymbolTable
 70
     0
  0
ENDTAB
  0
TABLE
  2
UCS
  5
7
330
0
100
AcDbSymbolTable
 70
     0
  0
ENDTAB
  0
TABLE
  2
APPID
  5
9
330
0
100
AcDbSymbolTable
 70
     1
  0
APPID
  5
12
330
9
100
AcDbSymbolTableRecord
100
AcDbRegAppTableRecord
  2
ACAD
 70
     0
  0
ENDTAB
  0
TABLE
  2
DIMSTYLE
  5
A
330
0
100
AcDbSymbolTable
 70
     1
100
AcDbDimStyleTable
  0
DIMSTYLE
105
27
330
A
100
AcDbSymbolTableRecord
100
AcDbDimStyleTableRecord
  2
ISO-25
 70
     0
 41
2.5
 42
0.625
 43
3.75
 44
1.25
 73
     0
 74
     0
 77
     1
 78
     8
140
2.5
141
2.5
143
0.03937007874016
147
0.625
171
     3
172
     1
271
     2
272
     2
274
     3
278
    44
283
     0
284
     8
340
11
  0
ENDTAB
  0
TABLE
  2
BLOCK_RECORD
  5
1
330
0
100
AcDbSymbolTable
 70
     1
  0
BLOCK_RECORD
  5
1F
330
1
100
AcDbSymbolTableRecord
100
AcDbBlockTableRecord
  2
*Model_Space
340
22
  0
BLOCK_RECORD
  5
1B
330
1
100
AcDbSymbolTableRecord
100
AcDbBlockTableRecord
  2
*Paper_Space
340
1E
  0
BLOCK_RECORD
  5
23
330
1
100
AcDbSymbolTableRecord
100
AcDbBlockTableRecord
  2
*Paper_Space0
340
26
  0
ENDTAB
  0
ENDSEC
  0
SECTION
  2
BLOCKS
  0
BLOCK
  5
20
330
1F
100
AcDbEntity
  8
0
100
AcDbBlockBegin
  2
*Model_Space
 70
     0
 10
0.0
 20
0.0
 30
0.0
  3
*Model_Space
  1

  0
ENDBLK
  5
21
330
1F
100
AcDbEntity
  8
0
100
AcDbBlockEnd
  0
BLOCK
  5
1C
330
1B
100
AcDbEntity
 67
     1
  8
0
100
AcDbBlockBegin
  2
*Paper_Space
 70
     0
 10
0.0
 20
0.0
 30
0.0
  3
*Paper_Space
  1

  0
ENDBLK
  5
1D
330
1B
100
AcDbEntity
 67
     1
  8
0
100
AcDbBlockEnd
  0
BLOCK
  5
24
330
23
100
AcDbEntity
  8
0
100
AcDbBlockBegin
  2
*Paper_Space0
 70
     0
 10
0.0
 20
0.0
 30
0.0
  3
*Paper_Space0
  1

  0
ENDBLK
  5
25
330
23
100
AcDbEntity
  8
0
100
AcDbBlockEnd
  0
ENDSEC
  0
SECTION
  2
ENTITIES
  0
LINE
  5
4D
330
1F
100
AcDbEntity
  8
D-2
  6
Continuous
 62
     3
370
     9
100
AcDbLine
 10
-318.5040448163006
 20
-131.6300923115498
 30
0.0
 11
-314.7539705843539
 21
-131.6300923115498
 31
0.0
  0
LINE
  5
4E
330
1F
100
AcDbEntity
  8
D-2
  6
Continuous
 62
     3
370
     9
100
AcDbLine
 10
-7.254069560282943
 20
-131.6300923115498
 30
0.0
 11
-3.50399532833606
 21
-131.6300923115498
 31
0.0
  0
LINE
  5
4F
330
1F
100
AcDbEntity
  8
D-2
  6
Continuous
 62
     3
370
     9
100
AcDbLine
 10
-318.5040448163006
 20
-111.6300263275971
 30
0.0
 11
-318.5040448163006
 21
-131.6300923115498
 31
0.0
  0
LINE
  5
50
330
1F
100
AcDbEntity
  8
D-2
  6
Continuous
 62
     3
370
     9
100
AcDbLine
 10
-11.00402007231835
 20
-104.1298778637035
 30
0.0
 11
-311.0040200723183
 21
-104.1298778637035
 31
0.0
  0
LINE
  5
51
330
1F
100
AcDbEntity
  8
D-2
  6
Continuous
 62
     3
370
     9
100
AcDbLine
 10
-3.50399532833606
 20
-111.6300263275971
 30
0.0
 11
-3.50399532833606
 21
-131.6300923115498
 31
0.0
  0
LINE
  5
52
330
1F
100
AcDbEntity
  8
D-2
  6
Continuous
 62
     3
370
     9
100
AcDbLine
 10
-7.254069560282943
 20
-111.6300263275971
 30
0.0
 11
-7.254069560282943
 21
-131.6300923115498
 31
0.0
  0
LINE
  5
53
330
1F
100
AcDbEntity
  8
D-2
  6
Continuous
 62
     3
370
     9
100
AcDbLine
 10
-314.7539705843539
 20
-111.6300263275971
 30
0.0
 11
-314.7539705843539
 21
-131.6300923115498
 31
0.0
  0
LINE
  5
54
330
1F
100
AcDbEntity
  8
D-2
  6
Continuous
 62
     3
370
     9
100
AcDbLine
 10
-311.0040200723183
 20
-107.879828375739
 30
0.0
 11
-11.00402007231835
 21
-107.879828375739
 31
0.0
  0
LINE
  5
55
330
1F
100
AcDbEntity
  8
D-2
  6
Continuous
 62
     3
370
     9
100
AcDbLine
 10
-314.7539705843539
 20
-131.6300923115498
 30
0.0
 11
-7.254069560282943
 21
-131.6300923115498
 31
0.0
  0
LINE
  5
56
330
1F
100
AcDbEntity
  8
D-1
  6
Continuous
 62
     7
370
     9
100
AcDbLine
 10
16.49594693570535
 20
-324.6299063192831
 30
0.0
 11
16.49594693570535
 21
-326.6299624056429
 31
0.0
  0
LINE
  5
57
330
1F
100
AcDbEntity
  8
D-1
  6
Continuous
 62
     7
370
     9
100
AcDbLine
 10
16.49594693570535
 20
-121.6300593195734
 30
0.0
 11
14.49601456925677
 21
-121.6300593195734
 31
0.0
  0
LINE
  5
58
330
1F
100
AcDbEntity
  8
D-1
  6
Continuous
 62
     7
370
     9
100
AcDbLine
 10
14.49601456925677
 20
-105.6301055083404
 30
0.0
 11
14.49601456925677
 21
-121.6300593195734
 31
0.0
  0
LINE
  5
59
330
1F
100
AcDbEntity
  8
D-1
  6
Continuous
 62
     7
370
     9
100
AcDbLine
 10
16.49594693570535
 20
-105.6301055083404
 30
0.0
 11
16.49594693570535
 21
-121.6300593195734
 31
0.0
  0
LINE
  5
5A
330
1F
100
AcDbEntity
  8
D-1
  6
Continuous
 62
     7
370
     9
100
AcDbLine
 10
2.996001372466282
 20
-101.6299933356207
 30
0.0
 11
12.49608220280834
 21
-101.6299933356207
 31
0.0
  0
LINE
  5
5B
330
1F
100
AcDbEntity
  8
D-1
  6
Continuous
 62
     7
370
     9
100
AcDbLine
 10
2.996001372466282
 20
-326.6299624056429
 30
0.0
 11
16.49594693570535
 21
-326.6299624056429
 31
0.0
  0
LINE
  5
5C
330
1F
100
AcDbEntity
  8
D-1
  6
Continuous
 62
     7
370
     9
100
AcDbLine
 10
2.996001372466282
 20
-324.6299063192831
 30
0.0
 11
16.49594693570535
 21
-324.6299063192831
 31
0.0
  0
LINE
  5
5D
330
1F
100
AcDbEntity
  8
D-1
  6
Continuous
 62
     7
370
     9
100
AcDbLine
 10
2.996001372466282
 20
-103.6300494219805
 30
0.0
 11
12.49608220280834
 21
-103.6300494219805
 31
0.0
  0
LINE
  5
5E
330
1F
100
AcDbEntity
  8
D-1
  6
Continuous
 62
     7
370
     9
100
AcDbLine
 10
0.9960690060178479
 20
-105.6301055083404
 30
0.0
 11
0.9960690060178479
 21
-129.63003622519
 31
0.0
  0
LINE
  5
5F
330
1F
100
AcDbEntity
  8
D-1
  6
Continuous
 62
     7
370
     9
100
AcDbLine
 10
-1.003987080342057
 20
-129.6297887853674
 30
0.0
 11
-1.003987080342057
 21
-105.6301055083404
 31
0.0
  0
LINE
  5
60
330
1F
100
AcDbEntity
  8
D-1
  6
Continuous
 62
     7
370
     9
100
AcDbLine
 10
-3.00404316670182
 20
-131.6300923115498
 30
0.0
 11
-16.73621100348385
 21
-131.6300923115498
 31
0.0
  0
LINE
  5
61
330
1F
100
AcDbEntity
  8
D-1
  6
Continuous
 62
     7
370
     9
100
AcDbLine
 10
-3.00404316670182
 20
-133.629900958087
 30
0.0
 11
-15.57188291807421
 21
-133.629900958087
 31
0.0
  0
LINE
  5
62
330
1F
100
AcDbEntity
  8
D-1
  6
Continuous
 62
     7
370
     9
100
AcDbLine
 10
-2.175614640519399
 20
-150.4582832955025
 30
0.0
 11
-17.98615326752525
 21
-134.6478683884079
 31
0.0
  0
LINE
  5
63
330
1F
100
AcDbEntity
  8
D-1
  6
Continuous
 62
     7
370
     9
100
AcDbLine
 10
-1.003987080342057
 20
-153.2867679080447
 30
0.0
 11
-1.003987080342057
 21
-322.6298502329233
 31
0.0
  0
LINE
  5
64
330
1F
100
AcDbEntity
  8
D-1
  6
Continuous
 62
     7
370
     9
100
AcDbLine
 10
-0.761372334248307
 20
-149.0441647091427
 30
0.0
 11
-15.74867867134714
 21
-134.0569820919552
 31
0.0
  0
LINE
  5
65
330
1F
100
AcDbEntity
  8
D-1
  6
Continuous
 62
     7
370
     9
100
AcDbLine
 10
2.996001372466282
 20
-146.6298943596917
 30
0.0
 11
0.9960690060178479
 21
-146.6298943596917
 31
0.0
  0
LINE
  5
66
330
1F
100
AcDbEntity
  8
D-1
  6
Continuous
 62
     7
370
     9
100
AcDbLine
 10
18.99607890361068
 20
-181.6300098316089
 30
0.0
 11
16.99602281725092
 21
-181.6300098316089
 31
0.0
  0
LINE
  5
67
330
1F
100
AcDbEntity
  8
D-1
  6
Continuous
 62
     7
370
     9
100
AcDbLine
 10
16.99602281725092
 20
-197.6299636428421
 30
0.0
 11
16.99602281725092
 21
-181.6300098316089
 31
0.0
  0
LINE
  5
68
330
1F
100
AcDbEntity
  8
D-1
  6
Continuous
 62
     7
370
     9
100
AcDbLine
 10
2.996001372466282
 20
-197.6299636428421
 30
0.0
 11
2.996001372466282
 21
-146.6298943596917
 31
0.0
  0
LINE
  5
69
330
1F
100
AcDbEntity
  8
D-1
  6
Continuous
 62
     7
370
     9
100
AcDbLine
 10
4.995933738914715
 20
-199.6300197292018
 30
0.0
 11
14.99596673089115
 21
-199.6300197292018
 31
0.0
  0
LINE
  5
6A
330
1F
100
AcDbEntity
  8
D-1
  6
Continuous
 62
     7
370
     9
100
AcDbLine
 10
18.99607890361068
 20
-197.6299636428421
 30
0.0
 11
18.99607890361068
 21
-181.6300098316089
 31
0.0
  0
LINE
  5
6B
330
1F
100
AcDbEntity
  8
D-1
  6
Continuous
 62
     7
370
     9
100
AcDbLine
 10
14.99596673089115
 20
-201.629828375739
 30
0.0
 11
4.995933738914715
 21
-201.629828375739
 31
0.0
  0
LINE
  5
6C
330
1F
100
AcDbEntity
  8
D-1
  6
Continuous
 62
     7
370
     9
100
AcDbLine
 10
0.9960690060178479
 20
-146.6298943596917
 30
0.0
 11
0.9960690060178479
 21
-322.6298502329233
 31
0.0
  0
LINE
  5
6D
330
1F
100
AcDbEntity
  8
D-0
  6
Continuous
 62
     3
370
     9
100
AcDbLine
 10
2.996001372466282
 20
-155.9925223685599
 30
0.0
 11
4.24594363650769
 21
-154.7424563846072
 31
0.0
  0
LINE
  5
6E
330
1F
100
AcDbEntity
  8
D-0
  6
Continuous
 62
     3
370
     9
100
AcDbLine
 10
2.996001372466282
 20
-163.4924233926309
 30
0.0
 11
4.24594363650769
 21
-164.7422419367609
 31
0.0
  0
LINE
  5
6F
330
1F
100
AcDbEntity
  8
D-0
  6
Continuous
 62
     3
370
     9
100
AcDbLine
 10
4.24594363650769
 20
-164.7422419367609
 30
0.0
 11
4.24594363650769
 21
-154.7424563846072
 31
0.0
  0
LINE
  5
70
330
1F
100
AcDbEntity
  8
D-0
  6
JWW_DASHED3
 62
     3
370
     9
100
AcDbLine
 10
17.99592714051954
 20
-154.7424563846072
 30
0.0
 11
17.99592714051954
 21
-150.9922584327492
 31
0.0
  0
LINE
  5
71
330
1F
100
AcDbEntity
  8
D-0
  6
JWW_DASHED3
 62
     3
370
     9
100
AcDbLine
 10
17.99592714051954
 20
-150.9922584327492
 30
0.0
 11
21.24530689136407
 21
-150.9922584327492
 31
0.0
  0
LINE
  5
72
330
1F
100
AcDbEntity
  8
D-0
  6
JWW_DASHED3
 62
     3
370
     9
100
AcDbLine
 10
24.4955526815879
 20
-154.2423805030617
 30
0.0
 11
24.4955526815879
 21
-165.2423178183066
 31
0.0
  0
LINE
  5
73
330
1F
100
AcDbEntity
  8
D-0
  6
JWW_DASHED3
 62
     3
370
     9
100
AcDbLine
 10
21.24530689136407
 20
-168.4924398886191
 30
0.0
 11
17.99592714051954
 21
-168.4924398886191
 31
0.0
  0
LINE
  5
74
330
1F
100
AcDbEntity
  8
D-0
  6
JWW_DASHED3
 62
     3
370
     9
100
AcDbLine
 10
17.99592714051954
 20
-168.4924398886191
 30
0.0
 11
17.99592714051954
 21
-164.7424893765836
 31
0.0
  0
LINE
  5
75
330
1F
100
AcDbEntity
  8
D-0
  6
JWW_DASHED3
 62
     3
370
     9
100
AcDbLine
 10
17.99592714051954
 20
-164.7424893765836
 30
0.0
 11
15.49579517261407
 21
-163.4924233926309
 31
0.0
  0
LINE
  5
76
330
1F
100
AcDbEntity
  8
D-0
  6
JWW_DASHED3
 62
     3
370
     9
100
AcDbLine
 10
17.14597134976785
 20
-163.4924233926309
 30
0.0
 11
17.14597134976785
 21
-155.9925223685599
 31
0.0
  0
LINE
  5
77
330
1F
100
AcDbEntity
  8
D-0
  6
JWW_DASHED3
 62
     3
370
     9
100
AcDbLine
 10
17.99592714051954
 20
-154.7424563846072
 30
0.0
 11
15.49579517261407
 21
-155.9925223685599
 31
0.0
  0
LINE
  5
78
330
1F
100
AcDbEntity
  8
D-0
  6
JWW_DASHED3
 62
     3
370
     9
100
AcDbLine
 10
17.99592714051954
 20
-154.7424563846072
 30
0.0
 11
17.99592714051954
 21
-164.7424893765836
 31
0.0
  0
LINE
  5
79
330
1F
100
AcDbEntity
  8
D-0
  6
Continuous
 62
     3
370
     9
100
AcDbLine
 10
8.746007970861598
 20
-107.1300857131546
 30
0.0
 11
14.49601456925677
 21
-107.1300857131546
 31
0.0
  0
LINE
  5
7A
330
1F
100
AcDbEntity
  8
D-0
  6
Continuous
 62
     3
370
     9
100
AcDbLine
 10
8.746007970861598
 20
-199.6300197292018
 30
0.0
 11
14.49601456925677
 21
-199.6300197292018
 31
0.0
  0
LINE
  5
7B
330
1F
100
AcDbEntity
  8
D-0
  6
Continuous
 62
     3
370
     9
100
AcDbLine
 10
23.64497829127956
 20
-193.8792708113387
 30
0.0
 11
83.74613169077293
 21
-193.8792708113387
 31
0.0
  0
LINE
  5
7C
330
1F
100
AcDbEntity
  8
D-0
  6
Continuous
 62
     3
370
     9
100
AcDbLine
 10
78.74611519478464
 20
-149.6293598896748
 30
0.0
 11
8.746007970861598
 21
-149.6293598896748
 31
0.0
  0
LINE
  5
7D
330
1F
100
AcDbEntity
  8
D-0
  6
Continuous
 62
     3
370
     9
100
AcDbLine
 10
23.64497829127956
 20
-199.6292774097339
 30
0.0
 11
83.74613169077293
 21
-199.6292774097339
 31
0.0
  0
LINE
  5
7E
330
1F
100
AcDbEntity
  8
D-0
  6
Continuous
 62
     3
370
     9
100
AcDbLine
 10
23.64460713154571
 20
-180.8800197292018
 30
0.0
 11
23.64448341163438
 21
-199.6300197292018
 31
0.0
  0
LINE
  5
7F
330
1F
100
AcDbEntity
  8
D-0
  6
Continuous
 62
     3
370
     9
100
AcDbLine
 10
8.746007970861598
 20
-175.8792609137458
 30
0.0
 11
18.64496179529141
 21
-175.879755793391
 31
0.0
  0
LINE
  5
80
330
1F
100
AcDbEntity
  8
D-0
  6
Continuous
 62
     3
370
     9
100
AcDbLine
 10
83.74613169077293
 20
-154.6296238254856
 30
0.0
 11
83.74613169077293
 21
-199.6292774097339
 31
0.0
  0
LINE
  5
81
330
1F
100
AcDbEntity
  8
D-0
  6
Continuous
 62
     3
370
     9
100
AcDbLine
 10
14.49601456925677
 20
-107.1300857131546
 30
0.0
 11
14.49601456925677
 21
-149.6293598896748
 31
0.0
  0
LINE
  5
82
330
1F
100
AcDbEntity
  8
D-0
  6
Continuous
 62
     3
370
     9
100
AcDbLine
 10
14.49601456925677
 20
-175.879755793391
 30
0.0
 11
14.49601456925677
 21
-199.6300197292018
 31
0.0
  0
LINE
  5
83
330
1F
100
AcDbEntity
  8
D-0
  6
Continuous
 62
     3
370
     9
100
AcDbLine
 10
8.746007970861598
 20
-199.6300197292018
 30
0.0
 11
8.746007970861598
 21
-107.1300857131546
 31
0.0
  0
LINE
  5
84
330
1F
100
AcDbEntity
  8
D-0
  6
JWW_DASHED3
 62
     3
370
     9
100
AcDbLine
 10
14.49601456925677
 20
-175.8792609137458
 30
0.0
 11
14.49601456925677
 21
-149.6293598896748
 31
0.0
  0
LINE
  5
85
330
1F
100
AcDbEntity
  8
D-1
  6
Continuous
 62
     7
370
     9
100
AcDbLine
 10
-338.5039870803421
 20
-324.6299063192831
 30
0.0
 11
-338.5039870803421
 21
-326.6299624056429
 31
0.0
  0
LINE
  5
86
330
1F
100
AcDbEntity
  8
D-1
  6
Continuous
 62
     7
370
     9
100
AcDbLine
 10
-338.5039870803421
 20
-121.6300593195734
 30
0.0
 11
-336.5039928539379
 21
-121.6300593195734
 31
0.0
  0
LINE
  5
87
330
1F
100
AcDbEntity
  8
D-1
  6
Continuous
 62
     7
370
     9
100
AcDbLine
 10
-336.5039928539379
 20
-105.6301055083404
 30
0.0
 11
-336.5039928539379
 21
-121.6300593195734
 31
0.0
  0
LINE
  5
88
330
1F
100
AcDbEntity
  8
D-1
  6
Continuous
 62
     7
370
     9
100
AcDbLine
 10
-338.5039870803421
 20
-105.6301055083404
 30
0.0
 11
-338.5039870803421
 21
-121.6300593195734
 31
0.0
  0
LINE
  5
89
330
1F
100
AcDbEntity
  8
D-1
  6
Continuous
 62
     7
370
     9
100
AcDbLine
 10
-325.0039796571474
 20
-101.6299933356207
 30
0.0
 11
-334.5039986275337
 21
-101.6299933356207
 31
0.0
  0
LINE
  5
8A
330
1F
100
AcDbEntity
  8
D-1
  6
Continuous
 62
     7
370
     9
100
AcDbLine
 10
-325.0039796571474
 20
-326.6299624056429
 30
0.0
 11
-338.5039870803421
 21
-326.6299624056429
 31
0.0
  0
LINE
  5
8B
330
1F
100
AcDbEntity
  8
D-1
  6
Continuous
 62
     7
370
     9
100
AcDbLine
 10
-325.0039796571474
 20
-324.6299063192831
 30
0.0
 11
-338.5039870803421
 21
-324.6299063192831
 31
0.0
  0
LINE
  5
8C
330
1F
100
AcDbEntity
  8
D-1
  6
Continuous
 62
     7
370
     9
100
AcDbLine
 10
-325.0039796571474
 20
-103.6300494219805
 30
0.0
 11
-334.5039986275337
 21
-103.6300494219805
 31
0.0
  0
LINE
  5
8D
330
1F
100
AcDbEntity
  8
D-1
  6
Continuous
 62
     7
370
     9
100
AcDbLine
 10
-323.0039854307432
 20
-105.6301055083404
 30
0.0
 11
-323.0039854307432
 21
-129.63003622519
 31
0.0
  0
LINE
  5
8E
330
1F
100
AcDbEntity
  8
D-1
  6
Continuous
 62
     7
370
     9
100
AcDbLine
 10
-321.0039912043391
 20
-129.6297887853674
 30
0.0
 11
-321.0039912043391
 21
-105.6301055083404
 31
0.0
  0
LINE
  5
8F
330
1F
100
AcDbEntity
  8
D-1
  6
Continuous
 62
     7
370
     9
100
AcDbLine
 10
-319.0039969779349
 20
-131.6300923115498
 30
0.0
 11
-305.2717672811971
 21
-131.6300923115498
 31
0.0
  0
LINE
  5
90
330
1F
100
AcDbEntity
  8
D-1
  6
Continuous
 62
     7
370
     9
100
AcDbLine
 10
-319.0039969779349
 20
-133.629900958087
 30
0.0
 11
-306.4360953666068
 21
-133.629900958087
 31
0.0
  0
LINE
  5
91
330
1F
100
AcDbEntity
  8
D-1
  6
Continuous
 62
     7
370
     9
100
AcDbLine
 10
-319.8324255041173
 20
-150.4582832955025
 30
0.0
 11
-304.0218250171557
 21
-134.6478683884079
 31
0.0
  0
LINE
  5
92
330
1F
100
AcDbEntity
  8
D-1
  6
Continuous
 62
     7
370
     9
100
AcDbLine
 10
-321.0039912043391
 20
-153.2867679080447
 30
0.0
 11
-321.0039912043391
 21
-322.6298502329233
 31
0.0
  0
LINE
  5
93
330
1F
100
AcDbEntity
  8
D-1
  6
Continuous
 62
     7
370
     9
100
AcDbLine
 10
-321.2466059504328
 20
-149.0441647091427
 30
0.0
 11
-306.259299613334
 21
-134.0569820919552
 31
0.0
  0
LINE
  5
94
330
1F
100
AcDbEntity
  8
D-1
  6
Continuous
 62
     7
370
     9
100
AcDbLine
 10
-325.0039796571474
 20
-146.6298943596917
 30
0.0
 11
-323.0039854307432
 21
-146.6298943596917
 31
0.0
  0
LINE
  5
95
330
1F
100
AcDbEntity
  8
D-1
  6
Continuous
 62
     7
370
     9
100
AcDbLine
 10
-341.003995328336
 20
-181.6300098316089
 30
0.0
 11
-339.004001101932
 21
-181.6300098316089
 31
0.0
  0
LINE
  5
96
330
1F
100
AcDbEntity
  8
D-1
  6
Continuous
 62
     7
370
     9
100
AcDbLine
 10
-339.004001101932
 20
-197.6299636428421
 30
0.0
 11
-339.004001101932
 21
-181.6300098316089
 31
0.0
  0
LINE
  5
97
330
1F
100
AcDbEntity
  8
D-1
  6
Continuous
 62
     7
370
     9
100
AcDbLine
 10
-325.0039796571474
 20
-197.6299636428421
 30
0.0
 11
-325.0039796571474
 21
-146.6298943596917
 31
0.0
  0
LINE
  5
98
330
1F
100
AcDbEntity
  8
D-1
  6
Continuous
 62
     7
370
     9
100
AcDbLine
 10
-327.0039738835515
 20
-199.6300197292018
 30
0.0
 11
-337.0040068755279
 21
-199.6300197292018
 31
0.0
  0
LINE
  5
99
330
1F
100
AcDbEntity
  8
D-1
  6
Continuous
 62
     7
370
     9
100
AcDbLine
 10
-341.003995328336
 20
-197.6299636428421
 30
0.0
 11
-341.003995328336
 21
-181.6300098316089
 31
0.0
  0
LINE
  5
9A
330
1F
100
AcDbEntity
  8
D-1
  6
Continuous
 62
     7
370
     9
100
AcDbLine
 10
-337.0040068755279
 20
-201.6300758155617
 30
0.0
 11
-327.0039738835515
 21
-201.6300758155617
 31
0.0
  0
LINE
  5
9B
330
1F
100
AcDbEntity
  8
D-1
  6
Continuous
 62
     7
370
     9
100
AcDbLine
 10
-323.0039854307432
 20
-146.6298943596917
 30
0.0
 11
-323.0039854307432
 21
-322.6298502329233
 31
0.0
  0
LINE
  5
9C
330
1F
100
AcDbEntity
  8
D-0
  6
Continuous
 62
     3
370
     9
100
AcDbLine
 10
-325.0039796571474
 20
-155.9925223685599
 30
0.0
 11
-326.2539837811444
 21
-154.7424563846072
 31
0.0
  0
LINE
  5
9D
330
1F
100
AcDbEntity
  8
D-0
  6
Continuous
 62
     3
370
     9
100
AcDbLine
 10
-325.0039796571474
 20
-163.4924233926309
 30
0.0
 11
-326.2539837811444
 21
-164.7422419367609
 31
0.0
  0
LINE
  5
9E
330
1F
100
AcDbEntity
  8
D-0
  6
Continuous
 62
     3
370
     9
100
AcDbLine
 10
-326.2539837811444
 20
-164.7422419367609
 30
0.0
 11
-326.2539837811444
 21
-154.7424563846072
 31
0.0
  0
LINE
  5
9F
330
1F
100
AcDbEntity
  8
D-0
  6
Continuous
 62
     3
370
     9
100
AcDbLine
 10
-326.2538600612331
 20
-154.7424563846072
 30
0.0
 11
-340.0039054252005
 21
-154.7424563846072
 31
0.0
  0
LINE
  5
A0
330
1F
100
AcDbEntity
  8
D-0
  6
Continuous
 62
     3
370
     9
100
AcDbLine
 10
-325.0039796571474
 20
-155.9925223685599
 30
0.0
 11
-340.0039054252005
 21
-155.9925223685599
 31
0.0
  0
LINE
  5
A1
330
1F
100
AcDbEntity
  8
D-0
  6
Continuous
 62
     3
370
     9
100
AcDbLine
 10
-325.0057735958615
 20
-163.4919285129856
 30
0.0
 11
-340.0039054252005
 21
-163.4924233926309
 31
0.0
  0
LINE
  5
A2
330
1F
100
AcDbEntity
  8
D-0
  6
Continuous
 62
     3
370
     9
100
AcDbLine
 10
-326.2539837811444
 20
-164.7424893765836
 30
0.0
 11
-340.0039054252005
 21
-164.7424893765836
 31
0.0
  0
LINE
  5
A3
330
1F
100
AcDbEntity
  8
D-0
  6
Continuous
 62
     3
370
     9
100
AcDbLine
 10
-340.0039054252005
 20
-150.9922584327492
 30
0.0
 11
-343.2533470360008
 21
-150.9922584327492
 31
0.0
  0
LINE
  5
A4
330
1F
100
AcDbEntity
  8
D-0
  6
Continuous
 62
     3
370
     9
100
AcDbLine
 10
-346.503530966269
 20
-154.2423805030617
 30
0.0
 11
-346.503530966269
 21
-165.2423178183066
 31
0.0
  0
LINE
  5
A5
330
1F
100
AcDbEntity
  8
D-0
  6
Continuous
 62
     3
370
     9
100
AcDbLine
 10
-343.2533470360008
 20
-168.4924398886191
 30
0.0
 11
-340.0039054252005
 21
-168.4924398886191
 31
0.0
  0
LINE
  5
A6
330
1F
100
AcDbEntity
  8
D-0
  6
JWW_DASHED3
 62
     3
370
     9
100
AcDbLine
 10
-340.0039054252005
 20
-164.7424893765836
 30
0.0
 11
-337.5038353172508
 21
-163.4924233926309
 31
0.0
  0
LINE
  5
A7
330
1F
100
AcDbEntity
  8
D-0
  6
Continuous
 62
     3
370
     9
100
AcDbLine
 10
-339.1538877744932
 20
-163.4924233926309
 30
0.0
 11
-339.1538877744932
 21
-155.9925223685599
 31
0.0
  0
LINE
  5
A8
330
1F
100
AcDbEntity
  8
D-0
  6
Continuous
 62
     3
370
     9
100
AcDbLine
 10
-340.0039054252005
 20
-154.7424563846072
 30
0.0
 11
-337.5038353172508
 21
-155.9925223685599
 31
0.0
  0
LINE
  5
A9
330
1F
100
AcDbEntity
  8
D-0
  6
Continuous
 62
     3
370
     9
100
AcDbLine
 10
-330.7539862555426
 20
-107.1300857131546
 30
0.0
 11
-336.5039928539379
 21
-107.1300857131546
 31
0.0
  0
LINE
  5
AA
330
1F
100
AcDbEntity
  8
D-0
  6
Continuous
 62
     3
370
     9
100
AcDbLine
 10
-330.7539862555426
 20
-199.6300197292018
 30
0.0
 11
-336.5039928539379
 21
-199.6300197292018
 31
0.0
  0
LINE
  5
AB
330
1F
100
AcDbEntity
  8
D-0
  6
JWW_DASHED3
 62
     3
370
     9
100
AcDbLine
 10
-345.6529565759607
 20
-193.8792708113387
 30
0.0
 11
-405.7541718354096
 21
-193.8792708113387
 31
0.0
  0
LINE
  5
AC
330
1F
100
AcDbEntity
  8
D-0
  6
Continuous
 62
     3
370
     9
100
AcDbLine
 10
-345.6529565759607
 20
-199.6292774097339
 30
0.0
 11
-405.7541718354096
 21
-199.6292774097339
 31
0.0
  0
LINE
  5
AD
330
1F
100
AcDbEntity
  8
D-0
  6
Continuous
 62
     3
370
     9
100
AcDbLine
 10
-345.6525854162267
 20
-180.8800197292018
 30
0.0
 11
-345.6524616963154
 21
-199.6300197292018
 31
0.0
  0
LINE
  5
AE
330
1F
100
AcDbEntity
  8
D-0
  6
Continuous
 62
     3
370
     9
100
AcDbLine
 10
-405.7541718354096
 20
-154.6296238254856
 30
0.0
 11
-405.7541718354096
 21
-199.6292774097339
 31
0.0
  0
LINE
  5
AF
330
1F
100
AcDbEntity
  8
D-0
  6
Continuous
 62
     3
370
     9
100
AcDbLine
 10
-330.7539862555426
 20
-199.6300197292018
 30
0.0
 11
-330.7539862555426
 21
-107.1300857131546
 31
0.0
  0
LINE
  5
B0
330
1F
100
AcDbEntity
  8
D-0
  6
Continuous
 62
     3
370
     9
100
AcDbLine
 10
-340.0039054252005
 20
-168.4924398886191
 30
0.0
 11
-340.0039054252005
 21
-150.9922584327492
 31
0.0
  0
LINE
  5
B1
330
1F
100
AcDbEntity
  8
D-0
  6
Continuous
 62
     3
370
     9
100
AcDbLine
 10
-336.5039928539379
 20
-107.1300857131546
 30
0.0
 11
-336.5039928539379
 21
-199.6300197292018
 31
0.0
  0
LINE
  5
B2
330
1F
100
AcDbEntity
  8
D-0
  6
Continuous
 62
     3
370
     9
100
AcDbLine
 10
-400.7540316195102
 20
-149.6293598896748
 30
0.0
 11
-336.5039928539379
 21
-149.6293598896748
 31
0.0
  0
LINE
  5
B3
330
1F
100
AcDbEntity
  8
D-0
  6
Continuous
 62
     3
370
     9
100
AcDbLine
 10
-336.5039928539379
 20
-175.879755793391
 30
0.0
 11
-340.6528782200168
 21
-175.879755793391
 31
0.0
  0
LINE
  5
B4
330
1F
100
AcDbEntity
  8
E-2
  6
Continuous
 62
     3
370
     9
100
AcDbLine
 10
-299.0805754790435
 20
292.3926853489232
 30
0.0
 11
-299.0805754790435
 21
418.3926309121622
 31
0.0
  0
LINE
  5
B5
330
1F
100
AcDbEntity
  8
E-2
  6
JWW_DASHED2
 62
     3
370
     9
100
AcDbLine
 10
-297.5805952742293
 20
293.8926655537374
 30
0.0
 11
-297.5805952742293
 21
346.4483890017948
 31
0.0
  0
LINE
  5
B6
330
1F
100
AcDbEntity
  8
E-2
  6
JWW_DASHED3
 62
     3
370
     9
100
AcDbLine
 10
-297.5805952742293
 20
364.3369272592906
 30
0.0
 11
-297.5805952742293
 21
416.892650707348
 31
0.0
  0
LINE
  5
B7
330
1F
100
AcDbEntity
  8
E-2
  6
Continuous
 62
     3
370
     9
100
AcDbLine
 10
-297.5805952742293
 20
346.4483890017948
 30
0.0
 11
-297.5805952742293
 21
364.3369272592906
 31
0.0
  0
LINE
  5
B8
330
1F
100
AcDbEntity
  8
E-2
  6
Continuous
 62
     3
370
     9
100
AcDbLine
 10
-24.58054826066288
 20
346.4483890017948
 30
0.0
 11
-24.58054826066288
 21
364.3369272592906
 31
0.0
  0
LINE
  5
B9
330
1F
100
AcDbEntity
  8
E-2
  6
Continuous
 62
     3
370
     9
100
AcDbLine
 10
-277.0805771286423
 20
398.3926886481208
 30
0.0
 11
-243.0805515598605
 21
398.3926886481208
 31
0.0
  0
LINE
  5
BA
330
1F
100
AcDbEntity
  8
E-2
  6
Continuous
 62
     3
370
     9
100
AcDbLine
 10
-277.0805771286423
 20
392.3926441089527
 30
0.0
 11
-243.0805515598605
 21
392.3926441089527
 31
0.0
  0
LINE
  5
BB
330
1F
100
AcDbEntity
  8
E-2
  6
Continuous
 62
     3
370
     9
100
AcDbLine
 10
-277.0805771286423
 20
358.3926804001267
 30
0.0
 11
-243.0805515598605
 21
358.3926804001267
 31
0.0
  0
LINE
  5
BC
330
1F
100
AcDbEntity
  8
E-2
  6
Continuous
 62
     3
370
     9
100
AcDbLine
 10
-277.0805771286423
 20
352.3926358609588
 30
0.0
 11
-243.0805515598605
 21
352.3926358609588
 31
0.0
  0
LINE
  5
BD
330
1F
100
AcDbEntity
  8
E-2
  6
Continuous
 62
     3
370
     9
100
AcDbLine
 10
-277.0805771286423
 20
318.3926721521327
 30
0.0
 11
-243.0805515598605
 21
318.3926721521327
 31
0.0
  0
LINE
  5
BE
330
1F
100
AcDbEntity
  8
E-2
  6
Continuous
 62
     3
370
     9
100
AcDbLine
 10
-277.0805771286423
 20
312.3926276129646
 30
0.0
 11
-243.0805515598605
 21
312.3926276129646
 31
0.0
  0
LINE
  5
BF
330
1F
100
AcDbEntity
  8
E-1
  6
Continuous
 62
     7
370
     9
100
AcDbLine
 10
-300.0806035222233
 20
419.3926589553421
 30
0.0
 11
-22.08041629275755
 21
419.3926589553421
 31
0.0
  0
LINE
  5
C0
330
1F
100
AcDbEntity
  8
E-1
  6
Continuous
 62
     7
370
     9
100
AcDbLine
 10
-22.08041629275755
 20
419.3926589553421
 30
0.0
 11
-22.08041629275755
 21
291.3926573057433
 31
0.0
  0
LINE
  5
C1
330
1F
100
AcDbEntity
  8
E-1
  6
Continuous
 62
     7
370
     9
100
AcDbLine
 10
-307.0806142446156
 20
426.3926078177788
 30
0.0
 11
-15.08059115023215
 21
426.3926078177788
 31
0.0
  0
LINE
  5
C2
330
1F
100
AcDbEntity
  8
E-1
  6
Continuous
 62
     7
370
     9
100
AcDbLine
 10
-15.08059115023215
 20
426.3926078177788
 30
0.0
 11
-15.08059115023215
 21
284.3927084433067
 31
0.0
  0
LINE
  5
C3
330
1F
100
AcDbEntity
  8
E-1
  6
Continuous
 62
     7
370
     9
100
AcDbLine
 10
-300.0806035222233
 20
291.3926573057433
 30
0.0
 11
-300.0806035222233
 21
419.3926589553421
 31
0.0
  0
LINE
  5
C4
330
1F
100
AcDbEntity
  8
E-1
  6
Continuous
 62
     7
370
     9
100
AcDbLine
 10
-22.08041629275755
 20
291.3926573057433
 30
0.0
 11
-300.0806035222233
 21
291.3926573057433
 31
0.0
  0
LINE
  5
C5
330
1F
100
AcDbEntity
  8
E-1
  6
Continuous
 62
     7
370
     9
100
AcDbLine
 10
-15.08059115023215
 20
284.3927084433067
 30
0.0
 11
-307.0806142446156
 21
284.3927084433067
 31
0.0
  0
LINE
  5
C6
330
1F
100
AcDbEntity
  8
E-1
  6
Continuous
 62
     7
370
     9
100
AcDbLine
 10
-307.0806142446156
 20
284.3927084433067
 30
0.0
 11
-307.0806142446156
 21
426.3926078177788
 31
0.0
  0
LINE
  5
C7
330
1F
100
AcDbEntity
  8
E-0
  6
Continuous
 62
     3
370
     9
100
AcDbLine
 10
-130.0805993982263
 20
451.2926008894638
 30
0.0
 11
-130.0805993982263
 21
431.2926586254224
 31
0.0
  0
LINE
  5
C8
330
1F
100
AcDbEntity
  8
E-0
  6
Continuous
 62
     3
370
     9
100
AcDbLine
 10
-132.0806554845861
 20
453.2926569758235
 30
0.0
 11
-150.080665382179
 21
453.2926569758235
 31
0.0
  0
LINE
  5
C9
330
1F
100
AcDbEntity
  8
E-0
  6
JWW_DASHED1
 62
     3
370
     9
100
AcDbLine
 10
-147.7807122307854
 20
429.2927262589739
 30
0.0
 11
-150.080665382179
 21
429.2927262589739
 31
0.0
  0
LINE
  5
CA
330
1F
100
AcDbEntity
  8
E-0
  6
Continuous
 62
     3
370
     9
100
AcDbLine
 10
-132.0806554845861
 20
429.2927262589739
 30
0.0
 11
-147.7807122307854
 21
429.2927262589739
 31
0.0
  0
LINE
  5
CB
330
1F
100
AcDbEntity
  8
E-0
  6
Continuous
 62
     3
370
     9
100
AcDbLine
 10
-150.080665382179
 20
426.3926078177788
 30
0.0
 11
-150.080665382179
 21
453.2926569758235
 31
0.0
  0
LINE
  5
CC
330
1F
100
AcDbEntity
  8
E-0
  6
Continuous
 62
     3
370
     9
100
AcDbLine
 10
-147.7807122307854
 20
426.3926078177788
 30
0.0
 11
-147.7807122307854
 21
453.2926569758235
 31
0.0
  0
LINE
  5
CD
330
1F
100
AcDbEntity
  8
E-0
  6
Continuous
 62
     3
370
     9
100
AcDbLine
 10
-164.5806389885979
 20
428.8926160657729
 30
0.0
 11
-164.5806389885979
 21
430.1924174540753
 31
0.0
  0
LINE
  5
CE
330
1F
100
AcDbEntity
  8
E-0
  6
Continuous
 62
     3
370
     9
100
AcDbLine
 10
-163.2806520204286
 20
431.4924662822003
 30
0.0
 11
-158.880615234375
 21
431.4924662822003
 31
0.0
  0
LINE
  5
CF
330
1F
100
AcDbEntity
  8
E-0
  6
Continuous
 62
     3
370
     9
100
AcDbLine
 10
-157.5806282662056
 20
430.1924174540753
 30
0.0
 11
-157.5806282662056
 21
428.8926160657729
 31
0.0
  0
LINE
  5
D0
330
1F
100
AcDbEntity
  8
E-0
  6
Continuous
 62
     3
370
     9
100
AcDbLine
 10
-159.0806084710198
 20
428.8926160657729
 30
0.0
 11
-159.5806224926098
 21
427.892588022593
 31
0.0
  0
LINE
  5
D1
330
1F
100
AcDbEntity
  8
E-0
  6
Continuous
 62
     3
370
     9
100
AcDbLine
 10
-159.5806224926098
 20
428.5526337494721
 30
0.0
 11
-162.5805829022381
 21
428.5526337494721
 31
0.0
  0
LINE
  5
D2
330
1F
100
AcDbEntity
  8
E-0
  6
Continuous
 62
     3
370
     9
100
AcDbLine
 10
-163.0806587837837
 20
428.8926160657729
 30
0.0
 11
-162.5805829022381
 21
427.892588022593
 31
0.0
  0
LINE
  5
D3
330
1F
100
AcDbEntity
  8
E-0
  6
Continuous
 62
     3
370
     9
100
AcDbLine
 10
-162.5805829022381
 20
426.3926078177788
 30
0.0
 11
-162.5805829022381
 21
428.8926160657729
 31
0.0
  0
LINE
  5
D4
330
1F
100
AcDbEntity
  8
E-0
  6
Continuous
 62
     3
370
     9
100
AcDbLine
 10
-163.0806587837837
 20
426.3926078177788
 30
0.0
 11
-163.0806587837837
 21
428.8926160657729
 31
0.0
  0
LINE
  5
D5
330
1F
100
AcDbEntity
  8
E-0
  6
Continuous
 62
     3
370
     9
100
AcDbLine
 10
-159.5806843525654
 20
426.3926078177788
 30
0.0
 11
-159.5806224926098
 21
428.8926160657729
 31
0.0
  0
LINE
  5
D6
330
1F
100
AcDbEntity
  8
E-0
  6
Continuous
 62
     3
370
     9
100
AcDbLine
 10
-159.0806084710198
 20
426.3926078177788
 30
0.0
 11
-159.0806084710198
 21
428.8926160657729
 31
0.0
  0
LINE
  5
D7
330
1F
100
AcDbEntity
  8
E-0
  6
Continuous
 62
     3
370
     9
100
AcDbLine
 10
-157.5806282662056
 20
428.8926160657729
 30
0.0
 11
-164.5806389885979
 21
428.8926160657729
 31
0.0
  0
LINE
  5
D8
330
1F
100
AcDbEntity
  8
E-0
  6
Continuous
 62
     3
370
     9
100
AcDbLine
 10
9.819525641364066
 20
324.3925929713895
 30
0.0
 11
-10.18054034258867
 21
324.3925929713895
 31
0.0
  0
LINE
  5
D9
330
1F
100
AcDbEntity
  8
E-0
  6
Continuous
 62
     3
370
     9
100
AcDbLine
 10
11.81958172772383
 20
326.3926490577492
 30
0.0
 11
11.81958172772383
 21
344.3926589553421
 31
0.0
  0
LINE
  5
DA
330
1F
100
AcDbEntity
  8
E-0
  6
JWW_DASHED1
 62
     3
370
     9
100
AcDbLine
 10
-12.18059642894843
 20
342.0927058039485
 30
0.0
 11
-12.18059642894843
 21
344.3926589553421
 31
0.0
  0
LINE
  5
DB
330
1F
100
AcDbEntity
  8
E-0
  6
Continuous
 62
     3
370
     9
100
AcDbLine
 10
-12.18059642894843
 20
326.3926490577492
 30
0.0
 11
-12.18059642894843
 21
342.0927058039485
 31
0.0
  0
LINE
  5
DC
330
1F
100
AcDbEntity
  8
E-0
  6
Continuous
 62
     3
370
     9
100
AcDbLine
 10
-15.08059115023215
 20
344.3926589553421
 30
0.0
 11
11.81958172772383
 21
344.3926589553421
 31
0.0
  0
LINE
  5
DD
330
1F
100
AcDbEntity
  8
E-0
  6
Continuous
 62
     3
370
     9
100
AcDbLine
 10
-15.08059115023215
 20
342.0927058039485
 30
0.0
 11
11.81958172772383
 21
342.0927058039485
 31
0.0
  0
LINE
  5
DE
330
1F
100
AcDbEntity
  8
E-0
  6
Continuous
 62
     3
370
     9
100
AcDbLine
 10
-12.58045918232682
 20
358.892632561761
 30
0.0
 11
-11.28065779402448
 21
358.892632561761
 31
0.0
  0
LINE
  5
DF
330
1F
100
AcDbEntity
  8
E-0
  6
Continuous
 62
     3
370
     9
100
AcDbLine
 10
-9.980608965899478
 20
357.5927074535474
 30
0.0
 11
-9.980608965899478
 21
353.192608807538
 31
0.0
  0
LINE
  5
E0
330
1F
100
AcDbEntity
  8
E-0
  6
Continuous
 62
     3
370
     9
100
AcDbLine
 10
-11.28065779402448
 20
351.8926836993244
 30
0.0
 11
-12.58045918232682
 21
351.8926836993244
 31
0.0
  0
LINE
  5
E1
330
1F
100
AcDbEntity
  8
E-0
  6
Continuous
 62
     3
370
     9
100
AcDbLine
 10
-12.58045918232682
 20
353.3926639041385
 30
0.0
 11
-13.58061094541796
 21
353.8926160657729
 31
0.0
  0
LINE
  5
E2
330
1F
100
AcDbEntity
  8
E-0
  6
Continuous
 62
     3
370
     9
100
AcDbLine
 10
-12.92044149862747
 20
353.8926160657729
 30
0.0
 11
-12.92044149862747
 21
356.8925764754013
 31
0.0
  0
LINE
  5
E3
330
1F
100
AcDbEntity
  8
E-0
  6
Continuous
 62
     3
370
     9
100
AcDbLine
 10
-12.58045918232682
 20
357.3926523569469
 30
0.0
 11
-13.58061094541796
 21
356.8925764754013
 31
0.0
  0
LINE
  5
E4
330
1F
100
AcDbEntity
  8
E-0
  6
Continuous
 62
     3
370
     9
100
AcDbLine
 10
-15.08059115023215
 20
356.8925764754013
 30
0.0
 11
-12.58045918232682
 21
356.8925764754013
 31
0.0
  0
LINE
  5
E5
330
1F
100
AcDbEntity
  8
E-0
  6
Continuous
 62
     3
370
     9
100
AcDbLine
 10
-15.08059115023215
 20
357.3926523569469
 30
0.0
 11
-12.58045918232682
 21
357.3926523569469
 31
0.0
  0
LINE
  5
E6
330
1F
100
AcDbEntity
  8
E-0
  6
Continuous
 62
     3
370
     9
100
AcDbLine
 10
-15.08059115023215
 20
353.8926160657729
 30
0.0
 11
-12.58045918232682
 21
353.8926160657729
 31
0.0
  0
LINE
  5
E7
330
1F
100
AcDbEntity
  8
E-0
  6
Continuous
 62
     3
370
     9
100
AcDbLine
 10
-15.08059115023215
 20
353.3926639041385
 30
0.0
 11
-12.58045918232682
 21
353.3926639041385
 31
0.0
  0
LINE
  5
E8
330
1F
100
AcDbEntity
  8
E-0
  6
Continuous
 62
     3
370
     9
100
AcDbLine
 10
-12.58045918232682
 20
351.8926836993244
 30
0.0
 11
-12.58045918232682
 21
358.892632561761
 31
0.0
  0
LINE
  5
E9
330
1F
100
AcDbEntity
  8
E-0
  6
Continuous
 62
     3
370
     9
100
AcDbLine
 10
-331.9806073163006
 20
386.3925995697846
 30
0.0
 11
-311.9806031923036
 21
386.3925995697846
 31
0.0
  0
LINE
  5
EA
330
1F
100
AcDbEntity
  8
E-0
  6
Continuous
 62
     3
370
     9
100
AcDbLine
 10
-333.9806015427048
 20
384.3926672033362
 30
0.0
 11
-333.9806015427048
 21
366.3926573057433
 31
0.0
  0
LINE
  5
EB
330
1F
100
AcDbEntity
  8
E-0
  6
JWW_DASHED1
 62
     3
370
     9
100
AcDbLine
 10
-309.9806089658995
 20
368.6926104571369
 30
0.0
 11
-309.9806089658995
 21
366.3926573057433
 31
0.0
  0
LINE
  5
EC
330
1F
100
AcDbEntity
  8
E-0
  6
Continuous
 62
     3
370
     9
100
AcDbLine
 10
-309.9806089658995
 20
384.3926672033362
 30
0.0
 11
-309.9806089658995
 21
368.6926104571369
 31
0.0
  0
LINE
  5
ED
330
1F
100
AcDbEntity
  8
E-0
  6
Continuous
 62
     3
370
     9
100
AcDbLine
 10
-307.0806142446156
 20
366.3926573057433
 30
0.0
 11
-333.9806015427048
 21
366.3926573057433
 31
0.0
  0
LINE
  5
EE
330
1F
100
AcDbEntity
  8
E-0
  6
Continuous
 62
     3
370
     9
100
AcDbLine
 10
-307.0806142446156
 20
368.6926104571369
 30
0.0
 11
-333.9806015427048
 21
368.6926104571369
 31
0.0
  0
LINE
  5
EF
330
1F
100
AcDbEntity
  8
E-0
  6
Continuous
 62
     3
370
     9
100
AcDbLine
 10
-309.5805606326541
 20
351.892559979413
 30
0.0
 11
-310.8803001610008
 21
351.892559979413
 31
0.0
  0
LINE
  5
F0
330
1F
100
AcDbEntity
  8
E-0
  6
Continuous
 62
     3
370
     9
100
AcDbLine
 10
-312.1804108490815
 20
353.192608807538
 30
0.0
 11
-312.1804108490815
 21
357.592583733636
 31
0.0
  0
LINE
  5
F1
330
1F
100
AcDbEntity
  8
E-0
  6
Continuous
 62
     3
370
     9
100
AcDbLine
 10
-310.8803001610008
 20
358.892632561761
 30
0.0
 11
-309.5805606326541
 21
358.892632561761
 31
0.0
  0
LINE
  5
F2
330
1F
100
AcDbEntity
  8
E-0
  6
Continuous
 62
     3
370
     9
100
AcDbLine
 10
-309.5805606326541
 20
357.3926523569469
 30
0.0
 11
-308.5805325894742
 21
356.8927001953125
 31
0.0
  0
LINE
  5
F3
330
1F
100
AcDbEntity
  8
E-0
  6
Continuous
 62
     3
370
     9
100
AcDbLine
 10
-309.2405164563978
 20
356.8927001953125
 30
0.0
 11
-309.2405164563978
 21
353.8926160657729
 31
0.0
  0
LINE
  5
F4
330
1F
100
AcDbEntity
  8
E-0
  6
Continuous
 62
     3
370
     9
100
AcDbLine
 10
-309.5805606326541
 20
353.3926639041385
 30
0.0
 11
-308.5805325894742
 21
353.8926160657729
 31
0.0
  0
LINE
  5
F5
330
1F
100
AcDbEntity
  8
E-0
  6
Continuous
 62
     3
370
     9
100
AcDbLine
 10
-307.0806142446156
 20
353.8926160657729
 30
0.0
 11
-309.5805606326541
 21
353.8926160657729
 31
0.0
  0
LINE
  5
F6
330
1F
100
AcDbEntity
  8
E-0
  6
Continuous
 62
     3
370
     9
100
AcDbLine
 10
-307.0806142446156
 20
353.3926639041385
 30
0.0
 11
-309.5805606326541
 21
353.3926639041385
 31
0.0
  0
LINE
  5
F7
330
1F
100
AcDbEntity
  8
E-0
  6
Continuous
 62
     3
370
     9
100
AcDbLine
 10
-307.0806142446156
 20
356.8925764754013
 30
0.0
 11
-309.5805606326541
 21
356.8927001953125
 31
0.0
  0
LINE
  5
F8
330
1F
100
AcDbEntity
  8
E-0
  6
Continuous
 62
     3
370
     9
100
AcDbLine
 10
-307.0806142446156
 20
357.3926523569469
 30
0.0
 11
-309.5805606326541
 21
357.3926523569469
 31
0.0
  0
LINE
  5
F9
330
1F
100
AcDbEntity
  8
E-0
  6
Continuous
 62
     3
370
     9
100
AcDbLine
 10
-309.5805606326541
 20
358.892632561761
 30
0.0
 11
-309.5805606326541
 21
351.892559979413
 31
0.0
  0
LINE
  5
FA
330
1F
100
AcDbEntity
  8
E-0
  6
Continuous
 62
     3
370
     9
100
AcDbLine
 10
-192.0806059966216
 20
259.4925916517104
 30
0.0
 11
-192.0806059966216
 21
279.492657635663
 31
0.0
  0
LINE
  5
FB
330
1F
100
AcDbEntity
  8
E-0
  6
Continuous
 62
     3
370
     9
100
AcDbLine
 10
-190.0806117702174
 20
257.4926592852619
 30
0.0
 11
-172.0806018726245
 21
257.4926592852619
 31
0.0
  0
LINE
  5
FC
330
1F
100
AcDbEntity
  8
E-0
  6
JWW_DASHED1
 62
     3
370
     9
100
AcDbLine
 10
-174.3806168839738
 20
281.4927137220229
 30
0.0
 11
-172.0806018726245
 21
281.4927137220229
 31
0.0
  0
LINE
  5
FD
330
1F
100
AcDbEntity
  8
E-0
  6
Continuous
 62
     3
370
     9
100
AcDbLine
 10
-190.0806117702174
 20
281.4927137220229
 30
0.0
 11
-174.3806168839738
 21
281.4927137220229
 31
0.0
  0
LINE
  5
FE
330
1F
100
AcDbEntity
  8
E-0
  6
Continuous
 62
     3
370
     9
100
AcDbLine
 10
-172.0806018726245
 20
284.3927084433067
 30
0.0
 11
-172.0806018726245
 21
257.4926592852619
 31
0.0
  0
LINE
  5
FF
330
1F
100
AcDbEntity
  8
E-0
  6
Continuous
 62
     3
370
     9
100
AcDbLine
 10
-174.3806168839738
 20
284.3927084433067
 30
0.0
 11
-174.3806168839738
 21
257.4926592852619
 31
0.0
  0
LINE
  5
100
330
1F
100
AcDbEntity
  8
E-0
  6
Continuous
 62
     3
370
     9
100
AcDbLine
 10
-157.58056640625
 20
281.8927001953125
 30
0.0
 11
-157.58056640625
 21
280.5928988070102
 31
0.0
  0
LINE
  5
101
330
1F
100
AcDbEntity
  8
E-0
  6
Continuous
 62
     3
370
     9
100
AcDbLine
 10
-158.880615234375
 20
279.2928499788852
 30
0.0
 11
-163.2805901604729
 21
279.2928499788852
 31
0.0
  0
LINE
  5
102
330
1F
100
AcDbEntity
  8
E-0
  6
Continuous
 62
     3
370
     9
100
AcDbLine
 10
-164.5806389885979
 20
280.5928988070102
 30
0.0
 11
-164.5806389885979
 21
281.8927001953125
 31
0.0
  0
LINE
  5
103
330
1F
100
AcDbEntity
  8
E-0
  6
Continuous
 62
     3
370
     9
100
AcDbLine
 10
-163.0806587837837
 20
281.8927001953125
 30
0.0
 11
-162.5806447621937
 21
282.8927282384925
 31
0.0
  0
LINE
  5
104
330
1F
100
AcDbEntity
  8
E-0
  6
Continuous
 62
     3
370
     9
100
AcDbLine
 10
-162.5806447621937
 20
282.2326825116133
 30
0.0
 11
-159.5806224926098
 21
282.2326825116133
 31
0.0
  0
LINE
  5
105
330
1F
100
AcDbEntity
  8
E-0
  6
Continuous
 62
     3
370
     9
100
AcDbLine
 10
-159.0806084710198
 20
281.8927001953125
 30
0.0
 11
-159.5806224926098
 21
282.8927282384925
 31
0.0
  0
LINE
  5
106
330
1F
100
AcDbEntity
  8
E-0
  6
Continuous
 62
     3
370
     9
100
AcDbLine
 10
-159.5806224926098
 20
284.3927084433067
 30
0.0
 11
-159.5806224926098
 21
281.8927001953125
 31
0.0
  0
LINE
  5
107
330
1F
100
AcDbEntity
  8
E-0
  6
Continuous
 62
     3
370
     9
100
AcDbLine
 10
-159.0806084710198
 20
284.3927084433067
 30
0.0
 11
-159.0806084710198
 21
281.8927001953125
 31
0.0
  0
LINE
  5
108
330
1F
100
AcDbEntity
  8
E-0
  6
Continuous
 62
     3
370
     9
100
AcDbLine
 10
-162.5805829022381
 20
284.3927084433067
 30
0.0
 11
-162.5806447621937
 21
281.8927001953125
 31
0.0
  0
LINE
  5
109
330
1F
100
AcDbEntity
  8
E-0
  6
Continuous
 62
     3
370
     9
100
AcDbLine
 10
-163.0806587837837
 20
284.3927084433067
 30
0.0
 11
-163.0806587837837
 21
281.8927001953125
 31
0.0
  0
LINE
  5
10A
330
1F
100
AcDbEntity
  8
E-0
  6
Continuous
 62
     3
370
     9
100
AcDbLine
 10
-164.5806389885979
 20
281.8927001953125
 30
0.0
 11
-157.58056640625
 21
281.8927001953125
 31
0.0
  0
LINE
  5
10B
330
1F
100
AcDbEntity
  8
D-4
  6
Continuous
 62
     7
370
     9
100
AcDbLine
 10
-338.5039870803421
 20
-65.31646728515625
 30
0.0
 11
-321.0039912043391
 21
-65.31646728515625
 31
0.0
  0
LINE
  5
10C
330
1F
100
AcDbEntity
  8
D-4
  6
Continuous
 62
     7
370
     9
100
AcDbLine
 10
-338.5039870803421
 20
-91.17479478990703
 30
0.0
 11
-338.5039870803421
 21
-63.81648708034206
 31
0.0
  0
LINE
  5
10D
330
1F
100
AcDbEntity
  8
D-4
  6
Continuous
 62
     7
370
     9
100
AcDbLine
 10
-321.0039912043391
 20
-91.17479478990703
 30
0.0
 11
-321.0039912043391
 21
-63.81648708034206
 31
0.0
  0
LINE
  5
10E
330
1F
100
AcDbEntity
  8
D-4
  6
Continuous
 62
     7
370
     9
100
AcDbLine
 10
-321.0039912043391
 20
-65.31646728515625
 30
0.0
 11
-318.5040448163006
 21
-65.31646728515625
 31
0.0
  0
LINE
  5
10F
330
1F
100
AcDbEntity
  8
D-4
  6
Continuous
 62
     7
370
     9
100
AcDbLine
 10
-318.5040448163006
 20
-91.17479478990703
 30
0.0
 11
-318.5040448163006
 21
-63.81648708034206
 31
0.0
  0
LINE
  5
110
330
1F
100
AcDbEntity
  8
D-4
  6
Continuous
 62
     7
370
     9
100
AcDbLine
 10
-318.5040448163006
 20
-65.31646728515625
 30
0.0
 11
-3.50399532833606
 21
-65.31646728515625
 31
0.0
  0
LINE
  5
111
330
1F
100
AcDbEntity
  8
D-4
  6
Continuous
 62
     7
370
     9
100
AcDbLine
 10
-3.50399532833606
 20
-91.17479478990703
 30
0.0
 11
-3.50399532833606
 21
-63.81648708034206
 31
0.0
  0
LINE
  5
112
330
1F
100
AcDbEntity
  8
D-4
  6
Continuous
 62
     7
370
     9
100
AcDbLine
 10
-3.50399532833606
 20
-65.31646728515625
 30
0.0
 11
-1.003987080342057
 21
-65.31646728515625
 31
0.0
  0
LINE
  5
113
330
1F
100
AcDbEntity
  8
D-4
  6
Continuous
 62
     7
370
     9
100
AcDbLine
 10
-1.003987080342057
 20
-91.17479478990703
 30
0.0
 11
-1.003987080342057
 21
-63.81648708034206
 31
0.0
  0
LINE
  5
114
330
1F
100
AcDbEntity
  8
D-4
  6
Continuous
 62
     7
370
     9
100
AcDbLine
 10
-1.003987080342057
 20
-65.31646728515625
 30
0.0
 11
16.49594693570535
 21
-65.31646728515625
 31
0.0
  0
LINE
  5
115
330
1F
100
AcDbEntity
  8
D-4
  6
Continuous
 62
     7
370
     9
100
AcDbLine
 10
16.49594693570535
 20
-91.17479478990703
 30
0.0
 11
16.49594693570535
 21
-63.81648708034206
 31
0.0
  0
LINE
  5
116
330
1F
100
AcDbEntity
  8
D-4
  6
Continuous
 62
     7
370
     9
100
AcDbLine
 10
-338.5039870803421
 20
-28.11784898912578
 30
0.0
 11
16.49594693570535
 21
-28.11784898912578
 31
0.0
  0
LINE
  5
117
330
1F
100
AcDbEntity
  8
D-4
  6
Continuous
 62
     7
370
     9
100
AcDbLine
 10
-338.5039870803421
 20
-65.31646728515625
 30
0.0
 11
-338.5039870803421
 21
-26.61786878431158
 31
0.0
  0
LINE
  5
118
330
1F
100
AcDbEntity
  8
D-4
  6
Continuous
 62
     7
370
     9
100
AcDbLine
 10
16.49594693570535
 20
-65.31646728515625
 30
0.0
 11
16.49594693570535
 21
-26.61786878431158
 31
0.0
  0
LINE
  5
119
330
1F
100
AcDbEntity
  8
D-4
  6
Continuous
 62
     7
370
     9
100
AcDbLine
 10
-303.5039334683805
 20
-188.2013929212415
 30
0.0
 11
-18.50404481630065
 21
-188.2013929212415
 31
0.0
  0
LINE
  5
11A
330
1F
100
AcDbEntity
  8
D-4
  6
Continuous
 62
     7
370
     9
100
AcDbLine
 10
-303.5039334683805
 20
-142.6081312024915
 30
0.0
 11
-303.5039334683805
 21
-189.7013731260557
 31
0.0
  0
LINE
  5
11B
330
1F
100
AcDbEntity
  8
D-4
  6
Continuous
 62
     7
370
     9
100
AcDbLine
 10
-18.50404481630065
 20
-142.6081312024915
 30
0.0
 11
-18.50404481630065
 21
-189.7013731260557
 31
0.0
  0
LINE
  5
11C
330
1F
100
AcDbEntity
  8
D-4
  6
Continuous
 62
     7
370
     9
100
AcDbLine
 10
-338.5039870803421
 20
-374.2228162610853
 30
0.0
 11
16.49594693570535
 21
-374.2228162610853
 31
0.0
  0
LINE
  5
11D
330
1F
100
AcDbEntity
  8
D-4
  6
Continuous
 62
     7
370
     9
100
AcDbLine
 10
-338.5039870803421
 20
-333.4161851212785
 30
0.0
 11
-338.5039870803421
 21
-375.7228273958773
 31
0.0
  0
LINE
  5
11E
330
1F
100
AcDbEntity
  8
D-4
  6
Continuous
 62
     7
370
     9
100
AcDbLine
 10
16.49594693570535
 20
-333.4161851212785
 30
0.0
 11
16.49594693570535
 21
-375.7228273958773
 31
0.0
  0
LINE
  5
11F
330
1F
100
AcDbEntity
  8
D-4
  6
Continuous
 62
     7
370
     9
100
AcDbLine
 10
-52.17058336412578
 20
-131.6298448717271
 30
0.0
 11
-52.17058336412578
 21
-104.1298778637035
 31
0.0
  0
LINE
  5
120
330
1F
100
AcDbEntity
  8
D-4
  6
Continuous
 62
     7
370
     9
100
AcDbLine
 10
-52.17058336412578
 20
-131.6298448717271
 30
0.0
 11
-50.67060315931158
 21
-131.6298448717271
 31
0.0
  0
LINE
  5
121
330
1F
100
AcDbEntity
  8
D-4
  6
Continuous
 62
     7
370
     9
100
AcDbLine
 10
-52.17058336412578
 20
-104.1298778637035
 30
0.0
 11
-50.67060315931158
 21
-104.1298778637035
 31
0.0
  0
LINE
  5
122
330
1F
100
AcDbEntity
  8
D-4
  6
Continuous
 62
     7
370
     9
100
AcDbLine
 10
-94.27630450274492
 20
-107.879828375739
 30
0.0
 11
-92.77632429793073
 21
-107.879828375739
 31
0.0
  0
LINE
  5
123
330
1F
100
AcDbEntity
  8
D-4
  6
Continuous
 62
     7
370
     9
100
AcDbLine
 10
-94.27630450274492
 20
-104.1298778637035
 30
0.0
 11
-92.77632429793073
 21
-104.1298778637035
 31
0.0
  0
LINE
  5
124
330
1F
100
AcDbEntity
  8
D-4
  6
Continuous
 62
     7
370
     9
100
AcDbLine
 10
-487.4145095412796
 20
-326.6299624056429
 30
0.0
 11
-487.4145095412796
 21
-101.6299933356207
 31
0.0
  0
LINE
  5
125
330
1F
100
AcDbEntity
  8
D-4
  6
Continuous
 62
     7
370
     9
100
AcDbLine
 10
-345.0254491857579
 20
-326.6299624056429
 30
0.0
 11
-488.9144897460938
 21
-326.6299624056429
 31
0.0
  0
LINE
  5
126
330
1F
100
AcDbEntity
  8
D-4
  6
Continuous
 62
     7
370
     9
100
AcDbLine
 10
-345.0254491857579
 20
-101.6299933356207
 30
0.0
 11
-488.9144897460938
 21
-101.6299933356207
 31
0.0
  0
LINE
  5
127
330
1F
100
AcDbEntity
  8
F-1
  6
Continuous
 62
     3
370
     9
100
AcDbLine
 10
440.2325604413008
 20
383.8645069019215
 30
0.0
 11
270.2321232976141
 21
383.8645069019215
 31
0.0
  0
LINE
  5
128
330
1F
100
AcDbEntity
  8
F-1
  6
Continuous
 62
     3
370
     9
100
AcDbLine
 10
440.2325604413008
 20
353.8636656065246
 30
0.0
 11
270.2321232976141
 21
353.8636656065246
 31
0.0
  0
LINE
  5
129
330
1F
100
AcDbEntity
  8
F-4
  6
Continuous
 62
     7
370
     9
100
AcDbLine
 10
255.2320738096495
 20
428.7615966796875
 30
0.0
 11
455.2326099292654
 21
428.7615966796875
 31
0.0
  0
LINE
  5
12A
330
1F
100
AcDbEntity
  8
F-4
  6
Continuous
 62
     7
370
     9
100
AcDbLine
 10
506.435827306799
 20
383.8645069019215
 30
0.0
 11
506.435827306799
 21
353.8636656065246
 31
0.0
  0
LINE
  5
12B
330
1F
100
AcDbEntity
  8
D-1
  6
Continuous
 62
     7
370
     9
100
AcDbLine
 10
-325.0039796571474
 20
-326.6298386857317
 30
0.0
 11
2.996001372466282
 21
-326.6298386857317
 31
0.0
  0
LINE
  5
12C
330
1F
100
AcDbEntity
  8
E-2
  6
Continuous
 62
     3
370
     9
100
AcDbLine
 10
-299.0805754790435
 20
418.3926309121622
 30
0.0
 11
-23.08056805584883
 21
418.3926309121622
 31
0.0
  0
LINE
  5
12D
330
1F
100
AcDbEntity
  8
E-2
  6
JWW_DASHED3
 62
     3
370
     9
100
AcDbLine
 10
-297.5805952742293
 20
416.892650707348
 30
0.0
 11
-24.58054826066288
 21
416.892650707348
 31
0.0
  0
LINE
  5
12E
330
1F
100
AcDbEntity
  8
E-2
  6
JWW_DASHED2
 62
     3
370
     9
100
AcDbLine
 10
-24.58054826066288
 20
416.892650707348
 30
0.0
 11
-24.58054826066288
 21
364.3369272592906
 31
0.0
  0
LINE
  5
12F
330
1F
100
AcDbEntity
  8
E-2
  6
Continuous
 62
     3
370
     9
100
AcDbLine
 10
-23.08056805584883
 20
418.3926309121622
 30
0.0
 11
-23.08056805584883
 21
292.3926853489232
 31
0.0
  0
LINE
  5
130
330
1F
100
AcDbEntity
  8
E-2
  6
Continuous
 62
     3
370
     9
100
AcDbLine
 10
-23.08056805584883
 20
292.3926853489232
 30
0.0
 11
-299.0805754790435
 21
292.3926853489232
 31
0.0
  0
LINE
  5
131
330
1F
100
AcDbEntity
  8
E-2
  6
JWW_DASHED3
 62
     3
370
     9
100
AcDbLine
 10
-24.58054826066288
 20
293.8926655537374
 30
0.0
 11
-297.5805952742293
 21
293.8926655537374
 31
0.0
  0
LINE
  5
132
330
1F
100
AcDbEntity
  8
E-2
  6
JWW_DASHED3
 62
     3
370
     9
100
AcDbLine
 10
-24.58054826066288
 20
346.4483890017948
 30
0.0
 11
-24.58054826066288
 21
293.8926655537374
 31
0.0
  0
LINE
  5
133
330
1F
100
AcDbEntity
  8
E-2
  6
Continuous
 62
     3
370
     9
100
AcDbLine
 10
-232.08055238466
 20
378.3926226641681
 30
0.0
 11
-198.0805268158784
 21
378.3926226641681
 31
0.0
  0
LINE
  5
134
330
1F
100
AcDbEntity
  8
E-2
  6
Continuous
 62
     3
370
     9
100
AcDbLine
 10
-232.08055238466
 20
372.392578125
 30
0.0
 11
-198.0805268158784
 21
372.392578125
 31
0.0
  0
LINE
  5
135
330
1F
100
AcDbEntity
  8
E-2
  6
Continuous
 62
     3
370
     9
100
AcDbLine
 10
-232.08055238466
 20
338.3926144161741
 30
0.0
 11
-198.0805268158784
 21
338.3926144161741
 31
0.0
  0
LINE
  5
136
330
1F
100
AcDbEntity
  8
E-2
  6
Continuous
 62
     3
370
     9
100
AcDbLine
 10
-232.08055238466
 20
332.392569877006
 30
0.0
 11
-198.0805268158784
 21
332.392569877006
 31
0.0
  0
LINE
  5
137
330
1F
100
AcDbEntity
  8
E-2
  6
Continuous
 62
     3
370
     9
100
AcDbLine
 10
-187.0805895006335
 20
398.3926886481208
 30
0.0
 11
-153.0805639318517
 21
398.3926886481208
 31
0.0
  0
LINE
  5
138
330
1F
100
AcDbEntity
  8
E-2
  6
Continuous
 62
     3
370
     9
100
AcDbLine
 10
-187.0805895006335
 20
392.3926441089527
 30
0.0
 11
-153.0805639318517
 21
392.3926441089527
 31
0.0
  0
LINE
  5
139
330
1F
100
AcDbEntity
  8
E-2
  6
Continuous
 62
     3
370
     9
100
AcDbLine
 10
-187.0805895006335
 20
358.3926804001267
 30
0.0
 11
-153.0805639318517
 21
358.3926804001267
 31
0.0
  0
LINE
  5
13A
330
1F
100
AcDbEntity
  8
E-2
  6
Continuous
 62
     3
370
     9
100
AcDbLine
 10
-187.0805895006335
 20
352.3926358609588
 30
0.0
 11
-153.0805639318517
 21
352.3926358609588
 31
0.0
  0
LINE
  5
13B
330
1F
100
AcDbEntity
  8
E-2
  6
Continuous
 62
     3
370
     9
100
AcDbLine
 10
-187.0805895006335
 20
318.3926721521327
 30
0.0
 11
-153.0805639318517
 21
318.3926721521327
 31
0.0
  0
LINE
  5
13C
330
1F
100
AcDbEntity
  8
E-2
  6
Continuous
 62
     3
370
     9
100
AcDbLine
 10
-187.0805895006335
 20
312.3926276129646
 30
0.0
 11
-153.0805639318517
 21
312.3926276129646
 31
0.0
  0
LINE
  5
13D
330
1F
100
AcDbEntity
  8
E-2
  6
Continuous
 62
     3
370
     9
100
AcDbLine
 10
-97.08054001266888
 20
398.3926886481208
 30
0.0
 11
-63.08057630384283
 21
398.3926886481208
 31
0.0
  0
LINE
  5
13E
330
1F
100
AcDbEntity
  8
E-2
  6
Continuous
 62
     3
370
     9
100
AcDbLine
 10
-97.08054001266888
 20
392.3926441089527
 30
0.0
 11
-63.08057630384283
 21
392.3926441089527
 31
0.0
  0
LINE
  5
13F
330
1F
100
AcDbEntity
  8
E-2
  6
Continuous
 62
     3
370
     9
100
AcDbLine
 10
-97.08054001266888
 20
358.3926804001267
 30
0.0
 11
-63.08057630384283
 21
358.3926804001267
 31
0.0
  0
LINE
  5
140
330
1F
100
AcDbEntity
  8
E-2
  6
Continuous
 62
     3
370
     9
100
AcDbLine
 10
-97.08054001266888
 20
352.3926358609588
 30
0.0
 11
-63.08057630384283
 21
352.3926358609588
 31
0.0
  0
LINE
  5
141
330
1F
100
AcDbEntity
  8
E-2
  6
Continuous
 62
     3
370
     9
100
AcDbLine
 10
-97.08054001266888
 20
318.3926721521327
 30
0.0
 11
-63.08057630384283
 21
318.3926721521327
 31
0.0
  0
LINE
  5
142
330
1F
100
AcDbEntity
  8
E-2
  6
Continuous
 62
     3
370
     9
100
AcDbLine
 10
-97.08054001266888
 20
312.3926276129646
 30
0.0
 11
-63.08057630384283
 21
312.3926276129646
 31
0.0
  0
LINE
  5
143
330
1F
100
AcDbEntity
  8
E-2
  6
Continuous
 62
     3
370
     9
100
AcDbLine
 10
-142.0805647566512
 20
378.3926226641681
 30
0.0
 11
-108.0804773279138
 21
378.3926226641681
 31
0.0
  0
LINE
  5
144
330
1F
100
AcDbEntity
  8
E-2
  6
Continuous
 62
     3
370
     9
100
AcDbLine
 10
-142.0805647566512
 20
372.392578125
 30
0.0
 11
-108.0804773279138
 21
372.392578125
 31
0.0
  0
LINE
  5
145
330
1F
100
AcDbEntity
  8
E-2
  6
Continuous
 62
     3
370
     9
100
AcDbLine
 10
-142.0805647566512
 20
338.3926144161741
 30
0.0
 11
-108.0804773279138
 21
338.3926144161741
 31
0.0
  0
LINE
  5
146
330
1F
100
AcDbEntity
  8
E-2
  6
Continuous
 62
     3
370
     9
100
AcDbLine
 10
-142.0805647566512
 20
332.392569877006
 30
0.0
 11
-108.0804773279138
 21
332.392569877006
 31
0.0
  0
LINE
  5
147
330
1F
100
AcDbEntity
  8
E-4
  6
Continuous
 62
     7
370
     9
100
AcDbLine
 10
-307.0806142446156
 20
433.1640460040119
 30
0.0
 11
-307.0806142446156
 21
476.577981484903
 31
0.0
  0
LINE
  5
148
330
1F
100
AcDbEntity
  8
E-4
  6
Continuous
 62
     7
370
     9
100
AcDbLine
 10
-300.0806035222233
 20
433.1640460040119
 30
0.0
 11
-300.0806035222233
 21
476.577981484903
 31
0.0
  0
LINE
  5
149
330
1F
100
AcDbEntity
  8
E-4
  6
Continuous
 62
     7
370
     9
100
AcDbLine
 10
-300.0806035222233
 20
475.0780012800888
 30
0.0
 11
-299.0805754790435
 21
475.0780012800888
 31
0.0
  0
LINE
  5
14A
330
1F
100
AcDbEntity
  8
E-4
  6
Continuous
 62
     7
370
     9
100
AcDbLine
 10
-299.0805754790435
 20
433.1640460040119
 30
0.0
 11
-299.0805754790435
 21
476.577981484903
 31
0.0
  0
LINE
  5
14B
330
1F
100
AcDbEntity
  8
E-4
  6
Continuous
 62
     7
370
     9
100
AcDbLine
 10
-299.0805754790435
 20
475.0780012800888
 30
0.0
 11
-23.08056805584883
 21
475.0780012800888
 31
0.0
  0
LINE
  5
14C
330
1F
100
AcDbEntity
  8
E-4
  6
Continuous
 62
     7
370
     9
100
AcDbLine
 10
-23.08056805584883
 20
433.1640460040119
 30
0.0
 11
-23.08056805584883
 21
476.577981484903
 31
0.0
  0
LINE
  5
14D
330
1F
100
AcDbEntity
  8
E-4
  6
Continuous
 62
     7
370
     9
100
AcDbLine
 10
-23.08056805584883
 20
475.0780012800888
 30
0.0
 11
-22.08041629275755
 21
475.0780012800888
 31
0.0
  0
LINE
  5
14E
330
1F
100
AcDbEntity
  8
E-4
  6
Continuous
 62
     7
370
     9
100
AcDbLine
 10
-22.08041629275755
 20
433.1640460040119
 30
0.0
 11
-22.08041629275755
 21
476.577981484903
 31
0.0
  0
LINE
  5
14F
330
1F
100
AcDbEntity
  8
E-4
  6
Continuous
 62
     7
370
     9
100
AcDbLine
 10
-15.08059115023215
 20
433.1640460040119
 30
0.0
 11
-15.08059115023215
 21
476.577981484903
 31
0.0
  0
LINE
  5
150
330
1F
100
AcDbEntity
  8
E-4
  6
Continuous
 62
     7
370
     9
100
AcDbLine
 10
-307.0806142446156
 20
508.7001243797509
 30
0.0
 11
-15.08059115023215
 21
508.7001243797509
 31
0.0
  0
LINE
  5
151
330
1F
100
AcDbEntity
  8
E-4
  6
Continuous
 62
     7
370
     9
100
AcDbLine
 10
-307.0806142446156
 20
476.577981484903
 30
0.0
 11
-307.0806142446156
 21
510.2001045845651
 31
0.0
  0
LINE
  5
152
330
1F
100
AcDbEntity
  8
E-4
  6
Continuous
 62
     7
370
     9
100
AcDbLine
 10
-15.08059115023215
 20
476.577981484903
 30
0.0
 11
-15.08059115023215
 21
510.2001045845651
 31
0.0
  0
LINE
  5
153
330
1F
100
AcDbEntity
  8
E-4
  6
Continuous
 62
     7
370
     9
100
AcDbLine
 10
-22.08041629275755
 20
475.0780012800888
 30
0.0
 11
-1.567902436127468
 21
475.0780012800888
 31
0.0
  0
LINE
  5
154
330
1F
100
AcDbEntity
  8
E-4
  6
Continuous
 62
     7
370
     9
100
AcDbLine
 10
-320.6855361526077
 20
475.0780012800888
 30
0.0
 11
-300.0806035222233
 21
475.0780012800888
 31
0.0
  0
LINE
  5
155
330
1F
100
AcDbEntity
  8
F-4
  6
Continuous
 62
     7
370
     9
100
AcDbLine
 10
255.2320738096495
 20
382.9382159258869
 30
0.0
 11
255.2320738096495
 21
430.2615768845017
 31
0.0
  0
LINE
  5
156
330
1F
100
AcDbEntity
  8
F-4
  6
Continuous
 62
     7
370
     9
100
AcDbLine
 10
455.2326099292654
 20
382.9382159258869
 30
0.0
 11
455.2326099292654
 21
430.2615768845017
 31
0.0
  0
LINE
  5
157
330
1F
100
AcDbEntity
  8
F-4
  6
Continuous
 62
     7
370
     9
100
AcDbLine
 10
458.9668480125636
 20
383.8645069019215
 30
0.0
 11
507.9358075116133
 21
383.8645069019215
 31
0.0
  0
LINE
  5
158
330
1F
100
AcDbEntity
  8
F-4
  6
Continuous
 62
     7
370
     9
100
AcDbLine
 10
458.9668480125636
 20
353.8636656065246
 30
0.0
 11
507.9358075116133
 21
353.8636656065246
 31
0.0
  0
LINE
  5
159
330
1F
100
AcDbEntity
  8
D-0
  6
JWW_DASHED3
 62
     3
370
     9
100
AcDbLine
 10
8.746007970861598
 20
-164.7424893765836
 30
0.0
 11
17.99592714051954
 21
-164.7424893765836
 31
0.0
  0
LINE
  5
15A
330
1F
100
AcDbEntity
  8
D-0
  6
JWW_DASHED3
 62
     3
370
     9
100
AcDbLine
 10
8.746007970861598
 20
-163.4920522328969
 30
0.0
 11
17.99592714051954
 21
-163.4924233926309
 31
0.0
  0
LINE
  5
15B
330
1F
100
AcDbEntity
  8
D-0
  6
JWW_DASHED3
 62
     3
370
     9
100
AcDbLine
 10
8.746007970861598
 20
-154.7424563846072
 30
0.0
 11
17.99592714051954
 21
-154.7424563846072
 31
0.0
  0
LINE
  5
15C
330
1F
100
AcDbEntity
  8
D-0
  6
JWW_DASHED3
 62
     3
370
     9
100
AcDbLine
 10
8.746007970861598
 20
-155.9925223685599
 30
0.0
 11
17.99592714051954
 21
-155.9925223685599
 31
0.0
  0
LINE
  5
15D
330
1F
100
AcDbEntity
  8
D-0
  6
Continuous
 62
     3
370
     9
100
AcDbLine
 10
4.24594363650769
 20
-154.7424563846072
 30
0.0
 11
8.746007970861598
 21
-154.7424563846072
 31
0.0
  0
LINE
  5
15E
330
1F
100
AcDbEntity
  8
D-0
  6
Continuous
 62
     3
370
     9
100
AcDbLine
 10
2.996001372466282
 20
-155.9925223685599
 30
0.0
 11
8.746007970861598
 21
-155.9925223685599
 31
0.0
  0
LINE
  5
15F
330
1F
100
AcDbEntity
  8
D-0
  6
Continuous
 62
     3
370
     9
100
AcDbLine
 10
2.997733451224747
 20
-163.4919285129856
 30
0.0
 11
8.746007970861598
 21
-163.4920522328969
 31
0.0
  0
LINE
  5
160
330
1F
100
AcDbEntity
  8
D-0
  6
Continuous
 62
     3
370
     9
100
AcDbLine
 10
4.24594363650769
 20
-164.7424893765836
 30
0.0
 11
8.746007970861598
 21
-164.7424893765836
 31
0.0
  0
LINE
  5
161
330
1F
100
AcDbEntity
  8
D-0
  6
JWW_CENTER1
 62
     3
370
     9
100
AcDbLine
 10
-2.112270045924731
 20
-159.7424728805954
 30
0.0
 11
28.27940244932435
 21
-159.7424728805954
 31
0.0
  0
LINE
  5
162
330
1F
100
AcDbEntity
  8
D-0
  6
JWW_CENTER1
 62
     3
370
     9
100
AcDbLine
 10
-319.895770098712
 20
-159.7424728805954
 30
0.0
 11
-352.2250201251056
 21
-159.7424728805954
 31
0.0
  0
LINE
  5
163
330
1F
100
AcDbEntity
  8
D-4
  6
Continuous
 62
     7
370
     9
100
AcDbLine
 10
-94.27630450274492
 20
-107.879828375739
 30
0.0
 11
-94.27630450274492
 21
-71.13080823743658
 31
0.0
  0
LINE
  5
164
330
1F
100
AcDbEntity
  8
D-4
  6
Continuous
 62
     7
370
     9
100
AcDbLine
 10
-445.9216968433277
 20
-101.6299933356207
 30
0.0
 11
-445.9216968433277
 21
-149.6296073294974
 31
0.0
  0
LINE
  5
165
330
1F
100
AcDbEntity
  8
D-4
  6
Continuous
 62
     7
370
     9
100
AcDbLine
 10
-412.2717367636191
 20
-101.6299933356207
 30
0.0
 11
-447.4216770481419
 21
-101.6299933356207
 31
0.0
  0
LINE
  5
166
330
1F
100
AcDbEntity
  8
D-4
  6
Continuous
 62
     7
370
     9
100
AcDbLine
 10
-412.2717367636191
 20
-149.6296073294974
 30
0.0
 11
-447.4216770481419
 21
-149.6296073294974
 31
0.0
  0
LINE
  5
167
330
1F
100
AcDbEntity
  8
D-4
  6
Continuous
 62
     7
370
     9
100
AcDbLine
 10
-445.9216968433277
 20
-149.6296073294974
 30
0.0
 11
-445.9216968433277
 21
-199.6292774097339
 31
0.0
  0
LINE
  5
168
330
1F
100
AcDbEntity
  8
D-4
  6
Continuous
 62
     7
370
     9
100
AcDbLine
 10
-412.2717367636191
 20
-199.6292774097339
 30
0.0
 11
-447.4216770481419
 21
-199.6292774097339
 31
0.0
  0
LINE
  5
169
330
1F
100
AcDbEntity
  8
D-4
  6
Continuous
 62
     7
370
     9
100
AcDbLine
 10
-405.7541718354096
 20
-28.11784898912578
 30
0.0
 11
-338.5039870803421
 21
-28.11784898912578
 31
0.0
  0
LINE
  5
16A
330
1F
100
AcDbEntity
  8
D-4
  6
Continuous
 62
     7
370
     9
100
AcDbLine
 10
-405.7541718354096
 20
-137.8590186866554
 30
0.0
 11
-405.7541718354096
 21
-26.61786878431158
 31
0.0
  0
LINE
  5
16B
330
1F
100
AcDbEntity
  8
E-4
  6
Continuous
 62
     7
370
     9
100
AcDbLine
 10
-260.0805334142735
 20
232.547508445946
 30
0.0
 11
-215.0805086702914
 21
232.547508445946
 31
0.0
  0
LINE
  5
16C
330
1F
100
AcDbEntity
  8
E-4
  6
Continuous
 62
     7
370
     9
100
AcDbLine
 10
-225.0503540039062
 20
335.3926540065457
 30
0.0
 11
-360.4034011428421
 21
335.3926540065457
 31
0.0
  0
LINE
  5
16D
330
1F
100
AcDbEntity
  8
E-4
  6
Continuous
 62
     7
370
     9
100
AcDbLine
 10
-268.8332222603462
 20
315.3927117425043
 30
0.0
 11
-360.4034011428421
 21
315.3927117425043
 31
0.0
  0
LINE
  5
16E
330
1F
100
AcDbEntity
  8
E-4
  6
Continuous
 62
     7
370
     9
100
AcDbLine
 10
-272.0174016179265
 20
355.3925962705871
 30
0.0
 11
-360.4034011428421
 21
355.3925962705871
 31
0.0
  0
LINE
  5
16F
330
1F
100
AcDbEntity
  8
E-4
  6
Continuous
 62
     7
370
     9
100
AcDbLine
 10
-260.0805334142735
 20
323.4736014701225
 30
0.0
 11
-260.0805334142735
 21
231.0475282411318
 31
0.0
  0
LINE
  5
170
330
1F
100
AcDbEntity
  8
E-4
  6
Continuous
 62
     7
370
     9
100
AcDbLine
 10
-215.0805086702914
 20
343.0082331476985
 30
0.0
 11
-215.0805086702914
 21
231.0475282411318
 31
0.0
  0
LINE
  5
171
330
1F
100
AcDbEntity
  8
E-4
  6
Continuous
 62
     7
370
     9
100
AcDbLine
 10
-358.9034209380279
 20
335.3926540065457
 30
0.0
 11
-358.9034209380279
 21
376.5342258762669
 31
0.0
  0
LINE
  5
172
330
1F
100
AcDbEntity
  8
E-4
  6
Continuous
 62
     7
370
     9
100
AcDbLine
 10
-358.9034209380279
 20
293.0610203098607
 30
0.0
 11
-358.9034209380279
 21
335.3926540065457
 31
0.0
  0
ARC
  5
173
330
1F
100
AcDbEntity
  8
D-2
  6
Continuous
 62
     3
370
     9
100
AcDbCircle
 10
-311.0040200723183
 20
-111.6300263275971
 30
0.0
 40
7.500000096656181
100
AcDbArc
 50
90.0
 51
180.0
  0
ARC
  5
174
330
1F
100
AcDbEntity
  8
D-2
  6
Continuous
 62
     3
370
     9
100
AcDbCircle
 10
-11.00402007231835
 20
-111.6300263275971
 30
0.0
 40
7.500000096656181
100
AcDbArc
 50
0.0
 51
90.0
  0
ARC
  5
175
330
1F
100
AcDbEntity
  8
D-2
  6
Continuous
 62
     3
370
     9
100
AcDbCircle
 10
-11.00402007231835
 20
-111.6300263275971
 30
0.0
 40
3.75000004832809
100
AcDbArc
 50
0.0
 51
90.0
  0
ARC
  5
176
330
1F
100
AcDbEntity
  8
D-2
  6
Continuous
 62
     3
370
     9
100
AcDbCircle
 10
-311.0040200723183
 20
-111.6300263275971
 30
0.0
 40
3.75000004832809
100
AcDbArc
 50
90.0
 51
180.0
  0
ARC
  5
177
330
1F
100
AcDbEntity
  8
D-2
  6
Continuous
 62
     3
370
     9
100
AcDbCircle
 10
-161.0040200723184
 20
-99.12986136771536
 30
0.0
 40
22.50001237199113
100
AcDbArc
 50
202.88525390625
 51
337.11474609375
  0
ARC
  5
178
330
1F
100
AcDbEntity
  8
D-1
  6
Continuous
 62
     7
370
     9
100
AcDbCircle
 10
12.49608220280834
 20
-105.6301055083404
 30
0.0
 40
2.000000146595208
100
AcDbArc
 50
0.0
 51
90.0
  0
ARC
  5
179
330
1F
100
AcDbEntity
  8
D-1
  6
Continuous
 62
     7
370
     9
100
AcDbCircle
 10
12.49608220280834
 20
-105.6301055083404
 30
0.0
 40
4.000000293190415
100
AcDbArc
 50
0.0
 51
90.0
  0
ARC
  5
17A
330
1F
100
AcDbEntity
  8
D-1
  6
Continuous
 62
     7
370
     9
100
AcDbCircle
 10
2.996001372466282
 20
-105.6301055083404
 30
0.0
 40
4.000000293190415
100
AcDbArc
 50
90.0
 51
180.0
  0
ARC
  5
17B
330
1F
100
AcDbEntity
  8
D-1
  6
Continuous
 62
     7
370
     9
100
AcDbCircle
 10
-3.00404316670182
 20
-129.63003622519
 30
0.0
 40
4.000000293190415
100
AcDbArc
 50
270.0
 51
0.0
  0
ARC
  5
17C
330
1F
100
AcDbEntity
  8
D-1
  6
Continuous
 62
     7
370
     9
100
AcDbCircle
 10
2.996001372466282
 20
-322.6298502329233
 30
0.0
 40
4.000000293190415
100
AcDbArc
 50
180.0
 51
270.0
  0
ARC
  5
17D
330
1F
100
AcDbEntity
  8
D-1
  6
Continuous
 62
     7
370
     9
100
AcDbCircle
 10
2.996001372466282
 20
-322.6298502329233
 30
0.0
 40
2.000000146595208
100
AcDbArc
 50
180.0
 51
270.0
  0
ARC
  5
17E
330
1F
100
AcDbEntity
  8
D-1
  6
Continuous
 62
     7
370
     9
100
AcDbCircle
 10
2.996001372466282
 20
-105.6301055083404
 30
0.0
 40
2.000000146595208
100
AcDbArc
 50
90.0
 51
180.0
  0
ARC
  5
17F
330
1F
100
AcDbEntity
  8
D-1
  6
Continuous
 62
     7
370
     9
100
AcDbCircle
 10
-3.00404316670182
 20
-129.6297887853674
 30
0.0
 40
2.000000146595208
100
AcDbArc
 50
270.0
 51
0.0
  0
ARC
  5
180
330
1F
100
AcDbEntity
  8
D-1
  6
Continuous
 62
     7
370
     9
100
AcDbCircle
 10
-16.73621100348385
 20
-133.3978024044552
 30
0.0
 40
1.767833812816723
100
AcDbArc
 50
90.0
 51
224.9992980957031
  0
ARC
  5
181
330
1F
100
AcDbEntity
  8
D-1
  6
Continuous
 62
     7
370
     9
100
AcDbCircle
 10
-15.57188291807421
 20
-133.8800626187711
 30
0.0
 40
0.2500000183244009
100
AcDbArc
 50
90.0
 51
225.0050048828125
  0
ARC
  5
182
330
1F
100
AcDbEntity
  8
D-1
  6
Continuous
 62
     7
370
     9
100
AcDbCircle
 10
-5.003975533150253
 20
-153.2867679080447
 30
0.0
 40
4.000000293190415
100
AcDbArc
 50
0.0
 51
45.0
  0
ARC
  5
183
330
1F
100
AcDbEntity
  8
D-1
  6
Continuous
 62
     7
370
     9
100
AcDbCircle
 10
-5.003975533150253
 20
-153.2867679080447
 30
0.0
 40
6.000000077324945
100
AcDbArc
 50
0.0
 51
45.0
  0
ARC
  5
184
330
1F
100
AcDbEntity
  8
D-1
  6
Continuous
 62
     7
370
     9
100
AcDbCircle
 10
14.99596673089115
 20
-197.6299636428421
 30
0.0
 40
2.000000146595208
100
AcDbArc
 50
270.0
 51
0.0
  0
ARC
  5
185
330
1F
100
AcDbEntity
  8
D-1
  6
Continuous
 62
     7
370
     9
100
AcDbCircle
 10
4.995933738914715
 20
-197.6299636428421
 30
0.0
 40
2.000000146595208
100
AcDbArc
 50
180.0
 51
270.0
  0
ARC
  5
186
330
1F
100
AcDbEntity
  8
D-1
  6
Continuous
 62
     7
370
     9
100
AcDbCircle
 10
14.99596673089115
 20
-197.6299636428421
 30
0.0
 40
4.000000293190415
100
AcDbArc
 50
270.0
 51
0.0
  0
ARC
  5
187
330
1F
100
AcDbEntity
  8
D-1
  6
Continuous
 62
     7
370
     9
100
AcDbCircle
 10
4.995933738914715
 20
-197.6299636428421
 30
0.0
 40
4.000000293190415
100
AcDbArc
 50
180.0
 51
270.0
  0
ARC
  5
188
330
1F
100
AcDbEntity
  8
D-0
  6
JWW_DASHED3
 62
     3
370
     9
100
AcDbCircle
 10
21.24530689136407
 20
-154.2426279428842
 30
0.0
 40
3.250000525165249
100
AcDbArc
 50
1.347366333007812
 51
90.00068664550781
  0
ARC
  5
189
330
1F
100
AcDbEntity
  8
D-0
  6
JWW_DASHED3
 62
     3
370
     9
100
AcDbCircle
 10
21.24604921083204
 20
-165.2428126979518
 30
0.0
 40
3.250000525165249
100
AcDbArc
 50
269.997314453125
 51
0.0079040527343666
  0
ARC
  5
18A
330
1F
100
AcDbEntity
  8
D-0
  6
Continuous
 62
     3
370
     9
100
AcDbCircle
 10
78.74611519478464
 20
-154.6296238254856
 30
0.0
 40
5.000000064437454
100
AcDbArc
 50
1.628433227539062
 51
89.99980163574219
  0
ARC
  5
18B
330
1F
100
AcDbEntity
  8
D-0
  6
Continuous
 62
     3
370
     9
100
AcDbCircle
 10
18.64471435546875
 20
-180.8797722893792
 30
0.0
 40
5.000000064437454
100
AcDbArc
 50
359.9990997314453
 51
89.99766540527344
  0
ARC
  5
18C
330
1F
100
AcDbEntity
  8
D-1
  6
Continuous
 62
     7
370
     9
100
AcDbCircle
 10
-334.5039986275337
 20
-105.6301055083404
 30
0.0
 40
2.000000146595208
100
AcDbArc
 50
90.0
 51
180.0
  0
ARC
  5
18D
330
1F
100
AcDbEntity
  8
D-1
  6
Continuous
 62
     7
370
     9
100
AcDbCircle
 10
-334.5039986275337
 20
-105.6301055083404
 30
0.0
 40
4.000000293190415
100
AcDbArc
 50
90.0
 51
180.0
  0
ARC
  5
18E
330
1F
100
AcDbEntity
  8
D-1
  6
Continuous
 62
     7
370
     9
100
AcDbCircle
 10
-325.0039796571474
 20
-105.6301055083404
 30
0.0
 40
4.000000293190415
100
AcDbArc
 50
0.0
 51
90.0
  0
ARC
  5
18F
330
1F
100
AcDbEntity
  8
D-1
  6
Continuous
 62
     7
370
     9
100
AcDbCircle
 10
-319.0039969779349
 20
-129.63003622519
 30
0.0
 40
4.000000293190415
100
AcDbArc
 50
180.0
 51
270.0
  0
ARC
  5
190
330
1F
100
AcDbEntity
  8
D-1
  6
Continuous
 62
     7
370
     9
100
AcDbCircle
 10
-325.0039796571474
 20
-322.6298502329233
 30
0.0
 40
4.000000293190415
100
AcDbArc
 50
270.0
 51
0.0
  0
ARC
  5
191
330
1F
100
AcDbEntity
  8
D-1
  6
Continuous
 62
     7
370
     9
100
AcDbCircle
 10
-325.0039796571474
 20
-322.6298502329233
 30
0.0
 40
2.000000146595208
100
AcDbArc
 50
270.0
 51
0.0
  0
ARC
  5
192
330
1F
100
AcDbEntity
  8
D-1
  6
Continuous
 62
     7
370
     9
100
AcDbCircle
 10
-325.0039796571474
 20
-105.6301055083404
 30
0.0
 40
2.000000146595208
100
AcDbArc
 50
0.0
 51
90.0
  0
ARC
  5
193
330
1F
100
AcDbEntity
  8
D-1
  6
Continuous
 62
     7
370
     9
100
AcDbCircle
 10
-319.0039969779349
 20
-129.6297887853674
 30
0.0
 40
2.000000146595208
100
AcDbArc
 50
180.0
 51
270.0
  0
ARC
  5
194
330
1F
100
AcDbEntity
  8
D-1
  6
Continuous
 62
     7
370
     9
100
AcDbCircle
 10
-305.2717672811971
 20
-133.3978024044552
 30
0.0
 40
1.767833812816723
100
AcDbArc
 50
315.0007019042969
 51
90.0
  0
ARC
  5
195
330
1F
100
AcDbEntity
  8
D-1
  6
Continuous
 62
     7
370
     9
100
AcDbCircle
 10
-306.4360953666068
 20
-133.8800626187711
 30
0.0
 40
0.2500000183244009
100
AcDbArc
 50
314.9949951171875
 51
90.0
  0
ARC
  5
196
330
1F
100
AcDbEntity
  8
D-1
  6
Continuous
 62
     7
370
     9
100
AcDbCircle
 10
-317.0040027515307
 20
-153.2867679080447
 30
0.0
 40
4.000000293190415
100
AcDbArc
 50
135.0
 51
180.0
  0
ARC
  5
197
330
1F
100
AcDbEntity
  8
D-1
  6
Continuous
 62
     7
370
     9
100
AcDbCircle
 10
-317.0040027515307
 20
-153.2867679080447
 30
0.0
 40
6.000000077324945
100
AcDbArc
 50
135.0
 51
180.0
  0
ARC
  5
198
330
1F
100
AcDbEntity
  8
D-1
  6
Continuous
 62
     7
370
     9
100
AcDbCircle
 10
-337.0040068755279
 20
-197.6299636428421
 30
0.0
 40
2.000000146595208
100
AcDbArc
 50
180.0
 51
270.0
  0
ARC
  5
199
330
1F
100
AcDbEntity
  8
D-1
  6
Continuous
 62
     7
370
     9
100
AcDbCircle
 10
-327.0039738835515
 20
-197.6299636428421
 30
0.0
 40
2.000000146595208
100
AcDbArc
 50
270.0
 51
0.0
  0
ARC
  5
19A
330
1F
100
AcDbEntity
  8
D-1
  6
Continuous
 62
     7
370
     9
100
AcDbCircle
 10
-337.0040068755279
 20
-197.6299636428421
 30
0.0
 40
4.000000293190415
100
AcDbArc
 50
180.0
 51
270.0
  0
ARC
  5
19B
330
1F
100
AcDbEntity
  8
D-1
  6
Continuous
 62
     7
370
     9
100
AcDbCircle
 10
-327.0039738835515
 20
-197.6299636428421
 30
0.0
 40
4.000000293190415
100
AcDbArc
 50
270.0
 51
0.0
  0
ARC
  5
19C
330
1F
100
AcDbEntity
  8
D-0
  6
Continuous
 62
     3
370
     9
100
AcDbCircle
 10
-343.2533470360008
 20
-154.2426279428842
 30
0.0
 40
3.250000525165249
100
AcDbArc
 50
89.99931335449216
 51
178.6526336669922
  0
ARC
  5
19D
330
1F
100
AcDbEntity
  8
D-0
  6
Continuous
 62
     3
370
     9
100
AcDbCircle
 10
-343.2540893554688
 20
-165.2428126979518
 30
0.0
 40
3.250000525165249
100
AcDbArc
 50
179.9920959472656
 51
270.002685546875
  0
ARC
  5
19E
330
1F
100
AcDbEntity
  8
D-0
  6
Continuous
 62
     3
370
     9
100
AcDbCircle
 10
-400.7540316195102
 20
-154.6296238254856
 30
0.0
 40
5.000000064437454
100
AcDbArc
 50
90.0001983642578
 51
178.3715667724609
  0
ARC
  5
19F
330
1F
100
AcDbEntity
  8
D-0
  6
Continuous
 62
     3
370
     9
100
AcDbCircle
 10
-340.6526926401499
 20
-180.8797722893792
 30
0.0
 40
5.000000064437454
100
AcDbArc
 50
90.00233459472659
 51
180.0009002685547
  0
ARC
  5
1A0
330
1F
100
AcDbEntity
  8
E-2
  6
Continuous
 62
     3
370
     9
100
AcDbCircle
 10
-298.5805614574535
 20
355.3925962705871
 30
0.0
 40
9.000000115987417
100
AcDbArc
 50
266.8152465820312
 51
93.18475341796875
  0
ARC
  5
1A1
330
1F
100
AcDbEntity
  8
E-2
  6
Continuous
 62
     3
370
     9
100
AcDbCircle
 10
-23.58039649757174
 20
355.3925962705871
 30
0.0
 40
9.000000115987417
100
AcDbArc
 50
86.81524658203125
 51
273.1847534179688
  0
ARC
  5
1A2
330
1F
100
AcDbEntity
  8
E-2
  6
Continuous
 62
     3
370
     9
100
AcDbCircle
 10
-243.0805515598605
 20
395.3927282384925
 30
0.0
 40
3.000000038662472
100
AcDbArc
 50
270.0
 51
90.0
  0
ARC
  5
1A3
330
1F
100
AcDbEntity
  8
E-2
  6
Continuous
 62
     3
370
     9
100
AcDbCircle
 10
-277.0805771286423
 20
395.3927282384925
 30
0.0
 40
3.000000038662472
100
AcDbArc
 50
90.0
 51
270.0
  0
ARC
  5
1A4
330
1F
100
AcDbEntity
  8
E-2
  6
Continuous
 62
     3
370
     9
100
AcDbCircle
 10
-243.0805515598605
 20
355.3925962705871
 30
0.0
 40
3.000000038662472
100
AcDbArc
 50
270.0
 51
90.0
  0
ARC
  5
1A5
330
1F
100
AcDbEntity
  8
E-2
  6
Continuous
 62
     3
370
     9
100
AcDbCircle
 10
-277.0805771286423
 20
355.3925962705871
 30
0.0
 40
3.000000038662472
100
AcDbArc
 50
90.0
 51
270.0
  0
ARC
  5
1A6
330
1F
100
AcDbEntity
  8
E-2
  6
Continuous
 62
     3
370
     9
100
AcDbCircle
 10
-243.0805515598605
 20
315.3927117425043
 30
0.0
 40
3.000000038662472
100
AcDbArc
 50
270.0
 51
90.0
  0
ARC
  5
1A7
330
1F
100
AcDbEntity
  8
E-2
  6
Continuous
 62
     3
370
     9
100
AcDbCircle
 10
-277.0805771286423
 20
315.3927117425043
 30
0.0
 40
3.000000038662472
100
AcDbArc
 50
90.0
 51
270.0
  0
ARC
  5
1A8
330
1F
100
AcDbEntity
  8
E-0
  6
Continuous
 62
     3
370
     9
100
AcDbCircle
 10
-132.0806554845861
 20
431.2926586254224
 30
0.0
 40
2.000000146595208
100
AcDbArc
 50
270.0
 51
0.0
  0
ARC
  5
1A9
330
1F
100
AcDbEntity
  8
E-0
  6
Continuous
 62
     3
370
     9
100
AcDbCircle
 10
-132.0806554845861
 20
451.2926008894638
 30
0.0
 40
2.000000146595208
100
AcDbArc
 50
0.0
 51
90.0
  0
ARC
  5
1AA
330
1F
100
AcDbEntity
  8
E-0
  6
Continuous
 62
     3
370
     9
100
AcDbCircle
 10
-163.2805901604729
 20
430.1924174540753
 30
0.0
 40
1.30000025839419
100
AcDbArc
 50
91.34736633300781
 51
180.0006866455078
  0
ARC
  5
1AB
330
1F
100
AcDbEntity
  8
E-0
  6
Continuous
 62
     3
370
     9
100
AcDbCircle
 10
-158.8804915144637
 20
430.1926648938979
 30
0.0
 40
1.30000025839419
100
AcDbArc
 50
359.997314453125
 51
90.00790405273436
  0
ARC
  5
1AC
330
1F
100
AcDbEntity
  8
E-0
  6
Continuous
 62
     3
370
     9
100
AcDbCircle
 10
-10.18054034258867
 20
326.3926490577492
 30
0.0
 40
2.000000146595208
100
AcDbArc
 50
180.0
 51
270.0
  0
ARC
  5
1AD
330
1F
100
AcDbEntity
  8
E-0
  6
Continuous
 62
     3
370
     9
100
AcDbCircle
 10
9.819525641364066
 20
326.3926490577492
 30
0.0
 40
2.000000146595208
100
AcDbArc
 50
270.0
 51
0.0
  0
ARC
  5
1AE
330
1F
100
AcDbEntity
  8
E-0
  6
Continuous
 62
     3
370
     9
100
AcDbCircle
 10
-11.28065779402448
 20
357.592583733636
 30
0.0
 40
1.30000025839419
100
AcDbArc
 50
1.347366333007812
 51
90.00068664550781
  0
ARC
  5
1AF
330
1F
100
AcDbEntity
  8
E-0
  6
Continuous
 62
     3
370
     9
100
AcDbCircle
 10
-11.28041035420182
 20
353.1924850876267
 30
0.0
 40
1.30000025839419
100
AcDbArc
 50
269.997314453125
 51
0.0079040527343666
  0
ARC
  5
1B0
330
1F
100
AcDbEntity
  8
E-0
  6
Continuous
 62
     3
370
     9
100
AcDbCircle
 10
-311.9806031923036
 20
384.3926672033362
 30
0.0
 40
2.000000146595208
100
AcDbArc
 50
0.0
 51
90.0
  0
ARC
  5
1B1
330
1F
100
AcDbEntity
  8
E-0
  6
Continuous
 62
     3
370
     9
100
AcDbCircle
 10
-331.9806073163006
 20
384.3926672033362
 30
0.0
 40
2.000000146595208
100
AcDbArc
 50
90.0
 51
180.0
  0
ARC
  5
1B2
330
1F
100
AcDbEntity
  8
E-0
  6
Continuous
 62
     3
370
     9
100
AcDbCircle
 10
-310.8803001610008
 20
353.192608807538
 30
0.0
 40
1.30000025839419
100
AcDbArc
 50
181.3473663330078
 51
270.0006866455078
  0
ARC
  5
1B3
330
1F
100
AcDbEntity
  8
E-0
  6
Continuous
 62
     3
370
     9
100
AcDbCircle
 10
-310.8806094607791
 20
357.5928311734588
 30
0.0
 40
1.30000025839419
100
AcDbArc
 50
89.99731445312499
 51
180.0079040527344
  0
ARC
  5
1B4
330
1F
100
AcDbEntity
  8
E-0
  6
Continuous
 62
     3
370
     9
100
AcDbCircle
 10
-190.0806117702174
 20
279.492657635663
 30
0.0
 40
2.000000146595208
100
AcDbArc
 50
90.0
 51
180.0
  0
ARC
  5
1B5
330
1F
100
AcDbEntity
  8
E-0
  6
Continuous
 62
     3
370
     9
100
AcDbCircle
 10
-190.0806117702174
 20
259.4925916517104
 30
0.0
 40
2.000000146595208
100
AcDbArc
 50
180.0
 51
270.0
  0
ARC
  5
1B6
330
1F
100
AcDbEntity
  8
E-0
  6
Continuous
 62
     3
370
     9
100
AcDbCircle
 10
-158.880615234375
 20
280.5928988070102
 30
0.0
 40
1.30000025839419
100
AcDbArc
 50
271.3473663330078
 51
0.0006866455078114
  0
ARC
  5
1B7
330
1F
100
AcDbEntity
  8
E-0
  6
Continuous
 62
     3
370
     9
100
AcDbCircle
 10
-163.2807757403398
 20
280.5925276472761
 30
0.0
 40
1.30000025839419
100
AcDbArc
 50
179.997314453125
 51
270.0079040527344
  0
ARC
  5
1B8
330
1F
100
AcDbEntity
  8
F-1
  6
Continuous
 62
     3
370
     9
100
AcDbCircle
 10
270.2321232976141
 20
368.864086254223
 30
0.0
 40
15.00000019331236
100
AcDbArc
 50
90.0
 51
270.0
  0
ARC
  5
1B9
330
1F
100
AcDbEntity
  8
F-1
  6
Continuous
 62
     3
370
     9
100
AcDbCircle
 10
440.2325604413008
 20
368.864086254223
 30
0.0
 40
15.00000019331236
100
AcDbArc
 50
270.0
 51
90.0
  0
ARC
  5
1BA
330
1F
100
AcDbEntity
  8
E-2
  6
Continuous
 62
     3
370
     9
100
AcDbCircle
 10
-198.0805268158784
 20
375.3925385346284
 30
0.0
 40
3.000000038662472
100
AcDbArc
 50
270.0
 51
90.0
  0
ARC
  5
1BB
330
1F
100
AcDbEntity
  8
E-2
  6
Continuous
 62
     3
370
     9
100
AcDbCircle
 10
-232.08055238466
 20
375.3925385346284
 30
0.0
 40
3.000000038662472
100
AcDbArc
 50
90.0
 51
270.0
  0
ARC
  5
1BC
330
1F
100
AcDbEntity
  8
E-2
  6
Continuous
 62
     3
370
     9
100
AcDbCircle
 10
-198.0805268158784
 20
335.3926540065457
 30
0.0
 40
3.000000038662472
100
AcDbArc
 50
270.0
 51
90.0
  0
ARC
  5
1BD
330
1F
100
AcDbEntity
  8
E-2
  6
Continuous
 62
     3
370
     9
100
AcDbCircle
 10
-232.08055238466
 20
335.3926540065457
 30
0.0
 40
3.000000038662472
100
AcDbArc
 50
90.0
 51
270.0
  0
ARC
  5
1BE
330
1F
100
AcDbEntity
  8
E-2
  6
Continuous
 62
     3
370
     9
100
AcDbCircle
 10
-153.0805639318517
 20
395.3927282384925
 30
0.0
 40
3.000000038662472
100
AcDbArc
 50
270.0
 51
90.0
  0
ARC
  5
1BF
330
1F
100
AcDbEntity
  8
E-2
  6
Continuous
 62
     3
370
     9
100
AcDbCircle
 10
-187.0805895006335
 20
395.3927282384925
 30
0.0
 40
3.000000038662472
100
AcDbArc
 50
90.0
 51
270.0
  0
ARC
  5
1C0
330
1F
100
AcDbEntity
  8
E-2
  6
Continuous
 62
     3
370
     9
100
AcDbCircle
 10
-153.0805639318517
 20
355.3925962705871
 30
0.0
 40
3.000000038662472
100
AcDbArc
 50
270.0
 51
90.0
  0
ARC
  5
1C1
330
1F
100
AcDbEntity
  8
E-2
  6
Continuous
 62
     3
370
     9
100
AcDbCircle
 10
-187.0805895006335
 20
355.3925962705871
 30
0.0
 40
3.000000038662472
100
AcDbArc
 50
90.0
 51
270.0
  0
ARC
  5
1C2
330
1F
100
AcDbEntity
  8
E-2
  6
Continuous
 62
     3
370
     9
100
AcDbCircle
 10
-153.0805639318517
 20
315.3927117425043
 30
0.0
 40
3.000000038662472
100
AcDbArc
 50
270.0
 51
90.0
  0
ARC
  5
1C3
330
1F
100
AcDbEntity
  8
E-2
  6
Continuous
 62
     3
370
     9
100
AcDbCircle
 10
-187.0805895006335
 20
315.3927117425043
 30
0.0
 40
3.000000038662472
100
AcDbArc
 50
90.0
 51
270.0
  0
ARC
  5
1C4
330
1F
100
AcDbEntity
  8
E-2
  6
Continuous
 62
     3
370
     9
100
AcDbCircle
 10
-63.08057630384283
 20
395.3927282384925
 30
0.0
 40
3.000000038662472
100
AcDbArc
 50
270.0
 51
90.0
  0
ARC
  5
1C5
330
1F
100
AcDbEntity
  8
E-2
  6
Continuous
 62
     3
370
     9
100
AcDbCircle
 10
-97.08054001266888
 20
395.3927282384925
 30
0.0
 40
3.000000038662472
100
AcDbArc
 50
90.0
 51
270.0
  0
ARC
  5
1C6
330
1F
100
AcDbEntity
  8
E-2
  6
Continuous
 62
     3
370
     9
100
AcDbCircle
 10
-63.08057630384283
 20
355.3925962705871
 30
0.0
 40
3.000000038662472
100
AcDbArc
 50
270.0
 51
90.0
  0
ARC
  5
1C7
330
1F
100
AcDbEntity
  8
E-2
  6
Continuous
 62
     3
370
     9
100
AcDbCircle
 10
-97.08054001266888
 20
355.3925962705871
 30
0.0
 40
3.000000038662472
100
AcDbArc
 50
90.0
 51
270.0
  0
ARC
  5
1C8
330
1F
100
AcDbEntity
  8
E-2
  6
Continuous
 62
     3
370
     9
100
AcDbCircle
 10
-63.08057630384283
 20
315.3927117425043
 30
0.0
 40
3.000000038662472
100
AcDbArc
 50
270.0
 51
90.0
  0
ARC
  5
1C9
330
1F
100
AcDbEntity
  8
E-2
  6
Continuous
 62
     3
370
     9
100
AcDbCircle
 10
-97.08054001266888
 20
315.3927117425043
 30
0.0
 40
3.000000038662472
100
AcDbArc
 50
90.0
 51
270.0
  0
ARC
  5
1CA
330
1F
100
AcDbEntity
  8
E-2
  6
Continuous
 62
     3
370
     9
100
AcDbCircle
 10
-108.0804773279138
 20
375.3925385346284
 30
0.0
 40
3.000000038662472
100
AcDbArc
 50
270.0
 51
90.0
  0
ARC
  5
1CB
330
1F
100
AcDbEntity
  8
E-2
  6
Continuous
 62
     3
370
     9
100
AcDbCircle
 10
-142.0805647566512
 20
375.3925385346284
 30
0.0
 40
3.000000038662472
100
AcDbArc
 50
90.0
 51
270.0
  0
ARC
  5
1CC
330
1F
100
AcDbEntity
  8
E-2
  6
Continuous
 62
     3
370
     9
100
AcDbCircle
 10
-108.0804773279138
 20
335.3926540065457
 30
0.0
 40
3.000000038662472
100
AcDbArc
 50
270.0
 51
90.0
  0
ARC
  5
1CD
330
1F
100
AcDbEntity
  8
E-2
  6
Continuous
 62
     3
370
     9
100
AcDbCircle
 10
-142.0805647566512
 20
335.3926540065457
 30
0.0
 40
3.000000038662472
100
AcDbArc
 50
90.0
 51
270.0
  0
TEXT
  5
1CE
330
1F
100
AcDbEntity
  8
D-5
  6
Continuous
 62
     2
370
     9
100
AcDbText
 10
-278.0332802437447
 20
-432.2506811853357
 30
0.0
 40
15.24
  1
断面詳細図　Ｓ＝１：２
 41
1.113636363636364
  7
ＭＳ ゴシック
100
AcDbText
  0
TEXT
  5
1CF
330
1F
100
AcDbEntity
  8
F-4
  6
Continuous
 62
     2
370
     9
100
AcDbText
 10
228.3755823083827
 20
288.549130925359
 30
0.0
 40
15.24
  1
排水穴詳細図　Ｓ＝１：１
 41
1.114583333333333
  7
ＭＳ ゴシック
100
AcDbText
  0
TEXT
  5
1D0
330
1F
100
AcDbEntity
  8
E-4
  6
Continuous
 62
     2
370
     9
100
AcDbText
 10
-177.3306026974239
 20
514.020132627745
 30
0.0
 40
15.24
  1
292
 41
1.083333333333333
  7
ＭＳ ゴシック
100
AcDbText
  0
TEXT
  5
1D1
330
1F
100
AcDbEntity
  8
E-4
  6
Continuous
 62
     2
370
     9
100
AcDbText
 10
-320.983282553183
 20
480.3980095280828
 30
0.0
 40
15.24
  1
7
 41
0.9999999999999998
  7
ＭＳ ゴシック
100
AcDbText
  0
TEXT
  5
1D2
330
1F
100
AcDbEntity
  8
E-4
  6
Continuous
 62
     2
370
     9
100
AcDbText
 10
-298.0498174718908
 20
480.3980095280828
 30
0.0
 40
15.24
  1
1
 41
0.9999999999999998
  7
ＭＳ ゴシック
100
AcDbText
  0
TEXT
  5
1D3
330
1F
100
AcDbEntity
  8
E-4
  6
Continuous
 62
     2
370
     9
100
AcDbText
 10
-177.3306026974239
 20
480.3980095280828
 30
0.0
 40
15.24
  1
276
 41
1.083333333333333
  7
ＭＳ ゴシック
100
AcDbText
  0
TEXT
  5
1D4
330
1F
100
AcDbEntity
  8
E-4
  6
Continuous
 62
     2
370
     9
100
AcDbText
 10
-33.9065696097709
 20
480.3980095280828
 30
0.0
 40
15.24
  1
1
 41
0.9999999999999998
  7
ＭＳ ゴシック
100
AcDbText
  0
TEXT
  5
1D5
330
1F
100
AcDbEntity
  8
E-4
  6
Continuous
 62
     2
370
     9
100
AcDbText
 10
-11.34163521431582
 20
480.3980095280828
 30
0.0
 40
15.24
  1
7
 41
0.9999999999999998
  7
ＭＳ ゴシック
100
AcDbText
  0
TEXT
  5
1D6
330
1F
100
AcDbEntity
  8
D-4
  6
Continuous
 62
     2
370
     9
100
AcDbText
 10
-492.7345173248401
 20
-224.7549315989312
 30
0.0
 40
15.24
  1
90
 50
90.00000250447816
 41
1.062499999999999
  7
ＭＳ ゴシック
100
AcDbText
  0
TEXT
  5
1D7
330
1F
100
AcDbEntity
  8
D-4
  6
Continuous
 62
     2
370
     9
100
AcDbText
 10
-177.2540200723184
 20
-22.79784074113177
 30
0.0
 40
15.24
  1
142
 41
1.083333333333333
  7
ＭＳ ゴシック
100
AcDbText
  0
TEXT
  5
1D8
330
1F
100
AcDbEntity
  8
D-4
  6
Continuous
 62
     2
370
     9
100
AcDbText
 10
-177.2540200723184
 20
-182.8813846732475
 30
0.0
 40
15.24
  1
114
 41
1.083333333333333
  7
ＭＳ ゴシック
100
AcDbText
  0
TEXT
  5
1D9
330
1F
100
AcDbEntity
  8
D-4
  6
Continuous
 62
     2
370
     9
100
AcDbText
 10
-177.2540200723184
 20
-368.9028080130912
 30
0.0
 40
15.24
  1
142
 41
1.083333333333333
  7
ＭＳ ゴシック
100
AcDbText
  0
TEXT
  5
1DA
330
1F
100
AcDbEntity
  8
D-4
  6
Continuous
 62
     2
370
     9
100
AcDbText
 10
-334.7539891423406
 20
-59.9964590371621
 30
0.0
 40
15.24
  1
7
 41
0.9999999999999998
  7
ＭＳ ゴシック
100
AcDbText
  0
TEXT
  5
1DB
330
1F
100
AcDbEntity
  8
D-4
  6
Continuous
 62
     2
370
     9
100
AcDbText
 10
-315.8399983998891
 20
-59.9964590371621
 30
0.0
 40
15.24
  1
1
 41
0.9999999999999998
  7
ＭＳ ゴシック
100
AcDbText
  0
TEXT
  5
1DC
330
1F
100
AcDbEntity
  8
D-4
  6
Continuous
 62
     2
370
     9
100
AcDbText
 10
-177.2540200723184
 20
-59.9964590371621
 30
0.0
 40
15.24
  1
126
 41
1.083333333333333
  7
ＭＳ ゴシック
100
AcDbText
  0
TEXT
  5
1DD
330
1F
100
AcDbEntity
  8
D-4
  6
Continuous
 62
     2
370
     9
100
AcDbText
 10
-14.88385999524908
 20
-59.9964590371621
 30
0.0
 40
15.24
  1
1
 41
0.9999999999999998
  7
ＭＳ ゴシック
100
AcDbText
  0
TEXT
  5
1DE
330
1F
100
AcDbEntity
  8
D-4
  6
Continuous
 62
     2
370
     9
100
AcDbText
 10
2.745979927681645
 20
-59.9964590371621
 30
0.0
 40
15.24
  1
7
 41
0.9999999999999998
  7
ＭＳ ゴシック
100
AcDbText
  0
TEXT
  5
1DF
330
1F
100
AcDbEntity
  8
D-4
  6
Continuous
 62
     2
370
     9
100
AcDbText
 10
-99.59631204042883
 20
-102.3052649828522
 30
0.0
 40
15.24
  1
1.5
 50
90.00000250447816
 41
1.083333333333333
  7
ＭＳ ゴシック
100
AcDbText
  0
TEXT
  5
1E0
330
1F
100
AcDbEntity
  8
D-4
  6
Continuous
 62
     2
370
     9
100
AcDbText
 10
-57.49059114768639
 20
-128.5047996310258
 30
0.0
 40
15.24
  1
11
 50
90.00000250447816
 41
1.0625
  7
ＭＳ ゴシック
100
AcDbText
  0
TEXT
  5
1E1
330
1F
100
AcDbEntity
  8
D-4
  6
Continuous
 62
     2
370
     9
100
AcDbText
 10
-451.2417046268882
 20
-185.2543806329261
 30
0.0
 40
15.24
  1
20
 50
90.00000250447816
 41
1.062499999999999
  7
ＭＳ ゴシック
100
AcDbText
  0
TEXT
  5
1E2
330
1F
100
AcDbEntity
  8
D-4
  6
Continuous
 62
     2
370
     9
100
AcDbText
 10
-382.7540794578758
 20
-22.79784074113177
 30
0.0
 40
15.24
  1
27
 41
1.0625
  7
ＭＳ ゴシック
100
AcDbText
  0
TEXT
  5
1E3
330
1F
100
AcDbEntity
  8
D-4
  6
Continuous
 62
     2
370
     9
100
AcDbText
 10
-451.2417041351351
 20
-147.504831385803
 30
0.0
 40
15.24
  1
19.5
 50
90.00000250447816
 41
1.09375
  7
ＭＳ ゴシック
100
AcDbText
  0
TEXT
  5
1E4
330
1F
100
AcDbEntity
  8
F-4
  6
Continuous
 62
     2
370
     9
100
AcDbText
 10
344.6073418694574
 20
434.0816049276817
 30
0.0
 40
15.24
  1
40
 41
1.0625
  7
ＭＳ ゴシック
100
AcDbText
  0
TEXT
  5
1E5
330
1F
100
AcDbEntity
  8
F-4
  6
Continuous
 62
     2
370
     9
100
AcDbText
 10
501.1158192773619
 20
363.8640861309569
 30
0.0
 40
15.24
  1
6
 50
90.00000250447816
 41
1.000000000000001
  7
ＭＳ ゴシック
100
AcDbText
  0
TEXT
  5
1E6
330
1F
100
AcDbEntity
  8
E-4
  6
Continuous
 62
     2
370
     9
100
AcDbText
 10
-248.2055210422825
 20
237.8675166939401
 30
0.0
 40
15.24
  1
45
 41
1.0625
  7
ＭＳ ゴシック
100
AcDbText
  0
TEXT
  5
1E7
330
1F
100
AcDbEntity
  8
E-4
  6
Continuous
 62
     2
370
     9
100
AcDbText
 10
-364.2234287215883
 20
293.2384386634209
 30
0.0
 40
15.24
  1
20
 50
90.00000250447816
 41
1.062499999999999
  7
ＭＳ ゴシック
100
AcDbText
  0
TEXT
  5
1E8
330
1F
100
AcDbEntity
  8
E-4
  6
Continuous
 62
     2
370
     9
100
AcDbText
 10
-364.2234287215883
 20
357.0709845882521
 30
0.0
 40
15.24
  1
20
 50
90.00000250447816
 41
1.062500000000001
  7
ＭＳ ゴシック
100
AcDbText
  0
TEXT
  5
1E9
330
1F
100
AcDbEntity
  8
F-5
  6
Continuous
 62
     2
370
     9
100
AcDbText
 10
-395.0001134099187
 20
-673.7341478749868
 30
0.0
 40
15.24
  1
ステンレス製床排水ボックス　ＳＷ１５０×３００
 41
1.119565217391304
  7
ＭＳ ゴシック
100
AcDbText
  0
LWPOLYLINE
  5
1EA
330
1F
100
AcDbEntity
  8
D-4
  6
Continuous
 62
     7
370
     9
100
AcDbPolyline
 90
        4
 70
     1
 43
0.5
 10
-338.2539870803421
 20
-65.31646728515625
 42
0.4142135623731
 10
-338.5039870803421
 20
-65.06646728515625
 42
0.4142135623731
 10
-338.753987080342
 20
-65.31646728515625
 42
0.4142135623731
 10
-338.5039870803421
 20
-65.56646728515625
 42
0.4142135623731
  0
LWPOLYLINE
  5
1EB
330
1F
100
AcDbEntity
  8
D-4
  6
Continuous
 62
     7
370
     9
100
AcDbPolyline
 90
        4
 70
     1
 43
0.5
 10
-320.7539912043391
 20
-65.31646728515625
 42
0.4142135623731
 10
-321.0039912043391
 20
-65.06646728515625
 42
0.4142135623731
 10
-321.2539912043391
 20
-65.31646728515625
 42
0.4142135623731
 10
-321.0039912043391
 20
-65.56646728515625
 42
0.4142135623731
  0
LWPOLYLINE
  5
1EC
330
1F
100
AcDbEntity
  8
D-4
  6
Continuous
 62
     7
370
     9
100
AcDbPolyline
 90
        4
 70
     1
 43
0.5
 10
-318.2540448163007
 20
-65.31646728515625
 42
0.4142135623731
 10
-318.5040448163006
 20
-65.06646728515625
 42
0.4142135623731
 10
-318.7540448163006
 20
-65.31646728515625
 42
0.4142135623731
 10
-318.5040448163006
 20
-65.56646728515625
 42
0.4142135623731
  0
LWPOLYLINE
  5
1ED
330
1F
100
AcDbEntity
  8
D-4
  6
Continuous
 62
     7
370
     9
100
AcDbPolyline
 90
        4
 70
     1
 43
0.5
 10
-3.25399532833606
 20
-65.31646728515625
 42
0.4142135623731
 10
-3.50399532833606
 20
-65.06646728515625
 42
0.4142135623731
 10
-3.75399532833606
 20
-65.31646728515625
 42
0.4142135623731
 10
-3.50399532833606
 20
-65.56646728515625
 42
0.4142135623731
  0
LWPOLYLINE
  5
1EE
330
1F
100
AcDbEntity
  8
D-4
  6
Continuous
 62
     7
370
     9
100
AcDbPolyline
 90
        4
 70
     1
 43
0.5
 10
-0.753987080342057
 20
-65.31646728515625
 42
0.4142135623731
 10
-1.003987080342057
 20
-65.06646728515625
 42
0.4142135623731
 10
-1.253987080342057
 20
-65.31646728515625
 42
0.4142135623731
 10
-1.003987080342057
 20
-65.56646728515625
 42
0.4142135623731
  0
LWPOLYLINE
  5
1EF
330
1F
100
AcDbEntity
  8
D-4
  6
Continuous
 62
     7
370
     9
100
AcDbPolyline
 90
        4
 70
     1
 43
0.5
 10
16.74594693570535
 20
-65.31646728515625
 42
0.4142135623731
 10
16.49594693570535
 20
-65.06646728515625
 42
0.4142135623731
 10
16.24594693570535
 20
-65.31646728515625
 42
0.4142135623731
 10
16.49594693570535
 20
-65.56646728515625
 42
0.4142135623731
  0
LWPOLYLINE
  5
1F0
330
1F
100
AcDbEntity
  8
D-4
  6
Continuous
 62
     7
370
     9
100
AcDbPolyline
 90
        4
 70
     1
 43
0.5
 10
-338.2539870803421
 20
-28.11784898912578
 42
0.4142135623731
 10
-338.5039870803421
 20
-27.86784898912578
 42
0.4142135623731
 10
-338.753987080342
 20
-28.11784898912578
 42
0.4142135623731
 10
-338.5039870803421
 20
-28.36784898912578
 42
0.4142135623731
  0
LWPOLYLINE
  5
1F1
330
1F
100
AcDbEntity
  8
D-4
  6
Continuous
 62
     7
370
     9
100
AcDbPolyline
 90
        4
 70
     1
 43
0.5
 10
16.74594693570535
 20
-28.11784898912578
 42
0.4142135623731
 10
16.49594693570535
 20
-27.86784898912578
 42
0.4142135623731
 10
16.24594693570535
 20
-28.11784898912578
 42
0.4142135623731
 10
16.49594693570535
 20
-28.36784898912578
 42
0.4142135623731
  0
LWPOLYLINE
  5
1F2
330
1F
100
AcDbEntity
  8
D-4
  6
Continuous
 62
     7
370
     9
100
AcDbPolyline
 90
        4
 70
     1
 43
0.5
 10
-303.2539334683805
 20
-188.2013929212415
 42
0.4142135623731
 10
-303.5039334683805
 20
-187.9513929212416
 42
0.4142135623731
 10
-303.7539334683805
 20
-188.2013929212415
 42
0.4142135623731
 10
-303.5039334683805
 20
-188.4513929212415
 42
0.4142135623731
  0
LWPOLYLINE
  5
1F3
330
1F
100
AcDbEntity
  8
D-4
  6
Continuous
 62
     7
370
     9
100
AcDbPolyline
 90
        4
 70
     1
 43
0.5
 10
-18.25404481630065
 20
-188.2013929212415
 42
0.4142135623731
 10
-18.50404481630065
 20
-187.9513929212416
 42
0.4142135623731
 10
-18.75404481630065
 20
-188.2013929212415
 42
0.4142135623731
 10
-18.50404481630065
 20
-188.4513929212415
 42
0.4142135623731
  0
LWPOLYLINE
  5
1F4
330
1F
100
AcDbEntity
  8
D-4
  6
Continuous
 62
     7
370
     9
100
AcDbPolyline
 90
        4
 70
     1
 43
0.5
 10
-338.2539870803421
 20
-374.2228162610853
 42
0.4142135623731
 10
-338.5039870803421
 20
-373.9728162610853
 42
0.4142135623731
 10
-338.753987080342
 20
-374.2228162610853
 42
0.4142135623731
 10
-338.5039870803421
 20
-374.4728162610853
 42
0.4142135623731
  0
LWPOLYLINE
  5
1F5
330
1F
100
AcDbEntity
  8
D-4
  6
Continuous
 62
     7
370
     9
100
AcDbPolyline
 90
        4
 70
     1
 43
0.5
 10
16.74594693570535
 20
-374.2228162610853
 42
0.4142135623731
 10
16.49594693570535
 20
-373.9728162610853
 42
0.4142135623731
 10
16.24594693570535
 20
-374.2228162610853
 42
0.4142135623731
 10
16.49594693570535
 20
-374.4728162610853
 42
0.4142135623731
  0
LWPOLYLINE
  5
1F6
330
1F
100
AcDbEntity
  8
D-4
  6
Continuous
 62
     7
370
     9
100
AcDbPolyline
 90
        4
 70
     1
 43
0.5
 10
-51.92058336412578
 20
-131.6298448717271
 42
0.4142135623731
 10
-52.17058336412578
 20
-131.3798448717271
 42
0.4142135623731
 10
-52.42058336412578
 20
-131.6298448717271
 42
0.4142135623731
 10
-52.17058336412578
 20
-131.8798448717272
 42
0.4142135623731
  0
LWPOLYLINE
  5
1F7
330
1F
100
AcDbEntity
  8
D-4
  6
Continuous
 62
     7
370
     9
100
AcDbPolyline
 90
        4
 70
     1
 43
0.5
 10
-51.92058336412578
 20
-104.1298778637035
 42
0.4142135623731
 10
-52.17058336412578
 20
-103.8798778637035
 42
0.4142135623731
 10
-52.42058336412578
 20
-104.1298778637035
 42
0.4142135623731
 10
-52.17058336412578
 20
-104.3798778637035
 42
0.4142135623731
  0
LWPOLYLINE
  5
1F8
330
1F
100
AcDbEntity
  8
D-4
  6
Continuous
 62
     7
370
     9
100
AcDbPolyline
 90
        4
 70
     1
 43
0.5
 10
-94.02630450274492
 20
-107.879828375739
 42
0.4142135623731
 10
-94.27630450274492
 20
-107.629828375739
 42
0.4142135623731
 10
-94.52630450274492
 20
-107.879828375739
 42
0.4142135623731
 10
-94.27630450274492
 20
-108.129828375739
 42
0.4142135623731
  0
LWPOLYLINE
  5
1F9
330
1F
100
AcDbEntity
  8
D-4
  6
Continuous
 62
     7
370
     9
100
AcDbPolyline
 90
        4
 70
     1
 43
0.5
 10
-94.02630450274492
 20
-104.1298778637035
 42
0.4142135623731
 10
-94.27630450274492
 20
-103.8798778637035
 42
0.4142135623731
 10
-94.52630450274492
 20
-104.1298778637035
 42
0.4142135623731
 10
-94.27630450274492
 20
-104.3798778637035
 42
0.4142135623731
  0
LWPOLYLINE
  5
1FA
330
1F
100
AcDbEntity
  8
D-4
  6
Continuous
 62
     7
370
     9
100
AcDbPolyline
 90
        4
 70
     1
 43
0.5
 10
-487.1645095412796
 20
-326.6299624056429
 42
0.4142135623731
 10
-487.4145095412796
 20
-326.3799624056429
 42
0.4142135623731
 10
-487.6645095412795
 20
-326.6299624056429
 42
0.4142135623731
 10
-487.4145095412796
 20
-326.8799624056429
 42
0.4142135623731
  0
LWPOLYLINE
  5
1FB
330
1F
100
AcDbEntity
  8
D-4
  6
Continuous
 62
     7
370
     9
100
AcDbPolyline
 90
        4
 70
     1
 43
0.5
 10
-487.1645095412796
 20
-101.6299933356207
 42
0.4142135623731
 10
-487.4145095412796
 20
-101.3799933356207
 42
0.4142135623731
 10
-487.6645095412795
 20
-101.6299933356207
 42
0.4142135623731
 10
-487.4145095412796
 20
-101.8799933356207
 42
0.4142135623731
  0
LWPOLYLINE
  5
1FC
330
1F
100
AcDbEntity
  8
F-4
  6
Continuous
 62
     7
370
     9
100
AcDbPolyline
 90
        4
 70
     1
 43
0.5
 10
255.4820738096495
 20
428.7615966796875
 42
0.4142135623731
 10
255.2320738096495
 20
429.0115966796875
 42
0.4142135623731
 10
254.9820738096495
 20
428.7615966796875
 42
0.4142135623731
 10
255.2320738096495
 20
428.5115966796875
 42
0.4142135623731
  0
LWPOLYLINE
  5
1FD
330
1F
100
AcDbEntity
  8
F-4
  6
Continuous
 62
     7
370
     9
100
AcDbPolyline
 90
        4
 70
     1
 43
0.5
 10
455.4826099292654
 20
428.7615966796875
 42
0.4142135623731
 10
455.2326099292654
 20
429.0115966796875
 42
0.4142135623731
 10
454.9826099292654
 20
428.7615966796875
 42
0.4142135623731
 10
455.2326099292654
 20
428.5115966796875
 42
0.4142135623731
  0
LWPOLYLINE
  5
1FE
330
1F
100
AcDbEntity
  8
F-4
  6
Continuous
 62
     7
370
     9
100
AcDbPolyline
 90
        4
 70
     1
 43
0.5
 10
506.685827306799
 20
383.8645069019215
 42
0.4142135623731
 10
506.435827306799
 20
384.1145069019215
 42
0.4142135623731
 10
506.185827306799
 20
383.8645069019215
 42
0.4142135623731
 10
506.435827306799
 20
383.6145069019215
 42
0.4142135623731
  0
LWPOLYLINE
  5
1FF
330
1F
100
AcDbEntity
  8
F-4
  6
Continuous
 62
     7
370
     9
100
AcDbPolyline
 90
        4
 70
     1
 43
0.5
 10
506.685827306799
 20
353.8636656065246
 42
0.4142135623731
 10
506.435827306799
 20
354.1136656065246
 42
0.4142135623731
 10
506.185827306799
 20
353.8636656065246
 42
0.4142135623731
 10
506.435827306799
 20
353.6136656065246
 42
0.4142135623731
  0
LWPOLYLINE
  5
200
330
1F
100
AcDbEntity
  8
E-4
  6
Continuous
 62
     7
370
     9
100
AcDbPolyline
 90
        4
 70
     1
 43
0.5
 10
-306.8306142446156
 20
475.0780012800888
 42
0.4142135623731
 10
-307.0806142446156
 20
475.3280012800888
 42
0.4142135623731
 10
-307.3306142446156
 20
475.0780012800888
 42
0.4142135623731
 10
-307.0806142446156
 20
474.8280012800888
 42
0.4142135623731
  0
LWPOLYLINE
  5
201
330
1F
100
AcDbEntity
  8
E-4
  6
Continuous
 62
     7
370
     9
100
AcDbPolyline
 90
        4
 70
     1
 43
0.5
 10
-299.8306035222233
 20
475.0780012800888
 42
0.4142135623731
 10
-300.0806035222233
 20
475.3280012800888
 42
0.4142135623731
 10
-300.3306035222233
 20
475.0780012800888
 42
0.4142135623731
 10
-300.0806035222233
 20
474.8280012800888
 42
0.4142135623731
  0
LWPOLYLINE
  5
202
330
1F
100
AcDbEntity
  8
E-4
  6
Continuous
 62
     7
370
     9
100
AcDbPolyline
 90
        4
 70
     1
 43
0.5
 10
-298.8305754790435
 20
475.0780012800888
 42
0.4142135623731
 10
-299.0805754790435
 20
475.3280012800888
 42
0.4142135623731
 10
-299.3305754790435
 20
475.0780012800888
 42
0.4142135623731
 10
-299.0805754790435
 20
474.8280012800888
 42
0.4142135623731
  0
LWPOLYLINE
  5
203
330
1F
100
AcDbEntity
  8
E-4
  6
Continuous
 62
     7
370
     9
100
AcDbPolyline
 90
        4
 70
     1
 43
0.5
 10
-22.83056805584883
 20
475.0780012800888
 42
0.4142135623731
 10
-23.08056805584883
 20
475.3280012800888
 42
0.4142135623731
 10
-23.33056805584883
 20
475.0780012800888
 42
0.4142135623731
 10
-23.08056805584883
 20
474.8280012800888
 42
0.4142135623731
  0
LWPOLYLINE
  5
204
330
1F
100
AcDbEntity
  8
E-4
  6
Continuous
 62
     7
370
     9
100
AcDbPolyline
 90
        4
 70
     1
 43
0.5
 10
-21.83041629275755
 20
475.0780012800888
 42
0.4142135623731
 10
-22.08041629275755
 20
475.3280012800888
 42
0.4142135623731
 10
-22.33041629275755
 20
475.0780012800888
 42
0.4142135623731
 10
-22.08041629275755
 20
474.8280012800888
 42
0.4142135623731
  0
LWPOLYLINE
  5
205
330
1F
100
AcDbEntity
  8
E-4
  6
Continuous
 62
     7
370
     9
100
AcDbPolyline
 90
        4
 70
     1
 43
0.5
 10
-14.83059115023215
 20
475.0780012800888
 42
0.4142135623731
 10
-15.08059115023215
 20
475.3280012800888
 42
0.4142135623731
 10
-15.33059115023215
 20
475.0780012800888
 42
0.4142135623731
 10
-15.08059115023215
 20
474.8280012800888
 42
0.4142135623731
  0
LWPOLYLINE
  5
206
330
1F
100
AcDbEntity
  8
E-4
  6
Continuous
 62
     7
370
     9
100
AcDbPolyline
 90
        4
 70
     1
 43
0.5
 10
-306.8306142446156
 20
508.7001243797509
 42
0.4142135623731
 10
-307.0806142446156
 20
508.9501243797509
 42
0.4142135623731
 10
-307.3306142446156
 20
508.7001243797509
 42
0.4142135623731
 10
-307.0806142446156
 20
508.4501243797509
 42
0.4142135623731
  0
LWPOLYLINE
  5
207
330
1F
100
AcDbEntity
  8
E-4
  6
Continuous
 62
     7
370
     9
100
AcDbPolyline
 90
        4
 70
     1
 43
0.5
 10
-14.83059115023215
 20
508.7001243797509
 42
0.4142135623731
 10
-15.08059115023215
 20
508.9501243797509
 42
0.4142135623731
 10
-15.33059115023215
 20
508.7001243797509
 42
0.4142135623731
 10
-15.08059115023215
 20
508.4501243797509
 42
0.4142135623731
  0
LWPOLYLINE
  5
208
330
1F
100
AcDbEntity
  8
D-4
  6
Continuous
 62
     7
370
     9
100
AcDbPolyline
 90
        4
 70
     1
 43
0.5
 10
-445.6716968433277
 20
-101.6299933356207
 42
0.4142135623731
 10
-445.9216968433277
 20
-101.3799933356207
 42
0.4142135623731
 10
-446.1716968433277
 20
-101.6299933356207
 42
0.4142135623731
 10
-445.9216968433277
 20
-101.8799933356207
 42
0.4142135623731
  0
LWPOLYLINE
  5
209
330
1F
100
AcDbEntity
  8
D-4
  6
Continuous
 62
     7
370
     9
100
AcDbPolyline
 90
        4
 70
     1
 43
0.5
 10
-445.6716968433277
 20
-149.6296073294974
 42
0.4142135623731
 10
-445.9216968433277
 20
-149.3796073294974
 42
0.4142135623731
 10
-446.1716968433277
 20
-149.6296073294974
 42
0.4142135623731
 10
-445.9216968433277
 20
-149.8796073294975
 42
0.4142135623731
  0
LWPOLYLINE
  5
20A
330
1F
100
AcDbEntity
  8
D-4
  6
Continuous
 62
     7
370
     9
100
AcDbPolyline
 90
        4
 70
     1
 43
0.5
 10
-445.6716968433277
 20
-199.6292774097339
 42
0.4142135623731
 10
-445.9216968433277
 20
-199.3792774097339
 42
0.4142135623731
 10
-446.1716968433277
 20
-199.6292774097339
 42
0.4142135623731
 10
-445.9216968433277
 20
-199.8792774097339
 42
0.4142135623731
  0
LWPOLYLINE
  5
20B
330
1F
100
AcDbEntity
  8
D-4
  6
Continuous
 62
     7
370
     9
100
AcDbPolyline
 90
        4
 70
     1
 43
0.5
 10
-405.5041718354096
 20
-28.11784898912578
 42
0.4142135623731
 10
-405.7541718354096
 20
-27.86784898912578
 42
0.4142135623731
 10
-406.0041718354096
 20
-28.11784898912578
 42
0.4142135623731
 10
-405.7541718354096
 20
-28.36784898912578
 42
0.4142135623731
  0
LWPOLYLINE
  5
20C
330
1F
100
AcDbEntity
  8
E-4
  6
Continuous
 62
     7
370
     9
100
AcDbPolyline
 90
        4
 70
     1
 43
0.5
 10
-259.8305334142736
 20
232.547508445946
 42
0.4142135623731
 10
-260.0805334142735
 20
232.7975084459459
 42
0.4142135623731
 10
-260.3305334142735
 20
232.547508445946
 42
0.4142135623731
 10
-260.0805334142735
 20
232.297508445946
 42
0.4142135623731
  0
LWPOLYLINE
  5
20D
330
1F
100
AcDbEntity
  8
E-4
  6
Continuous
 62
     7
370
     9
100
AcDbPolyline
 90
        4
 70
     1
 43
0.5
 10
-214.8305086702914
 20
232.547508445946
 42
0.4142135623731
 10
-215.0805086702914
 20
232.7975084459459
 42
0.4142135623731
 10
-215.3305086702914
 20
232.547508445946
 42
0.4142135623731
 10
-215.0805086702914
 20
232.297508445946
 42
0.4142135623731
  0
LWPOLYLINE
  5
20E
330
1F
100
AcDbEntity
  8
E-4
  6
Continuous
 62
     7
370
     9
100
AcDbPolyline
 90
        4
 70
     1
 43
0.5
 10
-358.6534209380279
 20
315.3927117425043
 42
0.4142135623731
 10
-358.9034209380279
 20
315.6427117425043
 42
0.4142135623731
 10
-359.1534209380279
 20
315.3927117425043
 42
0.4142135623731
 10
-358.9034209380279
 20
315.1427117425043
 42
0.4142135623731
  0
LWPOLYLINE
  5
20F
330
1F
100
AcDbEntity
  8
E-4
  6
Continuous
 62
     7
370
     9
100
AcDbPolyline
 90
        4
 70
     1
 43
0.5
 10
-358.6534209380279
 20
335.3926540065457
 42
0.4142135623731
 10
-358.9034209380279
 20
335.6426540065457
 42
0.4142135623731
 10
-359.1534209380279
 20
335.3926540065457
 42
0.4142135623731
 10
-358.9034209380279
 20
335.1426540065457
 42
0.4142135623731
  0
LWPOLYLINE
  5
210
330
1F
100
AcDbEntity
  8
E-4
  6
Continuous
 62
     7
370
     9
100
AcDbPolyline
 90
        4
 70
     1
 43
0.5
 10
-358.6534209380279
 20
355.3925962705871
 42
0.4142135623731
 10
-358.9034209380279
 20
355.6425962705871
 42
0.4142135623731
 10
-359.1534209380279
 20
355.3925962705871
 42
0.4142135623731
 10
-358.9034209380279
 20
355.1425962705871
 42
0.4142135623731
  0
LINE
  5
211
330
1F
100
AcDbEntity
  8
D-5
  6
Continuous
 62
     7
370
     9
100
AcDbLine
 10
65.20435230152032
 20
-52.76384508287578
 30
0.0
 11
14.02587890625
 21
-103.150263605891
 31
0.0
  0
LINE
  5
212
330
1F
100
AcDbEntity
  8
D-5
  6
Continuous
 62
     7
370
     9
100
AcDbLine
 10
93.9074954471073
 20
-118.7171977275126
 30
0.0
 11
61.41072866078972
 21
-152.735224543391
 31
0.0
  0
LINE
  5
213
330
1F
100
AcDbEntity
  8
D-5
  6
Continuous
 62
     7
370
     9
100
AcDbLine
 10
61.41072866078972
 20
-152.735224543391
 30
0.0
 11
68.79148741026185
 21
-142.6469792546453
 31
0.0
  0
LINE
  5
214
330
1F
100
AcDbEntity
  8
D-5
  6
Continuous
 62
     7
370
     9
100
AcDbLine
 10
61.41072866078972
 20
-152.735224543391
 30
0.0
 11
71.15107355891055
 21
-144.9009085990287
 31
0.0
  0
LINE
  5
215
330
1F
100
AcDbEntity
  8
D-5
  6
Continuous
 62
     7
370
     9
100
AcDbLine
 10
36.77215576171875
 20
18.4615841427366
 30
0.0
 11
-74.56401103251679
 21
-105.1962197793496
 31
0.0
  0
LINE
  5
216
330
1F
100
AcDbEntity
  8
D-5
  6
Continuous
 62
     7
370
     9
100
AcDbLine
 10
-74.56401103251679
 20
-105.1962197793496
 30
0.0
 11
-67.484139107369
 21
-94.8944339236698
 31
0.0
  0
LINE
  5
217
330
1F
100
AcDbEntity
  8
D-5
  6
Continuous
 62
     7
370
     9
100
AcDbLine
 10
-74.56401103251679
 20
-105.1962197793496
 30
0.0
 11
-65.05922884554465
 21
-97.07784291860222
 31
0.0
  0
LINE
  5
218
330
1F
100
AcDbEntity
  8
D-5
  6
Continuous
 62
     7
370
     9
100
AcDbLine
 10
14.02587890625
 20
-103.150263605891
 30
0.0
 11
21.71259699641055
 21
-93.29300339157513
 31
0.0
  0
LINE
  5
219
330
1F
100
AcDbEntity
  8
D-5
  6
Continuous
 62
     7
370
     9
100
AcDbLine
 10
14.02587890625
 20
-103.150263605891
 30
0.0
 11
24.00178651551954
 21
-95.61819540487747
 31
0.0
  0
TEXT
  5
21A
330
1F
100
AcDbEntity
  8
D-5
  6
Continuous
 62
     7
370
     9
100
AcDbText
 10
38.05529545459287
 20
24.21560359414088
 30
0.0
 40
11.43
  1
蓋：ｔ＝１．５
 41
1.142857142857143
  7
ＭＳ ゴシック
100
AcDbText
  0
TEXT
  5
21B
330
1F
100
AcDbEntity
  8
D-5
  6
Continuous
 62
     7
370
     9
100
AcDbText
 10
66.25260016488713
 20
-46.36322207039559
 30
0.0
 40
11.43
  1
受枠：ｔ＝０．８
 41
1.145833333333333
  7
ＭＳ ゴシック
100
AcDbText
  0
TEXT
  5
21C
330
1F
100
AcDbEntity
  8
D-5
  6
Continuous
 62
     7
370
     9
100
AcDbText
 10
67.19996695233057
 20
-70.04739175648167
 30
0.0
 40
11.43
  1
（ＳＵＳ３０４）
 41
1.145833333333333
  7
ＭＳ ゴシック
100
AcDbText
  0
TEXT
  5
21D
330
1F
100
AcDbEntity
  8
D-5
  6
Continuous
 62
     7
370
     9
100
AcDbText
 10
96.594622930781
 20
-112.2052137977148
 30
0.0
 40
11.43
  1
アンカー：ｔ＝２．３
 41
1.15
  7
ＭＳ ゴシック
100
AcDbText
  0
TEXT
  5
21E
330
1F
100
AcDbEntity
  8
D-5
  6
Continuous
 62
     7
370
     9
100
AcDbText
 10
132.5419897182244
 20
-135.8893834838009
 30
0.0
 40
11.43
  1
（ＳＰＨＣ）
 41
1.138888888888889
  7
ＭＳ ゴシック
100
AcDbText
  0
LINE
  5
21F
330
1F
100
AcDbEntity
  8
D-5
  6
Continuous
 62
     7
370
     9
100
AcDbLine
 10
36.77215576171875
 20
18.4615841427366
 30
0.0
 11
166.2657041505207
 21
18.4615841427366
 31
0.0
  0
LINE
  5
220
330
1F
100
AcDbEntity
  8
D-5
  6
Continuous
 62
     7
370
     9
100
AcDbLine
 10
65.20435230152032
 20
-52.76384508287578
 30
0.0
 11
207.9498427980322
 21
-52.76384508287578
 31
0.0
  0
LINE
  5
221
330
1F
100
AcDbEntity
  8
D-5
  6
Continuous
 62
     7
370
     9
100
AcDbLine
 10
93.9074954471073
 20
-118.7171977275126
 30
0.0
 11
267.1602670132473
 21
-118.7171977275126
 31
0.0
  0
TEXT
  5
222
330
1F
100
AcDbEntity
  8
D-5
  6
Continuous
 62
     7
370
     9
100
AcDbText
 10
35.11741703720755
 20
2.875866555086117
 30
0.0
 40
11.43
  1
（ＳＵＳ３０４）
 41
1.145833333333333
  7
ＭＳ ゴシック
100
AcDbText
  0
LINE
  5
223
330
1F
100
AcDbEntity
  8
E-5
  6
Continuous
 62
     7
370
     9
100
AcDbLine
 10
-306.6524196315456
 20
181.53469601193
 30
0.0
 11
-306.6524196315456
 21
152.6397870038008
 31
0.0
  0
LINE
  5
224
330
1F
100
AcDbEntity
  8
E-5
  6
Continuous
 62
     7
370
     9
100
AcDbLine
 10
-306.6524196315456
 20
152.6397870038008
 30
0.0
 11
-19.92595775707343
 21
152.6397870038008
 31
0.0
  0
LINE
  5
225
330
1F
100
AcDbEntity
  8
E-5
  6
Continuous
 62
     7
370
     9
100
AcDbLine
 10
-19.92595775707343
 20
152.6397870038008
 30
0.0
 11
-19.92595775707343
 21
181.53469601193
 31
0.0
  0
LINE
  5
226
330
1F
100
AcDbEntity
  8
E-5
  6
Continuous
 62
     7
370
     9
100
AcDbLine
 10
-19.92595775707343
 20
181.53469601193
 30
0.0
 11
-306.6524196315456
 21
181.53469601193
 31
0.0
  0
TEXT
  5
227
330
1F
100
AcDbEntity
  8
E-5
  6
Continuous
 62
     2
370
     9
100
AcDbText
 10
-287.557981336439
 20
161.3316577148437
 30
0.0
 40
15.24
  1
平面詳細図　Ｓ＝１：５
 41
1.113636363636364
  7
ＭＳ ゴシック
100
AcDbText
  0
LINE
  5
228
330
1F
100
AcDbEntity
  8
F-4
  6
Continuous
 62
     7
370
     9
100
AcDbLine
 10
220.5311130832982
 20
308.7521692224452
 30
0.0
 11
220.5311130832982
 21
279.8572602143159
 31
0.0
  0
LINE
  5
229
330
1F
100
AcDbEntity
  8
F-4
  6
Continuous
 62
     7
370
     9
100
AcDbLine
 10
220.5311130832982
 20
279.8572602143159
 30
0.0
 11
507.2575749577703
 21
279.8572602143159
 31
0.0
  0
LINE
  5
22A
330
1F
100
AcDbEntity
  8
F-4
  6
Continuous
 62
     7
370
     9
100
AcDbLine
 10
507.2575749577703
 20
279.8572602143159
 30
0.0
 11
507.2575749577703
 21
308.7521692224452
 31
0.0
  0
LINE
  5
22B
330
1F
100
AcDbEntity
  8
F-4
  6
Continuous
 62
     7
370
     9
100
AcDbLine
 10
507.2575749577703
 20
308.7521692224452
 30
0.0
 11
220.5311130832982
 21
308.7521692224452
 31
0.0
  0
LINE
  5
22C
330
1F
100
AcDbEntity
  8
D-5
  6
Continuous
 62
     7
370
     9
100
AcDbLine
 10
-291.8918918918918
 20
-408.6666560817409
 30
0.0
 11
-291.8918918918918
 21
-442.5
 31
0.0
  0
LINE
  5
22D
330
1F
100
AcDbEntity
  8
D-5
  6
Continuous
 62
     7
370
     9
100
AcDbLine
 10
-291.8918918918918
 20
-442.5
 30
0.0
 11
-21.22514054581913
 21
-442.5
 31
0.0
  0
LINE
  5
22E
330
1F
100
AcDbEntity
  8
D-5
  6
Continuous
 62
     7
370
     9
100
AcDbLine
 10
-21.22514054581913
 20
-442.5
 30
0.0
 11
-21.22514054581913
 21
-408.6666560817409
 31
0.0
  0
LINE
  5
22F
330
1F
100
AcDbEntity
  8
D-5
  6
Continuous
 62
     7
370
     9
100
AcDbLine
 10
-21.22514054581913
 20
-408.6666560817409
 30
0.0
 11
-291.8918918918918
 21
-408.6666560817409
 31
0.0
  0
ENDSEC
  0
SECTION
  2
OBJECTS
  0
DICTIONARY
  5
C
330
0
100
AcDbDictionary
281
     1
  3
ACAD_GROUP
350
D
  3
ACAD_LAYOUT
350
1A
  3
ACAD_MLEADERSTYLE
350
231
  3
ACAD_MLINESTYLE
350
17
  3
ACAD_PLOTSETTINGS
350
19
  3
ACAD_PLOTSTYLENAME
350
E
  3
ACAD_TABLESTYLE
350
230
  3
ACAD_VISUALSTYLE
350
2A
  0
DICTIONARY
  5
D
102
{ACAD_REACTORS
330
C
102
}
330
C
100
AcDbDictionary
281
     1
  0
DICTIONARY
  5
1A
102
{ACAD_REACTORS
330
C
102
}
330
C
100
AcDbDictionary
281
     1
  3
Layout1
350
1E
  3
Layout2
350
26
  3
Model
350
22
  0
DICTIONARY
  5
231
102
{ACAD_REACTORS
330
C
102
}
330
C
100
AcDbDictionary
281
     1
  0
DICTIONARY
  5
17
102
{ACAD_REACTORS
330
C
102
}
330
C
100
AcDbDictionary
281
     1
  3
Standard
350
18
  0
DICTIONARY
  5
19
102
{ACAD_REACTORS
330
C
102
}
330
C
100
AcDbDictionary
281
     1
  0
ACDBDICTIONARYWDFLT
  5
E
102
{ACAD_REACTORS
330
C
102
}
330
C
100
AcDbDictionary
281
     1
  3
Normal
350
F
100
AcDbDictionaryWithDefault
340
F
  0
DICTIONARY
  5
230
102
{ACAD_REACTORS
330
C
102
}
330
C
100
AcDbDictionary
281
     1
  0
DICTIONARY
  5
2A
102
{ACAD_REACTORS
330
C
102
}
330
C
100
AcDbDictionary
281
     1
  3
2dWireframe
350
2F
  3
3D Hidden
350
31
  3
3dWireframe
350
30
  3
Basic
350
32
  3
Brighten
350
36
  3
ColorChange
350
3A
  3
Conceptual
350
34
  3
Dim
350
35
  3
Facepattern
350
39
  3
Flat
350
2B
  3
FlatWithEdges
350
2C
  3
Gouraud
350
2D
  3
GouraudWithEdges
350
2E
  3
Linepattern
350
38
  3
Realistic
350
33
  3
Thicken
350
37
  0
LAYOUT
  5
1E
102
{ACAD_REACTORS
330
1A
102
}
330
1A
100
AcDbPlotSettings
  1

  2
none_device
  4

  6

 40
0.0
 41
0.0
 42
0.0
 43
0.0
 44
0.0
 45
0.0
 46
0.0
 47
0.0
 48
0.0
 49
0.0
140
0.0
141
0.0
142
1.0
143
1.0
 70
   688
 72
     0
 73
     0
 74
     5
  7

 75
    16
 76
     0
 77
     5
 78
   300
147
1.0
148
0.0
149
0.0
100
AcDbLayout
  1
Layout1
 70
     1
 71
     1
 10
0.0
 20
0.0
 11
420.0
 21
297.0
 12
0.0
 22
0.0
 32
0.0
 14
1.000000000000000E+20
 24
1.000000000000000E+20
 34
1.000000000000000E+20
 15
-1.000000000000000E+20
 25
-1.000000000000000E+20
 35
-1.000000000000000E+20
146
0.0
 13
0.0
 23
0.0
 33
0.0
 16
1.0
 26
0.0
 36
0.0
 17
0.0
 27
1.0
 37
0.0
 76
     0
330
1B
  0
LAYOUT
  5
26
102
{ACAD_REACTORS
330
1A
102
}
330
1A
100
AcDbPlotSettings
  1

  2
none_device
  4

  6

 40
0.0
 41
0.0
 42
0.0
 43
0.0
 44
0.0
 45
0.0
 46
0.0
 47
0.0
 48
0.0
 49
0.0
140
0.0
141
0.0
142
1.0
143
1.0
 70
   688
 72
     0
 73
     0
 74
     5
  7

 75
    16
 76
     0
 77
     5
 78
   300
147
1.0
148
0.0
149
0.0
100
AcDbLayout
  1
Layout2
 70
     1
 71
     2
 10
0.0
 20
0.0
 11
0.0
 21
0.0
 12
0.0
 22
0.0
 32
0.0
 14
0.0
 24
0.0
 34
0.0
 15
0.0
 25
0.0
 35
0.0
146
0.0
 13
0.0
 23
0.0
 33
0.0
 16
1.0
 26
0.0
 36
0.0
 17
0.0
 27
1.0
 37
0.0
 76
     0
330
23
  0
LAYOUT
  5
22
102
{ACAD_REACTORS
330
1A
102
}
330
1A
100
AcDbPlotSettings
  1

  2
none_device
  4

  6

 40
0.0
 41
0.0
 42
0.0
 43
0.0
 44
0.0
 45
0.0
 46
0.0
 47
0.0
 48
0.0
 49
0.0
140
0.0
141
0.0
142
1.0
143
1.0
 70
  1712
 72
     0
 73
     0
 74
     0
  7

 75
     0
 76
     0
 77
     5
 78
   300
147
1.0
148
0.0
149
0.0
100
AcDbLayout
  1
Model
 70
     1
 71
     0
 10
-1050.0
 20
-742.5
 11
1050.0
 21
742.5
 12
0.0
 22
0.0
 32
0.0
 14
-1050.0
 24
-742.5
 34
0.0
 15
1050.0
 25
742.5
 35
0.0
146
0.0
 13
0.0
 23
0.0
 33
0.0
 16
1.0
 26
0.0
 36
0.0
 17
0.0
 27
1.0
 37
0.0
 76
     0
330
1F
331
29
  0
MLINESTYLE
  5
18
102
{ACAD_REACTORS
330
17
102
}
330
17
100
AcDbMlineStyle
  2
Standard
 70
     0
  3

 62
   256
 51
90.0
 52
90.0
 71
     2
 49
0.5
 62
   256
  6
BYLAYER
 49
-0.5
 62
   256
  6
BYLAYER
  0
ACDBPLACEHOLDER
  5
F
102
{ACAD_REACTORS
330
E
102
}
330
E
  0
VISUALSTYLE
  5
2F
102
{ACAD_REACTORS
330
2A
102
}
330
2A
100
AcDbVisualStyle
  2
2dWireframe
 70
     4
 71
     0
 72
     2
 73
     0
 90
        0
 40
-0.6
 41
-30.0
 62
     5
 63
     7
421
 16777215
 74
     1
 91
        4
 64
     7
 65
   257
 75
     1
175
     1
 42
1.0
 92
        0
 66
   257
 43
1.0
 76
     1
 77
     6
 78
     2
 67
     7
 79
     5
170
     0
171
     0
290
     0
174
     0
 93
        1
 44
0.0
173
     0
291
     0
 45
0.0
1001
ACAD
1000
AcDbSavedByObjectVersion
1070
     0
  0
VISUALSTYLE
  5
31
102
{ACAD_REACTORS
330
2A
102
}
330
2A
100
AcDbVisualStyle
  2
3D Hidden
 70
     6
 71
     1
 72
     2
 73
     2
 90
        0
 40
-0.6
 41
-30.0
 62
     5
 63
     7
421
 16777215
 74
     2
 91
        2
 64
     7
 65
   257
 75
     2
175
     1
 42
40.0
 92
        0
 66
   257
 43
1.0
 76
     1
 77
     6
 78
     2
 67
     7
 79
     3
170
     0
171
     0
290
     0
174
     0
 93
        1
 44
0.0
173
     0
291
     0
 45
0.0
1001
ACAD
1000
AcDbSavedByObjectVersion
1070
     0
  0
VISUALSTYLE
  5
30
102
{ACAD_REACTORS
330
2A
102
}
330
2A
100
AcDbVisualStyle
  2
3dWireframe
 70
     5
 71
     0
 72
     2
 73
     0
 90
        0
 40
-0.6
 41
-30.0
 62
     5
 63
     7
421
 16777215
 74
     1
 91
        4
 64
     7
 65
   257
 75
     1
175
     1
 42
1.0
 92
        0
 66
   257
 43
1.0
 76
     1
 77
     6
 78
     2
 67
     7
 79
     5
170
     0
171
     0
290
     0
174
     0
 93
        1
 44
0.0
173
     0
291
     0
 45
0.0
1001
ACAD
1000
AcDbSavedByObjectVersion
1070
     0
  0
VISUALSTYLE
  5
32
102
{ACAD_REACTORS
330
2A
102
}
330
2A
100
AcDbVisualStyle
  2
Basic
 70
     7
 71
     1
 72
     0
 73
     1
 90
        0
 40
-0.6
 41
-30.0
 62
     5
 63
     7
421
 16777215
 74
     0
 91
        4
 64
     7
 65
   257
 75
     1
175
     1
 42
1.0
 92
        8
 66
     7
 43
1.0
 76
     1
 77
     6
 78
     2
 67
     7
 79
     5
170
     0
171
     0
290
     0
174
     0
 93
        1
 44
0.0
173
     0
291
     1
 45
0.0
1001
ACAD
1000
AcDbSavedByObjectVersion
1070
     0
  0
VISUALSTYLE
  5
36
102
{ACAD_REACTORS
330
2A
102
}
330
2A
100
AcDbVisualStyle
  2
Brighten
 70
    12
 71
     2
 72
     2
 73
     0
 90
        0
 40
-0.6
 41
-30.0
 62
     5
 63
     7
421
 16777215
 74
     1
 91
        4
 64
     7
 65
   257
 75
     1
175
     1
 42
1.0
 92
        8
 66
     7
 43
1.0
 76
     1
 77
     6
 78
     2
 67
     7
 79
     5
170
     0
171
     0
290
     0
174
     0
 93
        1
 44
50.0
173
     0
291
     1
 45
0.0
1001
ACAD
1000
AcDbSavedByObjectVersion
1070
     0
  0
VISUALSTYLE
  5
3A
102
{ACAD_REACTORS
330
2A
102
}
330
2A
100
AcDbVisualStyle
  2
ColorChange
 70
    16
 71
     2
 72
     2
 73
     3
 90
        0
 40
-0.6
 41
-30.0
 62
     5
 63
     8
421
  8421504
 74
     1
 91
        4
 64
     7
 65
   257
 75
     1
175
     1
 42
1.0
 92
        8
 66
     8
424
  8421504
 43
1.0
 76
     1
 77
     6
 78
     2
 67
     7
 79
     5
170
     0
171
     0
290
     0
174
     0
 93
        1
 44
0.0
173
     0
291
     1
 45
0.0
1001
ACAD
1000
AcDbSavedByObjectVersion
1070
     0
  0
VISUALSTYLE
  5
34
102
{ACAD_REACTORS
330
2A
102
}
330
2A
100
AcDbVisualStyle
  2
Conceptual
 70
     9
 71
     3
 72
     2
 73
     0
 90
        0
 40
-0.6
 41
-30.0
 62
     5
 63
     7
421
 16777215
 74
     2
 91
        2
 64
     7
 65
   257
 75
     1
175
     1
 42
40.0
 92
        8
 66
     7
 43
1.0
 76
     1
 77
     6
 78
     2
 67
     7
 79
     3
170
     0
171
     0
290
     0
174
     0
 93
        1
 44
0.0
173
     0
291
     0
 45
0.0
1001
ACAD
1000
AcDbSavedByObjectVersion
1070
     0
  0
VISUALSTYLE
  5
35
102
{ACAD_REACTORS
330
2A
102
}
330
2A
100
AcDbVisualStyle
  2
Dim
 70
    11
 71
     2
 72
     2
 73
     0
 90
        0
 40
-0.6
 41
-30.0
 62
     5
 63
     7
421
 16777215
 74
     1
 91
        4
 64
     7
 65
   257
 75
     1
175
     1
 42
1.0
 92
        8
 66
     7
 43
1.0
 76
     1
 77
     6
 78
     2
 67
     7
 79
     5
170
     0
171
     0
290
     0
174
     0
 93
        1
 44
-50.0
173
     0
291
     1
 45
0.0
1001
ACAD
1000
AcDbSavedByObjectVersion
1070
     0
  0
VISUALSTYLE
  5
39
102
{ACAD_REACTORS
330
2A
102
}
330
2A
100
AcDbVisualStyle
  2
Facepattern
 70
    15
 71
     2
 72
     2
 73
     0
 90
        0
 40
-0.6
 41
-30.0
 62
     5
 63
     7
421
 16777215
 74
     1
 91
        4
 64
     7
 65
   257
 75
     1
175
     1
 42
1.0
 92
        8
 66
     7
 43
1.0
 76
     1
 77
     6
 78
     2
 67
     7
 79
     5
170
     0
171
     0
290
     0
174
     0
 93
        1
 44
0.0
173
     0
291
     1
 45
0.0
1001
ACAD
1000
AcDbSavedByObjectVersion
1070
     0
  0
VISUALSTYLE
  5
2B
102
{ACAD_REACTORS
330
2A
102
}
330
2A
100
AcDbVisualStyle
  2
Flat
 70
     0
 71
     2
 72
     1
 73
     1
 90
        2
 40
-0.6
 41
30.0
 62
     5
 63
     7
421
 16777215
 74
     0
 91
        4
 64
     7
 65
   257
 75
     1
175
     1
 42
1.0
 92
        8
 66
     7
 43
1.0
 76
     1
 77
     6
 78
     2
 67
     7
 79
     5
170
     0
171
     0
290
     0
174
     0
 93
       13
 44
0.0
173
     0
291
     1
 45
0.0
1001
ACAD
1000
AcDbSavedByObjectVersion
1070
     0
  0
VISUALSTYLE
  5
2C
102
{ACAD_REACTORS
330
2A
102
}
330
2A
100
AcDbVisualStyle
  2
FlatWithEdges
 70
     1
 71
     2
 72
     1
 73
     1
 90
        2
 40
-0.6
 41
30.0
 62
     5
 63
     7
421
 16777215
 74
     1
 91
        4
 64
     7
 65
   257
 75
     1
175
     1
 42
1.0
 92
        0
 66
   257
 43
1.0
 76
     1
 77
     6
 78
     2
 67
     7
 79
     5
170
     0
171
     0
290
     0
174
     0
 93
       13
 44
0.0
173
     0
291
     1
 45
0.0
1001
ACAD
1000
AcDbSavedByObjectVersion
1070
     0
  0
VISUALSTYLE
  5
2D
102
{ACAD_REACTORS
330
2A
102
}
330
2A
100
AcDbVisualStyle
  2
Gouraud
 70
     2
 71
     2
 72
     2
 73
     1
 90
        2
 40
-0.6
 41
30.0
 62
     5
 63
     7
421
 16777215
 74
     0
 91
        4
 64
     7
 65
   257
 75
     1
175
     1
 42
1.0
 92
        0
 66
     7
 43
1.0
 76
     1
 77
     6
 78
     2
 67
     7
 79
     5
170
     0
171
     0
290
     0
174
     0
 93
       13
 44
0.0
173
     0
291
     1
 45
0.0
1001
ACAD
1000
AcDbSavedByObjectVersion
1070
     0
  0
VISUALSTYLE
  5
2E
102
{ACAD_REACTORS
330
2A
102
}
330
2A
100
AcDbVisualStyle
  2
GouraudWithEdges
 70
     3
 71
     2
 72
     2
 73
     1
 90
        2
 40
-0.6
 41
30.0
 62
     5
 63
     7
421
 16777215
 74
     1
 91
        4
 64
     7
 65
   257
 75
     1
175
     1
 42
1.0
 92
        0
 66
   257
 43
1.0
 76
     1
 77
     6
 78
     2
 67
     7
 79
     5
170
     0
171
     0
290
     0
174
     0
 93
       13
 44
0.0
173
     0
291
     1
 45
0.0
1001
ACAD
1000
AcDbSavedByObjectVersion
1070
     0
  0
VISUALSTYLE
  5
38
102
{ACAD_REACTORS
330
2A
102
}
330
2A
100
AcDbVisualStyle
  2
Linepattern
 70
    14
 71
     2
 72
     2
 73
     0
 90
        0
 40
-0.6
 41
-30.0
 62
     5
 63
     7
421
 16777215
 74
     1
 91
        4
 64
     7
 65
   257
 75
     7
175
     7
 42
1.0
 92
        8
 66
     7
 43
1.0
 76
     1
 77
     6
 78
     2
 67
     7
 79
     5
170
     0
171
     0
290
     0
174
     0
 93
        1
 44
0.0
173
     0
291
     1
 45
0.0
1001
ACAD
1000
AcDbSavedByObjectVersion
1070
     0
  0
VISUALSTYLE
  5
33
102
{ACAD_REACTORS
330
2A
102
}
330
2A
100
AcDbVisualStyle
  2
Realistic
 70
     8
 71
     2
 72
     2
 73
     0
 90
        0
 40
-0.6
 41
-30.0
 62
     5
 63
     7
421
 16777215
 74
     1
 91
        0
 64
     7
 65
   257
 75
     1
175
     1
 42
1.0
 92
        8
 66
     8
424
  7895160
 43
1.0
 76
     1
 77
     6
 78
     2
 67
     7
 79
     5
170
     0
171
     0
290
     0
174
     0
 93
       13
 44
0.0
173
     0
291
     0
 45
0.0
1001
ACAD
1000
AcDbSavedByObjectVersion
1070
     0
  0
VISUALSTYLE
  5
37
102
{ACAD_REACTORS
330
2A
102
}
330
2A
100
AcDbVisualStyle
  2
Thicken
 70
    13
 71
     2
 72
     2
 73
     0
 90
        0
 40
-0.6
 41
-30.0
 62
     5
 63
     7
421
 16777215
 74
     1
 91
        4
 64
     7
 65
   257
 75
     1
175
     1
 42
1.0
 92
       12
 66
     7
 43
1.0
 76
     1
 77
     6
 78
     2
 67
     7
 79
     5
170
     0
171
     0
290
     0
174
     0
 93
        1
 44
0.0
173
     0
291
     1
 45
0.0
1001
ACAD
1000
AcDbSavedByObjectVersion
1070
     0
  0
ENDSEC
  0
EOF
