  0
SECTION
  2
HEADER
  9
$ACADVER
  1
AC1018
  9
$ACADMAINTVER
 70
     0
  9
$DWGCODEPAGE
  3
ANSI_932
  9
$INSBASE
 10
0.0
 20
0.0
 30
0.0
  9
$EXTMIN
 10
-1050.0
 20
-742.5
 30
0.0
  9
$EXTMAX
 10
1050.0
 20
742.5
 30
0.0
  9
$LIMMIN
 10
-1050.0
 20
-742.5
  9
$LIMMAX
 10
1050.0
 20
742.5
  9
$ORTHOMODE
 70
     0
  9
$REGENMODE
 70
     1
  9
$FILLMODE
 70
     1
  9
$QTEXTMODE
 70
     0
  9
$MIRRTEXT
 70
     1
  9
$LTSCALE
 40
5.0
  9
$ATTMODE
 70
     1
  9
$TEXTSIZE
 40
2.5
  9
$TRACEWID
 40
1.0
  9
$TEXTSTYLE
  7
Standard
  9
$CLAYER
  8
0
  9
$CELTYPE
  6
ByLayer
  9
$CECOLOR
 62
   256
  9
$CELTSCALE
 40
1.0
  9
$DISPSILH
 70
     0
  9
$DIMSCALE
 40
1.0
  9
$DIMASZ
 40
2.5
  9
$DIMEXO
 40
0.625
  9
$DIMDLI
 40
3.75
  9
$DIMRND
 40
0.0
  9
$DIMDLE
 40
0.0
  9
$DIMEXE
 40
1.25
  9
$DIMTP
 40
0.0
  9
$DIMTM
 40
0.0
  9
$DIMTXT
 40
2.5
  9
$DIMCEN
 40
2.5
  9
$DIMTSZ
 40
0.0
  9
$DIMTOL
 70
     0
  9
$DIMLIM
 70
     0
  9
$DIMTIH
 70
     0
  9
$DIMTOH
 70
     0
  9
$DIMSE1
 70
     0
  9
$DIMSE2
 70
     0
  9
$DIMTAD
 70
     1
  9
$DIMZIN
 70
     8
  9
$DIMBLK
  1

  9
$DIMASO
 70
     1
  9
$DIMSHO
 70
     1
  9
$DIMPOST
  1

  9
$DIMAPOST
  1

  9
$DIMALT
 70
     0
  9
$DIMALTD
 70
     3
  9
$DIMALTF
 40
0.03937007874016
  9
$DIMLFAC
 40
1.0
  9
$DIMTOFL
 70
     1
  9
$DIMTVP
 40
0.0
  9
$DIMTIX
 70
     0
  9
$DIMSOXD
 70
     0
  9
$DIMSAH
 70
     0
  9
$DIMBLK1
  1

  9
$DIMBLK2
  1

  9
$DIMSTYLE
  2
ISO-25
  9
$DIMCLRD
 70
     0
  9
$DIMCLRE
 70
     0
  9
$DIMCLRT
 70
     0
  9
$DIMTFAC
 40
1.0
  9
$DIMGAP
 40
0.625
  9
$DIMJUST
 70
     0
  9
$DIMSD1
 70
     0
  9
$DIMSD2
 70
     0
  9
$DIMTOLJ
 70
     0
  9
$DIMTZIN
 70
     8
  9
$DIMALTZ
 70
     0
  9
$DIMALTTZ
 70
     0
  9
$DIMUPT
 70
     0
  9
$DIMDEC
 70
     2
  9
$DIMTDEC
 70
     2
  9
$DIMALTU
 70
     2
  9
$DIMALTTD
 70
     3
  9
$DIMTXSTY
  7
Standard
  9
$DIMAUNIT
 70
     0
  9
$DIMADEC
 70
     0
  9
$DIMALTRND
 40
0.0
  9
$DIMAZIN
 70
     0
  9
$DIMDSEP
 70
    44
  9
$DIMATFIT
 70
     3
  9
$DIMFRAC
 70
     0
  9
$DIMLDRBLK
  1

  9
$DIMLUNIT
 70
     2
  9
$DIMLWD
 70
    -2
  9
$DIMLWE
 70
    -2
  9
$DIMTMOVE
 70
     0
  9
$LUNITS
 70
     2
  9
$LUPREC
 70
     4
  9
$SKETCHINC
 40
1.0
  9
$FILLETRAD
 40
10.0
  9
$AUNITS
 70
     0
  9
$AUPREC
 70
     0
  9
$MENU
  1
.
  9
$ELEVATION
 40
0.0
  9
$PELEVATION
 40
0.0
  9
$THICKNESS
 40
0.0
  9
$LIMCHECK
 70
     0
  9
$CHAMFERA
 40
10.0
  9
$CHAMFERB
 40
10.0
  9
$CHAMFERC
 40
20.0
  9
$CHAMFERD
 40
0.0
  9
$SKPOLY
 70
     0
  9
$TDCREATE
 40
2456499.586141956
  9
$TDUCREATE
 40
2456499.211141956
  9
$TDUPDATE
 40
2456499.586141968
  9
$TDUUPDATE
 40
2456499.211141968
  9
$TDINDWG
 40
0.0000000116
  9
$TDUSRTIMER
 40
0.0000000116
  9
$USRTIMER
 70
     1
  9
$ANGBASE
 50
0.0
  9
$ANGDIR
 70
     0
  9
$PDMODE
 70
     0
  9
$PDSIZE
 40
0.0
  9
$PLINEWID
 40
0.0
  9
$SPLFRAME
 70
     0
  9
$SPLINETYPE
 70
     6
  9
$SPLINESEGS
 70
     8
  9
$HANDSEED
  5
270
  9
$SURFTAB1
 70
     6
  9
$SURFTAB2
 70
     6
  9
$SURFTYPE
 70
     6
  9
$SURFU
 70
     6
  9
$SURFV
 70
     6
  9
$UCSBASE
  2

  9
$UCSNAME
  2

  9
$UCSORG
 10
0.0
 20
0.0
 30
0.0
  9
$UCSXDIR
 10
1.0
 20
0.0
 30
0.0
  9
$UCSYDIR
 10
0.0
 20
1.0
 30
0.0
  9
$UCSORTHOREF
  2

  9
$UCSORTHOVIEW
 70
     0
  9
$UCSORGTOP
 10
0.0
 20
0.0
 30
0.0
  9
$UCSORGBOTTOM
 10
0.0
 20
0.0
 30
0.0
  9
$UCSORGLEFT
 10
0.0
 20
0.0
 30
0.0
  9
$UCSORGRIGHT
 10
0.0
 20
0.0
 30
0.0
  9
$UCSORGFRONT
 10
0.0
 20
0.0
 30
0.0
  9
$UCSORGBACK
 10
0.0
 20
0.0
 30
0.0
  9
$PUCSBASE
  2

  9
$PUCSNAME
  2

  9
$PUCSORG
 10
0.0
 20
0.0
 30
0.0
  9
$PUCSXDIR
 10
1.0
 20
0.0
 30
0.0
  9
$PUCSYDIR
 10
0.0
 20
1.0
 30
0.0
  9
$PUCSORTHOREF
  2

  9
$PUCSORTHOVIEW
 70
     0
  9
$PUCSORGTOP
 10
0.0
 20
0.0
 30
0.0
  9
$PUCSORGBOTTOM
 10
0.0
 20
0.0
 30
0.0
  9
$PUCSORGLEFT
 10
0.0
 20
0.0
 30
0.0
  9
$PUCSORGRIGHT
 10
0.0
 20
0.0
 30
0.0
  9
$PUCSORGFRONT
 10
0.0
 20
0.0
 30
0.0
  9
$PUCSORGBACK
 10
0.0
 20
0.0
 30
0.0
  9
$USERI1
 70
     0
  9
$USERI2
 70
     0
  9
$USERI3
 70
     0
  9
$USERI4
 70
     0
  9
$USERI5
 70
     0
  9
$USERR1
 40
0.0
  9
$USERR2
 40
0.0
  9
$USERR3
 40
0.0
  9
$USERR4
 40
0.0
  9
$USERR5
 40
0.0
  9
$WORLDVIEW
 70
     1
  9
$SHADEDGE
 70
     3
  9
$SHADEDIF
 70
    70
  9
$TILEMODE
 70
     1
  9
$MAXACTVP
 70
    64
  9
$PINSBASE
 10
0.0
 20
0.0
 30
0.0
  9
$PLIMCHECK
 70
     0
  9
$PEXTMIN
 10
1.000000000000000E+20
 20
1.000000000000000E+20
 30
1.000000000000000E+20
  9
$PEXTMAX
 10
-1.000000000000000E+20
 20
-1.000000000000000E+20
 30
-1.000000000000000E+20
  9
$PLIMMIN
 10
0.0
 20
0.0
  9
$PLIMMAX
 10
420.0
 20
297.0
  9
$UNITMODE
 70
     0
  9
$VISRETAIN
 70
     1
  9
$PLINEGEN
 70
     0
  9
$PSLTSCALE
 70
     1
  9
$TREEDEPTH
 70
  3020
  9
$CMLSTYLE
  2
Standard
  9
$CMLJUST
 70
     0
  9
$CMLSCALE
 40
20.0
  9
$PROXYGRAPHICS
 70
     1
  9
$MEASUREMENT
 70
     1
  9
$CELWEIGHT
370
    -1
  9
$ENDCAPS
280
     0
  9
$JOINSTYLE
280
     0
  9
$LWDISPLAY
290
     0
  9
$INSUNITS
 70
     4
  9
$HYPERLINKBASE
  1

  9
$STYLESHEET
  1

  9
$XEDIT
290
     1
  9
$CEPSNTYPE
380
     0
  9
$PSTYLEMODE
290
     1
  9
$FINGERPRINTGUID
  2
{13B382C7-1E5A-406B-A889-DEFE202C1F24}
  9
$VERSIONGUID
  2
{FAEB1C32-E019-11D5-929B-00C0DF256EC4}
  9
$EXTNAMES
290
     1
  9
$PSVPSCALE
 40
0.0
  9
$OLESTARTUP
290
     0
  9
$SORTENTS
280
   127
  9
$INDEXCTL
280
     0
  9
$HIDETEXT
280
     1
  9
$XCLIPFRAME
290
     0
  9
$HALOGAP
280
     0
  9
$OBSCOLOR
 70
   257
  9
$OBSLTYPE
280
     0
  9
$INTERSECTIONDISPLAY
280
     0
  9
$INTERSECTIONCOLOR
 70
   257
  9
$DIMASSOC
280
     2
  9
$PROJECTNAME
  1

  0
ENDSEC
  0
SECTION
  2
CLASSES
  0
CLASS
  1
ACDBDICTIONARYWDFLT
  2
AcDbDictionaryWithDefault
  3
ObjectDBX Classes
 90
        0
 91
        4
280
     0
281
     0
  0
CLASS
  1
VISUALSTYLE
  2
AcDbVisualStyle
  3
ObjectDBX Classes
 90
     4095
 91
        4
280
     0
281
     0
  0
ENDSEC
  0
SECTION
  2
TABLES
  0
TABLE
  2
VPORT
  5
8
330
0
100
AcDbSymbolTable
 70
     1
  0
VPORT
  5
29
330
8
100
AcDbSymbolTableRecord
100
AcDbViewportTableRecord
  2
*Active
 70
     0
 10
0.0
 20
0.0
 11
1.0
 21
1.0
 12
0.0
 22
0.0
 13
0.0
 23
0.0
 14
10.0
 24
10.0
 15
10.0
 25
10.0
 16
0.0
 26
0.0
 36
1.0
 17
0.0
 27
0.0
 37
0.0
 40
1633.5
 41
1.414141414141414
 42
50.0
 43
0.0
 44
0.0
 50
0.0
 51
0.0
 71
     0
 72
 10000
 73
     1
 74
     3
 75
     0
 76
     0
 77
     0
 78
     0
281
     0
 65
     1
110
0.0
120
0.0
130
0.0
111
1.0
121
0.0
131
0.0
112
0.0
122
1.0
132
0.0
 79
     0
146
0.0
  0
ENDTAB
  0
TABLE
  2
LTYPE
  5
5
330
0
100
AcDbSymbolTable
 70
     5
  0
LTYPE
  5
14
330
5
100
AcDbSymbolTableRecord
100
AcDbLinetypeTableRecord
  2
ByBlock
 70
     0
  3

 72
    65
 73
     0
 40
0.0
  0
LTYPE
  5
15
330
5
100
AcDbSymbolTableRecord
100
AcDbLinetypeTableRecord
  2
ByLayer
 70
     0
  3

 72
    65
 73
     0
 40
0.0
  0
LTYPE
  5
16
330
5
100
AcDbSymbolTableRecord
100
AcDbLinetypeTableRecord
  2
Continuous
 70
     0
  3
Solid line
 72
    65
 73
     0
 40
0.0
  0
LTYPE
  5
3C
330
5
100
AcDbSymbolTableRecord
100
AcDbLinetypeTableRecord
  2
JWW_DASHED2
 70
     0
  3
--    ----    ----    ----    --
 72
    65
 73
     2
 40
3.386666666666667
 49
1.693333333333333
 74
     0
 49
-1.693333333333333
 74
     0
  0
LTYPE
  5
3D
330
5
100
AcDbSymbolTableRecord
100
AcDbLinetypeTableRecord
  2
JWW_DASHED1
 70
     0
  3
-  --  --  --  --  --  --  --  -
 72
    65
 73
     2
 40
1.693333333333333
 49
0.8466666666666667
 74
     0
 49
-0.8466666666666667
 74
     0
  0
LTYPE
  5
3E
330
5
100
AcDbSymbolTableRecord
100
AcDbLinetypeTableRecord
  2
JWW_DASHED3
 70
     0
  3
---  ------  ------  ------  ---
 72
    65
 73
     2
 40
3.386666666666667
 49
2.54
 74
     0
 49
-0.8466666666666667
 74
     0
  0
LTYPE
  5
3F
330
5
100
AcDbSymbolTableRecord
100
AcDbLinetypeTableRecord
  2
JWW_CENTER1
 70
     0
  3
-----  --  ----------  --  -----
 72
    65
 73
     4
 40
6.773333333333333
 49
4.233333333333333
 74
     0
 49
-0.8466666666666667
 74
     0
 49
0.8466666666666667
 74
     0
 49
-0.8466666666666667
 74
     0
  0
ENDTAB
  0
TABLE
  2
LAYER
  5
2
330
0
100
AcDbSymbolTable
 70
    14
  0
LAYER
  5
10
330
2
100
AcDbSymbolTableRecord
100
AcDbLayerTableRecord
  2
0
 70
     0
 62
     7
  6
Continuous
370
    -3
390
F
  0
LAYER
  5
40
330
2
100
AcDbSymbolTableRecord
100
AcDbLayerTableRecord
  2
1-2
 70
     0
 62
     7
  6
Continuous
370
    -3
390
F
  0
LAYER
  5
41
330
2
100
AcDbSymbolTableRecord
100
AcDbLayerTableRecord
  2
1-1
 70
     0
 62
     7
  6
Continuous
370
    -3
390
F
  0
LAYER
  5
42
330
2
100
AcDbSymbolTableRecord
100
AcDbLayerTableRecord
  2
1-0
 70
     0
 62
     7
  6
Continuous
370
    -3
390
F
  0
LAYER
  5
43
330
2
100
AcDbSymbolTableRecord
100
AcDbLayerTableRecord
  2
1-4
 70
     0
 62
     7
  6
Continuous
370
    -3
390
F
  0
LAYER
  5
44
330
2
100
AcDbSymbolTableRecord
100
AcDbLayerTableRecord
  2
F-1
 70
     0
 62
     7
  6
Continuous
370
    -3
390
F
  0
LAYER
  5
45
330
2
100
AcDbSymbolTableRecord
100
AcDbLayerTableRecord
  2
F-4
 70
     0
 62
     7
  6
Continuous
370
    -3
390
F
  0
LAYER
  5
46
330
2
100
AcDbSymbolTableRecord
100
AcDbLayerTableRecord
  2
F-5
 70
     0
 62
     7
  6
Continuous
370
    -3
390
F
  0
LAYER
  5
47
330
2
100
AcDbSymbolTableRecord
100
AcDbLayerTableRecord
  2
D-2
 70
     0
 62
     7
  6
Continuous
370
    -3
390
F
  0
LAYER
  5
48
330
2
100
AcDbSymbolTableRecord
100
AcDbLayerTableRecord
  2
D-1
 70
     0
 62
     7
  6
Continuous
370
    -3
390
F
  0
LAYER
  5
49
330
2
100
AcDbSymbolTableRecord
100
AcDbLayerTableRecord
  2
D-0
 70
     0
 62
     7
  6
Continuous
370
    -3
390
F
  0
LAYER
  5
4A
330
2
100
AcDbSymbolTableRecord
100
AcDbLayerTableRecord
  2
D-4
 70
     0
 62
     7
  6
Continuous
370
    -3
390
F
  0
LAYER
  5
4B
330
2
100
AcDbSymbolTableRecord
100
AcDbLayerTableRecord
  2
D-5
 70
     0
 62
     7
  6
Continuous
370
    -3
390
F
  0
LAYER
  5
4C
330
2
100
AcDbSymbolTableRecord
100
AcDbLayerTableRecord
  2
1-5
 70
     0
 62
     7
  6
Continuous
370
    -3
390
F
  0
ENDTAB
  0
TABLE
  2
STYLE
  5
3
330
0
100
AcDbSymbolTable
 70
     2
  0
STYLE
  5
11
330
3
100
AcDbSymbolTableRecord
100
AcDbTextStyleTableRecord
  2
Standard
 70
     0
 40
0.0
 41
1.0
 50
0.0
 71
     0
 42
2.5
  3
txt
  4

1001
ACAD
1000

1071
        0
  0
STYLE
  5
3B
330
3
100
AcDbSymbolTableRecord
100
AcDbTextStyleTableRecord
  2
ＭＳ ゴシック
 70
     0
 40
1.0
 41
1.0
 50
0.0
 71
     0
 42
10.0
  3

  4

1001
ACAD
1000
MS Gothic
1071
    32817
  0
ENDTAB
  0
TABLE
  2
VIEW
  5
6
330
0
100
AcDbSymbolTable
 70
     0
  0
ENDTAB
  0
TABLE
  2
UCS
  5
7
330
0
100
AcDbSymbolTable
 70
     0
  0
ENDTAB
  0
TABLE
  2
APPID
  5
9
330
0
100
AcDbSymbolTable
 70
     1
  0
APPID
  5
12
330
9
100
AcDbSymbolTableRecord
100
AcDbRegAppTableRecord
  2
ACAD
 70
     0
  0
ENDTAB
  0
TABLE
  2
DIMSTYLE
  5
A
330
0
100
AcDbSymbolTable
 70
     1
100
AcDbDimStyleTable
  0
DIMSTYLE
105
27
330
A
100
AcDbSymbolTableRecord
100
AcDbDimStyleTableRecord
  2
ISO-25
 70
     0
 41
2.5
 42
0.625
 43
3.75
 44
1.25
 73
     0
 74
     0
 77
     1
 78
     8
140
2.5
141
2.5
143
0.03937007874016
147
0.625
171
     3
172
     1
271
     2
272
     2
274
     3
278
    44
283
     0
284
     8
340
11
  0
ENDTAB
  0
TABLE
  2
BLOCK_RECORD
  5
1
330
0
100
AcDbSymbolTable
 70
     1
  0
BLOCK_RECORD
  5
1F
330
1
100
AcDbSymbolTableRecord
100
AcDbBlockTableRecord
  2
*Model_Space
340
22
  0
BLOCK_RECORD
  5
1B
330
1
100
AcDbSymbolTableRecord
100
AcDbBlockTableRecord
  2
*Paper_Space
340
1E
  0
BLOCK_RECORD
  5
23
330
1
100
AcDbSymbolTableRecord
100
AcDbBlockTableRecord
  2
*Paper_Space0
340
26
  0
ENDTAB
  0
ENDSEC
  0
SECTION
  2
BLOCKS
  0
BLOCK
  5
20
330
1F
100
AcDbEntity
  8
0
100
AcDbBlockBegin
  2
*Model_Space
 70
     0
 10
0.0
 20
0.0
 30
0.0
  3
*Model_Space
  1

  0
ENDBLK
  5
21
330
1F
100
AcDbEntity
  8
0
100
AcDbBlockEnd
  0
BLOCK
  5
1C
330
1B
100
AcDbEntity
 67
     1
  8
0
100
AcDbBlockBegin
  2
*Paper_Space
 70
     0
 10
0.0
 20
0.0
 30
0.0
  3
*Paper_Space
  1

  0
ENDBLK
  5
1D
330
1B
100
AcDbEntity
 67
     1
  8
0
100
AcDbBlockEnd
  0
BLOCK
  5
24
330
23
100
AcDbEntity
  8
0
100
AcDbBlockBegin
  2
*Paper_Space0
 70
     0
 10
0.0
 20
0.0
 30
0.0
  3
*Paper_Space0
  1

  0
ENDBLK
  5
25
330
23
100
AcDbEntity
  8
0
100
AcDbBlockEnd
  0
ENDSEC
  0
SECTION
  2
ENTITIES
  0
LINE
  5
4D
330
1F
100
AcDbEntity
  8
1-2
  6
Continuous
 62
     3
370
     9
100
AcDbLine
 10
-385.2431426177154
 20
349.0946341849663
 30
0.0
 11
-385.2431426177154
 21
475.0947034681167
 31
0.0
  0
LINE
  5
4E
330
1F
100
AcDbEntity
  8
1-2
  6
JWW_DASHED2
 62
     3
370
     9
100
AcDbLine
 10
-383.7431624129011
 20
350.5946143897805
 30
0.0
 11
-383.7431624129011
 21
403.1504615577492
 31
0.0
  0
LINE
  5
4F
330
1F
100
AcDbEntity
  8
1-2
  6
JWW_DASHED2
 62
     3
370
     9
100
AcDbLine
 10
-383.7431624129011
 20
421.0388760953338
 30
0.0
 11
-383.7431624129011
 21
473.5947232633025
 31
0.0
  0
LINE
  5
50
330
1F
100
AcDbEntity
  8
1-2
  6
Continuous
 62
     3
370
     9
100
AcDbLine
 10
-383.7431624129011
 20
403.1504615577492
 30
0.0
 11
-383.7431624129011
 21
421.0388760953338
 31
0.0
  0
LINE
  5
51
330
1F
100
AcDbEntity
  8
1-2
  6
Continuous
 62
     3
370
     9
100
AcDbLine
 10
39.25682274070951
 20
403.1504615577492
 30
0.0
 11
39.25682274070951
 21
421.0388760953338
 31
0.0
  0
LINE
  5
52
330
1F
100
AcDbEntity
  8
1-2
  6
Continuous
 62
     3
370
     9
100
AcDbLine
 10
-363.2431442673142
 20
455.0947612040753
 30
0.0
 11
-329.2431186985324
 21
455.0947612040753
 31
0.0
  0
LINE
  5
53
330
1F
100
AcDbEntity
  8
1-2
  6
Continuous
 62
     3
370
     9
100
AcDbLine
 10
-363.2431442673142
 20
449.0945929449958
 30
0.0
 11
-329.2431186985324
 21
449.0945929449958
 31
0.0
  0
LINE
  5
54
330
1F
100
AcDbEntity
  8
1-2
  6
Continuous
 62
     3
370
     9
100
AcDbLine
 10
-363.2431442673142
 20
415.0946292361698
 30
0.0
 11
-329.2431186985324
 21
415.0946292361698
 31
0.0
  0
LINE
  5
55
330
1F
100
AcDbEntity
  8
1-2
  6
Continuous
 62
     3
370
     9
100
AcDbLine
 10
-363.2431442673142
 20
409.094708416913
 30
0.0
 11
-329.2431186985324
 21
409.094708416913
 31
0.0
  0
LINE
  5
56
330
1F
100
AcDbEntity
  8
1-2
  6
Continuous
 62
     3
370
     9
100
AcDbLine
 10
-363.2431442673142
 20
375.0947447080871
 30
0.0
 11
-329.2431186985324
 21
375.0947447080871
 31
0.0
  0
LINE
  5
57
330
1F
100
AcDbEntity
  8
1-2
  6
Continuous
 62
     3
370
     9
100
AcDbLine
 10
-363.2431442673142
 20
369.0945764490077
 30
0.0
 11
-329.2431186985324
 21
369.0945764490077
 31
0.0
  0
LINE
  5
58
330
1F
100
AcDbEntity
  8
1-1
  6
Continuous
 62
     7
370
     9
100
AcDbLine
 10
-386.2431706608952
 20
476.0946077913852
 30
0.0
 11
41.75695470861498
 21
476.0946077913852
 31
0.0
  0
LINE
  5
59
330
1F
100
AcDbEntity
  8
1-1
  6
Continuous
 62
     7
370
     9
100
AcDbLine
 10
41.75695470861498
 20
476.0946077913852
 30
0.0
 11
41.75695470861498
 21
348.0947298616977
 31
0.0
  0
LINE
  5
5A
330
1F
100
AcDbEntity
  8
1-1
  6
Continuous
 62
     7
370
     9
100
AcDbLine
 10
-393.2431813832875
 20
483.0946803737332
 30
0.0
 11
48.75690357105157
 21
483.0946803737332
 31
0.0
  0
LINE
  5
5B
330
1F
100
AcDbEntity
  8
1-1
  6
Continuous
 62
     7
370
     9
100
AcDbLine
 10
48.75690357105157
 20
483.0946803737332
 30
0.0
 11
48.75690357105157
 21
341.0946572793497
 31
0.0
  0
LINE
  5
5C
330
1F
100
AcDbEntity
  8
1-1
  6
Continuous
 62
     7
370
     9
100
AcDbLine
 10
-386.2431706608952
 20
348.0947298616977
 30
0.0
 11
-386.2431706608952
 21
476.0946077913852
 31
0.0
  0
LINE
  5
5D
330
1F
100
AcDbEntity
  8
1-1
  6
Continuous
 62
     7
370
     9
100
AcDbLine
 10
41.75695470861498
 20
348.0947298616977
 30
0.0
 11
-386.2431706608952
 21
348.0947298616977
 31
0.0
  0
LINE
  5
5E
330
1F
100
AcDbEntity
  8
1-1
  6
Continuous
 62
     7
370
     9
100
AcDbLine
 10
48.75690357105157
 20
341.0946572793497
 30
0.0
 11
-393.2431813832875
 21
341.0946572793497
 31
0.0
  0
LINE
  5
5F
330
1F
100
AcDbEntity
  8
1-1
  6
Continuous
 62
     7
370
     9
100
AcDbLine
 10
-393.2431813832875
 20
341.0946572793497
 30
0.0
 11
-393.2431813832875
 21
483.0946803737332
 31
0.0
  0
LINE
  5
60
330
1F
100
AcDbEntity
  8
1-0
  6
Continuous
 62
     3
370
     9
100
AcDbLine
 10
-272.2431285961254
 20
507.9945497255068
 30
0.0
 11
-272.2431285961254
 21
487.9946074614655
 31
0.0
  0
LINE
  5
61
330
1F
100
AcDbEntity
  8
1-0
  6
Continuous
 62
     3
370
     9
100
AcDbLine
 10
-274.2431846824852
 20
509.9946058118667
 30
0.0
 11
-292.2432564400337
 21
509.9946058118667
 31
0.0
  0
LINE
  5
62
330
1F
100
AcDbEntity
  8
1-0
  6
JWW_DASHED1
 62
     3
370
     9
100
AcDbLine
 10
-289.9431177087732
 20
485.9945513751056
 30
0.0
 11
-292.2432564400337
 21
485.9945513751056
 31
0.0
  0
LINE
  5
63
330
1F
100
AcDbEntity
  8
1-0
  6
Continuous
 62
     3
370
     9
100
AcDbLine
 10
-274.2431846824852
 20
485.9945513751056
 30
0.0
 11
-289.9431177087732
 21
485.9945513751056
 31
0.0
  0
LINE
  5
64
330
1F
100
AcDbEntity
  8
1-0
  6
Continuous
 62
     3
370
     9
100
AcDbLine
 10
-292.2432564400337
 20
483.0946803737332
 30
0.0
 11
-292.2432564400337
 21
509.9946058118667
 31
0.0
  0
LINE
  5
65
330
1F
100
AcDbEntity
  8
1-0
  6
Continuous
 62
     3
370
     9
100
AcDbLine
 10
-289.9431177087732
 20
483.0946803737332
 30
0.0
 11
-289.9431177087732
 21
509.9946058118667
 31
0.0
  0
LINE
  5
66
330
1F
100
AcDbEntity
  8
1-0
  6
Continuous
 62
     3
370
     9
100
AcDbLine
 10
-306.743168186497
 20
485.5945649018159
 30
0.0
 11
-306.743168186497
 21
486.8943662901183
 31
0.0
  0
LINE
  5
67
330
1F
100
AcDbEntity
  8
1-0
  6
Continuous
 62
     3
370
     9
100
AcDbLine
 10
-305.443119358372
 20
488.1944151182433
 30
0.0
 11
-301.0432062922297
 21
488.1944151182433
 31
0.0
  0
LINE
  5
68
330
1F
100
AcDbEntity
  8
1-0
  6
Continuous
 62
     3
370
     9
100
AcDbLine
 10
-299.7432193240603
 20
486.8943662901183
 30
0.0
 11
-299.7432193240603
 21
485.5945649018159
 31
0.0
  0
LINE
  5
69
330
1F
100
AcDbEntity
  8
1-0
  6
Continuous
 62
     3
370
     9
100
AcDbLine
 10
-301.2431376689188
 20
485.5945649018159
 30
0.0
 11
-301.7432135504645
 21
484.594536858636
 31
0.0
  0
LINE
  5
6A
330
1F
100
AcDbEntity
  8
1-0
  6
Continuous
 62
     3
370
     9
100
AcDbLine
 10
-301.7432135504645
 20
485.2545825855152
 30
0.0
 11
-304.7431121001372
 21
485.2545825855152
 31
0.0
  0
LINE
  5
6B
330
1F
100
AcDbEntity
  8
1-0
  6
Continuous
 62
     3
370
     9
100
AcDbLine
 10
-305.2432498416384
 20
485.5945649018159
 30
0.0
 11
-304.7431121001372
 21
484.594536858636
 31
0.0
  0
LINE
  5
6C
330
1F
100
AcDbEntity
  8
1-0
  6
Continuous
 62
     3
370
     9
100
AcDbLine
 10
-304.7431121001372
 20
483.0946803737332
 30
0.0
 11
-304.7431121001372
 21
485.5945649018159
 31
0.0
  0
LINE
  5
6D
330
1F
100
AcDbEntity
  8
1-0
  6
Continuous
 62
     3
370
     9
100
AcDbLine
 10
-305.2432498416384
 20
483.0946803737332
 30
0.0
 11
-305.2432498416384
 21
485.5945649018159
 31
0.0
  0
LINE
  5
6E
330
1F
100
AcDbEntity
  8
1-0
  6
Continuous
 62
     3
370
     9
100
AcDbLine
 10
-301.7432754104202
 20
483.0946803737332
 30
0.0
 11
-301.7432135504645
 21
485.5945649018159
 31
0.0
  0
LINE
  5
6F
330
1F
100
AcDbEntity
  8
1-0
  6
Continuous
 62
     3
370
     9
100
AcDbLine
 10
-301.2431376689188
 20
483.0946803737332
 30
0.0
 11
-301.2431376689188
 21
485.5945649018159
 31
0.0
  0
LINE
  5
70
330
1F
100
AcDbEntity
  8
1-0
  6
Continuous
 62
     3
370
     9
100
AcDbLine
 10
-299.7432193240603
 20
485.5945649018159
 30
0.0
 11
-306.743168186497
 21
485.5945649018159
 31
0.0
  0
LINE
  5
71
330
1F
100
AcDbEntity
  8
1-0
  6
Continuous
 62
     3
370
     9
100
AcDbLine
 10
-10.24301889780403
 20
507.9945497255068
 30
0.0
 11
-10.24301889780403
 21
487.9946074614655
 31
0.0
  0
LINE
  5
72
330
1F
100
AcDbEntity
  8
1-0
  6
Continuous
 62
     3
370
     9
100
AcDbLine
 10
-12.24295126425247
 20
509.9946058118667
 30
0.0
 11
-30.24302302180104
 21
509.9946058118667
 31
0.0
  0
LINE
  5
73
330
1F
100
AcDbEntity
  8
1-0
  6
JWW_DASHED1
 62
     3
370
     9
100
AcDbLine
 10
-27.94306987040741
 20
485.9945513751056
 30
0.0
 11
-30.24302302180104
 21
485.9945513751056
 31
0.0
  0
LINE
  5
74
330
1F
100
AcDbEntity
  8
1-0
  6
Continuous
 62
     3
370
     9
100
AcDbLine
 10
-12.24295126425247
 20
485.9945513751056
 30
0.0
 11
-27.94306987040741
 21
485.9945513751056
 31
0.0
  0
LINE
  5
75
330
1F
100
AcDbEntity
  8
1-0
  6
Continuous
 62
     3
370
     9
100
AcDbLine
 10
-30.24302302180104
 20
483.0946803737332
 30
0.0
 11
-30.24302302180104
 21
509.9946058118667
 31
0.0
  0
LINE
  5
76
330
1F
100
AcDbEntity
  8
1-0
  6
Continuous
 62
     3
370
     9
100
AcDbLine
 10
-27.94306987040741
 20
483.0946803737332
 30
0.0
 11
-27.94306987040741
 21
509.9946058118667
 31
0.0
  0
LINE
  5
77
330
1F
100
AcDbEntity
  8
1-0
  6
Continuous
 62
     3
370
     9
100
AcDbLine
 10
-44.74293476826432
 20
485.5945649018159
 30
0.0
 11
-44.74293476826432
 21
486.8943662901183
 31
0.0
  0
LINE
  5
78
330
1F
100
AcDbEntity
  8
1-0
  6
Continuous
 62
     3
370
     9
100
AcDbLine
 10
-43.44325709987331
 20
488.1944151182433
 30
0.0
 11
-39.042972873997
 21
488.1944151182433
 31
0.0
  0
LINE
  5
79
330
1F
100
AcDbEntity
  8
1-0
  6
Continuous
 62
     3
370
     9
100
AcDbLine
 10
-37.74317148569466
 20
486.8943662901183
 30
0.0
 11
-37.74317148569466
 21
485.5945649018159
 31
0.0
  0
LINE
  5
7A
330
1F
100
AcDbEntity
  8
1-0
  6
Continuous
 62
     3
370
     9
100
AcDbLine
 10
-39.24315169050885
 20
485.5945649018159
 30
0.0
 11
-39.7430419921875
 21
484.594536858636
 31
0.0
  0
LINE
  5
7B
330
1F
100
AcDbEntity
  8
1-0
  6
Continuous
 62
     3
370
     9
100
AcDbLine
 10
-39.7430419921875
 20
485.2545825855152
 30
0.0
 11
-42.74300240181589
 21
485.2545825855152
 31
0.0
  0
LINE
  5
7C
330
1F
100
AcDbEntity
  8
1-0
  6
Continuous
 62
     3
370
     9
100
AcDbLine
 10
-43.24307828336146
 20
485.5945649018159
 30
0.0
 11
-42.74300240181589
 21
484.594536858636
 31
0.0
  0
LINE
  5
7D
330
1F
100
AcDbEntity
  8
1-0
  6
Continuous
 62
     3
370
     9
100
AcDbLine
 10
-42.74300240181589
 20
483.0946803737332
 30
0.0
 11
-42.74300240181589
 21
485.5945649018159
 31
0.0
  0
LINE
  5
7E
330
1F
100
AcDbEntity
  8
1-0
  6
Continuous
 62
     3
370
     9
100
AcDbLine
 10
-43.24307828336146
 20
483.0946803737332
 30
0.0
 11
-43.24307828336146
 21
485.5945649018159
 31
0.0
  0
LINE
  5
7F
330
1F
100
AcDbEntity
  8
1-0
  6
Continuous
 62
     3
370
     9
100
AcDbLine
 10
-39.74322757205442
 20
483.0946803737332
 30
0.0
 11
-39.7430419921875
 21
485.5945649018159
 31
0.0
  0
LINE
  5
80
330
1F
100
AcDbEntity
  8
1-0
  6
Continuous
 62
     3
370
     9
100
AcDbLine
 10
-39.24315169050885
 20
483.0946803737332
 30
0.0
 11
-39.24315169050885
 21
485.5945649018159
 31
0.0
  0
LINE
  5
81
330
1F
100
AcDbEntity
  8
1-0
  6
Continuous
 62
     3
370
     9
100
AcDbLine
 10
-37.74317148569466
 20
485.5945649018159
 30
0.0
 11
-44.74293476826432
 21
485.5945649018159
 31
0.0
  0
LINE
  5
82
330
1F
100
AcDbEntity
  8
1-0
  6
Continuous
 62
     3
370
     9
100
AcDbLine
 10
73.65702036264793
 20
381.0945418074326
 30
0.0
 11
53.65683065878386
 21
381.0945418074326
 31
0.0
  0
LINE
  5
83
330
1F
100
AcDbEntity
  8
1-0
  6
Continuous
 62
     3
370
     9
100
AcDbLine
 10
75.65707644900769
 20
383.0945978937923
 30
0.0
 11
75.65707644900769
 21
401.0946077913852
 31
0.0
  0
LINE
  5
84
330
1F
100
AcDbEntity
  8
1-0
  6
JWW_DASHED1
 62
     3
370
     9
100
AcDbLine
 10
51.6567745724241
 20
398.7947783599029
 30
0.0
 11
51.6567745724241
 21
401.0946077913852
 31
0.0
  0
LINE
  5
85
330
1F
100
AcDbEntity
  8
1-0
  6
Continuous
 62
     3
370
     9
100
AcDbLine
 10
51.6567745724241
 20
383.0945978937923
 30
0.0
 11
51.6567745724241
 21
398.7947783599029
 31
0.0
  0
LINE
  5
86
330
1F
100
AcDbEntity
  8
1-0
  6
Continuous
 62
     3
370
     9
100
AcDbLine
 10
48.75690357105157
 20
401.0946077913852
 30
0.0
 11
75.65707644900769
 21
401.0946077913852
 31
0.0
  0
LINE
  5
87
330
1F
100
AcDbEntity
  8
1-0
  6
Continuous
 62
     3
370
     9
100
AcDbLine
 10
48.75690357105157
 20
398.7947783599029
 30
0.0
 11
75.65707644900769
 21
398.7947783599029
 31
0.0
  0
LINE
  5
88
330
1F
100
AcDbEntity
  8
1-0
  6
Continuous
 62
     3
370
     9
100
AcDbLine
 10
51.25703553895704
 20
415.5947051177155
 30
0.0
 11
52.55683692725938
 21
415.5947051177155
 31
0.0
  0
LINE
  5
89
330
1F
100
AcDbEntity
  8
1-0
  6
Continuous
 62
     3
370
     9
100
AcDbLine
 10
53.85676203547305
 20
414.2946562895905
 30
0.0
 11
53.85676203547305
 21
409.8945576435812
 31
0.0
  0
LINE
  5
8A
330
1F
100
AcDbEntity
  8
1-0
  6
Continuous
 62
     3
370
     9
100
AcDbLine
 10
52.55683692725938
 20
408.5946325353675
 30
0.0
 11
51.25703553895704
 21
408.5946325353675
 31
0.0
  0
LINE
  5
8B
330
1F
100
AcDbEntity
  8
1-0
  6
Continuous
 62
     3
370
     9
100
AcDbLine
 10
51.25703553895704
 20
410.0946127401817
 30
0.0
 11
50.25688377586576
 21
410.5946886217272
 31
0.0
  0
LINE
  5
8C
330
1F
100
AcDbEntity
  8
1-0
  6
Continuous
 62
     3
370
     9
100
AcDbLine
 10
50.91705322265625
 20
410.5946886217272
 30
0.0
 11
50.91705322265625
 21
413.5946490313556
 31
0.0
  0
LINE
  5
8D
330
1F
100
AcDbEntity
  8
1-0
  6
Continuous
 62
     3
370
     9
100
AcDbLine
 10
51.25703553895704
 20
414.0947249129013
 30
0.0
 11
50.25688377586576
 21
413.5946490313556
 31
0.0
  0
LINE
  5
8E
330
1F
100
AcDbEntity
  8
1-0
  6
Continuous
 62
     3
370
     9
100
AcDbLine
 10
48.75690357105157
 20
413.5946490313556
 30
0.0
 11
51.25703553895704
 21
413.5946490313556
 31
0.0
  0
LINE
  5
8F
330
1F
100
AcDbEntity
  8
1-0
  6
Continuous
 62
     3
370
     9
100
AcDbLine
 10
48.75690357105157
 20
414.0947249129013
 30
0.0
 11
51.25703553895704
 21
414.0947249129013
 31
0.0
  0
LINE
  5
90
330
1F
100
AcDbEntity
  8
1-0
  6
Continuous
 62
     3
370
     9
100
AcDbLine
 10
48.75690357105157
 20
410.5946886217272
 30
0.0
 11
51.25703553895704
 21
410.5946886217272
 31
0.0
  0
LINE
  5
91
330
1F
100
AcDbEntity
  8
1-0
  6
Continuous
 62
     3
370
     9
100
AcDbLine
 10
48.75690357105157
 20
410.0946127401817
 30
0.0
 11
51.25703553895704
 21
410.0946127401817
 31
0.0
  0
LINE
  5
92
330
1F
100
AcDbEntity
  8
1-0
  6
Continuous
 62
     3
370
     9
100
AcDbLine
 10
51.25703553895704
 20
408.5946325353675
 30
0.0
 11
51.25703553895704
 21
415.5947051177155
 31
0.0
  0
LINE
  5
93
330
1F
100
AcDbEntity
  8
1-0
  6
Continuous
 62
     3
370
     9
100
AcDbLine
 10
-418.1431744549725
 20
443.0945484058277
 30
0.0
 11
-398.1432321909311
 21
443.0945484058277
 31
0.0
  0
LINE
  5
94
330
1F
100
AcDbEntity
  8
1-0
  6
Continuous
 62
     3
370
     9
100
AcDbLine
 10
-420.1432305413323
 20
441.0947397592906
 30
0.0
 11
-420.1432305413323
 21
423.0946061417864
 31
0.0
  0
LINE
  5
95
330
1F
100
AcDbEntity
  8
1-0
  6
JWW_DASHED1
 62
     3
370
     9
100
AcDbLine
 10
-396.1431761045714
 20
425.39455929318
 30
0.0
 11
-396.1431761045714
 21
423.0946061417864
 31
0.0
  0
LINE
  5
96
330
1F
100
AcDbEntity
  8
1-0
  6
Continuous
 62
     3
370
     9
100
AcDbLine
 10
-396.1431761045714
 20
441.0947397592906
 30
0.0
 11
-396.1431761045714
 21
425.39455929318
 31
0.0
  0
LINE
  5
97
330
1F
100
AcDbEntity
  8
1-0
  6
Continuous
 62
     3
370
     9
100
AcDbLine
 10
-393.2431813832875
 20
423.0946061417864
 30
0.0
 11
-420.1432305413323
 21
423.0946061417864
 31
0.0
  0
LINE
  5
98
330
1F
100
AcDbEntity
  8
1-0
  6
Continuous
 62
     3
370
     9
100
AcDbLine
 10
-393.2431813832875
 20
425.39455929318
 30
0.0
 11
-420.1432305413323
 21
425.39455929318
 31
0.0
  0
LINE
  5
99
330
1F
100
AcDbEntity
  8
1-0
  6
Continuous
 62
     3
370
     9
100
AcDbLine
 10
-395.7431896312817
 20
408.5946325353675
 30
0.0
 11
-397.0428672996727
 21
408.5946325353675
 31
0.0
  0
LINE
  5
9A
330
1F
100
AcDbEntity
  8
1-0
  6
Continuous
 62
     3
370
     9
100
AcDbLine
 10
-398.3429779877534
 20
409.8945576435812
 30
0.0
 11
-398.3429779877534
 21
414.2945325696792
 31
0.0
  0
LINE
  5
9B
330
1F
100
AcDbEntity
  8
1-0
  6
Continuous
 62
     3
370
     9
100
AcDbLine
 10
-397.0428672996727
 20
415.5947051177155
 30
0.0
 11
-395.7431896312817
 21
415.5947051177155
 31
0.0
  0
LINE
  5
9C
330
1F
100
AcDbEntity
  8
1-0
  6
Continuous
 62
     3
370
     9
100
AcDbLine
 10
-395.7431896312817
 20
414.0947249129013
 30
0.0
 11
-394.7431615881017
 21
413.5946490313556
 31
0.0
  0
LINE
  5
9D
330
1F
100
AcDbEntity
  8
1-0
  6
Continuous
 62
     3
370
     9
100
AcDbLine
 10
-395.4030835950697
 20
413.5946490313556
 30
0.0
 11
-395.4030835950697
 21
410.5946886217272
 31
0.0
  0
LINE
  5
9E
330
1F
100
AcDbEntity
  8
1-0
  6
Continuous
 62
     3
370
     9
100
AcDbLine
 10
-395.7431896312817
 20
410.0946127401817
 30
0.0
 11
-394.7431615881017
 21
410.5946886217272
 31
0.0
  0
LINE
  5
9F
330
1F
100
AcDbEntity
  8
1-0
  6
Continuous
 62
     3
370
     9
100
AcDbLine
 10
-393.2431813832875
 20
410.5946886217272
 30
0.0
 11
-395.7431896312817
 21
410.5946886217272
 31
0.0
  0
LINE
  5
A0
330
1F
100
AcDbEntity
  8
1-0
  6
Continuous
 62
     3
370
     9
100
AcDbLine
 10
-393.2431813832875
 20
410.0946127401817
 30
0.0
 11
-395.7431896312817
 21
410.0946127401817
 31
0.0
  0
LINE
  5
A1
330
1F
100
AcDbEntity
  8
1-0
  6
Continuous
 62
     3
370
     9
100
AcDbLine
 10
-393.2431813832875
 20
413.5946490313556
 30
0.0
 11
-395.7431896312817
 21
413.5946490313556
 31
0.0
  0
LINE
  5
A2
330
1F
100
AcDbEntity
  8
1-0
  6
Continuous
 62
     3
370
     9
100
AcDbLine
 10
-393.2431813832875
 20
414.0947249129013
 30
0.0
 11
-395.7431896312817
 21
414.0947249129013
 31
0.0
  0
LINE
  5
A3
330
1F
100
AcDbEntity
  8
1-0
  6
Continuous
 62
     3
370
     9
100
AcDbLine
 10
-395.7431896312817
 20
415.5947051177155
 30
0.0
 11
-395.7431896312817
 21
408.5946325353675
 31
0.0
  0
LINE
  5
A4
330
1F
100
AcDbEntity
  8
1-0
  6
Continuous
 62
     3
370
     9
100
AcDbLine
 10
-334.2431351945207
 20
316.1945404877534
 30
0.0
 11
-334.2431351945207
 21
336.1946064717062
 31
0.0
  0
LINE
  5
A5
330
1F
100
AcDbEntity
  8
1-0
  6
Continuous
 62
     3
370
     9
100
AcDbLine
 10
-332.2432028280721
 20
314.194608121305
 30
0.0
 11
-314.2431929304793
 21
314.194608121305
 31
0.0
  0
LINE
  5
A6
330
1F
100
AcDbEntity
  8
1-0
  6
JWW_DASHED1
 62
     3
370
     9
100
AcDbLine
 10
-316.5431460818728
 20
338.1946625580659
 30
0.0
 11
-314.2431929304793
 21
338.1946625580659
 31
0.0
  0
LINE
  5
A7
330
1F
100
AcDbEntity
  8
1-0
  6
Continuous
 62
     3
370
     9
100
AcDbLine
 10
-332.2432028280721
 20
338.1946625580659
 30
0.0
 11
-316.5431460818728
 21
338.1946625580659
 31
0.0
  0
LINE
  5
A8
330
1F
100
AcDbEntity
  8
1-0
  6
Continuous
 62
     3
370
     9
100
AcDbLine
 10
-314.2431929304793
 20
341.0946572793497
 30
0.0
 11
-314.2431929304793
 21
314.194608121305
 31
0.0
  0
LINE
  5
A9
330
1F
100
AcDbEntity
  8
1-0
  6
Continuous
 62
     3
370
     9
100
AcDbLine
 10
-316.5431460818728
 20
341.0946572793497
 30
0.0
 11
-316.5431460818728
 21
314.194608121305
 31
0.0
  0
LINE
  5
AA
330
1F
100
AcDbEntity
  8
1-0
  6
Continuous
 62
     3
370
     9
100
AcDbLine
 10
-299.7431574641047
 20
338.5946490313556
 30
0.0
 11
-299.7431574641047
 21
337.2948476430532
 31
0.0
  0
LINE
  5
AB
330
1F
100
AcDbEntity
  8
1-0
  6
Continuous
 62
     3
370
     9
100
AcDbLine
 10
-301.0432062922297
 20
335.9949225348396
 30
0.0
 11
-305.4430574984164
 21
335.9949225348396
 31
0.0
  0
LINE
  5
AC
330
1F
100
AcDbEntity
  8
1-0
  6
Continuous
 62
     3
370
     9
100
AcDbLine
 10
-306.743168186497
 20
337.2948476430532
 30
0.0
 11
-306.743168186497
 21
338.5946490313556
 31
0.0
  0
LINE
  5
AD
330
1F
100
AcDbEntity
  8
1-0
  6
Continuous
 62
     3
370
     9
100
AcDbLine
 10
-305.2432498416384
 20
338.5946490313556
 30
0.0
 11
-304.7431121001372
 21
339.5948007944469
 31
0.0
  0
LINE
  5
AE
330
1F
100
AcDbEntity
  8
1-0
  6
Continuous
 62
     3
370
     9
100
AcDbLine
 10
-304.7431121001372
 20
338.9346313476562
 30
0.0
 11
-301.7432135504645
 21
338.9346313476562
 31
0.0
  0
LINE
  5
AF
330
1F
100
AcDbEntity
  8
1-0
  6
Continuous
 62
     3
370
     9
100
AcDbLine
 10
-301.2431376689188
 20
338.5946490313556
 30
0.0
 11
-301.7432135504645
 21
339.5948007944469
 31
0.0
  0
LINE
  5
B0
330
1F
100
AcDbEntity
  8
1-0
  6
Continuous
 62
     3
370
     9
100
AcDbLine
 10
-301.7432135504645
 20
341.0946572793497
 30
0.0
 11
-301.7432135504645
 21
338.5946490313556
 31
0.0
  0
LINE
  5
B1
330
1F
100
AcDbEntity
  8
1-0
  6
Continuous
 62
     3
370
     9
100
AcDbLine
 10
-301.2431376689188
 20
341.0946572793497
 30
0.0
 11
-301.2431376689188
 21
338.5946490313556
 31
0.0
  0
LINE
  5
B2
330
1F
100
AcDbEntity
  8
1-0
  6
Continuous
 62
     3
370
     9
100
AcDbLine
 10
-304.7431121001372
 20
341.0946572793497
 30
0.0
 11
-304.7431121001372
 21
338.5946490313556
 31
0.0
  0
LINE
  5
B3
330
1F
100
AcDbEntity
  8
1-0
  6
Continuous
 62
     3
370
     9
100
AcDbLine
 10
-305.2432498416384
 20
341.0946572793497
 30
0.0
 11
-305.2432498416384
 21
338.5946490313556
 31
0.0
  0
LINE
  5
B4
330
1F
100
AcDbEntity
  8
1-0
  6
Continuous
 62
     3
370
     9
100
AcDbLine
 10
-306.743168186497
 20
338.5946490313556
 30
0.0
 11
-299.7431574641047
 21
338.5946490313556
 31
0.0
  0
LINE
  5
B5
330
1F
100
AcDbEntity
  8
1-0
  6
Continuous
 62
     3
370
     9
100
AcDbLine
 10
-72.24296363624362
 20
316.1945404877534
 30
0.0
 11
-72.24296363624362
 21
336.1946064717062
 31
0.0
  0
LINE
  5
B6
330
1F
100
AcDbEntity
  8
1-0
  6
Continuous
 62
     3
370
     9
100
AcDbLine
 10
-70.24315498970651
 20
314.194608121305
 30
0.0
 11
-52.24320695206927
 21
314.194608121305
 31
0.0
  0
LINE
  5
B7
330
1F
100
AcDbEntity
  8
1-0
  6
JWW_DASHED1
 62
     3
370
     9
100
AcDbLine
 10
-54.54316010346275
 20
338.1946625580659
 30
0.0
 11
-52.24320695206927
 21
338.1946625580659
 31
0.0
  0
LINE
  5
B8
330
1F
100
AcDbEntity
  8
1-0
  6
Continuous
 62
     3
370
     9
100
AcDbLine
 10
-70.24315498970651
 20
338.1946625580659
 30
0.0
 11
-54.54316010346275
 21
338.1946625580659
 31
0.0
  0
LINE
  5
B9
330
1F
100
AcDbEntity
  8
1-0
  6
Continuous
 62
     3
370
     9
100
AcDbLine
 10
-52.24320695206927
 20
341.0946572793497
 30
0.0
 11
-52.24320695206927
 21
314.194608121305
 31
0.0
  0
LINE
  5
BA
330
1F
100
AcDbEntity
  8
1-0
  6
Continuous
 62
     3
370
     9
100
AcDbLine
 10
-54.54316010346275
 20
341.0946572793497
 30
0.0
 11
-54.54316010346275
 21
314.194608121305
 31
0.0
  0
LINE
  5
BB
330
1F
100
AcDbEntity
  8
1-0
  6
Continuous
 62
     3
370
     9
100
AcDbLine
 10
-37.74286218591627
 20
338.5946490313556
 30
0.0
 11
-37.74286218591627
 21
337.2948476430532
 31
0.0
  0
LINE
  5
BC
330
1F
100
AcDbEntity
  8
1-0
  6
Continuous
 62
     3
370
     9
100
AcDbLine
 10
-39.042972873997
 20
335.9949225348396
 30
0.0
 11
-43.44294780009491
 21
335.9949225348396
 31
0.0
  0
LINE
  5
BD
330
1F
100
AcDbEntity
  8
1-0
  6
Continuous
 62
     3
370
     9
100
AcDbLine
 10
-44.74293476826432
 20
337.2948476430532
 30
0.0
 11
-44.74293476826432
 21
338.5946490313556
 31
0.0
  0
LINE
  5
BE
330
1F
100
AcDbEntity
  8
1-0
  6
Continuous
 62
     3
370
     9
100
AcDbLine
 10
-43.24307828336146
 20
338.5946490313556
 30
0.0
 11
-42.74318798168281
 21
339.5948007944469
 31
0.0
  0
LINE
  5
BF
330
1F
100
AcDbEntity
  8
1-0
  6
Continuous
 62
     3
370
     9
100
AcDbLine
 10
-42.74318798168281
 20
338.9346313476562
 30
0.0
 11
-39.7430419921875
 21
338.9346313476562
 31
0.0
  0
LINE
  5
C0
330
1F
100
AcDbEntity
  8
1-0
  6
Continuous
 62
     3
370
     9
100
AcDbLine
 10
-39.24315169050885
 20
338.5946490313556
 30
0.0
 11
-39.7430419921875
 21
339.5948007944469
 31
0.0
  0
LINE
  5
C1
330
1F
100
AcDbEntity
  8
1-0
  6
Continuous
 62
     3
370
     9
100
AcDbLine
 10
-39.7430419921875
 20
341.0946572793497
 30
0.0
 11
-39.7430419921875
 21
338.5946490313556
 31
0.0
  0
LINE
  5
C2
330
1F
100
AcDbEntity
  8
1-0
  6
Continuous
 62
     3
370
     9
100
AcDbLine
 10
-39.24315169050885
 20
341.0946572793497
 30
0.0
 11
-39.24315169050885
 21
338.5946490313556
 31
0.0
  0
LINE
  5
C3
330
1F
100
AcDbEntity
  8
1-0
  6
Continuous
 62
     3
370
     9
100
AcDbLine
 10
-42.74300240181589
 20
341.0946572793497
 30
0.0
 11
-42.74318798168281
 21
338.5946490313556
 31
0.0
  0
LINE
  5
C4
330
1F
100
AcDbEntity
  8
1-0
  6
Continuous
 62
     3
370
     9
100
AcDbLine
 10
-43.24307828336146
 20
341.0946572793497
 30
0.0
 11
-43.24307828336146
 21
338.5946490313556
 31
0.0
  0
LINE
  5
C5
330
1F
100
AcDbEntity
  8
1-0
  6
Continuous
 62
     3
370
     9
100
AcDbLine
 10
-44.74293476826432
 20
338.5946490313556
 30
0.0
 11
-37.74286218591627
 21
338.5946490313556
 31
0.0
  0
LINE
  5
C6
330
1F
100
AcDbEntity
  8
1-2
  6
Continuous
 62
     3
370
     9
100
AcDbLine
 10
-385.2431426177154
 20
475.0947034681167
 30
0.0
 11
40.75692666543503
 21
475.0947034681167
 31
0.0
  0
LINE
  5
C7
330
1F
100
AcDbEntity
  8
1-2
  6
JWW_DASHED2
 62
     3
370
     9
100
AcDbLine
 10
-383.7431624129011
 20
473.5947232633025
 30
0.0
 11
39.25682274070951
 21
473.5947232633025
 31
0.0
  0
LINE
  5
C8
330
1F
100
AcDbEntity
  8
1-2
  6
JWW_DASHED2
 62
     3
370
     9
100
AcDbLine
 10
39.25682274070951
 20
473.5947232633025
 30
0.0
 11
39.25682274070951
 21
421.0388760953338
 31
0.0
  0
LINE
  5
C9
330
1F
100
AcDbEntity
  8
1-2
  6
Continuous
 62
     3
370
     9
100
AcDbLine
 10
40.75692666543503
 20
475.0947034681167
 30
0.0
 11
40.75692666543503
 21
349.0946341849663
 31
0.0
  0
LINE
  5
CA
330
1F
100
AcDbEntity
  8
1-2
  6
Continuous
 62
     3
370
     9
100
AcDbLine
 10
40.75692666543503
 20
349.0946341849663
 30
0.0
 11
-385.2431426177154
 21
349.0946341849663
 31
0.0
  0
LINE
  5
CB
330
1F
100
AcDbEntity
  8
1-2
  6
JWW_DASHED2
 62
     3
370
     9
100
AcDbLine
 10
39.25682274070951
 20
350.5946143897805
 30
0.0
 11
-383.7431624129011
 21
350.5946143897805
 31
0.0
  0
LINE
  5
CC
330
1F
100
AcDbEntity
  8
1-2
  6
JWW_DASHED2
 62
     3
370
     9
100
AcDbLine
 10
39.25682274070951
 20
403.1504615577492
 30
0.0
 11
39.25682274070951
 21
350.5946143897805
 31
0.0
  0
LINE
  5
CD
330
1F
100
AcDbEntity
  8
1-2
  6
Continuous
 62
     3
370
     9
100
AcDbLine
 10
-305.2431261217272
 20
435.0945715002112
 30
0.0
 11
-271.2431624129011
 21
435.0945715002112
 31
0.0
  0
LINE
  5
CE
330
1F
100
AcDbEntity
  8
1-2
  6
Continuous
 62
     3
370
     9
100
AcDbLine
 10
-305.2431261217272
 20
429.0946506809544
 30
0.0
 11
-271.2431624129011
 21
429.0946506809544
 31
0.0
  0
LINE
  5
CF
330
1F
100
AcDbEntity
  8
1-2
  6
Continuous
 62
     3
370
     9
100
AcDbLine
 10
-305.2431261217272
 20
395.0946869721284
 30
0.0
 11
-271.2431624129011
 21
395.0946869721284
 31
0.0
  0
LINE
  5
D0
330
1F
100
AcDbEntity
  8
1-2
  6
Continuous
 62
     3
370
     9
100
AcDbLine
 10
-305.2431261217272
 20
389.0945187130491
 30
0.0
 11
-271.2431624129011
 21
389.0945187130491
 31
0.0
  0
LINE
  5
D1
330
1F
100
AcDbEntity
  8
1-2
  6
Continuous
 62
     3
370
     9
100
AcDbLine
 10
-247.2431698360958
 20
455.0947612040753
 30
0.0
 11
-213.2431442673142
 21
455.0947612040753
 31
0.0
  0
LINE
  5
D2
330
1F
100
AcDbEntity
  8
1-2
  6
Continuous
 62
     3
370
     9
100
AcDbLine
 10
-247.2431698360958
 20
449.0945929449958
 30
0.0
 11
-213.2431442673142
 21
449.0945929449958
 31
0.0
  0
LINE
  5
D3
330
1F
100
AcDbEntity
  8
1-2
  6
Continuous
 62
     3
370
     9
100
AcDbLine
 10
-247.2431698360958
 20
415.0946292361698
 30
0.0
 11
-213.2431442673142
 21
415.0946292361698
 31
0.0
  0
LINE
  5
D4
330
1F
100
AcDbEntity
  8
1-2
  6
Continuous
 62
     3
370
     9
100
AcDbLine
 10
-247.2431698360958
 20
409.094708416913
 30
0.0
 11
-213.2431442673142
 21
409.094708416913
 31
0.0
  0
LINE
  5
D5
330
1F
100
AcDbEntity
  8
1-2
  6
Continuous
 62
     3
370
     9
100
AcDbLine
 10
-247.2431698360958
 20
375.0947447080871
 30
0.0
 11
-213.2431442673142
 21
375.0947447080871
 31
0.0
  0
LINE
  5
D6
330
1F
100
AcDbEntity
  8
1-2
  6
Continuous
 62
     3
370
     9
100
AcDbLine
 10
-247.2431698360958
 20
369.0945764490077
 30
0.0
 11
-213.2431442673142
 21
369.0945764490077
 31
0.0
  0
LINE
  5
D7
330
1F
100
AcDbEntity
  8
1-2
  6
Continuous
 62
     3
370
     9
100
AcDbLine
 10
-131.2431335449219
 20
455.0947612040753
 30
0.0
 11
-97.24316983609583
 21
455.0947612040753
 31
0.0
  0
LINE
  5
D8
330
1F
100
AcDbEntity
  8
1-2
  6
Continuous
 62
     3
370
     9
100
AcDbLine
 10
-131.2431335449219
 20
449.0945929449958
 30
0.0
 11
-97.24316983609583
 21
449.0945929449958
 31
0.0
  0
LINE
  5
D9
330
1F
100
AcDbEntity
  8
1-2
  6
Continuous
 62
     3
370
     9
100
AcDbLine
 10
-131.2431335449219
 20
415.0946292361698
 30
0.0
 11
-97.24316983609583
 21
415.0946292361698
 31
0.0
  0
LINE
  5
DA
330
1F
100
AcDbEntity
  8
1-2
  6
Continuous
 62
     3
370
     9
100
AcDbLine
 10
-131.2431335449219
 20
409.094708416913
 30
0.0
 11
-97.24316983609583
 21
409.094708416913
 31
0.0
  0
LINE
  5
DB
330
1F
100
AcDbEntity
  8
1-2
  6
Continuous
 62
     3
370
     9
100
AcDbLine
 10
-131.2431335449219
 20
375.0947447080871
 30
0.0
 11
-97.24316983609583
 21
375.0947447080871
 31
0.0
  0
LINE
  5
DC
330
1F
100
AcDbEntity
  8
1-2
  6
Continuous
 62
     3
370
     9
100
AcDbLine
 10
-131.2431335449219
 20
369.0945764490077
 30
0.0
 11
-97.24316983609583
 21
369.0945764490077
 31
0.0
  0
LINE
  5
DD
330
1F
100
AcDbEntity
  8
1-2
  6
Continuous
 62
     3
370
     9
100
AcDbLine
 10
-15.24315911370351
 20
455.0947612040753
 30
0.0
 11
18.75680459512253
 21
455.0947612040753
 31
0.0
  0
LINE
  5
DE
330
1F
100
AcDbEntity
  8
1-2
  6
Continuous
 62
     3
370
     9
100
AcDbLine
 10
-15.24315911370351
 20
449.0945929449958
 30
0.0
 11
18.75680459512253
 21
449.0945929449958
 31
0.0
  0
LINE
  5
DF
330
1F
100
AcDbEntity
  8
1-2
  6
Continuous
 62
     3
370
     9
100
AcDbLine
 10
-15.24315911370351
 20
415.0946292361698
 30
0.0
 11
18.75680459512253
 21
415.0946292361698
 31
0.0
  0
LINE
  5
E0
330
1F
100
AcDbEntity
  8
1-2
  6
Continuous
 62
     3
370
     9
100
AcDbLine
 10
-15.24315911370351
 20
409.094708416913
 30
0.0
 11
18.75680459512253
 21
409.094708416913
 31
0.0
  0
LINE
  5
E1
330
1F
100
AcDbEntity
  8
1-2
  6
Continuous
 62
     3
370
     9
100
AcDbLine
 10
-15.24315911370351
 20
375.0947447080871
 30
0.0
 11
18.75680459512253
 21
375.0947447080871
 31
0.0
  0
LINE
  5
E2
330
1F
100
AcDbEntity
  8
1-2
  6
Continuous
 62
     3
370
     9
100
AcDbLine
 10
-15.24315911370351
 20
369.0945764490077
 30
0.0
 11
18.75680459512253
 21
369.0945764490077
 31
0.0
  0
LINE
  5
E3
330
1F
100
AcDbEntity
  8
1-2
  6
Continuous
 62
     3
370
     9
100
AcDbLine
 10
-189.2431516905089
 20
435.0945715002112
 30
0.0
 11
-155.2431261217272
 21
435.0945715002112
 31
0.0
  0
LINE
  5
E4
330
1F
100
AcDbEntity
  8
1-2
  6
Continuous
 62
     3
370
     9
100
AcDbLine
 10
-189.2431516905089
 20
429.0946506809544
 30
0.0
 11
-155.2431261217272
 21
429.0946506809544
 31
0.0
  0
LINE
  5
E5
330
1F
100
AcDbEntity
  8
1-2
  6
Continuous
 62
     3
370
     9
100
AcDbLine
 10
-189.2431516905089
 20
395.0946869721284
 30
0.0
 11
-155.2431261217272
 21
395.0946869721284
 31
0.0
  0
LINE
  5
E6
330
1F
100
AcDbEntity
  8
1-2
  6
Continuous
 62
     3
370
     9
100
AcDbLine
 10
-189.2431516905089
 20
389.0945187130491
 30
0.0
 11
-155.2431261217272
 21
389.0945187130491
 31
0.0
  0
LINE
  5
E7
330
1F
100
AcDbEntity
  8
1-2
  6
Continuous
 62
     3
370
     9
100
AcDbLine
 10
-73.2431153993349
 20
435.0945715002112
 30
0.0
 11
-39.24315169050885
 21
435.0945715002112
 31
0.0
  0
LINE
  5
E8
330
1F
100
AcDbEntity
  8
1-2
  6
Continuous
 62
     3
370
     9
100
AcDbLine
 10
-73.2431153993349
 20
429.0946506809544
 30
0.0
 11
-39.24315169050885
 21
429.0946506809544
 31
0.0
  0
LINE
  5
E9
330
1F
100
AcDbEntity
  8
1-2
  6
Continuous
 62
     3
370
     9
100
AcDbLine
 10
-73.2431153993349
 20
395.0946869721284
 30
0.0
 11
-39.24315169050885
 21
395.0946869721284
 31
0.0
  0
LINE
  5
EA
330
1F
100
AcDbEntity
  8
1-2
  6
Continuous
 62
     3
370
     9
100
AcDbLine
 10
-73.2431153993349
 20
389.0945187130491
 30
0.0
 11
-39.24315169050885
 21
389.0945187130491
 31
0.0
  0
LINE
  5
EB
330
1F
100
AcDbEntity
  8
1-4
  6
Continuous
 62
     7
370
     9
100
AcDbLine
 10
-393.2431813832875
 20
489.8661185599663
 30
0.0
 11
-393.2431813832875
 21
533.2799303209459
 31
0.0
  0
LINE
  5
EC
330
1F
100
AcDbEntity
  8
1-4
  6
Continuous
 62
     7
370
     9
100
AcDbLine
 10
-386.2431706608952
 20
489.8661185599663
 30
0.0
 11
-386.2431706608952
 21
533.2799303209459
 31
0.0
  0
LINE
  5
ED
330
1F
100
AcDbEntity
  8
1-4
  6
Continuous
 62
     7
370
     9
100
AcDbLine
 10
-386.2431706608952
 20
531.7800738360431
 30
0.0
 11
-385.2431426177154
 21
531.7800738360431
 31
0.0
  0
LINE
  5
EE
330
1F
100
AcDbEntity
  8
1-4
  6
Continuous
 62
     7
370
     9
100
AcDbLine
 10
-385.2431426177154
 20
489.8661185599663
 30
0.0
 11
-385.2431426177154
 21
533.2799303209459
 31
0.0
  0
LINE
  5
EF
330
1F
100
AcDbEntity
  8
1-4
  6
Continuous
 62
     7
370
     9
100
AcDbLine
 10
-385.2431426177154
 20
531.7800738360431
 30
0.0
 11
40.75692666543503
 21
531.7800738360431
 31
0.0
  0
LINE
  5
F0
330
1F
100
AcDbEntity
  8
1-4
  6
Continuous
 62
     7
370
     9
100
AcDbLine
 10
40.75692666543503
 20
489.8661185599663
 30
0.0
 11
40.75692666543503
 21
533.2799303209459
 31
0.0
  0
LINE
  5
F1
330
1F
100
AcDbEntity
  8
1-4
  6
Continuous
 62
     7
370
     9
100
AcDbLine
 10
40.75692666543503
 20
531.7800738360431
 30
0.0
 11
41.75695470861498
 21
531.7800738360431
 31
0.0
  0
LINE
  5
F2
330
1F
100
AcDbEntity
  8
1-4
  6
Continuous
 62
     7
370
     9
100
AcDbLine
 10
41.75695470861498
 20
489.8661185599663
 30
0.0
 11
41.75695470861498
 21
533.2799303209459
 31
0.0
  0
LINE
  5
F3
330
1F
100
AcDbEntity
  8
1-4
  6
Continuous
 62
     7
370
     9
100
AcDbLine
 10
48.75690357105157
 20
489.8661185599663
 30
0.0
 11
48.75690357105157
 21
533.2799303209459
 31
0.0
  0
LINE
  5
F4
330
1F
100
AcDbEntity
  8
1-4
  6
Continuous
 62
     7
370
     9
100
AcDbLine
 10
-393.2431813832875
 20
565.402073215794
 30
0.0
 11
48.75690357105157
 21
565.402073215794
 31
0.0
  0
LINE
  5
F5
330
1F
100
AcDbEntity
  8
1-4
  6
Continuous
 62
     7
370
     9
100
AcDbLine
 10
-393.2431813832875
 20
533.2799303209459
 30
0.0
 11
-393.2431813832875
 21
566.9020534206081
 31
0.0
  0
LINE
  5
F6
330
1F
100
AcDbEntity
  8
1-4
  6
Continuous
 62
     7
370
     9
100
AcDbLine
 10
48.75690357105157
 20
533.2799303209459
 30
0.0
 11
48.75690357105157
 21
566.9020534206081
 31
0.0
  0
LINE
  5
F7
330
1F
100
AcDbEntity
  8
1-4
  6
Continuous
 62
     7
370
     9
100
AcDbLine
 10
41.75695470861498
 20
531.7800738360431
 30
0.0
 11
62.26946856524506
 21
531.7800738360431
 31
0.0
  0
LINE
  5
F8
330
1F
100
AcDbEntity
  8
1-4
  6
Continuous
 62
     7
370
     9
100
AcDbLine
 10
-406.8481651512352
 20
531.7800738360431
 30
0.0
 11
-386.2431706608952
 21
531.7800738360431
 31
0.0
  0
LINE
  5
F9
330
1F
100
AcDbEntity
  8
F-1
  6
Continuous
 62
     3
370
     9
100
AcDbLine
 10
440.232684161212
 20
383.8645069019215
 30
0.0
 11
270.2322470175255
 21
383.8645069019215
 31
0.0
  0
LINE
  5
FA
330
1F
100
AcDbEntity
  8
F-1
  6
Continuous
 62
     3
370
     9
100
AcDbLine
 10
440.232684161212
 20
353.8636656065246
 30
0.0
 11
270.2322470175255
 21
353.8636656065246
 31
0.0
  0
LINE
  5
FB
330
1F
100
AcDbEntity
  8
F-4
  6
Continuous
 62
     7
370
     9
100
AcDbLine
 10
255.2320738096495
 20
428.7615966796875
 30
0.0
 11
455.2326099292654
 21
428.7615966796875
 31
0.0
  0
LINE
  5
FC
330
1F
100
AcDbEntity
  8
F-4
  6
Continuous
 62
     7
370
     9
100
AcDbLine
 10
506.435827306799
 20
383.8645069019215
 30
0.0
 11
506.435827306799
 21
353.8636656065246
 31
0.0
  0
LINE
  5
FD
330
1F
100
AcDbEntity
  8
F-4
  6
Continuous
 62
     7
370
     9
100
AcDbLine
 10
255.2320738096495
 20
382.9382159258869
 30
0.0
 11
255.2320738096495
 21
430.2615768845017
 31
0.0
  0
LINE
  5
FE
330
1F
100
AcDbEntity
  8
F-4
  6
Continuous
 62
     7
370
     9
100
AcDbLine
 10
455.2326099292654
 20
382.9382159258869
 30
0.0
 11
455.2326099292654
 21
430.2615768845017
 31
0.0
  0
LINE
  5
FF
330
1F
100
AcDbEntity
  8
F-4
  6
Continuous
 62
     7
370
     9
100
AcDbLine
 10
458.9669717324747
 20
383.8645069019215
 30
0.0
 11
507.9359312315245
 21
383.8645069019215
 31
0.0
  0
LINE
  5
100
330
1F
100
AcDbEntity
  8
F-4
  6
Continuous
 62
     7
370
     9
100
AcDbLine
 10
458.9669717324747
 20
353.8636656065246
 30
0.0
 11
507.9359312315245
 21
353.8636656065246
 31
0.0
  0
LINE
  5
101
330
1F
100
AcDbEntity
  8
1-4
  6
Continuous
 62
     7
370
     9
100
AcDbLine
 10
-288.2431442673142
 20
294.7937176678633
 30
0.0
 11
-230.2431879816828
 21
294.7937176678633
 31
0.0
  0
LINE
  5
102
330
1F
100
AcDbEntity
  8
1-4
  6
Continuous
 62
     7
370
     9
100
AcDbLine
 10
-288.2431442673142
 20
401.2602687526395
 30
0.0
 11
-288.2431442673142
 21
293.2937374630491
 31
0.0
  0
LINE
  5
103
330
1F
100
AcDbEntity
  8
1-4
  6
Continuous
 62
     7
370
     9
100
AcDbLine
 10
-230.2431879816828
 20
379.4936061549832
 30
0.0
 11
-230.2431879816828
 21
293.2937374630491
 31
0.0
  0
LINE
  5
104
330
1F
100
AcDbEntity
  8
1-4
  6
Continuous
 62
     7
370
     9
100
AcDbLine
 10
-456.1898927430848
 20
344.4014430690457
 30
0.0
 11
-456.1898927430848
 21
392.0944791226775
 31
0.0
  0
LINE
  5
105
330
1F
100
AcDbEntity
  8
1-4
  6
Continuous
 62
     7
370
     9
100
AcDbLine
 10
-358.8291271312817
 20
372.0947842984588
 30
0.0
 11
-457.689872947899
 21
372.0947842984588
 31
0.0
  0
LINE
  5
106
330
1F
100
AcDbEntity
  8
1-4
  6
Continuous
 62
     7
370
     9
100
AcDbLine
 10
-301.4375016495989
 20
392.0944791226775
 30
0.0
 11
-457.689872947899
 21
392.0944791226775
 31
0.0
  0
LINE
  5
107
330
1F
100
AcDbEntity
  8
1-4
  6
Continuous
 62
     7
370
     9
100
AcDbLine
 10
-456.1898927430848
 20
392.0944791226775
 30
0.0
 11
-456.1898927430848
 21
439.7125409100508
 31
0.0
  0
LINE
  5
108
330
1F
100
AcDbEntity
  8
1-4
  6
Continuous
 62
     7
370
     9
100
AcDbLine
 10
-359.8538372967694
 20
412.0946688265414
 30
0.0
 11
-457.689872947899
 21
412.0946688265414
 31
0.0
  0
ARC
  5
109
330
1F
100
AcDbEntity
  8
1-2
  6
Continuous
 62
     3
370
     9
100
AcDbCircle
 10
-384.743190456081
 20
412.0946688265414
 30
0.0
 40
9.000001082549225
100
AcDbArc
 50
266.8152465820312
 51
93.18475341796875
  0
ARC
  5
10A
330
1F
100
AcDbEntity
  8
1-2
  6
Continuous
 62
     3
370
     9
100
AcDbCircle
 10
40.25697450380079
 20
412.0946688265414
 30
0.0
 40
9.000001082549225
100
AcDbArc
 50
86.81524658203125
 51
273.1847534179688
  0
ARC
  5
10B
330
1F
100
AcDbEntity
  8
1-2
  6
Continuous
 62
     3
370
     9
100
AcDbCircle
 10
-329.2431186985324
 20
452.0948007944469
 30
0.0
 40
3.000000280302924
100
AcDbArc
 50
270.0
 51
90.0
  0
ARC
  5
10C
330
1F
100
AcDbEntity
  8
1-2
  6
Continuous
 62
     3
370
     9
100
AcDbCircle
 10
-363.2431442673142
 20
452.0948007944469
 30
0.0
 40
3.000000280302924
100
AcDbArc
 50
90.0
 51
270.0
  0
ARC
  5
10D
330
1F
100
AcDbEntity
  8
1-2
  6
Continuous
 62
     3
370
     9
100
AcDbCircle
 10
-329.2431186985324
 20
412.0946688265414
 30
0.0
 40
3.000000280302924
100
AcDbArc
 50
270.0
 51
90.0
  0
ARC
  5
10E
330
1F
100
AcDbEntity
  8
1-2
  6
Continuous
 62
     3
370
     9
100
AcDbCircle
 10
-363.2431442673142
 20
412.0946688265414
 30
0.0
 40
3.000000280302924
100
AcDbArc
 50
90.0
 51
270.0
  0
ARC
  5
10F
330
1F
100
AcDbEntity
  8
1-2
  6
Continuous
 62
     3
370
     9
100
AcDbCircle
 10
-329.2431186985324
 20
372.0947842984588
 30
0.0
 40
3.000000280302924
100
AcDbArc
 50
270.0
 51
90.0
  0
ARC
  5
110
330
1F
100
AcDbEntity
  8
1-2
  6
Continuous
 62
     3
370
     9
100
AcDbCircle
 10
-363.2431442673142
 20
372.0947842984588
 30
0.0
 40
3.000000280302924
100
AcDbArc
 50
90.0
 51
270.0
  0
ARC
  5
111
330
1F
100
AcDbEntity
  8
1-0
  6
Continuous
 62
     3
370
     9
100
AcDbCircle
 10
-274.2431846824852
 20
487.9946074614655
 30
0.0
 40
2.000000146595208
100
AcDbArc
 50
270.0
 51
0.0
  0
ARC
  5
112
330
1F
100
AcDbEntity
  8
1-0
  6
Continuous
 62
     3
370
     9
100
AcDbCircle
 10
-274.2431846824852
 20
507.9945497255068
 30
0.0
 40
2.000000146595208
100
AcDbArc
 50
0.0
 51
90.0
  0
ARC
  5
113
330
1F
100
AcDbEntity
  8
1-0
  6
Continuous
 62
     3
370
     9
100
AcDbCircle
 10
-305.4430574984164
 20
486.8943662901183
 30
0.0
 40
1.300000379214416
100
AcDbArc
 50
91.34736633300781
 51
180.0006866455078
  0
ARC
  5
114
330
1F
100
AcDbEntity
  8
1-0
  6
Continuous
 62
     3
370
     9
100
AcDbCircle
 10
-301.0430207123628
 20
486.8946137299409
 30
0.0
 40
1.300000379214416
100
AcDbArc
 50
359.997314453125
 51
90.00790405273436
  0
ARC
  5
115
330
1F
100
AcDbEntity
  8
1-0
  6
Continuous
 62
     3
370
     9
100
AcDbCircle
 10
-12.24295126425247
 20
487.9946074614655
 30
0.0
 40
2.000000146595208
100
AcDbArc
 50
270.0
 51
0.0
  0
ARC
  5
116
330
1F
100
AcDbEntity
  8
1-0
  6
Continuous
 62
     3
370
     9
100
AcDbCircle
 10
-12.24295126425247
 20
507.9945497255068
 30
0.0
 40
2.000000146595208
100
AcDbArc
 50
0.0
 51
90.0
  0
ARC
  5
117
330
1F
100
AcDbEntity
  8
1-0
  6
Continuous
 62
     3
370
     9
100
AcDbCircle
 10
-43.44294780009491
 20
486.8943662901183
 30
0.0
 40
1.300000379214416
100
AcDbArc
 50
91.34736633300781
 51
180.0006866455078
  0
ARC
  5
118
330
1F
100
AcDbEntity
  8
1-0
  6
Continuous
 62
     3
370
     9
100
AcDbCircle
 10
-39.042972873997
 20
486.8946137299409
 30
0.0
 40
1.300000379214416
100
AcDbArc
 50
359.997314453125
 51
90.00790405273436
  0
ARC
  5
119
330
1F
100
AcDbEntity
  8
1-0
  6
Continuous
 62
     3
370
     9
100
AcDbCircle
 10
53.65683065878386
 20
383.0945978937923
 30
0.0
 40
2.000000146595208
100
AcDbArc
 50
180.0
 51
270.0
  0
ARC
  5
11A
330
1F
100
AcDbEntity
  8
1-0
  6
Continuous
 62
     3
370
     9
100
AcDbCircle
 10
73.65702036264793
 20
383.0945978937923
 30
0.0
 40
2.000000146595208
100
AcDbArc
 50
270.0
 51
0.0
  0
ARC
  5
11B
330
1F
100
AcDbEntity
  8
1-0
  6
Continuous
 62
     3
370
     9
100
AcDbCircle
 10
52.55683692725938
 20
414.2945325696792
 30
0.0
 40
1.300000379214416
100
AcDbArc
 50
1.347366333007812
 51
90.00068664550781
  0
ARC
  5
11C
330
1F
100
AcDbEntity
  8
1-0
  6
Continuous
 62
     3
370
     9
100
AcDbCircle
 10
52.55708436708204
 20
409.8944339236698
 30
0.0
 40
1.300000379214416
100
AcDbArc
 50
269.997314453125
 51
0.0079040527343666
  0
ARC
  5
11D
330
1F
100
AcDbEntity
  8
1-0
  6
Continuous
 62
     3
370
     9
100
AcDbCircle
 10
-398.1432321909311
 20
441.0947397592906
 30
0.0
 40
2.000000146595208
100
AcDbArc
 50
0.0
 51
90.0
  0
ARC
  5
11E
330
1F
100
AcDbEntity
  8
1-0
  6
Continuous
 62
     3
370
     9
100
AcDbCircle
 10
-418.1431744549725
 20
441.0947397592906
 30
0.0
 40
2.000000146595208
100
AcDbArc
 50
90.0
 51
180.0
  0
ARC
  5
11F
330
1F
100
AcDbEntity
  8
1-0
  6
Continuous
 62
     3
370
     9
100
AcDbCircle
 10
-397.0428672996727
 20
409.8945576435812
 30
0.0
 40
1.300000379214416
100
AcDbArc
 50
181.3473663330078
 51
270.0006866455078
  0
ARC
  5
120
330
1F
100
AcDbEntity
  8
1-0
  6
Continuous
 62
     3
370
     9
100
AcDbCircle
 10
-397.0431147394953
 20
414.294903729413
 30
0.0
 40
1.300000379214416
100
AcDbArc
 50
89.99731445312499
 51
180.0079040527344
  0
ARC
  5
121
330
1F
100
AcDbEntity
  8
1-0
  6
Continuous
 62
     3
370
     9
100
AcDbCircle
 10
-332.2432028280721
 20
336.1946064717062
 30
0.0
 40
2.000000146595208
100
AcDbArc
 50
90.0
 51
180.0
  0
ARC
  5
122
330
1F
100
AcDbEntity
  8
1-0
  6
Continuous
 62
     3
370
     9
100
AcDbCircle
 10
-332.2432028280721
 20
316.1945404877534
 30
0.0
 40
2.000000146595208
100
AcDbArc
 50
180.0
 51
270.0
  0
ARC
  5
123
330
1F
100
AcDbEntity
  8
1-0
  6
Continuous
 62
     3
370
     9
100
AcDbCircle
 10
-301.0432062922297
 20
337.2948476430532
 30
0.0
 40
1.300000379214416
100
AcDbArc
 50
271.3473663330078
 51
0.0006866455078114
  0
ARC
  5
124
330
1F
100
AcDbEntity
  8
1-0
  6
Continuous
 62
     3
370
     9
100
AcDbCircle
 10
-305.443304938239
 20
337.2944764833193
 30
0.0
 40
1.300000379214416
100
AcDbArc
 50
179.997314453125
 51
270.0079040527344
  0
ARC
  5
125
330
1F
100
AcDbEntity
  8
1-0
  6
Continuous
 62
     3
370
     9
100
AcDbCircle
 10
-70.24315498970651
 20
336.1946064717062
 30
0.0
 40
2.000000146595208
100
AcDbArc
 50
90.0
 51
180.0
  0
ARC
  5
126
330
1F
100
AcDbEntity
  8
1-0
  6
Continuous
 62
     3
370
     9
100
AcDbCircle
 10
-70.24315498970651
 20
316.1945404877534
 30
0.0
 40
2.000000146595208
100
AcDbArc
 50
180.0
 51
270.0
  0
ARC
  5
127
330
1F
100
AcDbEntity
  8
1-0
  6
Continuous
 62
     3
370
     9
100
AcDbCircle
 10
-39.042972873997
 20
337.2948476430532
 30
0.0
 40
1.300000379214416
100
AcDbArc
 50
271.3473663330078
 51
0.0006866455078114
  0
ARC
  5
128
330
1F
100
AcDbEntity
  8
1-0
  6
Continuous
 62
     3
370
     9
100
AcDbCircle
 10
-43.44325709987331
 20
337.2944764833193
 30
0.0
 40
1.300000379214416
100
AcDbArc
 50
179.997314453125
 51
270.0079040527344
  0
ARC
  5
129
330
1F
100
AcDbEntity
  8
1-2
  6
Continuous
 62
     3
370
     9
100
AcDbCircle
 10
-271.2431624129011
 20
432.0946110905828
 30
0.0
 40
3.000000280302924
100
AcDbArc
 50
270.0
 51
90.0
  0
ARC
  5
12A
330
1F
100
AcDbEntity
  8
1-2
  6
Continuous
 62
     3
370
     9
100
AcDbCircle
 10
-305.2431261217272
 20
432.0946110905828
 30
0.0
 40
3.000000280302924
100
AcDbArc
 50
90.0
 51
270.0
  0
ARC
  5
12B
330
1F
100
AcDbEntity
  8
1-2
  6
Continuous
 62
     3
370
     9
100
AcDbCircle
 10
-271.2431624129011
 20
392.0947265625
 30
0.0
 40
3.000000280302924
100
AcDbArc
 50
270.0
 51
90.0
  0
ARC
  5
12C
330
1F
100
AcDbEntity
  8
1-2
  6
Continuous
 62
     3
370
     9
100
AcDbCircle
 10
-305.2431261217272
 20
392.0947265625
 30
0.0
 40
3.000000280302924
100
AcDbArc
 50
90.0
 51
270.0
  0
ARC
  5
12D
330
1F
100
AcDbEntity
  8
1-2
  6
Continuous
 62
     3
370
     9
100
AcDbCircle
 10
-213.2431442673142
 20
452.0948007944469
 30
0.0
 40
3.000000280302924
100
AcDbArc
 50
270.0
 51
90.0
  0
ARC
  5
12E
330
1F
100
AcDbEntity
  8
1-2
  6
Continuous
 62
     3
370
     9
100
AcDbCircle
 10
-247.2431698360958
 20
452.0948007944469
 30
0.0
 40
3.000000280302924
100
AcDbArc
 50
90.0
 51
270.0
  0
ARC
  5
12F
330
1F
100
AcDbEntity
  8
1-2
  6
Continuous
 62
     3
370
     9
100
AcDbCircle
 10
-213.2431442673142
 20
412.0946688265414
 30
0.0
 40
3.000000280302924
100
AcDbArc
 50
270.0
 51
90.0
  0
ARC
  5
130
330
1F
100
AcDbEntity
  8
1-2
  6
Continuous
 62
     3
370
     9
100
AcDbCircle
 10
-247.2431698360958
 20
412.0946688265414
 30
0.0
 40
3.000000280302924
100
AcDbArc
 50
90.0
 51
270.0
  0
ARC
  5
131
330
1F
100
AcDbEntity
  8
1-2
  6
Continuous
 62
     3
370
     9
100
AcDbCircle
 10
-213.2431442673142
 20
372.0947842984588
 30
0.0
 40
3.000000280302924
100
AcDbArc
 50
270.0
 51
90.0
  0
ARC
  5
132
330
1F
100
AcDbEntity
  8
1-2
  6
Continuous
 62
     3
370
     9
100
AcDbCircle
 10
-247.2431698360958
 20
372.0947842984588
 30
0.0
 40
3.000000280302924
100
AcDbArc
 50
90.0
 51
270.0
  0
ARC
  5
133
330
1F
100
AcDbEntity
  8
1-2
  6
Continuous
 62
     3
370
     9
100
AcDbCircle
 10
-97.24316983609583
 20
452.0948007944469
 30
0.0
 40
3.000000280302924
100
AcDbArc
 50
270.0
 51
90.0
  0
ARC
  5
134
330
1F
100
AcDbEntity
  8
1-2
  6
Continuous
 62
     3
370
     9
100
AcDbCircle
 10
-131.2431335449219
 20
452.0948007944469
 30
0.0
 40
3.000000280302924
100
AcDbArc
 50
90.0
 51
270.0
  0
ARC
  5
135
330
1F
100
AcDbEntity
  8
1-2
  6
Continuous
 62
     3
370
     9
100
AcDbCircle
 10
-97.24316983609583
 20
412.0946688265414
 30
0.0
 40
3.000000280302924
100
AcDbArc
 50
270.0
 51
90.0
  0
ARC
  5
136
330
1F
100
AcDbEntity
  8
1-2
  6
Continuous
 62
     3
370
     9
100
AcDbCircle
 10
-131.2431335449219
 20
412.0946688265414
 30
0.0
 40
3.000000280302924
100
AcDbArc
 50
90.0
 51
270.0
  0
ARC
  5
137
330
1F
100
AcDbEntity
  8
1-2
  6
Continuous
 62
     3
370
     9
100
AcDbCircle
 10
-97.24316983609583
 20
372.0947842984588
 30
0.0
 40
3.000000280302924
100
AcDbArc
 50
270.0
 51
90.0
  0
ARC
  5
138
330
1F
100
AcDbEntity
  8
1-2
  6
Continuous
 62
     3
370
     9
100
AcDbCircle
 10
-131.2431335449219
 20
372.0947842984588
 30
0.0
 40
3.000000280302924
100
AcDbArc
 50
90.0
 51
270.0
  0
ARC
  5
139
330
1F
100
AcDbEntity
  8
1-2
  6
Continuous
 62
     3
370
     9
100
AcDbCircle
 10
18.75680459512253
 20
452.0948007944469
 30
0.0
 40
3.000000280302924
100
AcDbArc
 50
270.0
 51
90.0
  0
ARC
  5
13A
330
1F
100
AcDbEntity
  8
1-2
  6
Continuous
 62
     3
370
     9
100
AcDbCircle
 10
-15.24315911370351
 20
452.0948007944469
 30
0.0
 40
3.000000280302924
100
AcDbArc
 50
90.0
 51
270.0
  0
ARC
  5
13B
330
1F
100
AcDbEntity
  8
1-2
  6
Continuous
 62
     3
370
     9
100
AcDbCircle
 10
18.75680459512253
 20
412.0946688265414
 30
0.0
 40
3.000000280302924
100
AcDbArc
 50
270.0
 51
90.0
  0
ARC
  5
13C
330
1F
100
AcDbEntity
  8
1-2
  6
Continuous
 62
     3
370
     9
100
AcDbCircle
 10
-15.24315911370351
 20
412.0946688265414
 30
0.0
 40
3.000000280302924
100
AcDbArc
 50
90.0
 51
270.0
  0
ARC
  5
13D
330
1F
100
AcDbEntity
  8
1-2
  6
Continuous
 62
     3
370
     9
100
AcDbCircle
 10
18.75680459512253
 20
372.0947842984588
 30
0.0
 40
3.000000280302924
100
AcDbArc
 50
270.0
 51
90.0
  0
ARC
  5
13E
330
1F
100
AcDbEntity
  8
1-2
  6
Continuous
 62
     3
370
     9
100
AcDbCircle
 10
-15.24315911370351
 20
372.0947842984588
 30
0.0
 40
3.000000280302924
100
AcDbArc
 50
90.0
 51
270.0
  0
ARC
  5
13F
330
1F
100
AcDbEntity
  8
1-2
  6
Continuous
 62
     3
370
     9
100
AcDbCircle
 10
-155.2431261217272
 20
432.0946110905828
 30
0.0
 40
3.000000280302924
100
AcDbArc
 50
270.0
 51
90.0
  0
ARC
  5
140
330
1F
100
AcDbEntity
  8
1-2
  6
Continuous
 62
     3
370
     9
100
AcDbCircle
 10
-189.2431516905089
 20
432.0946110905828
 30
0.0
 40
3.000000280302924
100
AcDbArc
 50
90.0
 51
270.0
  0
ARC
  5
141
330
1F
100
AcDbEntity
  8
1-2
  6
Continuous
 62
     3
370
     9
100
AcDbCircle
 10
-155.2431261217272
 20
392.0947265625
 30
0.0
 40
3.000000280302924
100
AcDbArc
 50
270.0
 51
90.0
  0
ARC
  5
142
330
1F
100
AcDbEntity
  8
1-2
  6
Continuous
 62
     3
370
     9
100
AcDbCircle
 10
-189.2431516905089
 20
392.0947265625
 30
0.0
 40
3.000000280302924
100
AcDbArc
 50
90.0
 51
270.0
  0
ARC
  5
143
330
1F
100
AcDbEntity
  8
1-2
  6
Continuous
 62
     3
370
     9
100
AcDbCircle
 10
-39.24315169050885
 20
432.0946110905828
 30
0.0
 40
3.000000280302924
100
AcDbArc
 50
270.0
 51
90.0
  0
ARC
  5
144
330
1F
100
AcDbEntity
  8
1-2
  6
Continuous
 62
     3
370
     9
100
AcDbCircle
 10
-73.2431153993349
 20
432.0946110905828
 30
0.0
 40
3.000000280302924
100
AcDbArc
 50
90.0
 51
270.0
  0
ARC
  5
145
330
1F
100
AcDbEntity
  8
1-2
  6
Continuous
 62
     3
370
     9
100
AcDbCircle
 10
-39.24315169050885
 20
392.0947265625
 30
0.0
 40
3.000000280302924
100
AcDbArc
 50
270.0
 51
90.0
  0
ARC
  5
146
330
1F
100
AcDbEntity
  8
1-2
  6
Continuous
 62
     3
370
     9
100
AcDbCircle
 10
-73.2431153993349
 20
392.0947265625
 30
0.0
 40
3.000000280302924
100
AcDbArc
 50
90.0
 51
270.0
  0
ARC
  5
147
330
1F
100
AcDbEntity
  8
F-1
  6
Continuous
 62
     3
370
     9
100
AcDbCircle
 10
270.2322470175255
 20
368.8642099741344
 30
0.0
 40
15.00000019331236
100
AcDbArc
 50
90.0
 51
270.0
  0
ARC
  5
148
330
1F
100
AcDbEntity
  8
F-1
  6
Continuous
 62
     3
370
     9
100
AcDbCircle
 10
440.232684161212
 20
368.8642099741344
 30
0.0
 40
15.00000019331236
100
AcDbArc
 50
270.0
 51
90.0
  0
TEXT
  5
149
330
1F
100
AcDbEntity
  8
F-5
  6
Continuous
 62
     2
370
     9
100
AcDbText
 10
-377.8797830117715
 20
-675.2339850286536
 30
0.0
 40
15.24
  1
ステンレス製床排水ボックス　ＳＷ１５０×４５０
 41
1.119565217391304
  7
ＭＳ ゴシック
100
AcDbText
  0
TEXT
  5
14A
330
1F
100
AcDbEntity
  8
F-4
  6
Continuous
 62
     2
370
     9
100
AcDbText
 10
344.6073418694574
 20
434.081728647593
 30
0.0
 40
15.24
  1
40
 41
1.0625
  7
ＭＳ ゴシック
100
AcDbText
  0
TEXT
  5
14B
330
1F
100
AcDbEntity
  8
F-4
  6
Continuous
 62
     2
370
     9
100
AcDbText
 10
501.1159429972734
 20
363.8640861309569
 30
0.0
 40
15.24
  1
6
 50
90.00000250447816
 41
1.000000000000001
  7
ＭＳ ゴシック
100
AcDbText
  0
TEXT
  5
14C
330
1F
100
AcDbEntity
  8
1-4
  6
Continuous
 62
     2
370
     9
100
AcDbText
 10
-188.4931698360958
 20
570.7222051836995
 30
0.0
 40
15.24
  1
442
 41
1.083333333333333
  7
ＭＳ ゴシック
100
AcDbText
  0
TEXT
  5
14D
330
1F
100
AcDbEntity
  8
1-4
  6
Continuous
 62
     2
370
     9
100
AcDbText
 10
-408.9418297844964
 20
537.1000820840374
 30
0.0
 40
15.24
  1
7
 41
0.9999999999999998
  7
ＭＳ ゴシック
100
AcDbText
  0
TEXT
  5
14E
330
1F
100
AcDbEntity
  8
1-4
  6
Continuous
 62
     2
370
     9
100
AcDbText
 10
-390.7431257093274
 20
537.1000820840374
 30
0.0
 40
15.24
  1
1
 41
0.9999999999999998
  7
ＭＳ ゴシック
100
AcDbText
  0
TEXT
  5
14F
330
1F
100
AcDbEntity
  8
1-4
  6
Continuous
 62
     2
370
     9
100
AcDbText
 10
-188.4931698360958
 20
537.1000820840374
 30
0.0
 40
15.24
  1
426
 41
1.083333333333333
  7
ＭＳ ゴシック
100
AcDbText
  0
TEXT
  5
150
330
1F
100
AcDbEntity
  8
1-4
  6
Continuous
 62
     2
370
     9
100
AcDbText
 10
26.87853838946374
 20
537.1000820840374
 30
0.0
 40
15.24
  1
1
 41
0.9999999999999998
  7
ＭＳ ゴシック
100
AcDbText
  0
TEXT
  5
151
330
1F
100
AcDbEntity
  8
1-4
  6
Continuous
 62
     2
370
     9
100
AcDbText
 10
53.83426150760144
 20
537.1000820840374
 30
0.0
 40
15.24
  1
7
 41
0.9999999999999998
  7
ＭＳ ゴシック
100
AcDbText
  0
TEXT
  5
152
330
1F
100
AcDbEntity
  8
1-4
  6
Continuous
 62
     2
370
     9
100
AcDbText
 10
-269.8681661244984
 20
300.1137259158573
 30
0.0
 40
15.24
  1
58
 41
1.0625
  7
ＭＳ ゴシック
100
AcDbText
  0
TEXT
  5
153
330
1F
100
AcDbEntity
  8
1-4
  6
Continuous
 62
     2
370
     9
100
AcDbText
 10
-461.5099005266454
 20
349.1491986665882
 30
0.0
 40
15.24
  1
20
 50
90.00000250447816
 41
1.062500000000001
  7
ＭＳ ゴシック
100
AcDbText
  0
TEXT
  5
154
330
1F
100
AcDbEntity
  8
1-4
  6
Continuous
 62
     2
370
     9
100
AcDbText
 10
-461.5099005266454
 20
415.7647002765967
 30
0.0
 40
15.24
  1
20
 50
90.00000250447816
 41
1.062500000000001
  7
ＭＳ ゴシック
100
AcDbText
  0
LWPOLYLINE
  5
155
330
1F
100
AcDbEntity
  8
1-4
  6
Continuous
 62
     7
370
     9
100
AcDbPolyline
 90
        4
 70
     1
 43
0.5
 10
-392.9931813832875
 20
531.7800738360431
 42
0.4142135623731
 10
-393.2431813832875
 20
532.0300738360431
 42
0.4142135623731
 10
-393.4931813832875
 20
531.7800738360431
 42
0.4142135623731
 10
-393.2431813832875
 20
531.5300738360431
 42
0.4142135623731
  0
LWPOLYLINE
  5
156
330
1F
100
AcDbEntity
  8
1-4
  6
Continuous
 62
     7
370
     9
100
AcDbPolyline
 90
        4
 70
     1
 43
0.5
 10
-385.9931706608952
 20
531.7800738360431
 42
0.4142135623731
 10
-386.2431706608952
 20
532.0300738360431
 42
0.4142135623731
 10
-386.4931706608951
 20
531.7800738360431
 42
0.4142135623731
 10
-386.2431706608952
 20
531.5300738360431
 42
0.4142135623731
  0
LWPOLYLINE
  5
157
330
1F
100
AcDbEntity
  8
1-4
  6
Continuous
 62
     7
370
     9
100
AcDbPolyline
 90
        4
 70
     1
 43
0.5
 10
-384.9931426177154
 20
531.7800738360431
 42
0.4142135623731
 10
-385.2431426177154
 20
532.0300738360431
 42
0.4142135623731
 10
-385.4931426177154
 20
531.7800738360431
 42
0.4142135623731
 10
-385.2431426177154
 20
531.5300738360431
 42
0.4142135623731
  0
LWPOLYLINE
  5
158
330
1F
100
AcDbEntity
  8
1-4
  6
Continuous
 62
     7
370
     9
100
AcDbPolyline
 90
        4
 70
     1
 43
0.5
 10
41.00692666543503
 20
531.7800738360431
 42
0.4142135623731
 10
40.75692666543503
 20
532.0300738360431
 42
0.4142135623731
 10
40.50692666543503
 20
531.7800738360431
 42
0.4142135623731
 10
40.75692666543503
 20
531.5300738360431
 42
0.4142135623731
  0
LWPOLYLINE
  5
159
330
1F
100
AcDbEntity
  8
1-4
  6
Continuous
 62
     7
370
     9
100
AcDbPolyline
 90
        4
 70
     1
 43
0.5
 10
42.00695470861498
 20
531.7800738360431
 42
0.4142135623731
 10
41.75695470861498
 20
532.0300738360431
 42
0.4142135623731
 10
41.50695470861498
 20
531.7800738360431
 42
0.4142135623731
 10
41.75695470861498
 20
531.5300738360431
 42
0.4142135623731
  0
LWPOLYLINE
  5
15A
330
1F
100
AcDbEntity
  8
1-4
  6
Continuous
 62
     7
370
     9
100
AcDbPolyline
 90
        4
 70
     1
 43
0.5
 10
49.00690357105157
 20
531.7800738360431
 42
0.4142135623731
 10
48.75690357105157
 20
532.0300738360431
 42
0.4142135623731
 10
48.50690357105157
 20
531.7800738360431
 42
0.4142135623731
 10
48.75690357105157
 20
531.5300738360431
 42
0.4142135623731
  0
LWPOLYLINE
  5
15B
330
1F
100
AcDbEntity
  8
1-4
  6
Continuous
 62
     7
370
     9
100
AcDbPolyline
 90
        4
 70
     1
 43
0.5
 10
-392.9931813832875
 20
565.402073215794
 42
0.4142135623731
 10
-393.2431813832875
 20
565.652073215794
 42
0.4142135623731
 10
-393.4931813832875
 20
565.402073215794
 42
0.4142135623731
 10
-393.2431813832875
 20
565.1520732157941
 42
0.4142135623731
  0
LWPOLYLINE
  5
15C
330
1F
100
AcDbEntity
  8
1-4
  6
Continuous
 62
     7
370
     9
100
AcDbPolyline
 90
        4
 70
     1
 43
0.5
 10
49.00690357105157
 20
565.402073215794
 42
0.4142135623731
 10
48.75690357105157
 20
565.652073215794
 42
0.4142135623731
 10
48.50690357105157
 20
565.402073215794
 42
0.4142135623731
 10
48.75690357105157
 20
565.1520732157941
 42
0.4142135623731
  0
LWPOLYLINE
  5
15D
330
1F
100
AcDbEntity
  8
F-4
  6
Continuous
 62
     7
370
     9
100
AcDbPolyline
 90
        4
 70
     1
 43
0.5
 10
255.4820738096495
 20
428.7615966796875
 42
0.4142135623731
 10
255.2320738096495
 20
429.0115966796875
 42
0.4142135623731
 10
254.9820738096495
 20
428.7615966796875
 42
0.4142135623731
 10
255.2320738096495
 20
428.5115966796875
 42
0.4142135623731
  0
LWPOLYLINE
  5
15E
330
1F
100
AcDbEntity
  8
F-4
  6
Continuous
 62
     7
370
     9
100
AcDbPolyline
 90
        4
 70
     1
 43
0.5
 10
455.4826099292654
 20
428.7615966796875
 42
0.4142135623731
 10
455.2326099292654
 20
429.0115966796875
 42
0.4142135623731
 10
454.9826099292654
 20
428.7615966796875
 42
0.4142135623731
 10
455.2326099292654
 20
428.5115966796875
 42
0.4142135623731
  0
LWPOLYLINE
  5
15F
330
1F
100
AcDbEntity
  8
F-4
  6
Continuous
 62
     7
370
     9
100
AcDbPolyline
 90
        4
 70
     1
 43
0.5
 10
506.685827306799
 20
383.8645069019215
 42
0.4142135623731
 10
506.435827306799
 20
384.1145069019215
 42
0.4142135623731
 10
506.185827306799
 20
383.8645069019215
 42
0.4142135623731
 10
506.435827306799
 20
383.6145069019215
 42
0.4142135623731
  0
LWPOLYLINE
  5
160
330
1F
100
AcDbEntity
  8
F-4
  6
Continuous
 62
     7
370
     9
100
AcDbPolyline
 90
        4
 70
     1
 43
0.5
 10
506.685827306799
 20
353.8636656065246
 42
0.4142135623731
 10
506.435827306799
 20
354.1136656065246
 42
0.4142135623731
 10
506.185827306799
 20
353.8636656065246
 42
0.4142135623731
 10
506.435827306799
 20
353.6136656065246
 42
0.4142135623731
  0
LWPOLYLINE
  5
161
330
1F
100
AcDbEntity
  8
1-4
  6
Continuous
 62
     7
370
     9
100
AcDbPolyline
 90
        4
 70
     1
 43
0.5
 10
-287.9931442673142
 20
294.7937176678633
 42
0.4142135623731
 10
-288.2431442673142
 20
295.0437176678633
 42
0.4142135623731
 10
-288.4931442673142
 20
294.7937176678633
 42
0.4142135623731
 10
-288.2431442673142
 20
294.5437176678633
 42
0.4142135623731
  0
LWPOLYLINE
  5
162
330
1F
100
AcDbEntity
  8
1-4
  6
Continuous
 62
     7
370
     9
100
AcDbPolyline
 90
        4
 70
     1
 43
0.5
 10
-229.9931879816828
 20
294.7937176678633
 42
0.4142135623731
 10
-230.2431879816828
 20
295.0437176678633
 42
0.4142135623731
 10
-230.4931879816828
 20
294.7937176678633
 42
0.4142135623731
 10
-230.2431879816828
 20
294.5437176678633
 42
0.4142135623731
  0
LWPOLYLINE
  5
163
330
1F
100
AcDbEntity
  8
1-4
  6
Continuous
 62
     7
370
     9
100
AcDbPolyline
 90
        4
 70
     1
 43
0.5
 10
-455.9398927430848
 20
372.0947842984588
 42
0.4142135623731
 10
-456.1898927430848
 20
372.3447842984587
 42
0.4142135623731
 10
-456.4398927430848
 20
372.0947842984588
 42
0.4142135623731
 10
-456.1898927430848
 20
371.8447842984588
 42
0.4142135623731
  0
LWPOLYLINE
  5
164
330
1F
100
AcDbEntity
  8
1-4
  6
Continuous
 62
     7
370
     9
100
AcDbPolyline
 90
        4
 70
     1
 43
0.5
 10
-455.9398927430848
 20
392.0944791226775
 42
0.4142135623731
 10
-456.1898927430848
 20
392.3444791226775
 42
0.4142135623731
 10
-456.4398927430848
 20
392.0944791226775
 42
0.4142135623731
 10
-456.1898927430848
 20
391.8444791226775
 42
0.4142135623731
  0
LWPOLYLINE
  5
165
330
1F
100
AcDbEntity
  8
1-4
  6
Continuous
 62
     7
370
     9
100
AcDbPolyline
 90
        4
 70
     1
 43
0.5
 10
-455.9398927430848
 20
412.0946688265414
 42
0.4142135623731
 10
-456.1898927430848
 20
412.3446688265414
 42
0.4142135623731
 10
-456.4398927430848
 20
412.0946688265414
 42
0.4142135623731
 10
-456.1898927430848
 20
411.8446688265414
 42
0.4142135623731
  0
LINE
  5
166
330
1F
100
AcDbEntity
  8
D-2
  6
Continuous
 62
     3
370
     9
100
AcDbLine
 10
-318.5039829563449
 20
-131.6300304515941
 30
0.0
 11
-314.7540943042651
 21
-131.6300304515941
 31
0.0
  0
LINE
  5
167
330
1F
100
AcDbEntity
  8
D-2
  6
Continuous
 62
     3
370
     9
100
AcDbLine
 10
-7.254069560282943
 20
-131.6300304515941
 30
0.0
 11
-3.50399532833606
 21
-131.6300304515941
 31
0.0
  0
LINE
  5
168
330
1F
100
AcDbEntity
  8
D-2
  6
Continuous
 62
     3
370
     9
100
AcDbLine
 10
-318.5039829563449
 20
-111.6300263275971
 30
0.0
 11
-318.5039829563449
 21
-131.6300304515941
 31
0.0
  0
LINE
  5
169
330
1F
100
AcDbEntity
  8
D-2
  6
Continuous
 62
     3
370
     9
100
AcDbLine
 10
-11.00389635240703
 20
-104.1298160037478
 30
0.0
 11
-311.0040200723183
 21
-104.1298160037478
 31
0.0
  0
LINE
  5
16A
330
1F
100
AcDbEntity
  8
D-2
  6
Continuous
 62
     3
370
     9
100
AcDbLine
 10
-3.50399532833606
 20
-111.6300263275971
 30
0.0
 11
-3.50399532833606
 21
-131.6300304515941
 31
0.0
  0
LINE
  5
16B
330
1F
100
AcDbEntity
  8
D-2
  6
Continuous
 62
     3
370
     9
100
AcDbLine
 10
-7.254069560282943
 20
-111.6300263275971
 30
0.0
 11
-7.254069560282943
 21
-131.6300304515941
 31
0.0
  0
LINE
  5
16C
330
1F
100
AcDbEntity
  8
D-2
  6
Continuous
 62
     3
370
     9
100
AcDbLine
 10
-314.7540943042651
 20
-111.6300263275971
 30
0.0
 11
-314.7540943042651
 21
-131.6300304515941
 31
0.0
  0
LINE
  5
16D
330
1F
100
AcDbEntity
  8
D-2
  6
Continuous
 62
     3
370
     9
100
AcDbLine
 10
-311.0040200723183
 20
-107.879828375739
 30
0.0
 11
-11.00389635240703
 21
-107.879828375739
 31
0.0
  0
LINE
  5
16E
330
1F
100
AcDbEntity
  8
D-2
  6
Continuous
 62
     3
370
     9
100
AcDbLine
 10
-314.7540943042651
 20
-131.6300304515941
 30
0.0
 11
-7.254069560282943
 21
-131.6300304515941
 31
0.0
  0
LINE
  5
16F
330
1F
100
AcDbEntity
  8
D-1
  6
Continuous
 62
     7
370
     9
100
AcDbLine
 10
16.49594693570535
 20
-324.6300300391945
 30
0.0
 11
16.49594693570535
 21
-326.6299624056429
 31
0.0
  0
LINE
  5
170
330
1F
100
AcDbEntity
  8
D-1
  6
Continuous
 62
     7
370
     9
100
AcDbLine
 10
16.49594693570535
 20
-121.6300593195734
 30
0.0
 11
14.49601456925677
 21
-121.6300593195734
 31
0.0
  0
LINE
  5
171
330
1F
100
AcDbEntity
  8
D-1
  6
Continuous
 62
     7
370
     9
100
AcDbLine
 10
14.49601456925677
 20
-105.6300436483847
 30
0.0
 11
14.49601456925677
 21
-121.6300593195734
 31
0.0
  0
LINE
  5
172
330
1F
100
AcDbEntity
  8
D-1
  6
Continuous
 62
     7
370
     9
100
AcDbLine
 10
16.49594693570535
 20
-105.6300436483847
 30
0.0
 11
16.49594693570535
 21
-121.6300593195734
 31
0.0
  0
LINE
  5
173
330
1F
100
AcDbEntity
  8
D-1
  6
Continuous
 62
     7
370
     9
100
AcDbLine
 10
2.996125092377611
 20
-101.6299314756651
 30
0.0
 11
12.49608220280834
 21
-101.6299314756651
 31
0.0
  0
LINE
  5
174
330
1F
100
AcDbEntity
  8
D-1
  6
Continuous
 62
     7
370
     9
100
AcDbLine
 10
2.996125092377611
 20
-326.6299624056429
 30
0.0
 11
16.49594693570535
 21
-326.6299624056429
 31
0.0
  0
LINE
  5
175
330
1F
100
AcDbEntity
  8
D-1
  6
Continuous
 62
     7
370
     9
100
AcDbLine
 10
2.996125092377611
 20
-324.6300300391945
 30
0.0
 11
16.49594693570535
 21
-324.6300300391945
 31
0.0
  0
LINE
  5
176
330
1F
100
AcDbEntity
  8
D-1
  6
Continuous
 62
     7
370
     9
100
AcDbLine
 10
2.996125092377611
 20
-103.6299875620249
 30
0.0
 11
12.49608220280834
 21
-103.6299875620249
 31
0.0
  0
LINE
  5
177
330
1F
100
AcDbEntity
  8
D-1
  6
Continuous
 62
     7
370
     9
100
AcDbLine
 10
0.9960690060178479
 20
-105.6300436483847
 30
0.0
 11
0.9960690060178479
 21
-129.6299743652344
 31
0.0
  0
LINE
  5
178
330
1F
100
AcDbEntity
  8
D-1
  6
Continuous
 62
     7
370
     9
100
AcDbLine
 10
-1.003987080342057
 20
-129.6297887853674
 30
0.0
 11
-1.003987080342057
 21
-105.6300436483847
 31
0.0
  0
LINE
  5
179
330
1F
100
AcDbEntity
  8
D-1
  6
Continuous
 62
     7
370
     9
100
AcDbLine
 10
-3.00404316670182
 20
-131.6300304515941
 30
0.0
 11
-16.73614914352825
 21
-131.6300304515941
 31
0.0
  0
LINE
  5
17A
330
1F
100
AcDbEntity
  8
D-1
  6
Continuous
 62
     7
370
     9
100
AcDbLine
 10
-3.00404316670182
 20
-133.629900958087
 30
0.0
 11
-15.57188291807421
 21
-133.629900958087
 31
0.0
  0
LINE
  5
17B
330
1F
100
AcDbEntity
  8
D-1
  6
Continuous
 62
     7
370
     9
100
AcDbLine
 10
-2.175614640519399
 20
-150.4582832955025
 30
0.0
 11
-17.98609140756966
 21
-134.6478683884079
 31
0.0
  0
LINE
  5
17C
330
1F
100
AcDbEntity
  8
D-1
  6
Continuous
 62
     7
370
     9
100
AcDbLine
 10
-1.003987080342057
 20
-153.2867679080447
 30
0.0
 11
-1.003987080342057
 21
-322.6298502329233
 31
0.0
  0
LINE
  5
17D
330
1F
100
AcDbEntity
  8
D-1
  6
Continuous
 62
     7
370
     9
100
AcDbLine
 10
-0.761372334248307
 20
-149.0441647091427
 30
0.0
 11
-15.74867867134714
 21
-134.0569202319995
 31
0.0
  0
LINE
  5
17E
330
1F
100
AcDbEntity
  8
D-1
  6
Continuous
 62
     7
370
     9
100
AcDbLine
 10
2.996125092377611
 20
-146.629832499736
 30
0.0
 11
0.9960690060178479
 21
-146.629832499736
 31
0.0
  0
LINE
  5
17F
330
1F
100
AcDbEntity
  8
D-1
  6
Continuous
 62
     7
370
     9
100
AcDbLine
 10
18.99632634343334
 20
-181.6300098316089
 30
0.0
 11
16.99589909733959
 21
-181.6300098316089
 31
0.0
  0
LINE
  5
180
330
1F
100
AcDbEntity
  8
D-1
  6
Continuous
 62
     7
370
     9
100
AcDbLine
 10
16.99589909733959
 20
-197.6299636428421
 30
0.0
 11
16.99589909733959
 21
-181.6300098316089
 31
0.0
  0
LINE
  5
181
330
1F
100
AcDbEntity
  8
D-1
  6
Continuous
 62
     7
370
     9
100
AcDbLine
 10
2.996125092377611
 20
-197.6299636428421
 30
0.0
 11
2.996125092377611
 21
-146.629832499736
 31
0.0
  0
LINE
  5
182
330
1F
100
AcDbEntity
  8
D-1
  6
Continuous
 62
     7
370
     9
100
AcDbLine
 10
4.995933738914715
 20
-199.6300197292018
 30
0.0
 11
14.99596673089115
 21
-199.6300197292018
 31
0.0
  0
LINE
  5
183
330
1F
100
AcDbEntity
  8
D-1
  6
Continuous
 62
     7
370
     9
100
AcDbLine
 10
18.99632634343334
 20
-197.6299636428421
 30
0.0
 11
18.99632634343334
 21
-181.6300098316089
 31
0.0
  0
LINE
  5
184
330
1F
100
AcDbEntity
  8
D-1
  6
Continuous
 62
     7
370
     9
100
AcDbLine
 10
14.99596673089115
 20
-201.6297665157833
 30
0.0
 11
4.995933738914715
 21
-201.6297665157833
 31
0.0
  0
LINE
  5
185
330
1F
100
AcDbEntity
  8
D-1
  6
Continuous
 62
     7
370
     9
100
AcDbLine
 10
0.9960690060178479
 20
-146.629832499736
 30
0.0
 11
0.9960690060178479
 21
-322.6298502329233
 31
0.0
  0
LINE
  5
186
330
1F
100
AcDbEntity
  8
D-0
  6
Continuous
 62
     3
370
     9
100
AcDbLine
 10
2.996125092377611
 20
-155.9925223685599
 30
0.0
 11
4.246067356419019
 21
-154.7424563846072
 31
0.0
  0
LINE
  5
187
330
1F
100
AcDbEntity
  8
D-0
  6
Continuous
 62
     3
370
     9
100
AcDbLine
 10
2.996125092377611
 20
-163.4923615326752
 30
0.0
 11
4.246067356419019
 21
-164.7421800768053
 31
0.0
  0
LINE
  5
188
330
1F
100
AcDbEntity
  8
D-0
  6
Continuous
 62
     3
370
     9
100
AcDbLine
 10
4.246067356419019
 20
-164.7421800768053
 30
0.0
 11
4.246067356419019
 21
-154.7424563846072
 31
0.0
  0
LINE
  5
189
330
1F
100
AcDbEntity
  8
D-0
  6
JWW_DASHED3
 62
     3
370
     9
100
AcDbLine
 10
17.99605086043087
 20
-154.7424563846072
 30
0.0
 11
17.99605086043087
 21
-150.9922584327492
 31
0.0
  0
LINE
  5
18A
330
1F
100
AcDbEntity
  8
D-0
  6
JWW_DASHED3
 62
     3
370
     9
100
AcDbLine
 10
17.99605086043087
 20
-150.9922584327492
 30
0.0
 11
21.2454306112754
 21
-150.9922584327492
 31
0.0
  0
LINE
  5
18B
330
1F
100
AcDbEntity
  8
D-0
  6
JWW_DASHED3
 62
     3
370
     9
100
AcDbLine
 10
24.4955526815879
 20
-154.2423805030617
 30
0.0
 11
24.4955526815879
 21
-165.2422559583509
 31
0.0
  0
LINE
  5
18C
330
1F
100
AcDbEntity
  8
D-0
  6
JWW_DASHED3
 62
     3
370
     9
100
AcDbLine
 10
21.2454306112754
 20
-168.4923780286634
 30
0.0
 11
17.99605086043087
 21
-168.4923780286634
 31
0.0
  0
LINE
  5
18D
330
1F
100
AcDbEntity
  8
D-0
  6
JWW_DASHED3
 62
     3
370
     9
100
AcDbLine
 10
17.99605086043087
 20
-168.4923780286634
 30
0.0
 11
17.99605086043087
 21
-164.7424893765836
 31
0.0
  0
LINE
  5
18E
330
1F
100
AcDbEntity
  8
D-0
  6
JWW_DASHED3
 62
     3
370
     9
100
AcDbLine
 10
17.99605086043087
 20
-164.7424893765836
 30
0.0
 11
15.4959188925254
 21
-163.4923615326752
 31
0.0
  0
LINE
  5
18F
330
1F
100
AcDbEntity
  8
D-0
  6
JWW_DASHED3
 62
     3
370
     9
100
AcDbLine
 10
17.14597134976785
 20
-163.4923615326752
 30
0.0
 11
17.14597134976785
 21
-155.9925223685599
 31
0.0
  0
LINE
  5
190
330
1F
100
AcDbEntity
  8
D-0
  6
JWW_DASHED3
 62
     3
370
     9
100
AcDbLine
 10
17.99605086043087
 20
-154.7424563846072
 30
0.0
 11
15.4959188925254
 21
-155.9925223685599
 31
0.0
  0
LINE
  5
191
330
1F
100
AcDbEntity
  8
D-0
  6
JWW_DASHED3
 62
     3
370
     9
100
AcDbLine
 10
17.99605086043087
 20
-154.7424563846072
 30
0.0
 11
17.99605086043087
 21
-164.7424893765836
 31
0.0
  0
LINE
  5
192
330
1F
100
AcDbEntity
  8
D-0
  6
Continuous
 62
     3
370
     9
100
AcDbLine
 10
8.746007970861598
 20
-107.1300238531989
 30
0.0
 11
14.49601456925677
 21
-107.1300238531989
 31
0.0
  0
LINE
  5
193
330
1F
100
AcDbEntity
  8
D-0
  6
Continuous
 62
     3
370
     9
100
AcDbLine
 10
8.746007970861598
 20
-199.6300197292018
 30
0.0
 11
14.49601456925677
 21
-199.6300197292018
 31
0.0
  0
LINE
  5
194
330
1F
100
AcDbEntity
  8
D-0
  6
Continuous
 62
     3
370
     9
100
AcDbLine
 10
23.64497829127956
 20
-193.8792708113387
 30
0.0
 11
83.7460079708616
 21
-193.8792708113387
 31
0.0
  0
LINE
  5
195
330
1F
100
AcDbEntity
  8
D-0
  6
Continuous
 62
     3
370
     9
100
AcDbLine
 10
78.74611519478464
 20
-149.6292980297191
 30
0.0
 11
8.746007970861598
 21
-149.6292980297191
 31
0.0
  0
LINE
  5
196
330
1F
100
AcDbEntity
  8
D-0
  6
Continuous
 62
     3
370
     9
100
AcDbLine
 10
23.64497829127956
 20
-199.6292774097339
 30
0.0
 11
83.7460079708616
 21
-199.6292774097339
 31
0.0
  0
LINE
  5
197
330
1F
100
AcDbEntity
  8
D-0
  6
Continuous
 62
     3
370
     9
100
AcDbLine
 10
23.64460713154571
 20
-180.8800197292018
 30
0.0
 11
23.64460713154571
 21
-199.6300197292018
 31
0.0
  0
LINE
  5
198
330
1F
100
AcDbEntity
  8
D-0
  6
Continuous
 62
     3
370
     9
100
AcDbLine
 10
8.746007970861598
 20
-175.8792609137458
 30
0.0
 11
18.64496179529141
 21
-175.8796939334354
 31
0.0
  0
LINE
  5
199
330
1F
100
AcDbEntity
  8
D-0
  6
Continuous
 62
     3
370
     9
100
AcDbLine
 10
83.7460079708616
 20
-154.6295619655299
 30
0.0
 11
83.7460079708616
 21
-199.6292774097339
 31
0.0
  0
LINE
  5
19A
330
1F
100
AcDbEntity
  8
D-0
  6
Continuous
 62
     3
370
     9
100
AcDbLine
 10
14.49601456925677
 20
-107.1300238531989
 30
0.0
 11
14.49601456925677
 21
-149.6292980297191
 31
0.0
  0
LINE
  5
19B
330
1F
100
AcDbEntity
  8
D-0
  6
Continuous
 62
     3
370
     9
100
AcDbLine
 10
14.49601456925677
 20
-175.8796939334354
 30
0.0
 11
14.49601456925677
 21
-199.6300197292018
 31
0.0
  0
LINE
  5
19C
330
1F
100
AcDbEntity
  8
D-0
  6
Continuous
 62
     3
370
     9
100
AcDbLine
 10
8.746007970861598
 20
-199.6300197292018
 30
0.0
 11
8.746007970861598
 21
-107.1300238531989
 31
0.0
  0
LINE
  5
19D
330
1F
100
AcDbEntity
  8
D-0
  6
JWW_DASHED3
 62
     3
370
     9
100
AcDbLine
 10
14.49601456925677
 20
-175.8792609137458
 30
0.0
 11
14.49601456925677
 21
-149.6292980297191
 31
0.0
  0
LINE
  5
19E
330
1F
100
AcDbEntity
  8
D-1
  6
Continuous
 62
     7
370
     9
100
AcDbLine
 10
-338.5039870803421
 20
-324.6300300391945
 30
0.0
 11
-338.5039870803421
 21
-326.6299624056429
 31
0.0
  0
LINE
  5
19F
330
1F
100
AcDbEntity
  8
D-1
  6
Continuous
 62
     7
370
     9
100
AcDbLine
 10
-338.5039870803421
 20
-121.6300593195734
 30
0.0
 11
-336.5039928539379
 21
-121.6300593195734
 31
0.0
  0
LINE
  5
1A0
330
1F
100
AcDbEntity
  8
D-1
  6
Continuous
 62
     7
370
     9
100
AcDbLine
 10
-336.5039928539379
 20
-105.6300436483847
 30
0.0
 11
-336.5039928539379
 21
-121.6300593195734
 31
0.0
  0
LINE
  5
1A1
330
1F
100
AcDbEntity
  8
D-1
  6
Continuous
 62
     7
370
     9
100
AcDbLine
 10
-338.5039870803421
 20
-105.6300436483847
 30
0.0
 11
-338.5039870803421
 21
-121.6300593195734
 31
0.0
  0
LINE
  5
1A2
330
1F
100
AcDbEntity
  8
D-1
  6
Continuous
 62
     7
370
     9
100
AcDbLine
 10
-325.004041517103
 20
-101.6299314756651
 30
0.0
 11
-334.5039367675781
 21
-101.6299314756651
 31
0.0
  0
LINE
  5
1A3
330
1F
100
AcDbEntity
  8
D-1
  6
Continuous
 62
     7
370
     9
100
AcDbLine
 10
-325.004041517103
 20
-326.6299624056429
 30
0.0
 11
-338.5039870803421
 21
-326.6299624056429
 31
0.0
  0
LINE
  5
1A4
330
1F
100
AcDbEntity
  8
D-1
  6
Continuous
 62
     7
370
     9
100
AcDbLine
 10
-325.004041517103
 20
-324.6300300391945
 30
0.0
 11
-338.5039870803421
 21
-324.6300300391945
 31
0.0
  0
LINE
  5
1A5
330
1F
100
AcDbEntity
  8
D-1
  6
Continuous
 62
     7
370
     9
100
AcDbLine
 10
-325.004041517103
 20
-103.6299875620249
 30
0.0
 11
-334.5039367675781
 21
-103.6299875620249
 31
0.0
  0
LINE
  5
1A6
330
1F
100
AcDbEntity
  8
D-1
  6
Continuous
 62
     7
370
     9
100
AcDbLine
 10
-323.0039854307432
 20
-105.6300436483847
 30
0.0
 11
-323.0039854307432
 21
-129.6299743652344
 31
0.0
  0
LINE
  5
1A7
330
1F
100
AcDbEntity
  8
D-1
  6
Continuous
 62
     7
370
     9
100
AcDbLine
 10
-321.0039293443834
 20
-129.6297887853674
 30
0.0
 11
-321.0039293443834
 21
-105.6300436483847
 31
0.0
  0
LINE
  5
1A8
330
1F
100
AcDbEntity
  8
D-1
  6
Continuous
 62
     7
370
     9
100
AcDbLine
 10
-319.0040588378906
 20
-131.6300304515941
 30
0.0
 11
-305.2718291411529
 21
-131.6300304515941
 31
0.0
  0
LINE
  5
1A9
330
1F
100
AcDbEntity
  8
D-1
  6
Continuous
 62
     7
370
     9
100
AcDbLine
 10
-319.0040588378906
 20
-133.629900958087
 30
0.0
 11
-306.4360953666068
 21
-133.629900958087
 31
0.0
  0
LINE
  5
1AA
330
1F
100
AcDbEntity
  8
D-1
  6
Continuous
 62
     7
370
     9
100
AcDbLine
 10
-319.8324255041173
 20
-150.4582832955025
 30
0.0
 11
-304.0218868771115
 21
-134.6478683884079
 31
0.0
  0
LINE
  5
1AB
330
1F
100
AcDbEntity
  8
D-1
  6
Continuous
 62
     7
370
     9
100
AcDbLine
 10
-321.0039293443834
 20
-153.2867679080447
 30
0.0
 11
-321.0039293443834
 21
-322.6298502329233
 31
0.0
  0
LINE
  5
1AC
330
1F
100
AcDbEntity
  8
D-1
  6
Continuous
 62
     7
370
     9
100
AcDbLine
 10
-321.2466678103884
 20
-149.0441647091427
 30
0.0
 11
-306.2590521735113
 21
-134.0569202319995
 31
0.0
  0
LINE
  5
1AD
330
1F
100
AcDbEntity
  8
D-1
  6
Continuous
 62
     7
370
     9
100
AcDbLine
 10
-325.004041517103
 20
-146.629832499736
 30
0.0
 11
-323.0039854307432
 21
-146.629832499736
 31
0.0
  0
LINE
  5
1AE
330
1F
100
AcDbEntity
  8
D-1
  6
Continuous
 62
     7
370
     9
100
AcDbLine
 10
-341.003995328336
 20
-181.6300098316089
 30
0.0
 11
-339.0039392419763
 21
-181.6300098316089
 31
0.0
  0
LINE
  5
1AF
330
1F
100
AcDbEntity
  8
D-1
  6
Continuous
 62
     7
370
     9
100
AcDbLine
 10
-339.0039392419763
 20
-197.6299636428421
 30
0.0
 11
-339.0039392419763
 21
-181.6300098316089
 31
0.0
  0
LINE
  5
1B0
330
1F
100
AcDbEntity
  8
D-1
  6
Continuous
 62
     7
370
     9
100
AcDbLine
 10
-325.004041517103
 20
-197.6299636428421
 30
0.0
 11
-325.004041517103
 21
-146.629832499736
 31
0.0
  0
LINE
  5
1B1
330
1F
100
AcDbEntity
  8
D-1
  6
Continuous
 62
     7
370
     9
100
AcDbLine
 10
-327.0039120235958
 20
-199.6300197292018
 30
0.0
 11
-337.0039450155721
 21
-199.6300197292018
 31
0.0
  0
LINE
  5
1B2
330
1F
100
AcDbEntity
  8
D-1
  6
Continuous
 62
     7
370
     9
100
AcDbLine
 10
-341.003995328336
 20
-197.6299636428421
 30
0.0
 11
-341.003995328336
 21
-181.6300098316089
 31
0.0
  0
LINE
  5
1B3
330
1F
100
AcDbEntity
  8
D-1
  6
Continuous
 62
     7
370
     9
100
AcDbLine
 10
-337.0039450155721
 20
-201.6300758155617
 30
0.0
 11
-327.0039120235958
 21
-201.6300758155617
 31
0.0
  0
LINE
  5
1B4
330
1F
100
AcDbEntity
  8
D-1
  6
Continuous
 62
     7
370
     9
100
AcDbLine
 10
-323.0039854307432
 20
-146.629832499736
 30
0.0
 11
-323.0039854307432
 21
-322.6298502329233
 31
0.0
  0
LINE
  5
1B5
330
1F
100
AcDbEntity
  8
D-0
  6
Continuous
 62
     3
370
     9
100
AcDbLine
 10
-325.004041517103
 20
-155.9925223685599
 30
0.0
 11
-326.2539219211886
 21
-154.7424563846072
 31
0.0
  0
LINE
  5
1B6
330
1F
100
AcDbEntity
  8
D-0
  6
Continuous
 62
     3
370
     9
100
AcDbLine
 10
-325.004041517103
 20
-163.4923615326752
 30
0.0
 11
-326.2539219211886
 21
-164.7421800768053
 31
0.0
  0
LINE
  5
1B7
330
1F
100
AcDbEntity
  8
D-0
  6
Continuous
 62
     3
370
     9
100
AcDbLine
 10
-326.2539219211886
 20
-164.7421800768053
 30
0.0
 11
-326.2539219211886
 21
-154.7424563846072
 31
0.0
  0
LINE
  5
1B8
330
1F
100
AcDbEntity
  8
D-0
  6
Continuous
 62
     3
370
     9
100
AcDbLine
 10
-326.2537982012775
 20
-154.7424563846072
 30
0.0
 11
-340.0038435652449
 21
-154.7424563846072
 31
0.0
  0
LINE
  5
1B9
330
1F
100
AcDbEntity
  8
D-0
  6
Continuous
 62
     3
370
     9
100
AcDbLine
 10
-325.004041517103
 20
-155.9925223685599
 30
0.0
 11
-340.0038435652449
 21
-155.9925223685599
 31
0.0
  0
LINE
  5
1BA
330
1F
100
AcDbEntity
  8
D-0
  6
Continuous
 62
     3
370
     9
100
AcDbLine
 10
-325.0057117359057
 20
-163.4919285129856
 30
0.0
 11
-340.0038435652449
 21
-163.4923615326752
 31
0.0
  0
LINE
  5
1BB
330
1F
100
AcDbEntity
  8
D-0
  6
Continuous
 62
     3
370
     9
100
AcDbLine
 10
-326.2539219211886
 20
-164.7424893765836
 30
0.0
 11
-340.0038435652449
 21
-164.7424893765836
 31
0.0
  0
LINE
  5
1BC
330
1F
100
AcDbEntity
  8
D-0
  6
Continuous
 62
     3
370
     9
100
AcDbLine
 10
-340.0038435652449
 20
-150.9922584327492
 30
0.0
 11
-343.2533470360008
 21
-150.9922584327492
 31
0.0
  0
LINE
  5
1BD
330
1F
100
AcDbEntity
  8
D-0
  6
Continuous
 62
     3
370
     9
100
AcDbLine
 10
-346.503530966269
 20
-154.2423805030617
 30
0.0
 11
-346.503530966269
 21
-165.2422559583509
 31
0.0
  0
LINE
  5
1BE
330
1F
100
AcDbEntity
  8
D-0
  6
Continuous
 62
     3
370
     9
100
AcDbLine
 10
-343.2533470360008
 20
-168.4923780286634
 30
0.0
 11
-340.0038435652449
 21
-168.4923780286634
 31
0.0
  0
LINE
  5
1BF
330
1F
100
AcDbEntity
  8
D-0
  6
JWW_DASHED3
 62
     3
370
     9
100
AcDbLine
 10
-340.0038435652449
 20
-164.7424893765836
 30
0.0
 11
-337.5038353172508
 21
-163.4923615326752
 31
0.0
  0
LINE
  5
1C0
330
1F
100
AcDbEntity
  8
D-0
  6
Continuous
 62
     3
370
     9
100
AcDbLine
 10
-339.1538877744932
 20
-163.4923615326752
 30
0.0
 11
-339.1538877744932
 21
-155.9925223685599
 31
0.0
  0
LINE
  5
1C1
330
1F
100
AcDbEntity
  8
D-0
  6
Continuous
 62
     3
370
     9
100
AcDbLine
 10
-340.0038435652449
 20
-154.7424563846072
 30
0.0
 11
-337.5038353172508
 21
-155.9925223685599
 31
0.0
  0
LINE
  5
1C2
330
1F
100
AcDbEntity
  8
D-0
  6
Continuous
 62
     3
370
     9
100
AcDbLine
 10
-330.7539862555426
 20
-107.1300238531989
 30
0.0
 11
-336.5039928539379
 21
-107.1300238531989
 31
0.0
  0
LINE
  5
1C3
330
1F
100
AcDbEntity
  8
D-0
  6
Continuous
 62
     3
370
     9
100
AcDbLine
 10
-330.7539862555426
 20
-199.6300197292018
 30
0.0
 11
-336.5039928539379
 21
-199.6300197292018
 31
0.0
  0
LINE
  5
1C4
330
1F
100
AcDbEntity
  8
D-0
  6
JWW_DASHED3
 62
     3
370
     9
100
AcDbLine
 10
-345.6528328560494
 20
-193.8792708113387
 30
0.0
 11
-405.7540481154983
 21
-193.8792708113387
 31
0.0
  0
LINE
  5
1C5
330
1F
100
AcDbEntity
  8
D-0
  6
Continuous
 62
     3
370
     9
100
AcDbLine
 10
-345.6528328560494
 20
-199.6292774097339
 30
0.0
 11
-405.7540481154983
 21
-199.6292774097339
 31
0.0
  0
LINE
  5
1C6
330
1F
100
AcDbEntity
  8
D-0
  6
Continuous
 62
     3
370
     9
100
AcDbLine
 10
-345.6526472761824
 20
-180.8800197292018
 30
0.0
 11
-345.6522142564928
 21
-199.6300197292018
 31
0.0
  0
LINE
  5
1C7
330
1F
100
AcDbEntity
  8
D-0
  6
Continuous
 62
     3
370
     9
100
AcDbLine
 10
-405.7540481154983
 20
-154.6295619655299
 30
0.0
 11
-405.7540481154983
 21
-199.6292774097339
 31
0.0
  0
LINE
  5
1C8
330
1F
100
AcDbEntity
  8
D-0
  6
Continuous
 62
     3
370
     9
100
AcDbLine
 10
-330.7539862555426
 20
-199.6300197292018
 30
0.0
 11
-330.7539862555426
 21
-107.1300238531989
 31
0.0
  0
LINE
  5
1C9
330
1F
100
AcDbEntity
  8
D-0
  6
Continuous
 62
     3
370
     9
100
AcDbLine
 10
-340.0038435652449
 20
-168.4923780286634
 30
0.0
 11
-340.0038435652449
 21
-150.9922584327492
 31
0.0
  0
LINE
  5
1CA
330
1F
100
AcDbEntity
  8
D-0
  6
Continuous
 62
     3
370
     9
100
AcDbLine
 10
-336.5039928539379
 20
-107.1300238531989
 30
0.0
 11
-336.5039928539379
 21
-199.6300197292018
 31
0.0
  0
LINE
  5
1CB
330
1F
100
AcDbEntity
  8
D-0
  6
Continuous
 62
     3
370
     9
100
AcDbLine
 10
-400.7540934794657
 20
-149.6292980297191
 30
0.0
 11
-336.5039928539379
 21
-149.6292980297191
 31
0.0
  0
LINE
  5
1CC
330
1F
100
AcDbEntity
  8
D-0
  6
Continuous
 62
     3
370
     9
100
AcDbLine
 10
-336.5039928539379
 20
-175.8796939334354
 30
0.0
 11
-340.6530019399281
 21
-175.8796939334354
 31
0.0
  0
LINE
  5
1CD
330
1F
100
AcDbEntity
  8
D-4
  6
Continuous
 62
     7
370
     9
100
AcDbLine
 10
-338.5039870803421
 20
-65.31646728515625
 30
0.0
 11
-321.0039293443834
 21
-65.31646728515625
 31
0.0
  0
LINE
  5
1CE
330
1F
100
AcDbEntity
  8
D-4
  6
Continuous
 62
     7
370
     9
100
AcDbLine
 10
-338.5039870803421
 20
-91.17473292995143
 30
0.0
 11
-338.5039870803421
 21
-63.81642522038632
 31
0.0
  0
LINE
  5
1CF
330
1F
100
AcDbEntity
  8
D-4
  6
Continuous
 62
     7
370
     9
100
AcDbLine
 10
-321.0039293443834
 20
-91.17473292995143
 30
0.0
 11
-321.0039293443834
 21
-63.81642522038632
 31
0.0
  0
LINE
  5
1D0
330
1F
100
AcDbEntity
  8
D-4
  6
Continuous
 62
     7
370
     9
100
AcDbLine
 10
-321.0039293443834
 20
-65.31646728515625
 30
0.0
 11
-318.5039829563449
 21
-65.31646728515625
 31
0.0
  0
LINE
  5
1D1
330
1F
100
AcDbEntity
  8
D-4
  6
Continuous
 62
     7
370
     9
100
AcDbLine
 10
-318.5039829563449
 20
-91.17473292995143
 30
0.0
 11
-318.5039829563449
 21
-63.81642522038632
 31
0.0
  0
LINE
  5
1D2
330
1F
100
AcDbEntity
  8
D-4
  6
Continuous
 62
     7
370
     9
100
AcDbLine
 10
-318.5039829563449
 20
-65.31646728515625
 30
0.0
 11
-3.50399532833606
 21
-65.31646728515625
 31
0.0
  0
LINE
  5
1D3
330
1F
100
AcDbEntity
  8
D-4
  6
Continuous
 62
     7
370
     9
100
AcDbLine
 10
-3.50399532833606
 20
-91.17473292995143
 30
0.0
 11
-3.50399532833606
 21
-63.81642522038632
 31
0.0
  0
LINE
  5
1D4
330
1F
100
AcDbEntity
  8
D-4
  6
Continuous
 62
     7
370
     9
100
AcDbLine
 10
-3.50399532833606
 20
-65.31646728515625
 30
0.0
 11
-1.003987080342057
 21
-65.31646728515625
 31
0.0
  0
LINE
  5
1D5
330
1F
100
AcDbEntity
  8
D-4
  6
Continuous
 62
     7
370
     9
100
AcDbLine
 10
-1.003987080342057
 20
-91.17473292995143
 30
0.0
 11
-1.003987080342057
 21
-63.81642522038632
 31
0.0
  0
LINE
  5
1D6
330
1F
100
AcDbEntity
  8
D-4
  6
Continuous
 62
     7
370
     9
100
AcDbLine
 10
-1.003987080342057
 20
-65.31646728515625
 30
0.0
 11
16.49594693570535
 21
-65.31646728515625
 31
0.0
  0
LINE
  5
1D7
330
1F
100
AcDbEntity
  8
D-4
  6
Continuous
 62
     7
370
     9
100
AcDbLine
 10
16.49594693570535
 20
-91.17473292995143
 30
0.0
 11
16.49594693570535
 21
-63.81642522038632
 31
0.0
  0
LINE
  5
1D8
330
1F
100
AcDbEntity
  8
D-4
  6
Continuous
 62
     7
370
     9
100
AcDbLine
 10
-338.5039870803421
 20
-28.11778712917018
 30
0.0
 11
16.49594693570535
 21
-28.11778712917018
 31
0.0
  0
LINE
  5
1D9
330
1F
100
AcDbEntity
  8
D-4
  6
Continuous
 62
     7
370
     9
100
AcDbLine
 10
-338.5039870803421
 20
-65.31646728515625
 30
0.0
 11
-338.5039870803421
 21
-26.61780692435599
 31
0.0
  0
LINE
  5
1DA
330
1F
100
AcDbEntity
  8
D-4
  6
Continuous
 62
     7
370
     9
100
AcDbLine
 10
16.49594693570535
 20
-65.31646728515625
 30
0.0
 11
16.49594693570535
 21
-26.61780692435599
 31
0.0
  0
LINE
  5
1DB
330
1F
100
AcDbEntity
  8
D-4
  6
Continuous
 62
     7
370
     9
100
AcDbLine
 10
-303.503995328336
 20
-188.2013310612859
 30
0.0
 11
-18.50398295634491
 21
-188.2013310612859
 31
0.0
  0
LINE
  5
1DC
330
1F
100
AcDbEntity
  8
D-4
  6
Continuous
 62
     7
370
     9
100
AcDbLine
 10
-303.503995328336
 20
-142.6080693425359
 30
0.0
 11
-303.503995328336
 21
-189.7013112661
 31
0.0
  0
LINE
  5
1DD
330
1F
100
AcDbEntity
  8
D-4
  6
Continuous
 62
     7
370
     9
100
AcDbLine
 10
-18.50398295634491
 20
-142.6080693425359
 30
0.0
 11
-18.50398295634491
 21
-189.7013112661
 31
0.0
  0
LINE
  5
1DE
330
1F
100
AcDbEntity
  8
D-4
  6
Continuous
 62
     7
370
     9
100
AcDbLine
 10
-338.5039870803421
 20
-374.2229090510187
 30
0.0
 11
16.49594693570535
 21
-374.2229090510187
 31
0.0
  0
LINE
  5
1DF
330
1F
100
AcDbEntity
  8
D-4
  6
Continuous
 62
     7
370
     9
100
AcDbLine
 10
-338.5039870803421
 20
-333.4161232613229
 30
0.0
 11
-338.5039870803421
 21
-375.7227964658995
 31
0.0
  0
LINE
  5
1E0
330
1F
100
AcDbEntity
  8
D-4
  6
Continuous
 62
     7
370
     9
100
AcDbLine
 10
16.49594693570535
 20
-333.4161232613229
 30
0.0
 11
16.49594693570535
 21
-375.7227964658995
 31
0.0
  0
LINE
  5
1E1
330
1F
100
AcDbEntity
  8
D-4
  6
Continuous
 62
     7
370
     9
100
AcDbLine
 10
-52.17058336412578
 20
-131.6298448717271
 30
0.0
 11
-52.17058336412578
 21
-104.1298160037478
 31
0.0
  0
LINE
  5
1E2
330
1F
100
AcDbEntity
  8
D-4
  6
Continuous
 62
     7
370
     9
100
AcDbLine
 10
-52.17058336412578
 20
-131.6298448717271
 30
0.0
 11
-50.67060315931158
 21
-131.6298448717271
 31
0.0
  0
LINE
  5
1E3
330
1F
100
AcDbEntity
  8
D-4
  6
Continuous
 62
     7
370
     9
100
AcDbLine
 10
-52.17058336412578
 20
-104.1298160037478
 30
0.0
 11
-50.67060315931158
 21
-104.1298160037478
 31
0.0
  0
LINE
  5
1E4
330
1F
100
AcDbEntity
  8
D-4
  6
Continuous
 62
     7
370
     9
100
AcDbLine
 10
-94.27630450274492
 20
-107.879828375739
 30
0.0
 11
-92.77632429793073
 21
-107.879828375739
 31
0.0
  0
LINE
  5
1E5
330
1F
100
AcDbEntity
  8
D-4
  6
Continuous
 62
     7
370
     9
100
AcDbLine
 10
-94.27630450274492
 20
-104.1298160037478
 30
0.0
 11
-92.77632429793073
 21
-104.1298160037478
 31
0.0
  0
LINE
  5
1E6
330
1F
100
AcDbEntity
  8
D-4
  6
Continuous
 62
     7
370
     9
100
AcDbLine
 10
-487.4145095412796
 20
-326.6299624056429
 30
0.0
 11
-487.4145095412796
 21
-101.6299314756651
 31
0.0
  0
LINE
  5
1E7
330
1F
100
AcDbEntity
  8
D-4
  6
Continuous
 62
     7
370
     9
100
AcDbLine
 10
-345.0253254658466
 20
-326.6299624056429
 30
0.0
 11
-488.9144278861381
 21
-326.6299624056429
 31
0.0
  0
LINE
  5
1E8
330
1F
100
AcDbEntity
  8
D-4
  6
Continuous
 62
     7
370
     9
100
AcDbLine
 10
-345.0253254658466
 20
-101.6299314756651
 30
0.0
 11
-488.9144278861381
 21
-101.6299314756651
 31
0.0
  0
LINE
  5
1E9
330
1F
100
AcDbEntity
  8
D-1
  6
Continuous
 62
     7
370
     9
100
AcDbLine
 10
-325.004041517103
 20
-326.6298386857317
 30
0.0
 11
2.996125092377611
 21
-326.6298386857317
 31
0.0
  0
LINE
  5
1EA
330
1F
100
AcDbEntity
  8
D-0
  6
JWW_DASHED3
 62
     3
370
     9
100
AcDbLine
 10
8.746007970861598
 20
-164.7424893765836
 30
0.0
 11
17.99605086043087
 21
-164.7424893765836
 31
0.0
  0
LINE
  5
1EB
330
1F
100
AcDbEntity
  8
D-0
  6
JWW_DASHED3
 62
     3
370
     9
100
AcDbLine
 10
8.746007970861598
 20
-163.4920522328969
 30
0.0
 11
17.99605086043087
 21
-163.4923615326752
 31
0.0
  0
LINE
  5
1EC
330
1F
100
AcDbEntity
  8
D-0
  6
JWW_DASHED3
 62
     3
370
     9
100
AcDbLine
 10
8.746007970861598
 20
-154.7424563846072
 30
0.0
 11
17.99605086043087
 21
-154.7424563846072
 31
0.0
  0
LINE
  5
1ED
330
1F
100
AcDbEntity
  8
D-0
  6
JWW_DASHED3
 62
     3
370
     9
100
AcDbLine
 10
8.746007970861598
 20
-155.9925223685599
 30
0.0
 11
17.99605086043087
 21
-155.9925223685599
 31
0.0
  0
LINE
  5
1EE
330
1F
100
AcDbEntity
  8
D-0
  6
Continuous
 62
     3
370
     9
100
AcDbLine
 10
4.246067356419019
 20
-154.7424563846072
 30
0.0
 11
8.746007970861598
 21
-154.7424563846072
 31
0.0
  0
LINE
  5
1EF
330
1F
100
AcDbEntity
  8
D-0
  6
Continuous
 62
     3
370
     9
100
AcDbLine
 10
2.996125092377611
 20
-155.9925223685599
 30
0.0
 11
8.746007970861598
 21
-155.9925223685599
 31
0.0
  0
LINE
  5
1F0
330
1F
100
AcDbEntity
  8
D-0
  6
Continuous
 62
     3
370
     9
100
AcDbLine
 10
2.997733451224747
 20
-163.4919285129856
 30
0.0
 11
8.746007970861598
 21
-163.4920522328969
 31
0.0
  0
LINE
  5
1F1
330
1F
100
AcDbEntity
  8
D-0
  6
Continuous
 62
     3
370
     9
100
AcDbLine
 10
4.246067356419019
 20
-164.7424893765836
 30
0.0
 11
8.746007970861598
 21
-164.7424893765836
 31
0.0
  0
LINE
  5
1F2
330
1F
100
AcDbEntity
  8
D-0
  6
JWW_CENTER1
 62
     3
370
     9
100
AcDbLine
 10
-2.112270045924731
 20
-159.7424728805954
 30
0.0
 11
28.27952616923568
 21
-159.7424728805954
 31
0.0
  0
LINE
  5
1F3
330
1F
100
AcDbEntity
  8
D-0
  6
JWW_CENTER1
 62
     3
370
     9
100
AcDbLine
 10
-319.895770098712
 20
-159.7424728805954
 30
0.0
 11
-352.2249582651499
 21
-159.7424728805954
 31
0.0
  0
LINE
  5
1F4
330
1F
100
AcDbEntity
  8
D-4
  6
Continuous
 62
     7
370
     9
100
AcDbLine
 10
-94.27630450274492
 20
-107.879828375739
 30
0.0
 11
-94.27630450274492
 21
-71.13074637748099
 31
0.0
  0
LINE
  5
1F5
330
1F
100
AcDbEntity
  8
D-4
  6
Continuous
 62
     7
370
     9
100
AcDbLine
 10
-445.9216968433277
 20
-101.6299314756651
 30
0.0
 11
-445.9216968433277
 21
-149.6296073294974
 31
0.0
  0
LINE
  5
1F6
330
1F
100
AcDbEntity
  8
D-4
  6
Continuous
 62
     7
370
     9
100
AcDbLine
 10
-412.2717367636191
 20
-101.6299314756651
 30
0.0
 11
-447.4218007680532
 21
-101.6299314756651
 31
0.0
  0
LINE
  5
1F7
330
1F
100
AcDbEntity
  8
D-4
  6
Continuous
 62
     7
370
     9
100
AcDbLine
 10
-412.2717367636191
 20
-149.6296073294974
 30
0.0
 11
-447.4218007680532
 21
-149.6296073294974
 31
0.0
  0
LINE
  5
1F8
330
1F
100
AcDbEntity
  8
D-4
  6
Continuous
 62
     7
370
     9
100
AcDbLine
 10
-445.9216968433277
 20
-149.6296073294974
 30
0.0
 11
-445.9216968433277
 21
-199.6292774097339
 31
0.0
  0
LINE
  5
1F9
330
1F
100
AcDbEntity
  8
D-4
  6
Continuous
 62
     7
370
     9
100
AcDbLine
 10
-412.2717367636191
 20
-199.6292774097339
 30
0.0
 11
-447.4218007680532
 21
-199.6292774097339
 31
0.0
  0
LINE
  5
1FA
330
1F
100
AcDbEntity
  8
D-4
  6
Continuous
 62
     7
370
     9
100
AcDbLine
 10
-405.7540481154983
 20
-28.11778712917018
 30
0.0
 11
-338.5039870803421
 21
-28.11778712917018
 31
0.0
  0
LINE
  5
1FB
330
1F
100
AcDbEntity
  8
D-4
  6
Continuous
 62
     7
370
     9
100
AcDbLine
 10
-405.7540481154983
 20
-137.8590186866554
 30
0.0
 11
-405.7540481154983
 21
-26.61780692435599
 31
0.0
  0
ARC
  5
1FC
330
1F
100
AcDbEntity
  8
D-2
  6
Continuous
 62
     3
370
     9
100
AcDbCircle
 10
-311.0040200723183
 20
-111.6300263275971
 30
0.0
 40
7.500000096656181
100
AcDbArc
 50
90.0
 51
180.0
  0
ARC
  5
1FD
330
1F
100
AcDbEntity
  8
D-2
  6
Continuous
 62
     3
370
     9
100
AcDbCircle
 10
-11.00389635240703
 20
-111.6300263275971
 30
0.0
 40
7.500000096656181
100
AcDbArc
 50
0.0
 51
90.0
  0
ARC
  5
1FE
330
1F
100
AcDbEntity
  8
D-2
  6
Continuous
 62
     3
370
     9
100
AcDbCircle
 10
-11.00389635240703
 20
-111.6300263275971
 30
0.0
 40
3.75000004832809
100
AcDbArc
 50
0.0
 51
90.0
  0
ARC
  5
1FF
330
1F
100
AcDbEntity
  8
D-2
  6
Continuous
 62
     3
370
     9
100
AcDbCircle
 10
-311.0040200723183
 20
-111.6300263275971
 30
0.0
 40
3.75000004832809
100
AcDbArc
 50
90.0
 51
180.0
  0
ARC
  5
200
330
1F
100
AcDbEntity
  8
D-2
  6
Continuous
 62
     3
370
     9
100
AcDbCircle
 10
-161.0039582123628
 20
-99.12979950775963
 30
0.0
 40
22.50001430511475
100
AcDbArc
 50
202.88525390625
 51
337.11474609375
  0
ARC
  5
201
330
1F
100
AcDbEntity
  8
D-1
  6
Continuous
 62
     7
370
     9
100
AcDbCircle
 10
12.49608220280834
 20
-105.6300436483847
 30
0.0
 40
2.000000267415433
100
AcDbArc
 50
0.0
 51
90.0
  0
ARC
  5
202
330
1F
100
AcDbEntity
  8
D-1
  6
Continuous
 62
     7
370
     9
100
AcDbCircle
 10
12.49608220280834
 20
-105.6300436483847
 30
0.0
 40
4.000000534830867
100
AcDbArc
 50
0.0
 51
90.0
  0
ARC
  5
203
330
1F
100
AcDbEntity
  8
D-1
  6
Continuous
 62
     7
370
     9
100
AcDbCircle
 10
2.996125092377611
 20
-105.6300436483847
 30
0.0
 40
4.000000534830867
100
AcDbArc
 50
90.0
 51
180.0
  0
ARC
  5
204
330
1F
100
AcDbEntity
  8
D-1
  6
Continuous
 62
     7
370
     9
100
AcDbCircle
 10
-3.00404316670182
 20
-129.6299743652344
 30
0.0
 40
4.000000534830867
100
AcDbArc
 50
270.0
 51
0.0
  0
ARC
  5
205
330
1F
100
AcDbEntity
  8
D-1
  6
Continuous
 62
     7
370
     9
100
AcDbCircle
 10
2.996125092377611
 20
-322.6298502329233
 30
0.0
 40
4.000000534830867
100
AcDbArc
 50
180.0
 51
270.0
  0
ARC
  5
206
330
1F
100
AcDbEntity
  8
D-1
  6
Continuous
 62
     7
370
     9
100
AcDbCircle
 10
2.996125092377611
 20
-322.6298502329233
 30
0.0
 40
2.000000267415433
100
AcDbArc
 50
180.0
 51
270.0
  0
ARC
  5
207
330
1F
100
AcDbEntity
  8
D-1
  6
Continuous
 62
     7
370
     9
100
AcDbCircle
 10
2.996125092377611
 20
-105.6300436483847
 30
0.0
 40
2.000000267415433
100
AcDbArc
 50
90.0
 51
180.0
  0
ARC
  5
208
330
1F
100
AcDbEntity
  8
D-1
  6
Continuous
 62
     7
370
     9
100
AcDbCircle
 10
-3.00404316670182
 20
-129.6297887853674
 30
0.0
 40
2.000000267415433
100
AcDbArc
 50
270.0
 51
0.0
  0
ARC
  5
209
330
1F
100
AcDbEntity
  8
D-1
  6
Continuous
 62
     7
370
     9
100
AcDbCircle
 10
-16.73614914352825
 20
-133.3978024044552
 30
0.0
 40
1.767833812816723
100
AcDbArc
 50
90.0
 51
224.9992980957031
  0
ARC
  5
20A
330
1F
100
AcDbEntity
  8
D-1
  6
Continuous
 62
     7
370
     9
100
AcDbCircle
 10
-15.57188291807421
 20
-133.8800626187711
 30
0.0
 40
0.2500000334269292
100
AcDbArc
 50
90.0
 51
225.0050048828125
  0
ARC
  5
20B
330
1F
100
AcDbEntity
  8
D-1
  6
Continuous
 62
     7
370
     9
100
AcDbCircle
 10
-5.003975533150253
 20
-153.2867679080447
 30
0.0
 40
4.000000534830867
100
AcDbArc
 50
0.0
 51
45.0
  0
ARC
  5
20C
330
1F
100
AcDbEntity
  8
D-1
  6
Continuous
 62
     7
370
     9
100
AcDbCircle
 10
-5.003975533150253
 20
-153.2867679080447
 30
0.0
 40
6.000000560605848
100
AcDbArc
 50
0.0
 51
45.0
  0
ARC
  5
20D
330
1F
100
AcDbEntity
  8
D-1
  6
Continuous
 62
     7
370
     9
100
AcDbCircle
 10
14.99596673089115
 20
-197.6299636428421
 30
0.0
 40
2.000000267415433
100
AcDbArc
 50
270.0
 51
0.0
  0
ARC
  5
20E
330
1F
100
AcDbEntity
  8
D-1
  6
Continuous
 62
     7
370
     9
100
AcDbCircle
 10
4.995933738914715
 20
-197.6299636428421
 30
0.0
 40
2.000000267415433
100
AcDbArc
 50
180.0
 51
270.0
  0
ARC
  5
20F
330
1F
100
AcDbEntity
  8
D-1
  6
Continuous
 62
     7
370
     9
100
AcDbCircle
 10
14.99596673089115
 20
-197.6299636428421
 30
0.0
 40
4.000000534830867
100
AcDbArc
 50
270.0
 51
0.0
  0
ARC
  5
210
330
1F
100
AcDbEntity
  8
D-1
  6
Continuous
 62
     7
370
     9
100
AcDbCircle
 10
4.995933738914715
 20
-197.6299636428421
 30
0.0
 40
4.000000534830867
100
AcDbArc
 50
180.0
 51
270.0
  0
ARC
  5
211
330
1F
100
AcDbEntity
  8
D-0
  6
JWW_DASHED3
 62
     3
370
     9
100
AcDbCircle
 10
21.2454306112754
 20
-154.2425660829286
 30
0.0
 40
3.250000766805701
100
AcDbArc
 50
1.347366333007812
 51
90.00068664550781
  0
ARC
  5
212
330
1F
100
AcDbEntity
  8
D-0
  6
JWW_DASHED3
 62
     3
370
     9
100
AcDbCircle
 10
21.24604921083204
 20
-165.2428126979518
 30
0.0
 40
3.250000766805701
100
AcDbArc
 50
269.997314453125
 51
0.0079040527343666
  0
ARC
  5
213
330
1F
100
AcDbEntity
  8
D-0
  6
Continuous
 62
     3
370
     9
100
AcDbCircle
 10
78.74611519478464
 20
-154.6295619655299
 30
0.0
 40
5.000000064437454
100
AcDbArc
 50
1.628433227539062
 51
89.99980163574219
  0
ARC
  5
214
330
1F
100
AcDbEntity
  8
D-0
  6
Continuous
 62
     3
370
     9
100
AcDbCircle
 10
18.64471435546875
 20
-180.8797104294236
 30
0.0
 40
5.000000064437454
100
AcDbArc
 50
359.9990997314453
 51
89.99766540527344
  0
ARC
  5
215
330
1F
100
AcDbEntity
  8
D-1
  6
Continuous
 62
     7
370
     9
100
AcDbCircle
 10
-334.5039367675781
 20
-105.6300436483847
 30
0.0
 40
2.000000267415433
100
AcDbArc
 50
90.0
 51
180.0
  0
ARC
  5
216
330
1F
100
AcDbEntity
  8
D-1
  6
Continuous
 62
     7
370
     9
100
AcDbCircle
 10
-334.5039367675781
 20
-105.6300436483847
 30
0.0
 40
4.000000534830867
100
AcDbArc
 50
90.0
 51
180.0
  0
ARC
  5
217
330
1F
100
AcDbEntity
  8
D-1
  6
Continuous
 62
     7
370
     9
100
AcDbCircle
 10
-325.004041517103
 20
-105.6300436483847
 30
0.0
 40
4.000000534830867
100
AcDbArc
 50
0.0
 51
90.0
  0
ARC
  5
218
330
1F
100
AcDbEntity
  8
D-1
  6
Continuous
 62
     7
370
     9
100
AcDbCircle
 10
-319.0040588378906
 20
-129.6299743652344
 30
0.0
 40
4.000000534830867
100
AcDbArc
 50
180.0
 51
270.0
  0
ARC
  5
219
330
1F
100
AcDbEntity
  8
D-1
  6
Continuous
 62
     7
370
     9
100
AcDbCircle
 10
-325.004041517103
 20
-322.6298502329233
 30
0.0
 40
4.000000534830867
100
AcDbArc
 50
270.0
 51
0.0
  0
ARC
  5
21A
330
1F
100
AcDbEntity
  8
D-1
  6
Continuous
 62
     7
370
     9
100
AcDbCircle
 10
-325.004041517103
 20
-322.6298502329233
 30
0.0
 40
2.000000267415433
100
AcDbArc
 50
270.0
 51
0.0
  0
ARC
  5
21B
330
1F
100
AcDbEntity
  8
D-1
  6
Continuous
 62
     7
370
     9
100
AcDbCircle
 10
-325.004041517103
 20
-105.6300436483847
 30
0.0
 40
2.000000267415433
100
AcDbArc
 50
0.0
 51
90.0
  0
ARC
  5
21C
330
1F
100
AcDbEntity
  8
D-1
  6
Continuous
 62
     7
370
     9
100
AcDbCircle
 10
-319.0040588378906
 20
-129.6297887853674
 30
0.0
 40
2.000000267415433
100
AcDbArc
 50
180.0
 51
270.0
  0
ARC
  5
21D
330
1F
100
AcDbEntity
  8
D-1
  6
Continuous
 62
     7
370
     9
100
AcDbCircle
 10
-305.2718291411529
 20
-133.3978024044552
 30
0.0
 40
1.767833812816723
100
AcDbArc
 50
315.0007019042969
 51
90.0
  0
ARC
  5
21E
330
1F
100
AcDbEntity
  8
D-1
  6
Continuous
 62
     7
370
     9
100
AcDbCircle
 10
-306.4360953666068
 20
-133.8800626187711
 30
0.0
 40
0.2500000334269292
100
AcDbArc
 50
314.9949951171875
 51
90.0
  0
ARC
  5
21F
330
1F
100
AcDbEntity
  8
D-1
  6
Continuous
 62
     7
370
     9
100
AcDbCircle
 10
-317.0040027515307
 20
-153.2867679080447
 30
0.0
 40
4.000000534830867
100
AcDbArc
 50
135.0
 51
180.0
  0
ARC
  5
220
330
1F
100
AcDbEntity
  8
D-1
  6
Continuous
 62
     7
370
     9
100
AcDbCircle
 10
-317.0040027515307
 20
-153.2867679080447
 30
0.0
 40
6.000000560605848
100
AcDbArc
 50
135.0
 51
180.0
  0
ARC
  5
221
330
1F
100
AcDbEntity
  8
D-1
  6
Continuous
 62
     7
370
     9
100
AcDbCircle
 10
-337.0039450155721
 20
-197.6299636428421
 30
0.0
 40
2.000000267415433
100
AcDbArc
 50
180.0
 51
270.0
  0
ARC
  5
222
330
1F
100
AcDbEntity
  8
D-1
  6
Continuous
 62
     7
370
     9
100
AcDbCircle
 10
-327.0039120235958
 20
-197.6299636428421
 30
0.0
 40
2.000000267415433
100
AcDbArc
 50
270.0
 51
0.0
  0
ARC
  5
223
330
1F
100
AcDbEntity
  8
D-1
  6
Continuous
 62
     7
370
     9
100
AcDbCircle
 10
-337.0039450155721
 20
-197.6299636428421
 30
0.0
 40
4.000000534830867
100
AcDbArc
 50
180.0
 51
270.0
  0
ARC
  5
224
330
1F
100
AcDbEntity
  8
D-1
  6
Continuous
 62
     7
370
     9
100
AcDbCircle
 10
-327.0039120235958
 20
-197.6299636428421
 30
0.0
 40
4.000000534830867
100
AcDbArc
 50
270.0
 51
0.0
  0
ARC
  5
225
330
1F
100
AcDbEntity
  8
D-0
  6
Continuous
 62
     3
370
     9
100
AcDbCircle
 10
-343.2533470360008
 20
-154.2425660829286
 30
0.0
 40
3.250000766805701
100
AcDbArc
 50
89.99931335449216
 51
178.6526336669922
  0
ARC
  5
226
330
1F
100
AcDbEntity
  8
D-0
  6
Continuous
 62
     3
370
     9
100
AcDbCircle
 10
-343.2540893554688
 20
-165.2428126979518
 30
0.0
 40
3.250000766805701
100
AcDbArc
 50
179.9920959472656
 51
270.002685546875
  0
ARC
  5
227
330
1F
100
AcDbEntity
  8
D-0
  6
Continuous
 62
     3
370
     9
100
AcDbCircle
 10
-400.7540934794657
 20
-154.6295619655299
 30
0.0
 40
5.000000064437454
100
AcDbArc
 50
90.0001983642578
 51
178.3715667724609
  0
ARC
  5
228
330
1F
100
AcDbEntity
  8
D-0
  6
Continuous
 62
     3
370
     9
100
AcDbCircle
 10
-340.6525689202385
 20
-180.8797104294236
 30
0.0
 40
5.000000064437454
100
AcDbArc
 50
90.00233459472659
 51
180.0009002685547
  0
TEXT
  5
229
330
1F
100
AcDbEntity
  8
D-4
  6
Continuous
 62
     2
370
     9
100
AcDbText
 10
-492.7344554648844
 20
-224.7549315989312
 30
0.0
 40
15.24
  1
90
 50
90.00000250447816
 41
1.062499999999999
  7
ＭＳ ゴシック
100
AcDbText
  0
TEXT
  5
22A
330
1F
100
AcDbEntity
  8
D-4
  6
Continuous
 62
     2
370
     9
100
AcDbText
 10
-177.2540200723184
 20
-22.79777888117604
 30
0.0
 40
15.24
  1
142
 41
1.083333333333333
  7
ＭＳ ゴシック
100
AcDbText
  0
TEXT
  5
22B
330
1F
100
AcDbEntity
  8
D-4
  6
Continuous
 62
     2
370
     9
100
AcDbText
 10
-177.2540200723184
 20
-182.8813228132918
 30
0.0
 40
15.24
  1
114
 41
1.083333333333333
  7
ＭＳ ゴシック
100
AcDbText
  0
TEXT
  5
22C
330
1F
100
AcDbEntity
  8
D-4
  6
Continuous
 62
     2
370
     9
100
AcDbText
 10
-177.2540200723184
 20
-368.9026842931799
 30
0.0
 40
15.24
  1
142
 41
1.083333333333333
  7
ＭＳ ゴシック
100
AcDbText
  0
TEXT
  5
22D
330
1F
100
AcDbEntity
  8
D-4
  6
Continuous
 62
     2
370
     9
100
AcDbText
 10
-334.7538654224292
 20
-59.99639717720651
 30
0.0
 40
15.24
  1
7
 41
0.9999999999999998
  7
ＭＳ ゴシック
100
AcDbText
  0
TEXT
  5
22E
330
1F
100
AcDbEntity
  8
D-4
  6
Continuous
 62
     2
370
     9
100
AcDbText
 10
-315.8399056099556
 20
-59.99639717720651
 30
0.0
 40
15.24
  1
1
 41
0.9999999999999998
  7
ＭＳ ゴシック
100
AcDbText
  0
TEXT
  5
22F
330
1F
100
AcDbEntity
  8
D-4
  6
Continuous
 62
     2
370
     9
100
AcDbText
 10
-177.2540200723184
 20
-59.99639717720651
 30
0.0
 40
15.24
  1
126
 41
1.083333333333333
  7
ＭＳ ゴシック
100
AcDbText
  0
TEXT
  5
230
330
1F
100
AcDbEntity
  8
D-4
  6
Continuous
 62
     2
370
     9
100
AcDbText
 10
-14.88385999524908
 20
-59.99639717720651
 30
0.0
 40
15.24
  1
1
 41
0.9999999999999998
  7
ＭＳ ゴシック
100
AcDbText
  0
TEXT
  5
231
330
1F
100
AcDbEntity
  8
D-4
  6
Continuous
 62
     2
370
     9
100
AcDbText
 10
2.746103647592975
 20
-59.99639717720651
 30
0.0
 40
15.24
  1
7
 41
0.9999999999999998
  7
ＭＳ ゴシック
100
AcDbText
  0
TEXT
  5
232
330
1F
100
AcDbEntity
  8
D-4
  6
Continuous
 62
     2
370
     9
100
AcDbText
 10
-99.59625018047323
 20
-102.3052649828522
 30
0.0
 40
15.24
  1
1.5
 50
90.00000250447816
 41
1.083333333333333
  7
ＭＳ ゴシック
100
AcDbText
  0
TEXT
  5
233
330
1F
100
AcDbEntity
  8
D-4
  6
Continuous
 62
     2
370
     9
100
AcDbText
 10
-57.49052928773066
 20
-128.5047996310258
 30
0.0
 40
15.24
  1
11
 50
90.00000250447816
 41
1.0625
  7
ＭＳ ゴシック
100
AcDbText
  0
TEXT
  5
234
330
1F
100
AcDbEntity
  8
D-4
  6
Continuous
 62
     2
370
     9
100
AcDbText
 10
-451.2416427669326
 20
-185.2543806329261
 30
0.0
 40
15.24
  1
20
 50
90.00000250447816
 41
1.062499999999999
  7
ＭＳ ゴシック
100
AcDbText
  0
TEXT
  5
235
330
1F
100
AcDbEntity
  8
D-4
  6
Continuous
 62
     2
370
     9
100
AcDbText
 10
-382.7540175979201
 20
-22.79777888117604
 30
0.0
 40
15.24
  1
27
 41
1.0625
  7
ＭＳ ゴシック
100
AcDbText
  0
TEXT
  5
236
330
1F
100
AcDbEntity
  8
D-4
  6
Continuous
 62
     2
370
     9
100
AcDbText
 10
-451.2416422751794
 20
-147.5047695258474
 30
0.0
 40
15.24
  1
19.5
 50
90.00000250447816
 41
1.09375
  7
ＭＳ ゴシック
100
AcDbText
  0
LWPOLYLINE
  5
237
330
1F
100
AcDbEntity
  8
D-4
  6
Continuous
 62
     7
370
     9
100
AcDbPolyline
 90
        4
 70
     1
 43
0.5
 10
-338.2539870803421
 20
-65.31646728515625
 42
0.4142135623731
 10
-338.5039870803421
 20
-65.06646728515625
 42
0.4142135623731
 10
-338.753987080342
 20
-65.31646728515625
 42
0.4142135623731
 10
-338.5039870803421
 20
-65.56646728515625
 42
0.4142135623731
  0
LWPOLYLINE
  5
238
330
1F
100
AcDbEntity
  8
D-4
  6
Continuous
 62
     7
370
     9
100
AcDbPolyline
 90
        4
 70
     1
 43
0.5
 10
-320.7539293443835
 20
-65.31646728515625
 42
0.4142135623731
 10
-321.0039293443834
 20
-65.06646728515625
 42
0.4142135623731
 10
-321.2539293443834
 20
-65.31646728515625
 42
0.4142135623731
 10
-321.0039293443834
 20
-65.56646728515625
 42
0.4142135623731
  0
LWPOLYLINE
  5
239
330
1F
100
AcDbEntity
  8
D-4
  6
Continuous
 62
     7
370
     9
100
AcDbPolyline
 90
        4
 70
     1
 43
0.5
 10
-318.2539829563449
 20
-65.31646728515625
 42
0.4142135623731
 10
-318.5039829563449
 20
-65.06646728515625
 42
0.4142135623731
 10
-318.7539829563449
 20
-65.31646728515625
 42
0.4142135623731
 10
-318.5039829563449
 20
-65.56646728515625
 42
0.4142135623731
  0
LWPOLYLINE
  5
23A
330
1F
100
AcDbEntity
  8
D-4
  6
Continuous
 62
     7
370
     9
100
AcDbPolyline
 90
        4
 70
     1
 43
0.5
 10
-3.25399532833606
 20
-65.31646728515625
 42
0.4142135623731
 10
-3.50399532833606
 20
-65.06646728515625
 42
0.4142135623731
 10
-3.75399532833606
 20
-65.31646728515625
 42
0.4142135623731
 10
-3.50399532833606
 20
-65.56646728515625
 42
0.4142135623731
  0
LWPOLYLINE
  5
23B
330
1F
100
AcDbEntity
  8
D-4
  6
Continuous
 62
     7
370
     9
100
AcDbPolyline
 90
        4
 70
     1
 43
0.5
 10
-0.753987080342057
 20
-65.31646728515625
 42
0.4142135623731
 10
-1.003987080342057
 20
-65.06646728515625
 42
0.4142135623731
 10
-1.253987080342057
 20
-65.31646728515625
 42
0.4142135623731
 10
-1.003987080342057
 20
-65.56646728515625
 42
0.4142135623731
  0
LWPOLYLINE
  5
23C
330
1F
100
AcDbEntity
  8
D-4
  6
Continuous
 62
     7
370
     9
100
AcDbPolyline
 90
        4
 70
     1
 43
0.5
 10
16.74594693570535
 20
-65.31646728515625
 42
0.4142135623731
 10
16.49594693570535
 20
-65.06646728515625
 42
0.4142135623731
 10
16.24594693570535
 20
-65.31646728515625
 42
0.4142135623731
 10
16.49594693570535
 20
-65.56646728515625
 42
0.4142135623731
  0
LWPOLYLINE
  5
23D
330
1F
100
AcDbEntity
  8
D-4
  6
Continuous
 62
     7
370
     9
100
AcDbPolyline
 90
        4
 70
     1
 43
0.5
 10
-338.2539870803421
 20
-28.11778712917018
 42
0.4142135623731
 10
-338.5039870803421
 20
-27.86778712917018
 42
0.4142135623731
 10
-338.753987080342
 20
-28.11778712917018
 42
0.4142135623731
 10
-338.5039870803421
 20
-28.36778712917018
 42
0.4142135623731
  0
LWPOLYLINE
  5
23E
330
1F
100
AcDbEntity
  8
D-4
  6
Continuous
 62
     7
370
     9
100
AcDbPolyline
 90
        4
 70
     1
 43
0.5
 10
16.74594693570535
 20
-28.11778712917018
 42
0.4142135623731
 10
16.49594693570535
 20
-27.86778712917018
 42
0.4142135623731
 10
16.24594693570535
 20
-28.11778712917018
 42
0.4142135623731
 10
16.49594693570535
 20
-28.36778712917018
 42
0.4142135623731
  0
LWPOLYLINE
  5
23F
330
1F
100
AcDbEntity
  8
D-4
  6
Continuous
 62
     7
370
     9
100
AcDbPolyline
 90
        4
 70
     1
 43
0.5
 10
-303.2539953283361
 20
-188.2013310612859
 42
0.4142135623731
 10
-303.503995328336
 20
-187.9513310612859
 42
0.4142135623731
 10
-303.753995328336
 20
-188.2013310612859
 42
0.4142135623731
 10
-303.503995328336
 20
-188.4513310612859
 42
0.4142135623731
  0
LWPOLYLINE
  5
240
330
1F
100
AcDbEntity
  8
D-4
  6
Continuous
 62
     7
370
     9
100
AcDbPolyline
 90
        4
 70
     1
 43
0.5
 10
-18.25398295634491
 20
-188.2013310612859
 42
0.4142135623731
 10
-18.50398295634491
 20
-187.9513310612859
 42
0.4142135623731
 10
-18.75398295634491
 20
-188.2013310612859
 42
0.4142135623731
 10
-18.50398295634491
 20
-188.4513310612859
 42
0.4142135623731
  0
LWPOLYLINE
  5
241
330
1F
100
AcDbEntity
  8
D-4
  6
Continuous
 62
     7
370
     9
100
AcDbPolyline
 90
        4
 70
     1
 43
0.5
 10
-338.2539870803421
 20
-374.2229090510187
 42
0.4142135623731
 10
-338.5039870803421
 20
-373.9729090510187
 42
0.4142135623731
 10
-338.753987080342
 20
-374.2229090510187
 42
0.4142135623731
 10
-338.5039870803421
 20
-374.4729090510187
 42
0.4142135623731
  0
LWPOLYLINE
  5
242
330
1F
100
AcDbEntity
  8
D-4
  6
Continuous
 62
     7
370
     9
100
AcDbPolyline
 90
        4
 70
     1
 43
0.5
 10
16.74594693570535
 20
-374.2229090510187
 42
0.4142135623731
 10
16.49594693570535
 20
-373.9729090510187
 42
0.4142135623731
 10
16.24594693570535
 20
-374.2229090510187
 42
0.4142135623731
 10
16.49594693570535
 20
-374.4729090510187
 42
0.4142135623731
  0
LWPOLYLINE
  5
243
330
1F
100
AcDbEntity
  8
D-4
  6
Continuous
 62
     7
370
     9
100
AcDbPolyline
 90
        4
 70
     1
 43
0.5
 10
-51.92058336412578
 20
-131.6298448717271
 42
0.4142135623731
 10
-52.17058336412578
 20
-131.3798448717271
 42
0.4142135623731
 10
-52.42058336412578
 20
-131.6298448717271
 42
0.4142135623731
 10
-52.17058336412578
 20
-131.8798448717272
 42
0.4142135623731
  0
LWPOLYLINE
  5
244
330
1F
100
AcDbEntity
  8
D-4
  6
Continuous
 62
     7
370
     9
100
AcDbPolyline
 90
        4
 70
     1
 43
0.5
 10
-51.92058336412578
 20
-104.1298160037478
 42
0.4142135623731
 10
-52.17058336412578
 20
-103.8798160037478
 42
0.4142135623731
 10
-52.42058336412578
 20
-104.1298160037478
 42
0.4142135623731
 10
-52.17058336412578
 20
-104.3798160037478
 42
0.4142135623731
  0
LWPOLYLINE
  5
245
330
1F
100
AcDbEntity
  8
D-4
  6
Continuous
 62
     7
370
     9
100
AcDbPolyline
 90
        4
 70
     1
 43
0.5
 10
-94.02630450274492
 20
-107.879828375739
 42
0.4142135623731
 10
-94.27630450274492
 20
-107.629828375739
 42
0.4142135623731
 10
-94.52630450274492
 20
-107.879828375739
 42
0.4142135623731
 10
-94.27630450274492
 20
-108.129828375739
 42
0.4142135623731
  0
LWPOLYLINE
  5
246
330
1F
100
AcDbEntity
  8
D-4
  6
Continuous
 62
     7
370
     9
100
AcDbPolyline
 90
        4
 70
     1
 43
0.5
 10
-94.02630450274492
 20
-104.1298160037478
 42
0.4142135623731
 10
-94.27630450274492
 20
-103.8798160037478
 42
0.4142135623731
 10
-94.52630450274492
 20
-104.1298160037478
 42
0.4142135623731
 10
-94.27630450274492
 20
-104.3798160037478
 42
0.4142135623731
  0
LWPOLYLINE
  5
247
330
1F
100
AcDbEntity
  8
D-4
  6
Continuous
 62
     7
370
     9
100
AcDbPolyline
 90
        4
 70
     1
 43
0.5
 10
-487.1645095412796
 20
-326.6299624056429
 42
0.4142135623731
 10
-487.4145095412796
 20
-326.3799624056429
 42
0.4142135623731
 10
-487.6645095412795
 20
-326.6299624056429
 42
0.4142135623731
 10
-487.4145095412796
 20
-326.8799624056429
 42
0.4142135623731
  0
LWPOLYLINE
  5
248
330
1F
100
AcDbEntity
  8
D-4
  6
Continuous
 62
     7
370
     9
100
AcDbPolyline
 90
        4
 70
     1
 43
0.5
 10
-487.1645095412796
 20
-101.6299314756651
 42
0.4142135623731
 10
-487.4145095412796
 20
-101.3799314756651
 42
0.4142135623731
 10
-487.6645095412795
 20
-101.6299314756651
 42
0.4142135623731
 10
-487.4145095412796
 20
-101.8799314756651
 42
0.4142135623731
  0
LWPOLYLINE
  5
249
330
1F
100
AcDbEntity
  8
D-4
  6
Continuous
 62
     7
370
     9
100
AcDbPolyline
 90
        4
 70
     1
 43
0.5
 10
-445.6716968433277
 20
-101.6299314756651
 42
0.4142135623731
 10
-445.9216968433277
 20
-101.3799314756651
 42
0.4142135623731
 10
-446.1716968433277
 20
-101.6299314756651
 42
0.4142135623731
 10
-445.9216968433277
 20
-101.8799314756651
 42
0.4142135623731
  0
LWPOLYLINE
  5
24A
330
1F
100
AcDbEntity
  8
D-4
  6
Continuous
 62
     7
370
     9
100
AcDbPolyline
 90
        4
 70
     1
 43
0.5
 10
-445.6716968433277
 20
-149.6296073294974
 42
0.4142135623731
 10
-445.9216968433277
 20
-149.3796073294974
 42
0.4142135623731
 10
-446.1716968433277
 20
-149.6296073294974
 42
0.4142135623731
 10
-445.9216968433277
 20
-149.8796073294975
 42
0.4142135623731
  0
LWPOLYLINE
  5
24B
330
1F
100
AcDbEntity
  8
D-4
  6
Continuous
 62
     7
370
     9
100
AcDbPolyline
 90
        4
 70
     1
 43
0.5
 10
-445.6716968433277
 20
-199.6292774097339
 42
0.4142135623731
 10
-445.9216968433277
 20
-199.3792774097339
 42
0.4142135623731
 10
-446.1716968433277
 20
-199.6292774097339
 42
0.4142135623731
 10
-445.9216968433277
 20
-199.8792774097339
 42
0.4142135623731
  0
LWPOLYLINE
  5
24C
330
1F
100
AcDbEntity
  8
D-4
  6
Continuous
 62
     7
370
     9
100
AcDbPolyline
 90
        4
 70
     1
 43
0.5
 10
-405.5040481154983
 20
-28.11778712917018
 42
0.4142135623731
 10
-405.7540481154983
 20
-27.86778712917018
 42
0.4142135623731
 10
-406.0040481154983
 20
-28.11778712917018
 42
0.4142135623731
 10
-405.7540481154983
 20
-28.36778712917018
 42
0.4142135623731
  0
LINE
  5
24D
330
1F
100
AcDbEntity
  8
D-5
  6
Continuous
 62
     7
370
     9
100
AcDbLine
 10
36.77215576171875
 20
18.4615841427366
 30
0.0
 11
-74.56401103251679
 21
-105.1961579193939
 31
0.0
  0
LINE
  5
24E
330
1F
100
AcDbEntity
  8
D-5
  6
Continuous
 62
     7
370
     9
100
AcDbLine
 10
65.20447602143165
 20
-52.76384508287578
 30
0.0
 11
14.02587890625
 21
-103.1502017459353
 31
0.0
  0
LINE
  5
24F
330
1F
100
AcDbEntity
  8
D-5
  6
Continuous
 62
     7
370
     9
100
AcDbLine
 10
93.90737172719597
 20
-118.7171977275126
 30
0.0
 11
61.41085238070104
 21
-152.735224543391
 31
0.0
  0
LINE
  5
250
330
1F
100
AcDbEntity
  8
D-5
  6
Continuous
 62
     7
370
     9
100
AcDbLine
 10
-74.56401103251679
 20
-105.1961579193939
 30
0.0
 11
-67.48407724741341
 21
-94.8944339236698
 31
0.0
  0
LINE
  5
251
330
1F
100
AcDbEntity
  8
D-5
  6
Continuous
 62
     7
370
     9
100
AcDbLine
 10
-74.56401103251679
 20
-105.1961579193939
 30
0.0
 11
-65.05916698558906
 21
-97.07778105864648
 31
0.0
  0
LINE
  5
252
330
1F
100
AcDbEntity
  8
D-5
  6
Continuous
 62
     7
370
     9
100
AcDbLine
 10
61.41085238070104
 20
-152.735224543391
 30
0.0
 11
68.79148741026185
 21
-142.6469792546453
 31
0.0
  0
LINE
  5
253
330
1F
100
AcDbEntity
  8
D-5
  6
Continuous
 62
     7
370
     9
100
AcDbLine
 10
61.41085238070104
 20
-152.735224543391
 30
0.0
 11
71.15119727882188
 21
-144.900846739073
 31
0.0
  0
LINE
  5
254
330
1F
100
AcDbEntity
  8
D-5
  6
Continuous
 62
     7
370
     9
100
AcDbLine
 10
36.77215576171875
 20
18.4615841427366
 30
0.0
 11
163.7504097158728
 21
18.4615841427366
 31
0.0
  0
LINE
  5
255
330
1F
100
AcDbEntity
  8
D-5
  6
Continuous
 62
     7
370
     9
100
AcDbLine
 10
65.20447602143165
 20
-52.76384508287578
 30
0.0
 11
204.4757485170134
 21
-52.76384508287578
 31
0.0
  0
LINE
  5
256
330
1F
100
AcDbEntity
  8
D-5
  6
Continuous
 62
     7
370
     9
100
AcDbLine
 10
93.90737172719597
 20
-118.7171977275126
 30
0.0
 11
269.4796546803723
 21
-118.7171977275126
 31
0.0
  0
TEXT
  5
257
330
1F
100
AcDbEntity
  8
D-5
  6
Continuous
 62
     7
370
     9
100
AcDbText
 10
96.20170223566149
 20
-113.9807044102195
 30
0.0
 40
11.43
  1
アンカー：ｔ＝２．３
 41
1.15
  7
ＭＳ ゴシック
100
AcDbText
  0
TEXT
  5
258
330
1F
100
AcDbEntity
  8
D-5
  6
Continuous
 62
     7
370
     9
100
AcDbText
 10
137.4745411911304
 20
-135.2118516441143
 30
0.0
 40
11.43
  1
（ＳＰＨＣ）
 41
1.138888888888889
  7
ＭＳ ゴシック
100
AcDbText
  0
TEXT
  5
259
330
1F
100
AcDbEntity
  8
D-5
  6
Continuous
 62
     7
370
     9
100
AcDbText
 10
38.35491375634906
 20
24.65030333761327
 30
0.0
 40
11.43
  1
蓋：ｔ＝１．５
 41
1.142857142857143
  7
ＭＳ ゴシック
100
AcDbText
  0
TEXT
  5
25A
330
1F
100
AcDbEntity
  8
D-5
  6
Continuous
 62
     7
370
     9
100
AcDbText
 10
31.95445253333794
 20
2.329684956218929
 30
0.0
 40
11.43
  1
（ＳＵＳ３０４）
 41
1.145833333333333
  7
ＭＳ ゴシック
100
AcDbText
  0
TEXT
  5
25B
330
1F
100
AcDbEntity
  8
D-5
  6
Continuous
 62
     7
370
     9
100
AcDbText
 10
66.8059443920063
 20
-46.6190395643827
 30
0.0
 40
11.43
  1
受枠：ｔ＝０．８
 41
1.145833333333333
  7
ＭＳ ゴシック
100
AcDbText
  0
TEXT
  5
25C
330
1F
100
AcDbEntity
  8
D-5
  6
Continuous
 62
     7
370
     9
100
AcDbText
 10
67.19753418817109
 20
-68.15647835344741
 30
0.0
 40
11.43
  1
（ＳＵＳ３０４）
 41
1.145833333333333
  7
ＭＳ ゴシック
100
AcDbText
  0
LINE
  5
25D
330
1F
100
AcDbEntity
  8
D-5
  6
Continuous
 62
     7
370
     9
100
AcDbLine
 10
14.02587890625
 20
-103.1502017459353
 30
0.0
 11
21.71272071632188
 21
-93.29294153161953
 31
0.0
  0
LINE
  5
25E
330
1F
100
AcDbEntity
  8
D-5
  6
Continuous
 62
     7
370
     9
100
AcDbLine
 10
14.02587890625
 20
-103.1502017459353
 30
0.0
 11
24.00191023543087
 21
-95.61813354492188
 31
0.0
  0
LINE
  5
25F
330
1F
100
AcDbEntity
  8
1-5
  6
Continuous
 62
     7
370
     9
100
AcDbLine
 10
-307.3511278307116
 20
235.3879938898861
 30
0.0
 11
-307.3511278307116
 21
206.4930230218012
 31
0.0
  0
LINE
  5
260
330
1F
100
AcDbEntity
  8
1-5
  6
Continuous
 62
     7
370
     9
100
AcDbLine
 10
-307.3511278307116
 20
206.4930230218012
 30
0.0
 11
-20.62472781619505
 21
206.4930230218012
 31
0.0
  0
LINE
  5
261
330
1F
100
AcDbEntity
  8
1-5
  6
Continuous
 62
     7
370
     9
100
AcDbLine
 10
-20.62472781619505
 20
206.4930230218012
 30
0.0
 11
-20.62472781619505
 21
235.3879938898861
 31
0.0
  0
LINE
  5
262
330
1F
100
AcDbEntity
  8
1-5
  6
Continuous
 62
     7
370
     9
100
AcDbLine
 10
-20.62472781619505
 20
235.3879938898861
 30
0.0
 11
-307.3511278307116
 21
235.3879938898861
 31
0.0
  0
TEXT
  5
263
330
1F
100
AcDbEntity
  8
1-5
  6
Continuous
 62
     2
370
     9
100
AcDbText
 10
-288.2566895356049
 20
215.1850174527556
 30
0.0
 40
15.24
  1
平面詳細図　Ｓ＝１：５
 41
1.113636363636364
  7
ＭＳ ゴシック
100
AcDbText
  0
LINE
  5
264
330
1F
100
AcDbEntity
  8
F-4
  6
Continuous
 62
     7
370
     9
100
AcDbLine
 10
220.5311130832982
 20
308.7521692224452
 30
0.0
 11
220.5311130832982
 21
279.8573220742716
 31
0.0
  0
LINE
  5
265
330
1F
100
AcDbEntity
  8
F-4
  6
Continuous
 62
     7
370
     9
100
AcDbLine
 10
220.5311130832982
 20
279.8573220742716
 30
0.0
 11
507.2576986776818
 21
279.8573220742716
 31
0.0
  0
LINE
  5
266
330
1F
100
AcDbEntity
  8
F-4
  6
Continuous
 62
     7
370
     9
100
AcDbLine
 10
507.2576986776818
 20
279.8573220742716
 30
0.0
 11
507.2576986776818
 21
308.7521692224452
 31
0.0
  0
LINE
  5
267
330
1F
100
AcDbEntity
  8
F-4
  6
Continuous
 62
     7
370
     9
100
AcDbLine
 10
507.2576986776818
 20
308.7521692224452
 30
0.0
 11
220.5311130832982
 21
308.7521692224452
 31
0.0
  0
TEXT
  5
268
330
1F
100
AcDbEntity
  8
F-4
  6
Continuous
 62
     2
370
     9
100
AcDbText
 10
228.3757678882497
 20
288.5491927853147
 30
0.0
 40
15.24
  1
排水穴詳細図　Ｓ＝１：１
 41
1.114583333333333
  7
ＭＳ ゴシック
100
AcDbText
  0
LINE
  5
269
330
1F
100
AcDbEntity
  8
F-5
  6
Continuous
 62
     7
370
     9
100
AcDbLine
 10
-291.8920156118031
 20
-408.6666870117188
 30
0.0
 11
-291.8920156118031
 21
-442.5
 31
0.0
  0
LINE
  5
26A
330
1F
100
AcDbEntity
  8
F-5
  6
Continuous
 62
     7
370
     9
100
AcDbLine
 10
-291.8920156118031
 20
-442.5
 30
0.0
 11
-21.22514054581913
 21
-442.5
 31
0.0
  0
LINE
  5
26B
330
1F
100
AcDbEntity
  8
F-5
  6
Continuous
 62
     7
370
     9
100
AcDbLine
 10
-21.22514054581913
 20
-442.5
 30
0.0
 11
-21.22514054581913
 21
-408.6666870117188
 31
0.0
  0
LINE
  5
26C
330
1F
100
AcDbEntity
  8
F-5
  6
Continuous
 62
     7
370
     9
100
AcDbLine
 10
-21.22514054581913
 20
-408.6666870117188
 30
0.0
 11
-291.8920156118031
 21
-408.6666870117188
 31
0.0
  0
TEXT
  5
26D
330
1F
100
AcDbEntity
  8
F-5
  6
Continuous
 62
     2
370
     9
100
AcDbText
 10
-278.033218383789
 20
-432.2506193253801
 30
0.0
 40
15.24
  1
断面詳細図　Ｓ＝１：２
 41
1.113636363636364
  7
ＭＳ ゴシック
100
AcDbText
  0
ENDSEC
  0
SECTION
  2
OBJECTS
  0
DICTIONARY
  5
C
330
0
100
AcDbDictionary
281
     1
  3
ACAD_GROUP
350
D
  3
ACAD_LAYOUT
350
1A
  3
ACAD_MLEADERSTYLE
350
26F
  3
ACAD_MLINESTYLE
350
17
  3
ACAD_PLOTSETTINGS
350
19
  3
ACAD_PLOTSTYLENAME
350
E
  3
ACAD_TABLESTYLE
350
26E
  3
ACAD_VISUALSTYLE
350
2A
  0
DICTIONARY
  5
D
102
{ACAD_REACTORS
330
C
102
}
330
C
100
AcDbDictionary
281
     1
  0
DICTIONARY
  5
1A
102
{ACAD_REACTORS
330
C
102
}
330
C
100
AcDbDictionary
281
     1
  3
Layout1
350
1E
  3
Layout2
350
26
  3
Model
350
22
  0
DICTIONARY
  5
26F
102
{ACAD_REACTORS
330
C
102
}
330
C
100
AcDbDictionary
281
     1
  0
DICTIONARY
  5
17
102
{ACAD_REACTORS
330
C
102
}
330
C
100
AcDbDictionary
281
     1
  3
Standard
350
18
  0
DICTIONARY
  5
19
102
{ACAD_REACTORS
330
C
102
}
330
C
100
AcDbDictionary
281
     1
  0
ACDBDICTIONARYWDFLT
  5
E
102
{ACAD_REACTORS
330
C
102
}
330
C
100
AcDbDictionary
281
     1
  3
Normal
350
F
100
AcDbDictionaryWithDefault
340
F
  0
DICTIONARY
  5
26E
102
{ACAD_REACTORS
330
C
102
}
330
C
100
AcDbDictionary
281
     1
  0
DICTIONARY
  5
2A
102
{ACAD_REACTORS
330
C
102
}
330
C
100
AcDbDictionary
281
     1
  3
2dWireframe
350
2F
  3
3D Hidden
350
31
  3
3dWireframe
350
30
  3
Basic
350
32
  3
Brighten
350
36
  3
ColorChange
350
3A
  3
Conceptual
350
34
  3
Dim
350
35
  3
Facepattern
350
39
  3
Flat
350
2B
  3
FlatWithEdges
350
2C
  3
Gouraud
350
2D
  3
GouraudWithEdges
350
2E
  3
Linepattern
350
38
  3
Realistic
350
33
  3
Thicken
350
37
  0
LAYOUT
  5
1E
102
{ACAD_REACTORS
330
1A
102
}
330
1A
100
AcDbPlotSettings
  1

  2
none_device
  4

  6

 40
0.0
 41
0.0
 42
0.0
 43
0.0
 44
0.0
 45
0.0
 46
0.0
 47
0.0
 48
0.0
 49
0.0
140
0.0
141
0.0
142
1.0
143
1.0
 70
   688
 72
     0
 73
     0
 74
     5
  7

 75
    16
 76
     0
 77
     5
 78
   300
147
1.0
148
0.0
149
0.0
100
AcDbLayout
  1
Layout1
 70
     1
 71
     1
 10
0.0
 20
0.0
 11
420.0
 21
297.0
 12
0.0
 22
0.0
 32
0.0
 14
1.000000000000000E+20
 24
1.000000000000000E+20
 34
1.000000000000000E+20
 15
-1.000000000000000E+20
 25
-1.000000000000000E+20
 35
-1.000000000000000E+20
146
0.0
 13
0.0
 23
0.0
 33
0.0
 16
1.0
 26
0.0
 36
0.0
 17
0.0
 27
1.0
 37
0.0
 76
     0
330
1B
  0
LAYOUT
  5
26
102
{ACAD_REACTORS
330
1A
102
}
330
1A
100
AcDbPlotSettings
  1

  2
none_device
  4

  6

 40
0.0
 41
0.0
 42
0.0
 43
0.0
 44
0.0
 45
0.0
 46
0.0
 47
0.0
 48
0.0
 49
0.0
140
0.0
141
0.0
142
1.0
143
1.0
 70
   688
 72
     0
 73
     0
 74
     5
  7

 75
    16
 76
     0
 77
     5
 78
   300
147
1.0
148
0.0
149
0.0
100
AcDbLayout
  1
Layout2
 70
     1
 71
     2
 10
0.0
 20
0.0
 11
0.0
 21
0.0
 12
0.0
 22
0.0
 32
0.0
 14
0.0
 24
0.0
 34
0.0
 15
0.0
 25
0.0
 35
0.0
146
0.0
 13
0.0
 23
0.0
 33
0.0
 16
1.0
 26
0.0
 36
0.0
 17
0.0
 27
1.0
 37
0.0
 76
     0
330
23
  0
LAYOUT
  5
22
102
{ACAD_REACTORS
330
1A
102
}
330
1A
100
AcDbPlotSettings
  1

  2
none_device
  4

  6

 40
0.0
 41
0.0
 42
0.0
 43
0.0
 44
0.0
 45
0.0
 46
0.0
 47
0.0
 48
0.0
 49
0.0
140
0.0
141
0.0
142
1.0
143
1.0
 70
  1712
 72
     0
 73
     0
 74
     0
  7

 75
     0
 76
     0
 77
     5
 78
   300
147
1.0
148
0.0
149
0.0
100
AcDbLayout
  1
Model
 70
     1
 71
     0
 10
-1050.0
 20
-742.5
 11
1050.0
 21
742.5
 12
0.0
 22
0.0
 32
0.0
 14
-1050.0
 24
-742.5
 34
0.0
 15
1050.0
 25
742.5
 35
0.0
146
0.0
 13
0.0
 23
0.0
 33
0.0
 16
1.0
 26
0.0
 36
0.0
 17
0.0
 27
1.0
 37
0.0
 76
     0
330
1F
331
29
  0
MLINESTYLE
  5
18
102
{ACAD_REACTORS
330
17
102
}
330
17
100
AcDbMlineStyle
  2
Standard
 70
     0
  3

 62
   256
 51
90.0
 52
90.0
 71
     2
 49
0.5
 62
   256
  6
BYLAYER
 49
-0.5
 62
   256
  6
BYLAYER
  0
ACDBPLACEHOLDER
  5
F
102
{ACAD_REACTORS
330
E
102
}
330
E
  0
VISUALSTYLE
  5
2F
102
{ACAD_REACTORS
330
2A
102
}
330
2A
100
AcDbVisualStyle
  2
2dWireframe
 70
     4
 71
     0
 72
     2
 73
     0
 90
        0
 40
-0.6
 41
-30.0
 62
     5
 63
     7
421
 16777215
 74
     1
 91
        4
 64
     7
 65
   257
 75
     1
175
     1
 42
1.0
 92
        0
 66
   257
 43
1.0
 76
     1
 77
     6
 78
     2
 67
     7
 79
     5
170
     0
171
     0
290
     0
174
     0
 93
        1
 44
0.0
173
     0
291
     0
 45
0.0
1001
ACAD
1000
AcDbSavedByObjectVersion
1070
     0
  0
VISUALSTYLE
  5
31
102
{ACAD_REACTORS
330
2A
102
}
330
2A
100
AcDbVisualStyle
  2
3D Hidden
 70
     6
 71
     1
 72
     2
 73
     2
 90
        0
 40
-0.6
 41
-30.0
 62
     5
 63
     7
421
 16777215
 74
     2
 91
        2
 64
     7
 65
   257
 75
     2
175
     1
 42
40.0
 92
        0
 66
   257
 43
1.0
 76
     1
 77
     6
 78
     2
 67
     7
 79
     3
170
     0
171
     0
290
     0
174
     0
 93
        1
 44
0.0
173
     0
291
     0
 45
0.0
1001
ACAD
1000
AcDbSavedByObjectVersion
1070
     0
  0
VISUALSTYLE
  5
30
102
{ACAD_REACTORS
330
2A
102
}
330
2A
100
AcDbVisualStyle
  2
3dWireframe
 70
     5
 71
     0
 72
     2
 73
     0
 90
        0
 40
-0.6
 41
-30.0
 62
     5
 63
     7
421
 16777215
 74
     1
 91
        4
 64
     7
 65
   257
 75
     1
175
     1
 42
1.0
 92
        0
 66
   257
 43
1.0
 76
     1
 77
     6
 78
     2
 67
     7
 79
     5
170
     0
171
     0
290
     0
174
     0
 93
        1
 44
0.0
173
     0
291
     0
 45
0.0
1001
ACAD
1000
AcDbSavedByObjectVersion
1070
     0
  0
VISUALSTYLE
  5
32
102
{ACAD_REACTORS
330
2A
102
}
330
2A
100
AcDbVisualStyle
  2
Basic
 70
     7
 71
     1
 72
     0
 73
     1
 90
        0
 40
-0.6
 41
-30.0
 62
     5
 63
     7
421
 16777215
 74
     0
 91
        4
 64
     7
 65
   257
 75
     1
175
     1
 42
1.0
 92
        8
 66
     7
 43
1.0
 76
     1
 77
     6
 78
     2
 67
     7
 79
     5
170
     0
171
     0
290
     0
174
     0
 93
        1
 44
0.0
173
     0
291
     1
 45
0.0
1001
ACAD
1000
AcDbSavedByObjectVersion
1070
     0
  0
VISUALSTYLE
  5
36
102
{ACAD_REACTORS
330
2A
102
}
330
2A
100
AcDbVisualStyle
  2
Brighten
 70
    12
 71
     2
 72
     2
 73
     0
 90
        0
 40
-0.6
 41
-30.0
 62
     5
 63
     7
421
 16777215
 74
     1
 91
        4
 64
     7
 65
   257
 75
     1
175
     1
 42
1.0
 92
        8
 66
     7
 43
1.0
 76
     1
 77
     6
 78
     2
 67
     7
 79
     5
170
     0
171
     0
290
     0
174
     0
 93
        1
 44
50.0
173
     0
291
     1
 45
0.0
1001
ACAD
1000
AcDbSavedByObjectVersion
1070
     0
  0
VISUALSTYLE
  5
3A
102
{ACAD_REACTORS
330
2A
102
}
330
2A
100
AcDbVisualStyle
  2
ColorChange
 70
    16
 71
     2
 72
     2
 73
     3
 90
        0
 40
-0.6
 41
-30.0
 62
     5
 63
     8
421
  8421504
 74
     1
 91
        4
 64
     7
 65
   257
 75
     1
175
     1
 42
1.0
 92
        8
 66
     8
424
  8421504
 43
1.0
 76
     1
 77
     6
 78
     2
 67
     7
 79
     5
170
     0
171
     0
290
     0
174
     0
 93
        1
 44
0.0
173
     0
291
     1
 45
0.0
1001
ACAD
1000
AcDbSavedByObjectVersion
1070
     0
  0
VISUALSTYLE
  5
34
102
{ACAD_REACTORS
330
2A
102
}
330
2A
100
AcDbVisualStyle
  2
Conceptual
 70
     9
 71
     3
 72
     2
 73
     0
 90
        0
 40
-0.6
 41
-30.0
 62
     5
 63
     7
421
 16777215
 74
     2
 91
        2
 64
     7
 65
   257
 75
     1
175
     1
 42
40.0
 92
        8
 66
     7
 43
1.0
 76
     1
 77
     6
 78
     2
 67
     7
 79
     3
170
     0
171
     0
290
     0
174
     0
 93
        1
 44
0.0
173
     0
291
     0
 45
0.0
1001
ACAD
1000
AcDbSavedByObjectVersion
1070
     0
  0
VISUALSTYLE
  5
35
102
{ACAD_REACTORS
330
2A
102
}
330
2A
100
AcDbVisualStyle
  2
Dim
 70
    11
 71
     2
 72
     2
 73
     0
 90
        0
 40
-0.6
 41
-30.0
 62
     5
 63
     7
421
 16777215
 74
     1
 91
        4
 64
     7
 65
   257
 75
     1
175
     1
 42
1.0
 92
        8
 66
     7
 43
1.0
 76
     1
 77
     6
 78
     2
 67
     7
 79
     5
170
     0
171
     0
290
     0
174
     0
 93
        1
 44
-50.0
173
     0
291
     1
 45
0.0
1001
ACAD
1000
AcDbSavedByObjectVersion
1070
     0
  0
VISUALSTYLE
  5
39
102
{ACAD_REACTORS
330
2A
102
}
330
2A
100
AcDbVisualStyle
  2
Facepattern
 70
    15
 71
     2
 72
     2
 73
     0
 90
        0
 40
-0.6
 41
-30.0
 62
     5
 63
     7
421
 16777215
 74
     1
 91
        4
 64
     7
 65
   257
 75
     1
175
     1
 42
1.0
 92
        8
 66
     7
 43
1.0
 76
     1
 77
     6
 78
     2
 67
     7
 79
     5
170
     0
171
     0
290
     0
174
     0
 93
        1
 44
0.0
173
     0
291
     1
 45
0.0
1001
ACAD
1000
AcDbSavedByObjectVersion
1070
     0
  0
VISUALSTYLE
  5
2B
102
{ACAD_REACTORS
330
2A
102
}
330
2A
100
AcDbVisualStyle
  2
Flat
 70
     0
 71
     2
 72
     1
 73
     1
 90
        2
 40
-0.6
 41
30.0
 62
     5
 63
     7
421
 16777215
 74
     0
 91
        4
 64
     7
 65
   257
 75
     1
175
     1
 42
1.0
 92
        8
 66
     7
 43
1.0
 76
     1
 77
     6
 78
     2
 67
     7
 79
     5
170
     0
171
     0
290
     0
174
     0
 93
       13
 44
0.0
173
     0
291
     1
 45
0.0
1001
ACAD
1000
AcDbSavedByObjectVersion
1070
     0
  0
VISUALSTYLE
  5
2C
102
{ACAD_REACTORS
330
2A
102
}
330
2A
100
AcDbVisualStyle
  2
FlatWithEdges
 70
     1
 71
     2
 72
     1
 73
     1
 90
        2
 40
-0.6
 41
30.0
 62
     5
 63
     7
421
 16777215
 74
     1
 91
        4
 64
     7
 65
   257
 75
     1
175
     1
 42
1.0
 92
        0
 66
   257
 43
1.0
 76
     1
 77
     6
 78
     2
 67
     7
 79
     5
170
     0
171
     0
290
     0
174
     0
 93
       13
 44
0.0
173
     0
291
     1
 45
0.0
1001
ACAD
1000
AcDbSavedByObjectVersion
1070
     0
  0
VISUALSTYLE
  5
2D
102
{ACAD_REACTORS
330
2A
102
}
330
2A
100
AcDbVisualStyle
  2
Gouraud
 70
     2
 71
     2
 72
     2
 73
     1
 90
        2
 40
-0.6
 41
30.0
 62
     5
 63
     7
421
 16777215
 74
     0
 91
        4
 64
     7
 65
   257
 75
     1
175
     1
 42
1.0
 92
        0
 66
     7
 43
1.0
 76
     1
 77
     6
 78
     2
 67
     7
 79
     5
170
     0
171
     0
290
     0
174
     0
 93
       13
 44
0.0
173
     0
291
     1
 45
0.0
1001
ACAD
1000
AcDbSavedByObjectVersion
1070
     0
  0
VISUALSTYLE
  5
2E
102
{ACAD_REACTORS
330
2A
102
}
330
2A
100
AcDbVisualStyle
  2
GouraudWithEdges
 70
     3
 71
     2
 72
     2
 73
     1
 90
        2
 40
-0.6
 41
30.0
 62
     5
 63
     7
421
 16777215
 74
     1
 91
        4
 64
     7
 65
   257
 75
     1
175
     1
 42
1.0
 92
        0
 66
   257
 43
1.0
 76
     1
 77
     6
 78
     2
 67
     7
 79
     5
170
     0
171
     0
290
     0
174
     0
 93
       13
 44
0.0
173
     0
291
     1
 45
0.0
1001
ACAD
1000
AcDbSavedByObjectVersion
1070
     0
  0
VISUALSTYLE
  5
38
102
{ACAD_REACTORS
330
2A
102
}
330
2A
100
AcDbVisualStyle
  2
Linepattern
 70
    14
 71
     2
 72
     2
 73
     0
 90
        0
 40
-0.6
 41
-30.0
 62
     5
 63
     7
421
 16777215
 74
     1
 91
        4
 64
     7
 65
   257
 75
     7
175
     7
 42
1.0
 92
        8
 66
     7
 43
1.0
 76
     1
 77
     6
 78
     2
 67
     7
 79
     5
170
     0
171
     0
290
     0
174
     0
 93
        1
 44
0.0
173
     0
291
     1
 45
0.0
1001
ACAD
1000
AcDbSavedByObjectVersion
1070
     0
  0
VISUALSTYLE
  5
33
102
{ACAD_REACTORS
330
2A
102
}
330
2A
100
AcDbVisualStyle
  2
Realistic
 70
     8
 71
     2
 72
     2
 73
     0
 90
        0
 40
-0.6
 41
-30.0
 62
     5
 63
     7
421
 16777215
 74
     1
 91
        0
 64
     7
 65
   257
 75
     1
175
     1
 42
1.0
 92
        8
 66
     8
424
  7895160
 43
1.0
 76
     1
 77
     6
 78
     2
 67
     7
 79
     5
170
     0
171
     0
290
     0
174
     0
 93
       13
 44
0.0
173
     0
291
     0
 45
0.0
1001
ACAD
1000
AcDbSavedByObjectVersion
1070
     0
  0
VISUALSTYLE
  5
37
102
{ACAD_REACTORS
330
2A
102
}
330
2A
100
AcDbVisualStyle
  2
Thicken
 70
    13
 71
     2
 72
     2
 73
     0
 90
        0
 40
-0.6
 41
-30.0
 62
     5
 63
     7
421
 16777215
 74
     1
 91
        4
 64
     7
 65
   257
 75
     1
175
     1
 42
1.0
 92
       12
 66
     7
 43
1.0
 76
     1
 77
     6
 78
     2
 67
     7
 79
     5
170
     0
171
     0
290
     0
174
     0
 93
        1
 44
0.0
173
     0
291
     1
 45
0.0
1001
ACAD
1000
AcDbSavedByObjectVersion
1070
     0
  0
ENDSEC
  0
EOF
