  0
SECTION
  2
HEADER
  9
$ACADVER
  1
AC1018
  9
$ACADMAINTVER
 70
     0
  9
$DWGCODEPAGE
  3
ANSI_932
  9
$LASTSAVEDBY
  1
m.murai
  9
$INSBASE
 10
0.0
 20
0.0
 30
0.0
  9
$EXTMIN
 10
-420.0
 20
-297.0
 30
0.0
  9
$EXTMAX
 10
420.0
 20
297.0
 30
0.0
  9
$LIMMIN
 10
-420.0
 20
-297.0
  9
$LIMMAX
 10
420.0
 20
297.0
  9
$ORTHOMODE
 70
     0
  9
$REGENMODE
 70
     1
  9
$FILLMODE
 70
     1
  9
$QTEXTMODE
 70
     0
  9
$MIRRTEXT
 70
     1
  9
$LTSCALE
 40
2.0
  9
$ATTMODE
 70
     1
  9
$TEXTSIZE
 40
2.5
  9
$TRACEWID
 40
1.0
  9
$TEXTSTYLE
  7
Standard
  9
$CLAYER
  8
0
  9
$CELTYPE
  6
ByLayer
  9
$CECOLOR
 62
   256
  9
$CELTSCALE
 40
1.0
  9
$DISPSILH
 70
     0
  9
$DIMSCALE
 40
1.0
  9
$DIMASZ
 40
2.5
  9
$DIMEXO
 40
0.625
  9
$DIMDLI
 40
3.75
  9
$DIMRND
 40
0.0
  9
$DIMDLE
 40
0.0
  9
$DIMEXE
 40
1.25
  9
$DIMTP
 40
0.0
  9
$DIMTM
 40
0.0
  9
$DIMTXT
 40
2.5
  9
$DIMCEN
 40
2.5
  9
$DIMTSZ
 40
0.0
  9
$DIMTOL
 70
     0
  9
$DIMLIM
 70
     0
  9
$DIMTIH
 70
     0
  9
$DIMTOH
 70
     0
  9
$DIMSE1
 70
     0
  9
$DIMSE2
 70
     0
  9
$DIMTAD
 70
     1
  9
$DIMZIN
 70
     8
  9
$DIMBLK
  1

  9
$DIMASO
 70
     1
  9
$DIMSHO
 70
     1
  9
$DIMPOST
  1

  9
$DIMAPOST
  1

  9
$DIMALT
 70
     0
  9
$DIMALTD
 70
     3
  9
$DIMALTF
 40
0.03937007874016
  9
$DIMLFAC
 40
1.0
  9
$DIMTOFL
 70
     1
  9
$DIMTVP
 40
0.0
  9
$DIMTIX
 70
     0
  9
$DIMSOXD
 70
     0
  9
$DIMSAH
 70
     0
  9
$DIMBLK1
  1

  9
$DIMBLK2
  1

  9
$DIMSTYLE
  2
ISO-25
  9
$DIMCLRD
 70
     0
  9
$DIMCLRE
 70
     0
  9
$DIMCLRT
 70
     0
  9
$DIMTFAC
 40
1.0
  9
$DIMGAP
 40
0.625
  9
$DIMJUST
 70
     0
  9
$DIMSD1
 70
     0
  9
$DIMSD2
 70
     0
  9
$DIMTOLJ
 70
     0
  9
$DIMTZIN
 70
     8
  9
$DIMALTZ
 70
     0
  9
$DIMALTTZ
 70
     0
  9
$DIMUPT
 70
     0
  9
$DIMDEC
 70
     2
  9
$DIMTDEC
 70
     2
  9
$DIMALTU
 70
     2
  9
$DIMALTTD
 70
     3
  9
$DIMTXSTY
  7
Standard
  9
$DIMAUNIT
 70
     0
  9
$DIMADEC
 70
     0
  9
$DIMALTRND
 40
0.0
  9
$DIMAZIN
 70
     0
  9
$DIMDSEP
 70
    44
  9
$DIMATFIT
 70
     3
  9
$DIMFRAC
 70
     0
  9
$DIMLDRBLK
  1

  9
$DIMLUNIT
 70
     2
  9
$DIMLWD
 70
    -2
  9
$DIMLWE
 70
    -2
  9
$DIMTMOVE
 70
     0
  9
$LUNITS
 70
     2
  9
$LUPREC
 70
     4
  9
$SKETCHINC
 40
1.0
  9
$FILLETRAD
 40
10.0
  9
$AUNITS
 70
     0
  9
$AUPREC
 70
     0
  9
$MENU
  1
.
  9
$ELEVATION
 40
0.0
  9
$PELEVATION
 40
0.0
  9
$THICKNESS
 40
0.0
  9
$LIMCHECK
 70
     0
  9
$CHAMFERA
 40
0.0
  9
$CHAMFERB
 40
0.0
  9
$CHAMFERC
 40
0.0
  9
$CHAMFERD
 40
0.0
  9
$SKPOLY
 70
     0
  9
$TDCREATE
 40
2460290.560861076
  9
$TDUCREATE
 40
2460290.185861076
  9
$TDUPDATE
 40
2460290.560861157
  9
$TDUUPDATE
 40
2460290.185861157
  9
$TDINDWG
 40
0.0000000116
  9
$TDUSRTIMER
 40
0.0000000116
  9
$USRTIMER
 70
     1
  9
$ANGBASE
 50
0.0
  9
$ANGDIR
 70
     0
  9
$PDMODE
 70
     0
  9
$PDSIZE
 40
0.0
  9
$PLINEWID
 40
0.0
  9
$SPLFRAME
 70
     0
  9
$SPLINETYPE
 70
     6
  9
$SPLINESEGS
 70
     8
  9
$HANDSEED
  5
256
  9
$SURFTAB1
 70
     6
  9
$SURFTAB2
 70
     6
  9
$SURFTYPE
 70
     6
  9
$SURFU
 70
     6
  9
$SURFV
 70
     6
  9
$UCSBASE
  2

  9
$UCSNAME
  2

  9
$UCSORG
 10
0.0
 20
0.0
 30
0.0
  9
$UCSXDIR
 10
1.0
 20
0.0
 30
0.0
  9
$UCSYDIR
 10
0.0
 20
1.0
 30
0.0
  9
$UCSORTHOREF
  2

  9
$UCSORTHOVIEW
 70
     0
  9
$UCSORGTOP
 10
0.0
 20
0.0
 30
0.0
  9
$UCSORGBOTTOM
 10
0.0
 20
0.0
 30
0.0
  9
$UCSORGLEFT
 10
0.0
 20
0.0
 30
0.0
  9
$UCSORGRIGHT
 10
0.0
 20
0.0
 30
0.0
  9
$UCSORGFRONT
 10
0.0
 20
0.0
 30
0.0
  9
$UCSORGBACK
 10
0.0
 20
0.0
 30
0.0
  9
$PUCSBASE
  2

  9
$PUCSNAME
  2

  9
$PUCSORG
 10
0.0
 20
0.0
 30
0.0
  9
$PUCSXDIR
 10
1.0
 20
0.0
 30
0.0
  9
$PUCSYDIR
 10
0.0
 20
1.0
 30
0.0
  9
$PUCSORTHOREF
  2

  9
$PUCSORTHOVIEW
 70
     0
  9
$PUCSORGTOP
 10
0.0
 20
0.0
 30
0.0
  9
$PUCSORGBOTTOM
 10
0.0
 20
0.0
 30
0.0
  9
$PUCSORGLEFT
 10
0.0
 20
0.0
 30
0.0
  9
$PUCSORGRIGHT
 10
0.0
 20
0.0
 30
0.0
  9
$PUCSORGFRONT
 10
0.0
 20
0.0
 30
0.0
  9
$PUCSORGBACK
 10
0.0
 20
0.0
 30
0.0
  9
$USERI1
 70
     0
  9
$USERI2
 70
     0
  9
$USERI3
 70
     0
  9
$USERI4
 70
     0
  9
$USERI5
 70
     0
  9
$USERR1
 40
0.0
  9
$USERR2
 40
0.0
  9
$USERR3
 40
0.0
  9
$USERR4
 40
0.0
  9
$USERR5
 40
0.0
  9
$WORLDVIEW
 70
     1
  9
$SHADEDGE
 70
     3
  9
$SHADEDIF
 70
    70
  9
$TILEMODE
 70
     1
  9
$MAXACTVP
 70
    64
  9
$PINSBASE
 10
0.0
 20
0.0
 30
0.0
  9
$PLIMCHECK
 70
     0
  9
$PEXTMIN
 10
1.000000000000000E+20
 20
1.000000000000000E+20
 30
1.000000000000000E+20
  9
$PEXTMAX
 10
-1.000000000000000E+20
 20
-1.000000000000000E+20
 30
-1.000000000000000E+20
  9
$PLIMMIN
 10
0.0
 20
0.0
  9
$PLIMMAX
 10
420.0
 20
297.0
  9
$UNITMODE
 70
     0
  9
$VISRETAIN
 70
     1
  9
$PLINEGEN
 70
     0
  9
$PSLTSCALE
 70
     1
  9
$TREEDEPTH
 70
  3020
  9
$CMLSTYLE
  2
Standard
  9
$CMLJUST
 70
     0
  9
$CMLSCALE
 40
20.0
  9
$PROXYGRAPHICS
 70
     1
  9
$MEASUREMENT
 70
     1
  9
$CELWEIGHT
370
    -1
  9
$ENDCAPS
280
     0
  9
$JOINSTYLE
280
     0
  9
$LWDISPLAY
290
     0
  9
$INSUNITS
 70
     4
  9
$HYPERLINKBASE
  1

  9
$STYLESHEET
  1

  9
$XEDIT
290
     1
  9
$CEPSNTYPE
380
     0
  9
$PSTYLEMODE
290
     1
  9
$FINGERPRINTGUID
  2
{38ee70ac-bd1d-434d-a18e-a2e14a8c2f05}
  9
$VERSIONGUID
  2
{FAEB1C32-E019-11D5-929B-00C0DF256EC4}
  9
$EXTNAMES
290
     1
  9
$PSVPSCALE
 40
0.0
  9
$OLESTARTUP
290
     0
  9
$SORTENTS
280
   127
  9
$INDEXCTL
280
     0
  9
$HIDETEXT
280
     1
  9
$XCLIPFRAME
290
     0
  9
$HALOGAP
280
     0
  9
$OBSCOLOR
 70
   257
  9
$OBSLTYPE
280
     0
  9
$INTERSECTIONDISPLAY
280
     0
  9
$INTERSECTIONCOLOR
 70
   257
  9
$DIMASSOC
280
     2
  9
$PROJECTNAME
  1

  0
ENDSEC
  0
SECTION
  2
CLASSES
  0
CLASS
  1
ACDBDICTIONARYWDFLT
  2
AcDbDictionaryWithDefault
  3
ObjectDBX Classes
 90
        0
 91
        3
280
     0
281
     0
  0
CLASS
  1
VISUALSTYLE
  2
AcDbVisualStyle
  3
ObjectDBX Classes
 90
     4095
 91
        3
280
     0
281
     0
  0
CLASS
  1
MATERIAL
  2
AcDbMaterial
  3
ObjectDBX Classes
 90
     1153
 91
        3
280
     0
281
     0
  0
CLASS
  1
SCALE
  2
AcDbScale
  3
ObjectDBX Classes
 90
     1153
 91
        3
280
     0
281
     0
  0
CLASS
  1
TABLESTYLE
  2
AcDbTableStyle
  3
ObjectDBX Classes
 90
     4095
 91
        3
280
     0
281
     0
  0
CLASS
  1
MLEADERSTYLE
  2
AcDbMLeaderStyle
  3
ACDB_MLEADERSTYLE_CLASS
 90
     4095
 91
        3
280
     0
281
     0
  0
CLASS
  1
SUN
  2
AcDbSun
  3
SCENEOE
 90
     1153
 91
        3
280
     0
281
     0
  0
CLASS
  1
DICTIONARYVAR
  2
AcDbDictionaryVar
  3
ObjectDBX Classes
 90
        0
 91
        3
280
     0
281
     0
  0
CLASS
  1
CELLSTYLEMAP
  2
AcDbCellStyleMap
  3
ObjectDBX Classes
 90
     1152
 91
        3
280
     0
281
     0
  0
ENDSEC
  0
SECTION
  2
TABLES
  0
TABLE
  2
VPORT
  5
8
102
{ACAD_XDICTIONARY
360
20D
102
}
330
0
100
AcDbSymbolTable
 70
     1
  0
VPORT
  5
29
330
8
100
AcDbSymbolTableRecord
100
AcDbViewportTableRecord
  2
*Active
 70
     0
 10
0.0
 20
0.0
 11
1.0
 21
1.0
 12
0.0
 22
0.0
 13
0.0
 23
0.0
 14
10.0
 24
10.0
 15
10.0
 25
10.0
 16
0.0
 26
0.0
 36
1.0
 17
0.0
 27
0.0
 37
0.0
 40
653.4000000000001
 41
1.414141414141414
 42
50.0
 43
0.0
 44
0.0
 50
0.0
 51
0.0
 71
     0
 72
 10000
 73
     1
 74
     3
 75
     0
 76
     0
 77
     0
 78
     0
281
     0
 65
     1
110
0.0
120
0.0
130
0.0
111
1.0
121
0.0
131
0.0
112
0.0
122
1.0
132
0.0
 79
     0
146
0.0
  0
ENDTAB
  0
TABLE
  2
LTYPE
  5
5
330
0
100
AcDbSymbolTable
 70
     4
  0
LTYPE
  5
14
330
5
100
AcDbSymbolTableRecord
100
AcDbLinetypeTableRecord
  2
ByBlock
 70
     0
  3

 72
    65
 73
     0
 40
0.0
  0
LTYPE
  5
15
330
5
100
AcDbSymbolTableRecord
100
AcDbLinetypeTableRecord
  2
ByLayer
 70
     0
  3

 72
    65
 73
     0
 40
0.0
  0
LTYPE
  5
16
330
5
100
AcDbSymbolTableRecord
100
AcDbLinetypeTableRecord
  2
Continuous
 70
     0
  3
Solid line
 72
    65
 73
     0
 40
0.0
  0
LTYPE
  5
6F
330
5
100
AcDbSymbolTableRecord
100
AcDbLinetypeTableRecord
  2
JWW_CENTER2
 70
     0
  3
-------------  --  -------------
 72
    65
 73
     4
 40
13.54666666666667
 49
11.00666666666667
 74
     0
 49
-0.8466666666666667
 74
     0
 49
0.8466666666666667
 74
     0
 49
-0.8466666666666667
 74
     0
  0
LTYPE
  5
70
330
5
100
AcDbSymbolTableRecord
100
AcDbLinetypeTableRecord
  2
JWW_CENTER1
 70
     0
  3
-----  --  ----------  --  -----
 72
    65
 73
     8
 40
13.54666666666667
 49
4.233333333333333
 74
     0
 49
-0.8466666666666667
 74
     0
 49
0.8466666666666667
 74
     0
 49
-0.8466666666666667
 74
     0
 49
4.233333333333333
 74
     0
 49
-0.8466666666666667
 74
     0
 49
0.8466666666666667
 74
     0
 49
-0.8466666666666667
 74
     0
  0
LTYPE
  5
71
330
5
100
AcDbSymbolTableRecord
100
AcDbLinetypeTableRecord
  2
JWW_DASHED3
 70
     0
  3
---  ------  ------  ------  ---
 72
    65
 73
     8
 40
13.54666666666667
 49
2.54
 74
     0
 49
-0.8466666666666667
 74
     0
 49
2.54
 74
     0
 49
-0.8466666666666667
 74
     0
 49
2.54
 74
     0
 49
-0.8466666666666667
 74
     0
 49
2.54
 74
     0
 49
-0.8466666666666667
 74
     0
  0
ENDTAB
  0
TABLE
  2
LAYER
  5
2
330
0
100
AcDbSymbolTable
 70
     8
  0
LAYER
  5
10
330
2
100
AcDbSymbolTableRecord
100
AcDbLayerTableRecord
  2
0
 70
     0
 62
     7
  6
Continuous
370
    -3
390
F
  0
LAYER
  5
72
330
2
100
AcDbSymbolTableRecord
100
AcDbLayerTableRecord
  2
D-1
 70
     0
 62
     7
  6
Continuous
370
    -3
390
F
  0
LAYER
  5
73
330
2
100
AcDbSymbolTableRecord
100
AcDbLayerTableRecord
  2
D-2
 70
     0
 62
     7
  6
Continuous
370
    -3
390
F
  0
LAYER
  5
74
330
2
100
AcDbSymbolTableRecord
100
AcDbLayerTableRecord
  2
D-0
 70
     0
 62
     7
  6
Continuous
370
    -3
390
F
  0
LAYER
  5
75
330
2
100
AcDbSymbolTableRecord
100
AcDbLayerTableRecord
  2
D-3
 70
     0
 62
     7
  6
Continuous
370
    -3
390
F
  0
LAYER
  5
76
330
2
100
AcDbSymbolTableRecord
100
AcDbLayerTableRecord
  2
D-5
 70
     0
 62
     7
  6
Continuous
370
    -3
390
F
  0
LAYER
  5
77
330
2
100
AcDbSymbolTableRecord
100
AcDbLayerTableRecord
  2
D-4
 70
     0
 62
     7
  6
Continuous
370
    -3
390
F
  0
LAYER
  5
78
330
2
100
AcDbSymbolTableRecord
100
AcDbLayerTableRecord
  2
F-5ﾚｲﾔ
 70
     0
 62
     7
  6
Continuous
370
    -3
390
F
  0
ENDTAB
  0
TABLE
  2
STYLE
  5
3
330
0
100
AcDbSymbolTable
 70
     2
  0
STYLE
  5
11
330
3
100
AcDbSymbolTableRecord
100
AcDbTextStyleTableRecord
  2
Standard
 70
     0
 40
0.0
 41
1.0
 50
0.0
 71
     0
 42
2.5
  3
txt
  4

  0
STYLE
  5
6E
330
3
100
AcDbSymbolTableRecord
100
AcDbTextStyleTableRecord
  2
ＭＳ ゴシック
 70
     0
 40
0.0
 41
1.0
 50
0.0
 71
     0
 42
2.5
  3

  4

1001
ACAD
1000
MS Gothic
1071
    32817
  0
ENDTAB
  0
TABLE
  2
VIEW
  5
6
330
0
100
AcDbSymbolTable
 70
     0
  0
ENDTAB
  0
TABLE
  2
UCS
  5
7
330
0
100
AcDbSymbolTable
 70
     0
  0
ENDTAB
  0
TABLE
  2
APPID
  5
9
330
0
100
AcDbSymbolTable
 70
     2
  0
APPID
  5
12
330
9
100
AcDbSymbolTableRecord
100
AcDbRegAppTableRecord
  2
ACAD
 70
     0
  0
APPID
  5
24C
330
9
100
AcDbSymbolTableRecord
100
AcDbRegAppTableRecord
  2
ACAD_MLEADERVER
 70
     0
  0
ENDTAB
  0
TABLE
  2
DIMSTYLE
  5
A
330
0
100
AcDbSymbolTable
 70
     2
100
AcDbDimStyleTable
  0
DIMSTYLE
105
27
330
A
100
AcDbSymbolTableRecord
100
AcDbDimStyleTableRecord
  2
ISO-25
 70
     0
 41
2.5
 42
0.625
 43
3.75
 44
1.25
 73
     0
 74
     0
 77
     1
 78
     8
140
2.5
141
2.5
143
0.03937007874016
147
0.625
171
     3
172
     1
178
     0
271
     2
272
     2
274
     3
278
    44
283
     0
284
     8
340
11
  0
DIMSTYLE
105
79
330
A
100
AcDbSymbolTableRecord
100
AcDbDimStyleTableRecord
  2
JWAC_DIMSTYLE
 70
     0
  3
x
  4
mm
 41
0.0
 42
0.625
 43
3.75
 44
1.25
 73
     0
 74
     0
 75
     1
 76
     1
 77
     1
 78
     8
140
2.5
141
2.5
143
0.03937007874016
147
0.625
171
     3
172
     1
173
     1
178
     0
271
     2
272
     2
274
     3
278
    32
283
     0
284
     8
340
11
371
     0
372
     0
  0
ENDTAB
  0
TABLE
  2
BLOCK_RECORD
  5
1
330
0
100
AcDbSymbolTable
 70
     1
  0
BLOCK_RECORD
  5
1F
330
1
100
AcDbSymbolTableRecord
100
AcDbBlockTableRecord
  2
*Model_Space
340
22
  0
BLOCK_RECORD
  5
1B
330
1
100
AcDbSymbolTableRecord
100
AcDbBlockTableRecord
  2
*Paper_Space
340
1E
  0
BLOCK_RECORD
  5
23
330
1
100
AcDbSymbolTableRecord
100
AcDbBlockTableRecord
  2
*Paper_Space0
340
26
  0
ENDTAB
  0
ENDSEC
  0
SECTION
  2
BLOCKS
  0
BLOCK
  5
20
330
1F
100
AcDbEntity
  8
0
100
AcDbBlockBegin
  2
*Model_Space
 70
     0
 10
0.0
 20
0.0
 30
0.0
  3
*Model_Space
  1

  0
ENDBLK
  5
21
330
1F
100
AcDbEntity
  8
0
100
AcDbBlockEnd
  0
BLOCK
  5
1C
330
1B
100
AcDbEntity
 67
     1
  8
0
100
AcDbBlockBegin
  2
*Paper_Space
 70
     0
 10
0.0
 20
0.0
 30
0.0
  3
*Paper_Space
  1

  0
ENDBLK
  5
1D
330
1B
100
AcDbEntity
 67
     1
  8
0
100
AcDbBlockEnd
  0
BLOCK
  5
24
330
23
100
AcDbEntity
  8
0
100
AcDbBlockBegin
  2
*Paper_Space0
 70
     0
 10
0.0
 20
0.0
 30
0.0
  3
*Paper_Space0
  1

  0
ENDBLK
  5
25
330
23
100
AcDbEntity
  8
0
100
AcDbBlockEnd
  0
ENDSEC
  0
SECTION
  2
ENTITIES
  0
LINE
  5
7A
330
1F
100
AcDbEntity
  8
D-1
  6
Continuous
 62
     2
370
     9
100
AcDbLine
 10
16.93705546634817
 20
2.547901582591493
 30
0.0
 11
16.93705546634817
 21
0.5477947710680553
 31
0.0
  0
LINE
  5
7B
330
1F
100
AcDbEntity
  8
D-1
  6
Continuous
 62
     2
370
     9
100
AcDbLine
 10
16.93705546634817
 20
8.54782528864618
 30
0.0
 11
16.93705546634817
 21
6.54782528864618
 31
0.0
  0
LINE
  5
7C
330
1F
100
AcDbEntity
  8
D-1
  6
Continuous
 62
     2
370
     9
100
AcDbLine
 10
-63.26308834773874
 20
6.54782528864618
 30
0.0
 11
-63.26308834773874
 21
3.047733735911805
 31
0.0
  0
LINE
  5
7D
330
1F
100
AcDbEntity
  8
D-1
  6
Continuous
 62
     2
370
     9
100
AcDbLine
 10
-156.7631016991792
 20
47.26990170466181
 30
0.0
 11
-161.664178969687
 21
47.26990170466181
 31
0.0
  0
LINE
  5
7E
330
1F
100
AcDbEntity
  8
D-1
  6
Continuous
 62
     2
370
     9
100
AcDbLine
 10
-142.2631093285737
 20
2.547901582591493
 30
0.0
 11
-142.2631093285737
 21
0.5477947710680553
 31
0.0
  0
LINE
  5
7F
330
1F
100
AcDbEntity
  8
D-2
  6
Continuous
 62
     4
370
     9
100
AcDbLine
 10
-82.93082094413614
 20
-14.13889651311163
 30
0.0
 11
-89.06294071895456
 21
-29.65479617131476
 31
0.0
  0
LINE
  5
80
330
1F
100
AcDbEntity
  8
D-1
  6
Continuous
 62
     2
370
     9
100
AcDbLine
 10
80.71201121585989
 20
-9.202144193775695
 30
0.0
 11
88.33678233402395
 21
-9.202144193775695
 31
0.0
  0
LINE
  5
81
330
1F
100
AcDbEntity
  8
D-0
  6
Continuous
 62
     3
370
     9
100
AcDbLine
 10
-166.8938542626557
 20
74.29921383845087
 30
0.0
 11
-167.4104253075776
 21
72.88029904352899
 31
0.0
  0
LINE
  5
82
330
1F
100
AcDbEntity
  8
D-1
  6
Continuous
 62
     2
370
     9
100
AcDbLine
 10
-135.2631245873628
 20
6.54782528864618
 30
0.0
 11
-135.2631245873628
 21
2.547901582591493
 31
0.0
  0
LINE
  5
83
330
1F
100
AcDbEntity
  8
D-1
  6
Continuous
 62
     2
370
     9
100
AcDbLine
 10
-140.7632237694917
 20
10.54794735895868
 30
0.0
 11
-140.7632237694917
 21
-0.4521594525647572
 31
0.0
  0
LINE
  5
84
330
1F
100
AcDbEntity
  8
D-1
  6
Continuous
 62
     2
370
     9
100
AcDbLine
 10
99.6592310644927
 20
3.047733735911805
 30
0.0
 11
-63.26308834773874
 21
3.047733735911805
 31
0.0
  0
LINE
  5
85
330
1F
100
AcDbEntity
  8
D-1
  6
Continuous
 62
     2
370
     9
100
AcDbLine
 10
16.93705546634817
 20
0.5477947710680553
 30
0.0
 11
-142.2631093285737
 21
0.5477947710680553
 31
0.0
  0
LINE
  5
86
330
1F
100
AcDbEntity
  8
D-1
  6
Continuous
 62
     2
370
     9
100
AcDbLine
 10
16.93705546634817
 20
2.547901582591493
 30
0.0
 11
-145.7630025170503
 21
2.547901582591493
 31
0.0
  0
LINE
  5
87
330
1F
100
AcDbEntity
  8
D-1
  6
Continuous
 62
     2
370
     9
100
AcDbLine
 10
95.65921580570364
 20
6.54782528864618
 30
0.0
 11
-142.2631093285737
 21
6.54782528864618
 31
0.0
  0
LINE
  5
88
330
1F
100
AcDbEntity
  8
D-1
  6
Continuous
 62
     2
370
     9
100
AcDbLine
 10
16.93705546634817
 20
8.54782528864618
 30
0.0
 11
-142.2631093285737
 21
8.54782528864618
 31
0.0
  0
LINE
  5
89
330
1F
100
AcDbEntity
  8
D-0
  6
Continuous
 62
     3
370
     9
100
AcDbLine
 10
14.93704783695364
 20
10.04791684138056
 30
0.0
 11
-140.2631970666108
 21
10.04791684138056
 31
0.0
  0
LINE
  5
8A
330
1F
100
AcDbEntity
  8
D-1
  6
Continuous
 62
     2
370
     9
100
AcDbLine
 10
-145.7630025170503
 20
44.27003903376337
 30
0.0
 11
-145.7630025170503
 21
2.547901582591493
 31
0.0
  0
LINE
  5
8B
330
1F
100
AcDbEntity
  8
D-1
  6
Continuous
 62
     2
370
     9
100
AcDbLine
 10
80.71201121585989
 20
-7.45223574651007
 30
0.0
 11
89.8369654394927
 21
-7.45223574651007
 31
0.0
  0
LINE
  5
8C
330
1F
100
AcDbEntity
  8
D-1
  6
Continuous
 62
     2
370
     9
100
AcDbLine
 10
89.8369654394927
 20
-12.95214419377569
 30
0.0
 11
89.8369654394927
 21
-7.45223574651007
 31
0.0
  0
LINE
  5
8D
330
1F
100
AcDbEntity
  8
D-1
  6
Continuous
 62
     2
370
     9
100
AcDbLine
 10
-145.7630025170503
 20
61.27641720759149
 30
0.0
 11
-171.6131917260346
 21
70.68526120173212
 31
0.0
  0
LINE
  5
8E
330
1F
100
AcDbEntity
  8
D-0
  6
JWW_CENTER2
 62
     2
370
     9
100
AcDbLine
 10
-159.9690800927339
 20
75.78175778376337
 30
0.0
 11
-164.442270400351
 21
63.49275631891962
 31
0.0
  0
LINE
  5
8F
330
1F
100
AcDbEntity
  8
D-1
  6
Continuous
 62
     2
370
     9
100
AcDbLine
 10
-160.409555556601
 20
73.10979123102899
 30
0.0
 11
-159.8963490746675
 21
74.51948971735712
 31
0.0
  0
LINE
  5
90
330
1F
100
AcDbEntity
  8
D-1
  6
Continuous
 62
     2
370
     9
100
AcDbLine
 10
-161.3494588158784
 20
73.45207638727899
 30
0.0
 11
-160.409555556601
 21
73.10979123102899
 31
0.0
  0
LINE
  5
91
330
1F
100
AcDbEntity
  8
D-1
  6
Continuous
 62
     2
370
     9
100
AcDbLine
 10
-160.8362523339448
 20
74.86168332087274
 30
0.0
 11
-161.3494588158784
 21
73.45207638727899
 31
0.0
  0
LINE
  5
92
330
1F
100
AcDbEntity
  8
D-1
  6
Continuous
 62
     2
370
     9
100
AcDbLine
 10
-157.967287185019
 20
71.05031247126337
 30
0.0
 11
-157.4550725243745
 21
72.45656247126337
 31
0.0
  0
LINE
  5
93
330
1F
100
AcDbEntity
  8
D-1
  6
Continuous
 62
     2
370
     9
100
AcDbLine
 10
-158.1146413109956
 20
73.87053341852899
 30
0.0
 11
-162.6186467431245
 21
75.51024289118524
 31
0.0
  0
LINE
  5
94
330
1F
100
AcDbEntity
  8
D-1
  6
Continuous
 62
     2
370
     9
100
AcDbLine
 10
-165.2138158105073
 20
65.17436642634149
 30
0.0
 11
-162.4774419091401
 21
72.69182248102899
 31
0.0
  0
LINE
  5
95
330
1F
100
AcDbEntity
  8
D-1
  6
Continuous
 62
     2
370
     9
100
AcDbLine
 10
-160.0346776269135
 20
71.80275387751337
 30
0.0
 11
-162.7703648827729
 21
64.28508419977899
 31
0.0
  0
LINE
  5
96
330
1F
100
AcDbEntity
  8
D-1
  6
Continuous
 62
     2
370
     9
100
AcDbLine
 10
-159.3763982079682
 20
71.56294674860712
 30
0.0
 11
-162.11277973873
 21
64.04527707087274
 31
0.0
  0
LINE
  5
97
330
1F
100
AcDbEntity
  8
D-1
  6
Continuous
 62
     2
370
     9
100
AcDbLine
 10
-165.8715993188081
 20
65.41408200251337
 30
0.0
 11
-163.135126235312
 21
72.93101925837274
 31
0.0
  0
LINE
  5
98
330
1F
100
AcDbEntity
  8
D-1
  6
Continuous
 62
     2
370
     9
100
AcDbLine
 10
-162.11277973873
 20
64.04527707087274
 30
0.0
 11
-165.8715993188081
 21
65.41408200251337
 31
0.0
  0
LINE
  5
99
330
1F
100
AcDbEntity
  8
D-1
  6
Continuous
 62
     2
370
     9
100
AcDbLine
 10
106.6591242529693
 20
4.047794771068055
 30
0.0
 11
106.6591242529693
 21
-0.3531604291272572
 31
0.0
  0
LINE
  5
9A
330
1F
100
AcDbEntity
  8
D-3
  6
Continuous
 62
     6
370
     5
100
AcDbLine
 10
92.33699595707083
 20
-14.95225100529913
 30
0.0
 11
-26.26316654903269
 21
-14.95225100529913
 31
0.0
  0
LINE
  5
9B
330
1F
100
AcDbEntity
  8
D-2
  6
Continuous
 62
     4
370
     9
100
AcDbLine
 10
-171.9430714867768
 20
9.320866060130555
 30
0.0
 11
-166.2563802025971
 21
-14.22182803166632
 31
0.0
  0
LINE
  5
9C
330
1F
100
AcDbEntity
  8
D-1
  6
Continuous
 62
     2
370
     9
100
AcDbLine
 10
103.6367548682036
 20
-34.90259890568976
 30
0.0
 11
88.63673960941458
 21
-38.48603396428351
 31
0.0
  0
LINE
  5
9D
330
1F
100
AcDbEntity
  8
D-1
  6
Continuous
 62
     2
370
     9
100
AcDbLine
 10
95.83679759281301
 20
-10.35212283147101
 30
0.0
 11
95.83679759281301
 21
-8.852046537525695
 31
0.0
  0
LINE
  5
9E
330
1F
100
AcDbEntity
  8
D-1
  6
Continuous
 62
     2
370
     9
100
AcDbLine
 10
96.83695018070364
 20
-8.852046537525695
 30
0.0
 11
96.83695018070364
 21
-10.35212283147101
 31
0.0
  0
LINE
  5
9F
330
1F
100
AcDbEntity
  8
D-1
  6
Continuous
 62
     2
370
     9
100
AcDbLine
 10
100.3369349219146
 20
-14.95225100529913
 30
0.0
 11
100.3369349219146
 21
-35.73894839299444
 31
0.0
  0
LINE
  5
A0
330
1F
100
AcDbEntity
  8
D-1
  6
Continuous
 62
     2
370
     9
100
AcDbLine
 10
92.33699595707083
 20
-14.95225100529913
 30
0.0
 11
92.33699595707083
 21
-37.65006594670538
 31
0.0
  0
LINE
  5
A1
330
1F
100
AcDbEntity
  8
D-1
  6
JWW_CENTER1
 62
     2
370
     9
100
AcDbLine
 10
96.33691966312551
 20
-5.452128934986632
 30
0.0
 11
96.33691966312551
 21
-39.82735781682257
 31
0.0
  0
LINE
  5
A2
330
1F
100
AcDbEntity
  8
D-1
  6
JWW_DASHED3
 62
     2
370
     9
100
AcDbLine
 10
93.33685862796926
 20
-12.95214419377569
 30
0.0
 11
93.33685862796926
 21
-37.41085391057257
 31
0.0
  0
LINE
  5
A3
330
1F
100
AcDbEntity
  8
D-1
  6
JWW_DASHED3
 62
     2
370
     9
100
AcDbLine
 10
99.33687388675833
 20
-12.95214419377569
 30
0.0
 11
99.33687388675833
 21
-35.97776370061163
 31
0.0
  0
LINE
  5
A4
330
1F
100
AcDbEntity
  8
D-1
  6
Continuous
 62
     2
370
     9
100
AcDbLine
 10
90.33698069828176
 20
-12.95214419377569
 30
0.0
 11
90.33698069828176
 21
-12.15235476506476
 31
0.0
  0
LINE
  5
A5
330
1F
100
AcDbEntity
  8
D-2
  6
Continuous
 62
     4
370
     9
100
AcDbLine
 10
-172.8180714867768
 20
9.10959286677118
 30
0.0
 11
-167.1312810204682
 21
-14.43329958928351
 31
0.0
  0
LINE
  5
A6
330
1F
100
AcDbEntity
  8
D-1
  6
Continuous
 62
     2
370
     9
100
AcDbLine
 10
102.1592768408599
 20
12.04771847712274
 30
0.0
 11
103.7295130469146
 21
7.094715547435243
 31
0.0
  0
LINE
  5
A7
330
1F
100
AcDbEntity
  8
D-1
  6
Continuous
 62
     2
370
     9
100
AcDbLine
 10
102.6592005469146
 20
12.04771847712274
 30
0.0
 11
102.1592768408599
 21
12.04771847712274
 31
0.0
  0
LINE
  5
A8
330
1F
100
AcDbEntity
  8
D-1
  6
Continuous
 62
     2
370
     9
100
AcDbLine
 10
102.6592005469146
 20
14.54776425348993
 30
0.0
 11
102.6592005469146
 21
12.04771847712274
 31
0.0
  0
LINE
  5
A9
330
1F
100
AcDbEntity
  8
D-1
  6
Continuous
 62
     2
370
     9
100
AcDbLine
 10
99.6592310644927
 20
14.54776425348993
 30
0.0
 11
102.6592005469146
 21
14.54776425348993
 31
0.0
  0
LINE
  5
AA
330
1F
100
AcDbEntity
  8
D-1
  6
Continuous
 62
     2
370
     9
100
AcDbLine
 10
99.6592310644927
 20
3.047733735911805
 30
0.0
 11
99.6592310644927
 21
14.54776425348993
 31
0.0
  0
LINE
  5
AB
330
1F
100
AcDbEntity
  8
D-1
  6
Continuous
 62
     2
370
     9
100
AcDbLine
 10
95.65921580570364
 20
18.54777951227899
 30
0.0
 11
95.65921580570364
 21
6.54782528864618
 31
0.0
  0
LINE
  5
AC
330
1F
100
AcDbEntity
  8
D-1
  6
Continuous
 62
     2
370
     9
100
AcDbLine
 10
106.6591242529693
 20
18.54777951227899
 30
0.0
 11
95.65921580570364
 21
18.54777951227899
 31
0.0
  0
LINE
  5
AD
330
1F
100
AcDbEntity
  8
D-1
  6
Continuous
 62
     2
370
     9
100
AcDbLine
 10
-152.7631779931245
 20
44.27003903376337
 30
0.0
 11
-145.7630025170503
 21
44.27003903376337
 31
0.0
  0
LINE
  5
AE
330
1F
100
AcDbEntity
  8
D-1
  6
Continuous
 62
     2
370
     9
100
AcDbLine
 10
-142.2631093285737
 20
47.26990170466181
 30
0.0
 11
-154.7630940697846
 21
47.26990170466181
 31
0.0
  0
LINE
  5
AF
330
1F
100
AcDbEntity
  8
D-2
  6
Continuous
 62
     4
370
     9
100
AcDbLine
 10
-82.09387505275583
 20
-14.46966128361944
 30
0.0
 11
-88.22599470836496
 21
-29.98575930608038
 31
0.0
  0
LINE
  5
B0
330
1F
100
AcDbEntity
  8
D-2
  6
Continuous
 62
     4
370
     9
100
AcDbLine
 10
68.71106517093801
 20
-10.62710146916632
 30
0.0
 11
-78.37280547839975
 21
-10.48093752873663
 31
0.0
  0
LINE
  5
B1
330
1F
100
AcDbEntity
  8
D-1
  6
Continuous
 62
     2
370
     9
100
AcDbLine
 10
-164.544435622519
 20
73.44600338923212
 30
0.0
 11
-164.0323201440034
 21
74.85225338923212
 31
0.0
  0
LINE
  5
B2
330
1F
100
AcDbEntity
  8
D-1
  6
Continuous
 62
     2
370
     9
100
AcDbLine
 10
-156.7631016991792
 20
40.76994748102899
 30
0.0
 11
-156.7631016991792
 21
47.26990170466181
 31
0.0
  0
LINE
  5
B3
330
1F
100
AcDbEntity
  8
D-1
  6
Continuous
 62
     2
370
     9
100
AcDbLine
 10
-147.7632085107026
 20
40.76994748102899
 30
0.0
 11
-156.7631016991792
 21
40.76994748102899
 31
0.0
  0
LINE
  5
B4
330
1F
100
AcDbEntity
  8
D-1
  6
Continuous
 62
     2
370
     9
100
AcDbLine
 10
-154.7630940697846
 20
42.76996273981806
 30
0.0
 11
-147.7632085107026
 21
42.76996273981806
 31
0.0
  0
LINE
  5
B5
330
1F
100
AcDbEntity
  8
D-1
  6
Continuous
 62
     2
370
     9
100
AcDbLine
 10
-154.7630940697846
 20
47.26990170466181
 30
0.0
 11
-154.7630940697846
 21
42.76996273981806
 31
0.0
  0
LINE
  5
B6
330
1F
100
AcDbEntity
  8
D-2
  6
Continuous
 62
     4
370
     9
100
AcDbLine
 10
-171.9430714867768
 20
9.320866060130555
 30
0.0
 11
-171.1481419823823
 21
9.320866060130555
 31
0.0
  0
LINE
  5
B7
330
1F
100
AcDbEntity
  8
D-1
  6
Continuous
 62
     2
370
     9
100
AcDbLine
 10
88.33678233402395
 20
-12.95214419377569
 30
0.0
 11
88.33678233402395
 21
-9.202144193775695
 31
0.0
  0
LINE
  5
B8
330
1F
100
AcDbEntity
  8
D-1
  6
Continuous
 62
     2
370
     9
100
AcDbLine
 10
123.4346064307036
 20
-0.8017688275647572
 30
0.0
 11
124.8021906592193
 21
-4.560588407642882
 31
0.0
  0
LINE
  5
B9
330
1F
100
AcDbEntity
  8
D-1
  6
Continuous
 62
     2
370
     9
100
AcDbLine
 10
100.1591547705474
 20
4.047794771068055
 30
0.0
 11
106.6591242529693
 21
4.047794771068055
 31
0.0
  0
LINE
  5
BA
330
1F
100
AcDbEntity
  8
D-1
  6
Continuous
 62
     2
370
     9
100
AcDbLine
 10
100.1591547705474
 20
13.04777951227899
 30
0.0
 11
100.1591547705474
 21
4.047794771068055
 31
0.0
  0
LINE
  5
BB
330
1F
100
AcDbEntity
  8
D-1
  6
Continuous
 62
     2
370
     9
100
AcDbLine
 10
102.1592768408599
 20
6.047901582591493
 30
0.0
 11
102.1592768408599
 21
13.04777951227899
 31
0.0
  0
LINE
  5
BC
330
1F
100
AcDbEntity
  8
D-1
  6
Continuous
 62
     2
370
     9
100
AcDbLine
 10
106.6591242529693
 20
6.047901582591493
 30
0.0
 11
102.1592768408599
 21
6.047901582591493
 31
0.0
  0
LINE
  5
BD
330
1F
100
AcDbEntity
  8
D-1
  6
Continuous
 62
     2
370
     9
100
AcDbLine
 10
113.659292099649
 20
-1.962153959400695
 30
0.0
 11
111.8948420264068
 21
-1.962153959400695
 31
0.0
  0
LINE
  5
BE
330
1F
100
AcDbEntity
  8
D-1
  6
Continuous
 62
     2
370
     9
100
AcDbLine
 10
113.659292099649
 20
-3.70223574651007
 30
0.0
 11
113.659292099649
 21
-1.962153959400695
 31
0.0
  0
LINE
  5
BF
330
1F
100
AcDbEntity
  8
D-1
  6
Continuous
 62
     2
370
     9
100
AcDbLine
 10
111.1593531348052
 20
0.0377544878649303
 30
0.0
 11
115.6591089941802
 21
0.0377544878649303
 31
0.0
  0
LINE
  5
C0
330
1F
100
AcDbEntity
  8
D-1
  6
Continuous
 62
     2
370
     9
100
AcDbLine
 10
110.1592005469146
 20
15.04779477106806
 30
0.0
 11
110.1592005469146
 21
1.037907075755555
 31
0.0
  0
LINE
  5
C1
330
1F
100
AcDbEntity
  8
D-0
  6
Continuous
 62
     3
370
     9
100
AcDbLine
 10
-62.26303494197703
 20
10.04791684138056
 30
0.0
 11
-62.26303494197703
 21
18.04774899470087
 31
0.0
  0
LINE
  5
C2
330
1F
100
AcDbEntity
  8
D-0
  6
Continuous
 62
     3
370
     9
100
AcDbLine
 10
-63.26308834773874
 20
18.04774899470087
 30
0.0
 11
-63.26308834773874
 21
10.04791684138056
 31
0.0
  0
LINE
  5
C3
330
1F
100
AcDbEntity
  8
D-1
  6
Continuous
 62
     2
370
     9
100
AcDbLine
 10
133.1753138281646
 20
-9.173503446705382
 30
0.0
 11
130.074575302774
 21
-10.30237917912726
 31
0.0
  0
LINE
  5
C4
330
1F
100
AcDbEntity
  8
D-0
  6
Continuous
 62
     3
370
     9
100
AcDbLine
 10
136.3329371191802
 20
7.617542695872743
 30
0.0
 11
130.6949061133208
 21
5.56540341364618
 31
0.0
  0
LINE
  5
C5
330
1F
100
AcDbEntity
  8
D-0
  6
Continuous
 62
     3
370
     9
100
AcDbLine
 10
136.6748102881255
 20
6.677738618724305
 30
0.0
 11
131.0366724707427
 21
4.625904512278993
 31
0.0
  0
LINE
  5
C6
330
1F
100
AcDbEntity
  8
D-0
  6
Continuous
 62
     3
370
     9
100
AcDbLine
 10
130.4390467383208
 20
3.344227266185243
 30
0.0
 11
133.6882227637115
 21
-5.582835722096007
 31
0.0
  0
LINE
  5
C7
330
1F
100
AcDbEntity
  8
D-0
  6
Continuous
 62
     3
370
     9
100
AcDbLine
 10
133.4761713721099
 20
18.38962216364618
 30
0.0
 11
136.9306696631255
 21
8.899311494700868
 31
0.0
  0
LINE
  5
C8
330
1F
100
AcDbEntity
  8
D-0
  6
Continuous
 62
     3
370
     9
100
AcDbLine
 10
134.4159754492583
 20
18.73180050837274
 30
0.0
 11
137.8701838232818
 21
9.24118466364618
 31
0.0
  0
LINE
  5
C9
330
1F
100
AcDbEntity
  8
D-0
  6
Continuous
 62
     3
370
     9
100
AcDbLine
 10
-153.6932774804292
 20
76.94374508845087
 30
0.0
 11
-155.745607497519
 21
71.30559201227899
 31
0.0
  0
LINE
  5
CA
330
1F
100
AcDbEntity
  8
D-0
  6
Continuous
 62
     3
370
     9
100
AcDbLine
 10
-154.6331807397065
 20
77.28560299860712
 30
0.0
 11
-156.6849156640229
 21
71.64735836970087
 31
0.0
  0
LINE
  5
CB
330
1F
100
AcDbEntity
  8
D-0
  6
Continuous
 62
     3
370
     9
100
AcDbLine
 10
-157.9666920922456
 20
71.04982419001337
 30
0.0
 11
-166.8938542626557
 21
74.29912228571649
 31
0.0
  0
LINE
  5
CC
330
1F
100
AcDbEntity
  8
D-0
  6
Continuous
 62
     3
370
     9
100
AcDbLine
 10
-142.9212895653901
 20
74.08723874079462
 30
0.0
 11
-152.4115010522065
 21
77.54137082087274
 31
0.0
  0
LINE
  5
CD
330
1F
100
AcDbEntity
  8
D-0
  6
Continuous
 62
     3
370
     9
100
AcDbLine
 10
-142.5790196679292
 20
75.02675290095087
 30
0.0
 11
-152.0698186181245
 21
78.48088498102899
 31
0.0
  0
LINE
  5
CE
330
1F
100
AcDbEntity
  8
D-0
  6
Continuous
 62
     3
370
     9
100
AcDbLine
 10
16.93705546634817
 20
17.04790158259149
 30
0.0
 11
16.93705546634817
 21
11.04776425348993
 31
0.0
  0
LINE
  5
CF
330
1F
100
AcDbEntity
  8
D-0
  6
Continuous
 62
     3
370
     9
100
AcDbLine
 10
16.93705546634817
 20
17.04790158259149
 30
0.0
 11
15.93690287845754
 21
17.04790158259149
 31
0.0
  0
LINE
  5
D0
330
1F
100
AcDbEntity
  8
D-0
  6
Continuous
 62
     3
370
     9
100
AcDbLine
 10
15.93690287845754
 20
11.04776425348993
 30
0.0
 11
15.93690287845754
 21
17.04790158259149
 31
0.0
  0
LINE
  5
D1
330
1F
100
AcDbEntity
  8
D-0
  6
Continuous
 62
     3
370
     9
100
AcDbLine
 10
133.6879328467193
 20
-5.58303408635382
 30
0.0
 11
132.2690027930083
 21
-6.09951357854132
 31
0.0
  0
LINE
  5
D2
330
1F
100
AcDbEntity
  8
D-1
  6
Continuous
 62
     2
370
     9
100
AcDbLine
 10
130.9008234717193
 20
-2.340693998463195
 30
0.0
 11
133.362905380899
 21
-9.105220365650695
 31
0.0
  0
LINE
  5
D3
330
1F
100
AcDbEntity
  8
D-0
  6
JWW_CENTER2
 62
     2
370
     9
100
AcDbLine
 10
135.1704767920318
 20
1.34134335505243
 30
0.0
 11
122.8813532568755
 21
-3.13125185979132
 31
0.0
  0
LINE
  5
D4
330
1F
100
AcDbEntity
  8
D-1
  6
Continuous
 62
     2
370
     9
100
AcDbLine
 10
132.8408716894927
 20
-0.0386462689710072
 30
0.0
 11
134.2505854346099
 21
0.4745678423571178
 31
0.0
  0
LINE
  5
D5
330
1F
100
AcDbEntity
  8
D-1
  6
Continuous
 62
     2
370
     9
100
AcDbLine
 10
132.4985102392974
 20
0.9012646197008678
 30
0.0
 11
132.8408716894927
 21
-0.0386462689710072
 31
0.0
  0
LINE
  5
D6
330
1F
100
AcDbEntity
  8
D-1
  6
Continuous
 62
     2
370
     9
100
AcDbLine
 10
133.9082087256255
 20
1.414066743724305
 30
0.0
 11
132.4985102392974
 21
0.9012646197008678
 31
0.0
  0
LINE
  5
D7
330
1F
100
AcDbEntity
  8
D-1
  6
Continuous
 62
     2
370
     9
100
AcDbLine
 10
130.4390467383208
 20
3.34372372614618
 30
0.0
 11
131.8451746680083
 21
3.855946016185243
 31
0.0
  0
LINE
  5
D8
330
1F
100
AcDbEntity
  8
D-1
  6
Continuous
 62
     2
370
     9
100
AcDbLine
 10
132.8330439307036
 20
-3.23342471135382
 30
0.0
 11
134.2391871191802
 21
-2.72170596135382
 31
0.0
  0
LINE
  5
D9
330
1F
100
AcDbEntity
  8
D-1
  6
Continuous
 62
     2
370
     9
100
AcDbLine
 10
134.8989618994536
 20
-1.307628202564757
 30
0.0
 11
133.2592524267974
 21
3.196278047435243
 31
0.0
  0
LINE
  5
DA
330
1F
100
AcDbEntity
  8
D-1
  6
Continuous
 62
     2
370
     9
100
AcDbLine
 10
123.6738184668365
 20
-1.459453153736632
 30
0.0
 11
131.1913660742583
 21
1.276920747630555
 31
0.0
  0
LINE
  5
DB
330
1F
100
AcDbEntity
  8
D-1
  6
Continuous
 62
     2
370
     9
100
AcDbLine
 10
132.0805262305083
 20
-1.16653018010382
 30
0.0
 11
124.5629786230865
 21
-3.902400541431945
 31
0.0
  0
LINE
  5
DC
330
1F
100
AcDbEntity
  8
D-1
  6
Continuous
 62
     2
370
     9
100
AcDbLine
 10
132.3197382666411
 20
-1.824214506275695
 30
0.0
 11
124.8021906592193
 21
-4.560588407642882
 31
0.0
  0
LINE
  5
DD
330
1F
100
AcDbEntity
  8
D-1
  6
Continuous
 62
     2
370
     9
100
AcDbLine
 10
123.4346064307036
 20
-0.8017688275647572
 30
0.0
 11
130.9522455908599
 21
1.934513521068055
 31
0.0
  0
LINE
  5
DE
330
1F
100
AcDbEntity
  8
D-1
  6
Continuous
 62
     2
370
     9
100
AcDbLine
 10
127.6123865820708
 20
-3.53774600041632
 30
0.0
 11
130.074575302774
 21
-10.30237917912726
 31
0.0
  0
LINE
  5
DF
330
1F
100
AcDbEntity
  8
D-1
  6
Continuous
 62
     2
370
     9
100
AcDbLine
 10
106.6591242529693
 20
19.04770321833368
 30
0.0
 11
106.6591242529693
 21
6.047901582591493
 31
0.0
  0
LINE
  5
E0
330
1F
100
AcDbEntity
  8
D-1
  6
Continuous
 62
     2
370
     9
100
AcDbLine
 10
115.0024164892974
 20
-12.95214419377569
 30
0.0
 11
107.9077967383208
 21
-12.95214419377569
 31
0.0
  0
LINE
  5
E1
330
1F
100
AcDbEntity
  8
D-1
  6
Continuous
 62
     2
370
     9
100
AcDbLine
 10
111.337041733438
 20
-8.70211367619757
 30
0.0
 11
113.3368433691802
 21
-8.70211367619757
 31
0.0
  0
LINE
  5
E2
330
1F
100
AcDbEntity
  8
D-1
  6
Continuous
 62
     2
370
     9
100
AcDbLine
 10
110.3369806982818
 20
-6.452189970142882
 30
0.0
 11
110.3369806982818
 21
-7.702159452564757
 31
0.0
  0
LINE
  5
E3
330
1F
100
AcDbEntity
  8
D-1
  6
Continuous
 62
     2
370
     9
100
AcDbLine
 10
115.0868433691802
 20
-5.452128934986632
 30
0.0
 11
111.337041733438
 21
-5.452128934986632
 31
0.0
  0
LINE
  5
E4
330
1F
100
AcDbEntity
  8
D-1
  6
Continuous
 62
     2
370
     9
100
AcDbLine
 10
119.8369959570708
 20
-14.95225100529913
 30
0.0
 11
119.8369959570708
 21
-10.20218997014288
 31
0.0
  0
LINE
  5
E5
330
1F
100
AcDbEntity
  8
D-1
  6
Continuous
 62
     2
370
     9
100
AcDbLine
 10
80.8369654394927
 20
-12.95214419377569
 30
0.0
 11
88.33678233402395
 21
-12.95214419377569
 31
0.0
  0
LINE
  5
E6
330
1F
100
AcDbEntity
  8
D-1
  6
Continuous
 62
     2
370
     9
100
AcDbLine
 10
-165.0130482934175
 20
56.26999325739618
 30
0.0
 11
-161.2731572411714
 21
56.26999325739618
 31
0.0
  0
LINE
  5
E7
330
1F
100
AcDbEntity
  8
D-1
  6
Continuous
 62
     2
370
     9
100
AcDbLine
 10
-174.263055922812
 20
21.44766659723993
 30
0.0
 11
-174.263055922812
 21
28.94766659723993
 31
0.0
  0
LINE
  5
E8
330
1F
100
AcDbEntity
  8
D-1
  6
Continuous
 62
     2
370
     9
100
AcDbLine
 10
115.6591089941802
 20
-3.70223574651007
 30
0.0
 11
115.6591089941802
 21
0.0377544878649303
 31
0.0
  0
LINE
  5
E9
330
1F
100
AcDbEntity
  8
D-1
  6
Continuous
 62
     2
370
     9
100
AcDbLine
 10
123.1164149023833
 20
19.04770321833368
 30
0.0
 11
129.5329340674224
 21
1.41794247614618
 31
0.0
  0
LINE
  5
EA
330
1F
100
AcDbEntity
  8
D-1
  6
Continuous
 62
     2
370
     9
100
AcDbLine
 10
120.8476618506255
 20
15.04779477106806
 30
0.0
 11
126.2442988135161
 21
0.2208904741930553
 31
0.0
  0
LINE
  5
EB
330
1F
100
AcDbEntity
  8
D-1
  6
Continuous
 62
     2
370
     9
100
AcDbLine
 10
-176.2630635522065
 20
60.44778866755243
 30
0.0
 11
-171.5132085107026
 21
60.44778866755243
 31
0.0
  0
LINE
  5
EC
330
1F
100
AcDbEntity
  8
D-1
  6
Continuous
 62
     2
370
     9
100
AcDbLine
 10
-166.7630482934175
 20
55.69772763239618
 30
0.0
 11
-166.7630482934175
 21
51.94772763239618
 31
0.0
  0
LINE
  5
ED
330
1F
100
AcDbEntity
  8
D-1
  6
Continuous
 62
     2
370
     9
100
AcDbLine
 10
-167.7630025170503
 20
50.94766659723993
 30
0.0
 11
-169.013071181601
 21
50.94766659723993
 31
0.0
  0
LINE
  5
EE
330
1F
100
AcDbEntity
  8
D-1
  6
Continuous
 62
     2
370
     9
100
AcDbLine
 10
-170.0130254052339
 20
51.94772763239618
 30
0.0
 11
-170.0130254052339
 21
53.94774289118524
 31
0.0
  0
LINE
  5
EF
330
1F
100
AcDbEntity
  8
D-1
  6
Continuous
 62
     2
370
     9
100
AcDbLine
 10
-174.263055922812
 20
55.61320919977899
 30
0.0
 11
-174.263055922812
 21
48.51848263727899
 31
0.0
  0
LINE
  5
F0
330
1F
100
AcDbEntity
  8
D-1
  6
Continuous
 62
     2
370
     9
100
AcDbLine
 10
-145.7630025170503
 20
50.76999325739618
 30
0.0
 11
-160.2731038354096
 21
50.76999325739618
 31
0.0
  0
LINE
  5
F1
330
1F
100
AcDbEntity
  8
D-1
  6
Continuous
 62
     2
370
     9
100
AcDbLine
 10
-161.2731572411714
 20
51.77005429255243
 30
0.0
 11
-161.2731572411714
 21
56.26999325739618
 31
0.0
  0
LINE
  5
F2
330
1F
100
AcDbEntity
  8
D-1
  6
Continuous
 62
     2
370
     9
100
AcDbLine
 10
-165.0130482934175
 20
54.27008481013056
 30
0.0
 11
-163.273065688437
 21
54.27008481013056
 31
0.0
  0
LINE
  5
F3
330
1F
100
AcDbEntity
  8
D-1
  6
Continuous
 62
     2
370
     9
100
AcDbLine
 10
-163.273065688437
 20
54.27008481013056
 30
0.0
 11
-163.273065688437
 21
52.50552792536493
 31
0.0
  0
LINE
  5
F4
330
1F
100
AcDbEntity
  8
D-1
  6
Continuous
 62
     2
370
     9
100
AcDbLine
 10
-174.263055922812
 20
28.94766659723993
 30
0.0
 11
-170.513055922812
 21
28.94766659723993
 31
0.0
  0
LINE
  5
F5
330
1F
100
AcDbEntity
  8
D-1
  6
Continuous
 62
     2
370
     9
100
AcDbLine
 10
-174.263055922812
 20
30.94768185602899
 30
0.0
 11
-173.4633733056245
 21
30.94768185602899
 31
0.0
  0
LINE
  5
F6
330
1F
100
AcDbEntity
  8
D-1
  6
JWW_DASHED3
 62
     2
370
     9
100
AcDbLine
 10
-174.263055922812
 20
39.94757504450556
 30
0.0
 11
-197.2885838769135
 21
39.94757504450556
 31
0.0
  0
LINE
  5
F7
330
1F
100
AcDbEntity
  8
D-1
  6
JWW_DASHED3
 62
     2
370
     9
100
AcDbLine
 10
-174.263055922812
 20
33.94774289118524
 30
0.0
 11
-198.7215749047456
 21
33.94774289118524
 31
0.0
  0
LINE
  5
F8
330
1F
100
AcDbEntity
  8
D-1
  6
JWW_CENTER1
 62
     2
370
     9
100
AcDbLine
 10
-166.7630482934175
 20
36.94771237360712
 30
0.0
 11
-201.1381779931245
 21
36.94771237360712
 31
0.0
  0
LINE
  5
F9
330
1F
100
AcDbEntity
  8
D-1
  6
Continuous
 62
     2
370
     9
100
AcDbLine
 10
-176.2630635522065
 20
32.94768185602899
 30
0.0
 11
-198.9608861230073
 21
32.94768185602899
 31
0.0
  0
LINE
  5
FA
330
1F
100
AcDbEntity
  8
D-1
  6
Continuous
 62
     2
370
     9
100
AcDbLine
 10
-176.2630635522065
 20
40.94762082087274
 30
0.0
 11
-197.0498677514253
 21
40.94762082087274
 31
0.0
  0
LINE
  5
FB
330
1F
100
AcDbEntity
  8
D-1
  6
Continuous
 62
     2
370
     9
100
AcDbLine
 10
-170.1628590844331
 20
37.44763607966181
 30
0.0
 11
-171.6629353783784
 21
37.44763607966181
 31
0.0
  0
LINE
  5
FC
330
1F
100
AcDbEntity
  8
D-1
  6
Continuous
 62
     2
370
     9
100
AcDbLine
 10
-171.6629353783784
 20
36.44768185602899
 30
0.0
 11
-170.1628590844331
 21
36.44768185602899
 31
0.0
  0
LINE
  5
FD
330
1F
100
AcDbEntity
  8
D-1
  6
Continuous
 62
     2
370
     9
100
AcDbLine
 10
-196.213510634726
 20
44.24754757868524
 30
0.0
 11
-199.7968465111909
 21
29.24742550837274
 31
0.0
  0
LINE
  5
FE
330
1F
100
AcDbEntity
  8
D-1
  6
Continuous
 62
     2
370
     9
100
AcDbLine
 10
-174.263055922812
 20
30.44765133845087
 30
0.0
 11
-168.763055922812
 21
30.44765133845087
 31
0.0
  0
LINE
  5
FF
330
1F
100
AcDbEntity
  8
D-1
  6
Continuous
 62
     2
370
     9
100
AcDbLine
 10
-168.763055922812
 20
21.32269711481806
 30
0.0
 11
-168.763055922812
 21
30.44765133845087
 31
0.0
  0
LINE
  5
100
330
1F
100
AcDbEntity
  8
D-1
  6
Continuous
 62
     2
370
     9
100
AcDbLine
 10
-170.513055922812
 20
21.32269711481806
 30
0.0
 11
-170.513055922812
 21
28.94766659723993
 31
0.0
  0
LINE
  5
101
330
1F
100
AcDbEntity
  8
D-2
  6
Continuous
 62
     4
370
     9
100
AcDbLine
 10
-171.3980580590425
 20
25.07271237360712
 30
0.0
 11
-171.3980580590425
 21
21.69777340876337
 31
0.0
  0
LINE
  5
102
330
1F
100
AcDbEntity
  8
D-2
  6
Continuous
 62
     4
370
     9
100
AcDbLine
 10
-173.638071181601
 20
21.44766659723993
 30
0.0
 11
-173.638071181601
 21
9.320866060130555
 31
0.0
  0
LINE
  5
103
330
1F
100
AcDbEntity
  8
D-2
  6
Continuous
 62
     4
370
     9
100
AcDbLine
 10
-171.1481419823823
 20
21.44766659723993
 30
0.0
 11
-171.1481419823823
 21
9.320866060130555
 31
0.0
  0
LINE
  5
104
330
1F
100
AcDbEntity
  8
D-2
  6
Continuous
 62
     4
370
     9
100
AcDbLine
 10
-172.8430424950776
 20
21.44766659723993
 30
0.0
 11
-172.8430424950776
 21
9.320866060130555
 31
0.0
  0
LINE
  5
105
330
1F
100
AcDbEntity
  8
D-2
  6
Continuous
 62
     4
370
     9
100
AcDbLine
 10
-171.9430714867768
 20
21.44766659723993
 30
0.0
 11
-171.9430714867768
 21
9.320866060130555
 31
0.0
  0
LINE
  5
106
330
1F
100
AcDbEntity
  8
D-2
  6
Continuous
 62
     4
370
     9
100
AcDbLine
 10
-174.2681142113862
 20
25.07271237360712
 30
0.0
 11
-173.3880635522065
 21
25.07271237360712
 31
0.0
  0
LINE
  5
107
330
1F
100
AcDbEntity
  8
D-2
  6
Continuous
 62
     4
370
     9
100
AcDbLine
 10
-173.3880635522065
 20
26.07275814997431
 30
0.0
 11
-174.2681142113862
 21
25.07271237360712
 31
0.0
  0
LINE
  5
108
330
1F
100
AcDbEntity
  8
D-2
  6
Continuous
 62
     4
370
     9
100
AcDbLine
 10
-174.2681142113862
 20
26.07275814997431
 30
0.0
 11
-173.3880635522065
 21
26.07275814997431
 31
0.0
  0
LINE
  5
109
330
1F
100
AcDbEntity
  8
D-2
  6
Continuous
 62
     4
370
     9
100
AcDbLine
 10
-173.3880635522065
 20
27.07271237360712
 30
0.0
 11
-174.2681142113862
 21
26.07275814997431
 31
0.0
  0
LINE
  5
10A
330
1F
100
AcDbEntity
  8
D-2
  6
Continuous
 62
     4
370
     9
100
AcDbLine
 10
-174.2681142113862
 20
27.07271237360712
 30
0.0
 11
-173.3880635522065
 21
27.07271237360712
 31
0.0
  0
LINE
  5
10B
330
1F
100
AcDbEntity
  8
D-2
  6
Continuous
 62
     4
370
     9
100
AcDbLine
 10
-170.5180073998628
 20
25.07271237360712
 30
0.0
 11
-171.3980580590425
 21
25.07271237360712
 31
0.0
  0
LINE
  5
10C
330
1F
100
AcDbEntity
  8
D-2
  6
Continuous
 62
     4
370
     9
100
AcDbLine
 10
-171.3980580590425
 20
26.07275814997431
 30
0.0
 11
-170.5180073998628
 21
25.07271237360712
 31
0.0
  0
LINE
  5
10D
330
1F
100
AcDbEntity
  8
D-2
  6
Continuous
 62
     4
370
     9
100
AcDbLine
 10
-170.5180073998628
 20
26.07275814997431
 30
0.0
 11
-171.3980580590425
 21
26.07275814997431
 31
0.0
  0
LINE
  5
10E
330
1F
100
AcDbEntity
  8
D-2
  6
Continuous
 62
     4
370
     9
100
AcDbLine
 10
-171.3980580590425
 20
27.07271237360712
 30
0.0
 11
-170.5180073998628
 21
26.07275814997431
 31
0.0
  0
LINE
  5
10F
330
1F
100
AcDbEntity
  8
D-2
  6
Continuous
 62
     4
370
     9
100
AcDbLine
 10
-170.5180073998628
 20
27.07271237360712
 30
0.0
 11
-171.3980580590425
 21
27.07271237360712
 31
0.0
  0
LINE
  5
110
330
1F
100
AcDbEntity
  8
D-2
  6
Continuous
 62
     4
370
     9
100
AcDbLine
 10
-173.3880635522065
 20
25.07271237360712
 30
0.0
 11
-173.3880635522065
 21
21.69777340876337
 31
0.0
  0
LINE
  5
111
330
1F
100
AcDbEntity
  8
D-2
  6
Continuous
 62
     4
370
     9
100
AcDbLine
 10
-172.8430424950776
 20
9.320866060130555
 30
0.0
 11
-173.638071181601
 21
9.320866060130555
 31
0.0
  0
LINE
  5
112
330
1F
100
AcDbEntity
  8
D-2
  6
Continuous
 62
     4
370
     9
100
AcDbLine
 10
68.71016490238333
 20
-10.62710146916632
 30
0.0
 11
68.71016490238333
 21
-9.83217959416632
 31
0.0
  0
LINE
  5
113
330
1F
100
AcDbEntity
  8
D-2
  6
Continuous
 62
     4
370
     9
100
AcDbLine
 10
84.46201121585989
 20
-12.07218508733038
 30
0.0
 11
81.08698069828176
 21
-12.07218508733038
 31
0.0
  0
LINE
  5
114
330
1F
100
AcDbEntity
  8
D-2
  6
Continuous
 62
     4
370
     9
100
AcDbLine
 10
84.46201121585989
 20
-10.08228640568976
 30
0.0
 11
81.08698069828176
 21
-10.08228640568976
 31
0.0
  0
LINE
  5
115
330
1F
100
AcDbEntity
  8
D-2
  6
Continuous
 62
     4
370
     9
100
AcDbLine
 10
86.46191966312551
 20
-12.95214419377569
 30
0.0
 11
86.46191966312551
 21
-12.07218508733038
 31
0.0
  0
LINE
  5
116
330
1F
100
AcDbEntity
  8
D-2
  6
Continuous
 62
     4
370
     9
100
AcDbLine
 10
86.46191966312551
 20
-12.07218508733038
 30
0.0
 11
85.4619654394927
 21
-12.95214419377569
 31
0.0
  0
LINE
  5
117
330
1F
100
AcDbEntity
  8
D-2
  6
Continuous
 62
     4
370
     9
100
AcDbLine
 10
85.4619654394927
 20
-12.95214419377569
 30
0.0
 11
85.4619654394927
 21
-12.07218508733038
 31
0.0
  0
LINE
  5
118
330
1F
100
AcDbEntity
  8
D-2
  6
Continuous
 62
     4
370
     9
100
AcDbLine
 10
85.4619654394927
 20
-12.07218508733038
 30
0.0
 11
84.46201121585989
 21
-12.95214419377569
 31
0.0
  0
LINE
  5
119
330
1F
100
AcDbEntity
  8
D-2
  6
Continuous
 62
     4
370
     9
100
AcDbLine
 10
84.46201121585989
 20
-12.95214419377569
 30
0.0
 11
84.46201121585989
 21
-12.07218508733038
 31
0.0
  0
LINE
  5
11A
330
1F
100
AcDbEntity
  8
D-2
  6
Continuous
 62
     4
370
     9
100
AcDbLine
 10
86.46191966312551
 20
-9.202144193775695
 30
0.0
 11
86.46191966312551
 21
-10.08228640568976
 31
0.0
  0
LINE
  5
11B
330
1F
100
AcDbEntity
  8
D-2
  6
Continuous
 62
     4
370
     9
100
AcDbLine
 10
86.46191966312551
 20
-10.08228640568976
 30
0.0
 11
85.4619654394927
 21
-9.202144193775695
 31
0.0
  0
LINE
  5
11C
330
1F
100
AcDbEntity
  8
D-2
  6
Continuous
 62
     4
370
     9
100
AcDbLine
 10
85.4619654394927
 20
-9.202144193775695
 30
0.0
 11
85.4619654394927
 21
-10.08228640568976
 31
0.0
  0
LINE
  5
11D
330
1F
100
AcDbEntity
  8
D-2
  6
Continuous
 62
     4
370
     9
100
AcDbLine
 10
85.4619654394927
 20
-10.08228640568976
 30
0.0
 11
84.46201121585989
 21
-9.202144193775695
 31
0.0
  0
LINE
  5
11E
330
1F
100
AcDbEntity
  8
D-2
  6
Continuous
 62
     4
370
     9
100
AcDbLine
 10
84.46201121585989
 20
-9.202144193775695
 30
0.0
 11
84.46201121585989
 21
-10.08228640568976
 31
0.0
  0
LINE
  5
11F
330
1F
100
AcDbEntity
  8
D-2
  6
Continuous
 62
     4
370
     9
100
AcDbLine
 10
80.8369654394927
 20
-11.52708010686163
 30
0.0
 11
68.71016490238333
 21
-11.52708010686163
 31
0.0
  0
LINE
  5
120
330
1F
100
AcDbEntity
  8
D-2
  6
Continuous
 62
     4
370
     9
100
AcDbLine
 10
80.8369654394927
 20
-10.62710146916632
 30
0.0
 11
68.71016490238333
 21
-10.62710146916632
 31
0.0
  0
LINE
  5
121
330
1F
100
AcDbEntity
  8
D-2
  6
Continuous
 62
     4
370
     9
100
AcDbLine
 10
80.8369654394927
 20
-12.32210879338507
 30
0.0
 11
68.71016490238333
 21
-12.32210879338507
 31
0.0
  0
LINE
  5
122
330
1F
100
AcDbEntity
  8
D-2
  6
Continuous
 62
     4
370
     9
100
AcDbLine
 10
80.8369654394927
 20
-9.83217959416632
 30
0.0
 11
68.71016490238333
 21
-9.83217959416632
 31
0.0
  0
LINE
  5
123
330
1F
100
AcDbEntity
  8
D-2
  6
Continuous
 62
     4
370
     9
100
AcDbLine
 10
68.71016490238333
 20
-11.52708010686163
 30
0.0
 11
68.71016490238333
 21
-12.32210879338507
 31
0.0
  0
LINE
  5
124
330
1F
100
AcDbEntity
  8
D-3
  6
Continuous
 62
     6
370
     5
100
AcDbLine
 10
130.0746668555083
 20
-10.30237917912726
 30
0.0
 11
130.0746668555083
 21
-14.95225100529913
 31
0.0
  0
LINE
  5
125
330
1F
100
AcDbEntity
  8
D-3
  6
Continuous
 62
     6
370
     5
100
AcDbLine
 10
141.4208124853911
 20
-14.95225100529913
 30
0.0
 11
132.4883021094146
 21
-6.019649076588195
 31
0.0
  0
LINE
  5
126
330
1F
100
AcDbEntity
  8
D-3
  6
Continuous
 62
     6
370
     5
100
AcDbLine
 10
135.7636469580474
 20
-14.95225100529913
 30
0.0
 11
130.8367060400786
 21
-10.02482180608038
 31
0.0
  0
LINE
  5
127
330
1F
100
AcDbEntity
  8
D-5
  6
Continuous
 62
     7
370
     9
100
AcDbLine
 10
185.091924545938
 20
78.52397580134149
 30
0.0
 11
185.091924545938
 21
-14.95225100529913
 31
0.0
  0
LINE
  5
128
330
1F
100
AcDbEntity
  8
D-5
  6
Continuous
 62
     7
370
     9
100
AcDbLine
 10
-136.3055897973237
 20
78.52397580134149
 30
0.0
 11
185.6918390967193
 21
78.52397580134149
 31
0.0
  0
LINE
  5
129
330
1F
100
AcDbEntity
  8
D-5
  6
Continuous
 62
     7
370
     9
100
AcDbLine
 10
136.4584864355865
 20
20.54779477106806
 30
0.0
 11
185.6918390967193
 21
20.54779477106806
 31
0.0
  0
LINE
  5
12A
330
1F
100
AcDbEntity
  8
D-1
  6
Continuous
 62
     2
370
     9
100
AcDbLine
 10
-176.2629643700776
 20
33.94774289118524
 30
0.0
 11
-176.2629643700776
 21
31.74756283747431
 31
0.0
  0
LINE
  5
12B
330
1F
100
AcDbEntity
  8
D-3
  6
Continuous
 62
     6
370
     5
100
AcDbLine
 10
-176.2629643700776
 20
163.4203686236071
 30
0.0
 11
-176.2629643700776
 21
39.94786496149774
 31
0.0
  0
LINE
  5
12C
330
1F
100
AcDbEntity
  8
D-3
  6
Continuous
 62
     6
370
     5
100
AcDbLine
 10
-171.6130925439057
 20
70.68526120173212
 30
0.0
 11
-176.2627660058198
 21
70.68526120173212
 31
0.0
  0
LINE
  5
12D
330
1F
100
AcDbEntity
  8
D-3
  6
Continuous
 62
     6
370
     5
100
AcDbLine
 10
-176.2627660058198
 20
82.03151364313837
 30
0.0
 11
-167.3304616234956
 21
73.09898800837274
 31
0.0
  0
LINE
  5
12E
330
1F
100
AcDbEntity
  8
D-3
  6
Continuous
 62
     6
370
     5
100
AcDbLine
 10
-176.2627660058198
 20
76.37453122126337
 30
0.0
 11
-171.3355275414643
 21
71.44740719782587
 31
0.0
  0
LINE
  5
12F
330
1F
100
AcDbEntity
  8
D-5
  6
Continuous
 62
     7
370
     9
100
AcDbLine
 10
-140.762926223105
 20
111.9055981157946
 30
0.0
 11
-140.762926223105
 21
81.21803708063837
 31
0.0
  0
LINE
  5
130
330
1F
100
AcDbEntity
  8
D-5
  6
Continuous
 62
     7
370
     9
100
AcDbLine
 10
137.9133814551177
 20
111.9055981157946
 30
0.0
 11
-176.2629643700776
 21
111.9055981157946
 31
0.0
  0
LINE
  5
131
330
1F
100
AcDbEntity
  8
D-5
  6
Continuous
 62
     7
370
     9
100
AcDbLine
 10
-176.2629643700776
 20
111.9055981157946
 30
0.0
 11
-176.2629643700776
 21
111.3054699419665
 31
0.0
  0
LINE
  5
132
330
1F
100
AcDbEntity
  8
D-5
  6
Continuous
 62
     7
370
     9
100
AcDbLine
 10
-237.1704503319917
 20
-14.95225100529913
 30
0.0
 11
-237.1704503319917
 21
36.94771237360712
 31
0.0
  0
LINE
  5
133
330
1F
100
AcDbEntity
  8
D-5
  6
Continuous
 62
     7
370
     9
100
AcDbLine
 10
-237.1704503319917
 20
-14.95225100529913
 30
0.0
 11
-138.5201398156343
 21
-14.95225100529913
 31
0.0
  0
LINE
  5
134
330
1F
100
AcDbEntity
  8
D-5
  6
Continuous
 62
     7
370
     9
100
AcDbLine
 10
-237.1704503319917
 20
36.94771237360712
 30
0.0
 11
-210.2636204980073
 21
36.94771237360712
 31
0.0
  0
LINE
  5
135
330
1F
100
AcDbEntity
  8
D-3
  6
Continuous
 62
     6
370
     5
100
AcDbLine
 10
-176.2629643700776
 20
141.5377087114977
 30
0.0
 11
-243.6999303124604
 21
74.10072751032587
 31
0.0
  0
LINE
  5
136
330
1F
100
AcDbEntity
  8
D-3
  6
Continuous
 62
     6
370
     5
100
AcDbLine
 10
-176.2629643700776
 20
147.1946606157946
 30
0.0
 11
-243.6999303124604
 21
79.75758786188837
 31
0.0
  0
LINE
  5
137
330
1F
100
AcDbEntity
  8
D-3
  6
Continuous
 62
     6
370
     5
100
AcDbLine
 10
-176.2629643700776
 20
152.8515209673571
 30
0.0
 11
-243.6999303124604
 21
85.41444821345087
 31
0.0
  0
LINE
  5
138
330
1F
100
AcDbEntity
  8
D-3
  6
Continuous
 62
     6
370
     5
100
AcDbLine
 10
-176.2629643700776
 20
-38.42597537053351
 30
0.0
 11
-243.6999303124604
 21
-105.8628421307874
 31
0.0
  0
LINE
  5
139
330
1F
100
AcDbEntity
  8
D-3
  6
Continuous
 62
     6
370
     5
100
AcDbLine
 10
-176.2629643700776
 20
-32.76900820744757
 30
0.0
 11
-243.6999303124604
 21
-100.2059817792249
 31
0.0
  0
LINE
  5
13A
330
1F
100
AcDbEntity
  8
D-3
  6
Continuous
 62
     6
370
     5
100
AcDbLine
 10
-176.2629643700776
 20
-27.11214785588507
 30
0.0
 11
-243.6999303124604
 21
-94.54911379826788
 31
0.0
  0
LINE
  5
13B
330
1F
100
AcDbEntity
  8
D-3
  6
Continuous
 62
     6
370
     5
100
AcDbLine
 10
-176.2629643700776
 20
32.94768185602899
 30
0.0
 11
-176.2629643700776
 21
-136.9521213055921
 31
0.0
  0
LINE
  5
13C
330
1F
100
AcDbEntity
  8
D-3
  6
Continuous
 62
     6
370
     5
100
AcDbLine
 10
199.2211054541411
 20
-14.95225100529913
 30
0.0
 11
99.33698069828176
 21
-14.95225100529913
 31
0.0
  0
LINE
  5
13D
330
1F
100
AcDbEntity
  8
D-5
  6
Continuous
 62
     7
370
     9
100
AcDbLine
 10
137.9132899023833
 20
111.9055981157946
 30
0.0
 11
137.9132899023833
 21
15.53929562556024
 31
0.0
  0
LINE
  5
13E
330
1F
100
AcDbEntity
  8
D-5
  6
Continuous
 62
     7
370
     9
100
AcDbLine
 10
96.33691966312551
 20
-93.60088686955694
 30
0.0
 11
-176.2629643700776
 21
-93.60088686955694
 31
0.0
  0
LINE
  5
13F
330
1F
100
AcDbEntity
  8
D-5
  6
Continuous
 62
     7
370
     9
100
AcDbLine
 10
96.33691966312551
 20
-45.66537051213507
 30
0.0
 11
96.33691966312551
 21
-94.20079379094366
 31
0.0
  0
LINE
  5
140
330
1F
100
AcDbEntity
  8
D-1
  6
Continuous
 62
     2
370
     9
100
AcDbLine
 10
-170.4159413598237
 20
73.97420163141962
 30
0.0
 11
-171.6131917260346
 21
70.68526120173212
 31
0.0
  0
LINE
  5
141
330
1F
100
AcDbEntity
  8
D-1
  6
Continuous
 62
     2
370
     9
100
AcDbLine
 10
-142.2631093285737
 20
63.72700924860712
 30
0.0
 11
-170.4159413598237
 21
73.97420163141962
 31
0.0
  0
LINE
  5
142
330
1F
100
AcDbEntity
  8
D-2
  6
Continuous
 62
     4
370
     9
100
AcDbLine
 10
68.71016490238333
 20
-11.52708010686163
 30
0.0
 11
-77.43904507381296
 21
-11.38210635197882
 31
0.0
  0
LINE
  5
143
330
1F
100
AcDbEntity
  8
D-3
  6
Continuous
 62
     6
370
     5
100
AcDbLine
 10
-152.0698186181245
 20
78.48088498102899
 30
0.0
 11
-176.2629643700776
 21
87.28566403376337
 31
0.0
  0
LINE
  5
144
330
1F
100
AcDbEntity
  8
D-3
  6
Continuous
 62
     6
370
     5
100
AcDbLine
 10
-176.2627660058198
 20
83.20497555720087
 30
0.0
 11
-173.271127822226
 21
86.19679684626337
 31
0.0
  0
LINE
  5
145
330
1F
100
AcDbEntity
  8
D-3
  6
Continuous
 62
     6
370
     5
100
AcDbLine
 10
-176.2627660058198
 20
77.54811520563837
 30
0.0
 11
-169.1235600732026
 21
84.68730587946649
 31
0.0
  0
LINE
  5
146
330
1F
100
AcDbEntity
  8
D-3
  6
Continuous
 62
     6
370
     5
100
AcDbLine
 10
-175.629755141562
 20
87.05516476618524
 30
0.0
 11
-163.7319661400971
 21
75.15715451227899
 31
0.0
  0
LINE
  5
147
330
1F
100
AcDbEntity
  8
D-3
  6
Continuous
 62
     6
370
     5
100
AcDbLine
 10
-161.632570388144
 20
75.20769162165399
 30
0.0
 11
-156.6812459252534
 21
80.15913815485712
 31
0.0
  0
LINE
  5
148
330
1F
100
AcDbEntity
  8
D-3
  6
Continuous
 62
     6
370
     5
100
AcDbLine
 10
-169.0283299706635
 20
73.46892209040399
 30
0.0
 11
-160.8287221215425
 21
81.66850705134149
 31
0.0
  0
LINE
  5
149
330
1F
100
AcDbEntity
  8
D-3
  6
Continuous
 62
     6
370
     5
100
AcDbLine
 10
-176.2627660058198
 20
71.89122433649774
 30
0.0
 11
-164.9763890526948
 21
83.17790646540399
 31
0.0
  0
LINE
  5
14A
330
1F
100
AcDbEntity
  8
D-3
  6
Continuous
 62
     6
370
     5
100
AcDbLine
 10
-166.7362920067964
 20
83.81847043024774
 30
0.0
 11
-156.119386794394
 21
73.20164914118524
 31
0.0
  0
LINE
  5
14B
330
1F
100
AcDbEntity
  8
D-3
  6
Continuous
 62
     6
370
     5
100
AcDbLine
 10
-157.4854909203706
 20
73.69792599665399
 30
0.0
 11
-155.0537358544526
 21
76.12987179743524
 31
0.0
  0
LINE
  5
14C
330
1F
100
AcDbEntity
  8
D-3
  6
Continuous
 62
     6
370
     5
100
AcDbLine
 10
-157.8427296899018
 20
80.58174557673212
 30
0.0
 11
-154.610094191855
 21
77.34923214899774
 31
0.0
  0
LINE
  5
14D
330
1F
100
AcDbEntity
  8
D-3
  6
Continuous
 62
     6
370
     5
100
AcDbLine
 10
137.8701838232818
 20
9.241093110911805
 30
0.0
 11
146.675161240274
 21
-14.95225100529913
 31
0.0
  0
LINE
  5
14E
330
1F
100
AcDbEntity
  8
D-3
  6
Continuous
 62
     6
370
     5
100
AcDbLine
 10
142.5942743994536
 20
-14.95225100529913
 30
0.0
 11
145.5862177588286
 21
-11.96030764592413
 31
0.0
  0
LINE
  5
14F
330
1F
100
AcDbEntity
  8
D-3
  6
Continuous
 62
     6
370
     5
100
AcDbLine
 10
136.9375056006255
 20
-14.95225100529913
 30
0.0
 11
144.0768183447661
 21
-7.81264834416632
 31
0.0
  0
LINE
  5
150
330
1F
100
AcDbEntity
  8
D-3
  6
Continuous
 62
     6
370
     5
100
AcDbLine
 10
146.4449671484771
 20
-14.31963686955694
 30
0.0
 11
134.5464838721099
 21
-2.421245145924132
 31
0.0
  0
LINE
  5
151
330
1F
100
AcDbEntity
  8
D-3
  6
Continuous
 62
     6
370
     5
100
AcDbLine
 10
132.8581141211333
 20
-7.718013334400695
 30
0.0
 11
141.0579279639068
 21
0.4820904253649303
 31
0.0
  0
LINE
  5
152
330
1F
100
AcDbEntity
  8
D-3
  6
Continuous
 62
     6
370
     5
100
AcDbLine
 10
131.280645249063
 20
-14.95225100529913
 30
0.0
 11
142.5674189307036
 21
-3.66537051213507
 31
0.0
  0
LINE
  5
153
330
1F
100
AcDbEntity
  8
D-3
  6
Continuous
 62
     6
370
     5
100
AcDbLine
 10
134.5970209814849
 20
-0.3219562054944447
 30
0.0
 11
139.5485285498443
 21
4.629475068919618
 31
0.0
  0
LINE
  5
154
330
1F
100
AcDbEntity
  8
D-3
  6
Continuous
 62
     6
370
     5
100
AcDbLine
 10
143.2081660010161
 20
-5.425975370533507
 30
0.0
 11
132.5906580664458
 21
5.191334199778993
 31
0.0
  0
LINE
  5
155
330
1F
100
AcDbEntity
  8
D-3
  6
Continuous
 62
     6
370
     5
100
AcDbLine
 10
133.0871180273833
 20
3.825123262278993
 30
0.0
 11
135.5192774512115
 21
6.257282686107118
 31
0.0
  0
LINE
  5
156
330
1F
100
AcDbEntity
  8
D-3
  6
Continuous
 62
     6
370
     5
100
AcDbLine
 10
139.9713648535552
 20
3.467792940013368
 30
0.0
 11
136.7180231787505
 21
6.720936250560243
 31
0.0
  0
LINE
  5
157
330
1F
100
AcDbEntity
  8
D-1
  6
Continuous
 62
     2
370
     9
100
AcDbLine
 10
-171.6629353783784
 20
36.44768185602899
 30
0.0
 11
-171.6629353783784
 21
37.44763607966181
 31
0.0
  0
LINE
  5
158
330
1F
100
AcDbEntity
  8
D-1
  6
Continuous
 62
     2
370
     9
100
AcDbLine
 10
-174.263055922812
 20
42.05192990290399
 30
0.0
 11
-173.4633733056245
 21
42.05192990290399
 31
0.0
  0
LINE
  5
159
330
1F
100
AcDbEntity
  8
D-1
  6
Continuous
 62
     2
370
     9
100
AcDbLine
 10
-173.4633733056245
 20
30.94768185602899
 30
0.0
 11
-173.4633733056245
 21
42.05192990290399
 31
0.0
  0
LINE
  5
15A
330
1F
100
AcDbEntity
  8
D-1
  6
Continuous
 62
     2
370
     9
100
AcDbLine
 10
-174.263055922812
 20
42.05192990290399
 30
0.0
 11
-174.263055922812
 21
30.44765133845087
 31
0.0
  0
LINE
  5
15B
330
1F
100
AcDbEntity
  8
D-1
  6
Continuous
 62
     2
370
     9
100
AcDbLine
 10
95.83679759281301
 20
-10.35212283147101
 30
0.0
 11
96.83695018070364
 21
-10.35212283147101
 31
0.0
  0
LINE
  5
15C
330
1F
100
AcDbEntity
  8
D-1
  6
Continuous
 62
     2
370
     9
100
AcDbLine
 10
101.4411371924224
 20
-12.95214419377569
 30
0.0
 11
101.4411371924224
 21
-12.15235476506476
 31
0.0
  0
LINE
  5
15D
330
1F
100
AcDbEntity
  8
D-1
  6
Continuous
 62
     2
370
     9
100
AcDbLine
 10
90.33698069828176
 20
-12.15235476506476
 30
0.0
 11
101.4411371924224
 21
-12.15235476506476
 31
0.0
  0
LINE
  5
15E
330
1F
100
AcDbEntity
  8
D-1
  6
Continuous
 62
     2
370
     9
100
AcDbLine
 10
101.4411371924224
 20
-12.95214419377569
 30
0.0
 11
89.8369654394927
 21
-12.95214419377569
 31
0.0
  0
LINE
  5
15F
330
1F
100
AcDbEntity
  8
D-4
  6
Continuous
 62
     7
370
     9
100
AcDbLine
 10
-57.9839688561616
 20
143.6015209673571
 30
0.0
 11
-134.3673154137788
 21
143.6015209673571
 31
0.0
  0
LINE
  5
160
330
1F
100
AcDbEntity
  8
D-4
  6
Continuous
 62
     7
370
     9
100
AcDbLine
 10
67.29283702152395
 20
143.0991100786852
 30
0.0
 11
245.8092402197661
 21
143.0991100786852
 31
0.0
  0
LINE
  5
161
330
1F
100
AcDbEntity
  8
D-4
  6
Continuous
 62
     7
370
     9
100
AcDbLine
 10
-10.97062123042917
 20
20.04765744196649
 30
0.0
 11
67.29283702152395
 21
143.0991100786852
 31
0.0
  0
LINE
  5
162
330
1F
100
AcDbEntity
  8
D-4
  6
Continuous
 62
     7
370
     9
100
AcDbLine
 10
110.1140192725005
 20
122.9196667193102
 30
0.0
 11
110.1140192725005
 21
122.3196606157946
 31
0.0
  0
LINE
  5
163
330
1F
100
AcDbEntity
  8
D-4
  6
Continuous
 62
     7
370
     9
100
AcDbLine
 10
229.1095637060943
 20
122.9196667193102
 30
0.0
 11
110.1140192725005
 21
122.9196667193102
 31
0.0
  0
LINE
  5
164
330
1F
100
AcDbEntity
  8
D-4
  6
Continuous
 62
     7
370
     9
100
AcDbLine
 10
110.1140192725005
 20
122.9196667193102
 30
0.0
 11
36.06799876468801
 21
6.547626924388368
 31
0.0
  0
LINE
  5
165
330
1F
100
AcDbEntity
  8
D-4
  6
Continuous
 62
     7
370
     9
100
AcDbLine
 10
99.21985423343801
 20
-23.15008120549444
 30
0.0
 11
136.6012934424224
 21
-68.96112399113898
 31
0.0
  0
LINE
  5
166
330
1F
100
AcDbEntity
  8
D-4
  6
Continuous
 62
     7
370
     9
100
AcDbLine
 10
-169.0179234765229
 20
83.58510251032587
 30
0.0
 11
-134.3673154137788
 21
143.6015209673571
 31
0.0
  0
LINE
  5
167
330
1F
100
AcDbEntity
  8
D-4
  6
Continuous
 62
     7
370
     9
100
AcDbLine
 10
-72.41063130122996
 20
-116.6689715863538
 30
0.0
 11
-104.8881150506196
 21
-49.70383791936163
 31
0.0
  0
LINE
  5
168
330
1F
100
AcDbEntity
  8
D-4
  6
Continuous
 62
     7
370
     9
100
AcDbLine
 10
-169.0179234765229
 20
83.58510251032587
 30
0.0
 11
-167.1044255517182
 21
88.20454831110712
 31
0.0
  0
LINE
  5
169
330
1F
100
AcDbEntity
  8
D-4
  6
Continuous
 62
     7
370
     9
100
AcDbLine
 10
-169.0179234765229
 20
83.58510251032587
 30
0.0
 11
-165.9739629052339
 21
87.55189938532587
 31
0.0
  0
LINE
  5
16A
330
1F
100
AcDbEntity
  8
D-4
  6
Continuous
 62
     7
370
     9
100
AcDbLine
 10
-10.97062123042917
 20
20.04765744196649
 30
0.0
 11
-8.861017348593236
 21
24.58079953181024
 31
0.0
  0
LINE
  5
16B
330
1F
100
AcDbEntity
  8
D-4
  6
Continuous
 62
     7
370
     9
100
AcDbLine
 10
-10.97062123042917
 20
20.04765744196649
 30
0.0
 11
-7.759584548300268
 21
23.88031430231806
 31
0.0
  0
LINE
  5
16C
330
1F
100
AcDbEntity
  8
D-4
  6
Continuous
 62
     7
370
     9
100
AcDbLine
 10
36.06799876468801
 20
6.547626924388368
 30
0.0
 11
38.17849528568411
 21
11.08037228571649
 31
0.0
  0
LINE
  5
16D
330
1F
100
AcDbEntity
  8
D-4
  6
Continuous
 62
     7
370
     9
100
AcDbLine
 10
36.06799876468801
 20
6.547626924388368
 30
0.0
 11
39.27972209232473
 21
10.37978024470087
 31
0.0
  0
LINE
  5
16E
330
1F
100
AcDbEntity
  8
D-4
  6
Continuous
 62
     7
370
     9
100
AcDbLine
 10
99.21985423343801
 20
-23.15008120549444
 30
0.0
 11
102.8595637060943
 21
-26.57822756779913
 31
0.0
  0
LINE
  5
16F
330
1F
100
AcDbEntity
  8
D-4
  6
Continuous
 62
     7
370
     9
100
AcDbLine
 10
99.21985423343801
 20
-23.15008120549444
 30
0.0
 11
101.8483179785552
 21
-27.40337710393194
 31
0.0
  0
LINE
  5
170
330
1F
100
AcDbEntity
  8
D-4
  6
Continuous
 62
     7
370
     9
100
AcDbLine
 10
-104.8881150506196
 20
-49.70383791936163
 30
0.0
 11
-102.1377679131684
 21
-53.87925295842413
 31
0.0
  0
LINE
  5
171
330
1F
100
AcDbEntity
  8
D-4
  6
Continuous
 62
     7
370
     9
100
AcDbLine
 10
-104.8881150506196
 20
-49.70383791936163
 30
0.0
 11
-103.3122254632173
 21
-54.44893984807257
 31
0.0
  0
LINE
  5
172
330
1F
100
AcDbEntity
  8
D-3
  6
Continuous
 62
     6
370
     5
100
AcDbLine
 10
113.2672785498443
 20
-14.95225100529913
 30
0.0
 11
100.3369349219146
 21
-27.88259463322882
 31
0.0
  0
LINE
  5
173
330
1F
100
AcDbEntity
  8
D-3
  6
Continuous
 62
     6
370
     5
100
AcDbLine
 10
118.9242457129302
 20
-14.95225100529913
 30
0.0
 11
100.3369349219146
 21
-33.53947024358038
 31
0.0
  0
LINE
  5
174
330
1F
100
AcDbEntity
  8
D-0
  6
Continuous
 62
     3
370
     9
100
AcDbLine
 10
-142.2631093285737
 20
73.14735836970087
 30
0.0
 11
-142.2631093285737
 21
63.72700924860712
 31
0.0
  0
LINE
  5
175
330
1F
100
AcDbEntity
  8
D-1
  6
Continuous
 62
     2
370
     9
100
AcDbLine
 10
-149.2599202416596
 20
52.61710019098993
 30
0.0
 11
-149.2602177880464
 21
56.61693234431024
 31
0.0
  0
LINE
  5
176
330
1F
100
AcDbEntity
  8
D-1
  6
Continuous
 62
     2
370
     9
100
AcDbLine
 10
-140.159841658896
 20
55.11694760309931
 30
0.0
 11
-138.6596623681245
 21
55.11694760309931
 31
0.0
  0
LINE
  5
177
330
1F
100
AcDbEntity
  8
D-1
  6
Continuous
 62
     2
370
     9
100
AcDbLine
 10
-140.159841658896
 20
54.11679501520868
 30
0.0
 11
-140.159841658896
 21
55.11694760309931
 31
0.0
  0
LINE
  5
178
330
1F
100
AcDbEntity
  8
D-1
  6
Continuous
 62
     2
370
     9
100
AcDbLine
 10
-138.6599599145112
 20
54.11708493220087
 30
0.0
 11
-140.159841658896
 21
54.11679501520868
 31
0.0
  0
LINE
  5
179
330
1F
100
AcDbEntity
  8
D-1
  6
Continuous
 62
     2
370
     9
100
AcDbLine
 10
-141.259882094687
 20
51.11731381403681
 30
0.0
 11
-139.7633687279878
 21
51.11691708552118
 31
0.0
  0
LINE
  5
17A
330
1F
100
AcDbEntity
  8
D-1
  6
Continuous
 62
     2
370
     9
100
AcDbLine
 10
-141.259882094687
 20
58.11661190973993
 30
0.0
 11
-139.7633687279878
 21
58.11670346247431
 31
0.0
  0
LINE
  5
17B
330
1F
100
AcDbEntity
  8
D-1
  6
Continuous
 62
     2
370
     9
100
AcDbLine
 10
-138.6598607323823
 20
57.01349301325556
 30
0.0
 11
-138.660158278769
 21
52.22043271052118
 31
0.0
  0
LINE
  5
17C
330
1F
100
AcDbEntity
  8
D-1
  6
Continuous
 62
     2
370
     9
100
AcDbLine
 10
-149.2600194237885
 20
53.31700558649774
 30
0.0
 11
-141.259882094687
 21
53.31680722223993
 31
0.0
  0
LINE
  5
17D
330
1F
100
AcDbEntity
  8
D-1
  6
Continuous
 62
     2
370
     9
100
AcDbLine
 10
-141.259882094687
 20
55.91692013727899
 30
0.0
 11
-149.2599202416596
 21
55.91663022028681
 31
0.0
  0
LINE
  5
17E
330
1F
100
AcDbEntity
  8
D-1
  6
Continuous
 62
     2
370
     9
100
AcDbLine
 10
-141.2600804589448
 20
56.61693234431024
 30
0.0
 11
-149.2602177880464
 21
56.61693234431024
 31
0.0
  0
LINE
  5
17F
330
1F
100
AcDbEntity
  8
D-1
  6
Continuous
 62
     2
370
     9
100
AcDbLine
 10
-149.2599202416596
 20
52.61710019098993
 30
0.0
 11
-141.2596837304292
 21
52.61710019098993
 31
0.0
  0
LINE
  5
180
330
1F
100
AcDbEntity
  8
D-1
  6
JWW_CENTER1
 62
     2
370
     9
100
AcDbLine
 10
-137.2629376671968
 20
54.54784054743524
 30
0.0
 11
-150.7601033471284
 21
54.54784054743524
 31
0.0
  0
LINE
  5
181
330
1F
100
AcDbEntity
  8
D-1
  6
Continuous
 62
     2
370
     9
100
AcDbLine
 10
116.5444086767974
 20
12.05099911677118
 30
0.0
 11
112.5445917822661
 21
12.05060238825556
 31
0.0
  0
LINE
  5
182
330
1F
100
AcDbEntity
  8
D-1
  6
Continuous
 62
     2
370
     9
100
AcDbLine
 10
114.0445765234771
 20
21.15097470270868
 30
0.0
 11
114.0446680762115
 21
22.65115780817743
 31
0.0
  0
LINE
  5
183
330
1F
100
AcDbEntity
  8
D-1
  6
Continuous
 62
     2
370
     9
100
AcDbLine
 10
115.0448206641021
 20
21.15097470270868
 30
0.0
 11
114.0445765234771
 21
21.15097470270868
 31
0.0
  0
LINE
  5
184
330
1F
100
AcDbEntity
  8
D-1
  6
Continuous
 62
     2
370
     9
100
AcDbLine
 10
115.0445307471099
 20
22.65085263239618
 30
0.0
 11
115.0448206641021
 21
21.15097470270868
 31
0.0
  0
LINE
  5
185
330
1F
100
AcDbEntity
  8
D-1
  6
Continuous
 62
     2
370
     9
100
AcDbLine
 10
118.044301865274
 20
20.05093808161493
 30
0.0
 11
118.0445917822661
 21
21.54744381891962
 31
0.0
  0
LINE
  5
186
330
1F
100
AcDbEntity
  8
D-1
  6
Continuous
 62
     2
370
     9
100
AcDbLine
 10
111.0450037695708
 20
20.05093808161493
 30
0.0
 11
111.044805405313
 21
21.54744381891962
 31
0.0
  0
LINE
  5
187
330
1F
100
AcDbEntity
  8
D-1
  6
Continuous
 62
     2
370
     9
100
AcDbLine
 10
112.1480158545318
 20
22.65095944391962
 30
0.0
 11
116.9411829687896
 21
22.65065426813837
 31
0.0
  0
LINE
  5
188
330
1F
100
AcDbEntity
  8
D-1
  6
Continuous
 62
     2
370
     9
100
AcDbLine
 10
115.844610092813
 20
12.05080075251337
 30
0.0
 11
115.8448084570708
 21
20.05093808161493
 31
0.0
  0
LINE
  5
189
330
1F
100
AcDbEntity
  8
D-1
  6
Continuous
 62
     2
370
     9
100
AcDbLine
 10
113.2446955420318
 20
20.05093808161493
 30
0.0
 11
113.244985459024
 21
12.05089230524774
 31
0.0
  0
LINE
  5
18A
330
1F
100
AcDbEntity
  8
D-1
  6
Continuous
 62
     2
370
     9
100
AcDbLine
 10
112.5445917822661
 20
20.05073971735712
 30
0.0
 11
112.5445917822661
 21
12.05060238825556
 31
0.0
  0
LINE
  5
18B
330
1F
100
AcDbEntity
  8
D-1
  6
Continuous
 62
     2
370
     9
100
AcDbLine
 10
116.5444086767974
 20
12.05099911677118
 30
0.0
 11
116.5445154883208
 21
20.05113644587274
 31
0.0
  0
LINE
  5
18C
330
1F
100
AcDbEntity
  8
D-1
  6
JWW_CENTER1
 62
     2
370
     9
100
AcDbLine
 10
114.6137751318755
 20
24.04788632380243
 30
0.0
 11
114.6137751318755
 21
10.55070919977899
 31
0.0
  0
LINE
  5
18D
330
1F
100
AcDbEntity
  8
D-0
  6
Continuous
 62
     3
370
     9
100
AcDbLine
 10
132.5365656592193
 20
19.04770321833368
 30
0.0
 11
116.5445154883208
 21
19.04770321833368
 31
0.0
  0
LINE
  5
18E
330
1F
100
AcDbEntity
  8
D-0
  6
Continuous
 62
     3
370
     9
100
AcDbLine
 10
112.5445917822661
 20
19.04770321833368
 30
0.0
 11
-61.26317799312449
 21
19.04770321833368
 31
0.0
  0
LINE
  5
18F
330
1F
100
AcDbEntity
  8
D-1
  6
Continuous
 62
     2
370
     9
100
AcDbLine
 10
120.8476618506255
 20
15.04779477106806
 30
0.0
 11
116.5445154883208
 21
15.04779477106806
 31
0.0
  0
LINE
  5
190
330
1F
100
AcDbEntity
  8
D-1
  6
Continuous
 62
     2
370
     9
100
AcDbLine
 10
112.5445917822661
 20
15.04779477106806
 30
0.0
 11
110.1592005469146
 21
15.04779477106806
 31
0.0
  0
LINE
  5
191
330
1F
100
AcDbEntity
  8
D-1
  6
Continuous
 62
     2
370
     9
100
AcDbLine
 10
-142.2631093285737
 20
63.72700924860712
 30
0.0
 11
-142.2631093285737
 21
56.61693234431024
 31
0.0
  0
LINE
  5
192
330
1F
100
AcDbEntity
  8
D-1
  6
Continuous
 62
     2
370
     9
100
AcDbLine
 10
-142.2631093285737
 20
52.61710019098993
 30
0.0
 11
-142.2631093285737
 21
6.54782528864618
 31
0.0
  0
LINE
  5
193
330
1F
100
AcDbEntity
  8
D-1
  6
Continuous
 62
     2
370
     9
100
AcDbLine
 10
-145.7630025170503
 20
61.27641720759149
 30
0.0
 11
-145.7630025170503
 21
56.61693234431024
 31
0.0
  0
LINE
  5
194
330
1F
100
AcDbEntity
  8
D-1
  6
Continuous
 62
     2
370
     9
100
AcDbLine
 10
-145.7630025170503
 20
52.61710019098993
 30
0.0
 11
-145.7630025170503
 21
50.76999325739618
 31
0.0
  0
LINE
  5
195
330
1F
100
AcDbEntity
  8
D-4
  6
Continuous
 62
     7
370
     9
100
AcDbLine
 10
117.4821375586333
 20
22.25268979059931
 30
0.0
 11
119.5925348975005
 21
26.78545041071649
 31
0.0
  0
LINE
  5
196
330
1F
100
AcDbEntity
  8
D-4
  6
Continuous
 62
     7
370
     9
100
AcDbLine
 10
117.4821375586333
 20
22.25268979059931
 30
0.0
 11
120.6938685156646
 21
26.08485836970087
 31
0.0
  0
LINE
  5
197
330
1F
100
AcDbEntity
  8
D-0
  6
Continuous
 62
     3
370
     9
100
AcDbLine
 10
-141.2630521081147
 20
73.14735836970087
 30
0.0
 11
-141.2630521081147
 21
11.04776425348993
 31
0.0
  0
LINE
  5
198
330
1F
100
AcDbEntity
  8
D-0
  6
Continuous
 62
     3
370
     9
100
AcDbLine
 10
132.5365656592193
 20
20.04776425348993
 30
0.0
 11
-61.26317799312449
 21
20.04776425348993
 31
0.0
  0
LINE
  5
199
330
1F
100
AcDbEntity
  8
D-4
  6
Continuous
 62
     7
370
     9
100
AcDbLine
 10
165.1201685644927
 20
97.12160153376337
 30
0.0
 11
117.4822291113677
 21
22.25279660212274
 31
0.0
  0
ARC
  5
19A
330
1F
100
AcDbEntity
  8
D-1
  6
Continuous
 62
     2
370
     9
100
AcDbCircle
 10
101.4411371924224
 20
-10.95223574651007
 30
0.0
 40
2.0
100
AcDbArc
 50
270.0
 51
16.12762451171876
  0
ARC
  5
19B
330
1F
100
AcDbEntity
  8
D-2
  6
Continuous
 62
     4
370
     9
100
AcDbCircle
 10
-126.2631322167573
 20
-14.95225100529913
 30
0.0
 40
40.0
100
AcDbArc
 50
178.9539184570313
 51
338.4353942871094
  0
ARC
  5
19C
330
1F
100
AcDbEntity
  8
D-0
  6
Continuous
 62
     3
370
     9
100
AcDbCircle
 10
-140.2631970666108
 20
11.04776425348993
 30
0.0
 40
2.0
100
AcDbArc
 50
180.0000305175781
 51
270.0
  0
ARC
  5
19D
330
1F
100
AcDbEntity
  8
D-0
  6
Continuous
 62
     3
370
     9
100
AcDbCircle
 10
-140.2631970666108
 20
11.04776425348993
 30
0.0
 40
1.0
100
AcDbArc
 50
180.0000305175781
 51
270.0
  0
ARC
  5
19E
330
1F
100
AcDbEntity
  8
D-1
  6
Continuous
 62
     2
370
     9
100
AcDbCircle
 10
-162.1015797875581
 20
72.55516476618524
 30
0.0
 40
2.999999761581421
100
AcDbArc
 50
99.92642211914062
 51
130.0737762451172
  0
ARC
  5
19F
330
1F
100
AcDbEntity
  8
D-1
  6
Continuous
 62
     2
370
     9
100
AcDbCircle
 10
-160.4101506493745
 20
71.93938107477899
 30
0.0
 40
2.999999761581421
100
AcDbArc
 50
9.926223754882812
 51
40.07353210449219
  0
ARC
  5
1A0
330
1F
100
AcDbEntity
  8
D-1
  6
Continuous
 62
     2
370
     9
100
AcDbCircle
 10
96.33691966312551
 20
-13.30224185002569
 30
0.0
 40
4.449995040893555
100
AcDbArc
 50
14.9766845703125
 51
165.0232849121094
  0
ARC
  5
1A1
330
1F
100
AcDbEntity
  8
D-2
  6
Continuous
 62
     4
370
     9
100
AcDbCircle
 10
-126.2631322167573
 20
-14.95225100529913
 30
0.0
 40
40.90000152587891
100
AcDbArc
 50
178.9539184570313
 51
338.4353942871094
  0
ARC
  5
1A2
330
1F
100
AcDbEntity
  8
D-1
  6
Continuous
 62
     2
370
     9
100
AcDbCircle
 10
105.1592310644927
 20
7.547871065013368
 30
0.0
 40
1.49999988079071
100
AcDbArc
 50
197.5879821777344
 51
359.999984741211
  0
ARC
  5
1A3
330
1F
100
AcDbEntity
  8
D-1
  6
Continuous
 62
     2
370
     9
100
AcDbCircle
 10
-152.7631779931245
 20
45.76991696345087
 30
0.0
 40
1.49999988079071
100
AcDbArc
 50
89.99966430664062
 51
270.0000610351563
  0
ARC
  5
1A4
330
1F
100
AcDbEntity
  8
D-2
  6
Continuous
 62
     4
370
     9
100
AcDbCircle
 10
-77.44380152446604
 20
-16.30746035588507
 30
0.0
 40
5.0
100
AcDbArc
 50
89.94308471679688
 51
158.4354858398437
  0
ARC
  5
1A5
330
1F
100
AcDbEntity
  8
D-1
  6
Continuous
 62
     2
370
     9
100
AcDbCircle
 10
-147.7632085107026
 20
41.77000851618524
 30
0.0
 40
1.0
100
AcDbArc
 50
269.9997863769531
 51
90.00003051757814
  0
ARC
  5
1A6
330
1F
100
AcDbEntity
  8
D-1
  6
Continuous
 62
     2
370
     9
100
AcDbCircle
 10
80.8369654394927
 20
-13.95218997014288
 30
0.0
 40
1.0
100
AcDbArc
 50
89.99932861328125
 51
270.0
  0
ARC
  5
1A7
330
1F
100
AcDbEntity
  8
D-1
  6
Continuous
 62
     2
370
     9
100
AcDbCircle
 10
111.1593531348052
 20
1.037907075755555
 30
0.0
 40
1.0
100
AcDbArc
 50
180.0000305175781
 51
270.0
  0
ARC
  5
1A8
330
1F
100
AcDbEntity
  8
D-1
  6
Continuous
 62
     2
370
     9
100
AcDbCircle
 10
101.1591089941802
 20
13.04777951227899
 30
0.0
 40
1.0
100
AcDbArc
 50
359.999984741211
 51
180.0
  0
ARC
  5
1A9
330
1F
100
AcDbEntity
  8
D-1
  6
Continuous
 62
     2
370
     9
100
AcDbCircle
 10
112.1592158057036
 20
-10.95223574651007
 30
0.0
 40
2.0
100
AcDbArc
 50
270.0
 51
90.00003051757812
  0
ARC
  5
1AA
330
1F
100
AcDbEntity
  8
D-1
  6
Continuous
 62
     2
370
     9
100
AcDbCircle
 10
112.1592158057036
 20
-5.452128934986632
 30
0.0
 40
7.499999046325684
100
AcDbArc
 50
137.1665802001953
 51
270.0
  0
ARC
  5
1AB
330
1F
100
AcDbEntity
  8
D-1
  6
Continuous
 62
     2
370
     9
100
AcDbCircle
 10
112.1592158057036
 20
-5.452128934986632
 30
0.0
 40
3.5
100
AcDbArc
 50
94.33219909667969
 51
270.0
  0
ARC
  5
1AC
330
1F
100
AcDbEntity
  8
D-1
  6
Continuous
 62
     2
370
     9
100
AcDbCircle
 10
80.71201121585989
 20
-8.32723574651007
 30
0.0
 40
0.875
100
AcDbArc
 50
90.0
 51
270.0
  0
ARC
  5
1AD
330
1F
100
AcDbEntity
  8
D-0
  6
Continuous
 62
     3
370
     9
100
AcDbCircle
 10
-61.26317799312449
 20
18.04774899470087
 30
0.0
 40
2.0
100
AcDbArc
 50
90.00003051757812
 51
180.0
  0
ARC
  5
1AE
330
1F
100
AcDbEntity
  8
D-0
  6
Continuous
 62
     3
370
     9
100
AcDbCircle
 10
-61.26317799312449
 20
18.04774899470087
 30
0.0
 40
1.0
100
AcDbArc
 50
90.00003051757812
 51
180.0
  0
ARC
  5
1AF
330
1F
100
AcDbEntity
  8
D-0
  6
Continuous
 62
     3
370
     9
100
AcDbCircle
 10
131.3788508154693
 20
3.685993623607118
 30
0.0
 40
2.0
100
AcDbArc
 50
109.9998168945312
 51
199.9999694824219
  0
ARC
  5
1B0
330
1F
100
AcDbEntity
  8
D-0
  6
Continuous
 62
     3
370
     9
100
AcDbCircle
 10
135.9907740332427
 20
8.55704159723993
 30
0.0
 40
2.0
100
AcDbArc
 50
289.9997863769531
 51
19.99998474121094
  0
ARC
  5
1B1
330
1F
100
AcDbEntity
  8
D-0
  6
Continuous
 62
     3
370
     9
100
AcDbCircle
 10
131.3784540869536
 20
3.685993623607118
 30
0.0
 40
1.0
100
AcDbArc
 50
109.9996490478516
 51
199.9994201660156
  0
ARC
  5
1B2
330
1F
100
AcDbEntity
  8
D-0
  6
Continuous
 62
     3
370
     9
100
AcDbCircle
 10
135.9907740332427
 20
8.55704159723993
 30
0.0
 40
1.0
100
AcDbArc
 50
289.9996795654297
 51
20.00053405761721
  0
ARC
  5
1B3
330
1F
100
AcDbEntity
  8
D-0
  6
Continuous
 62
     3
370
     9
100
AcDbCircle
 10
132.5365656592193
 20
18.04774899470087
 30
0.0
 40
1.0
100
AcDbArc
 50
20.00019836425781
 51
89.99996948242189
  0
ARC
  5
1B4
330
1F
100
AcDbEntity
  8
D-0
  6
Continuous
 62
     3
370
     9
100
AcDbCircle
 10
132.5365656592193
 20
18.04774899470087
 30
0.0
 40
2.0
100
AcDbArc
 50
19.99981689453125
 51
89.99996948242186
  0
ARC
  5
1B5
330
1F
100
AcDbEntity
  8
D-1
  6
Continuous
 62
     2
370
     9
100
AcDbCircle
 10
110.0870722510161
 20
-8.452098417408507
 30
0.0
 40
7.0
100
AcDbArc
 50
180.0000305175781
 51
196.1276245117188
  0
ARC
  5
1B6
330
1F
100
AcDbEntity
  8
D-0
  6
Continuous
 62
     3
370
     9
100
AcDbCircle
 10
-157.6250172875581
 20
71.98982663141962
 30
0.0
 40
2.0
100
AcDbArc
 50
250.0000610351562
 51
339.9996643066406
  0
ARC
  5
1B7
330
1F
100
AcDbEntity
  8
D-0
  6
Continuous
 62
     3
370
     9
100
AcDbCircle
 10
-152.7537709496675
 20
76.60145993220087
 30
0.0
 40
2.0
100
AcDbArc
 50
69.99986267089844
 51
160.000228881836
  0
ARC
  5
1B8
330
1F
100
AcDbEntity
  8
D-0
  6
Continuous
 62
     3
370
     9
100
AcDbCircle
 10
-157.6250172875581
 20
71.98982663141962
 30
0.0
 40
1.0
100
AcDbArc
 50
250.0006103515625
 51
339.9998321533204
  0
ARC
  5
1B9
330
1F
100
AcDbEntity
  8
D-0
  6
Continuous
 62
     3
370
     9
100
AcDbCircle
 10
-152.7537709496675
 20
76.60145993220087
 30
0.0
 40
1.0
100
AcDbArc
 50
69.99931335449219
 51
160.0003356933594
  0
ARC
  5
1BA
330
1F
100
AcDbEntity
  8
D-0
  6
Continuous
 62
     3
370
     9
100
AcDbCircle
 10
-143.2630635522065
 20
73.14735836970087
 30
0.0
 40
1.0
100
AcDbArc
 50
0.0000457763671875
 51
69.99981689453125
  0
ARC
  5
1BB
330
1F
100
AcDbEntity
  8
D-0
  6
Continuous
 62
     3
370
     9
100
AcDbCircle
 10
-143.2630635522065
 20
73.14735836970087
 30
0.0
 40
2.0
100
AcDbArc
 50
0.0000457763671875
 51
70.00019836425781
  0
ARC
  5
1BC
330
1F
100
AcDbEntity
  8
D-0
  6
Continuous
 62
     3
370
     9
100
AcDbCircle
 10
14.93704783695364
 20
11.04776425348993
 30
0.0
 40
2.0
100
AcDbArc
 50
270.0
 51
359.999984741211
  0
ARC
  5
1BD
330
1F
100
AcDbEntity
  8
D-0
  6
Continuous
 62
     3
370
     9
100
AcDbCircle
 10
14.93704783695364
 20
11.04776425348993
 30
0.0
 40
1.0
100
AcDbArc
 50
270.0
 51
359.999984741211
  0
ARC
  5
1BE
330
1F
100
AcDbEntity
  8
D-1
  6
Continuous
 62
     2
370
     9
100
AcDbCircle
 10
104.0869349219146
 20
-8.452098417408507
 30
0.0
 40
1.0
100
AcDbArc
 50
0.0
 51
180.0
  0
ARC
  5
1BF
330
1F
100
AcDbEntity
  8
D-1
  6
Continuous
 62
     2
370
     9
100
AcDbCircle
 10
131.3282068945708
 20
0.9008678911852428
 30
0.0
 40
2.999999761581421
100
AcDbArc
 50
49.92643737792969
 51
80.07379150390625
  0
ARC
  5
1C0
330
1F
100
AcDbEntity
  8
D-1
  6
Continuous
 62
     2
370
     9
100
AcDbCircle
 10
131.9438837744536
 20
-0.7905688763928822
 30
0.0
 40
2.999999761581421
100
AcDbArc
 50
319.9262237548828
 51
350.0735321044922
  0
ARC
  5
1C1
330
1F
100
AcDbEntity
  8
D-1
  6
Continuous
 62
     2
370
     9
100
AcDbCircle
 10
115.0024164892974
 20
-10.69388918889288
 30
0.0
 40
2.25
100
AcDbArc
 50
267.6295013427734
 51
107.6295623779297
  0
ARC
  5
1C2
330
1F
100
AcDbEntity
  8
D-1
  6
Continuous
 62
     2
370
     9
100
AcDbCircle
 10
113.3368433691802
 20
-5.452128934986632
 30
0.0
 40
3.249999523162842
100
AcDbArc
 50
270.0
 51
287.6294860839844
  0
ARC
  5
1C3
330
1F
100
AcDbEntity
  8
D-1
  6
Continuous
 62
     2
370
     9
100
AcDbCircle
 10
111.337041733438
 20
-7.702159452564757
 30
0.0
 40
1.0
100
AcDbArc
 50
180.0000305175781
 51
270.0
  0
ARC
  5
1C4
330
1F
100
AcDbEntity
  8
D-1
  6
Continuous
 62
     2
370
     9
100
AcDbCircle
 10
111.337041733438
 20
-6.452189970142882
 30
0.0
 40
1.0
100
AcDbArc
 50
89.99917602539061
 51
180.0000305175782
  0
ARC
  5
1C5
330
1F
100
AcDbEntity
  8
D-1
  6
Continuous
 62
     2
370
     9
100
AcDbCircle
 10
115.0868433691802
 20
-10.20218997014288
 30
0.0
 40
4.75
100
AcDbArc
 50
359.999984741211
 51
90.00003051757812
  0
ARC
  5
1C6
330
1F
100
AcDbEntity
  8
D-1
  6
Continuous
 62
     2
370
     9
100
AcDbCircle
 10
110.0870722510161
 20
-8.452098417408507
 30
0.0
 40
5.0
100
AcDbArc
 50
180.0000305175781
 51
244.1580657958984
  0
ARC
  5
1C7
330
1F
100
AcDbEntity
  8
D-1
  6
Continuous
 62
     2
370
     9
100
AcDbCircle
 10
-165.0130482934175
 20
55.26994748102899
 30
0.0
 40
1.0
100
AcDbArc
 50
90.0
 51
270.0
  0
ARC
  5
1C8
330
1F
100
AcDbEntity
  8
D-1
  6
Continuous
 62
     2
370
     9
100
AcDbCircle
 10
114.6591547705474
 20
-3.70223574651007
 30
0.0
 40
1.0
100
AcDbArc
 50
180.0
 51
0.0
  0
ARC
  5
1C9
330
1F
100
AcDbEntity
  8
D-1
  6
Continuous
 62
     2
370
     9
100
AcDbCircle
 10
-169.7630101464448
 20
50.69775814997431
 30
0.0
 40
5.0
100
AcDbArc
 50
205.8419494628907
 51
269.999984741211
  0
ARC
  5
1CA
330
1F
100
AcDbEntity
  8
D-1
  6
Continuous
 62
     2
370
     9
100
AcDbCircle
 10
-171.5132085107026
 20
55.69772763239618
 30
0.0
 40
4.75
100
AcDbArc
 50
359.999984741211
 51
90.00003051757812
  0
ARC
  5
1CB
330
1F
100
AcDbEntity
  8
D-1
  6
Continuous
 62
     2
370
     9
100
AcDbCircle
 10
-167.7630025170503
 20
51.94772763239618
 30
0.0
 40
1.0
100
AcDbArc
 50
269.999984741211
 51
0.000839233398463
  0
ARC
  5
1CC
330
1F
100
AcDbEntity
  8
D-1
  6
Continuous
 62
     2
370
     9
100
AcDbCircle
 10
-169.013071181601
 20
51.94772763239618
 30
0.0
 40
1.0
100
AcDbArc
 50
180.0000152587891
 51
269.999984741211
  0
ARC
  5
1CD
330
1F
100
AcDbEntity
  8
D-1
  6
Continuous
 62
     2
370
     9
100
AcDbCircle
 10
-166.7630482934175
 20
53.94774289118524
 30
0.0
 40
3.249999523162842
100
AcDbArc
 50
162.3705291748047
 51
180.0000152587891
  0
ARC
  5
1CE
330
1F
100
AcDbEntity
  8
D-1
  6
Continuous
 62
     2
370
     9
100
AcDbCircle
 10
-172.0047093651948
 20
55.61320919977899
 30
0.0
 40
2.25
100
AcDbArc
 50
342.3704528808594
 51
182.3705139160157
  0
ARC
  5
1CF
330
1F
100
AcDbEntity
  8
D-1
  6
Continuous
 62
     2
370
     9
100
AcDbCircle
 10
-169.7630101464448
 20
44.69763607966181
 30
0.0
 40
1.0
100
AcDbArc
 50
270.0
 51
90.0
  0
ARC
  5
1D0
330
1F
100
AcDbEntity
  8
D-1
  6
Continuous
 62
     2
370
     9
100
AcDbCircle
 10
-169.6381551049409
 20
21.32269711481806
 30
0.0
 40
0.875
100
AcDbArc
 50
180.0
 51
0.0
  0
ARC
  5
1D1
330
1F
100
AcDbEntity
  8
D-1
  6
Continuous
 62
     2
370
     9
100
AcDbCircle
 10
-169.7630101464448
 20
50.69775814997431
 30
0.0
 40
7.0
100
AcDbArc
 50
253.8723907470703
 51
269.999984741211
  0
ARC
  5
1D2
330
1F
100
AcDbEntity
  8
D-1
  6
Continuous
 62
     2
370
     9
100
AcDbCircle
 10
-166.7630482934175
 20
52.76990170466181
 30
0.0
 40
3.5
100
AcDbArc
 50
180.0000152587891
 51
355.6678161621094
  0
ARC
  5
1D3
330
1F
100
AcDbEntity
  8
D-1
  6
Continuous
 62
     2
370
     9
100
AcDbCircle
 10
-166.7630482934175
 20
52.76990170466181
 30
0.0
 40
7.499999046325684
100
AcDbArc
 50
180.0000152587891
 51
312.8334350585938
  0
ARC
  5
1D4
330
1F
100
AcDbEntity
  8
D-1
  6
Continuous
 62
     2
370
     9
100
AcDbCircle
 10
-172.2631474755464
 20
52.76990170466181
 30
0.0
 40
2.0
100
AcDbArc
 50
359.999984741211
 51
180.0000152587891
  0
ARC
  5
1D5
330
1F
100
AcDbEntity
  8
D-1
  6
Continuous
 62
     2
370
     9
100
AcDbCircle
 10
-160.2731038354096
 20
51.77005429255243
 30
0.0
 40
1.0
100
AcDbArc
 50
180.0000152587891
 51
269.999984741211
  0
ARC
  5
1D6
330
1F
100
AcDbEntity
  8
D-1
  6
Continuous
 62
     2
370
     9
100
AcDbCircle
 10
-175.2630101464448
 20
21.44766659723993
 30
0.0
 40
1.0
100
AcDbArc
 50
180.0000152587891
 51
0.0006866455078368
  0
ARC
  5
1D7
330
1F
100
AcDbEntity
  8
D-1
  6
Continuous
 62
     2
370
     9
100
AcDbCircle
 10
-174.613153579062
 20
36.94771237360712
 30
0.0
 40
4.449995040893555
100
AcDbArc
 50
284.9767303466797
 51
75.0233306884766
  0
ARC
  5
1D8
330
1F
100
AcDbEntity
  8
D-1
  6
Continuous
 62
     2
370
     9
100
AcDbCircle
 10
-172.2631474755464
 20
42.05192990290399
 30
0.0
 40
2.0
100
AcDbArc
 50
73.87239074707031
 51
180.0000152587891
  0
ARC
  5
1D9
330
1F
100
AcDbEntity
  8
D-2
  6
Continuous
 62
     4
370
     9
100
AcDbCircle
 10
-173.3880635522065
 20
21.44766659723993
 30
0.0
 40
0.25
100
AcDbArc
 50
90.0
 51
180.0
  0
ARC
  5
1DA
330
1F
100
AcDbEntity
  8
D-2
  6
Continuous
 62
     4
370
     9
100
AcDbCircle
 10
-171.3980580590425
 20
21.44766659723993
 30
0.0
 40
0.25
100
AcDbArc
 50
0.0
 51
90.0
  0
ARC
  5
1DB
330
1F
100
AcDbEntity
  8
D-2
  6
Continuous
 62
     4
370
     9
100
AcDbCircle
 10
-172.3931599877534
 20
27.07271237360712
 30
0.0
 40
1.874999761581421
100
AcDbArc
 50
0.0
 51
180.0
  0
ARC
  5
1DC
330
1F
100
AcDbEntity
  8
D-2
  6
Continuous
 62
     4
370
     9
100
AcDbCircle
 10
86.46191966312551
 20
-11.07718997014288
 30
0.0
 40
1.874999761581421
100
AcDbArc
 50
270.0
 51
90.00001525878908
  0
ARC
  5
1DD
330
1F
100
AcDbEntity
  8
D-2
  6
Continuous
 62
     4
370
     9
100
AcDbCircle
 10
80.8369654394927
 20
-12.07218508733038
 30
0.0
 40
0.25
100
AcDbArc
 50
270.0
 51
0.0
  0
ARC
  5
1DE
330
1F
100
AcDbEntity
  8
D-2
  6
Continuous
 62
     4
370
     9
100
AcDbCircle
 10
80.8369654394927
 20
-10.08228640568976
 30
0.0
 40
0.25
100
AcDbArc
 50
0.0
 51
90.0
  0
ARC
  5
1DF
330
1F
100
AcDbEntity
  8
D-2
  6
Continuous
 62
     4
370
     9
100
AcDbCircle
 10
-77.44380152446604
 20
-16.30746035588507
 30
0.0
 40
5.899999618530273
100
AcDbArc
 50
99.058349609375
 51
158.4354858398437
  0
ARC
  5
1E0
330
1F
100
AcDbEntity
  8
D-1
  6
Continuous
 62
     2
370
     9
100
AcDbCircle
 10
-141.2599812768159
 20
53.71695370661493
 30
0.0
 40
2.999999761581421
100
AcDbArc
 50
299.9262084960938
 51
330.0735626220703
  0
ARC
  5
1E1
330
1F
100
AcDbEntity
  8
D-1
  6
Continuous
 62
     2
370
     9
100
AcDbCircle
 10
-141.2597829125581
 20
55.51688046442743
 30
0.0
 40
2.999999761581421
100
AcDbArc
 50
29.92646789550782
 51
60.07377624511719
  0
ARC
  5
1E2
330
1F
100
AcDbEntity
  8
D-1
  6
Continuous
 62
     2
370
     9
100
AcDbCircle
 10
115.4446772314849
 20
20.05083127009149
 30
0.0
 40
2.999999761581421
100
AcDbArc
 50
29.92620849609375
 51
60.07356262207031
  0
ARC
  5
1E3
330
1F
100
AcDbEntity
  8
D-1
  6
Continuous
 62
     2
370
     9
100
AcDbCircle
 10
113.6447352148833
 20
20.05102963434931
 30
0.0
 40
2.999999761581421
100
AcDbArc
 50
119.9264678955078
 51
150.0737762451172
  0
LWPOLYLINE
  5
1E4
330
1F
100
AcDbEntity
  8
D-5
  6
Continuous
 62
     7
370
     9
100
AcDbPolyline
 90
        4
 70
     1
 43
0.4
 10
185.291924545938
 20
78.52397580134149
 42
0.4142135623731
 10
185.091924545938
 20
78.7239758013415
 42
0.4142135623731
 10
184.891924545938
 20
78.52397580134149
 42
0.4142135623731
 10
185.091924545938
 20
78.32397580134149
 42
0.4142135623731
  0
LWPOLYLINE
  5
1E5
330
1F
100
AcDbEntity
  8
D-5
  6
Continuous
 62
     7
370
     9
100
AcDbPolyline
 90
        4
 70
     1
 43
0.4
 10
185.291924545938
 20
20.54779477106806
 42
0.4142135623731
 10
185.091924545938
 20
20.74779477106805
 42
0.4142135623731
 10
184.891924545938
 20
20.54779477106806
 42
0.4142135623731
 10
185.091924545938
 20
20.34779477106806
 42
0.4142135623731
  0
LWPOLYLINE
  5
1E6
330
1F
100
AcDbEntity
  8
D-5
  6
Continuous
 62
     7
370
     9
100
AcDbPolyline
 90
        4
 70
     1
 43
0.4
 10
185.291924545938
 20
-14.95225100529913
 42
0.4142135623731
 10
185.091924545938
 20
-14.75225100529913
 42
0.4142135623731
 10
184.891924545938
 20
-14.95225100529913
 42
0.4142135623731
 10
185.091924545938
 20
-15.15225100529913
 42
0.4142135623731
  0
LWPOLYLINE
  5
1E7
330
1F
100
AcDbEntity
  8
D-5
  6
Continuous
 62
     7
370
     9
100
AcDbPolyline
 90
        4
 70
     1
 43
0.4
 10
-140.562926223105
 20
111.9055981157946
 42
0.4142135623731
 10
-140.762926223105
 20
112.1055981157946
 42
0.4142135623731
 10
-140.9629262231049
 20
111.9055981157946
 42
0.4142135623731
 10
-140.762926223105
 20
111.7055981157946
 42
0.4142135623731
  0
LWPOLYLINE
  5
1E8
330
1F
100
AcDbEntity
  8
D-5
  6
Continuous
 62
     7
370
     9
100
AcDbPolyline
 90
        4
 70
     1
 43
0.4
 10
-176.0629643700776
 20
111.9055981157946
 42
0.4142135623731
 10
-176.2629643700776
 20
112.1055981157946
 42
0.4142135623731
 10
-176.4629643700776
 20
111.9055981157946
 42
0.4142135623731
 10
-176.2629643700776
 20
111.7055981157946
 42
0.4142135623731
  0
LWPOLYLINE
  5
1E9
330
1F
100
AcDbEntity
  8
D-5
  6
Continuous
 62
     7
370
     9
100
AcDbPolyline
 90
        4
 70
     1
 43
0.4
 10
-236.9704503319917
 20
-14.95225100529913
 42
0.4142135623731
 10
-237.1704503319917
 20
-14.75225100529913
 42
0.4142135623731
 10
-237.3704503319917
 20
-14.95225100529913
 42
0.4142135623731
 10
-237.1704503319917
 20
-15.15225100529913
 42
0.4142135623731
  0
LWPOLYLINE
  5
1EA
330
1F
100
AcDbEntity
  8
D-5
  6
Continuous
 62
     7
370
     9
100
AcDbPolyline
 90
        4
 70
     1
 43
0.4
 10
-236.9704503319917
 20
36.94771237360712
 42
0.4142135623731
 10
-237.1704503319917
 20
37.14771237360712
 42
0.4142135623731
 10
-237.3704503319917
 20
36.94771237360712
 42
0.4142135623731
 10
-237.1704503319917
 20
36.74771237360711
 42
0.4142135623731
  0
LWPOLYLINE
  5
1EB
330
1F
100
AcDbEntity
  8
D-5
  6
Continuous
 62
     7
370
     9
100
AcDbPolyline
 90
        4
 70
     1
 43
0.4
 10
138.1133814551177
 20
111.9055981157946
 42
0.4142135623731
 10
137.9133814551177
 20
112.1055981157946
 42
0.4142135623731
 10
137.7133814551177
 20
111.9055981157946
 42
0.4142135623731
 10
137.9133814551177
 20
111.7055981157946
 42
0.4142135623731
  0
LWPOLYLINE
  5
1EC
330
1F
100
AcDbEntity
  8
D-5
  6
Continuous
 62
     7
370
     9
100
AcDbPolyline
 90
        4
 70
     1
 43
0.4
 10
96.53691966312552
 20
-93.60088686955694
 42
0.4142135623731
 10
96.33691966312551
 20
-93.40088686955694
 42
0.4142135623731
 10
96.13691966312551
 20
-93.60088686955694
 42
0.4142135623731
 10
96.33691966312551
 20
-93.80088686955695
 42
0.4142135623731
  0
LWPOLYLINE
  5
1ED
330
1F
100
AcDbEntity
  8
D-5
  6
Continuous
 62
     7
370
     9
100
AcDbPolyline
 90
        4
 70
     1
 43
0.4
 10
-26.06316654903269
 20
-93.60088686955694
 42
0.4142135623731
 10
-26.26316654903269
 20
-93.40088686955694
 42
0.4142135623731
 10
-26.46316654903269
 20
-93.60088686955694
 42
0.4142135623731
 10
-26.26316654903269
 20
-93.80088686955695
 42
0.4142135623731
  0
LWPOLYLINE
  5
1EE
330
1F
100
AcDbEntity
  8
D-5
  6
Continuous
 62
     7
370
     9
100
AcDbPolyline
 90
        4
 70
     1
 43
0.4
 10
-176.0629643700776
 20
-93.60088686955694
 42
0.4142135623731
 10
-176.2629643700776
 20
-93.40088686955694
 42
0.4142135623731
 10
-176.4629643700776
 20
-93.60088686955694
 42
0.4142135623731
 10
-176.2629643700776
 20
-93.80088686955695
 42
0.4142135623731
  0
TEXT
  5
1EF
330
1F
100
AcDbEntity
  8
D-5
  6
Continuous
 62
     2
370
     9
100
AcDbText
 10
182.9638635107818
 20
-1.452220487721007
 30
0.0
 40
6.096
  1
35
 50
90.0
 41
1.0625
  7
ＭＳ ゴシック
100
AcDbText
  0
TEXT
  5
1F0
330
1F
100
AcDbEntity
  8
D-5
  6
Continuous
 62
     2
370
     9
100
AcDbText
 10
182.9638635107818
 20
45.28604550348993
 30
0.0
 40
6.096
  1
59
 50
90.0
 41
1.0625
  7
ＭＳ ゴシック
100
AcDbText
  0
TEXT
  5
1F1
330
1F
100
AcDbEntity
  8
D-5
  6
Continuous
 62
     2
370
     9
100
AcDbText
 10
-239.2986029198823
 20
6.747700166575868
 30
0.0
 40
6.096
  1
53
 50
90.0
 41
1.0625
  7
ＭＳ ゴシック
100
AcDbText
  0
TEXT
  5
1F2
330
1F
100
AcDbEntity
  8
D-5
  6
Continuous
 62
     2
370
     9
100
AcDbText
 10
-162.7629338524995
 20
114.0333539751696
 30
0.0
 40
6.096
  1
35
 41
1.0625
  7
ＭＳ ゴシック
100
AcDbText
  0
TEXT
  5
1F3
330
1F
100
AcDbEntity
  8
D-5
  6
Continuous
 62
     2
370
     9
100
AcDbText
 10
-7.924677016561986
 20
114.033445527904
 30
0.0
 40
6.096
  1
280
 41
1.083333333333333
  7
ＭＳ ゴシック
100
AcDbText
  0
TEXT
  5
1F4
330
1F
100
AcDbEntity
  8
D-5
  6
Continuous
 62
     2
370
     9
100
AcDbText
 10
-107.7631207726655
 20
-91.47287924016241
 30
0.0
 40
6.096
  1
150
 41
1.083333333333333
  7
ＭＳ ゴシック
100
AcDbText
  0
TEXT
  5
1F5
330
1F
100
AcDbEntity
  8
D-5
  6
Continuous
 62
     2
370
     9
100
AcDbText
 10
28.53677165287161
 20
-91.47287924016241
 30
0.0
 40
6.096
  1
124
 41
1.083333333333333
  7
ＭＳ ゴシック
100
AcDbText
  0
TEXT
  5
1F6
330
1F
100
AcDbEntity
  8
D-4
  6
Continuous
 62
     2
370
     9
100
AcDbText
 10
-134.2915097497163
 20
147.0981733111071
 30
0.0
 40
6.096
  1
シール（別途工事）
 41
1.111111111111111
  7
ＭＳ ゴシック
100
AcDbText
  0
TEXT
  5
1F7
330
1F
100
AcDbEntity
  8
D-4
  6
Continuous
 62
     2
370
     9
100
AcDbText
 10
112.5894840299592
 20
126.935148408763
 30
0.0
 40
6.096
  1
ホルダー：アルミ　＠５００
 50
359.9999547794491
 41
1.115384615384615
  7
ＭＳ ゴシック
100
AcDbText
  0
TEXT
  5
1F8
330
1F
100
AcDbEntity
  8
D-4
  6
Continuous
 62
     2
370
     9
100
AcDbText
 10
66.78438365238333
 20
146.2544843462634
 30
0.0
 40
6.096
  1
カバー：ＳＵＳ３０４　Ｈ．Ｌ．ｔ＝１．２
 41
1.11875
  7
ＭＳ ゴシック
100
AcDbText
  0
LINE
  5
1F9
330
1F
100
AcDbEntity
  8
D-3
  6
Continuous
 62
     6
370
     5
100
AcDbLine
 10
14.74353864466784
 20
-124.7895482837247
 30
0.0
 11
2.580945847207545
 21
-136.9521213055921
 31
0.0
  0
LINE
  5
1FA
330
1F
100
AcDbEntity
  8
D-3
  6
Continuous
 62
     6
370
     5
100
AcDbLine
 10
124.5810145117583
 20
-14.95225100529913
 30
0.0
 11
37.10630379044208
 21
-102.426819498367
 31
0.0
  0
LINE
  5
1FB
330
1F
100
AcDbEntity
  8
D-3
  6
Continuous
 62
     6
370
     5
100
AcDbLine
 10
3.429883007399627
 20
-124.7895482837247
 30
0.0
 11
-8.732690932577611
 21
-136.9521213055921
 31
0.0
  0
LINE
  5
1FC
330
1F
100
AcDbEntity
  8
D-3
  6
Continuous
 62
     6
370
     5
100
AcDbLine
 10
9.086673951254646
 20
-124.7895482837247
 30
0.0
 11
-3.075922133749486
 21
-136.9521213055921
 31
0.0
  0
TEXT
  5
1FD
330
1F
100
AcDbEntity
  8
F-5ﾚｲﾔ
  6
Continuous
 62
     2
370
     9
100
AcDbText
 10
-144.5000577359586
 20
-269.4936591499946
 30
0.0
 40
6.096
  1
外壁ー外壁コーナー　ＳＸ２３Ａー１５０Ｇ
 41
1.11875
  7
ＭＳ ゴシック
100
AcDbText
  0
LINE
  5
1FE
330
1F
100
AcDbEntity
  8
D-3
  6
Continuous
 62
     6
370
     5
100
AcDbLine
 10
35.83082216365325
 20
-92.38861157330382
 30
0.0
 11
25.79261348084108
 21
-102.426819498367
 31
0.0
  0
LINE
  5
1FF
330
1F
100
AcDbEntity
  8
D-3
  6
Continuous
 62
     6
370
     5
100
AcDbLine
 10
92.33699595707083
 20
-35.88244204533819
 30
0.0
 11
44.8035226622563
 21
-83.4159117520183
 31
0.0
  0
LINE
  5
200
330
1F
100
AcDbEntity
  8
D-3
  6
Continuous
 62
     6
370
     5
100
AcDbLine
 10
41.48767210157254
 20
-92.38861157330382
 30
0.0
 11
31.4494451416751
 21
-102.426819498367
 31
0.0
  0
LINE
  5
201
330
1F
100
AcDbEntity
  8
D-3
  6
Continuous
 62
     6
370
     5
100
AcDbLine
 10
97.5101832129302
 20
-36.36620669377569
 30
0.0
 11
45.02634498058774
 21
-88.84994540444292
 31
0.0
  0
TEXT
  5
202
330
1F
100
AcDbEntity
  8
D-4
  6
Continuous
 62
     2
370
     9
100
AcDbText
 10
-72.42700890484618
 20
-114.7310396199857
 30
0.0
 40
6.096
  1
補助シート：軟質ポリ塩化ビニル　ｔ＝０．９
 50
0.0000427961503221
 41
1.119047619047619
  7
ＭＳ ゴシック
100
AcDbText
  0
LINE
  5
203
330
1F
100
AcDbEntity
  8
D-3
  6
Continuous
 62
     6
370
     5
100
AcDbLine
 10
-26.26316654903269
 20
-120.0213635710031
 30
0.0
 11
-26.26316654903269
 21
-136.9521213055921
 31
0.0
  0
LINE
  5
204
330
1F
100
AcDbEntity
  8
D-3
  6
Continuous
 62
     6
370
     5
100
AcDbLine
 10
-26.26316654903269
 20
-14.95225100529913
 30
0.0
 11
-26.26316654903269
 21
-105.9411269283704
 31
0.0
  0
LINE
  5
205
330
1F
100
AcDbEntity
  8
D-4
  6
Continuous
 62
     7
370
     9
100
AcDbLine
 10
-72.41063130122996
 20
-116.6689715863538
 30
0.0
 11
114.440432100239
 21
-116.6689715863538
 31
0.0
  0
TEXT
  5
206
330
1F
100
AcDbEntity
  8
D-4
  6
Continuous
 62
     2
370
     9
100
AcDbText
 10
137.2844446875396
 20
-65.71192342961554
 30
0.0
 40
6.096
  1
ナイロンプラグ　呼び６　＠４７５
 41
1.1171875
  7
ＭＳ ゴシック
100
AcDbText
  0
LINE
  5
207
330
1F
100
AcDbEntity
  8
D-4
  6
Continuous
 62
     7
370
     9
100
AcDbLine
 10
136.6012934424224
 20
-68.96112399113898
 30
0.0
 11
280.5042948185093
 21
-68.96112399113898
 31
0.0
  0
LINE
  5
208
330
1F
100
AcDbEntity
  8
D-4
  6
Continuous
 62
     7
370
     9
100
AcDbLine
 10
165.1201685644927
 20
97.12160153376337
 30
0.0
 11
133.2595185762271
 21
3.196523300384698
 31
0.0
  0
LINE
  5
209
330
1F
100
AcDbEntity
  8
D-4
  6
Continuous
 62
     7
370
     9
100
AcDbLine
 10
133.2595185762271
 20
3.196523300384698
 30
0.0
 11
134.2339111999249
 21
8.100660229028062
 31
0.0
  0
LINE
  5
20A
330
1F
100
AcDbEntity
  8
D-4
  6
Continuous
 62
     7
370
     9
100
AcDbLine
 10
133.2595185762271
 20
3.196523300384698
 30
0.0
 11
135.4699936133259
 21
7.681364446998855
 31
0.0
  0
TEXT
  5
20B
330
1F
100
AcDbEntity
  8
D-4
  6
Continuous
 62
     2
370
     9
100
AcDbText
 10
164.8286799170318
 20
100.2769452837634
 30
0.0
 40
6.096
  1
ドリルねじ：ＳＵＳ　Ｍ４×１３
 41
1.116666666666667
  7
ＭＳ ゴシック
100
AcDbText
  0
LINE
  5
20C
330
1F
100
AcDbEntity
  8
D-4
  6
Continuous
 62
     7
370
     9
100
AcDbLine
 10
300.9258776629119
 20
97.12160153376337
 30
0.0
 11
165.1201685644927
 21
97.12160153376337
 31
0.0
  0
ENDSEC
  0
SECTION
  2
OBJECTS
  0
DICTIONARY
  5
C
330
0
100
AcDbDictionary
281
     1
  3
ACAD_DETAILVIEWSTYLE
350
252
  3
ACAD_GROUP
350
D
  3
ACAD_LAYOUT
350
1A
  3
ACAD_MATERIAL
350
43
  3
ACAD_MLEADERSTYLE
350
6B
  3
ACAD_MLINESTYLE
350
17
  3
ACAD_PLOTSETTINGS
350
19
  3
ACAD_PLOTSTYLENAME
350
E
  3
ACAD_SCALELIST
350
47
  3
ACAD_SECTIONVIEWSTYLE
350
253
  3
ACAD_TABLESTYLE
350
69
  3
ACAD_VISUALSTYLE
350
2A
  3
ACDB_RECOMPOSE_DATA
350
24F
  3
AcDbVariableDictionary
350
20F
  0
DICTIONARY
  5
20D
330
8
100
AcDbDictionary
280
     1
281
     1
  3
ACAD_XREC_ROUNDTRIP
360
20E
  0
DICTIONARY
  5
252
102
{ACAD_REACTORS
330
C
102
}
330
C
100
AcDbDictionary
281
     1
  0
DICTIONARY
  5
D
102
{ACAD_REACTORS
330
C
102
}
330
C
100
AcDbDictionary
281
     1
  0
DICTIONARY
  5
1A
102
{ACAD_REACTORS
330
C
102
}
330
C
100
AcDbDictionary
281
     1
  3
Layout1
350
1E
  3
Layout2
350
26
  3
Model
350
22
  0
DICTIONARY
  5
43
102
{ACAD_REACTORS
330
C
102
}
330
C
100
AcDbDictionary
281
     1
  3
ByBlock
350
45
  3
ByLayer
350
44
  3
Global
350
46
  0
DICTIONARY
  5
6B
102
{ACAD_REACTORS
330
C
102
}
330
C
100
AcDbDictionary
281
     1
  3
Standard
350
6C
  0
DICTIONARY
  5
17
102
{ACAD_REACTORS
330
C
102
}
330
C
100
AcDbDictionary
281
     1
  3
Standard
350
18
  0
DICTIONARY
  5
19
102
{ACAD_REACTORS
330
C
102
}
330
C
100
AcDbDictionary
281
     1
  0
ACDBDICTIONARYWDFLT
  5
E
102
{ACAD_REACTORS
330
C
102
}
330
C
100
AcDbDictionary
281
     1
  3
Normal
350
F
100
AcDbDictionaryWithDefault
340
F
  0
DICTIONARY
  5
47
102
{ACAD_REACTORS
330
C
102
}
330
C
100
AcDbDictionary
281
     1
  3
A0
350
48
  3
A1
350
49
  3
A2
350
4A
  3
A3
350
4B
  3
A4
350
4C
  3
A5
350
4D
  3
A6
350
4E
  3
A7
350
4F
  3
A8
350
50
  3
A9
350
51
  3
B0
350
52
  3
B1
350
53
  3
B2
350
54
  3
B3
350
55
  3
B4
350
56
  3
B5
350
57
  3
B6
350
58
  3
B7
350
59
  3
B8
350
5A
  3
B9
350
5B
  3
C0
350
5C
  3
C1
350
5D
  3
C2
350
5E
  3
C3
350
5F
  3
C4
350
60
  3
C5
350
61
  3
C6
350
62
  3
C7
350
63
  3
C8
350
64
  3
C9
350
65
  3
D0
350
66
  3
D1
350
67
  3
D2
350
68
  0
DICTIONARY
  5
253
102
{ACAD_REACTORS
330
C
102
}
330
C
100
AcDbDictionary
281
     1
  0
DICTIONARY
  5
69
102
{ACAD_REACTORS
330
C
102
}
330
C
100
AcDbDictionary
281
     1
  3
Standard
350
6A
  0
DICTIONARY
  5
2A
102
{ACAD_REACTORS
330
C
102
}
330
C
100
AcDbDictionary
281
     1
  3
2dWireframe
350
2F
  3
Basic
350
32
  3
Brighten
350
36
  3
ColorChange
350
3A
  3
Conceptual
350
34
  3
Dim
350
35
  3
EdgeColorOff
350
3D
  3
Facepattern
350
39
  3
Flat
350
2B
  3
FlatWithEdges
350
2C
  3
Gouraud
350
2D
  3
GouraudWithEdges
350
2E
  3
Hidden
350
31
  3
JitterOff
350
3B
  3
Linepattern
350
38
  3
OverhangOff
350
3C
  3
Realistic
350
33
  3
Shaded
350
42
  3
Shaded with edges
350
41
  3
Shades of Gray
350
3E
  3
Sketchy
350
3F
  3
Thicken
350
37
  3
Wireframe
350
30
  3
X-Ray
350
40
  0
XRECORD
  5
24F
102
{ACAD_REACTORS
330
C
102
}
330
C
100
AcDbXrecord
280
     1
 90
        1
330
6A
  0
DICTIONARY
  5
20F
102
{ACAD_REACTORS
330
C
102
}
330
C
100
AcDbDictionary
281
     1
  3
CANNOSCALE
350
210
  3
CENTEREXE
350
254
  3
CENTERLTYPEFILE
350
255
  3
CMLEADERSTYLE
350
251
  3
CTABLESTYLE
350
250
  3
MSLTSCALE
350
211
  3
XCLIPFRAME
350
212
  0
XRECORD
  5
20E
102
{ACAD_REACTORS
330
20D
102
}
330
20D
100
AcDbXrecord
280
     1
102
VTR_0.000_0.000_1.000_1.000_VISUALSTYLE
340
2F
102
VTR_0.000_0.000_1.000_1.000_GRIDDISPLAY
 70
     3
102
VTR_0.000_0.000_1.000_1.000_GRIDMAJOR
 70
     5
102
VTR_0.000_0.000_1.000_1.000_DEFAULTLIGHTING
280
     1
102
VTR_0.000_0.000_1.000_1.000_DEFAULTLIGHTINGTYPE
 70
     1
102
VTR_0.000_0.000_1.000_1.000_BRIGHTNESS
141
0.0
102
VTR_0.000_0.000_1.000_1.000_CONTRAST
142
0.0
  0
LAYOUT
  5
1E
102
{ACAD_REACTORS
330
1A
102
}
330
1A
100
AcDbPlotSettings
  1

  2
none_device
  4

  6

 40
0.0
 41
0.0
 42
0.0
 43
0.0
 44
0.0
 45
0.0
 46
0.0
 47
0.0
 48
0.0
 49
0.0
140
0.0
141
0.0
142
1.0
143
1.0
 70
   688
 72
     1
 73
     0
 74
     5
  7

 75
    16
 76
     0
 77
     5
 78
   300
147
1.0
148
0.0
149
0.0
100
AcDbLayout
  1
Layout1
 70
     1
 71
     1
 10
0.0
 20
0.0
 11
420.0
 21
297.0
 12
0.0
 22
0.0
 32
0.0
 14
1.000000000000000E+20
 24
1.000000000000000E+20
 34
1.000000000000000E+20
 15
-1.000000000000000E+20
 25
-1.000000000000000E+20
 35
-1.000000000000000E+20
146
0.0
 13
0.0
 23
0.0
 33
0.0
 16
1.0
 26
0.0
 36
0.0
 17
0.0
 27
1.0
 37
0.0
 76
     0
330
1B
  0
LAYOUT
  5
26
102
{ACAD_REACTORS
330
1A
102
}
330
1A
100
AcDbPlotSettings
  1

  2
none_device
  4

  6

 40
0.0
 41
0.0
 42
0.0
 43
0.0
 44
0.0
 45
0.0
 46
0.0
 47
0.0
 48
0.0
 49
0.0
140
0.0
141
0.0
142
1.0
143
1.0
 70
   688
 72
     1
 73
     0
 74
     5
  7

 75
    16
 76
     0
 77
     5
 78
   300
147
1.0
148
0.0
149
0.0
100
AcDbLayout
  1
Layout2
 70
     1
 71
     2
 10
0.0
 20
0.0
 11
0.0
 21
0.0
 12
0.0
 22
0.0
 32
0.0
 14
0.0
 24
0.0
 34
0.0
 15
0.0
 25
0.0
 35
0.0
146
0.0
 13
0.0
 23
0.0
 33
0.0
 16
1.0
 26
0.0
 36
0.0
 17
0.0
 27
1.0
 37
0.0
 76
     0
330
23
  0
LAYOUT
  5
22
102
{ACAD_REACTORS
330
1A
102
}
330
1A
100
AcDbPlotSettings
  1

  2
none_device
  4
Letter_(8.50_x_11.00_Inches)
  6

 40
6.35
 41
6.35
 42
6.35000508
 43
6.35000508
 44
215.9
 45
279.4
 46
0.0
 47
0.0
 48
0.0
 49
0.0
140
0.0
141
0.0
142
1.0
143
1.0
 70
  1712
 72
     1
 73
     0
 74
     0
  7

 75
     0
 76
     0
 77
     5
 78
   300
147
1.0
148
0.0
149
0.0
100
AcDbLayout
  1
Model
 70
     1
 71
     0
 10
-420.0
 20
-297.0
 11
420.0
 21
297.0
 12
0.0
 22
0.0
 32
0.0
 14
-420.0
 24
-297.0
 34
0.0
 15
420.0
 25
297.0
 35
0.0
146
0.0
 13
0.0
 23
0.0
 33
0.0
 16
1.0
 26
0.0
 36
0.0
 17
0.0
 27
1.0
 37
0.0
 76
     0
330
1F
331
29
  0
MATERIAL
  5
45
102
{ACAD_REACTORS
330
43
102
}
102
{ACAD_XDICTIONARY
360
245
102
}
330
43
100
AcDbMaterial
  1
ByBlock
  0
MATERIAL
  5
44
102
{ACAD_REACTORS
330
43
102
}
102
{ACAD_XDICTIONARY
360
243
102
}
330
43
100
AcDbMaterial
  1
ByLayer
  0
MATERIAL
  5
46
102
{ACAD_REACTORS
330
43
102
}
102
{ACAD_XDICTIONARY
360
247
102
}
330
43
100
AcDbMaterial
  1
Global
  0
MLEADERSTYLE
  5
6C
102
{ACAD_REACTORS
330
6B
102
}
102
{ACAD_XDICTIONARY
360
24D
102
}
330
6B
100
AcDbMLeaderStyle
170
     2
171
     1
172
     0
 90
        2
 40
0.0
 41
0.0
173
     1
 91
-1056964608
340
14
 92
       -2
290
     1
 42
2.0
291
     1
 43
8.0
  3
Standard
341
0
 44
4.0
300

342
11
174
     1
178
     6
175
     1
176
     0
 93
-1056964608
 45
4.0
292
     0
297
     0
 46
4.0
343
0
 94
-1056964608
 47
1.0
 49
1.0
140
1.0
293
     1
141
0.0
294
     1
177
     0
142
1.0
295
     0
296
     0
143
3.75
1001
ACAD_MLEADERVER
1070
     2
  0
MLINESTYLE
  5
18
102
{ACAD_REACTORS
330
17
102
}
330
17
100
AcDbMlineStyle
  2
Standard
 70
     0
  3

 62
   256
 51
90.0
 52
90.0
 71
     2
 49
0.5
 62
   256
  6
BYLAYER
 49
-0.5
 62
   256
  6
BYLAYER
  0
ACDBPLACEHOLDER
  5
F
102
{ACAD_REACTORS
330
E
102
}
330
E
  0
SCALE
  5
48
102
{ACAD_REACTORS
330
47
102
}
330
47
100
AcDbScale
 70
     0
300
1:1
140
1.0
141
1.0
290
     1
  0
SCALE
  5
49
102
{ACAD_REACTORS
330
47
102
}
330
47
100
AcDbScale
 70
     0
300
1:2
140
1.0
141
2.0
290
     0
  0
SCALE
  5
4A
102
{ACAD_REACTORS
330
47
102
}
330
47
100
AcDbScale
 70
     0
300
1:4
140
1.0
141
4.0
290
     0
  0
SCALE
  5
4B
102
{ACAD_REACTORS
330
47
102
}
330
47
100
AcDbScale
 70
     0
300
1:5
140
1.0
141
5.0
290
     0
  0
SCALE
  5
4C
102
{ACAD_REACTORS
330
47
102
}
330
47
100
AcDbScale
 70
     0
300
1:8
140
1.0
141
8.0
290
     0
  0
SCALE
  5
4D
102
{ACAD_REACTORS
330
47
102
}
330
47
100
AcDbScale
 70
     0
300
1:10
140
1.0
141
10.0
290
     0
  0
SCALE
  5
4E
102
{ACAD_REACTORS
330
47
102
}
330
47
100
AcDbScale
 70
     0
300
1:16
140
1.0
141
16.0
290
     0
  0
SCALE
  5
4F
102
{ACAD_REACTORS
330
47
102
}
330
47
100
AcDbScale
 70
     0
300
1:20
140
1.0
141
20.0
290
     0
  0
SCALE
  5
50
102
{ACAD_REACTORS
330
47
102
}
330
47
100
AcDbScale
 70
     0
300
1:30
140
1.0
141
30.0
290
     0
  0
SCALE
  5
51
102
{ACAD_REACTORS
330
47
102
}
330
47
100
AcDbScale
 70
     0
300
1:40
140
1.0
141
40.0
290
     0
  0
SCALE
  5
52
102
{ACAD_REACTORS
330
47
102
}
330
47
100
AcDbScale
 70
     0
300
1:50
140
1.0
141
50.0
290
     0
  0
SCALE
  5
53
102
{ACAD_REACTORS
330
47
102
}
330
47
100
AcDbScale
 70
     0
300
1:100
140
1.0
141
100.0
290
     0
  0
SCALE
  5
54
102
{ACAD_REACTORS
330
47
102
}
330
47
100
AcDbScale
 70
     0
300
2:1
140
2.0
141
1.0
290
     0
  0
SCALE
  5
55
102
{ACAD_REACTORS
330
47
102
}
330
47
100
AcDbScale
 70
     0
300
4:1
140
4.0
141
1.0
290
     0
  0
SCALE
  5
56
102
{ACAD_REACTORS
330
47
102
}
330
47
100
AcDbScale
 70
     0
300
8:1
140
8.0
141
1.0
290
     0
  0
SCALE
  5
57
102
{ACAD_REACTORS
330
47
102
}
330
47
100
AcDbScale
 70
     0
300
10:1
140
10.0
141
1.0
290
     0
  0
SCALE
  5
58
102
{ACAD_REACTORS
330
47
102
}
330
47
100
AcDbScale
 70
     0
300
100:1
140
100.0
141
1.0
290
     0
  0
SCALE
  5
59
102
{ACAD_REACTORS
330
47
102
}
330
47
100
AcDbScale
 70
     0
300
1/128" = 1'-0"
140
0.0078125
141
12.0
290
     0
  0
SCALE
  5
5A
102
{ACAD_REACTORS
330
47
102
}
330
47
100
AcDbScale
 70
     0
300
1/64" = 1'-0"
140
0.015625
141
12.0
290
     0
  0
SCALE
  5
5B
102
{ACAD_REACTORS
330
47
102
}
330
47
100
AcDbScale
 70
     0
300
1/32" = 1'-0"
140
0.03125
141
12.0
290
     0
  0
SCALE
  5
5C
102
{ACAD_REACTORS
330
47
102
}
330
47
100
AcDbScale
 70
     0
300
1/16" = 1'-0"
140
0.0625
141
12.0
290
     0
  0
SCALE
  5
5D
102
{ACAD_REACTORS
330
47
102
}
330
47
100
AcDbScale
 70
     0
300
3/32" = 1'-0"
140
0.09375
141
12.0
290
     0
  0
SCALE
  5
5E
102
{ACAD_REACTORS
330
47
102
}
330
47
100
AcDbScale
 70
     0
300
1/8" = 1'-0"
140
0.125
141
12.0
290
     0
  0
SCALE
  5
5F
102
{ACAD_REACTORS
330
47
102
}
330
47
100
AcDbScale
 70
     0
300
3/16" = 1'-0"
140
0.1875
141
12.0
290
     0
  0
SCALE
  5
60
102
{ACAD_REACTORS
330
47
102
}
330
47
100
AcDbScale
 70
     0
300
1/4" = 1'-0"
140
0.25
141
12.0
290
     0
  0
SCALE
  5
61
102
{ACAD_REACTORS
330
47
102
}
330
47
100
AcDbScale
 70
     0
300
3/8" = 1'-0"
140
0.375
141
12.0
290
     0
  0
SCALE
  5
62
102
{ACAD_REACTORS
330
47
102
}
330
47
100
AcDbScale
 70
     0
300
1/2" = 1'-0"
140
0.5
141
12.0
290
     0
  0
SCALE
  5
63
102
{ACAD_REACTORS
330
47
102
}
330
47
100
AcDbScale
 70
     0
300
3/4" = 1'-0"
140
0.75
141
12.0
290
     0
  0
SCALE
  5
64
102
{ACAD_REACTORS
330
47
102
}
330
47
100
AcDbScale
 70
     0
300
1" = 1'-0"
140
1.0
141
12.0
290
     0
  0
SCALE
  5
65
102
{ACAD_REACTORS
330
47
102
}
330
47
100
AcDbScale
 70
     0
300
1-1/2" = 1'-0"
140
1.5
141
12.0
290
     0
  0
SCALE
  5
66
102
{ACAD_REACTORS
330
47
102
}
330
47
100
AcDbScale
 70
     0
300
3" = 1'-0"
140
3.0
141
12.0
290
     0
  0
SCALE
  5
67
102
{ACAD_REACTORS
330
47
102
}
330
47
100
AcDbScale
 70
     0
300
6" = 1'-0"
140
6.0
141
12.0
290
     0
  0
SCALE
  5
68
102
{ACAD_REACTORS
330
47
102
}
330
47
100
AcDbScale
 70
     0
300
1'-0" = 1'-0"
140
12.0
141
12.0
290
     0
  0
TABLESTYLE
  5
6A
102
{ACAD_REACTORS
330
69
102
}
102
{ACAD_XDICTIONARY
360
249
102
}
330
69
100
AcDbTableStyle
  3
Standard
 70
     0
 71
     0
 40
0.06
 41
0.06
280
     0
281
     0
  7
Standard
140
4.5
170
     2
 62
     0
 63
   257
283
     0
274
    -2
284
     1
 64
     0
275
    -2
285
     1
 65
     0
276
    -2
286
     1
 66
     0
277
    -2
287
     1
 67
     0
278
    -2
288
     1
 68
     0
279
    -2
289
     1
 69
     0
  7
Standard
140
6.0
170
     5
 62
     0
 63
   257
283
     0
274
    -2
284
     1
 64
     0
275
    -2
285
     1
 65
     0
276
    -2
286
     1
 66
     0
277
    -2
287
     1
 67
     0
278
    -2
288
     1
 68
     0
279
    -2
289
     1
 69
     0
  7
Standard
140
4.5
170
     5
 62
     0
 63
   257
283
     0
274
    -2
284
     1
 64
     0
275
    -2
285
     1
 65
     0
276
    -2
286
     1
 66
     0
277
    -2
287
     1
 67
     0
278
    -2
288
     1
 68
     0
279
    -2
289
     1
 69
     0
  0
VISUALSTYLE
  5
2F
102
{ACAD_REACTORS
330
2A
102
}
102
{ACAD_XDICTIONARY
360
21B
102
}
330
2A
100
AcDbVisualStyle
  2
2dWireframe
 70
     4
 71
     0
 72
     2
 73
     0
 90
        0
 40
0.6
 41
30.0
 62
     5
 63
     7
421
 16777215
 74
     1
 91
        4
 64
     7
 65
   257
 75
     1
175
     1
 42
1.0
 92
        0
 66
   257
 43
1.0
 76
     1
 77
     6
 78
     2
 67
     7
 79
     5
170
     0
171
     0
290
     0
174
     0
 93
        1
 44
0.0
173
     0
291
     0
 45
0.0
1001
ACAD
1000
AcDbSavedByObjectVersion
1070
     0
  0
VISUALSTYLE
  5
32
102
{ACAD_REACTORS
330
2A
102
}
102
{ACAD_XDICTIONARY
360
221
102
}
330
2A
100
AcDbVisualStyle
  2
Basic
 70
     7
 71
     1
 72
     0
 73
     1
 90
        0
 40
0.6
 41
30.0
 62
     5
 63
     7
421
 16777215
 74
     0
 91
        4
 64
     7
 65
   257
 75
     1
175
     1
 42
1.0
 92
        8
 66
     7
 43
1.0
 76
     1
 77
     6
 78
     2
 67
     7
 79
     5
170
     0
171
     0
290
     0
174
     0
 93
        1
 44
0.0
173
     0
291
     1
 45
0.0
1001
ACAD
1000
AcDbSavedByObjectVersion
1070
     0
  0
VISUALSTYLE
  5
36
102
{ACAD_REACTORS
330
2A
102
}
102
{ACAD_XDICTIONARY
360
229
102
}
330
2A
100
AcDbVisualStyle
  2
Brighten
 70
    12
 71
     2
 72
     2
 73
     0
 90
        0
 40
0.6
 41
30.0
 62
     5
 63
     7
421
 16777215
 74
     1
 91
        4
 64
     7
 65
   257
 75
     1
175
     1
 42
1.0
 92
        8
 66
     7
 43
1.0
 76
     1
 77
     6
 78
     2
 67
     7
 79
     5
170
     0
171
     0
290
     0
174
     0
 93
        1
 44
50.0
173
     0
291
     1
 45
0.0
1001
ACAD
1000
AcDbSavedByObjectVersion
1070
     0
  0
VISUALSTYLE
  5
3A
102
{ACAD_REACTORS
330
2A
102
}
102
{ACAD_XDICTIONARY
360
231
102
}
330
2A
100
AcDbVisualStyle
  2
ColorChange
 70
    16
 71
     2
 72
     2
 73
     3
 90
        0
 40
0.6
 41
30.0
 62
     5
 63
     8
421
  8421504
 74
     1
 91
        4
 64
     7
 65
   257
 75
     1
175
     1
 42
1.0
 92
        8
 66
     8
424
  8421504
 43
1.0
 76
     1
 77
     6
 78
     2
 67
     7
 79
     5
170
     0
171
     0
290
     0
174
     0
 93
        1
 44
0.0
173
     0
291
     1
 45
0.0
1001
ACAD
1000
AcDbSavedByObjectVersion
1070
     0
  0
VISUALSTYLE
  5
34
102
{ACAD_REACTORS
330
2A
102
}
102
{ACAD_XDICTIONARY
360
225
102
}
330
2A
100
AcDbVisualStyle
  2
Conceptual
 70
     9
 71
     3
 72
     2
 73
     0
 90
        0
 40
0.6
 41
30.0
 62
     5
 63
     7
421
 16777215
 74
     2
 91
        2
 64
     7
 65
   257
 75
     1
175
     1
 42
179.0
 92
        8
 66
     7
 43
1.0
 76
     1
 77
     6
 78
     2
 67
     7
 79
     3
170
     0
171
     0
290
     0
174
     0
 93
        1
 44
0.0
173
     0
291
     0
 45
0.0
1001
ACAD
1000
AcDbSavedByObjectVersion
1070
     0
  0
VISUALSTYLE
  5
35
102
{ACAD_REACTORS
330
2A
102
}
102
{ACAD_XDICTIONARY
360
227
102
}
330
2A
100
AcDbVisualStyle
  2
Dim
 70
    11
 71
     2
 72
     2
 73
     0
 90
        0
 40
0.6
 41
30.0
 62
     5
 63
     7
421
 16777215
 74
     1
 91
        4
 64
     7
 65
   257
 75
     1
175
     1
 42
1.0
 92
        8
 66
     7
 43
1.0
 76
     1
 77
     6
 78
     2
 67
     7
 79
     5
170
     0
171
     0
290
     0
174
     0
 93
        1
 44
-50.0
173
     0
291
     1
 45
0.0
1001
ACAD
1000
AcDbSavedByObjectVersion
1070
     0
  0
VISUALSTYLE
  5
3D
102
{ACAD_REACTORS
330
2A
102
}
102
{ACAD_XDICTIONARY
360
237
102
}
330
2A
100
AcDbVisualStyle
  2
EdgeColorOff
 70
    22
 71
     2
 72
     2
 73
     0
 90
        0
 40
0.6
 41
30.0
 62
     5
 63
     7
421
 16777215
 74
     1
 91
        4
 64
     7
 65
   257
 75
     1
175
     1
 42
1.0
 92
        8
 66
     7
 43
1.0
 76
     1
 77
     6
 78
     2
 67
     7
 79
     5
170
     0
171
     0
290
     0
174
     0
 93
        1
 44
0.0
173
     0
291
     1
 45
0.0
1001
ACAD
1000
AcDbSavedByObjectVersion
1070
     0
  0
VISUALSTYLE
  5
39
102
{ACAD_REACTORS
330
2A
102
}
102
{ACAD_XDICTIONARY
360
22F
102
}
330
2A
100
AcDbVisualStyle
  2
Facepattern
 70
    15
 71
     2
 72
     2
 73
     0
 90
        0
 40
0.6
 41
30.0
 62
     5
 63
     7
421
 16777215
 74
     1
 91
        4
 64
     7
 65
   257
 75
     1
175
     1
 42
1.0
 92
        8
 66
     7
 43
1.0
 76
     1
 77
     6
 78
     2
 67
     7
 79
     5
170
     0
171
     0
290
     0
174
     0
 93
        1
 44
0.0
173
     0
291
     1
 45
0.0
1001
ACAD
1000
AcDbSavedByObjectVersion
1070
     0
  0
VISUALSTYLE
  5
2B
102
{ACAD_REACTORS
330
2A
102
}
102
{ACAD_XDICTIONARY
360
213
102
}
330
2A
100
AcDbVisualStyle
  2
Flat
 70
     0
 71
     2
 72
     1
 73
     1
 90
        2
 40
0.6
 41
30.0
 62
     5
 63
     7
421
 16777215
 74
     0
 91
        0
 64
     7
 65
   257
 75
     1
175
     1
 42
1.0
 92
        8
 66
     7
 43
1.0
 76
     1
 77
     6
 78
     2
 67
     7
 79
     5
170
     0
171
     0
290
     0
174
     0
 93
       13
 44
0.0
173
     0
291
     1
 45
0.0
1001
ACAD
1000
AcDbSavedByObjectVersion
1070
     0
  0
VISUALSTYLE
  5
2C
102
{ACAD_REACTORS
330
2A
102
}
102
{ACAD_XDICTIONARY
360
215
102
}
330
2A
100
AcDbVisualStyle
  2
FlatWithEdges
 70
     1
 71
     2
 72
     1
 73
     1
 90
        2
 40
0.6
 41
30.0
 62
     5
 63
     7
421
 16777215
 74
     1
 91
        0
 64
     7
 65
   257
 75
     1
175
     1
 42
1.0
 92
        0
 66
   257
 43
1.0
 76
     1
 77
     6
 78
     2
 67
     7
 79
     5
170
     0
171
     0
290
     0
174
     0
 93
       13
 44
0.0
173
     0
291
     1
 45
0.0
1001
ACAD
1000
AcDbSavedByObjectVersion
1070
     0
  0
VISUALSTYLE
  5
2D
102
{ACAD_REACTORS
330
2A
102
}
102
{ACAD_XDICTIONARY
360
217
102
}
330
2A
100
AcDbVisualStyle
  2
Gouraud
 70
     2
 71
     2
 72
     2
 73
     1
 90
        2
 40
0.6
 41
30.0
 62
     5
 63
     7
421
 16777215
 74
     0
 91
        0
 64
     7
 65
   257
 75
     1
175
     1
 42
1.0
 92
        0
 66
     7
 43
1.0
 76
     1
 77
     6
 78
     2
 67
     7
 79
     5
170
     0
171
     0
290
     0
174
     0
 93
       13
 44
0.0
173
     0
291
     1
 45
0.0
1001
ACAD
1000
AcDbSavedByObjectVersion
1070
     0
  0
VISUALSTYLE
  5
2E
102
{ACAD_REACTORS
330
2A
102
}
102
{ACAD_XDICTIONARY
360
219
102
}
330
2A
100
AcDbVisualStyle
  2
GouraudWithEdges
 70
     3
 71
     2
 72
     2
 73
     1
 90
        2
 40
0.6
 41
30.0
 62
     5
 63
     7
421
 16777215
 74
     1
 91
        0
 64
     7
 65
   257
 75
     1
175
     1
 42
1.0
 92
        0
 66
   257
 43
1.0
 76
     1
 77
     6
 78
     2
 67
     7
 79
     5
170
     0
171
     0
290
     0
174
     0
 93
       13
 44
0.0
173
     0
291
     1
 45
0.0
1001
ACAD
1000
AcDbSavedByObjectVersion
1070
     0
  0
VISUALSTYLE
  5
31
102
{ACAD_REACTORS
330
2A
102
}
102
{ACAD_XDICTIONARY
360
21F
102
}
330
2A
100
AcDbVisualStyle
  2
Hidden
 70
     6
 71
     1
 72
     2
 73
     2
 90
        0
 40
0.6
 41
30.0
 62
     5
 63
     7
421
 16777215
 74
     2
 91
        2
 64
     7
 65
   257
 75
     2
175
     1
 42
40.0
 92
        0
 66
   257
 43
1.0
 76
     1
 77
     6
 78
     2
 67
     7
 79
     3
170
     0
171
     0
290
     0
174
     0
 93
        1
 44
0.0
173
     0
291
     0
 45
0.0
1001
ACAD
1000
AcDbSavedByObjectVersion
1070
     0
  0
VISUALSTYLE
  5
3B
102
{ACAD_REACTORS
330
2A
102
}
102
{ACAD_XDICTIONARY
360
233
102
}
330
2A
100
AcDbVisualStyle
  2
JitterOff
 70
    20
 71
     2
 72
     2
 73
     0
 90
        0
 40
0.6
 41
30.0
 62
     5
 63
     7
421
 16777215
 74
     1
 91
        4
 64
     7
 65
   257
 75
     1
175
     1
 42
1.0
 92
       10
 66
     7
 43
1.0
 76
     1
 77
     6
 78
     2
 67
     7
 79
     5
170
     0
171
     0
290
     0
174
     0
 93
        1
 44
0.0
173
     0
291
     1
 45
0.0
1001
ACAD
1000
AcDbSavedByObjectVersion
1070
     0
  0
VISUALSTYLE
  5
38
102
{ACAD_REACTORS
330
2A
102
}
102
{ACAD_XDICTIONARY
360
22D
102
}
330
2A
100
AcDbVisualStyle
  2
Linepattern
 70
    14
 71
     2
 72
     2
 73
     0
 90
        0
 40
0.6
 41
30.0
 62
     5
 63
     7
421
 16777215
 74
     1
 91
        4
 64
     7
 65
   257
 75
     7
175
     7
 42
1.0
 92
        8
 66
     7
 43
1.0
 76
     1
 77
     6
 78
     2
 67
     7
 79
     5
170
     0
171
     0
290
     0
174
     0
 93
        1
 44
0.0
173
     0
291
     1
 45
0.0
1001
ACAD
1000
AcDbSavedByObjectVersion
1070
     0
  0
VISUALSTYLE
  5
3C
102
{ACAD_REACTORS
330
2A
102
}
102
{ACAD_XDICTIONARY
360
235
102
}
330
2A
100
AcDbVisualStyle
  2
OverhangOff
 70
    21
 71
     2
 72
     2
 73
     0
 90
        0
 40
0.6
 41
30.0
 62
     5
 63
     7
421
 16777215
 74
     1
 91
        4
 64
     7
 65
   257
 75
     1
175
     1
 42
1.0
 92
        9
 66
     7
 43
1.0
 76
     1
 77
     6
 78
     2
 67
     7
 79
     5
170
     0
171
     0
290
     0
174
     0
 93
        1
 44
0.0
173
     0
291
     1
 45
0.0
1001
ACAD
1000
AcDbSavedByObjectVersion
1070
     0
  0
VISUALSTYLE
  5
33
102
{ACAD_REACTORS
330
2A
102
}
102
{ACAD_XDICTIONARY
360
223
102
}
330
2A
100
AcDbVisualStyle
  2
Realistic
 70
     8
 71
     2
 72
     3
 73
     0
 90
        2
 40
0.6
 41
30.0
 62
     5
 63
     7
421
 16777215
 74
     0
 91
        0
 64
     7
 65
   257
 75
     1
175
     1
 42
1.0
 92
        8
 66
   257
 43
1.0
 76
     1
 77
     6
 78
     2
 67
     7
 79
     3
170
     0
171
     0
290
     0
174
     0
 93
       13
 44
0.0
173
     0
291
     0
 45
0.0
1001
ACAD
1000
AcDbSavedByObjectVersion
1070
     0
  0
VISUALSTYLE
  5
42
102
{ACAD_REACTORS
330
2A
102
}
102
{ACAD_XDICTIONARY
360
241
102
}
330
2A
100
AcDbVisualStyle
  2
Shaded
 70
    27
 71
     2
 72
     2
 73
     1
 90
        2
 40
0.6
 41
30.0
 62
     5
 63
     7
421
 16777215
 74
     0
 91
        4
 64
     7
 65
   257
 75
     1
175
     1
 42
1.0
 92
        8
 66
   257
 43
1.0
 76
     1
 77
     6
 78
     2
 67
     8
425
  7895160
 79
     3
170
     0
171
     0
290
     0
174
     0
 93
        5
 44
0.0
173
     0
291
     0
 45
0.0
1001
ACAD
1000
AcDbSavedByObjectVersion
1070
     0
  0
VISUALSTYLE
  5
41
102
{ACAD_REACTORS
330
2A
102
}
102
{ACAD_XDICTIONARY
360
23F
102
}
330
2A
100
AcDbVisualStyle
  2
Shaded with edges
 70
    26
 71
     2
 72
     2
 73
     1
 90
        2
 40
0.6
 41
30.0
 62
     5
 63
     7
421
 16777215
 74
     1
 91
       10
 64
     7
 65
   257
 75
     2
175
     1
 42
1.0
 92
        8
 66
   257
 43
1.0
 76
     1
 77
     6
 78
     2
 67
     7
 79
     3
170
     0
171
     0
290
     0
174
     0
 93
        5
 44
0.0
173
     0
291
     0
 45
0.0
1001
ACAD
1000
AcDbSavedByObjectVersion
1070
     0
  0
VISUALSTYLE
  5
3E
102
{ACAD_REACTORS
330
2A
102
}
102
{ACAD_XDICTIONARY
360
239
102
}
330
2A
100
AcDbVisualStyle
  2
Shades of Gray
 70
    23
 71
     2
 72
     2
 73
     3
 90
        0
 40
0.6
 41
30.0
 62
     5
 63
     7
421
 16777215
 74
     2
 91
        2
 64
     7
 65
     7
 75
     1
175
     1
 42
40.0
 92
        8
 66
     7
 43
1.0
 76
     1
 77
     6
 78
     2
 67
     7
 79
     3
170
     0
171
     0
290
     0
174
     0
 93
        1
 44
0.0
173
     0
291
     0
 45
0.0
1001
ACAD
1000
AcDbSavedByObjectVersion
1070
     0
  0
VISUALSTYLE
  5
3F
102
{ACAD_REACTORS
330
2A
102
}
102
{ACAD_XDICTIONARY
360
23B
102
}
330
2A
100
AcDbVisualStyle
  2
Sketchy
 70
    24
 71
     1
 72
     2
 73
     2
 90
        0
 40
0.6
 41
30.0
 62
     5
 63
     7
421
 16777215
 74
     2
 91
        2
 64
     7
 65
     7
 75
     1
175
     1
 42
40.0
 92
       11
 66
     7
 43
1.0
 76
     1
 77
     6
 78
     2
 67
     7
 79
     6
170
     0
171
     0
290
     0
174
     0
 93
        1
 44
0.0
173
     0
291
     0
 45
0.0
1001
ACAD
1000
AcDbSavedByObjectVersion
1070
     0
  0
VISUALSTYLE
  5
37
102
{ACAD_REACTORS
330
2A
102
}
102
{ACAD_XDICTIONARY
360
22B
102
}
330
2A
100
AcDbVisualStyle
  2
Thicken
 70
    13
 71
     2
 72
     2
 73
     0
 90
        0
 40
0.6
 41
30.0
 62
     5
 63
     7
421
 16777215
 74
     1
 91
        4
 64
     7
 65
   257
 75
     1
175
     1
 42
1.0
 92
       12
 66
     7
 43
1.0
 76
     1
 77
     6
 78
     2
 67
     7
 79
     5
170
     0
171
     0
290
     0
174
     0
 93
        1
 44
0.0
173
     0
291
     1
 45
0.0
1001
ACAD
1000
AcDbSavedByObjectVersion
1070
     0
  0
VISUALSTYLE
  5
30
102
{ACAD_REACTORS
330
2A
102
}
102
{ACAD_XDICTIONARY
360
21D
102
}
330
2A
100
AcDbVisualStyle
  2
Wireframe
 70
     5
 71
     0
 72
     2
 73
     0
 90
        0
 40
0.6
 41
30.0
 62
     5
 63
     7
421
 16777215
 74
     1
 91
        4
 64
     7
 65
   257
 75
     1
175
     1
 42
1.0
 92
        0
 66
   257
 43
1.0
 76
     1
 77
     6
 78
     2
 67
     7
 79
     3
170
     0
171
     0
290
     0
174
     0
 93
        1
 44
0.0
173
     0
291
     0
 45
0.0
1001
ACAD
1000
AcDbSavedByObjectVersion
1070
     0
  0
VISUALSTYLE
  5
40
102
{ACAD_REACTORS
330
2A
102
}
102
{ACAD_XDICTIONARY
360
23D
102
}
330
2A
100
AcDbVisualStyle
  2
X-Ray
 70
    25
 71
     2
 72
     2
 73
     1
 90
        1
 40
0.5
 41
30.0
 62
     5
 63
     7
421
 16777215
 74
     1
 91
        0
 64
     7
 65
   257
 75
     1
175
     1
 42
1.0
 92
        8
 66
     7
 43
1.0
 76
     1
 77
     6
 78
     2
 67
     7
 79
     3
170
     0
171
     0
290
     0
174
     0
 93
       13
 44
0.0
173
     0
291
     0
 45
0.0
1001
ACAD
1000
AcDbSavedByObjectVersion
1070
     0
  0
DICTIONARYVAR
  5
210
102
{ACAD_REACTORS
330
20F
102
}
330
20F
100
DictionaryVariables
280
     0
  1
1:1
  0
DICTIONARYVAR
  5
254
102
{ACAD_REACTORS
330
20F
102
}
330
20F
100
DictionaryVariables
280
     0
  1
3.500000
  0
DICTIONARYVAR
  5
255
102
{ACAD_REACTORS
330
20F
102
}
330
20F
100
DictionaryVariables
280
     0
  1
acadiso.lin
  0
DICTIONARYVAR
  5
251
102
{ACAD_REACTORS
330
20F
102
}
330
20F
100
DictionaryVariables
280
     0
  1
Standard
  0
DICTIONARYVAR
  5
250
102
{ACAD_REACTORS
330
20F
102
}
330
20F
100
DictionaryVariables
280
     0
  1
Standard
  0
DICTIONARYVAR
  5
211
102
{ACAD_REACTORS
330
20F
102
}
330
20F
100
DictionaryVariables
280
     0
  1
1
  0
DICTIONARYVAR
  5
212
102
{ACAD_REACTORS
330
20F
102
}
330
20F
100
DictionaryVariables
280
     0
  1
2
  0
DICTIONARY
  5
245
330
45
100
AcDbDictionary
280
     1
281
     1
  3
ACAD_XREC_ROUNDTRIP
360
246
  0
DICTIONARY
  5
243
330
44
100
AcDbDictionary
280
     1
281
     1
  3
ACAD_XREC_ROUNDTRIP
360
244
  0
DICTIONARY
  5
247
330
46
100
AcDbDictionary
280
     1
281
     1
  3
ACAD_XREC_ROUNDTRIP
360
248
  0
DICTIONARY
  5
24D
330
6C
100
AcDbDictionary
280
     1
281
     1
  3
ACAD_XREC_ROUNDTRIP
360
24E
  0
DICTIONARY
  5
249
330
6A
100
AcDbDictionary
280
     1
281
     1
  3
ACAD_ROUNDTRIP_2008_TABLESTYLE_CELLSTYLEMAP
360
24B
  3
ACAD_XREC_ROUNDTRIP
360
24A
  0
DICTIONARY
  5
21B
330
2F
100
AcDbDictionary
280
     1
281
     1
  3
ACAD_XREC_ROUNDTRIP
360
21C
  0
DICTIONARY
  5
221
330
32
100
AcDbDictionary
280
     1
281
     1
  3
ACAD_XREC_ROUNDTRIP
360
222
  0
DICTIONARY
  5
229
330
36
100
AcDbDictionary
280
     1
281
     1
  3
ACAD_XREC_ROUNDTRIP
360
22A
  0
DICTIONARY
  5
231
330
3A
100
AcDbDictionary
280
     1
281
     1
  3
ACAD_XREC_ROUNDTRIP
360
232
  0
DICTIONARY
  5
225
330
34
100
AcDbDictionary
280
     1
281
     1
  3
ACAD_XREC_ROUNDTRIP
360
226
  0
DICTIONARY
  5
227
330
35
100
AcDbDictionary
280
     1
281
     1
  3
ACAD_XREC_ROUNDTRIP
360
228
  0
DICTIONARY
  5
237
330
3D
100
AcDbDictionary
280
     1
281
     1
  3
ACAD_XREC_ROUNDTRIP
360
238
  0
DICTIONARY
  5
22F
330
39
100
AcDbDictionary
280
     1
281
     1
  3
ACAD_XREC_ROUNDTRIP
360
230
  0
DICTIONARY
  5
213
330
2B
100
AcDbDictionary
280
     1
281
     1
  3
ACAD_XREC_ROUNDTRIP
360
214
  0
DICTIONARY
  5
215
330
2C
100
AcDbDictionary
280
     1
281
     1
  3
ACAD_XREC_ROUNDTRIP
360
216
  0
DICTIONARY
  5
217
330
2D
100
AcDbDictionary
280
     1
281
     1
  3
ACAD_XREC_ROUNDTRIP
360
218
  0
DICTIONARY
  5
219
330
2E
100
AcDbDictionary
280
     1
281
     1
  3
ACAD_XREC_ROUNDTRIP
360
21A
  0
DICTIONARY
  5
21F
330
31
100
AcDbDictionary
280
     1
281
     1
  3
ACAD_XREC_ROUNDTRIP
360
220
  0
DICTIONARY
  5
233
330
3B
100
AcDbDictionary
280
     1
281
     1
  3
ACAD_XREC_ROUNDTRIP
360
234
  0
DICTIONARY
  5
22D
330
38
100
AcDbDictionary
280
     1
281
     1
  3
ACAD_XREC_ROUNDTRIP
360
22E
  0
DICTIONARY
  5
235
330
3C
100
AcDbDictionary
280
     1
281
     1
  3
ACAD_XREC_ROUNDTRIP
360
236
  0
DICTIONARY
  5
223
330
33
100
AcDbDictionary
280
     1
281
     1
  3
ACAD_XREC_ROUNDTRIP
360
224
  0
DICTIONARY
  5
241
330
42
100
AcDbDictionary
280
     1
281
     1
  3
ACAD_XREC_ROUNDTRIP
360
242
  0
DICTIONARY
  5
23F
330
41
100
AcDbDictionary
280
     1
281
     1
  3
ACAD_XREC_ROUNDTRIP
360
240
  0
DICTIONARY
  5
239
330
3E
100
AcDbDictionary
280
     1
281
     1
  3
ACAD_XREC_ROUNDTRIP
360
23A
  0
DICTIONARY
  5
23B
330
3F
100
AcDbDictionary
280
     1
281
     1
  3
ACAD_XREC_ROUNDTRIP
360
23C
  0
DICTIONARY
  5
22B
330
37
100
AcDbDictionary
280
     1
281
     1
  3
ACAD_XREC_ROUNDTRIP
360
22C
  0
DICTIONARY
  5
21D
330
30
100
AcDbDictionary
280
     1
281
     1
  3
ACAD_XREC_ROUNDTRIP
360
21E
  0
DICTIONARY
  5
23D
330
40
100
AcDbDictionary
280
     1
281
     1
  3
ACAD_XREC_ROUNDTRIP
360
23E
  0
XRECORD
  5
246
102
{ACAD_REACTORS
330
245
102
}
330
245
100
AcDbXrecord
280
     1
102
MATERIAL
148
0.0
149
0.0
149
0.0
 93
        0
 94
      127
282
     0
 72
     1
 77
     1
171
     1
175
     1
179
     1
273
     0
  0
XRECORD
  5
244
102
{ACAD_REACTORS
330
243
102
}
330
243
100
AcDbXrecord
280
     1
102
MATERIAL
148
0.0
149
0.0
149
0.0
 93
        0
 94
      127
282
     0
 72
     1
 77
     1
171
     1
175
     1
179
     1
273
     0
  0
XRECORD
  5
248
102
{ACAD_REACTORS
330
247
102
}
330
247
100
AcDbXrecord
280
     1
102
MATERIAL
148
0.0
149
0.0
149
0.0
 93
        0
 94
      127
282
     0
 72
     1
 77
     1
171
     1
175
     1
179
     1
273
     0
  0
XRECORD
  5
24E
102
{ACAD_REACTORS
330
24D
102
}
330
24D
100
AcDbXrecord
280
     1
102
ACAD_ROUNDTRIP_2010_MLEADER_STYLE
  0
CELLSTYLEMAP
  5
24B
102
{ACAD_REACTORS
330
249
102
}
330
249
100
AcDbCellStyleMap
 90
        3
300
CELLSTYLE
  1
TABLEFORMAT_BEGIN
 90
        5
170
     1
 91
        0
 92
    32768
 62
   257
 93
        1
300
CONTENTFORMAT
  1
CONTENTFORMAT_BEGIN
 90
        0
 91
        0
 92
        4
 93
        0
300

 40
0.0
140
1.0
 94
        5
 62
     0
340
11
144
6.0
309
CONTENTFORMAT_END
171
     1
301
MARGIN
  1
CELLMARGIN_BEGIN
 40
1.5
 40
1.5
 40
1.5
 40
1.5
 40
1.5
 40
1.5
309
CELLMARGIN_END
 94
        6
 95
        1
302
GRIDFORMAT
  1
GRIDFORMAT_BEGIN
 90
        0
 91
        1
 62
     0
 92
       -2
340
14
 93
        0
 40
0.045
309
GRIDFORMAT_END
 95
        2
302
GRIDFORMAT
  1
GRIDFORMAT_BEGIN
 90
        0
 91
        1
 62
     0
 92
       -2
340
14
 93
        0
 40
0.045
309
GRIDFORMAT_END
 95
        4
302
GRIDFORMAT
  1
GRIDFORMAT_BEGIN
 90
        0
 91
        1
 62
     0
 92
       -2
340
14
 93
        0
 40
0.045
309
GRIDFORMAT_END
 95
        8
302
GRIDFORMAT
  1
GRIDFORMAT_BEGIN
 90
        0
 91
        1
 62
     0
 92
       -2
340
14
 93
        0
 40
0.045
309
GRIDFORMAT_END
 95
       16
302
GRIDFORMAT
  1
GRIDFORMAT_BEGIN
 90
        0
 91
        1
 62
     0
 92
       -2
340
14
 93
        0
 40
0.045
309
GRIDFORMAT_END
 95
       32
302
GRIDFORMAT
  1
GRIDFORMAT_BEGIN
 90
        0
 91
        1
 62
     0
 92
       -2
340
14
 93
        0
 40
0.045
309
GRIDFORMAT_END
309
TABLEFORMAT_END
  1
CELLSTYLE_BEGIN
 90
        1
 91
        1
300
_TITLE
309
CELLSTYLE_END
300
CELLSTYLE
  1
TABLEFORMAT_BEGIN
 90
        5
170
     1
 91
        0
 92
        0
 62
   257
 93
        1
300
CONTENTFORMAT
  1
CONTENTFORMAT_BEGIN
 90
        0
 91
        0
 92
        4
 93
        0
300

 40
0.0
140
1.0
 94
        5
 62
     0
340
11
144
4.5
309
CONTENTFORMAT_END
171
     1
301
MARGIN
  1
CELLMARGIN_BEGIN
 40
1.5
 40
1.5
 40
1.5
 40
1.5
 40
1.5
 40
1.5
309
CELLMARGIN_END
 94
        6
 95
        1
302
GRIDFORMAT
  1
GRIDFORMAT_BEGIN
 90
        0
 91
        1
 62
     0
 92
       -2
340
14
 93
        0
 40
0.045
309
GRIDFORMAT_END
 95
        2
302
GRIDFORMAT
  1
GRIDFORMAT_BEGIN
 90
        0
 91
        1
 62
     0
 92
       -2
340
14
 93
        0
 40
0.045
309
GRIDFORMAT_END
 95
        4
302
GRIDFORMAT
  1
GRIDFORMAT_BEGIN
 90
        0
 91
        1
 62
     0
 92
       -2
340
14
 93
        0
 40
0.045
309
GRIDFORMAT_END
 95
        8
302
GRIDFORMAT
  1
GRIDFORMAT_BEGIN
 90
        0
 91
        1
 62
     0
 92
       -2
340
14
 93
        0
 40
0.045
309
GRIDFORMAT_END
 95
       16
302
GRIDFORMAT
  1
GRIDFORMAT_BEGIN
 90
        0
 91
        1
 62
     0
 92
       -2
340
14
 93
        0
 40
0.045
309
GRIDFORMAT_END
 95
       32
302
GRIDFORMAT
  1
GRIDFORMAT_BEGIN
 90
        0
 91
        1
 62
     0
 92
       -2
340
14
 93
        0
 40
0.045
309
GRIDFORMAT_END
309
TABLEFORMAT_END
  1
CELLSTYLE_BEGIN
 90
        2
 91
        1
300
_HEADER
309
CELLSTYLE_END
300
CELLSTYLE
  1
TABLEFORMAT_BEGIN
 90
        5
170
     1
 91
        0
 92
        0
 62
   257
 93
        1
300
CONTENTFORMAT
  1
CONTENTFORMAT_BEGIN
 90
        0
 91
        0
 92
        4
 93
        0
300

 40
0.0
140
1.0
 94
        2
 62
     0
340
11
144
4.5
309
CONTENTFORMAT_END
171
     1
301
MARGIN
  1
CELLMARGIN_BEGIN
 40
1.5
 40
1.5
 40
1.5
 40
1.5
 40
1.5
 40
1.5
309
CELLMARGIN_END
 94
        6
 95
        1
302
GRIDFORMAT
  1
GRIDFORMAT_BEGIN
 90
        0
 91
        1
 62
     0
 92
       -2
340
14
 93
        0
 40
0.045
309
GRIDFORMAT_END
 95
        2
302
GRIDFORMAT
  1
GRIDFORMAT_BEGIN
 90
        0
 91
        1
 62
     0
 92
       -2
340
14
 93
        0
 40
0.045
309
GRIDFORMAT_END
 95
        4
302
GRIDFORMAT
  1
GRIDFORMAT_BEGIN
 90
        0
 91
        1
 62
     0
 92
       -2
340
14
 93
        0
 40
0.045
309
GRIDFORMAT_END
 95
        8
302
GRIDFORMAT
  1
GRIDFORMAT_BEGIN
 90
        0
 91
        1
 62
     0
 92
       -2
340
14
 93
        0
 40
0.045
309
GRIDFORMAT_END
 95
       16
302
GRIDFORMAT
  1
GRIDFORMAT_BEGIN
 90
        0
 91
        1
 62
     0
 92
       -2
340
14
 93
        0
 40
0.045
309
GRIDFORMAT_END
 95
       32
302
GRIDFORMAT
  1
GRIDFORMAT_BEGIN
 90
        0
 91
        1
 62
     0
 92
       -2
340
14
 93
        0
 40
0.045
309
GRIDFORMAT_END
309
TABLEFORMAT_END
  1
CELLSTYLE_BEGIN
 90
        3
 91
        2
300
_DATA
309
CELLSTYLE_END
  0
XRECORD
  5
24A
102
{ACAD_REACTORS
330
249
102
}
330
249
100
AcDbXrecord
280
     1
102
ACAD_ROUNDTRIP_PRE2007_TABLESTYLE
 90
        4
 91
        0
  1

 92
        4
 93
        0
  2

 94
        4
 95
        0
  3

  0
XRECORD
  5
21C
102
{ACAD_REACTORS
330
21B
102
}
330
21B
100
AcDbXrecord
280
     1
102
RTVSPropertyOp0
 70
     1
102
RTVSPropertyOp1
 70
     1
102
RTVSPropertyOp2
 70
     1
102
RTVSPropertyOp3
 70
     1
102
RTVSPropertyOp4
 70
     1
102
RTVSPropertyOp5
 70
     1
102
RTVSPropertyOp6
 70
     1
102
RTVSPropertyOp7
 70
     1
102
RTVSPropertyOp8
 70
     1
102
RTVSPropertyOp9
 70
     1
102
RTVSPropertyOp10
 70
     1
102
RTVSPropertyOp11
 70
     1
102
RTVSPropertyOp12
 70
     1
102
RTVSPropertyOp13
 70
     1
102
RTVSPropertyOp14
 70
     1
102
RTVSPropertyOp15
 70
     1
102
RTVSPropertyOp16
 70
     1
102
RTVSPropertyOp17
 70
     1
102
RTVSPropertyOp18
 70
     1
102
RTVSPropertyOp19
 70
     1
102
RTVSPropertyOp20
 70
     1
102
RTVSPropertyOp21
 70
     1
102
RTVSPropertyOp22
 70
     1
102
RTVSPropertyOp23
 70
     1
102
RTVSPropertyOp24
 70
     1
102
RTVSPropertyOp25
 70
     1
102
RTVSPropertyOp26
 70
     1
102
RTVSPropertyOp27
 70
     1
102
RTVSPropertyOp28
 70
     1
102
RTVSPropertyOp29
 70
     1
102
RTVSPropertyOp30
 70
     1
102
RTVSPropertyOp31
 70
     1
102
RTVSPropertyOp32
 70
     1
102
RTVSPropertyOp33
 70
     1
102
RTVSPropertyOp34
 70
     1
102
RTVSPropertyOp35
 70
     1
102
RTVSPropertyOp36
 70
     1
102
RTVSPropertyOp37
 70
     1
102
RTVSPropertyOp38
 70
     1
102
RTVSPropertyOp39
 70
     1
102
RTVSPropertyOp40
 70
     1
102
RTVSPropertyOp41
 70
     1
102
RTVSPropertyOp42
 70
     1
102
RTVSPropertyOp43
 70
     1
102
RTVSPropertyOp44
 70
     1
102
RTVSPropertyOp45
 70
     1
102
RTVSPropertyOp46
 70
     1
102
RTVSPropertyOp47
 70
     1
102
RTVSPropertyOp48
 70
     1
102
RTVSPropertyOp49
 70
     1
102
RTVSPropertyOp50
 70
     1
102
RTVSPropertyOp51
 70
     0
102
RTVSPropertyOp52
 70
     0
102
RTVSPropertyOp53
 70
     1
102
RTVSPropertyOp54
 70
     1
102
RTVSPropertyOp55
 70
     1
102
RTVSPropertyOp56
 70
     1
102
RTVSPropertyOp57
 70
     1
102
RTVSPost2010Prop28
280
     1
102
RTVSPost2010PropOp28
 70
     1
102
RTVSPost2010Prop29
280
     1
102
RTVSPost2010PropOp29
 70
     1
102
RTVSPost2010Prop30
280
     0
102
RTVSPost2010PropOp30
 70
     1
102
RTVSPost2010Prop31
280
     0
102
RTVSPost2010PropOp31
 70
     1
102
RTVSPost2010Prop32
280
     0
102
RTVSPost2010PropOp32
 70
     1
102
RTVSPost2010Prop33
280
     0
102
RTVSPost2010PropOp33
 70
     1
102
RTVSPost2010Prop34
280
     0
102
RTVSPost2010PropOp34
 70
     1
102
RTVSPost2010Prop35
280
     0
102
RTVSPost2010PropOp35
 70
     1
102
RTVSPost2010Prop36
280
     0
102
RTVSPost2010PropOp36
 70
     1
102
RTVSPost2010Prop37
 90
       50
102
RTVSPost2010PropOp37
 70
     1
102
RTVSPost2010Prop38
140
0.0
102
RTVSPost2010PropOp38
 70
     1
102
RTVSPost2010Prop39
140
1.0
102
RTVSPost2010PropOp39
 70
     1
102
RTVSPost2010Prop40
 90
        0
102
RTVSPost2010PropOp40
 70
     1
102
RTVSPost2010Prop41ColorIndex
 90
       18
102
RTVSPost2010Prop41ColorRGB
 90
        0
102
RTVSPost2010PropOp41
 70
     1
102
RTVSPost2010Prop42
 90
       50
102
RTVSPost2010PropOp42
 70
     1
102
RTVSPost2010Prop43
 90
        3
102
RTVSPost2010PropOp43
 70
     1
102
RTVSPost2010Prop44ColorIndex
 90
        5
102
RTVSPost2010Prop44ColorRGB
 90
      255
102
RTVSPost2010PropOp44
 70
     1
102
RTVSPost2010Prop45
280
     0
102
RTVSPost2010PropOp45
 70
     1
102
RTVSPost2010Prop46
 90
       50
102
RTVSPost2010PropOp46
 70
     1
102
RTVSPost2010Prop47
 90
       50
102
RTVSPost2010PropOp47
 70
     1
102
RTVSPost2010Prop48
 90
       50
102
RTVSPost2010PropOp48
 70
     1
102
RTVSPost2010Prop49
280
     0
102
RTVSPost2010PropOp49
 70
     1
102
RTVSPost2010Prop50
 90
       50
102
RTVSPost2010PropOp50
 70
     1
102
RTVSPost2010Prop51ColorIndex
 90
      256
102
RTVSPost2010Prop51ColorRGB
 90
-16777216
102
RTVSPost2010PropOp51
 70
     0
102
RTVSPost2010Prop52
140
1.0
102
RTVSPost2010PropOp52
 70
     0
102
RTVSPost2010Prop53
 90
        2
102
RTVSPost2010PropOp53
 70
     1
102
RTVSPost2010Prop54
  1
strokes_ogs.tif
102
RTVSPost2010PropOp54
 70
     1
102
RTVSPost2010Prop55
280
     0
102
RTVSPost2010PropOp55
 70
     1
102
RTVSPost2010Prop56
140
1.0
102
RTVSPost2010PropOp56
 70
     1
102
RTVSPost2010Prop57
140
1.0
102
RTVSPost2010PropOp57
 70
     1
  0
XRECORD
  5
222
102
{ACAD_REACTORS
330
221
102
}
330
221
100
AcDbXrecord
280
     1
102
RTVSPropertyOp0
 70
     1
102
RTVSPropertyOp1
 70
     1
102
RTVSPropertyOp2
 70
     1
102
RTVSPropertyOp3
 70
     1
102
RTVSPropertyOp4
 70
     1
102
RTVSPropertyOp5
 70
     1
102
RTVSPropertyOp6
 70
     1
102
RTVSPropertyOp7
 70
     1
102
RTVSPropertyOp8
 70
     1
102
RTVSPropertyOp9
 70
     1
102
RTVSPropertyOp10
 70
     1
102
RTVSPropertyOp11
 70
     1
102
RTVSPropertyOp12
 70
     1
102
RTVSPropertyOp13
 70
     1
102
RTVSPropertyOp14
 70
     1
102
RTVSPropertyOp15
 70
     1
102
RTVSPropertyOp16
 70
     1
102
RTVSPropertyOp17
 70
     1
102
RTVSPropertyOp18
 70
     1
102
RTVSPropertyOp19
 70
     1
102
RTVSPropertyOp20
 70
     1
102
RTVSPropertyOp21
 70
     1
102
RTVSPropertyOp22
 70
     1
102
RTVSPropertyOp23
 70
     1
102
RTVSPropertyOp24
 70
     1
102
RTVSPropertyOp25
 70
     1
102
RTVSPropertyOp26
 70
     1
102
RTVSPropertyOp27
 70
     1
102
RTVSPropertyOp28
 70
     1
102
RTVSPropertyOp29
 70
     1
102
RTVSPropertyOp30
 70
     1
102
RTVSPropertyOp31
 70
     1
102
RTVSPropertyOp32
 70
     1
102
RTVSPropertyOp33
 70
     1
102
RTVSPropertyOp34
 70
     1
102
RTVSPropertyOp35
 70
     1
102
RTVSPropertyOp36
 70
     1
102
RTVSPropertyOp37
 70
     1
102
RTVSPropertyOp38
 70
     1
102
RTVSPropertyOp39
 70
     1
102
RTVSPropertyOp40
 70
     1
102
RTVSPropertyOp41
 70
     1
102
RTVSPropertyOp42
 70
     1
102
RTVSPropertyOp43
 70
     1
102
RTVSPropertyOp44
 70
     1
102
RTVSPropertyOp45
 70
     1
102
RTVSPropertyOp46
 70
     1
102
RTVSPropertyOp47
 70
     1
102
RTVSPropertyOp48
 70
     1
102
RTVSPropertyOp49
 70
     1
102
RTVSPropertyOp50
 70
     1
102
RTVSPropertyOp51
 70
     0
102
RTVSPropertyOp52
 70
     0
102
RTVSPropertyOp53
 70
     1
102
RTVSPropertyOp54
 70
     1
102
RTVSPropertyOp55
 70
     1
102
RTVSPropertyOp56
 70
     1
102
RTVSPropertyOp57
 70
     1
102
RTVSPost2010Prop28
280
     0
102
RTVSPost2010PropOp28
 70
     1
102
RTVSPost2010Prop29
280
     1
102
RTVSPost2010PropOp29
 70
     1
102
RTVSPost2010Prop30
280
     1
102
RTVSPost2010PropOp30
 70
     1
102
RTVSPost2010Prop31
280
     0
102
RTVSPost2010PropOp31
 70
     1
102
RTVSPost2010Prop32
280
     0
102
RTVSPost2010PropOp32
 70
     1
102
RTVSPost2010Prop33
280
     0
102
RTVSPost2010PropOp33
 70
     1
102
RTVSPost2010Prop34
280
     0
102
RTVSPost2010PropOp34
 70
     1
102
RTVSPost2010Prop35
280
     0
102
RTVSPost2010PropOp35
 70
     1
102
RTVSPost2010Prop36
280
     0
102
RTVSPost2010PropOp36
 70
     1
102
RTVSPost2010Prop37
 90
       50
102
RTVSPost2010PropOp37
 70
     1
102
RTVSPost2010Prop38
140
0.0
102
RTVSPost2010PropOp38
 70
     1
102
RTVSPost2010Prop39
140
1.0
102
RTVSPost2010PropOp39
 70
     1
102
RTVSPost2010Prop40
 90
        0
102
RTVSPost2010PropOp40
 70
     1
102
RTVSPost2010Prop41ColorIndex
 90
       18
102
RTVSPost2010Prop41ColorRGB
 90
        0
102
RTVSPost2010PropOp41
 70
     1
102
RTVSPost2010Prop42
 90
       50
102
RTVSPost2010PropOp42
 70
     1
102
RTVSPost2010Prop43
 90
        3
102
RTVSPost2010PropOp43
 70
     1
102
RTVSPost2010Prop44ColorIndex
 90
        5
102
RTVSPost2010Prop44ColorRGB
 90
      255
102
RTVSPost2010PropOp44
 70
     1
102
RTVSPost2010Prop45
280
     0
102
RTVSPost2010PropOp45
 70
     1
102
RTVSPost2010Prop46
 90
       50
102
RTVSPost2010PropOp46
 70
     1
102
RTVSPost2010Prop47
 90
       50
102
RTVSPost2010PropOp47
 70
     1
102
RTVSPost2010Prop48
 90
       50
102
RTVSPost2010PropOp48
 70
     1
102
RTVSPost2010Prop49
280
     0
102
RTVSPost2010PropOp49
 70
     1
102
RTVSPost2010Prop50
 90
       50
102
RTVSPost2010PropOp50
 70
     1
102
RTVSPost2010Prop51ColorIndex
 90
      256
102
RTVSPost2010Prop51ColorRGB
 90
-16777216
102
RTVSPost2010PropOp51
 70
     0
102
RTVSPost2010Prop52
140
1.0
102
RTVSPost2010PropOp52
 70
     0
102
RTVSPost2010Prop53
 90
        2
102
RTVSPost2010PropOp53
 70
     1
102
RTVSPost2010Prop54
  1
strokes_ogs.tif
102
RTVSPost2010PropOp54
 70
     1
102
RTVSPost2010Prop55
280
     0
102
RTVSPost2010PropOp55
 70
     1
102
RTVSPost2010Prop56
140
1.0
102
RTVSPost2010PropOp56
 70
     1
102
RTVSPost2010Prop57
140
1.0
102
RTVSPost2010PropOp57
 70
     1
  0
XRECORD
  5
22A
102
{ACAD_REACTORS
330
229
102
}
330
229
100
AcDbXrecord
280
     1
102
RTVSPropertyOp0
 70
     1
102
RTVSPropertyOp1
 70
     1
102
RTVSPropertyOp2
 70
     1
102
RTVSPropertyOp3
 70
     1
102
RTVSPropertyOp4
 70
     1
102
RTVSPropertyOp5
 70
     1
102
RTVSPropertyOp6
 70
     1
102
RTVSPropertyOp7
 70
     1
102
RTVSPropertyOp8
 70
     1
102
RTVSPropertyOp9
 70
     1
102
RTVSPropertyOp10
 70
     1
102
RTVSPropertyOp11
 70
     1
102
RTVSPropertyOp12
 70
     1
102
RTVSPropertyOp13
 70
     1
102
RTVSPropertyOp14
 70
     1
102
RTVSPropertyOp15
 70
     1
102
RTVSPropertyOp16
 70
     1
102
RTVSPropertyOp17
 70
     1
102
RTVSPropertyOp18
 70
     1
102
RTVSPropertyOp19
 70
     1
102
RTVSPropertyOp20
 70
     1
102
RTVSPropertyOp21
 70
     1
102
RTVSPropertyOp22
 70
     1
102
RTVSPropertyOp23
 70
     1
102
RTVSPropertyOp24
 70
     1
102
RTVSPropertyOp25
 70
     1
102
RTVSPropertyOp26
 70
     1
102
RTVSPropertyOp27
 70
     1
102
RTVSPropertyOp28
 70
     1
102
RTVSPropertyOp29
 70
     1
102
RTVSPropertyOp30
 70
     1
102
RTVSPropertyOp31
 70
     1
102
RTVSPropertyOp32
 70
     1
102
RTVSPropertyOp33
 70
     1
102
RTVSPropertyOp34
 70
     1
102
RTVSPropertyOp35
 70
     1
102
RTVSPropertyOp36
 70
     1
102
RTVSPropertyOp37
 70
     1
102
RTVSPropertyOp38
 70
     1
102
RTVSPropertyOp39
 70
     1
102
RTVSPropertyOp40
 70
     1
102
RTVSPropertyOp41
 70
     1
102
RTVSPropertyOp42
 70
     1
102
RTVSPropertyOp43
 70
     1
102
RTVSPropertyOp44
 70
     1
102
RTVSPropertyOp45
 70
     1
102
RTVSPropertyOp46
 70
     1
102
RTVSPropertyOp47
 70
     1
102
RTVSPropertyOp48
 70
     1
102
RTVSPropertyOp49
 70
     1
102
RTVSPropertyOp50
 70
     1
102
RTVSPropertyOp51
 70
     0
102
RTVSPropertyOp52
 70
     0
102
RTVSPropertyOp53
 70
     1
102
RTVSPropertyOp54
 70
     1
102
RTVSPropertyOp55
 70
     1
102
RTVSPropertyOp56
 70
     1
102
RTVSPropertyOp57
 70
     1
102
RTVSPost2010Prop28
280
     0
102
RTVSPost2010PropOp28
 70
     1
102
RTVSPost2010Prop29
280
     1
102
RTVSPost2010PropOp29
 70
     1
102
RTVSPost2010Prop30
280
     1
102
RTVSPost2010PropOp30
 70
     1
102
RTVSPost2010Prop31
280
     0
102
RTVSPost2010PropOp31
 70
     1
102
RTVSPost2010Prop32
280
     0
102
RTVSPost2010PropOp32
 70
     1
102
RTVSPost2010Prop33
280
     0
102
RTVSPost2010PropOp33
 70
     1
102
RTVSPost2010Prop34
280
     0
102
RTVSPost2010PropOp34
 70
     1
102
RTVSPost2010Prop35
280
     0
102
RTVSPost2010PropOp35
 70
     1
102
RTVSPost2010Prop36
280
     0
102
RTVSPost2010PropOp36
 70
     1
102
RTVSPost2010Prop37
 90
       50
102
RTVSPost2010PropOp37
 70
     1
102
RTVSPost2010Prop38
140
0.0
102
RTVSPost2010PropOp38
 70
     1
102
RTVSPost2010Prop39
140
1.0
102
RTVSPost2010PropOp39
 70
     1
102
RTVSPost2010Prop40
 90
        0
102
RTVSPost2010PropOp40
 70
     1
102
RTVSPost2010Prop41ColorIndex
 90
       18
102
RTVSPost2010Prop41ColorRGB
 90
        0
102
RTVSPost2010PropOp41
 70
     1
102
RTVSPost2010Prop42
 90
       50
102
RTVSPost2010PropOp42
 70
     1
102
RTVSPost2010Prop43
 90
        3
102
RTVSPost2010PropOp43
 70
     1
102
RTVSPost2010Prop44ColorIndex
 90
        5
102
RTVSPost2010Prop44ColorRGB
 90
      255
102
RTVSPost2010PropOp44
 70
     1
102
RTVSPost2010Prop45
280
     0
102
RTVSPost2010PropOp45
 70
     1
102
RTVSPost2010Prop46
 90
       50
102
RTVSPost2010PropOp46
 70
     1
102
RTVSPost2010Prop47
 90
       50
102
RTVSPost2010PropOp47
 70
     1
102
RTVSPost2010Prop48
 90
       50
102
RTVSPost2010PropOp48
 70
     1
102
RTVSPost2010Prop49
280
     0
102
RTVSPost2010PropOp49
 70
     1
102
RTVSPost2010Prop50
 90
       50
102
RTVSPost2010PropOp50
 70
     1
102
RTVSPost2010Prop51ColorIndex
 90
      256
102
RTVSPost2010Prop51ColorRGB
 90
-16777216
102
RTVSPost2010PropOp51
 70
     0
102
RTVSPost2010Prop52
140
1.0
102
RTVSPost2010PropOp52
 70
     0
102
RTVSPost2010Prop53
 90
        2
102
RTVSPost2010PropOp53
 70
     1
102
RTVSPost2010Prop54
  1
strokes_ogs.tif
102
RTVSPost2010PropOp54
 70
     1
102
RTVSPost2010Prop55
280
     0
102
RTVSPost2010PropOp55
 70
     1
102
RTVSPost2010Prop56
140
1.0
102
RTVSPost2010PropOp56
 70
     1
102
RTVSPost2010Prop57
140
1.0
102
RTVSPost2010PropOp57
 70
     1
  0
XRECORD
  5
232
102
{ACAD_REACTORS
330
231
102
}
330
231
100
AcDbXrecord
280
     1
102
RTVSPropertyOp0
 70
     1
102
RTVSPropertyOp1
 70
     1
102
RTVSPropertyOp2
 70
     1
102
RTVSPropertyOp3
 70
     1
102
RTVSPropertyOp4
 70
     1
102
RTVSPropertyOp5
 70
     1
102
RTVSPropertyOp6
 70
     1
102
RTVSPropertyOp7
 70
     1
102
RTVSPropertyOp8
 70
     1
102
RTVSPropertyOp9
 70
     1
102
RTVSPropertyOp10
 70
     1
102
RTVSPropertyOp11
 70
     1
102
RTVSPropertyOp12
 70
     1
102
RTVSPropertyOp13
 70
     1
102
RTVSPropertyOp14
 70
     1
102
RTVSPropertyOp15
 70
     1
102
RTVSPropertyOp16
 70
     1
102
RTVSPropertyOp17
 70
     1
102
RTVSPropertyOp18
 70
     1
102
RTVSPropertyOp19
 70
     1
102
RTVSPropertyOp20
 70
     1
102
RTVSPropertyOp21
 70
     1
102
RTVSPropertyOp22
 70
     1
102
RTVSPropertyOp23
 70
     1
102
RTVSPropertyOp24
 70
     1
102
RTVSPropertyOp25
 70
     1
102
RTVSPropertyOp26
 70
     1
102
RTVSPropertyOp27
 70
     1
102
RTVSPropertyOp28
 70
     1
102
RTVSPropertyOp29
 70
     1
102
RTVSPropertyOp30
 70
     1
102
RTVSPropertyOp31
 70
     1
102
RTVSPropertyOp32
 70
     1
102
RTVSPropertyOp33
 70
     1
102
RTVSPropertyOp34
 70
     1
102
RTVSPropertyOp35
 70
     1
102
RTVSPropertyOp36
 70
     1
102
RTVSPropertyOp37
 70
     1
102
RTVSPropertyOp38
 70
     1
102
RTVSPropertyOp39
 70
     1
102
RTVSPropertyOp40
 70
     1
102
RTVSPropertyOp41
 70
     1
102
RTVSPropertyOp42
 70
     1
102
RTVSPropertyOp43
 70
     1
102
RTVSPropertyOp44
 70
     1
102
RTVSPropertyOp45
 70
     1
102
RTVSPropertyOp46
 70
     1
102
RTVSPropertyOp47
 70
     1
102
RTVSPropertyOp48
 70
     1
102
RTVSPropertyOp49
 70
     1
102
RTVSPropertyOp50
 70
     1
102
RTVSPropertyOp51
 70
     0
102
RTVSPropertyOp52
 70
     0
102
RTVSPropertyOp53
 70
     1
102
RTVSPropertyOp54
 70
     1
102
RTVSPropertyOp55
 70
     1
102
RTVSPropertyOp56
 70
     1
102
RTVSPropertyOp57
 70
     1
102
RTVSPost2010Prop28
280
     0
102
RTVSPost2010PropOp28
 70
     1
102
RTVSPost2010Prop29
280
     1
102
RTVSPost2010PropOp29
 70
     1
102
RTVSPost2010Prop30
280
     1
102
RTVSPost2010PropOp30
 70
     1
102
RTVSPost2010Prop31
280
     0
102
RTVSPost2010PropOp31
 70
     1
102
RTVSPost2010Prop32
280
     0
102
RTVSPost2010PropOp32
 70
     1
102
RTVSPost2010Prop33
280
     0
102
RTVSPost2010PropOp33
 70
     1
102
RTVSPost2010Prop34
280
     0
102
RTVSPost2010PropOp34
 70
     1
102
RTVSPost2010Prop35
280
     0
102
RTVSPost2010PropOp35
 70
     1
102
RTVSPost2010Prop36
280
     0
102
RTVSPost2010PropOp36
 70
     1
102
RTVSPost2010Prop37
 90
       50
102
RTVSPost2010PropOp37
 70
     1
102
RTVSPost2010Prop38
140
0.0
102
RTVSPost2010PropOp38
 70
     1
102
RTVSPost2010Prop39
140
1.0
102
RTVSPost2010PropOp39
 70
     1
102
RTVSPost2010Prop40
 90
        0
102
RTVSPost2010PropOp40
 70
     1
102
RTVSPost2010Prop41ColorIndex
 90
       18
102
RTVSPost2010Prop41ColorRGB
 90
        0
102
RTVSPost2010PropOp41
 70
     1
102
RTVSPost2010Prop42
 90
       50
102
RTVSPost2010PropOp42
 70
     1
102
RTVSPost2010Prop43
 90
        3
102
RTVSPost2010PropOp43
 70
     1
102
RTVSPost2010Prop44ColorIndex
 90
        5
102
RTVSPost2010Prop44ColorRGB
 90
      255
102
RTVSPost2010PropOp44
 70
     1
102
RTVSPost2010Prop45
280
     0
102
RTVSPost2010PropOp45
 70
     1
102
RTVSPost2010Prop46
 90
       50
102
RTVSPost2010PropOp46
 70
     1
102
RTVSPost2010Prop47
 90
       50
102
RTVSPost2010PropOp47
 70
     1
102
RTVSPost2010Prop48
 90
       50
102
RTVSPost2010PropOp48
 70
     1
102
RTVSPost2010Prop49
280
     0
102
RTVSPost2010PropOp49
 70
     1
102
RTVSPost2010Prop50
 90
       50
102
RTVSPost2010PropOp50
 70
     1
102
RTVSPost2010Prop51ColorIndex
 90
      256
102
RTVSPost2010Prop51ColorRGB
 90
-16777216
102
RTVSPost2010PropOp51
 70
     0
102
RTVSPost2010Prop52
140
1.0
102
RTVSPost2010PropOp52
 70
     0
102
RTVSPost2010Prop53
 90
        2
102
RTVSPost2010PropOp53
 70
     1
102
RTVSPost2010Prop54
  1
strokes_ogs.tif
102
RTVSPost2010PropOp54
 70
     1
102
RTVSPost2010Prop55
280
     0
102
RTVSPost2010PropOp55
 70
     1
102
RTVSPost2010Prop56
140
1.0
102
RTVSPost2010PropOp56
 70
     1
102
RTVSPost2010Prop57
140
1.0
102
RTVSPost2010PropOp57
 70
     1
  0
XRECORD
  5
226
102
{ACAD_REACTORS
330
225
102
}
330
225
100
AcDbXrecord
280
     1
102
RTVSPropertyOp0
 70
     1
102
RTVSPropertyOp1
 70
     1
102
RTVSPropertyOp2
 70
     1
102
RTVSPropertyOp3
 70
     1
102
RTVSPropertyOp4
 70
     1
102
RTVSPropertyOp5
 70
     1
102
RTVSPropertyOp6
 70
     1
102
RTVSPropertyOp7
 70
     1
102
RTVSPropertyOp8
 70
     1
102
RTVSPropertyOp9
 70
     1
102
RTVSPropertyOp10
 70
     1
102
RTVSPropertyOp11
 70
     1
102
RTVSPropertyOp12
 70
     1
102
RTVSPropertyOp13
 70
     1
102
RTVSPropertyOp14
 70
     1
102
RTVSPropertyOp15
 70
     1
102
RTVSPropertyOp16
 70
     1
102
RTVSPropertyOp17
 70
     1
102
RTVSPropertyOp18
 70
     1
102
RTVSPropertyOp19
 70
     1
102
RTVSPropertyOp20
 70
     1
102
RTVSPropertyOp21
 70
     1
102
RTVSPropertyOp22
 70
     1
102
RTVSPropertyOp23
 70
     1
102
RTVSPropertyOp24
 70
     1
102
RTVSPropertyOp25
 70
     1
102
RTVSPropertyOp26
 70
     1
102
RTVSPropertyOp27
 70
     1
102
RTVSPropertyOp28
 70
     1
102
RTVSPropertyOp29
 70
     1
102
RTVSPropertyOp30
 70
     1
102
RTVSPropertyOp31
 70
     1
102
RTVSPropertyOp32
 70
     1
102
RTVSPropertyOp33
 70
     1
102
RTVSPropertyOp34
 70
     1
102
RTVSPropertyOp35
 70
     1
102
RTVSPropertyOp36
 70
     1
102
RTVSPropertyOp37
 70
     1
102
RTVSPropertyOp38
 70
     1
102
RTVSPropertyOp39
 70
     1
102
RTVSPropertyOp40
 70
     1
102
RTVSPropertyOp41
 70
     1
102
RTVSPropertyOp42
 70
     1
102
RTVSPropertyOp43
 70
     1
102
RTVSPropertyOp44
 70
     1
102
RTVSPropertyOp45
 70
     1
102
RTVSPropertyOp46
 70
     1
102
RTVSPropertyOp47
 70
     1
102
RTVSPropertyOp48
 70
     1
102
RTVSPropertyOp49
 70
     1
102
RTVSPropertyOp50
 70
     1
102
RTVSPropertyOp51
 70
     0
102
RTVSPropertyOp52
 70
     0
102
RTVSPropertyOp53
 70
     1
102
RTVSPropertyOp54
 70
     1
102
RTVSPropertyOp55
 70
     1
102
RTVSPropertyOp56
 70
     1
102
RTVSPropertyOp57
 70
     1
102
RTVSPost2010Prop28
280
     0
102
RTVSPost2010PropOp28
 70
     1
102
RTVSPost2010Prop29
280
     1
102
RTVSPost2010PropOp29
 70
     1
102
RTVSPost2010Prop30
280
     1
102
RTVSPost2010PropOp30
 70
     1
102
RTVSPost2010Prop31
280
     0
102
RTVSPost2010PropOp31
 70
     1
102
RTVSPost2010Prop32
280
     0
102
RTVSPost2010PropOp32
 70
     1
102
RTVSPost2010Prop33
280
     0
102
RTVSPost2010PropOp33
 70
     1
102
RTVSPost2010Prop34
280
     0
102
RTVSPost2010PropOp34
 70
     1
102
RTVSPost2010Prop35
280
     0
102
RTVSPost2010PropOp35
 70
     1
102
RTVSPost2010Prop36
280
     0
102
RTVSPost2010PropOp36
 70
     1
102
RTVSPost2010Prop37
 90
       50
102
RTVSPost2010PropOp37
 70
     1
102
RTVSPost2010Prop38
140
0.0
102
RTVSPost2010PropOp38
 70
     1
102
RTVSPost2010Prop39
140
1.0
102
RTVSPost2010PropOp39
 70
     1
102
RTVSPost2010Prop40
 90
        0
102
RTVSPost2010PropOp40
 70
     1
102
RTVSPost2010Prop41ColorIndex
 90
       18
102
RTVSPost2010Prop41ColorRGB
 90
        0
102
RTVSPost2010PropOp41
 70
     1
102
RTVSPost2010Prop42
 90
       50
102
RTVSPost2010PropOp42
 70
     1
102
RTVSPost2010Prop43
 90
        3
102
RTVSPost2010PropOp43
 70
     1
102
RTVSPost2010Prop44ColorIndex
 90
        5
102
RTVSPost2010Prop44ColorRGB
 90
      255
102
RTVSPost2010PropOp44
 70
     1
102
RTVSPost2010Prop45
280
     0
102
RTVSPost2010PropOp45
 70
     1
102
RTVSPost2010Prop46
 90
       50
102
RTVSPost2010PropOp46
 70
     1
102
RTVSPost2010Prop47
 90
       50
102
RTVSPost2010PropOp47
 70
     1
102
RTVSPost2010Prop48
 90
       50
102
RTVSPost2010PropOp48
 70
     1
102
RTVSPost2010Prop49
280
     0
102
RTVSPost2010PropOp49
 70
     1
102
RTVSPost2010Prop50
 90
       50
102
RTVSPost2010PropOp50
 70
     1
102
RTVSPost2010Prop51ColorIndex
 90
      256
102
RTVSPost2010Prop51ColorRGB
 90
-16777216
102
RTVSPost2010PropOp51
 70
     0
102
RTVSPost2010Prop52
140
1.0
102
RTVSPost2010PropOp52
 70
     0
102
RTVSPost2010Prop53
 90
        2
102
RTVSPost2010PropOp53
 70
     1
102
RTVSPost2010Prop54
  1
strokes_ogs.tif
102
RTVSPost2010PropOp54
 70
     1
102
RTVSPost2010Prop55
280
     0
102
RTVSPost2010PropOp55
 70
     1
102
RTVSPost2010Prop56
140
1.0
102
RTVSPost2010PropOp56
 70
     1
102
RTVSPost2010Prop57
140
1.0
102
RTVSPost2010PropOp57
 70
     1
  0
XRECORD
  5
228
102
{ACAD_REACTORS
330
227
102
}
330
227
100
AcDbXrecord
280
     1
102
RTVSPropertyOp0
 70
     1
102
RTVSPropertyOp1
 70
     1
102
RTVSPropertyOp2
 70
     1
102
RTVSPropertyOp3
 70
     1
102
RTVSPropertyOp4
 70
     1
102
RTVSPropertyOp5
 70
     1
102
RTVSPropertyOp6
 70
     1
102
RTVSPropertyOp7
 70
     1
102
RTVSPropertyOp8
 70
     1
102
RTVSPropertyOp9
 70
     1
102
RTVSPropertyOp10
 70
     1
102
RTVSPropertyOp11
 70
     1
102
RTVSPropertyOp12
 70
     1
102
RTVSPropertyOp13
 70
     1
102
RTVSPropertyOp14
 70
     1
102
RTVSPropertyOp15
 70
     1
102
RTVSPropertyOp16
 70
     1
102
RTVSPropertyOp17
 70
     1
102
RTVSPropertyOp18
 70
     1
102
RTVSPropertyOp19
 70
     1
102
RTVSPropertyOp20
 70
     1
102
RTVSPropertyOp21
 70
     1
102
RTVSPropertyOp22
 70
     1
102
RTVSPropertyOp23
 70
     1
102
RTVSPropertyOp24
 70
     1
102
RTVSPropertyOp25
 70
     1
102
RTVSPropertyOp26
 70
     1
102
RTVSPropertyOp27
 70
     1
102
RTVSPropertyOp28
 70
     1
102
RTVSPropertyOp29
 70
     1
102
RTVSPropertyOp30
 70
     1
102
RTVSPropertyOp31
 70
     1
102
RTVSPropertyOp32
 70
     1
102
RTVSPropertyOp33
 70
     1
102
RTVSPropertyOp34
 70
     1
102
RTVSPropertyOp35
 70
     1
102
RTVSPropertyOp36
 70
     1
102
RTVSPropertyOp37
 70
     1
102
RTVSPropertyOp38
 70
     1
102
RTVSPropertyOp39
 70
     1
102
RTVSPropertyOp40
 70
     1
102
RTVSPropertyOp41
 70
     1
102
RTVSPropertyOp42
 70
     1
102
RTVSPropertyOp43
 70
     1
102
RTVSPropertyOp44
 70
     1
102
RTVSPropertyOp45
 70
     1
102
RTVSPropertyOp46
 70
     1
102
RTVSPropertyOp47
 70
     1
102
RTVSPropertyOp48
 70
     1
102
RTVSPropertyOp49
 70
     1
102
RTVSPropertyOp50
 70
     1
102
RTVSPropertyOp51
 70
     0
102
RTVSPropertyOp52
 70
     0
102
RTVSPropertyOp53
 70
     1
102
RTVSPropertyOp54
 70
     1
102
RTVSPropertyOp55
 70
     1
102
RTVSPropertyOp56
 70
     1
102
RTVSPropertyOp57
 70
     1
102
RTVSPost2010Prop28
280
     0
102
RTVSPost2010PropOp28
 70
     1
102
RTVSPost2010Prop29
280
     1
102
RTVSPost2010PropOp29
 70
     1
102
RTVSPost2010Prop30
280
     1
102
RTVSPost2010PropOp30
 70
     1
102
RTVSPost2010Prop31
280
     0
102
RTVSPost2010PropOp31
 70
     1
102
RTVSPost2010Prop32
280
     0
102
RTVSPost2010PropOp32
 70
     1
102
RTVSPost2010Prop33
280
     0
102
RTVSPost2010PropOp33
 70
     1
102
RTVSPost2010Prop34
280
     0
102
RTVSPost2010PropOp34
 70
     1
102
RTVSPost2010Prop35
280
     0
102
RTVSPost2010PropOp35
 70
     1
102
RTVSPost2010Prop36
280
     0
102
RTVSPost2010PropOp36
 70
     1
102
RTVSPost2010Prop37
 90
       50
102
RTVSPost2010PropOp37
 70
     1
102
RTVSPost2010Prop38
140
0.0
102
RTVSPost2010PropOp38
 70
     1
102
RTVSPost2010Prop39
140
1.0
102
RTVSPost2010PropOp39
 70
     1
102
RTVSPost2010Prop40
 90
        0
102
RTVSPost2010PropOp40
 70
     1
102
RTVSPost2010Prop41ColorIndex
 90
       18
102
RTVSPost2010Prop41ColorRGB
 90
        0
102
RTVSPost2010PropOp41
 70
     1
102
RTVSPost2010Prop42
 90
       50
102
RTVSPost2010PropOp42
 70
     1
102
RTVSPost2010Prop43
 90
        3
102
RTVSPost2010PropOp43
 70
     1
102
RTVSPost2010Prop44ColorIndex
 90
        5
102
RTVSPost2010Prop44ColorRGB
 90
      255
102
RTVSPost2010PropOp44
 70
     1
102
RTVSPost2010Prop45
280
     0
102
RTVSPost2010PropOp45
 70
     1
102
RTVSPost2010Prop46
 90
       50
102
RTVSPost2010PropOp46
 70
     1
102
RTVSPost2010Prop47
 90
       50
102
RTVSPost2010PropOp47
 70
     1
102
RTVSPost2010Prop48
 90
       50
102
RTVSPost2010PropOp48
 70
     1
102
RTVSPost2010Prop49
280
     0
102
RTVSPost2010PropOp49
 70
     1
102
RTVSPost2010Prop50
 90
       50
102
RTVSPost2010PropOp50
 70
     1
102
RTVSPost2010Prop51ColorIndex
 90
      256
102
RTVSPost2010Prop51ColorRGB
 90
-16777216
102
RTVSPost2010PropOp51
 70
     0
102
RTVSPost2010Prop52
140
1.0
102
RTVSPost2010PropOp52
 70
     0
102
RTVSPost2010Prop53
 90
        2
102
RTVSPost2010PropOp53
 70
     1
102
RTVSPost2010Prop54
  1
strokes_ogs.tif
102
RTVSPost2010PropOp54
 70
     1
102
RTVSPost2010Prop55
280
     0
102
RTVSPost2010PropOp55
 70
     1
102
RTVSPost2010Prop56
140
1.0
102
RTVSPost2010PropOp56
 70
     1
102
RTVSPost2010Prop57
140
1.0
102
RTVSPost2010PropOp57
 70
     1
  0
XRECORD
  5
238
102
{ACAD_REACTORS
330
237
102
}
330
237
100
AcDbXrecord
280
     1
102
RTVSPropertyOp0
 70
     0
102
RTVSPropertyOp1
 70
     0
102
RTVSPropertyOp2
 70
     0
102
RTVSPropertyOp3
 70
     0
102
RTVSPropertyOp4
 70
     0
102
RTVSPropertyOp5
 70
     0
102
RTVSPropertyOp6
 70
     0
102
RTVSPropertyOp7
 70
     0
102
RTVSPropertyOp8
 70
     0
102
RTVSPropertyOp9
 70
     0
102
RTVSPropertyOp10
 70
     0
102
RTVSPropertyOp11
 70
     0
102
RTVSPropertyOp12
 70
     0
102
RTVSPropertyOp13
 70
     0
102
RTVSPropertyOp14
 70
     2
102
RTVSPropertyOp15
 70
     0
102
RTVSPropertyOp16
 70
     0
102
RTVSPropertyOp17
 70
     0
102
RTVSPropertyOp18
 70
     0
102
RTVSPropertyOp19
 70
     0
102
RTVSPropertyOp20
 70
     0
102
RTVSPropertyOp21
 70
     0
102
RTVSPropertyOp22
 70
     0
102
RTVSPropertyOp23
 70
     0
102
RTVSPropertyOp24
 70
     0
102
RTVSPropertyOp25
 70
     0
102
RTVSPropertyOp26
 70
     0
102
RTVSPropertyOp27
 70
     0
102
RTVSPropertyOp28
 70
     0
102
RTVSPropertyOp29
 70
     0
102
RTVSPropertyOp30
 70
     0
102
RTVSPropertyOp31
 70
     0
102
RTVSPropertyOp32
 70
     0
102
RTVSPropertyOp33
 70
     0
102
RTVSPropertyOp34
 70
     0
102
RTVSPropertyOp35
 70
     0
102
RTVSPropertyOp36
 70
     0
102
RTVSPropertyOp37
 70
     0
102
RTVSPropertyOp38
 70
     0
102
RTVSPropertyOp39
 70
     0
102
RTVSPropertyOp40
 70
     0
102
RTVSPropertyOp41
 70
     0
102
RTVSPropertyOp42
 70
     0
102
RTVSPropertyOp43
 70
     0
102
RTVSPropertyOp44
 70
     0
102
RTVSPropertyOp45
 70
     0
102
RTVSPropertyOp46
 70
     0
102
RTVSPropertyOp47
 70
     0
102
RTVSPropertyOp48
 70
     0
102
RTVSPropertyOp49
 70
     0
102
RTVSPropertyOp50
 70
     0
102
RTVSPropertyOp51
 70
     0
102
RTVSPropertyOp52
 70
     0
102
RTVSPropertyOp53
 70
     0
102
RTVSPropertyOp54
 70
     0
102
RTVSPropertyOp55
 70
     0
102
RTVSPropertyOp56
 70
     0
102
RTVSPropertyOp57
 70
     0
102
RTVSPost2010Prop28
280
     0
102
RTVSPost2010PropOp28
 70
     0
102
RTVSPost2010Prop29
280
     1
102
RTVSPost2010PropOp29
 70
     0
102
RTVSPost2010Prop30
280
     1
102
RTVSPost2010PropOp30
 70
     0
102
RTVSPost2010Prop31
280
     0
102
RTVSPost2010PropOp31
 70
     0
102
RTVSPost2010Prop32
280
     0
102
RTVSPost2010PropOp32
 70
     0
102
RTVSPost2010Prop33
280
     0
102
RTVSPost2010PropOp33
 70
     0
102
RTVSPost2010Prop34
280
     0
102
RTVSPost2010PropOp34
 70
     0
102
RTVSPost2010Prop35
280
     0
102
RTVSPost2010PropOp35
 70
     0
102
RTVSPost2010Prop36
280
     0
102
RTVSPost2010PropOp36
 70
     0
102
RTVSPost2010Prop37
 90
       50
102
RTVSPost2010PropOp37
 70
     0
102
RTVSPost2010Prop38
140
0.0
102
RTVSPost2010PropOp38
 70
     0
102
RTVSPost2010Prop39
140
1.0
102
RTVSPost2010PropOp39
 70
     0
102
RTVSPost2010Prop40
 90
        0
102
RTVSPost2010PropOp40
 70
     0
102
RTVSPost2010Prop41ColorIndex
 90
       18
102
RTVSPost2010Prop41ColorRGB
 90
        0
102
RTVSPost2010PropOp41
 70
     0
102
RTVSPost2010Prop42
 90
       50
102
RTVSPost2010PropOp42
 70
     0
102
RTVSPost2010Prop43
 90
        3
102
RTVSPost2010PropOp43
 70
     0
102
RTVSPost2010Prop44ColorIndex
 90
        5
102
RTVSPost2010Prop44ColorRGB
 90
      255
102
RTVSPost2010PropOp44
 70
     0
102
RTVSPost2010Prop45
280
     0
102
RTVSPost2010PropOp45
 70
     0
102
RTVSPost2010Prop46
 90
       50
102
RTVSPost2010PropOp46
 70
     0
102
RTVSPost2010Prop47
 90
       50
102
RTVSPost2010PropOp47
 70
     0
102
RTVSPost2010Prop48
 90
       50
102
RTVSPost2010PropOp48
 70
     0
102
RTVSPost2010Prop49
280
     0
102
RTVSPost2010PropOp49
 70
     0
102
RTVSPost2010Prop50
 90
       50
102
RTVSPost2010PropOp50
 70
     0
102
RTVSPost2010Prop51ColorIndex
 90
      256
102
RTVSPost2010Prop51ColorRGB
 90
-16777216
102
RTVSPost2010PropOp51
 70
     0
102
RTVSPost2010Prop52
140
1.0
102
RTVSPost2010PropOp52
 70
     0
102
RTVSPost2010Prop53
 90
        2
102
RTVSPost2010PropOp53
 70
     0
102
RTVSPost2010Prop54
  1
strokes_ogs.tif
102
RTVSPost2010PropOp54
 70
     0
102
RTVSPost2010Prop55
280
     0
102
RTVSPost2010PropOp55
 70
     0
102
RTVSPost2010Prop56
140
1.0
102
RTVSPost2010PropOp56
 70
     0
102
RTVSPost2010Prop57
140
1.0
102
RTVSPost2010PropOp57
 70
     0
  0
XRECORD
  5
230
102
{ACAD_REACTORS
330
22F
102
}
330
22F
100
AcDbXrecord
280
     1
102
RTVSPropertyOp0
 70
     1
102
RTVSPropertyOp1
 70
     1
102
RTVSPropertyOp2
 70
     1
102
RTVSPropertyOp3
 70
     1
102
RTVSPropertyOp4
 70
     1
102
RTVSPropertyOp5
 70
     1
102
RTVSPropertyOp6
 70
     1
102
RTVSPropertyOp7
 70
     1
102
RTVSPropertyOp8
 70
     1
102
RTVSPropertyOp9
 70
     1
102
RTVSPropertyOp10
 70
     1
102
RTVSPropertyOp11
 70
     1
102
RTVSPropertyOp12
 70
     1
102
RTVSPropertyOp13
 70
     1
102
RTVSPropertyOp14
 70
     1
102
RTVSPropertyOp15
 70
     1
102
RTVSPropertyOp16
 70
     1
102
RTVSPropertyOp17
 70
     1
102
RTVSPropertyOp18
 70
     1
102
RTVSPropertyOp19
 70
     1
102
RTVSPropertyOp20
 70
     1
102
RTVSPropertyOp21
 70
     1
102
RTVSPropertyOp22
 70
     1
102
RTVSPropertyOp23
 70
     1
102
RTVSPropertyOp24
 70
     1
102
RTVSPropertyOp25
 70
     1
102
RTVSPropertyOp26
 70
     1
102
RTVSPropertyOp27
 70
     1
102
RTVSPropertyOp28
 70
     1
102
RTVSPropertyOp29
 70
     1
102
RTVSPropertyOp30
 70
     1
102
RTVSPropertyOp31
 70
     1
102
RTVSPropertyOp32
 70
     1
102
RTVSPropertyOp33
 70
     1
102
RTVSPropertyOp34
 70
     1
102
RTVSPropertyOp35
 70
     1
102
RTVSPropertyOp36
 70
     1
102
RTVSPropertyOp37
 70
     1
102
RTVSPropertyOp38
 70
     1
102
RTVSPropertyOp39
 70
     1
102
RTVSPropertyOp40
 70
     1
102
RTVSPropertyOp41
 70
     1
102
RTVSPropertyOp42
 70
     1
102
RTVSPropertyOp43
 70
     1
102
RTVSPropertyOp44
 70
     1
102
RTVSPropertyOp45
 70
     1
102
RTVSPropertyOp46
 70
     1
102
RTVSPropertyOp47
 70
     1
102
RTVSPropertyOp48
 70
     1
102
RTVSPropertyOp49
 70
     1
102
RTVSPropertyOp50
 70
     1
102
RTVSPropertyOp51
 70
     0
102
RTVSPropertyOp52
 70
     0
102
RTVSPropertyOp53
 70
     1
102
RTVSPropertyOp54
 70
     1
102
RTVSPropertyOp55
 70
     1
102
RTVSPropertyOp56
 70
     1
102
RTVSPropertyOp57
 70
     1
102
RTVSPost2010Prop28
280
     0
102
RTVSPost2010PropOp28
 70
     1
102
RTVSPost2010Prop29
280
     1
102
RTVSPost2010PropOp29
 70
     1
102
RTVSPost2010Prop30
280
     1
102
RTVSPost2010PropOp30
 70
     1
102
RTVSPost2010Prop31
280
     0
102
RTVSPost2010PropOp31
 70
     1
102
RTVSPost2010Prop32
280
     0
102
RTVSPost2010PropOp32
 70
     1
102
RTVSPost2010Prop33
280
     0
102
RTVSPost2010PropOp33
 70
     1
102
RTVSPost2010Prop34
280
     0
102
RTVSPost2010PropOp34
 70
     1
102
RTVSPost2010Prop35
280
     0
102
RTVSPost2010PropOp35
 70
     1
102
RTVSPost2010Prop36
280
     0
102
RTVSPost2010PropOp36
 70
     1
102
RTVSPost2010Prop37
 90
       50
102
RTVSPost2010PropOp37
 70
     1
102
RTVSPost2010Prop38
140
0.0
102
RTVSPost2010PropOp38
 70
     1
102
RTVSPost2010Prop39
140
1.0
102
RTVSPost2010PropOp39
 70
     1
102
RTVSPost2010Prop40
 90
        0
102
RTVSPost2010PropOp40
 70
     1
102
RTVSPost2010Prop41ColorIndex
 90
       18
102
RTVSPost2010Prop41ColorRGB
 90
        0
102
RTVSPost2010PropOp41
 70
     1
102
RTVSPost2010Prop42
 90
       50
102
RTVSPost2010PropOp42
 70
     1
102
RTVSPost2010Prop43
 90
        3
102
RTVSPost2010PropOp43
 70
     1
102
RTVSPost2010Prop44ColorIndex
 90
        5
102
RTVSPost2010Prop44ColorRGB
 90
      255
102
RTVSPost2010PropOp44
 70
     1
102
RTVSPost2010Prop45
280
     0
102
RTVSPost2010PropOp45
 70
     1
102
RTVSPost2010Prop46
 90
       50
102
RTVSPost2010PropOp46
 70
     1
102
RTVSPost2010Prop47
 90
       50
102
RTVSPost2010PropOp47
 70
     1
102
RTVSPost2010Prop48
 90
       50
102
RTVSPost2010PropOp48
 70
     1
102
RTVSPost2010Prop49
280
     0
102
RTVSPost2010PropOp49
 70
     1
102
RTVSPost2010Prop50
 90
       50
102
RTVSPost2010PropOp50
 70
     1
102
RTVSPost2010Prop51ColorIndex
 90
      256
102
RTVSPost2010Prop51ColorRGB
 90
-16777216
102
RTVSPost2010PropOp51
 70
     0
102
RTVSPost2010Prop52
140
1.0
102
RTVSPost2010PropOp52
 70
     0
102
RTVSPost2010Prop53
 90
        2
102
RTVSPost2010PropOp53
 70
     1
102
RTVSPost2010Prop54
  1
strokes_ogs.tif
102
RTVSPost2010PropOp54
 70
     1
102
RTVSPost2010Prop55
280
     0
102
RTVSPost2010PropOp55
 70
     1
102
RTVSPost2010Prop56
140
1.0
102
RTVSPost2010PropOp56
 70
     1
102
RTVSPost2010Prop57
140
1.0
102
RTVSPost2010PropOp57
 70
     1
  0
XRECORD
  5
214
102
{ACAD_REACTORS
330
213
102
}
330
213
100
AcDbXrecord
280
     1
102
RTVSPropertyOp0
 70
     1
102
RTVSPropertyOp1
 70
     1
102
RTVSPropertyOp2
 70
     1
102
RTVSPropertyOp3
 70
     1
102
RTVSPropertyOp4
 70
     1
102
RTVSPropertyOp5
 70
     1
102
RTVSPropertyOp6
 70
     1
102
RTVSPropertyOp7
 70
     1
102
RTVSPropertyOp8
 70
     1
102
RTVSPropertyOp9
 70
     1
102
RTVSPropertyOp10
 70
     1
102
RTVSPropertyOp11
 70
     1
102
RTVSPropertyOp12
 70
     1
102
RTVSPropertyOp13
 70
     1
102
RTVSPropertyOp14
 70
     1
102
RTVSPropertyOp15
 70
     1
102
RTVSPropertyOp16
 70
     1
102
RTVSPropertyOp17
 70
     1
102
RTVSPropertyOp18
 70
     1
102
RTVSPropertyOp19
 70
     1
102
RTVSPropertyOp20
 70
     1
102
RTVSPropertyOp21
 70
     1
102
RTVSPropertyOp22
 70
     1
102
RTVSPropertyOp23
 70
     1
102
RTVSPropertyOp24
 70
     1
102
RTVSPropertyOp25
 70
     1
102
RTVSPropertyOp26
 70
     1
102
RTVSPropertyOp27
 70
     1
102
RTVSPropertyOp28
 70
     1
102
RTVSPropertyOp29
 70
     1
102
RTVSPropertyOp30
 70
     1
102
RTVSPropertyOp31
 70
     1
102
RTVSPropertyOp32
 70
     1
102
RTVSPropertyOp33
 70
     1
102
RTVSPropertyOp34
 70
     1
102
RTVSPropertyOp35
 70
     1
102
RTVSPropertyOp36
 70
     1
102
RTVSPropertyOp37
 70
     1
102
RTVSPropertyOp38
 70
     1
102
RTVSPropertyOp39
 70
     1
102
RTVSPropertyOp40
 70
     1
102
RTVSPropertyOp41
 70
     1
102
RTVSPropertyOp42
 70
     1
102
RTVSPropertyOp43
 70
     1
102
RTVSPropertyOp44
 70
     1
102
RTVSPropertyOp45
 70
     1
102
RTVSPropertyOp46
 70
     1
102
RTVSPropertyOp47
 70
     1
102
RTVSPropertyOp48
 70
     1
102
RTVSPropertyOp49
 70
     1
102
RTVSPropertyOp50
 70
     1
102
RTVSPropertyOp51
 70
     0
102
RTVSPropertyOp52
 70
     0
102
RTVSPropertyOp53
 70
     1
102
RTVSPropertyOp54
 70
     1
102
RTVSPropertyOp55
 70
     1
102
RTVSPropertyOp56
 70
     1
102
RTVSPropertyOp57
 70
     1
102
RTVSPost2010Prop28
280
     0
102
RTVSPost2010PropOp28
 70
     1
102
RTVSPost2010Prop29
280
     1
102
RTVSPost2010PropOp29
 70
     1
102
RTVSPost2010Prop30
280
     1
102
RTVSPost2010PropOp30
 70
     1
102
RTVSPost2010Prop31
280
     0
102
RTVSPost2010PropOp31
 70
     1
102
RTVSPost2010Prop32
280
     0
102
RTVSPost2010PropOp32
 70
     1
102
RTVSPost2010Prop33
280
     0
102
RTVSPost2010PropOp33
 70
     1
102
RTVSPost2010Prop34
280
     0
102
RTVSPost2010PropOp34
 70
     1
102
RTVSPost2010Prop35
280
     0
102
RTVSPost2010PropOp35
 70
     1
102
RTVSPost2010Prop36
280
     0
102
RTVSPost2010PropOp36
 70
     1
102
RTVSPost2010Prop37
 90
       50
102
RTVSPost2010PropOp37
 70
     1
102
RTVSPost2010Prop38
140
0.0
102
RTVSPost2010PropOp38
 70
     1
102
RTVSPost2010Prop39
140
1.0
102
RTVSPost2010PropOp39
 70
     1
102
RTVSPost2010Prop40
 90
        0
102
RTVSPost2010PropOp40
 70
     1
102
RTVSPost2010Prop41ColorIndex
 90
       18
102
RTVSPost2010Prop41ColorRGB
 90
        0
102
RTVSPost2010PropOp41
 70
     1
102
RTVSPost2010Prop42
 90
       50
102
RTVSPost2010PropOp42
 70
     1
102
RTVSPost2010Prop43
 90
        3
102
RTVSPost2010PropOp43
 70
     1
102
RTVSPost2010Prop44ColorIndex
 90
        5
102
RTVSPost2010Prop44ColorRGB
 90
      255
102
RTVSPost2010PropOp44
 70
     1
102
RTVSPost2010Prop45
280
     0
102
RTVSPost2010PropOp45
 70
     1
102
RTVSPost2010Prop46
 90
       50
102
RTVSPost2010PropOp46
 70
     1
102
RTVSPost2010Prop47
 90
       50
102
RTVSPost2010PropOp47
 70
     1
102
RTVSPost2010Prop48
 90
       50
102
RTVSPost2010PropOp48
 70
     1
102
RTVSPost2010Prop49
280
     0
102
RTVSPost2010PropOp49
 70
     1
102
RTVSPost2010Prop50
 90
       50
102
RTVSPost2010PropOp50
 70
     1
102
RTVSPost2010Prop51ColorIndex
 90
      256
102
RTVSPost2010Prop51ColorRGB
 90
-16777216
102
RTVSPost2010PropOp51
 70
     0
102
RTVSPost2010Prop52
140
1.0
102
RTVSPost2010PropOp52
 70
     0
102
RTVSPost2010Prop53
 90
        2
102
RTVSPost2010PropOp53
 70
     1
102
RTVSPost2010Prop54
  1
strokes_ogs.tif
102
RTVSPost2010PropOp54
 70
     1
102
RTVSPost2010Prop55
280
     0
102
RTVSPost2010PropOp55
 70
     1
102
RTVSPost2010Prop56
140
1.0
102
RTVSPost2010PropOp56
 70
     1
102
RTVSPost2010Prop57
140
1.0
102
RTVSPost2010PropOp57
 70
     1
  0
XRECORD
  5
216
102
{ACAD_REACTORS
330
215
102
}
330
215
100
AcDbXrecord
280
     1
102
RTVSPropertyOp0
 70
     1
102
RTVSPropertyOp1
 70
     1
102
RTVSPropertyOp2
 70
     1
102
RTVSPropertyOp3
 70
     1
102
RTVSPropertyOp4
 70
     1
102
RTVSPropertyOp5
 70
     1
102
RTVSPropertyOp6
 70
     1
102
RTVSPropertyOp7
 70
     1
102
RTVSPropertyOp8
 70
     1
102
RTVSPropertyOp9
 70
     1
102
RTVSPropertyOp10
 70
     1
102
RTVSPropertyOp11
 70
     1
102
RTVSPropertyOp12
 70
     1
102
RTVSPropertyOp13
 70
     1
102
RTVSPropertyOp14
 70
     1
102
RTVSPropertyOp15
 70
     1
102
RTVSPropertyOp16
 70
     1
102
RTVSPropertyOp17
 70
     1
102
RTVSPropertyOp18
 70
     1
102
RTVSPropertyOp19
 70
     1
102
RTVSPropertyOp20
 70
     1
102
RTVSPropertyOp21
 70
     1
102
RTVSPropertyOp22
 70
     1
102
RTVSPropertyOp23
 70
     1
102
RTVSPropertyOp24
 70
     1
102
RTVSPropertyOp25
 70
     1
102
RTVSPropertyOp26
 70
     1
102
RTVSPropertyOp27
 70
     1
102
RTVSPropertyOp28
 70
     1
102
RTVSPropertyOp29
 70
     1
102
RTVSPropertyOp30
 70
     1
102
RTVSPropertyOp31
 70
     1
102
RTVSPropertyOp32
 70
     1
102
RTVSPropertyOp33
 70
     1
102
RTVSPropertyOp34
 70
     1
102
RTVSPropertyOp35
 70
     1
102
RTVSPropertyOp36
 70
     1
102
RTVSPropertyOp37
 70
     1
102
RTVSPropertyOp38
 70
     1
102
RTVSPropertyOp39
 70
     1
102
RTVSPropertyOp40
 70
     1
102
RTVSPropertyOp41
 70
     1
102
RTVSPropertyOp42
 70
     1
102
RTVSPropertyOp43
 70
     1
102
RTVSPropertyOp44
 70
     1
102
RTVSPropertyOp45
 70
     1
102
RTVSPropertyOp46
 70
     1
102
RTVSPropertyOp47
 70
     1
102
RTVSPropertyOp48
 70
     1
102
RTVSPropertyOp49
 70
     1
102
RTVSPropertyOp50
 70
     1
102
RTVSPropertyOp51
 70
     0
102
RTVSPropertyOp52
 70
     0
102
RTVSPropertyOp53
 70
     1
102
RTVSPropertyOp54
 70
     1
102
RTVSPropertyOp55
 70
     1
102
RTVSPropertyOp56
 70
     1
102
RTVSPropertyOp57
 70
     1
102
RTVSPost2010Prop28
280
     0
102
RTVSPost2010PropOp28
 70
     1
102
RTVSPost2010Prop29
280
     1
102
RTVSPost2010PropOp29
 70
     1
102
RTVSPost2010Prop30
280
     1
102
RTVSPost2010PropOp30
 70
     1
102
RTVSPost2010Prop31
280
     0
102
RTVSPost2010PropOp31
 70
     1
102
RTVSPost2010Prop32
280
     0
102
RTVSPost2010PropOp32
 70
     1
102
RTVSPost2010Prop33
280
     0
102
RTVSPost2010PropOp33
 70
     1
102
RTVSPost2010Prop34
280
     0
102
RTVSPost2010PropOp34
 70
     1
102
RTVSPost2010Prop35
280
     0
102
RTVSPost2010PropOp35
 70
     1
102
RTVSPost2010Prop36
280
     0
102
RTVSPost2010PropOp36
 70
     1
102
RTVSPost2010Prop37
 90
       50
102
RTVSPost2010PropOp37
 70
     1
102
RTVSPost2010Prop38
140
0.0
102
RTVSPost2010PropOp38
 70
     1
102
RTVSPost2010Prop39
140
1.0
102
RTVSPost2010PropOp39
 70
     1
102
RTVSPost2010Prop40
 90
        0
102
RTVSPost2010PropOp40
 70
     1
102
RTVSPost2010Prop41ColorIndex
 90
       18
102
RTVSPost2010Prop41ColorRGB
 90
        0
102
RTVSPost2010PropOp41
 70
     1
102
RTVSPost2010Prop42
 90
       50
102
RTVSPost2010PropOp42
 70
     1
102
RTVSPost2010Prop43
 90
        3
102
RTVSPost2010PropOp43
 70
     1
102
RTVSPost2010Prop44ColorIndex
 90
        5
102
RTVSPost2010Prop44ColorRGB
 90
      255
102
RTVSPost2010PropOp44
 70
     1
102
RTVSPost2010Prop45
280
     0
102
RTVSPost2010PropOp45
 70
     1
102
RTVSPost2010Prop46
 90
       50
102
RTVSPost2010PropOp46
 70
     1
102
RTVSPost2010Prop47
 90
       50
102
RTVSPost2010PropOp47
 70
     1
102
RTVSPost2010Prop48
 90
       50
102
RTVSPost2010PropOp48
 70
     1
102
RTVSPost2010Prop49
280
     0
102
RTVSPost2010PropOp49
 70
     1
102
RTVSPost2010Prop50
 90
       50
102
RTVSPost2010PropOp50
 70
     1
102
RTVSPost2010Prop51ColorIndex
 90
      256
102
RTVSPost2010Prop51ColorRGB
 90
-16777216
102
RTVSPost2010PropOp51
 70
     0
102
RTVSPost2010Prop52
140
1.0
102
RTVSPost2010PropOp52
 70
     0
102
RTVSPost2010Prop53
 90
        2
102
RTVSPost2010PropOp53
 70
     1
102
RTVSPost2010Prop54
  1
strokes_ogs.tif
102
RTVSPost2010PropOp54
 70
     1
102
RTVSPost2010Prop55
280
     0
102
RTVSPost2010PropOp55
 70
     1
102
RTVSPost2010Prop56
140
1.0
102
RTVSPost2010PropOp56
 70
     1
102
RTVSPost2010Prop57
140
1.0
102
RTVSPost2010PropOp57
 70
     1
  0
XRECORD
  5
218
102
{ACAD_REACTORS
330
217
102
}
330
217
100
AcDbXrecord
280
     1
102
RTVSPropertyOp0
 70
     1
102
RTVSPropertyOp1
 70
     1
102
RTVSPropertyOp2
 70
     1
102
RTVSPropertyOp3
 70
     1
102
RTVSPropertyOp4
 70
     1
102
RTVSPropertyOp5
 70
     1
102
RTVSPropertyOp6
 70
     1
102
RTVSPropertyOp7
 70
     1
102
RTVSPropertyOp8
 70
     1
102
RTVSPropertyOp9
 70
     1
102
RTVSPropertyOp10
 70
     1
102
RTVSPropertyOp11
 70
     1
102
RTVSPropertyOp12
 70
     1
102
RTVSPropertyOp13
 70
     1
102
RTVSPropertyOp14
 70
     1
102
RTVSPropertyOp15
 70
     1
102
RTVSPropertyOp16
 70
     1
102
RTVSPropertyOp17
 70
     1
102
RTVSPropertyOp18
 70
     1
102
RTVSPropertyOp19
 70
     1
102
RTVSPropertyOp20
 70
     1
102
RTVSPropertyOp21
 70
     1
102
RTVSPropertyOp22
 70
     1
102
RTVSPropertyOp23
 70
     1
102
RTVSPropertyOp24
 70
     1
102
RTVSPropertyOp25
 70
     1
102
RTVSPropertyOp26
 70
     1
102
RTVSPropertyOp27
 70
     1
102
RTVSPropertyOp28
 70
     1
102
RTVSPropertyOp29
 70
     1
102
RTVSPropertyOp30
 70
     1
102
RTVSPropertyOp31
 70
     1
102
RTVSPropertyOp32
 70
     1
102
RTVSPropertyOp33
 70
     1
102
RTVSPropertyOp34
 70
     1
102
RTVSPropertyOp35
 70
     1
102
RTVSPropertyOp36
 70
     1
102
RTVSPropertyOp37
 70
     1
102
RTVSPropertyOp38
 70
     1
102
RTVSPropertyOp39
 70
     1
102
RTVSPropertyOp40
 70
     1
102
RTVSPropertyOp41
 70
     1
102
RTVSPropertyOp42
 70
     1
102
RTVSPropertyOp43
 70
     1
102
RTVSPropertyOp44
 70
     1
102
RTVSPropertyOp45
 70
     1
102
RTVSPropertyOp46
 70
     1
102
RTVSPropertyOp47
 70
     1
102
RTVSPropertyOp48
 70
     1
102
RTVSPropertyOp49
 70
     1
102
RTVSPropertyOp50
 70
     1
102
RTVSPropertyOp51
 70
     0
102
RTVSPropertyOp52
 70
     0
102
RTVSPropertyOp53
 70
     1
102
RTVSPropertyOp54
 70
     1
102
RTVSPropertyOp55
 70
     1
102
RTVSPropertyOp56
 70
     1
102
RTVSPropertyOp57
 70
     1
102
RTVSPost2010Prop28
280
     0
102
RTVSPost2010PropOp28
 70
     1
102
RTVSPost2010Prop29
280
     1
102
RTVSPost2010PropOp29
 70
     1
102
RTVSPost2010Prop30
280
     1
102
RTVSPost2010PropOp30
 70
     1
102
RTVSPost2010Prop31
280
     0
102
RTVSPost2010PropOp31
 70
     1
102
RTVSPost2010Prop32
280
     0
102
RTVSPost2010PropOp32
 70
     1
102
RTVSPost2010Prop33
280
     0
102
RTVSPost2010PropOp33
 70
     1
102
RTVSPost2010Prop34
280
     0
102
RTVSPost2010PropOp34
 70
     1
102
RTVSPost2010Prop35
280
     0
102
RTVSPost2010PropOp35
 70
     1
102
RTVSPost2010Prop36
280
     0
102
RTVSPost2010PropOp36
 70
     1
102
RTVSPost2010Prop37
 90
       50
102
RTVSPost2010PropOp37
 70
     1
102
RTVSPost2010Prop38
140
0.0
102
RTVSPost2010PropOp38
 70
     1
102
RTVSPost2010Prop39
140
1.0
102
RTVSPost2010PropOp39
 70
     1
102
RTVSPost2010Prop40
 90
        0
102
RTVSPost2010PropOp40
 70
     1
102
RTVSPost2010Prop41ColorIndex
 90
       18
102
RTVSPost2010Prop41ColorRGB
 90
        0
102
RTVSPost2010PropOp41
 70
     1
102
RTVSPost2010Prop42
 90
       50
102
RTVSPost2010PropOp42
 70
     1
102
RTVSPost2010Prop43
 90
        3
102
RTVSPost2010PropOp43
 70
     1
102
RTVSPost2010Prop44ColorIndex
 90
        5
102
RTVSPost2010Prop44ColorRGB
 90
      255
102
RTVSPost2010PropOp44
 70
     1
102
RTVSPost2010Prop45
280
     0
102
RTVSPost2010PropOp45
 70
     1
102
RTVSPost2010Prop46
 90
       50
102
RTVSPost2010PropOp46
 70
     1
102
RTVSPost2010Prop47
 90
       50
102
RTVSPost2010PropOp47
 70
     1
102
RTVSPost2010Prop48
 90
       50
102
RTVSPost2010PropOp48
 70
     1
102
RTVSPost2010Prop49
280
     0
102
RTVSPost2010PropOp49
 70
     1
102
RTVSPost2010Prop50
 90
       50
102
RTVSPost2010PropOp50
 70
     1
102
RTVSPost2010Prop51ColorIndex
 90
      256
102
RTVSPost2010Prop51ColorRGB
 90
-16777216
102
RTVSPost2010PropOp51
 70
     0
102
RTVSPost2010Prop52
140
1.0
102
RTVSPost2010PropOp52
 70
     0
102
RTVSPost2010Prop53
 90
        2
102
RTVSPost2010PropOp53
 70
     1
102
RTVSPost2010Prop54
  1
strokes_ogs.tif
102
RTVSPost2010PropOp54
 70
     1
102
RTVSPost2010Prop55
280
     0
102
RTVSPost2010PropOp55
 70
     1
102
RTVSPost2010Prop56
140
1.0
102
RTVSPost2010PropOp56
 70
     1
102
RTVSPost2010Prop57
140
1.0
102
RTVSPost2010PropOp57
 70
     1
  0
XRECORD
  5
21A
102
{ACAD_REACTORS
330
219
102
}
330
219
100
AcDbXrecord
280
     1
102
RTVSPropertyOp0
 70
     1
102
RTVSPropertyOp1
 70
     1
102
RTVSPropertyOp2
 70
     1
102
RTVSPropertyOp3
 70
     1
102
RTVSPropertyOp4
 70
     1
102
RTVSPropertyOp5
 70
     1
102
RTVSPropertyOp6
 70
     1
102
RTVSPropertyOp7
 70
     1
102
RTVSPropertyOp8
 70
     1
102
RTVSPropertyOp9
 70
     1
102
RTVSPropertyOp10
 70
     1
102
RTVSPropertyOp11
 70
     1
102
RTVSPropertyOp12
 70
     1
102
RTVSPropertyOp13
 70
     1
102
RTVSPropertyOp14
 70
     1
102
RTVSPropertyOp15
 70
     1
102
RTVSPropertyOp16
 70
     1
102
RTVSPropertyOp17
 70
     1
102
RTVSPropertyOp18
 70
     1
102
RTVSPropertyOp19
 70
     1
102
RTVSPropertyOp20
 70
     1
102
RTVSPropertyOp21
 70
     1
102
RTVSPropertyOp22
 70
     1
102
RTVSPropertyOp23
 70
     1
102
RTVSPropertyOp24
 70
     1
102
RTVSPropertyOp25
 70
     1
102
RTVSPropertyOp26
 70
     1
102
RTVSPropertyOp27
 70
     1
102
RTVSPropertyOp28
 70
     1
102
RTVSPropertyOp29
 70
     1
102
RTVSPropertyOp30
 70
     1
102
RTVSPropertyOp31
 70
     1
102
RTVSPropertyOp32
 70
     1
102
RTVSPropertyOp33
 70
     1
102
RTVSPropertyOp34
 70
     1
102
RTVSPropertyOp35
 70
     1
102
RTVSPropertyOp36
 70
     1
102
RTVSPropertyOp37
 70
     1
102
RTVSPropertyOp38
 70
     1
102
RTVSPropertyOp39
 70
     1
102
RTVSPropertyOp40
 70
     1
102
RTVSPropertyOp41
 70
     1
102
RTVSPropertyOp42
 70
     1
102
RTVSPropertyOp43
 70
     1
102
RTVSPropertyOp44
 70
     1
102
RTVSPropertyOp45
 70
     1
102
RTVSPropertyOp46
 70
     1
102
RTVSPropertyOp47
 70
     1
102
RTVSPropertyOp48
 70
     1
102
RTVSPropertyOp49
 70
     1
102
RTVSPropertyOp50
 70
     1
102
RTVSPropertyOp51
 70
     0
102
RTVSPropertyOp52
 70
     0
102
RTVSPropertyOp53
 70
     1
102
RTVSPropertyOp54
 70
     1
102
RTVSPropertyOp55
 70
     1
102
RTVSPropertyOp56
 70
     1
102
RTVSPropertyOp57
 70
     1
102
RTVSPost2010Prop28
280
     0
102
RTVSPost2010PropOp28
 70
     1
102
RTVSPost2010Prop29
280
     1
102
RTVSPost2010PropOp29
 70
     1
102
RTVSPost2010Prop30
280
     1
102
RTVSPost2010PropOp30
 70
     1
102
RTVSPost2010Prop31
280
     0
102
RTVSPost2010PropOp31
 70
     1
102
RTVSPost2010Prop32
280
     0
102
RTVSPost2010PropOp32
 70
     1
102
RTVSPost2010Prop33
280
     0
102
RTVSPost2010PropOp33
 70
     1
102
RTVSPost2010Prop34
280
     0
102
RTVSPost2010PropOp34
 70
     1
102
RTVSPost2010Prop35
280
     0
102
RTVSPost2010PropOp35
 70
     1
102
RTVSPost2010Prop36
280
     0
102
RTVSPost2010PropOp36
 70
     1
102
RTVSPost2010Prop37
 90
       50
102
RTVSPost2010PropOp37
 70
     1
102
RTVSPost2010Prop38
140
0.0
102
RTVSPost2010PropOp38
 70
     1
102
RTVSPost2010Prop39
140
1.0
102
RTVSPost2010PropOp39
 70
     1
102
RTVSPost2010Prop40
 90
        0
102
RTVSPost2010PropOp40
 70
     1
102
RTVSPost2010Prop41ColorIndex
 90
       18
102
RTVSPost2010Prop41ColorRGB
 90
        0
102
RTVSPost2010PropOp41
 70
     1
102
RTVSPost2010Prop42
 90
       50
102
RTVSPost2010PropOp42
 70
     1
102
RTVSPost2010Prop43
 90
        3
102
RTVSPost2010PropOp43
 70
     1
102
RTVSPost2010Prop44ColorIndex
 90
        5
102
RTVSPost2010Prop44ColorRGB
 90
      255
102
RTVSPost2010PropOp44
 70
     1
102
RTVSPost2010Prop45
280
     0
102
RTVSPost2010PropOp45
 70
     1
102
RTVSPost2010Prop46
 90
       50
102
RTVSPost2010PropOp46
 70
     1
102
RTVSPost2010Prop47
 90
       50
102
RTVSPost2010PropOp47
 70
     1
102
RTVSPost2010Prop48
 90
       50
102
RTVSPost2010PropOp48
 70
     1
102
RTVSPost2010Prop49
280
     0
102
RTVSPost2010PropOp49
 70
     1
102
RTVSPost2010Prop50
 90
       50
102
RTVSPost2010PropOp50
 70
     1
102
RTVSPost2010Prop51ColorIndex
 90
      256
102
RTVSPost2010Prop51ColorRGB
 90
-16777216
102
RTVSPost2010PropOp51
 70
     0
102
RTVSPost2010Prop52
140
1.0
102
RTVSPost2010PropOp52
 70
     0
102
RTVSPost2010Prop53
 90
        2
102
RTVSPost2010PropOp53
 70
     1
102
RTVSPost2010Prop54
  1
strokes_ogs.tif
102
RTVSPost2010PropOp54
 70
     1
102
RTVSPost2010Prop55
280
     0
102
RTVSPost2010PropOp55
 70
     1
102
RTVSPost2010Prop56
140
1.0
102
RTVSPost2010PropOp56
 70
     1
102
RTVSPost2010Prop57
140
1.0
102
RTVSPost2010PropOp57
 70
     1
  0
XRECORD
  5
220
102
{ACAD_REACTORS
330
21F
102
}
330
21F
100
AcDbXrecord
280
     1
102
RTVSPropertyOp0
 70
     1
102
RTVSPropertyOp1
 70
     1
102
RTVSPropertyOp2
 70
     1
102
RTVSPropertyOp3
 70
     1
102
RTVSPropertyOp4
 70
     1
102
RTVSPropertyOp5
 70
     1
102
RTVSPropertyOp6
 70
     1
102
RTVSPropertyOp7
 70
     1
102
RTVSPropertyOp8
 70
     1
102
RTVSPropertyOp9
 70
     1
102
RTVSPropertyOp10
 70
     1
102
RTVSPropertyOp11
 70
     1
102
RTVSPropertyOp12
 70
     1
102
RTVSPropertyOp13
 70
     1
102
RTVSPropertyOp14
 70
     1
102
RTVSPropertyOp15
 70
     1
102
RTVSPropertyOp16
 70
     1
102
RTVSPropertyOp17
 70
     1
102
RTVSPropertyOp18
 70
     1
102
RTVSPropertyOp19
 70
     1
102
RTVSPropertyOp20
 70
     1
102
RTVSPropertyOp21
 70
     1
102
RTVSPropertyOp22
 70
     1
102
RTVSPropertyOp23
 70
     1
102
RTVSPropertyOp24
 70
     1
102
RTVSPropertyOp25
 70
     1
102
RTVSPropertyOp26
 70
     1
102
RTVSPropertyOp27
 70
     1
102
RTVSPropertyOp28
 70
     1
102
RTVSPropertyOp29
 70
     1
102
RTVSPropertyOp30
 70
     1
102
RTVSPropertyOp31
 70
     1
102
RTVSPropertyOp32
 70
     1
102
RTVSPropertyOp33
 70
     1
102
RTVSPropertyOp34
 70
     1
102
RTVSPropertyOp35
 70
     1
102
RTVSPropertyOp36
 70
     1
102
RTVSPropertyOp37
 70
     1
102
RTVSPropertyOp38
 70
     1
102
RTVSPropertyOp39
 70
     1
102
RTVSPropertyOp40
 70
     1
102
RTVSPropertyOp41
 70
     1
102
RTVSPropertyOp42
 70
     1
102
RTVSPropertyOp43
 70
     1
102
RTVSPropertyOp44
 70
     1
102
RTVSPropertyOp45
 70
     1
102
RTVSPropertyOp46
 70
     1
102
RTVSPropertyOp47
 70
     1
102
RTVSPropertyOp48
 70
     1
102
RTVSPropertyOp49
 70
     1
102
RTVSPropertyOp50
 70
     1
102
RTVSPropertyOp51
 70
     0
102
RTVSPropertyOp52
 70
     0
102
RTVSPropertyOp53
 70
     1
102
RTVSPropertyOp54
 70
     1
102
RTVSPropertyOp55
 70
     1
102
RTVSPropertyOp56
 70
     1
102
RTVSPropertyOp57
 70
     1
102
RTVSPost2010Prop28
280
     0
102
RTVSPost2010PropOp28
 70
     1
102
RTVSPost2010Prop29
280
     1
102
RTVSPost2010PropOp29
 70
     1
102
RTVSPost2010Prop30
280
     1
102
RTVSPost2010PropOp30
 70
     1
102
RTVSPost2010Prop31
280
     0
102
RTVSPost2010PropOp31
 70
     1
102
RTVSPost2010Prop32
280
     0
102
RTVSPost2010PropOp32
 70
     1
102
RTVSPost2010Prop33
280
     0
102
RTVSPost2010PropOp33
 70
     1
102
RTVSPost2010Prop34
280
     0
102
RTVSPost2010PropOp34
 70
     1
102
RTVSPost2010Prop35
280
     0
102
RTVSPost2010PropOp35
 70
     1
102
RTVSPost2010Prop36
280
     0
102
RTVSPost2010PropOp36
 70
     1
102
RTVSPost2010Prop37
 90
       50
102
RTVSPost2010PropOp37
 70
     1
102
RTVSPost2010Prop38
140
0.0
102
RTVSPost2010PropOp38
 70
     1
102
RTVSPost2010Prop39
140
1.0
102
RTVSPost2010PropOp39
 70
     1
102
RTVSPost2010Prop40
 90
        0
102
RTVSPost2010PropOp40
 70
     1
102
RTVSPost2010Prop41ColorIndex
 90
       18
102
RTVSPost2010Prop41ColorRGB
 90
        0
102
RTVSPost2010PropOp41
 70
     1
102
RTVSPost2010Prop42
 90
       50
102
RTVSPost2010PropOp42
 70
     1
102
RTVSPost2010Prop43
 90
        3
102
RTVSPost2010PropOp43
 70
     1
102
RTVSPost2010Prop44ColorIndex
 90
        5
102
RTVSPost2010Prop44ColorRGB
 90
      255
102
RTVSPost2010PropOp44
 70
     1
102
RTVSPost2010Prop45
280
     0
102
RTVSPost2010PropOp45
 70
     1
102
RTVSPost2010Prop46
 90
       50
102
RTVSPost2010PropOp46
 70
     1
102
RTVSPost2010Prop47
 90
       50
102
RTVSPost2010PropOp47
 70
     1
102
RTVSPost2010Prop48
 90
       50
102
RTVSPost2010PropOp48
 70
     1
102
RTVSPost2010Prop49
280
     0
102
RTVSPost2010PropOp49
 70
     1
102
RTVSPost2010Prop50
 90
       50
102
RTVSPost2010PropOp50
 70
     1
102
RTVSPost2010Prop51ColorIndex
 90
      256
102
RTVSPost2010Prop51ColorRGB
 90
-16777216
102
RTVSPost2010PropOp51
 70
     0
102
RTVSPost2010Prop52
140
1.0
102
RTVSPost2010PropOp52
 70
     0
102
RTVSPost2010Prop53
 90
        2
102
RTVSPost2010PropOp53
 70
     1
102
RTVSPost2010Prop54
  1
strokes_ogs.tif
102
RTVSPost2010PropOp54
 70
     1
102
RTVSPost2010Prop55
280
     0
102
RTVSPost2010PropOp55
 70
     1
102
RTVSPost2010Prop56
140
1.0
102
RTVSPost2010PropOp56
 70
     1
102
RTVSPost2010Prop57
140
1.0
102
RTVSPost2010PropOp57
 70
     1
  0
XRECORD
  5
234
102
{ACAD_REACTORS
330
233
102
}
330
233
100
AcDbXrecord
280
     1
102
RTVSPropertyOp0
 70
     0
102
RTVSPropertyOp1
 70
     0
102
RTVSPropertyOp2
 70
     0
102
RTVSPropertyOp3
 70
     0
102
RTVSPropertyOp4
 70
     0
102
RTVSPropertyOp5
 70
     0
102
RTVSPropertyOp6
 70
     0
102
RTVSPropertyOp7
 70
     0
102
RTVSPropertyOp8
 70
     0
102
RTVSPropertyOp9
 70
     0
102
RTVSPropertyOp10
 70
     0
102
RTVSPropertyOp11
 70
     0
102
RTVSPropertyOp12
 70
     0
102
RTVSPropertyOp13
 70
     0
102
RTVSPropertyOp14
 70
     2
102
RTVSPropertyOp15
 70
     0
102
RTVSPropertyOp16
 70
     0
102
RTVSPropertyOp17
 70
     0
102
RTVSPropertyOp18
 70
     0
102
RTVSPropertyOp19
 70
     0
102
RTVSPropertyOp20
 70
     0
102
RTVSPropertyOp21
 70
     0
102
RTVSPropertyOp22
 70
     0
102
RTVSPropertyOp23
 70
     0
102
RTVSPropertyOp24
 70
     0
102
RTVSPropertyOp25
 70
     0
102
RTVSPropertyOp26
 70
     0
102
RTVSPropertyOp27
 70
     0
102
RTVSPropertyOp28
 70
     0
102
RTVSPropertyOp29
 70
     0
102
RTVSPropertyOp30
 70
     0
102
RTVSPropertyOp31
 70
     0
102
RTVSPropertyOp32
 70
     0
102
RTVSPropertyOp33
 70
     0
102
RTVSPropertyOp34
 70
     0
102
RTVSPropertyOp35
 70
     0
102
RTVSPropertyOp36
 70
     0
102
RTVSPropertyOp37
 70
     0
102
RTVSPropertyOp38
 70
     0
102
RTVSPropertyOp39
 70
     0
102
RTVSPropertyOp40
 70
     0
102
RTVSPropertyOp41
 70
     0
102
RTVSPropertyOp42
 70
     0
102
RTVSPropertyOp43
 70
     0
102
RTVSPropertyOp44
 70
     0
102
RTVSPropertyOp45
 70
     0
102
RTVSPropertyOp46
 70
     0
102
RTVSPropertyOp47
 70
     0
102
RTVSPropertyOp48
 70
     0
102
RTVSPropertyOp49
 70
     0
102
RTVSPropertyOp50
 70
     0
102
RTVSPropertyOp51
 70
     0
102
RTVSPropertyOp52
 70
     0
102
RTVSPropertyOp53
 70
     0
102
RTVSPropertyOp54
 70
     0
102
RTVSPropertyOp55
 70
     0
102
RTVSPropertyOp56
 70
     0
102
RTVSPropertyOp57
 70
     0
102
RTVSPost2010Prop28
280
     0
102
RTVSPost2010PropOp28
 70
     0
102
RTVSPost2010Prop29
280
     1
102
RTVSPost2010PropOp29
 70
     0
102
RTVSPost2010Prop30
280
     1
102
RTVSPost2010PropOp30
 70
     0
102
RTVSPost2010Prop31
280
     0
102
RTVSPost2010PropOp31
 70
     0
102
RTVSPost2010Prop32
280
     0
102
RTVSPost2010PropOp32
 70
     0
102
RTVSPost2010Prop33
280
     0
102
RTVSPost2010PropOp33
 70
     0
102
RTVSPost2010Prop34
280
     0
102
RTVSPost2010PropOp34
 70
     0
102
RTVSPost2010Prop35
280
     0
102
RTVSPost2010PropOp35
 70
     0
102
RTVSPost2010Prop36
280
     0
102
RTVSPost2010PropOp36
 70
     0
102
RTVSPost2010Prop37
 90
       50
102
RTVSPost2010PropOp37
 70
     0
102
RTVSPost2010Prop38
140
0.0
102
RTVSPost2010PropOp38
 70
     0
102
RTVSPost2010Prop39
140
1.0
102
RTVSPost2010PropOp39
 70
     0
102
RTVSPost2010Prop40
 90
        0
102
RTVSPost2010PropOp40
 70
     0
102
RTVSPost2010Prop41ColorIndex
 90
       18
102
RTVSPost2010Prop41ColorRGB
 90
        0
102
RTVSPost2010PropOp41
 70
     0
102
RTVSPost2010Prop42
 90
       50
102
RTVSPost2010PropOp42
 70
     0
102
RTVSPost2010Prop43
 90
        3
102
RTVSPost2010PropOp43
 70
     0
102
RTVSPost2010Prop44ColorIndex
 90
        5
102
RTVSPost2010Prop44ColorRGB
 90
      255
102
RTVSPost2010PropOp44
 70
     0
102
RTVSPost2010Prop45
280
     0
102
RTVSPost2010PropOp45
 70
     0
102
RTVSPost2010Prop46
 90
       50
102
RTVSPost2010PropOp46
 70
     0
102
RTVSPost2010Prop47
 90
       50
102
RTVSPost2010PropOp47
 70
     0
102
RTVSPost2010Prop48
 90
       50
102
RTVSPost2010PropOp48
 70
     0
102
RTVSPost2010Prop49
280
     0
102
RTVSPost2010PropOp49
 70
     0
102
RTVSPost2010Prop50
 90
       50
102
RTVSPost2010PropOp50
 70
     0
102
RTVSPost2010Prop51ColorIndex
 90
      256
102
RTVSPost2010Prop51ColorRGB
 90
-16777216
102
RTVSPost2010PropOp51
 70
     0
102
RTVSPost2010Prop52
140
1.0
102
RTVSPost2010PropOp52
 70
     0
102
RTVSPost2010Prop53
 90
        2
102
RTVSPost2010PropOp53
 70
     0
102
RTVSPost2010Prop54
  1
strokes_ogs.tif
102
RTVSPost2010PropOp54
 70
     0
102
RTVSPost2010Prop55
280
     0
102
RTVSPost2010PropOp55
 70
     0
102
RTVSPost2010Prop56
140
1.0
102
RTVSPost2010PropOp56
 70
     0
102
RTVSPost2010Prop57
140
1.0
102
RTVSPost2010PropOp57
 70
     0
  0
XRECORD
  5
22E
102
{ACAD_REACTORS
330
22D
102
}
330
22D
100
AcDbXrecord
280
     1
102
RTVSPropertyOp0
 70
     1
102
RTVSPropertyOp1
 70
     1
102
RTVSPropertyOp2
 70
     1
102
RTVSPropertyOp3
 70
     1
102
RTVSPropertyOp4
 70
     1
102
RTVSPropertyOp5
 70
     1
102
RTVSPropertyOp6
 70
     1
102
RTVSPropertyOp7
 70
     1
102
RTVSPropertyOp8
 70
     1
102
RTVSPropertyOp9
 70
     1
102
RTVSPropertyOp10
 70
     1
102
RTVSPropertyOp11
 70
     1
102
RTVSPropertyOp12
 70
     1
102
RTVSPropertyOp13
 70
     1
102
RTVSPropertyOp14
 70
     1
102
RTVSPropertyOp15
 70
     1
102
RTVSPropertyOp16
 70
     1
102
RTVSPropertyOp17
 70
     1
102
RTVSPropertyOp18
 70
     1
102
RTVSPropertyOp19
 70
     1
102
RTVSPropertyOp20
 70
     1
102
RTVSPropertyOp21
 70
     1
102
RTVSPropertyOp22
 70
     1
102
RTVSPropertyOp23
 70
     1
102
RTVSPropertyOp24
 70
     1
102
RTVSPropertyOp25
 70
     1
102
RTVSPropertyOp26
 70
     1
102
RTVSPropertyOp27
 70
     1
102
RTVSPropertyOp28
 70
     1
102
RTVSPropertyOp29
 70
     1
102
RTVSPropertyOp30
 70
     1
102
RTVSPropertyOp31
 70
     1
102
RTVSPropertyOp32
 70
     1
102
RTVSPropertyOp33
 70
     1
102
RTVSPropertyOp34
 70
     1
102
RTVSPropertyOp35
 70
     1
102
RTVSPropertyOp36
 70
     1
102
RTVSPropertyOp37
 70
     1
102
RTVSPropertyOp38
 70
     1
102
RTVSPropertyOp39
 70
     1
102
RTVSPropertyOp40
 70
     1
102
RTVSPropertyOp41
 70
     1
102
RTVSPropertyOp42
 70
     1
102
RTVSPropertyOp43
 70
     1
102
RTVSPropertyOp44
 70
     1
102
RTVSPropertyOp45
 70
     1
102
RTVSPropertyOp46
 70
     1
102
RTVSPropertyOp47
 70
     1
102
RTVSPropertyOp48
 70
     1
102
RTVSPropertyOp49
 70
     1
102
RTVSPropertyOp50
 70
     1
102
RTVSPropertyOp51
 70
     0
102
RTVSPropertyOp52
 70
     0
102
RTVSPropertyOp53
 70
     1
102
RTVSPropertyOp54
 70
     1
102
RTVSPropertyOp55
 70
     1
102
RTVSPropertyOp56
 70
     1
102
RTVSPropertyOp57
 70
     1
102
RTVSPost2010Prop28
280
     0
102
RTVSPost2010PropOp28
 70
     1
102
RTVSPost2010Prop29
280
     1
102
RTVSPost2010PropOp29
 70
     1
102
RTVSPost2010Prop30
280
     1
102
RTVSPost2010PropOp30
 70
     1
102
RTVSPost2010Prop31
280
     0
102
RTVSPost2010PropOp31
 70
     1
102
RTVSPost2010Prop32
280
     0
102
RTVSPost2010PropOp32
 70
     1
102
RTVSPost2010Prop33
280
     0
102
RTVSPost2010PropOp33
 70
     1
102
RTVSPost2010Prop34
280
     0
102
RTVSPost2010PropOp34
 70
     1
102
RTVSPost2010Prop35
280
     0
102
RTVSPost2010PropOp35
 70
     1
102
RTVSPost2010Prop36
280
     0
102
RTVSPost2010PropOp36
 70
     1
102
RTVSPost2010Prop37
 90
       50
102
RTVSPost2010PropOp37
 70
     1
102
RTVSPost2010Prop38
140
0.0
102
RTVSPost2010PropOp38
 70
     1
102
RTVSPost2010Prop39
140
1.0
102
RTVSPost2010PropOp39
 70
     1
102
RTVSPost2010Prop40
 90
        0
102
RTVSPost2010PropOp40
 70
     1
102
RTVSPost2010Prop41ColorIndex
 90
       18
102
RTVSPost2010Prop41ColorRGB
 90
        0
102
RTVSPost2010PropOp41
 70
     1
102
RTVSPost2010Prop42
 90
       50
102
RTVSPost2010PropOp42
 70
     1
102
RTVSPost2010Prop43
 90
        3
102
RTVSPost2010PropOp43
 70
     1
102
RTVSPost2010Prop44ColorIndex
 90
        5
102
RTVSPost2010Prop44ColorRGB
 90
      255
102
RTVSPost2010PropOp44
 70
     1
102
RTVSPost2010Prop45
280
     0
102
RTVSPost2010PropOp45
 70
     1
102
RTVSPost2010Prop46
 90
       50
102
RTVSPost2010PropOp46
 70
     1
102
RTVSPost2010Prop47
 90
       50
102
RTVSPost2010PropOp47
 70
     1
102
RTVSPost2010Prop48
 90
       50
102
RTVSPost2010PropOp48
 70
     1
102
RTVSPost2010Prop49
280
     0
102
RTVSPost2010PropOp49
 70
     1
102
RTVSPost2010Prop50
 90
       50
102
RTVSPost2010PropOp50
 70
     1
102
RTVSPost2010Prop51ColorIndex
 90
      256
102
RTVSPost2010Prop51ColorRGB
 90
-16777216
102
RTVSPost2010PropOp51
 70
     0
102
RTVSPost2010Prop52
140
1.0
102
RTVSPost2010PropOp52
 70
     0
102
RTVSPost2010Prop53
 90
        2
102
RTVSPost2010PropOp53
 70
     1
102
RTVSPost2010Prop54
  1
strokes_ogs.tif
102
RTVSPost2010PropOp54
 70
     1
102
RTVSPost2010Prop55
280
     0
102
RTVSPost2010PropOp55
 70
     1
102
RTVSPost2010Prop56
140
1.0
102
RTVSPost2010PropOp56
 70
     1
102
RTVSPost2010Prop57
140
1.0
102
RTVSPost2010PropOp57
 70
     1
  0
XRECORD
  5
236
102
{ACAD_REACTORS
330
235
102
}
330
235
100
AcDbXrecord
280
     1
102
RTVSPropertyOp0
 70
     0
102
RTVSPropertyOp1
 70
     0
102
RTVSPropertyOp2
 70
     0
102
RTVSPropertyOp3
 70
     0
102
RTVSPropertyOp4
 70
     0
102
RTVSPropertyOp5
 70
     0
102
RTVSPropertyOp6
 70
     0
102
RTVSPropertyOp7
 70
     0
102
RTVSPropertyOp8
 70
     0
102
RTVSPropertyOp9
 70
     0
102
RTVSPropertyOp10
 70
     0
102
RTVSPropertyOp11
 70
     0
102
RTVSPropertyOp12
 70
     0
102
RTVSPropertyOp13
 70
     0
102
RTVSPropertyOp14
 70
     2
102
RTVSPropertyOp15
 70
     0
102
RTVSPropertyOp16
 70
     0
102
RTVSPropertyOp17
 70
     0
102
RTVSPropertyOp18
 70
     0
102
RTVSPropertyOp19
 70
     0
102
RTVSPropertyOp20
 70
     0
102
RTVSPropertyOp21
 70
     0
102
RTVSPropertyOp22
 70
     0
102
RTVSPropertyOp23
 70
     0
102
RTVSPropertyOp24
 70
     0
102
RTVSPropertyOp25
 70
     0
102
RTVSPropertyOp26
 70
     0
102
RTVSPropertyOp27
 70
     0
102
RTVSPropertyOp28
 70
     0
102
RTVSPropertyOp29
 70
     0
102
RTVSPropertyOp30
 70
     0
102
RTVSPropertyOp31
 70
     0
102
RTVSPropertyOp32
 70
     0
102
RTVSPropertyOp33
 70
     0
102
RTVSPropertyOp34
 70
     0
102
RTVSPropertyOp35
 70
     0
102
RTVSPropertyOp36
 70
     0
102
RTVSPropertyOp37
 70
     0
102
RTVSPropertyOp38
 70
     0
102
RTVSPropertyOp39
 70
     0
102
RTVSPropertyOp40
 70
     0
102
RTVSPropertyOp41
 70
     0
102
RTVSPropertyOp42
 70
     0
102
RTVSPropertyOp43
 70
     0
102
RTVSPropertyOp44
 70
     0
102
RTVSPropertyOp45
 70
     0
102
RTVSPropertyOp46
 70
     0
102
RTVSPropertyOp47
 70
     0
102
RTVSPropertyOp48
 70
     0
102
RTVSPropertyOp49
 70
     0
102
RTVSPropertyOp50
 70
     0
102
RTVSPropertyOp51
 70
     0
102
RTVSPropertyOp52
 70
     0
102
RTVSPropertyOp53
 70
     0
102
RTVSPropertyOp54
 70
     0
102
RTVSPropertyOp55
 70
     0
102
RTVSPropertyOp56
 70
     0
102
RTVSPropertyOp57
 70
     0
102
RTVSPost2010Prop28
280
     0
102
RTVSPost2010PropOp28
 70
     0
102
RTVSPost2010Prop29
280
     1
102
RTVSPost2010PropOp29
 70
     0
102
RTVSPost2010Prop30
280
     1
102
RTVSPost2010PropOp30
 70
     0
102
RTVSPost2010Prop31
280
     0
102
RTVSPost2010PropOp31
 70
     0
102
RTVSPost2010Prop32
280
     0
102
RTVSPost2010PropOp32
 70
     0
102
RTVSPost2010Prop33
280
     0
102
RTVSPost2010PropOp33
 70
     0
102
RTVSPost2010Prop34
280
     0
102
RTVSPost2010PropOp34
 70
     0
102
RTVSPost2010Prop35
280
     0
102
RTVSPost2010PropOp35
 70
     0
102
RTVSPost2010Prop36
280
     0
102
RTVSPost2010PropOp36
 70
     0
102
RTVSPost2010Prop37
 90
       50
102
RTVSPost2010PropOp37
 70
     0
102
RTVSPost2010Prop38
140
0.0
102
RTVSPost2010PropOp38
 70
     0
102
RTVSPost2010Prop39
140
1.0
102
RTVSPost2010PropOp39
 70
     0
102
RTVSPost2010Prop40
 90
        0
102
RTVSPost2010PropOp40
 70
     0
102
RTVSPost2010Prop41ColorIndex
 90
       18
102
RTVSPost2010Prop41ColorRGB
 90
        0
102
RTVSPost2010PropOp41
 70
     0
102
RTVSPost2010Prop42
 90
       50
102
RTVSPost2010PropOp42
 70
     0
102
RTVSPost2010Prop43
 90
        3
102
RTVSPost2010PropOp43
 70
     0
102
RTVSPost2010Prop44ColorIndex
 90
        5
102
RTVSPost2010Prop44ColorRGB
 90
      255
102
RTVSPost2010PropOp44
 70
     0
102
RTVSPost2010Prop45
280
     0
102
RTVSPost2010PropOp45
 70
     0
102
RTVSPost2010Prop46
 90
       50
102
RTVSPost2010PropOp46
 70
     0
102
RTVSPost2010Prop47
 90
       50
102
RTVSPost2010PropOp47
 70
     0
102
RTVSPost2010Prop48
 90
       50
102
RTVSPost2010PropOp48
 70
     0
102
RTVSPost2010Prop49
280
     0
102
RTVSPost2010PropOp49
 70
     0
102
RTVSPost2010Prop50
 90
       50
102
RTVSPost2010PropOp50
 70
     0
102
RTVSPost2010Prop51ColorIndex
 90
      256
102
RTVSPost2010Prop51ColorRGB
 90
-16777216
102
RTVSPost2010PropOp51
 70
     0
102
RTVSPost2010Prop52
140
1.0
102
RTVSPost2010PropOp52
 70
     0
102
RTVSPost2010Prop53
 90
        2
102
RTVSPost2010PropOp53
 70
     0
102
RTVSPost2010Prop54
  1
strokes_ogs.tif
102
RTVSPost2010PropOp54
 70
     0
102
RTVSPost2010Prop55
280
     0
102
RTVSPost2010PropOp55
 70
     0
102
RTVSPost2010Prop56
140
1.0
102
RTVSPost2010PropOp56
 70
     0
102
RTVSPost2010Prop57
140
1.0
102
RTVSPost2010PropOp57
 70
     0
  0
XRECORD
  5
224
102
{ACAD_REACTORS
330
223
102
}
330
223
100
AcDbXrecord
280
     1
102
RTVSPropertyOp0
 70
     1
102
RTVSPropertyOp1
 70
     1
102
RTVSPropertyOp2
 70
     1
102
RTVSPropertyOp3
 70
     1
102
RTVSPropertyOp4
 70
     1
102
RTVSPropertyOp5
 70
     1
102
RTVSPropertyOp6
 70
     1
102
RTVSPropertyOp7
 70
     1
102
RTVSPropertyOp8
 70
     1
102
RTVSPropertyOp9
 70
     1
102
RTVSPropertyOp10
 70
     1
102
RTVSPropertyOp11
 70
     1
102
RTVSPropertyOp12
 70
     1
102
RTVSPropertyOp13
 70
     1
102
RTVSPropertyOp14
 70
     1
102
RTVSPropertyOp15
 70
     1
102
RTVSPropertyOp16
 70
     1
102
RTVSPropertyOp17
 70
     1
102
RTVSPropertyOp18
 70
     1
102
RTVSPropertyOp19
 70
     1
102
RTVSPropertyOp20
 70
     1
102
RTVSPropertyOp21
 70
     1
102
RTVSPropertyOp22
 70
     1
102
RTVSPropertyOp23
 70
     1
102
RTVSPropertyOp24
 70
     1
102
RTVSPropertyOp25
 70
     1
102
RTVSPropertyOp26
 70
     1
102
RTVSPropertyOp27
 70
     1
102
RTVSPropertyOp28
 70
     1
102
RTVSPropertyOp29
 70
     1
102
RTVSPropertyOp30
 70
     1
102
RTVSPropertyOp31
 70
     1
102
RTVSPropertyOp32
 70
     1
102
RTVSPropertyOp33
 70
     1
102
RTVSPropertyOp34
 70
     1
102
RTVSPropertyOp35
 70
     1
102
RTVSPropertyOp36
 70
     1
102
RTVSPropertyOp37
 70
     1
102
RTVSPropertyOp38
 70
     1
102
RTVSPropertyOp39
 70
     1
102
RTVSPropertyOp40
 70
     1
102
RTVSPropertyOp41
 70
     1
102
RTVSPropertyOp42
 70
     1
102
RTVSPropertyOp43
 70
     1
102
RTVSPropertyOp44
 70
     1
102
RTVSPropertyOp45
 70
     1
102
RTVSPropertyOp46
 70
     1
102
RTVSPropertyOp47
 70
     1
102
RTVSPropertyOp48
 70
     1
102
RTVSPropertyOp49
 70
     1
102
RTVSPropertyOp50
 70
     1
102
RTVSPropertyOp51
 70
     0
102
RTVSPropertyOp52
 70
     0
102
RTVSPropertyOp53
 70
     1
102
RTVSPropertyOp54
 70
     1
102
RTVSPropertyOp55
 70
     1
102
RTVSPropertyOp56
 70
     1
102
RTVSPropertyOp57
 70
     1
102
RTVSPost2010Prop28
280
     0
102
RTVSPost2010PropOp28
 70
     1
102
RTVSPost2010Prop29
280
     1
102
RTVSPost2010PropOp29
 70
     1
102
RTVSPost2010Prop30
280
     1
102
RTVSPost2010PropOp30
 70
     1
102
RTVSPost2010Prop31
280
     0
102
RTVSPost2010PropOp31
 70
     1
102
RTVSPost2010Prop32
280
     0
102
RTVSPost2010PropOp32
 70
     1
102
RTVSPost2010Prop33
280
     0
102
RTVSPost2010PropOp33
 70
     1
102
RTVSPost2010Prop34
280
     0
102
RTVSPost2010PropOp34
 70
     1
102
RTVSPost2010Prop35
280
     0
102
RTVSPost2010PropOp35
 70
     1
102
RTVSPost2010Prop36
280
     0
102
RTVSPost2010PropOp36
 70
     1
102
RTVSPost2010Prop37
 90
       50
102
RTVSPost2010PropOp37
 70
     1
102
RTVSPost2010Prop38
140
0.0
102
RTVSPost2010PropOp38
 70
     1
102
RTVSPost2010Prop39
140
1.0
102
RTVSPost2010PropOp39
 70
     1
102
RTVSPost2010Prop40
 90
        0
102
RTVSPost2010PropOp40
 70
     1
102
RTVSPost2010Prop41ColorIndex
 90
       18
102
RTVSPost2010Prop41ColorRGB
 90
        0
102
RTVSPost2010PropOp41
 70
     1
102
RTVSPost2010Prop42
 90
       50
102
RTVSPost2010PropOp42
 70
     1
102
RTVSPost2010Prop43
 90
        3
102
RTVSPost2010PropOp43
 70
     1
102
RTVSPost2010Prop44ColorIndex
 90
        5
102
RTVSPost2010Prop44ColorRGB
 90
      255
102
RTVSPost2010PropOp44
 70
     1
102
RTVSPost2010Prop45
280
     0
102
RTVSPost2010PropOp45
 70
     1
102
RTVSPost2010Prop46
 90
       50
102
RTVSPost2010PropOp46
 70
     1
102
RTVSPost2010Prop47
 90
       50
102
RTVSPost2010PropOp47
 70
     1
102
RTVSPost2010Prop48
 90
       50
102
RTVSPost2010PropOp48
 70
     1
102
RTVSPost2010Prop49
280
     0
102
RTVSPost2010PropOp49
 70
     1
102
RTVSPost2010Prop50
 90
       50
102
RTVSPost2010PropOp50
 70
     1
102
RTVSPost2010Prop51ColorIndex
 90
      256
102
RTVSPost2010Prop51ColorRGB
 90
-16777216
102
RTVSPost2010PropOp51
 70
     0
102
RTVSPost2010Prop52
140
1.0
102
RTVSPost2010PropOp52
 70
     0
102
RTVSPost2010Prop53
 90
        2
102
RTVSPost2010PropOp53
 70
     1
102
RTVSPost2010Prop54
  1
strokes_ogs.tif
102
RTVSPost2010PropOp54
 70
     1
102
RTVSPost2010Prop55
280
     0
102
RTVSPost2010PropOp55
 70
     1
102
RTVSPost2010Prop56
140
1.0
102
RTVSPost2010PropOp56
 70
     1
102
RTVSPost2010Prop57
140
1.0
102
RTVSPost2010PropOp57
 70
     1
  0
XRECORD
  5
242
102
{ACAD_REACTORS
330
241
102
}
330
241
100
AcDbXrecord
280
     1
102
RTVSPropertyOp0
 70
     1
102
RTVSPropertyOp1
 70
     1
102
RTVSPropertyOp2
 70
     1
102
RTVSPropertyOp3
 70
     1
102
RTVSPropertyOp4
 70
     1
102
RTVSPropertyOp5
 70
     1
102
RTVSPropertyOp6
 70
     1
102
RTVSPropertyOp7
 70
     1
102
RTVSPropertyOp8
 70
     1
102
RTVSPropertyOp9
 70
     1
102
RTVSPropertyOp10
 70
     1
102
RTVSPropertyOp11
 70
     1
102
RTVSPropertyOp12
 70
     1
102
RTVSPropertyOp13
 70
     1
102
RTVSPropertyOp14
 70
     1
102
RTVSPropertyOp15
 70
     1
102
RTVSPropertyOp16
 70
     1
102
RTVSPropertyOp17
 70
     1
102
RTVSPropertyOp18
 70
     1
102
RTVSPropertyOp19
 70
     1
102
RTVSPropertyOp20
 70
     1
102
RTVSPropertyOp21
 70
     1
102
RTVSPropertyOp22
 70
     1
102
RTVSPropertyOp23
 70
     1
102
RTVSPropertyOp24
 70
     1
102
RTVSPropertyOp25
 70
     1
102
RTVSPropertyOp26
 70
     1
102
RTVSPropertyOp27
 70
     1
102
RTVSPropertyOp28
 70
     1
102
RTVSPropertyOp29
 70
     1
102
RTVSPropertyOp30
 70
     1
102
RTVSPropertyOp31
 70
     1
102
RTVSPropertyOp32
 70
     1
102
RTVSPropertyOp33
 70
     1
102
RTVSPropertyOp34
 70
     1
102
RTVSPropertyOp35
 70
     1
102
RTVSPropertyOp36
 70
     1
102
RTVSPropertyOp37
 70
     1
102
RTVSPropertyOp38
 70
     1
102
RTVSPropertyOp39
 70
     1
102
RTVSPropertyOp40
 70
     1
102
RTVSPropertyOp41
 70
     1
102
RTVSPropertyOp42
 70
     1
102
RTVSPropertyOp43
 70
     1
102
RTVSPropertyOp44
 70
     1
102
RTVSPropertyOp45
 70
     1
102
RTVSPropertyOp46
 70
     1
102
RTVSPropertyOp47
 70
     1
102
RTVSPropertyOp48
 70
     1
102
RTVSPropertyOp49
 70
     1
102
RTVSPropertyOp50
 70
     1
102
RTVSPropertyOp51
 70
     0
102
RTVSPropertyOp52
 70
     0
102
RTVSPropertyOp53
 70
     1
102
RTVSPropertyOp54
 70
     1
102
RTVSPropertyOp55
 70
     1
102
RTVSPropertyOp56
 70
     1
102
RTVSPropertyOp57
 70
     1
102
RTVSPost2010Prop28
280
     0
102
RTVSPost2010PropOp28
 70
     1
102
RTVSPost2010Prop29
280
     1
102
RTVSPost2010PropOp29
 70
     1
102
RTVSPost2010Prop30
280
     1
102
RTVSPost2010PropOp30
 70
     1
102
RTVSPost2010Prop31
280
     0
102
RTVSPost2010PropOp31
 70
     1
102
RTVSPost2010Prop32
280
     0
102
RTVSPost2010PropOp32
 70
     1
102
RTVSPost2010Prop33
280
     0
102
RTVSPost2010PropOp33
 70
     1
102
RTVSPost2010Prop34
280
     0
102
RTVSPost2010PropOp34
 70
     1
102
RTVSPost2010Prop35
280
     0
102
RTVSPost2010PropOp35
 70
     1
102
RTVSPost2010Prop36
280
     0
102
RTVSPost2010PropOp36
 70
     1
102
RTVSPost2010Prop37
 90
       50
102
RTVSPost2010PropOp37
 70
     1
102
RTVSPost2010Prop38
140
0.0
102
RTVSPost2010PropOp38
 70
     1
102
RTVSPost2010Prop39
140
1.0
102
RTVSPost2010PropOp39
 70
     1
102
RTVSPost2010Prop40
 90
        0
102
RTVSPost2010PropOp40
 70
     1
102
RTVSPost2010Prop41ColorIndex
 90
       18
102
RTVSPost2010Prop41ColorRGB
 90
        0
102
RTVSPost2010PropOp41
 70
     1
102
RTVSPost2010Prop42
 90
       50
102
RTVSPost2010PropOp42
 70
     1
102
RTVSPost2010Prop43
 90
        3
102
RTVSPost2010PropOp43
 70
     1
102
RTVSPost2010Prop44ColorIndex
 90
        5
102
RTVSPost2010Prop44ColorRGB
 90
      255
102
RTVSPost2010PropOp44
 70
     1
102
RTVSPost2010Prop45
280
     0
102
RTVSPost2010PropOp45
 70
     1
102
RTVSPost2010Prop46
 90
       50
102
RTVSPost2010PropOp46
 70
     1
102
RTVSPost2010Prop47
 90
       50
102
RTVSPost2010PropOp47
 70
     1
102
RTVSPost2010Prop48
 90
       50
102
RTVSPost2010PropOp48
 70
     1
102
RTVSPost2010Prop49
280
     0
102
RTVSPost2010PropOp49
 70
     1
102
RTVSPost2010Prop50
 90
       50
102
RTVSPost2010PropOp50
 70
     1
102
RTVSPost2010Prop51ColorIndex
 90
      256
102
RTVSPost2010Prop51ColorRGB
 90
-16777216
102
RTVSPost2010PropOp51
 70
     0
102
RTVSPost2010Prop52
140
1.0
102
RTVSPost2010PropOp52
 70
     0
102
RTVSPost2010Prop53
 90
        2
102
RTVSPost2010PropOp53
 70
     1
102
RTVSPost2010Prop54
  1
strokes_ogs.tif
102
RTVSPost2010PropOp54
 70
     1
102
RTVSPost2010Prop55
280
     0
102
RTVSPost2010PropOp55
 70
     1
102
RTVSPost2010Prop56
140
1.0
102
RTVSPost2010PropOp56
 70
     1
102
RTVSPost2010Prop57
140
1.0
102
RTVSPost2010PropOp57
 70
     1
  0
XRECORD
  5
240
102
{ACAD_REACTORS
330
23F
102
}
330
23F
100
AcDbXrecord
280
     1
102
RTVSPropertyOp0
 70
     1
102
RTVSPropertyOp1
 70
     1
102
RTVSPropertyOp2
 70
     1
102
RTVSPropertyOp3
 70
     1
102
RTVSPropertyOp4
 70
     1
102
RTVSPropertyOp5
 70
     1
102
RTVSPropertyOp6
 70
     1
102
RTVSPropertyOp7
 70
     1
102
RTVSPropertyOp8
 70
     1
102
RTVSPropertyOp9
 70
     1
102
RTVSPropertyOp10
 70
     1
102
RTVSPropertyOp11
 70
     1
102
RTVSPropertyOp12
 70
     1
102
RTVSPropertyOp13
 70
     1
102
RTVSPropertyOp14
 70
     1
102
RTVSPropertyOp15
 70
     1
102
RTVSPropertyOp16
 70
     1
102
RTVSPropertyOp17
 70
     1
102
RTVSPropertyOp18
 70
     1
102
RTVSPropertyOp19
 70
     1
102
RTVSPropertyOp20
 70
     1
102
RTVSPropertyOp21
 70
     1
102
RTVSPropertyOp22
 70
     1
102
RTVSPropertyOp23
 70
     1
102
RTVSPropertyOp24
 70
     1
102
RTVSPropertyOp25
 70
     1
102
RTVSPropertyOp26
 70
     1
102
RTVSPropertyOp27
 70
     1
102
RTVSPropertyOp28
 70
     1
102
RTVSPropertyOp29
 70
     1
102
RTVSPropertyOp30
 70
     1
102
RTVSPropertyOp31
 70
     1
102
RTVSPropertyOp32
 70
     1
102
RTVSPropertyOp33
 70
     1
102
RTVSPropertyOp34
 70
     1
102
RTVSPropertyOp35
 70
     1
102
RTVSPropertyOp36
 70
     1
102
RTVSPropertyOp37
 70
     1
102
RTVSPropertyOp38
 70
     1
102
RTVSPropertyOp39
 70
     1
102
RTVSPropertyOp40
 70
     1
102
RTVSPropertyOp41
 70
     1
102
RTVSPropertyOp42
 70
     1
102
RTVSPropertyOp43
 70
     1
102
RTVSPropertyOp44
 70
     1
102
RTVSPropertyOp45
 70
     1
102
RTVSPropertyOp46
 70
     1
102
RTVSPropertyOp47
 70
     1
102
RTVSPropertyOp48
 70
     1
102
RTVSPropertyOp49
 70
     1
102
RTVSPropertyOp50
 70
     1
102
RTVSPropertyOp51
 70
     0
102
RTVSPropertyOp52
 70
     0
102
RTVSPropertyOp53
 70
     1
102
RTVSPropertyOp54
 70
     1
102
RTVSPropertyOp55
 70
     1
102
RTVSPropertyOp56
 70
     1
102
RTVSPropertyOp57
 70
     1
102
RTVSPost2010Prop28
280
     0
102
RTVSPost2010PropOp28
 70
     1
102
RTVSPost2010Prop29
280
     1
102
RTVSPost2010PropOp29
 70
     1
102
RTVSPost2010Prop30
280
     1
102
RTVSPost2010PropOp30
 70
     1
102
RTVSPost2010Prop31
280
     0
102
RTVSPost2010PropOp31
 70
     1
102
RTVSPost2010Prop32
280
     0
102
RTVSPost2010PropOp32
 70
     1
102
RTVSPost2010Prop33
280
     0
102
RTVSPost2010PropOp33
 70
     1
102
RTVSPost2010Prop34
280
     0
102
RTVSPost2010PropOp34
 70
     1
102
RTVSPost2010Prop35
280
     0
102
RTVSPost2010PropOp35
 70
     1
102
RTVSPost2010Prop36
280
     0
102
RTVSPost2010PropOp36
 70
     1
102
RTVSPost2010Prop37
 90
       50
102
RTVSPost2010PropOp37
 70
     1
102
RTVSPost2010Prop38
140
0.0
102
RTVSPost2010PropOp38
 70
     1
102
RTVSPost2010Prop39
140
1.0
102
RTVSPost2010PropOp39
 70
     1
102
RTVSPost2010Prop40
 90
        0
102
RTVSPost2010PropOp40
 70
     1
102
RTVSPost2010Prop41ColorIndex
 90
       18
102
RTVSPost2010Prop41ColorRGB
 90
        0
102
RTVSPost2010PropOp41
 70
     1
102
RTVSPost2010Prop42
 90
       50
102
RTVSPost2010PropOp42
 70
     1
102
RTVSPost2010Prop43
 90
        3
102
RTVSPost2010PropOp43
 70
     1
102
RTVSPost2010Prop44ColorIndex
 90
        5
102
RTVSPost2010Prop44ColorRGB
 90
      255
102
RTVSPost2010PropOp44
 70
     1
102
RTVSPost2010Prop45
280
     0
102
RTVSPost2010PropOp45
 70
     1
102
RTVSPost2010Prop46
 90
       50
102
RTVSPost2010PropOp46
 70
     1
102
RTVSPost2010Prop47
 90
       50
102
RTVSPost2010PropOp47
 70
     1
102
RTVSPost2010Prop48
 90
       50
102
RTVSPost2010PropOp48
 70
     1
102
RTVSPost2010Prop49
280
     0
102
RTVSPost2010PropOp49
 70
     1
102
RTVSPost2010Prop50
 90
       50
102
RTVSPost2010PropOp50
 70
     1
102
RTVSPost2010Prop51ColorIndex
 90
      256
102
RTVSPost2010Prop51ColorRGB
 90
-16777216
102
RTVSPost2010PropOp51
 70
     0
102
RTVSPost2010Prop52
140
1.0
102
RTVSPost2010PropOp52
 70
     0
102
RTVSPost2010Prop53
 90
        2
102
RTVSPost2010PropOp53
 70
     1
102
RTVSPost2010Prop54
  1
strokes_ogs.tif
102
RTVSPost2010PropOp54
 70
     1
102
RTVSPost2010Prop55
280
     0
102
RTVSPost2010PropOp55
 70
     1
102
RTVSPost2010Prop56
140
1.0
102
RTVSPost2010PropOp56
 70
     1
102
RTVSPost2010Prop57
140
1.0
102
RTVSPost2010PropOp57
 70
     1
  0
XRECORD
  5
23A
102
{ACAD_REACTORS
330
239
102
}
330
239
100
AcDbXrecord
280
     1
102
RTVSPropertyOp0
 70
     1
102
RTVSPropertyOp1
 70
     1
102
RTVSPropertyOp2
 70
     1
102
RTVSPropertyOp3
 70
     1
102
RTVSPropertyOp4
 70
     1
102
RTVSPropertyOp5
 70
     1
102
RTVSPropertyOp6
 70
     1
102
RTVSPropertyOp7
 70
     1
102
RTVSPropertyOp8
 70
     1
102
RTVSPropertyOp9
 70
     1
102
RTVSPropertyOp10
 70
     1
102
RTVSPropertyOp11
 70
     1
102
RTVSPropertyOp12
 70
     1
102
RTVSPropertyOp13
 70
     1
102
RTVSPropertyOp14
 70
     1
102
RTVSPropertyOp15
 70
     1
102
RTVSPropertyOp16
 70
     1
102
RTVSPropertyOp17
 70
     1
102
RTVSPropertyOp18
 70
     1
102
RTVSPropertyOp19
 70
     1
102
RTVSPropertyOp20
 70
     1
102
RTVSPropertyOp21
 70
     1
102
RTVSPropertyOp22
 70
     1
102
RTVSPropertyOp23
 70
     1
102
RTVSPropertyOp24
 70
     1
102
RTVSPropertyOp25
 70
     1
102
RTVSPropertyOp26
 70
     1
102
RTVSPropertyOp27
 70
     1
102
RTVSPropertyOp28
 70
     1
102
RTVSPropertyOp29
 70
     1
102
RTVSPropertyOp30
 70
     1
102
RTVSPropertyOp31
 70
     1
102
RTVSPropertyOp32
 70
     1
102
RTVSPropertyOp33
 70
     1
102
RTVSPropertyOp34
 70
     1
102
RTVSPropertyOp35
 70
     1
102
RTVSPropertyOp36
 70
     1
102
RTVSPropertyOp37
 70
     1
102
RTVSPropertyOp38
 70
     1
102
RTVSPropertyOp39
 70
     1
102
RTVSPropertyOp40
 70
     1
102
RTVSPropertyOp41
 70
     1
102
RTVSPropertyOp42
 70
     1
102
RTVSPropertyOp43
 70
     1
102
RTVSPropertyOp44
 70
     1
102
RTVSPropertyOp45
 70
     1
102
RTVSPropertyOp46
 70
     1
102
RTVSPropertyOp47
 70
     1
102
RTVSPropertyOp48
 70
     1
102
RTVSPropertyOp49
 70
     1
102
RTVSPropertyOp50
 70
     1
102
RTVSPropertyOp51
 70
     0
102
RTVSPropertyOp52
 70
     0
102
RTVSPropertyOp53
 70
     1
102
RTVSPropertyOp54
 70
     1
102
RTVSPropertyOp55
 70
     1
102
RTVSPropertyOp56
 70
     1
102
RTVSPropertyOp57
 70
     1
102
RTVSPost2010Prop28
280
     0
102
RTVSPost2010PropOp28
 70
     1
102
RTVSPost2010Prop29
280
     1
102
RTVSPost2010PropOp29
 70
     1
102
RTVSPost2010Prop30
280
     1
102
RTVSPost2010PropOp30
 70
     1
102
RTVSPost2010Prop31
280
     0
102
RTVSPost2010PropOp31
 70
     1
102
RTVSPost2010Prop32
280
     0
102
RTVSPost2010PropOp32
 70
     1
102
RTVSPost2010Prop33
280
     0
102
RTVSPost2010PropOp33
 70
     1
102
RTVSPost2010Prop34
280
     0
102
RTVSPost2010PropOp34
 70
     1
102
RTVSPost2010Prop35
280
     0
102
RTVSPost2010PropOp35
 70
     1
102
RTVSPost2010Prop36
280
     0
102
RTVSPost2010PropOp36
 70
     1
102
RTVSPost2010Prop37
 90
       50
102
RTVSPost2010PropOp37
 70
     1
102
RTVSPost2010Prop38
140
0.0
102
RTVSPost2010PropOp38
 70
     1
102
RTVSPost2010Prop39
140
1.0
102
RTVSPost2010PropOp39
 70
     1
102
RTVSPost2010Prop40
 90
        0
102
RTVSPost2010PropOp40
 70
     1
102
RTVSPost2010Prop41ColorIndex
 90
       18
102
RTVSPost2010Prop41ColorRGB
 90
        0
102
RTVSPost2010PropOp41
 70
     1
102
RTVSPost2010Prop42
 90
       50
102
RTVSPost2010PropOp42
 70
     1
102
RTVSPost2010Prop43
 90
        3
102
RTVSPost2010PropOp43
 70
     1
102
RTVSPost2010Prop44ColorIndex
 90
        5
102
RTVSPost2010Prop44ColorRGB
 90
      255
102
RTVSPost2010PropOp44
 70
     1
102
RTVSPost2010Prop45
280
     0
102
RTVSPost2010PropOp45
 70
     1
102
RTVSPost2010Prop46
 90
       50
102
RTVSPost2010PropOp46
 70
     1
102
RTVSPost2010Prop47
 90
       50
102
RTVSPost2010PropOp47
 70
     1
102
RTVSPost2010Prop48
 90
       50
102
RTVSPost2010PropOp48
 70
     1
102
RTVSPost2010Prop49
280
     0
102
RTVSPost2010PropOp49
 70
     1
102
RTVSPost2010Prop50
 90
       50
102
RTVSPost2010PropOp50
 70
     1
102
RTVSPost2010Prop51ColorIndex
 90
      256
102
RTVSPost2010Prop51ColorRGB
 90
-16777216
102
RTVSPost2010PropOp51
 70
     0
102
RTVSPost2010Prop52
140
1.0
102
RTVSPost2010PropOp52
 70
     0
102
RTVSPost2010Prop53
 90
        2
102
RTVSPost2010PropOp53
 70
     1
102
RTVSPost2010Prop54
  1
strokes_ogs.tif
102
RTVSPost2010PropOp54
 70
     1
102
RTVSPost2010Prop55
280
     0
102
RTVSPost2010PropOp55
 70
     1
102
RTVSPost2010Prop56
140
1.0
102
RTVSPost2010PropOp56
 70
     1
102
RTVSPost2010Prop57
140
1.0
102
RTVSPost2010PropOp57
 70
     1
  0
XRECORD
  5
23C
102
{ACAD_REACTORS
330
23B
102
}
330
23B
100
AcDbXrecord
280
     1
102
RTVSPropertyOp0
 70
     1
102
RTVSPropertyOp1
 70
     1
102
RTVSPropertyOp2
 70
     1
102
RTVSPropertyOp3
 70
     1
102
RTVSPropertyOp4
 70
     1
102
RTVSPropertyOp5
 70
     1
102
RTVSPropertyOp6
 70
     1
102
RTVSPropertyOp7
 70
     1
102
RTVSPropertyOp8
 70
     1
102
RTVSPropertyOp9
 70
     1
102
RTVSPropertyOp10
 70
     1
102
RTVSPropertyOp11
 70
     1
102
RTVSPropertyOp12
 70
     1
102
RTVSPropertyOp13
 70
     1
102
RTVSPropertyOp14
 70
     1
102
RTVSPropertyOp15
 70
     1
102
RTVSPropertyOp16
 70
     1
102
RTVSPropertyOp17
 70
     1
102
RTVSPropertyOp18
 70
     1
102
RTVSPropertyOp19
 70
     1
102
RTVSPropertyOp20
 70
     1
102
RTVSPropertyOp21
 70
     1
102
RTVSPropertyOp22
 70
     1
102
RTVSPropertyOp23
 70
     1
102
RTVSPropertyOp24
 70
     1
102
RTVSPropertyOp25
 70
     1
102
RTVSPropertyOp26
 70
     1
102
RTVSPropertyOp27
 70
     1
102
RTVSPropertyOp28
 70
     1
102
RTVSPropertyOp29
 70
     1
102
RTVSPropertyOp30
 70
     1
102
RTVSPropertyOp31
 70
     1
102
RTVSPropertyOp32
 70
     1
102
RTVSPropertyOp33
 70
     1
102
RTVSPropertyOp34
 70
     1
102
RTVSPropertyOp35
 70
     1
102
RTVSPropertyOp36
 70
     1
102
RTVSPropertyOp37
 70
     1
102
RTVSPropertyOp38
 70
     1
102
RTVSPropertyOp39
 70
     1
102
RTVSPropertyOp40
 70
     1
102
RTVSPropertyOp41
 70
     1
102
RTVSPropertyOp42
 70
     1
102
RTVSPropertyOp43
 70
     1
102
RTVSPropertyOp44
 70
     1
102
RTVSPropertyOp45
 70
     1
102
RTVSPropertyOp46
 70
     1
102
RTVSPropertyOp47
 70
     1
102
RTVSPropertyOp48
 70
     1
102
RTVSPropertyOp49
 70
     1
102
RTVSPropertyOp50
 70
     1
102
RTVSPropertyOp51
 70
     0
102
RTVSPropertyOp52
 70
     0
102
RTVSPropertyOp53
 70
     1
102
RTVSPropertyOp54
 70
     1
102
RTVSPropertyOp55
 70
     1
102
RTVSPropertyOp56
 70
     1
102
RTVSPropertyOp57
 70
     1
102
RTVSPost2010Prop28
280
     0
102
RTVSPost2010PropOp28
 70
     1
102
RTVSPost2010Prop29
280
     1
102
RTVSPost2010PropOp29
 70
     1
102
RTVSPost2010Prop30
280
     1
102
RTVSPost2010PropOp30
 70
     1
102
RTVSPost2010Prop31
280
     0
102
RTVSPost2010PropOp31
 70
     1
102
RTVSPost2010Prop32
280
     0
102
RTVSPost2010PropOp32
 70
     1
102
RTVSPost2010Prop33
280
     0
102
RTVSPost2010PropOp33
 70
     1
102
RTVSPost2010Prop34
280
     0
102
RTVSPost2010PropOp34
 70
     1
102
RTVSPost2010Prop35
280
     0
102
RTVSPost2010PropOp35
 70
     1
102
RTVSPost2010Prop36
280
     0
102
RTVSPost2010PropOp36
 70
     1
102
RTVSPost2010Prop37
 90
       50
102
RTVSPost2010PropOp37
 70
     1
102
RTVSPost2010Prop38
140
0.0
102
RTVSPost2010PropOp38
 70
     1
102
RTVSPost2010Prop39
140
1.0
102
RTVSPost2010PropOp39
 70
     1
102
RTVSPost2010Prop40
 90
        0
102
RTVSPost2010PropOp40
 70
     1
102
RTVSPost2010Prop41ColorIndex
 90
       18
102
RTVSPost2010Prop41ColorRGB
 90
        0
102
RTVSPost2010PropOp41
 70
     1
102
RTVSPost2010Prop42
 90
       50
102
RTVSPost2010PropOp42
 70
     1
102
RTVSPost2010Prop43
 90
        3
102
RTVSPost2010PropOp43
 70
     1
102
RTVSPost2010Prop44ColorIndex
 90
        5
102
RTVSPost2010Prop44ColorRGB
 90
      255
102
RTVSPost2010PropOp44
 70
     1
102
RTVSPost2010Prop45
280
     0
102
RTVSPost2010PropOp45
 70
     1
102
RTVSPost2010Prop46
 90
       50
102
RTVSPost2010PropOp46
 70
     1
102
RTVSPost2010Prop47
 90
       50
102
RTVSPost2010PropOp47
 70
     1
102
RTVSPost2010Prop48
 90
       50
102
RTVSPost2010PropOp48
 70
     1
102
RTVSPost2010Prop49
280
     0
102
RTVSPost2010PropOp49
 70
     1
102
RTVSPost2010Prop50
 90
       50
102
RTVSPost2010PropOp50
 70
     1
102
RTVSPost2010Prop51ColorIndex
 90
      256
102
RTVSPost2010Prop51ColorRGB
 90
-16777216
102
RTVSPost2010PropOp51
 70
     0
102
RTVSPost2010Prop52
140
1.0
102
RTVSPost2010PropOp52
 70
     0
102
RTVSPost2010Prop53
 90
        2
102
RTVSPost2010PropOp53
 70
     1
102
RTVSPost2010Prop54
  1
strokes_ogs.tif
102
RTVSPost2010PropOp54
 70
     1
102
RTVSPost2010Prop55
280
     0
102
RTVSPost2010PropOp55
 70
     1
102
RTVSPost2010Prop56
140
1.0
102
RTVSPost2010PropOp56
 70
     1
102
RTVSPost2010Prop57
140
1.0
102
RTVSPost2010PropOp57
 70
     1
  0
XRECORD
  5
22C
102
{ACAD_REACTORS
330
22B
102
}
330
22B
100
AcDbXrecord
280
     1
102
RTVSPropertyOp0
 70
     1
102
RTVSPropertyOp1
 70
     1
102
RTVSPropertyOp2
 70
     1
102
RTVSPropertyOp3
 70
     1
102
RTVSPropertyOp4
 70
     1
102
RTVSPropertyOp5
 70
     1
102
RTVSPropertyOp6
 70
     1
102
RTVSPropertyOp7
 70
     1
102
RTVSPropertyOp8
 70
     1
102
RTVSPropertyOp9
 70
     1
102
RTVSPropertyOp10
 70
     1
102
RTVSPropertyOp11
 70
     1
102
RTVSPropertyOp12
 70
     1
102
RTVSPropertyOp13
 70
     1
102
RTVSPropertyOp14
 70
     1
102
RTVSPropertyOp15
 70
     1
102
RTVSPropertyOp16
 70
     1
102
RTVSPropertyOp17
 70
     1
102
RTVSPropertyOp18
 70
     1
102
RTVSPropertyOp19
 70
     1
102
RTVSPropertyOp20
 70
     1
102
RTVSPropertyOp21
 70
     1
102
RTVSPropertyOp22
 70
     1
102
RTVSPropertyOp23
 70
     1
102
RTVSPropertyOp24
 70
     1
102
RTVSPropertyOp25
 70
     1
102
RTVSPropertyOp26
 70
     1
102
RTVSPropertyOp27
 70
     1
102
RTVSPropertyOp28
 70
     1
102
RTVSPropertyOp29
 70
     1
102
RTVSPropertyOp30
 70
     1
102
RTVSPropertyOp31
 70
     1
102
RTVSPropertyOp32
 70
     1
102
RTVSPropertyOp33
 70
     1
102
RTVSPropertyOp34
 70
     1
102
RTVSPropertyOp35
 70
     1
102
RTVSPropertyOp36
 70
     1
102
RTVSPropertyOp37
 70
     1
102
RTVSPropertyOp38
 70
     1
102
RTVSPropertyOp39
 70
     1
102
RTVSPropertyOp40
 70
     1
102
RTVSPropertyOp41
 70
     1
102
RTVSPropertyOp42
 70
     1
102
RTVSPropertyOp43
 70
     1
102
RTVSPropertyOp44
 70
     1
102
RTVSPropertyOp45
 70
     1
102
RTVSPropertyOp46
 70
     1
102
RTVSPropertyOp47
 70
     1
102
RTVSPropertyOp48
 70
     1
102
RTVSPropertyOp49
 70
     1
102
RTVSPropertyOp50
 70
     1
102
RTVSPropertyOp51
 70
     0
102
RTVSPropertyOp52
 70
     0
102
RTVSPropertyOp53
 70
     1
102
RTVSPropertyOp54
 70
     1
102
RTVSPropertyOp55
 70
     1
102
RTVSPropertyOp56
 70
     1
102
RTVSPropertyOp57
 70
     1
102
RTVSPost2010Prop28
280
     0
102
RTVSPost2010PropOp28
 70
     1
102
RTVSPost2010Prop29
280
     1
102
RTVSPost2010PropOp29
 70
     1
102
RTVSPost2010Prop30
280
     1
102
RTVSPost2010PropOp30
 70
     1
102
RTVSPost2010Prop31
280
     0
102
RTVSPost2010PropOp31
 70
     1
102
RTVSPost2010Prop32
280
     0
102
RTVSPost2010PropOp32
 70
     1
102
RTVSPost2010Prop33
280
     0
102
RTVSPost2010PropOp33
 70
     1
102
RTVSPost2010Prop34
280
     0
102
RTVSPost2010PropOp34
 70
     1
102
RTVSPost2010Prop35
280
     0
102
RTVSPost2010PropOp35
 70
     1
102
RTVSPost2010Prop36
280
     0
102
RTVSPost2010PropOp36
 70
     1
102
RTVSPost2010Prop37
 90
       50
102
RTVSPost2010PropOp37
 70
     1
102
RTVSPost2010Prop38
140
0.0
102
RTVSPost2010PropOp38
 70
     1
102
RTVSPost2010Prop39
140
1.0
102
RTVSPost2010PropOp39
 70
     1
102
RTVSPost2010Prop40
 90
        0
102
RTVSPost2010PropOp40
 70
     1
102
RTVSPost2010Prop41ColorIndex
 90
       18
102
RTVSPost2010Prop41ColorRGB
 90
        0
102
RTVSPost2010PropOp41
 70
     1
102
RTVSPost2010Prop42
 90
       50
102
RTVSPost2010PropOp42
 70
     1
102
RTVSPost2010Prop43
 90
        3
102
RTVSPost2010PropOp43
 70
     1
102
RTVSPost2010Prop44ColorIndex
 90
        5
102
RTVSPost2010Prop44ColorRGB
 90
      255
102
RTVSPost2010PropOp44
 70
     1
102
RTVSPost2010Prop45
280
     0
102
RTVSPost2010PropOp45
 70
     1
102
RTVSPost2010Prop46
 90
       50
102
RTVSPost2010PropOp46
 70
     1
102
RTVSPost2010Prop47
 90
       50
102
RTVSPost2010PropOp47
 70
     1
102
RTVSPost2010Prop48
 90
       50
102
RTVSPost2010PropOp48
 70
     1
102
RTVSPost2010Prop49
280
     0
102
RTVSPost2010PropOp49
 70
     1
102
RTVSPost2010Prop50
 90
       50
102
RTVSPost2010PropOp50
 70
     1
102
RTVSPost2010Prop51ColorIndex
 90
      256
102
RTVSPost2010Prop51ColorRGB
 90
-16777216
102
RTVSPost2010PropOp51
 70
     0
102
RTVSPost2010Prop52
140
1.0
102
RTVSPost2010PropOp52
 70
     0
102
RTVSPost2010Prop53
 90
        2
102
RTVSPost2010PropOp53
 70
     1
102
RTVSPost2010Prop54
  1
strokes_ogs.tif
102
RTVSPost2010PropOp54
 70
     1
102
RTVSPost2010Prop55
280
     0
102
RTVSPost2010PropOp55
 70
     1
102
RTVSPost2010Prop56
140
1.0
102
RTVSPost2010PropOp56
 70
     1
102
RTVSPost2010Prop57
140
1.0
102
RTVSPost2010PropOp57
 70
     1
  0
XRECORD
  5
21E
102
{ACAD_REACTORS
330
21D
102
}
330
21D
100
AcDbXrecord
280
     1
102
RTVSPropertyOp0
 70
     1
102
RTVSPropertyOp1
 70
     1
102
RTVSPropertyOp2
 70
     1
102
RTVSPropertyOp3
 70
     1
102
RTVSPropertyOp4
 70
     1
102
RTVSPropertyOp5
 70
     1
102
RTVSPropertyOp6
 70
     1
102
RTVSPropertyOp7
 70
     1
102
RTVSPropertyOp8
 70
     1
102
RTVSPropertyOp9
 70
     1
102
RTVSPropertyOp10
 70
     1
102
RTVSPropertyOp11
 70
     1
102
RTVSPropertyOp12
 70
     1
102
RTVSPropertyOp13
 70
     1
102
RTVSPropertyOp14
 70
     1
102
RTVSPropertyOp15
 70
     1
102
RTVSPropertyOp16
 70
     1
102
RTVSPropertyOp17
 70
     1
102
RTVSPropertyOp18
 70
     1
102
RTVSPropertyOp19
 70
     1
102
RTVSPropertyOp20
 70
     1
102
RTVSPropertyOp21
 70
     1
102
RTVSPropertyOp22
 70
     1
102
RTVSPropertyOp23
 70
     1
102
RTVSPropertyOp24
 70
     1
102
RTVSPropertyOp25
 70
     1
102
RTVSPropertyOp26
 70
     1
102
RTVSPropertyOp27
 70
     1
102
RTVSPropertyOp28
 70
     1
102
RTVSPropertyOp29
 70
     1
102
RTVSPropertyOp30
 70
     1
102
RTVSPropertyOp31
 70
     1
102
RTVSPropertyOp32
 70
     1
102
RTVSPropertyOp33
 70
     1
102
RTVSPropertyOp34
 70
     1
102
RTVSPropertyOp35
 70
     1
102
RTVSPropertyOp36
 70
     1
102
RTVSPropertyOp37
 70
     1
102
RTVSPropertyOp38
 70
     1
102
RTVSPropertyOp39
 70
     1
102
RTVSPropertyOp40
 70
     1
102
RTVSPropertyOp41
 70
     1
102
RTVSPropertyOp42
 70
     1
102
RTVSPropertyOp43
 70
     1
102
RTVSPropertyOp44
 70
     1
102
RTVSPropertyOp45
 70
     1
102
RTVSPropertyOp46
 70
     1
102
RTVSPropertyOp47
 70
     1
102
RTVSPropertyOp48
 70
     1
102
RTVSPropertyOp49
 70
     1
102
RTVSPropertyOp50
 70
     1
102
RTVSPropertyOp51
 70
     0
102
RTVSPropertyOp52
 70
     0
102
RTVSPropertyOp53
 70
     1
102
RTVSPropertyOp54
 70
     1
102
RTVSPropertyOp55
 70
     1
102
RTVSPropertyOp56
 70
     1
102
RTVSPropertyOp57
 70
     1
102
RTVSPost2010Prop28
280
     0
102
RTVSPost2010PropOp28
 70
     1
102
RTVSPost2010Prop29
280
     1
102
RTVSPost2010PropOp29
 70
     1
102
RTVSPost2010Prop30
280
     1
102
RTVSPost2010PropOp30
 70
     1
102
RTVSPost2010Prop31
280
     0
102
RTVSPost2010PropOp31
 70
     1
102
RTVSPost2010Prop32
280
     0
102
RTVSPost2010PropOp32
 70
     1
102
RTVSPost2010Prop33
280
     0
102
RTVSPost2010PropOp33
 70
     1
102
RTVSPost2010Prop34
280
     0
102
RTVSPost2010PropOp34
 70
     1
102
RTVSPost2010Prop35
280
     0
102
RTVSPost2010PropOp35
 70
     1
102
RTVSPost2010Prop36
280
     0
102
RTVSPost2010PropOp36
 70
     1
102
RTVSPost2010Prop37
 90
       50
102
RTVSPost2010PropOp37
 70
     1
102
RTVSPost2010Prop38
140
0.0
102
RTVSPost2010PropOp38
 70
     1
102
RTVSPost2010Prop39
140
1.0
102
RTVSPost2010PropOp39
 70
     1
102
RTVSPost2010Prop40
 90
        0
102
RTVSPost2010PropOp40
 70
     1
102
RTVSPost2010Prop41ColorIndex
 90
       18
102
RTVSPost2010Prop41ColorRGB
 90
        0
102
RTVSPost2010PropOp41
 70
     1
102
RTVSPost2010Prop42
 90
       50
102
RTVSPost2010PropOp42
 70
     1
102
RTVSPost2010Prop43
 90
        3
102
RTVSPost2010PropOp43
 70
     1
102
RTVSPost2010Prop44ColorIndex
 90
        5
102
RTVSPost2010Prop44ColorRGB
 90
      255
102
RTVSPost2010PropOp44
 70
     1
102
RTVSPost2010Prop45
280
     0
102
RTVSPost2010PropOp45
 70
     1
102
RTVSPost2010Prop46
 90
       50
102
RTVSPost2010PropOp46
 70
     1
102
RTVSPost2010Prop47
 90
       50
102
RTVSPost2010PropOp47
 70
     1
102
RTVSPost2010Prop48
 90
       50
102
RTVSPost2010PropOp48
 70
     1
102
RTVSPost2010Prop49
280
     0
102
RTVSPost2010PropOp49
 70
     1
102
RTVSPost2010Prop50
 90
       50
102
RTVSPost2010PropOp50
 70
     1
102
RTVSPost2010Prop51ColorIndex
 90
      256
102
RTVSPost2010Prop51ColorRGB
 90
-16777216
102
RTVSPost2010PropOp51
 70
     0
102
RTVSPost2010Prop52
140
1.0
102
RTVSPost2010PropOp52
 70
     0
102
RTVSPost2010Prop53
 90
        2
102
RTVSPost2010PropOp53
 70
     1
102
RTVSPost2010Prop54
  1
strokes_ogs.tif
102
RTVSPost2010PropOp54
 70
     1
102
RTVSPost2010Prop55
280
     0
102
RTVSPost2010PropOp55
 70
     1
102
RTVSPost2010Prop56
140
1.0
102
RTVSPost2010PropOp56
 70
     1
102
RTVSPost2010Prop57
140
1.0
102
RTVSPost2010PropOp57
 70
     1
  0
XRECORD
  5
23E
102
{ACAD_REACTORS
330
23D
102
}
330
23D
100
AcDbXrecord
280
     1
102
RTVSPropertyOp0
 70
     1
102
RTVSPropertyOp1
 70
     1
102
RTVSPropertyOp2
 70
     1
102
RTVSPropertyOp3
 70
     1
102
RTVSPropertyOp4
 70
     1
102
RTVSPropertyOp5
 70
     1
102
RTVSPropertyOp6
 70
     1
102
RTVSPropertyOp7
 70
     1
102
RTVSPropertyOp8
 70
     1
102
RTVSPropertyOp9
 70
     1
102
RTVSPropertyOp10
 70
     1
102
RTVSPropertyOp11
 70
     1
102
RTVSPropertyOp12
 70
     1
102
RTVSPropertyOp13
 70
     1
102
RTVSPropertyOp14
 70
     1
102
RTVSPropertyOp15
 70
     1
102
RTVSPropertyOp16
 70
     1
102
RTVSPropertyOp17
 70
     1
102
RTVSPropertyOp18
 70
     1
102
RTVSPropertyOp19
 70
     1
102
RTVSPropertyOp20
 70
     1
102
RTVSPropertyOp21
 70
     1
102
RTVSPropertyOp22
 70
     1
102
RTVSPropertyOp23
 70
     1
102
RTVSPropertyOp24
 70
     1
102
RTVSPropertyOp25
 70
     1
102
RTVSPropertyOp26
 70
     1
102
RTVSPropertyOp27
 70
     1
102
RTVSPropertyOp28
 70
     1
102
RTVSPropertyOp29
 70
     1
102
RTVSPropertyOp30
 70
     1
102
RTVSPropertyOp31
 70
     1
102
RTVSPropertyOp32
 70
     1
102
RTVSPropertyOp33
 70
     1
102
RTVSPropertyOp34
 70
     1
102
RTVSPropertyOp35
 70
     1
102
RTVSPropertyOp36
 70
     1
102
RTVSPropertyOp37
 70
     1
102
RTVSPropertyOp38
 70
     1
102
RTVSPropertyOp39
 70
     1
102
RTVSPropertyOp40
 70
     1
102
RTVSPropertyOp41
 70
     1
102
RTVSPropertyOp42
 70
     1
102
RTVSPropertyOp43
 70
     1
102
RTVSPropertyOp44
 70
     1
102
RTVSPropertyOp45
 70
     1
102
RTVSPropertyOp46
 70
     1
102
RTVSPropertyOp47
 70
     1
102
RTVSPropertyOp48
 70
     1
102
RTVSPropertyOp49
 70
     1
102
RTVSPropertyOp50
 70
     1
102
RTVSPropertyOp51
 70
     0
102
RTVSPropertyOp52
 70
     0
102
RTVSPropertyOp53
 70
     1
102
RTVSPropertyOp54
 70
     1
102
RTVSPropertyOp55
 70
     1
102
RTVSPropertyOp56
 70
     1
102
RTVSPropertyOp57
 70
     1
102
RTVSPost2010Prop28
280
     0
102
RTVSPost2010PropOp28
 70
     1
102
RTVSPost2010Prop29
280
     1
102
RTVSPost2010PropOp29
 70
     1
102
RTVSPost2010Prop30
280
     1
102
RTVSPost2010PropOp30
 70
     1
102
RTVSPost2010Prop31
280
     0
102
RTVSPost2010PropOp31
 70
     1
102
RTVSPost2010Prop32
280
     0
102
RTVSPost2010PropOp32
 70
     1
102
RTVSPost2010Prop33
280
     0
102
RTVSPost2010PropOp33
 70
     1
102
RTVSPost2010Prop34
280
     0
102
RTVSPost2010PropOp34
 70
     1
102
RTVSPost2010Prop35
280
     0
102
RTVSPost2010PropOp35
 70
     1
102
RTVSPost2010Prop36
280
     0
102
RTVSPost2010PropOp36
 70
     1
102
RTVSPost2010Prop37
 90
       50
102
RTVSPost2010PropOp37
 70
     1
102
RTVSPost2010Prop38
140
0.0
102
RTVSPost2010PropOp38
 70
     1
102
RTVSPost2010Prop39
140
1.0
102
RTVSPost2010PropOp39
 70
     1
102
RTVSPost2010Prop40
 90
        0
102
RTVSPost2010PropOp40
 70
     1
102
RTVSPost2010Prop41ColorIndex
 90
       18
102
RTVSPost2010Prop41ColorRGB
 90
        0
102
RTVSPost2010PropOp41
 70
     1
102
RTVSPost2010Prop42
 90
       50
102
RTVSPost2010PropOp42
 70
     1
102
RTVSPost2010Prop43
 90
        3
102
RTVSPost2010PropOp43
 70
     1
102
RTVSPost2010Prop44ColorIndex
 90
        5
102
RTVSPost2010Prop44ColorRGB
 90
      255
102
RTVSPost2010PropOp44
 70
     1
102
RTVSPost2010Prop45
280
     0
102
RTVSPost2010PropOp45
 70
     1
102
RTVSPost2010Prop46
 90
       50
102
RTVSPost2010PropOp46
 70
     1
102
RTVSPost2010Prop47
 90
       50
102
RTVSPost2010PropOp47
 70
     1
102
RTVSPost2010Prop48
 90
       50
102
RTVSPost2010PropOp48
 70
     1
102
RTVSPost2010Prop49
280
     0
102
RTVSPost2010PropOp49
 70
     1
102
RTVSPost2010Prop50
 90
       50
102
RTVSPost2010PropOp50
 70
     1
102
RTVSPost2010Prop51ColorIndex
 90
      256
102
RTVSPost2010Prop51ColorRGB
 90
-16777216
102
RTVSPost2010PropOp51
 70
     0
102
RTVSPost2010Prop52
140
1.0
102
RTVSPost2010PropOp52
 70
     0
102
RTVSPost2010Prop53
 90
        2
102
RTVSPost2010PropOp53
 70
     1
102
RTVSPost2010Prop54
  1
strokes_ogs.tif
102
RTVSPost2010PropOp54
 70
     1
102
RTVSPost2010Prop55
280
     0
102
RTVSPost2010PropOp55
 70
     1
102
RTVSPost2010Prop56
140
1.0
102
RTVSPost2010PropOp56
 70
     1
102
RTVSPost2010Prop57
140
1.0
102
RTVSPost2010PropOp57
 70
     1
  0
ENDSEC
  0
EOF
