  0
SECTION
  2
HEADER
  9
$ACADVER
  1
AC1018
  9
$ACADMAINTVER
 70
     0
  9
$DWGCODEPAGE
  3
ANSI_932
  9
$LASTSAVEDBY
  1
m.murai
  9
$INSBASE
 10
0.0
 20
0.0
 30
0.0
  9
$EXTMIN
 10
-420.0
 20
-297.0
 30
0.0
  9
$EXTMAX
 10
420.0
 20
297.0
 30
0.0
  9
$LIMMIN
 10
-420.0
 20
-297.0
  9
$LIMMAX
 10
420.0
 20
297.0
  9
$ORTHOMODE
 70
     0
  9
$REGENMODE
 70
     1
  9
$FILLMODE
 70
     1
  9
$QTEXTMODE
 70
     0
  9
$MIRRTEXT
 70
     1
  9
$LTSCALE
 40
2.0
  9
$ATTMODE
 70
     1
  9
$TEXTSIZE
 40
2.5
  9
$TRACEWID
 40
1.0
  9
$TEXTSTYLE
  7
Standard
  9
$CLAYER
  8
0
  9
$CELTYPE
  6
ByLayer
  9
$CECOLOR
 62
   256
  9
$CELTSCALE
 40
1.0
  9
$DISPSILH
 70
     0
  9
$DIMSCALE
 40
1.0
  9
$DIMASZ
 40
2.5
  9
$DIMEXO
 40
0.625
  9
$DIMDLI
 40
3.75
  9
$DIMRND
 40
0.0
  9
$DIMDLE
 40
0.0
  9
$DIMEXE
 40
1.25
  9
$DIMTP
 40
0.0
  9
$DIMTM
 40
0.0
  9
$DIMTXT
 40
2.5
  9
$DIMCEN
 40
2.5
  9
$DIMTSZ
 40
0.0
  9
$DIMTOL
 70
     0
  9
$DIMLIM
 70
     0
  9
$DIMTIH
 70
     0
  9
$DIMTOH
 70
     0
  9
$DIMSE1
 70
     0
  9
$DIMSE2
 70
     0
  9
$DIMTAD
 70
     1
  9
$DIMZIN
 70
     8
  9
$DIMBLK
  1

  9
$DIMASO
 70
     1
  9
$DIMSHO
 70
     1
  9
$DIMPOST
  1

  9
$DIMAPOST
  1

  9
$DIMALT
 70
     0
  9
$DIMALTD
 70
     3
  9
$DIMALTF
 40
0.03937007874016
  9
$DIMLFAC
 40
1.0
  9
$DIMTOFL
 70
     1
  9
$DIMTVP
 40
0.0
  9
$DIMTIX
 70
     0
  9
$DIMSOXD
 70
     0
  9
$DIMSAH
 70
     0
  9
$DIMBLK1
  1

  9
$DIMBLK2
  1

  9
$DIMSTYLE
  2
ISO-25
  9
$DIMCLRD
 70
     0
  9
$DIMCLRE
 70
     0
  9
$DIMCLRT
 70
     0
  9
$DIMTFAC
 40
1.0
  9
$DIMGAP
 40
0.625
  9
$DIMJUST
 70
     0
  9
$DIMSD1
 70
     0
  9
$DIMSD2
 70
     0
  9
$DIMTOLJ
 70
     0
  9
$DIMTZIN
 70
     8
  9
$DIMALTZ
 70
     0
  9
$DIMALTTZ
 70
     0
  9
$DIMUPT
 70
     0
  9
$DIMDEC
 70
     2
  9
$DIMTDEC
 70
     2
  9
$DIMALTU
 70
     2
  9
$DIMALTTD
 70
     3
  9
$DIMTXSTY
  7
Standard
  9
$DIMAUNIT
 70
     0
  9
$DIMADEC
 70
     0
  9
$DIMALTRND
 40
0.0
  9
$DIMAZIN
 70
     0
  9
$DIMDSEP
 70
    44
  9
$DIMATFIT
 70
     3
  9
$DIMFRAC
 70
     0
  9
$DIMLDRBLK
  1

  9
$DIMLUNIT
 70
     2
  9
$DIMLWD
 70
    -2
  9
$DIMLWE
 70
    -2
  9
$DIMTMOVE
 70
     0
  9
$LUNITS
 70
     2
  9
$LUPREC
 70
     4
  9
$SKETCHINC
 40
1.0
  9
$FILLETRAD
 40
10.0
  9
$AUNITS
 70
     0
  9
$AUPREC
 70
     0
  9
$MENU
  1
.
  9
$ELEVATION
 40
0.0
  9
$PELEVATION
 40
0.0
  9
$THICKNESS
 40
0.0
  9
$LIMCHECK
 70
     0
  9
$CHAMFERA
 40
0.0
  9
$CHAMFERB
 40
0.0
  9
$CHAMFERC
 40
0.0
  9
$CHAMFERD
 40
0.0
  9
$SKPOLY
 70
     0
  9
$TDCREATE
 40
2460290.560990868
  9
$TDUCREATE
 40
2460290.185990868
  9
$TDUPDATE
 40
2460290.560990984
  9
$TDUUPDATE
 40
2460290.185990984
  9
$TDINDWG
 40
0.0000000116
  9
$TDUSRTIMER
 40
0.0000000116
  9
$USRTIMER
 70
     1
  9
$ANGBASE
 50
0.0
  9
$ANGDIR
 70
     0
  9
$PDMODE
 70
     0
  9
$PDSIZE
 40
0.0
  9
$PLINEWID
 40
0.0
  9
$SPLFRAME
 70
     0
  9
$SPLINETYPE
 70
     6
  9
$SPLINESEGS
 70
     8
  9
$HANDSEED
  5
273
  9
$SURFTAB1
 70
     6
  9
$SURFTAB2
 70
     6
  9
$SURFTYPE
 70
     6
  9
$SURFU
 70
     6
  9
$SURFV
 70
     6
  9
$UCSBASE
  2

  9
$UCSNAME
  2

  9
$UCSORG
 10
0.0
 20
0.0
 30
0.0
  9
$UCSXDIR
 10
1.0
 20
0.0
 30
0.0
  9
$UCSYDIR
 10
0.0
 20
1.0
 30
0.0
  9
$UCSORTHOREF
  2

  9
$UCSORTHOVIEW
 70
     0
  9
$UCSORGTOP
 10
0.0
 20
0.0
 30
0.0
  9
$UCSORGBOTTOM
 10
0.0
 20
0.0
 30
0.0
  9
$UCSORGLEFT
 10
0.0
 20
0.0
 30
0.0
  9
$UCSORGRIGHT
 10
0.0
 20
0.0
 30
0.0
  9
$UCSORGFRONT
 10
0.0
 20
0.0
 30
0.0
  9
$UCSORGBACK
 10
0.0
 20
0.0
 30
0.0
  9
$PUCSBASE
  2

  9
$PUCSNAME
  2

  9
$PUCSORG
 10
0.0
 20
0.0
 30
0.0
  9
$PUCSXDIR
 10
1.0
 20
0.0
 30
0.0
  9
$PUCSYDIR
 10
0.0
 20
1.0
 30
0.0
  9
$PUCSORTHOREF
  2

  9
$PUCSORTHOVIEW
 70
     0
  9
$PUCSORGTOP
 10
0.0
 20
0.0
 30
0.0
  9
$PUCSORGBOTTOM
 10
0.0
 20
0.0
 30
0.0
  9
$PUCSORGLEFT
 10
0.0
 20
0.0
 30
0.0
  9
$PUCSORGRIGHT
 10
0.0
 20
0.0
 30
0.0
  9
$PUCSORGFRONT
 10
0.0
 20
0.0
 30
0.0
  9
$PUCSORGBACK
 10
0.0
 20
0.0
 30
0.0
  9
$USERI1
 70
     0
  9
$USERI2
 70
     0
  9
$USERI3
 70
     0
  9
$USERI4
 70
     0
  9
$USERI5
 70
     0
  9
$USERR1
 40
0.0
  9
$USERR2
 40
0.0
  9
$USERR3
 40
0.0
  9
$USERR4
 40
0.0
  9
$USERR5
 40
0.0
  9
$WORLDVIEW
 70
     1
  9
$SHADEDGE
 70
     3
  9
$SHADEDIF
 70
    70
  9
$TILEMODE
 70
     1
  9
$MAXACTVP
 70
    64
  9
$PINSBASE
 10
0.0
 20
0.0
 30
0.0
  9
$PLIMCHECK
 70
     0
  9
$PEXTMIN
 10
1.000000000000000E+20
 20
1.000000000000000E+20
 30
1.000000000000000E+20
  9
$PEXTMAX
 10
-1.000000000000000E+20
 20
-1.000000000000000E+20
 30
-1.000000000000000E+20
  9
$PLIMMIN
 10
0.0
 20
0.0
  9
$PLIMMAX
 10
420.0
 20
297.0
  9
$UNITMODE
 70
     0
  9
$VISRETAIN
 70
     1
  9
$PLINEGEN
 70
     0
  9
$PSLTSCALE
 70
     1
  9
$TREEDEPTH
 70
  3020
  9
$CMLSTYLE
  2
Standard
  9
$CMLJUST
 70
     0
  9
$CMLSCALE
 40
20.0
  9
$PROXYGRAPHICS
 70
     1
  9
$MEASUREMENT
 70
     1
  9
$CELWEIGHT
370
    -1
  9
$ENDCAPS
280
     0
  9
$JOINSTYLE
280
     0
  9
$LWDISPLAY
290
     0
  9
$INSUNITS
 70
     4
  9
$HYPERLINKBASE
  1

  9
$STYLESHEET
  1

  9
$XEDIT
290
     1
  9
$CEPSNTYPE
380
     0
  9
$PSTYLEMODE
290
     1
  9
$FINGERPRINTGUID
  2
{3e7f841f-726a-47cc-94d4-01a6dd234f80}
  9
$VERSIONGUID
  2
{FAEB1C32-E019-11D5-929B-00C0DF256EC4}
  9
$EXTNAMES
290
     1
  9
$PSVPSCALE
 40
0.0
  9
$OLESTARTUP
290
     0
  9
$SORTENTS
280
   127
  9
$INDEXCTL
280
     0
  9
$HIDETEXT
280
     1
  9
$XCLIPFRAME
290
     0
  9
$HALOGAP
280
     0
  9
$OBSCOLOR
 70
   257
  9
$OBSLTYPE
280
     0
  9
$INTERSECTIONDISPLAY
280
     0
  9
$INTERSECTIONCOLOR
 70
   257
  9
$DIMASSOC
280
     2
  9
$PROJECTNAME
  1

  0
ENDSEC
  0
SECTION
  2
CLASSES
  0
CLASS
  1
ACDBDICTIONARYWDFLT
  2
AcDbDictionaryWithDefault
  3
ObjectDBX Classes
 90
        0
 91
        3
280
     0
281
     0
  0
CLASS
  1
VISUALSTYLE
  2
AcDbVisualStyle
  3
ObjectDBX Classes
 90
     4095
 91
        3
280
     0
281
     0
  0
CLASS
  1
MATERIAL
  2
AcDbMaterial
  3
ObjectDBX Classes
 90
     1153
 91
        3
280
     0
281
     0
  0
CLASS
  1
SCALE
  2
AcDbScale
  3
ObjectDBX Classes
 90
     1153
 91
        3
280
     0
281
     0
  0
CLASS
  1
TABLESTYLE
  2
AcDbTableStyle
  3
ObjectDBX Classes
 90
     4095
 91
        3
280
     0
281
     0
  0
CLASS
  1
MLEADERSTYLE
  2
AcDbMLeaderStyle
  3
ACDB_MLEADERSTYLE_CLASS
 90
     4095
 91
        3
280
     0
281
     0
  0
CLASS
  1
SUN
  2
AcDbSun
  3
SCENEOE
 90
     1153
 91
        3
280
     0
281
     0
  0
CLASS
  1
DICTIONARYVAR
  2
AcDbDictionaryVar
  3
ObjectDBX Classes
 90
        0
 91
        3
280
     0
281
     0
  0
CLASS
  1
CELLSTYLEMAP
  2
AcDbCellStyleMap
  3
ObjectDBX Classes
 90
     1152
 91
        3
280
     0
281
     0
  0
ENDSEC
  0
SECTION
  2
TABLES
  0
TABLE
  2
VPORT
  5
8
102
{ACAD_XDICTIONARY
360
22A
102
}
330
0
100
AcDbSymbolTable
 70
     1
  0
VPORT
  5
29
330
8
100
AcDbSymbolTableRecord
100
AcDbViewportTableRecord
  2
*Active
 70
     0
 10
0.0
 20
0.0
 11
1.0
 21
1.0
 12
0.0
 22
0.0
 13
0.0
 23
0.0
 14
10.0
 24
10.0
 15
10.0
 25
10.0
 16
0.0
 26
0.0
 36
1.0
 17
0.0
 27
0.0
 37
0.0
 40
653.4000000000001
 41
1.414141414141414
 42
50.0
 43
0.0
 44
0.0
 50
0.0
 51
0.0
 71
     0
 72
 10000
 73
     1
 74
     3
 75
     0
 76
     0
 77
     0
 78
     0
281
     0
 65
     1
110
0.0
120
0.0
130
0.0
111
1.0
121
0.0
131
0.0
112
0.0
122
1.0
132
0.0
 79
     0
146
0.0
  0
ENDTAB
  0
TABLE
  2
LTYPE
  5
5
330
0
100
AcDbSymbolTable
 70
     6
  0
LTYPE
  5
14
330
5
100
AcDbSymbolTableRecord
100
AcDbLinetypeTableRecord
  2
ByBlock
 70
     0
  3

 72
    65
 73
     0
 40
0.0
  0
LTYPE
  5
15
330
5
100
AcDbSymbolTableRecord
100
AcDbLinetypeTableRecord
  2
ByLayer
 70
     0
  3

 72
    65
 73
     0
 40
0.0
  0
LTYPE
  5
16
330
5
100
AcDbSymbolTableRecord
100
AcDbLinetypeTableRecord
  2
Continuous
 70
     0
  3
Solid line
 72
    65
 73
     0
 40
0.0
  0
LTYPE
  5
6F
330
5
100
AcDbSymbolTableRecord
100
AcDbLinetypeTableRecord
  2
JWW_CENTER1
 70
     0
  3
-----  --  ----------  --  -----
 72
    65
 73
     8
 40
13.54666666666667
 49
4.233333333333333
 74
     0
 49
-0.8466666666666667
 74
     0
 49
0.8466666666666667
 74
     0
 49
-0.8466666666666667
 74
     0
 49
4.233333333333333
 74
     0
 49
-0.8466666666666667
 74
     0
 49
0.8466666666666667
 74
     0
 49
-0.8466666666666667
 74
     0
  0
LTYPE
  5
70
330
5
100
AcDbSymbolTableRecord
100
AcDbLinetypeTableRecord
  2
JWW_DASHED1
 70
     0
  3
-  --  --  --  --  --  --  --  -
 72
    65
 73
    12
 40
10.16
 49
0.8466666666666667
 74
     0
 49
-0.8466666666666667
 74
     0
 49
0.8466666666666667
 74
     0
 49
-0.8466666666666667
 74
     0
 49
0.8466666666666667
 74
     0
 49
-0.8466666666666667
 74
     0
 49
0.8466666666666667
 74
     0
 49
-0.8466666666666667
 74
     0
 49
0.8466666666666667
 74
     0
 49
-0.8466666666666667
 74
     0
 49
0.8466666666666667
 74
     0
 49
-0.8466666666666667
 74
     0
  0
LTYPE
  5
71
330
5
100
AcDbSymbolTableRecord
100
AcDbLinetypeTableRecord
  2
JWW_PHANTOM1
 70
     0
  3
----  -  -  --------  -  -  ----
 72
    65
 73
    12
 40
13.54666666666667
 49
3.386666666666667
 74
     0
 49
-0.8466666666666667
 74
     0
 49
0.4233333333333333
 74
     0
 49
-0.8466666666666667
 74
     0
 49
0.4233333333333333
 74
     0
 49
-0.8466666666666667
 74
     0
 49
3.386666666666667
 74
     0
 49
-0.8466666666666667
 74
     0
 49
0.4233333333333333
 74
     0
 49
-0.8466666666666667
 74
     0
 49
0.4233333333333333
 74
     0
 49
-0.8466666666666667
 74
     0
  0
LTYPE
  5
72
330
5
100
AcDbSymbolTableRecord
100
AcDbLinetypeTableRecord
  2
JWW_CENTER2
 70
     0
  3
-------------  --  -------------
 72
    65
 73
     4
 40
13.54666666666667
 49
11.00666666666667
 74
     0
 49
-0.8466666666666667
 74
     0
 49
0.8466666666666667
 74
     0
 49
-0.8466666666666667
 74
     0
  0
LTYPE
  5
73
330
5
100
AcDbSymbolTableRecord
100
AcDbLinetypeTableRecord
  2
JWW_PHANTOM2
 70
     0
  3
------------  -  -  ------------
 72
    65
 73
     6
 40
13.54666666666667
 49
10.16
 74
     0
 49
-0.8466666666666667
 74
     0
 49
0.4233333333333333
 74
     0
 49
-0.8466666666666667
 74
     0
 49
0.4233333333333333
 74
     0
 49
-0.8466666666666667
 74
     0
  0
ENDTAB
  0
TABLE
  2
LAYER
  5
2
330
0
100
AcDbSymbolTable
 70
     8
  0
LAYER
  5
10
330
2
100
AcDbSymbolTableRecord
100
AcDbLayerTableRecord
  2
0
 70
     0
 62
     7
  6
Continuous
370
    -3
390
F
  0
LAYER
  5
74
330
2
100
AcDbSymbolTableRecord
100
AcDbLayerTableRecord
  2
D-1
 70
     0
 62
     7
  6
Continuous
370
    -3
390
F
  0
LAYER
  5
75
330
2
100
AcDbSymbolTableRecord
100
AcDbLayerTableRecord
  2
D-2
 70
     0
 62
     7
  6
Continuous
370
    -3
390
F
  0
LAYER
  5
76
330
2
100
AcDbSymbolTableRecord
100
AcDbLayerTableRecord
  2
D-0
 70
     0
 62
     7
  6
Continuous
370
    -3
390
F
  0
LAYER
  5
77
330
2
100
AcDbSymbolTableRecord
100
AcDbLayerTableRecord
  2
D-3
 70
     0
 62
     7
  6
Continuous
370
    -3
390
F
  0
LAYER
  5
78
330
2
100
AcDbSymbolTableRecord
100
AcDbLayerTableRecord
  2
D-5
 70
     0
 62
     7
  6
Continuous
370
    -3
390
F
  0
LAYER
  5
79
330
2
100
AcDbSymbolTableRecord
100
AcDbLayerTableRecord
  2
D-4
 70
     0
 62
     7
  6
Continuous
370
    -3
390
F
  0
LAYER
  5
7A
330
2
100
AcDbSymbolTableRecord
100
AcDbLayerTableRecord
  2
D-6
 70
     0
 62
     7
  6
Continuous
370
    -3
390
F
  0
ENDTAB
  0
TABLE
  2
STYLE
  5
3
330
0
100
AcDbSymbolTable
 70
     2
  0
STYLE
  5
11
330
3
100
AcDbSymbolTableRecord
100
AcDbTextStyleTableRecord
  2
Standard
 70
     0
 40
0.0
 41
1.0
 50
0.0
 71
     0
 42
2.5
  3
txt
  4

  0
STYLE
  5
6E
330
3
100
AcDbSymbolTableRecord
100
AcDbTextStyleTableRecord
  2
ＭＳ ゴシック
 70
     0
 40
0.0
 41
1.0
 50
0.0
 71
     0
 42
2.5
  3

  4

1001
ACAD
1000
MS Gothic
1071
    32817
  0
ENDTAB
  0
TABLE
  2
VIEW
  5
6
330
0
100
AcDbSymbolTable
 70
     0
  0
ENDTAB
  0
TABLE
  2
UCS
  5
7
330
0
100
AcDbSymbolTable
 70
     0
  0
ENDTAB
  0
TABLE
  2
APPID
  5
9
330
0
100
AcDbSymbolTable
 70
     2
  0
APPID
  5
12
330
9
100
AcDbSymbolTableRecord
100
AcDbRegAppTableRecord
  2
ACAD
 70
     0
  0
APPID
  5
269
330
9
100
AcDbSymbolTableRecord
100
AcDbRegAppTableRecord
  2
ACAD_MLEADERVER
 70
     0
  0
ENDTAB
  0
TABLE
  2
DIMSTYLE
  5
A
330
0
100
AcDbSymbolTable
 70
     2
100
AcDbDimStyleTable
  0
DIMSTYLE
105
27
330
A
100
AcDbSymbolTableRecord
100
AcDbDimStyleTableRecord
  2
ISO-25
 70
     0
 41
2.5
 42
0.625
 43
3.75
 44
1.25
 73
     0
 74
     0
 77
     1
 78
     8
140
2.5
141
2.5
143
0.03937007874016
147
0.625
171
     3
172
     1
178
     0
271
     2
272
     2
274
     3
278
    44
283
     0
284
     8
340
11
  0
DIMSTYLE
105
7B
330
A
100
AcDbSymbolTableRecord
100
AcDbDimStyleTableRecord
  2
JWAC_DIMSTYLE
 70
     0
  3
x
  4
mm
 41
0.0
 42
0.625
 43
3.75
 44
1.25
 73
     0
 74
     0
 75
     1
 76
     1
 77
     1
 78
     8
140
2.5
141
2.5
143
0.03937007874016
147
0.625
171
     3
172
     1
173
     1
178
     0
271
     2
272
     2
274
     3
278
    32
283
     0
284
     8
340
11
371
     0
372
     0
  0
ENDTAB
  0
TABLE
  2
BLOCK_RECORD
  5
1
330
0
100
AcDbSymbolTable
 70
     1
  0
BLOCK_RECORD
  5
1F
330
1
100
AcDbSymbolTableRecord
100
AcDbBlockTableRecord
  2
*Model_Space
340
22
  0
BLOCK_RECORD
  5
1B
330
1
100
AcDbSymbolTableRecord
100
AcDbBlockTableRecord
  2
*Paper_Space
340
1E
  0
BLOCK_RECORD
  5
23
330
1
100
AcDbSymbolTableRecord
100
AcDbBlockTableRecord
  2
*Paper_Space0
340
26
  0
ENDTAB
  0
ENDSEC
  0
SECTION
  2
BLOCKS
  0
BLOCK
  5
20
330
1F
100
AcDbEntity
  8
0
100
AcDbBlockBegin
  2
*Model_Space
 70
     0
 10
0.0
 20
0.0
 30
0.0
  3
*Model_Space
  1

  0
ENDBLK
  5
21
330
1F
100
AcDbEntity
  8
0
100
AcDbBlockEnd
  0
BLOCK
  5
1C
330
1B
100
AcDbEntity
 67
     1
  8
0
100
AcDbBlockBegin
  2
*Paper_Space
 70
     0
 10
0.0
 20
0.0
 30
0.0
  3
*Paper_Space
  1

  0
ENDBLK
  5
1D
330
1B
100
AcDbEntity
 67
     1
  8
0
100
AcDbBlockEnd
  0
BLOCK
  5
24
330
23
100
AcDbEntity
  8
0
100
AcDbBlockBegin
  2
*Paper_Space0
 70
     0
 10
0.0
 20
0.0
 30
0.0
  3
*Paper_Space0
  1

  0
ENDBLK
  5
25
330
23
100
AcDbEntity
  8
0
100
AcDbBlockEnd
  0
ENDSEC
  0
SECTION
  2
ENTITIES
  0
LINE
  5
7C
330
1F
100
AcDbEntity
  8
D-1
  6
Continuous
 62
     2
370
     9
100
AcDbLine
 10
35.99796052810314
 20
0.630235551053147
 30
0.0
 11
32.99779268142345
 21
0.630235551053147
 31
0.0
  0
LINE
  5
7D
330
1F
100
AcDbEntity
  8
D-1
  6
Continuous
 62
     2
370
     9
100
AcDbLine
 10
32.99779268142345
 20
3.630197404080491
 30
0.0
 11
32.99779268142345
 21
0.630235551053147
 31
0.0
  0
LINE
  5
7E
330
1F
100
AcDbEntity
  8
D-1
  6
Continuous
 62
     2
370
     9
100
AcDbLine
 10
32.99779268142345
 20
3.630197404080491
 30
0.0
 11
30.99788423415782
 21
3.630197404080491
 31
0.0
  0
LINE
  5
7F
330
1F
100
AcDbEntity
  8
D-1
  6
Continuous
 62
     2
370
     9
100
AcDbLine
 10
30.99788423415782
 20
3.830217240506272
 30
0.0
 11
30.99788423415782
 21
0.630235551053147
 31
0.0
  0
LINE
  5
80
330
1F
100
AcDbEntity
  8
D-1
  6
Continuous
 62
     2
370
     9
100
AcDbLine
 10
16.99781556960704
 20
-0.869794966524978
 30
0.0
 11
16.99781556960704
 21
-0.487745405978103
 31
0.0
  0
LINE
  5
81
330
1F
100
AcDbEntity
  8
D-1
  6
Continuous
 62
     2
370
     9
100
AcDbLine
 10
30.99788423415782
 20
0.630235551053147
 30
0.0
 11
22.99784608718517
 21
0.630235551053147
 31
0.0
  0
LINE
  5
82
330
1F
100
AcDbEntity
  8
D-1
  6
Continuous
 62
     2
370
     9
100
AcDbLine
 10
38.99792238113048
 20
-1.869802595919509
 30
0.0
 11
38.99792238113048
 21
7.130197404080491
 31
0.0
  0
LINE
  5
83
330
1F
100
AcDbEntity
  8
D-1
  6
Continuous
 62
     2
370
     9
100
AcDbLine
 10
38.49784608718517
 20
-2.369779707735916
 30
0.0
 11
-34.00206998947499
 21
-2.369779707735916
 31
0.0
  0
LINE
  5
84
330
1F
100
AcDbEntity
  8
D-1
  6
Continuous
 62
     2
370
     9
100
AcDbLine
 10
35.99796052810314
 20
7.130197404080491
 30
0.0
 11
35.99796052810314
 21
4.630205033475022
 31
0.0
  0
LINE
  5
85
330
1F
100
AcDbEntity
  8
D-1
  6
Continuous
 62
     2
370
     9
100
AcDbLine
 10
35.99796052810314
 20
3.630197404080491
 30
0.0
 11
35.99796052810314
 21
0.630235551053147
 31
0.0
  0
LINE
  5
86
330
1F
100
AcDbEntity
  8
D-1
  6
Continuous
 62
     2
370
     9
100
AcDbLine
 10
35.82156892654064
 20
3.630197404080491
 30
0.0
 11
35.99796052810314
 21
3.630197404080491
 31
0.0
  0
LINE
  5
87
330
1F
100
AcDbEntity
  8
D-1
  6
Continuous
 62
     2
370
     9
100
AcDbLine
 10
35.6426062190211
 20
3.919649003201584
 30
0.0
 11
35.99796052810314
 21
4.630205033475022
 31
0.0
  0
LINE
  5
88
330
1F
100
AcDbEntity
  8
D-1
  6
Continuous
 62
     2
370
     9
100
AcDbLine
 10
30.99788423415782
 20
-2.369779707735916
 30
0.0
 11
30.99788423415782
 21
-4.369787337130447
 31
0.0
  0
LINE
  5
89
330
1F
100
AcDbEntity
  8
D-2
  6
Continuous
 62
    30
370
     5
100
AcDbLine
 10
35.73297639724376
 20
3.727708695584397
 30
0.0
 11
35.95950837966564
 21
3.530755875760178
 31
0.0
  0
LINE
  5
8A
330
1F
100
AcDbEntity
  8
D-2
  6
Continuous
 62
    30
370
     5
100
AcDbLine
 10
34.89613099929454
 20
2.764810441189866
 30
0.0
 11
35.73297639724376
 21
3.727708695584397
 31
0.0
  0
LINE
  5
8B
330
1F
100
AcDbEntity
  8
D-2
  6
Continuous
 62
    30
370
     5
100
AcDbLine
 10
35.1223654353297
 20
2.568010209256272
 30
0.0
 11
35.95950837966564
 21
3.530755875760178
 31
0.0
  0
LINE
  5
8C
330
1F
100
AcDbEntity
  8
D-2
  6
Continuous
 62
    30
370
     5
100
AcDbLine
 10
34.59682222243907
 20
2.743905900174241
 30
0.0
 11
34.29845186111095
 21
7.007211564236741
 31
0.0
  0
LINE
  5
8D
330
1F
100
AcDbEntity
  8
D-2
  6
Continuous
 62
    30
370
     5
100
AcDbLine
 10
34.89613099929454
 20
2.764810441189866
 30
0.0
 11
34.59801240798595
 21
7.027917740994553
 31
0.0
  0
LINE
  5
8E
330
1F
100
AcDbEntity
  8
D-2
  6
Continuous
 62
    30
370
     5
100
AcDbLine
 10
43.59190126296642
 20
2.061448929959397
 30
0.0
 11
47.99790712234142
 21
5.630205033475022
 31
0.0
  0
LINE
  5
8F
330
1F
100
AcDbEntity
  8
D-2
  6
Continuous
 62
    30
370
     5
100
AcDbLine
 10
47.99790712234142
 20
5.630205033475022
 30
0.0
 11
48.18668886062267
 21
5.397142289334397
 31
0.0
  0
LINE
  5
90
330
1F
100
AcDbEntity
  8
D-2
  6
Continuous
 62
    30
370
     5
100
AcDbLine
 10
39.29777284499767
 20
-0.313337446993728
 30
0.0
 11
39.29777284499767
 21
7.030206559353928
 31
0.0
  0
LINE
  5
91
330
1F
100
AcDbEntity
  8
D-2
  6
Continuous
 62
    30
370
     5
100
AcDbLine
 10
38.99812074538829
 20
-0.2918301838101343
 30
0.0
 11
38.99812074538829
 21
7.130288956814866
 31
0.0
  0
LINE
  5
92
330
1F
100
AcDbEntity
  8
D-2
  6
Continuous
 62
    30
370
     5
100
AcDbLine
 10
42.93714662429454
 20
1.145128129178147
 30
0.0
 11
48.18668886062267
 21
5.397142289334397
 31
0.0
  0
LINE
  5
93
330
1F
100
AcDbEntity
  8
D-1
  6
Continuous
 62
     2
370
     9
100
AcDbLine
 10
18.06917329665782
 20
0.9497088176547095
 30
0.0
 11
21.02142091628673
 21
1.830263016873459
 31
0.0
  0
LINE
  5
94
330
1F
100
AcDbEntity
  8
D-1
  6
Continuous
 62
     2
370
     9
100
AcDbLine
 10
22.99784608718517
 20
1.830263016873459
 30
0.0
 11
22.99784608718517
 21
0.630235551053147
 31
0.0
  0
LINE
  5
95
330
1F
100
AcDbEntity
  8
D-1
  6
JWW_CENTER1
 62
     2
370
     9
100
AcDbLine
 10
-35.15552000168202
 20
7.630212662869553
 30
0.0
 11
-43.84891752365468
 21
7.630212662869553
 31
0.0
  0
LINE
  5
96
330
1F
100
AcDbEntity
  8
D-1
  6
JWW_CENTER1
 62
     2
370
     9
100
AcDbLine
 10
-39.5021691716039
 20
11.97696864431487
 30
0.0
 11
-39.5021691716039
 21
3.283517716580491
 31
0.0
  0
LINE
  5
97
330
1F
100
AcDbEntity
  8
D-0
  6
Continuous
 62
     3
370
     9
100
AcDbLine
 10
-38.57385877731679
 20
-4.369840742892166
 30
0.0
 11
53.74955507156017
 21
-4.369840742892166
 31
0.0
  0
LINE
  5
98
330
1F
100
AcDbEntity
  8
D-0
  6
Continuous
 62
     3
370
     9
100
AcDbLine
 10
53.74955507156017
 20
-5.369894148653884
 30
0.0
 11
-38.57385877731679
 21
-5.369894148653884
 31
0.0
  0
LINE
  5
99
330
1F
100
AcDbEntity
  8
D-0
  6
Continuous
 62
     3
370
     9
100
AcDbLine
 10
-39.18477110031483
 20
-3.497419478243728
 30
0.0
 11
-37.25442747238515
 21
1.805681107693772
 31
0.0
  0
LINE
  5
9A
330
1F
100
AcDbEntity
  8
D-2
  6
Continuous
 62
     4
370
     9
100
AcDbLine
 10
47.74963136550548
 20
7.130197404080491
 30
0.0
 11
47.74963136550548
 21
9.63031947439299
 31
0.0
  0
LINE
  5
9B
330
1F
100
AcDbEntity
  8
D-2
  6
Continuous
 62
     4
370
     9
100
AcDbLine
 10
48.74958558913829
 20
9.63031947439299
 30
0.0
 11
48.74958558913829
 21
7.130197404080491
 31
0.0
  0
LINE
  5
9C
330
1F
100
AcDbEntity
  8
D-2
  6
Continuous
 62
     4
370
     9
100
AcDbLine
 10
49.74969240066173
 20
7.130197404080491
 30
0.0
 11
49.74969240066173
 21
9.63031947439299
 31
0.0
  0
LINE
  5
9D
330
1F
100
AcDbEntity
  8
D-2
  6
Continuous
 62
     4
370
     9
100
AcDbLine
 10
50.74964662429454
 20
9.63031947439299
 30
0.0
 11
50.74964662429454
 21
7.130197404080491
 31
0.0
  0
LINE
  5
9E
330
1F
100
AcDbEntity
  8
D-2
  6
Continuous
 62
     4
370
     9
100
AcDbLine
 10
51.74944826003673
 20
9.63031947439299
 30
0.0
 11
51.74944826003673
 21
7.130197404080491
 31
0.0
  0
LINE
  5
9F
330
1F
100
AcDbEntity
  8
D-2
  6
Continuous
 62
     4
370
     9
100
AcDbLine
 10
52.7496618830836
 20
7.130197404080491
 30
0.0
 11
52.7496618830836
 21
9.63031947439299
 31
0.0
  0
LINE
  5
A0
330
1F
100
AcDbEntity
  8
D-2
  6
Continuous
 62
     4
370
     9
100
AcDbLine
 10
53.74955507156017
 20
9.63031947439299
 30
0.0
 11
53.74955507156017
 21
6.630258439236741
 31
0.0
  0
LINE
  5
A1
330
1F
100
AcDbEntity
  8
D-2
  6
Continuous
 62
     4
370
     9
100
AcDbLine
 10
53.74955507156017
 20
7.130197404080491
 30
0.0
 11
46.74952455398204
 21
7.130197404080491
 31
0.0
  0
LINE
  5
A2
330
1F
100
AcDbEntity
  8
D-0
  6
Continuous
 62
     3
370
     9
100
AcDbLine
 10
46.74952455398204
 20
5.630304215603928
 30
0.0
 11
53.74955507156017
 21
5.630304215603928
 31
0.0
  0
LINE
  5
A3
330
1F
100
AcDbEntity
  8
D-0
  6
Continuous
 62
     3
370
     9
100
AcDbLine
 10
54.74952455398204
 20
-3.369787337130447
 30
0.0
 11
54.74952455398204
 21
4.630151627713303
 31
0.0
  0
LINE
  5
A4
330
1F
100
AcDbEntity
  8
D-0
  6
Continuous
 62
     3
370
     9
100
AcDbLine
 10
55.74957033034923
 20
4.630151627713303
 30
0.0
 11
55.74957033034923
 21
-3.369787337130447
 31
0.0
  0
LINE
  5
A5
330
1F
100
AcDbEntity
  8
D-2
  6
Continuous
 62
     4
370
     9
100
AcDbLine
 10
-39.00610593918202
 20
1.378984330350022
 30
0.0
 11
-44.25232938888905
 21
3.288522599392991
 31
0.0
  0
LINE
  5
A6
330
1F
100
AcDbEntity
  8
D-2
  6
Continuous
 62
     4
370
     9
100
AcDbLine
 10
-44.25232938888905
 20
2.224153397732834
 30
0.0
 11
-39.34827665451405
 21
0.4392794353304907
 31
0.0
  0
LINE
  5
A7
330
1F
100
AcDbEntity
  8
D-2
  6
Continuous
 62
     4
370
     9
100
AcDbLine
 10
-44.25232938888905
 20
1.160188553982834
 30
0.0
 11
-39.69029859665272
 21
-0.5005246418179468
 31
0.0
  0
LINE
  5
A8
330
1F
100
AcDbEntity
  8
D-2
  6
Continuous
 62
     4
370
     9
100
AcDbLine
 10
-40.03222135666249
 20
-1.440031172579666
 30
0.0
 11
-44.25232938888905
 21
0.0959185344515845
 31
0.0
  0
LINE
  5
A9
330
1F
100
AcDbEntity
  8
D-2
  6
Continuous
 62
     4
370
     9
100
AcDbLine
 10
-44.25232938888905
 20
-0.968244673556228
 30
0.0
 11
-40.37419370773671
 21
-2.379835249728103
 31
0.0
  0
LINE
  5
AA
330
1F
100
AcDbEntity
  8
D-2
  6
Continuous
 62
     4
370
     9
100
AcDbLine
 10
-40.71626524093983
 20
-3.319440962618728
 30
0.0
 11
-44.25232938888905
 21
-2.032415510958572
 31
0.0
  0
LINE
  5
AB
330
1F
100
AcDbEntity
  8
D-2
  6
Continuous
 62
     4
370
     9
100
AcDbLine
 10
-44.25232938888905
 20
-3.096487166232009
 30
0.0
 11
-39.92064146164296
 21
-4.673261763399978
 31
0.0
  0
LINE
  5
AC
330
1F
100
AcDbEntity
  8
D-3
  6
Continuous
 62
     6
370
     5
100
AcDbLine
 10
5.747708758083604
 20
9.63031947439299
 30
0.0
 11
5.747708758083604
 21
21.63028895681487
 31
0.0
  0
LINE
  5
AD
330
1F
100
AcDbEntity
  8
D-3
  6
Continuous
 62
     6
370
     5
100
AcDbLine
 10
18.24768586990001
 20
21.63028895681487
 30
0.0
 11
18.24768586990001
 21
40.6302736980258
 31
0.0
  0
LINE
  5
AE
330
1F
100
AcDbEntity
  8
D-3
  6
Continuous
 62
     6
370
     5
100
AcDbLine
 10
68.24767824050548
 20
21.63028895681487
 30
0.0
 11
68.24767824050548
 21
40.6302736980258
 31
0.0
  0
LINE
  5
AF
330
1F
100
AcDbEntity
  8
D-3
  6
Continuous
 62
     6
370
     5
100
AcDbLine
 10
18.74771638747814
 20
22.13030421560393
 30
0.0
 11
67.74769349929454
 21
22.13030421560393
 31
0.0
  0
LINE
  5
B0
330
1F
100
AcDbEntity
  8
D-3
  6
Continuous
 62
     6
370
     5
100
AcDbLine
 10
18.74771638747814
 20
22.13030421560393
 30
0.0
 11
18.74771638747814
 21
40.13044154470549
 31
0.0
  0
LINE
  5
B1
330
1F
100
AcDbEntity
  8
D-3
  6
Continuous
 62
     6
370
     5
100
AcDbLine
 10
23.74768586990001
 20
40.13044154470549
 30
0.0
 11
18.74771638747814
 21
40.13044154470549
 31
0.0
  0
LINE
  5
B2
330
1F
100
AcDbEntity
  8
D-3
  6
Continuous
 62
     6
370
     5
100
AcDbLine
 10
23.74768586990001
 20
36.6303957683383
 30
0.0
 11
23.74768586990001
 21
40.13044154470549
 31
0.0
  0
LINE
  5
B3
330
1F
100
AcDbEntity
  8
D-3
  6
Continuous
 62
     6
370
     5
100
AcDbLine
 10
24.24771638747814
 20
36.6303957683383
 30
0.0
 11
23.74768586990001
 21
36.6303957683383
 31
0.0
  0
LINE
  5
B4
330
1F
100
AcDbEntity
  8
D-3
  6
Continuous
 62
     6
370
     5
100
AcDbLine
 10
24.24771638747814
 20
36.6303957683383
 30
0.0
 11
24.24771638747814
 21
40.6302736980258
 31
0.0
  0
LINE
  5
B5
330
1F
100
AcDbEntity
  8
D-3
  6
Continuous
 62
     6
370
     5
100
AcDbLine
 10
62.24764772292735
 20
36.6303957683383
 30
0.0
 11
62.24764772292735
 21
40.6302736980258
 31
0.0
  0
LINE
  5
B6
330
1F
100
AcDbEntity
  8
D-3
  6
Continuous
 62
     6
370
     5
100
AcDbLine
 10
62.74761720534923
 20
36.6303957683383
 30
0.0
 11
62.24764772292735
 21
36.6303957683383
 31
0.0
  0
LINE
  5
B7
330
1F
100
AcDbEntity
  8
D-3
  6
Continuous
 62
     6
370
     5
100
AcDbLine
 10
62.74761720534923
 20
36.6303957683383
 30
0.0
 11
62.74761720534923
 21
40.13044154470549
 31
0.0
  0
LINE
  5
B8
330
1F
100
AcDbEntity
  8
D-3
  6
Continuous
 62
     6
370
     5
100
AcDbLine
 10
67.74769349929454
 20
40.13044154470549
 30
0.0
 11
62.74761720534923
 21
40.13044154470549
 31
0.0
  0
LINE
  5
B9
330
1F
100
AcDbEntity
  8
D-3
  6
Continuous
 62
     6
370
     5
100
AcDbLine
 10
67.74769349929454
 20
22.13030421560393
 30
0.0
 11
67.74769349929454
 21
40.13044154470549
 31
0.0
  0
LINE
  5
BA
330
1F
100
AcDbEntity
  8
D-3
  6
Continuous
 62
     6
370
     5
100
AcDbLine
 10
68.24767824050548
 20
40.6302736980258
 30
0.0
 11
62.24764772292735
 21
40.6302736980258
 31
0.0
  0
LINE
  5
BB
330
1F
100
AcDbEntity
  8
D-3
  6
Continuous
 62
     6
370
     5
100
AcDbLine
 10
24.24771638747814
 20
40.6302736980258
 30
0.0
 11
18.24768586990001
 21
40.6302736980258
 31
0.0
  0
LINE
  5
BC
330
1F
100
AcDbEntity
  8
D-3
  6
Continuous
 62
     6
370
     5
100
AcDbLine
 10
-44.25232938888905
 20
25.12442958181487
 30
0.0
 11
-44.25232938888905
 21
141.2901095134555
 31
0.0
  0
LINE
  5
BD
330
1F
100
AcDbEntity
  8
D-3
  6
Continuous
 62
     6
370
     5
100
AcDbLine
 10
-44.25232938888905
 20
-66.9595357196988
 30
0.0
 11
-44.25232938888905
 21
19.0584963542758
 31
0.0
  0
LINE
  5
BE
330
1F
100
AcDbEntity
  8
D-3
  6
Continuous
 62
     6
370
     5
100
AcDbLine
 10
-84.6775761044347
 20
-47.54751408273592
 30
0.0
 11
-44.25232938888905
 21
-7.122366072482009
 31
0.0
  0
LINE
  5
BF
330
1F
100
AcDbEntity
  8
D-3
  6
Continuous
 62
     6
370
     5
100
AcDbLine
 10
-73.36379484299061
 20
-47.54751408273592
 30
0.0
 11
-44.25232938888905
 21
-18.43599522287263
 31
0.0
  0
LINE
  5
C0
330
1F
100
AcDbEntity
  8
D-3
  6
Continuous
 62
     6
370
     5
100
AcDbLine
 10
-79.0206599629247
 20
-47.54751408273592
 30
0.0
 11
-44.25232938888905
 21
-12.77913487131013
 31
0.0
  0
LINE
  5
C1
330
1F
100
AcDbEntity
  8
D-2
  6
Continuous
 62
     4
370
     9
100
AcDbLine
 10
46.74952455398204
 20
9.63031947439299
 30
0.0
 11
46.74952455398204
 21
6.630258439236741
 31
0.0
  0
LINE
  5
C2
330
1F
100
AcDbEntity
  8
D-2
  6
Continuous
 62
     4
370
     9
100
AcDbLine
 10
53.74955507156017
 20
6.630258439236741
 30
0.0
 11
46.74952455398204
 21
6.630258439236741
 31
0.0
  0
LINE
  5
C3
330
1F
100
AcDbEntity
  8
D-0
  6
Continuous
 62
     3
370
     9
100
AcDbLine
 10
46.74952455398204
 20
6.630258439236741
 30
0.0
 11
46.74952455398204
 21
5.630304215603928
 31
0.0
  0
LINE
  5
C4
330
1F
100
AcDbEntity
  8
D-0
  6
Continuous
 62
     3
370
     9
100
AcDbLine
 10
46.74952455398204
 20
6.630258439236741
 30
0.0
 11
53.74955507156017
 21
6.630258439236741
 31
0.0
  0
LINE
  5
C5
330
1F
100
AcDbEntity
  8
D-0
  6
Continuous
 62
     3
370
     9
100
AcDbLine
 10
-40.12447981003163
 20
-3.155592085665603
 30
0.0
 11
-38.19423154953358
 21
2.147752640896897
 31
0.0
  0
LINE
  5
C6
330
1F
100
AcDbEntity
  8
D-0
  6
Continuous
 62
     3
370
     9
100
AcDbLine
 10
-37.25442747238515
 20
1.805681107693772
 30
0.0
 11
-38.19423154953358
 21
2.147752640896897
 31
0.0
  0
LINE
  5
C7
330
1F
100
AcDbEntity
  8
D-2
  6
Continuous
 62
     4
370
     9
100
AcDbLine
 10
-40.22074751022694
 20
2.885110734158616
 30
0.0
 11
-38.19423154953358
 21
2.147752640896897
 31
0.0
  0
LINE
  5
C8
330
1F
100
AcDbEntity
  8
D-2
  6
Continuous
 62
     4
370
     9
100
AcDbLine
 10
-38.6640344059789
 20
2.318689225369553
 30
0.0
 11
-40.59438184860585
 21
-2.984556319064041
 31
0.0
  0
LINE
  5
C9
330
1F
100
AcDbEntity
  8
D-2
  6
Continuous
 62
     4
370
     9
100
AcDbLine
 10
-38.19423154953358
 20
2.147653458767991
 30
0.0
 11
-40.12457899216054
 21
-3.155546309298416
 31
0.0
  0
LINE
  5
CA
330
1F
100
AcDbEntity
  8
D-3
  6
Continuous
 62
     6
370
     5
100
AcDbLine
 10
133.8928808772242
 20
9.63031947439299
 30
0.0
 11
5.747708758083604
 21
9.63031947439299
 31
0.0
  0
LINE
  5
CB
330
1F
100
AcDbEntity
  8
D-3
  6
Continuous
 62
     6
370
     5
100
AcDbLine
 10
133.8928808772242
 20
12.63028895681487
 30
0.0
 11
5.747708758083604
 21
12.63028895681487
 31
0.0
  0
LINE
  5
CC
330
1F
100
AcDbEntity
  8
D-3
  6
Continuous
 62
     6
370
     5
100
AcDbLine
 10
133.8928808772242
 20
21.63028895681487
 30
0.0
 11
5.747708758083604
 21
21.63028895681487
 31
0.0
  0
LINE
  5
CD
330
1F
100
AcDbEntity
  8
D-3
  6
Continuous
 62
     6
370
     5
100
AcDbLine
 10
133.8928808772242
 20
18.63031947439299
 30
0.0
 11
5.747708758083604
 21
18.63031947439299
 31
0.0
  0
LINE
  5
CE
330
1F
100
AcDbEntity
  8
D-3
  6
Continuous
 62
     6
370
     5
100
AcDbLine
 10
133.8928808772242
 20
15.63034999197112
 30
0.0
 11
5.747708758083604
 21
15.63034999197112
 31
0.0
  0
LINE
  5
CF
330
1F
100
AcDbEntity
  8
D-2
  6
Continuous
 62
    30
370
     5
100
AcDbLine
 10
41.11164613601329
 20
-0.8945676105679468
 30
0.0
 11
46.50546022292735
 21
6.656869767361741
 31
0.0
  0
LINE
  5
D0
330
1F
100
AcDbEntity
  8
D-2
  6
Continuous
 62
    30
370
     5
100
AcDbLine
 10
46.50546022292735
 20
6.656869767361741
 30
0.0
 11
46.74952455398204
 21
6.482507584744553
 31
0.0
  0
LINE
  5
D1
330
1F
100
AcDbEntity
  8
D-2
  6
Continuous
 62
    30
370
     5
100
AcDbLine
 10
41.35566469070079
 20
-1.068929793185134
 30
0.0
 11
46.74952455398204
 21
6.482507584744553
 31
0.0
  0
LINE
  5
D2
330
1F
100
AcDbEntity
  8
D-1
  6
Continuous
 62
     2
370
     9
100
AcDbLine
 10
-36.00217680099843
 20
6.130235551053147
 30
0.0
 11
-37.50216154220936
 21
6.130235551053147
 31
0.0
  0
LINE
  5
D3
330
1F
100
AcDbEntity
  8
D-1
  6
Continuous
 62
     2
370
     9
100
AcDbLine
 10
-39.00214246872304
 20
-3.069730879610916
 30
0.0
 11
-38.38350156906483
 21
-1.369772078341384
 31
0.0
  0
LINE
  5
D4
330
1F
100
AcDbEntity
  8
D-1
  6
Continuous
 62
     2
370
     9
100
AcDbLine
 10
-25.01555112961171
 20
-0.869794966524978
 30
0.0
 11
-25.01555112961171
 21
-0.487745405978103
 31
0.0
  0
LINE
  5
D5
330
1F
100
AcDbEntity
  8
D-1
  6
Continuous
 62
     2
370
     9
100
AcDbLine
 10
-26.08680585983632
 20
0.9497088176547095
 30
0.0
 11
-29.03920606735585
 21
1.830263016873459
 31
0.0
  0
LINE
  5
D6
330
1F
100
AcDbEntity
  8
D-1
  6
Continuous
 62
     2
370
     9
100
AcDbLine
 10
-31.01558164718983
 20
1.830263016873459
 30
0.0
 11
-31.01558164718983
 21
0.630235551053147
 31
0.0
  0
LINE
  5
D7
330
1F
100
AcDbEntity
  8
D-1
  6
Continuous
 62
     2
370
     9
100
AcDbLine
 10
-56.28260664108632
 20
24.60785853689299
 30
0.0
 11
-56.65886549118397
 21
23.57406031911955
 31
0.0
  0
LINE
  5
D8
330
1F
100
AcDbEntity
  8
D-1
  6
Continuous
 62
     2
370
     9
100
AcDbLine
 10
-54.63814787033436
 20
24.00927150076018
 30
0.0
 11
-56.28260664108632
 21
24.60785853689299
 31
0.0
  0
LINE
  5
D9
330
1F
100
AcDbEntity
  8
D-1
  6
Continuous
 62
     2
370
     9
100
AcDbLine
 10
-54.63814787033436
 20
24.00927150076018
 30
0.0
 11
-54.5444054997289
 21
22.8045901042758
 31
0.0
  0
LINE
  5
DA
330
1F
100
AcDbEntity
  8
D-1
  6
Continuous
 62
     2
370
     9
100
AcDbLine
 10
-53.04432157638905
 20
22.25849330251799
 30
0.0
 11
-54.5444054997289
 21
22.8045901042758
 31
0.0
  0
LINE
  5
DB
330
1F
100
AcDbEntity
  8
D-1
  6
Continuous
 62
     2
370
     9
100
AcDbLine
 10
-52.28893140915272
 20
23.1541994792758
 30
0.0
 11
-52.35730604294179
 21
22.9662111980258
 31
0.0
  0
LINE
  5
DC
330
1F
100
AcDbEntity
  8
D-1
  6
Continuous
 62
     2
370
     9
100
AcDbLine
 10
-50.64451841476796
 20
22.55576503103362
 30
0.0
 11
-52.28893140915272
 21
23.1541994792758
 31
0.0
  0
LINE
  5
DD
330
1F
100
AcDbEntity
  8
D-1
  6
Continuous
 62
     2
370
     9
100
AcDbLine
 10
-50.64451841476796
 20
22.55576503103362
 30
0.0
 11
-50.55082563522694
 21
21.35093104665862
 31
0.0
  0
LINE
  5
DE
330
1F
100
AcDbEntity
  8
D-1
  6
Continuous
 62
     2
370
     9
100
AcDbLine
 10
-50.55082563522694
 20
21.35093104665862
 30
0.0
 11
-38.80474714401601
 21
17.0758303386508
 31
0.0
  0
LINE
  5
DF
330
1F
100
AcDbEntity
  8
D-1
  6
Continuous
 62
     2
370
     9
100
AcDbLine
 10
-40.35283903244374
 20
12.82262599294768
 30
0.0
 11
-35.49229292038319
 21
26.17650782888518
 31
0.0
  0
LINE
  5
E0
330
1F
100
AcDbEntity
  8
D-1
  6
Continuous
 62
     2
370
     9
100
AcDbLine
 10
-48.60125593307851
 20
26.70734584158049
 30
0.0
 11
-36.85517744186757
 21
22.43209254568205
 31
0.0
  0
LINE
  5
E1
330
1F
100
AcDbEntity
  8
D-1
  6
Continuous
 62
     2
370
     9
100
AcDbLine
 10
-49.44741682175038
 20
25.84469020193205
 30
0.0
 11
-48.60125593307851
 21
26.70734584158049
 31
0.0
  0
LINE
  5
E2
330
1F
100
AcDbEntity
  8
D-1
  6
Continuous
 62
     2
370
     9
100
AcDbLine
 10
-49.44741682175038
 20
25.84469020193205
 30
0.0
 11
-51.09178022507069
 21
26.44330775564299
 31
0.0
  0
LINE
  5
E3
330
1F
100
AcDbEntity
  8
D-1
  6
Continuous
 62
     2
370
     9
100
AcDbLine
 10
-51.09178022507069
 20
26.44330775564299
 30
0.0
 11
-51.02350477341054
 21
26.63118922536955
 31
0.0
  0
LINE
  5
E4
330
1F
100
AcDbEntity
  8
D-1
  6
JWW_DASHED1
 62
     2
370
     9
100
AcDbLine
 10
-51.02350477341054
 20
26.63118922536955
 30
0.0
 11
-53.28729871872304
 21
27.45516383474455
 31
0.0
  0
LINE
  5
E5
330
1F
100
AcDbEntity
  8
D-1
  6
Continuous
 62
     2
370
     9
100
AcDbLine
 10
-53.28729871872304
 20
27.45516383474455
 30
0.0
 11
-55.01713041427968
 21
28.08471095388518
 31
0.0
  0
LINE
  5
E6
330
1F
100
AcDbEntity
  8
D-1
  6
JWW_DASHED1
 62
     2
370
     9
100
AcDbLine
 10
-55.01713041427968
 20
28.08471095388518
 30
0.0
 11
-56.04022459152577
 21
28.45710170095549
 31
0.0
  0
LINE
  5
E7
330
1F
100
AcDbEntity
  8
D-1
  6
Continuous
 62
     2
370
     9
100
AcDbLine
 10
-54.70929578903554
 20
28.93052089040862
 30
0.0
 11
-55.40988783005116
 21
29.18543422048674
 31
0.0
  0
LINE
  5
E8
330
1F
100
AcDbEntity
  8
D-1
  6
Continuous
 62
     2
370
     9
100
AcDbLine
 10
-55.08545545700429
 20
27.89682948415862
 30
0.0
 11
-54.70929578903554
 21
28.93052089040862
 31
0.0
  0
LINE
  5
E9
330
1F
100
AcDbEntity
  8
D-1
  6
Continuous
 62
     2
370
     9
100
AcDbLine
 10
-53.44109205368397
 20
27.29830348318205
 30
0.0
 11
-55.08545545700429
 21
27.89682948415862
 31
0.0
  0
LINE
  5
EA
330
1F
100
AcDbEntity
  8
D-1
  6
Continuous
 62
     2
370
     9
100
AcDbLine
 10
-53.44109205368397
 20
27.29830348318205
 30
0.0
 11
-52.5949311650121
 21
28.16080653493987
 31
0.0
  0
LINE
  5
EB
330
1F
100
AcDbEntity
  8
D-1
  6
Continuous
 62
     2
370
     9
100
AcDbLine
 10
-51.09480146530507
 20
27.61480128591643
 30
0.0
 11
-52.5949311650121
 21
28.16080653493987
 31
0.0
  0
LINE
  5
EC
330
1F
100
AcDbEntity
  8
D-1
  6
Continuous
 62
     2
370
     9
100
AcDbLine
 10
-49.21672681930897
 20
26.07993495290862
 30
0.0
 11
-50.78290418747304
 21
26.65001857107268
 31
0.0
  0
LINE
  5
ED
330
1F
100
AcDbEntity
  8
D-1
  6
JWW_DASHED1
 62
     2
370
     9
100
AcDbLine
 10
-36.65887312057851
 20
21.50924098318205
 30
0.0
 11
-49.21672681930897
 21
26.07993495290862
 31
0.0
  0
LINE
  5
EE
330
1F
100
AcDbEntity
  8
D-1
  6
Continuous
 62
     2
370
     9
100
AcDbLine
 10
-44.07465223434804
 20
21.60114466970549
 30
0.0
 11
-43.80105451706288
 21
22.3529299480258
 31
0.0
  0
LINE
  5
EF
330
1F
100
AcDbEntity
  8
D-1
  6
Continuous
 62
     2
370
     9
100
AcDbLine
 10
-43.80105451706288
 20
22.3529299480258
 30
0.0
 11
-57.12584547165272
 21
27.20276820486174
 31
0.0
  0
LINE
  5
F0
330
1F
100
AcDbEntity
  8
D-1
  6
Continuous
 62
     2
370
     9
100
AcDbLine
 10
-44.07465223434804
 20
21.60114466970549
 30
0.0
 11
-57.68636945846913
 21
26.55533778493987
 31
0.0
  0
LINE
  5
F1
330
1F
100
AcDbEntity
  8
D-1
  6
JWW_DASHED1
 62
     2
370
     9
100
AcDbLine
 10
-38.06109861496327
 20
17.65667140310393
 30
0.0
 11
-50.61905149582265
 21
22.22716700857268
 31
0.0
  0
LINE
  5
F2
330
1F
100
AcDbEntity
  8
D-1
  6
JWW_DASHED1
 62
     2
370
     9
100
AcDbLine
 10
-36.00133756759999
 20
19.61580836599455
 30
0.0
 11
-36.34038404587147
 21
18.68432032888518
 31
0.0
  0
LINE
  5
F3
330
1F
100
AcDbEntity
  8
D-1
  6
JWW_DASHED1
 62
     2
370
     9
100
AcDbLine
 10
-34.92061857345936
 20
19.22245204275237
 30
0.0
 11
-36.00133756759999
 21
19.61580836599455
 31
0.0
  0
LINE
  5
F4
330
1F
100
AcDbEntity
  8
D-1
  6
Continuous
 62
     2
370
     9
100
AcDbLine
 10
-34.94276670578358
 20
17.74535548513518
 30
0.0
 11
-34.3270974552953
 21
19.43668544118987
 31
0.0
  0
LINE
  5
F5
330
1F
100
AcDbEntity
  8
D-1
  6
JWW_DASHED1
 62
     2
370
     9
100
AcDbLine
 10
-35.25956968429921
 20
18.2909182292758
 30
0.0
 11
-36.34038404587147
 21
18.68432032888518
 31
0.0
  0
LINE
  5
F6
330
1F
100
AcDbEntity
  8
D-1
  6
Continuous
 62
     2
370
     9
100
AcDbLine
 10
-50.61905149582265
 20
22.22716700857268
 30
0.0
 11
-52.18517927292226
 21
22.7972658855258
 31
0.0
  0
LINE
  5
F7
330
1F
100
AcDbEntity
  8
D-1
  6
JWW_DASHED1
 62
     2
370
     9
100
AcDbLine
 10
-52.35730604294179
 20
22.9662111980258
 30
0.0
 11
-54.62120298508046
 21
23.79023158376799
 31
0.0
  0
LINE
  5
F8
330
1F
100
AcDbEntity
  8
D-1
  6
Continuous
 62
     2
370
     9
100
AcDbLine
 10
-54.62120298508046
 20
23.79023158376799
 30
0.0
 11
-56.35098127487538
 21
24.4198244792758
 31
0.0
  0
LINE
  5
F9
330
1F
100
AcDbEntity
  8
D-1
  6
JWW_DASHED1
 62
     2
370
     9
100
AcDbLine
 10
-56.35098127487538
 20
24.4198244792758
 30
0.0
 11
-58.61477903488515
 21
25.24382960622893
 31
0.0
  0
LINE
  5
FA
330
1F
100
AcDbEntity
  8
D-1
  6
JWW_PHANTOM1
 62
     2
370
     9
100
AcDbLine
 10
-60.62504438522694
 20
23.15973841970549
 30
0.0
 11
-54.01989988449452
 21
30.79145228689299
 31
0.0
  0
LINE
  5
FB
330
1F
100
AcDbEntity
  8
D-1
  6
Continuous
 62
     2
370
     9
100
AcDbLine
 10
-39.41992048385976
 20
13.92345607107268
 30
0.0
 11
-39.88982633713124
 21
14.09459864919768
 31
0.0
  0
LINE
  5
FC
330
1F
100
AcDbEntity
  8
D-1
  6
Continuous
 62
     2
370
     9
100
AcDbLine
 10
-39.41992048385976
 20
13.92345607107268
 30
0.0
 11
-35.31565717819569
 21
25.19979274099455
 31
0.0
  0
LINE
  5
FD
330
1F
100
AcDbEntity
  8
D-1
  6
Continuous
 62
     2
370
     9
100
AcDbLine
 10
-35.31565717819569
 20
25.19979274099455
 30
0.0
 11
-35.78546003464101
 21
25.37092006033049
 31
0.0
  0
LINE
  5
FE
330
1F
100
AcDbEntity
  8
D-1
  6
Continuous
 62
     2
370
     9
100
AcDbLine
 10
-38.13735059860585
 20
17.44733607595549
 30
0.0
 11
-38.60720304611561
 21
17.61837184255705
 31
0.0
  0
LINE
  5
FF
330
1F
100
AcDbEntity
  8
D-1
  6
Continuous
 62
     2
370
     9
100
AcDbLine
 10
-36.5982270634496
 20
21.67595851247893
 30
0.0
 11
-37.06812910202382
 21
21.84710109060393
 31
0.0
  0
LINE
  5
100
330
1F
100
AcDbEntity
  8
D-1
  6
JWW_CENTER1
 62
     2
370
     9
100
AcDbLine
 10
-33.1808801091039
 20
18.06182277029143
 30
0.0
 11
-59.90869573715565
 21
27.78995692556487
 31
0.0
  0
LINE
  5
101
330
1F
100
AcDbEntity
  8
D-1
  6
Continuous
 62
     2
370
     9
100
AcDbLine
 10
-58.63182310226796
 20
25.46293055837737
 30
0.0
 11
-58.5381799137914
 21
24.25809657400237
 31
0.0
  0
LINE
  5
102
330
1F
100
AcDbEntity
  8
D-1
  6
Continuous
 62
     2
370
     9
100
AcDbLine
 10
-56.65886549118397
 20
23.57406031911955
 30
0.0
 11
-58.5381799137914
 21
24.25809657400237
 31
0.0
  0
LINE
  5
103
330
1F
100
AcDbEntity
  8
D-1
  6
Continuous
 62
     2
370
     9
100
AcDbLine
 10
-44.25223020676015
 20
10.88019740408049
 30
0.0
 11
-44.25223020676015
 21
7.630212662869553
 31
0.0
  0
LINE
  5
104
330
1F
100
AcDbEntity
  8
D-1
  6
Continuous
 62
     2
370
     9
100
AcDbLine
 10
-36.90943006637929
 20
11.56939112966643
 30
0.0
 11
-40.35278944137929
 21
12.82262599294768
 31
0.0
  0
LINE
  5
105
330
1F
100
AcDbEntity
  8
D-1
  6
Continuous
 62
     2
370
     9
100
AcDbLine
 10
-39.45192960861561
 20
24.06893336599455
 30
0.0
 11
-36.63291029098866
 21
23.04291713064299
 31
0.0
  0
LINE
  5
106
330
1F
100
AcDbEntity
  8
D-1
  6
Continuous
 62
     2
370
     9
100
AcDbLine
 10
-41.84603361252186
 20
17.49108302419768
 30
0.0
 11
-39.02701429489491
 21
16.46502101247893
 31
0.0
  0
LINE
  5
107
330
1F
100
AcDbEntity
  8
D-1
  6
Continuous
 62
     2
370
     9
100
AcDbLine
 10
-44.25223020676015
 20
10.88024318044768
 30
0.0
 11
-41.62376646164296
 21
18.10184657400237
 31
0.0
  0
LINE
  5
108
330
1F
100
AcDbEntity
  8
D-1
  6
Continuous
 62
     2
370
     9
100
AcDbLine
 10
-33.00211576584218
 20
0.630235551053147
 30
0.0
 11
-31.01558164718983
 21
0.630235551053147
 31
0.0
  0
LINE
  5
109
330
1F
100
AcDbEntity
  8
D-1
  6
Continuous
 62
     2
370
     9
100
AcDbLine
 10
-33.00211576584218
 20
9.13019740408049
 30
0.0
 11
-37.50221113327382
 21
9.13019740408049
 31
0.0
  0
LINE
  5
10A
330
1F
100
AcDbEntity
  8
D-1
  6
Continuous
 62
     2
370
     9
100
AcDbLine
 10
-23.95228056076405
 20
80.74006068533049
 30
0.0
 11
-24.60233549240468
 21
80.36478602712737
 31
0.0
  0
LINE
  5
10B
330
1F
100
AcDbEntity
  8
D-1
  6
Continuous
 62
     2
370
     9
100
AcDbLine
 10
-23.95228056076405
 20
80.74006068533049
 30
0.0
 11
-16.05232481125233
 21
80.74006068533049
 31
0.0
  0
LINE
  5
10C
330
1F
100
AcDbEntity
  8
D-1
  6
Continuous
 62
     2
370
     9
100
AcDbLine
 10
-16.05232481125233
 20
80.74006068533049
 30
0.0
 11
-15.40226987961171
 21
80.36478602712737
 31
0.0
  0
LINE
  5
10D
330
1F
100
AcDbEntity
  8
D-1
  6
Continuous
 62
     2
370
     9
100
AcDbLine
 10
-24.60233549240468
 20
80.36478602712737
 30
0.0
 11
-24.60233549240468
 21
76.7401369792758
 31
0.0
  0
LINE
  5
10E
330
1F
100
AcDbEntity
  8
D-1
  6
Continuous
 62
     2
370
     9
100
AcDbLine
 10
-24.60233549240468
 20
76.7401369792758
 30
0.0
 11
-15.40226987961171
 21
76.7401369792758
 31
0.0
  0
LINE
  5
10F
330
1F
100
AcDbEntity
  8
D-1
  6
Continuous
 62
     2
370
     9
100
AcDbLine
 10
-15.40226987961171
 20
80.36478602712737
 30
0.0
 11
-15.40226987961171
 21
76.7401369792758
 31
0.0
  0
LINE
  5
110
330
1F
100
AcDbEntity
  8
D-1
  6
Continuous
 62
     2
370
     9
100
AcDbLine
 10
-17.71174863937733
 20
80.36478602712737
 30
0.0
 11
-17.71174863937733
 21
76.7401369792758
 31
0.0
  0
LINE
  5
111
330
1F
100
AcDbEntity
  8
D-1
  6
JWW_CENTER2
 62
     2
370
     9
100
AcDbLine
 10
-20.00229887131093
 20
95.01510035818205
 30
0.0
 11
-20.00229887131093
 21
-8.379469038790603
 31
0.0
  0
LINE
  5
112
330
1F
100
AcDbEntity
  8
D-1
  6
Continuous
 62
     2
370
     9
100
AcDbLine
 10
-17.00233701828358
 20
26.74010646169768
 30
0.0
 11
-17.00233701828358
 21
23.7401369792758
 31
0.0
  0
LINE
  5
113
330
1F
100
AcDbEntity
  8
D-1
  6
Continuous
 62
     2
370
     9
100
AcDbLine
 10
-23.0022683537328
 20
26.74010646169768
 30
0.0
 11
-23.0022683537328
 21
23.7401369792758
 31
0.0
  0
LINE
  5
114
330
1F
100
AcDbEntity
  8
D-2
  6
Continuous
 62
     4
370
     9
100
AcDbLine
 10
-23.85228971603749
 20
76.7401369792758
 30
0.0
 11
-16.65223936203358
 21
76.7401369792758
 31
0.0
  0
LINE
  5
115
330
1F
100
AcDbEntity
  8
D-2
  6
Continuous
 62
     4
370
     9
100
AcDbLine
 10
-23.85228971603749
 20
75.54010951345549
 30
0.0
 11
-16.65223936203358
 21
75.54010951345549
 31
0.0
  0
LINE
  5
116
330
1F
100
AcDbEntity
  8
D-2
  6
Continuous
 62
     4
370
     9
100
AcDbLine
 10
-23.85228971603749
 20
27.94007289236174
 30
0.0
 11
-16.65223936203358
 21
27.94007289236174
 31
0.0
  0
LINE
  5
117
330
1F
100
AcDbEntity
  8
D-2
  6
Continuous
 62
     4
370
     9
100
AcDbLine
 10
-23.85228971603749
 20
26.74010646169768
 30
0.0
 11
-16.65223936203358
 21
26.74010646169768
 31
0.0
  0
LINE
  5
118
330
1F
100
AcDbEntity
  8
D-2
  6
Continuous
 62
     4
370
     9
100
AcDbLine
 10
-23.85228971603749
 20
29.14005458181487
 30
0.0
 11
-16.65223936203358
 21
31.11341273611174
 31
0.0
  0
LINE
  5
119
330
1F
100
AcDbEntity
  8
D-2
  6
Continuous
 62
     4
370
     9
100
AcDbLine
 10
-16.65223936203358
 20
29.91343104665862
 30
0.0
 11
-23.85228971603749
 21
27.94007289236174
 31
0.0
  0
LINE
  5
11A
330
1F
100
AcDbEntity
  8
D-2
  6
JWW_PHANTOM2
 62
     4
370
     9
100
AcDbLine
 10
-16.05217985275624
 20
27.34006678884612
 30
0.0
 11
-16.05217985275624
 21
76.14011561697112
 31
0.0
  0
LINE
  5
11B
330
1F
100
AcDbEntity
  8
D-2
  6
JWW_PHANTOM2
 62
     4
370
     9
100
AcDbLine
 10
-17.25215391281483
 20
27.34006678884612
 30
0.0
 11
-17.25215391281483
 21
76.14011561697112
 31
0.0
  0
LINE
  5
11C
330
1F
100
AcDbEntity
  8
D-2
  6
JWW_PHANTOM2
 62
     4
370
     9
100
AcDbLine
 10
-24.45225767258046
 20
27.34006678884612
 30
0.0
 11
-24.45225767258046
 21
76.14011561697112
 31
0.0
  0
LINE
  5
11D
330
1F
100
AcDbEntity
  8
D-2
  6
JWW_PHANTOM2
 62
     4
370
     9
100
AcDbLine
 10
-23.25228361252186
 20
27.34006678884612
 30
0.0
 11
-23.25228361252186
 21
76.14011561697112
 31
0.0
  0
LINE
  5
11E
330
1F
100
AcDbEntity
  8
D-1
  6
Continuous
 62
     2
370
     9
100
AcDbLine
 10
-14.2522912419164
 20
23.7401369792758
 30
0.0
 11
-14.2522912419164
 21
26.74010646169768
 31
0.0
  0
LINE
  5
11F
330
1F
100
AcDbEntity
  8
D-1
  6
Continuous
 62
     2
370
     9
100
AcDbLine
 10
-37.7022309696996
 20
-4.369787337130447
 30
0.0
 11
30.99788423415782
 21
-4.369787337130447
 31
0.0
  0
LINE
  5
120
330
1F
100
AcDbEntity
  8
D-1
  6
Continuous
 62
     2
370
     9
100
AcDbLine
 10
-34.00206998947499
 20
-4.369787337130447
 30
0.0
 11
-34.00206998947499
 21
-2.369779707735916
 31
0.0
  0
LINE
  5
121
330
1F
100
AcDbEntity
  8
D-1
  6
Continuous
 62
     2
370
     9
100
AcDbLine
 10
-37.24471525314686
 20
-1.369772078341384
 30
0.0
 11
-38.38350156906483
 21
-1.369772078341384
 31
0.0
  0
LINE
  5
122
330
1F
100
AcDbEntity
  8
D-1
  6
Continuous
 62
     2
370
     9
100
AcDbLine
 10
-36.00217680099843
 20
-0.127241255587478
 30
0.0
 11
-37.24471525314686
 21
-1.369772078341384
 31
0.0
  0
LINE
  5
123
330
1F
100
AcDbEntity
  8
D-1
  6
Continuous
 62
     2
370
     9
100
AcDbLine
 10
-36.00217680099843
 20
6.130235551053147
 30
0.0
 11
-36.00217680099843
 21
-0.127241255587478
 31
0.0
  0
LINE
  5
124
330
1F
100
AcDbEntity
  8
D-1
  6
Continuous
 62
     2
370
     9
100
AcDbLine
 10
-44.25232938888905
 20
37.94458949392424
 30
0.0
 11
-44.25232938888905
 21
27.94452845876799
 31
0.0
  0
LINE
  5
125
330
1F
100
AcDbEntity
  8
D-1
  6
Continuous
 62
     2
370
     9
100
AcDbLine
 10
-44.25232938888905
 20
37.94458949392424
 30
0.0
 11
-42.25231794479726
 21
37.94458949392424
 31
0.0
  0
LINE
  5
126
330
1F
100
AcDbEntity
  8
D-1
  6
Continuous
 62
     2
370
     9
100
AcDbLine
 10
-42.25231794479726
 20
29.34493434255705
 30
0.0
 11
-42.25231794479726
 21
37.94458949392424
 31
0.0
  0
LINE
  5
127
330
1F
100
AcDbEntity
  8
D-1
  6
Continuous
 62
     2
370
     9
100
AcDbLine
 10
-42.25231794479726
 20
29.34493434255705
 30
0.0
 11
-38.08379224899647
 21
27.82770716970549
 31
0.0
  0
LINE
  5
128
330
1F
100
AcDbEntity
  8
D-1
  6
Continuous
 62
     2
370
     9
100
AcDbLine
 10
-38.08379224899647
 20
27.82770716970549
 30
0.0
 11
-35.74314741257069
 21
30.16829860036955
 31
0.0
  0
LINE
  5
129
330
1F
100
AcDbEntity
  8
D-1
  6
Continuous
 62
     2
370
     9
100
AcDbLine
 10
-35.74314741257069
 20
30.16829860036955
 30
0.0
 11
-26.32418684128163
 21
26.74010646169768
 31
0.0
  0
LINE
  5
12A
330
1F
100
AcDbEntity
  8
D-1
  6
Continuous
 62
     2
370
     9
100
AcDbLine
 10
-35.49234251144765
 20
26.17650782888518
 30
0.0
 11
-34.97328809860585
 21
26.69555079763518
 31
0.0
  0
LINE
  5
12B
330
1F
100
AcDbEntity
  8
D-1
  6
Continuous
 62
     2
370
     9
100
AcDbLine
 10
-34.97328809860585
 20
26.69555079763518
 30
0.0
 11
-26.85324720505116
 21
23.7401369792758
 31
0.0
  0
LINE
  5
12C
330
1F
100
AcDbEntity
  8
D-1
  6
Continuous
 62
     2
370
     9
100
AcDbLine
 10
-33.00211576584218
 20
9.13019740408049
 30
0.0
 11
-33.00211576584218
 21
4.080232499295334
 31
0.0
  0
LINE
  5
12D
330
1F
100
AcDbEntity
  8
D-1
  6
Continuous
 62
     2
370
     9
100
AcDbLine
 10
-33.00211576584218
 20
4.080232499295334
 30
0.0
 11
-34.00206998947499
 21
4.080232499295334
 31
0.0
  0
LINE
  5
12E
330
1F
100
AcDbEntity
  8
D-1
  6
Continuous
 62
     2
370
     9
100
AcDbLine
 10
-34.00206998947499
 20
4.080232499295334
 30
0.0
 11
-34.00206998947499
 21
1.580247758084397
 31
0.0
  0
LINE
  5
12F
330
1F
100
AcDbEntity
  8
D-1
  6
Continuous
 62
     2
370
     9
100
AcDbLine
 10
-33.00211576584218
 20
1.580247758084397
 30
0.0
 11
-34.00206998947499
 21
1.580247758084397
 31
0.0
  0
LINE
  5
130
330
1F
100
AcDbEntity
  8
D-1
  6
Continuous
 62
     2
370
     9
100
AcDbLine
 10
-33.00211576584218
 20
1.580247758084397
 30
0.0
 11
-33.00211576584218
 21
0.630235551053147
 31
0.0
  0
LINE
  5
131
330
1F
100
AcDbEntity
  8
D-1
  6
Continuous
 62
     2
370
     9
100
AcDbLine
 10
-44.25232938888905
 20
27.94452845876799
 30
0.0
 11
-38.76788572433827
 21
25.94834315603362
 31
0.0
  0
LINE
  5
132
330
1F
100
AcDbEntity
  8
D-1
  6
Continuous
 62
     2
370
     9
100
AcDbLine
 10
-39.67429594162343
 20
23.45816981618987
 30
0.0
 11
-38.76788572433827
 21
25.94834315603362
 31
0.0
  0
LINE
  5
133
330
1F
100
AcDbEntity
  8
D-1
  6
Continuous
 62
     2
370
     9
100
AcDbLine
 10
-17.5022683537328
 20
26.74010646169768
 30
0.0
 11
-14.2522912419164
 21
26.74010646169768
 31
0.0
  0
LINE
  5
134
330
1F
100
AcDbEntity
  8
D-1
  6
Continuous
 62
     2
370
     9
100
AcDbLine
 10
-17.5022683537328
 20
23.7401369792758
 30
0.0
 11
-14.2522912419164
 21
23.7401369792758
 31
0.0
  0
LINE
  5
135
330
1F
100
AcDbEntity
  8
D-1
  6
Continuous
 62
     2
370
     9
100
AcDbLine
 10
-22.50233701828358
 20
1.830263016873459
 30
0.0
 11
-22.50233701828358
 21
76.7401369792758
 31
0.0
  0
LINE
  5
136
330
1F
100
AcDbEntity
  8
D-1
  6
Continuous
 62
     2
370
     9
100
AcDbLine
 10
-26.32418684128163
 20
26.74010646169768
 30
0.0
 11
-22.50233701828358
 21
26.74010646169768
 31
0.0
  0
LINE
  5
137
330
1F
100
AcDbEntity
  8
D-1
  6
Continuous
 62
     2
370
     9
100
AcDbLine
 10
-26.85324720505116
 20
23.7401369792758
 30
0.0
 11
-22.50233701828358
 21
23.7401369792758
 31
0.0
  0
LINE
  5
138
330
1F
100
AcDbEntity
  8
D-1
  6
Continuous
 62
     2
370
     9
100
AcDbLine
 10
-21.50228361252186
 20
1.830263016873459
 30
0.0
 11
-21.50228361252186
 21
76.7401369792758
 31
0.0
  0
LINE
  5
139
330
1F
100
AcDbEntity
  8
D-1
  6
Continuous
 62
     2
370
     9
100
AcDbLine
 10
-18.50212339523671
 20
1.830263016873459
 30
0.0
 11
-18.50212339523671
 21
76.7401369792758
 31
0.0
  0
LINE
  5
13A
330
1F
100
AcDbEntity
  8
D-1
  6
Continuous
 62
     2
370
     9
100
AcDbLine
 10
-17.5022683537328
 20
1.830263016873459
 30
0.0
 11
-17.5022683537328
 21
76.7401369792758
 31
0.0
  0
LINE
  5
13B
330
1F
100
AcDbEntity
  8
D-1
  6
Continuous
 62
     2
370
     9
100
AcDbLine
 10
-22.29295591476796
 20
80.36487757986174
 30
0.0
 11
-22.29295591476796
 21
76.7401369792758
 31
0.0
  0
LINE
  5
13C
330
1F
100
AcDbEntity
  8
D-2
  6
Continuous
 62
     4
370
     9
100
AcDbLine
 10
-23.85228971603749
 20
73.56665980642424
 30
0.0
 11
-16.65223936203358
 21
75.54010951345549
 31
0.0
  0
LINE
  5
13D
330
1F
100
AcDbEntity
  8
D-2
  6
Continuous
 62
     4
370
     9
100
AcDbLine
 10
-16.65223936203358
 20
74.34018885915862
 30
0.0
 11
-23.85228971603749
 21
72.3667238933383
 31
0.0
  0
LINE
  5
13E
330
1F
100
AcDbEntity
  8
D-2
  6
Continuous
 62
     4
370
     9
100
AcDbLine
 10
-23.85228971603749
 20
33.34201991384612
 30
0.0
 11
-16.65223936203358
 21
35.31542384451018
 31
0.0
  0
LINE
  5
13F
330
1F
100
AcDbEntity
  8
D-2
  6
Continuous
 62
     4
370
     9
100
AcDbLine
 10
-16.65223936203358
 20
34.11545741384612
 30
0.0
 11
-23.85228971603749
 21
32.14205348318205
 31
0.0
  0
LINE
  5
140
330
1F
100
AcDbEntity
  8
D-2
  6
Continuous
 62
     4
370
     9
100
AcDbLine
 10
-23.85228971603749
 20
36.94402491872893
 30
0.0
 11
-16.65223936203358
 21
38.91742884939299
 31
0.0
  0
LINE
  5
141
330
1F
100
AcDbEntity
  8
D-2
  6
Continuous
 62
     4
370
     9
100
AcDbLine
 10
-16.65223936203358
 20
37.71746241872893
 30
0.0
 11
-23.85228971603749
 21
35.74405848806487
 31
0.0
  0
LINE
  5
142
330
1F
100
AcDbEntity
  8
D-2
  6
Continuous
 62
     4
370
     9
100
AcDbLine
 10
-23.85228971603749
 20
65.76004969900237
 30
0.0
 11
-16.65223936203358
 21
67.73340785329924
 31
0.0
  0
LINE
  5
143
330
1F
100
AcDbEntity
  8
D-2
  6
Continuous
 62
     4
370
     9
100
AcDbLine
 10
-16.65223936203358
 20
66.53338038747893
 30
0.0
 11
-23.85228971603749
 21
64.56006800954924
 31
0.0
  0
LINE
  5
144
330
1F
100
AcDbEntity
  8
D-2
  6
Continuous
 62
     4
370
     9
100
AcDbLine
 10
-23.85228971603749
 20
69.36211573904143
 30
0.0
 11
-16.65223936203358
 21
71.33545863454924
 31
0.0
  0
LINE
  5
145
330
1F
100
AcDbEntity
  8
D-2
  6
Continuous
 62
     4
370
     9
100
AcDbLine
 10
-16.65223936203358
 20
70.13543116872893
 30
0.0
 11
-23.85228971603749
 21
68.16208827322112
 31
0.0
  0
LINE
  5
146
330
1F
100
AcDbEntity
  8
D-1
  6
Continuous
 62
     2
370
     9
100
AcDbLine
 10
-17.00233701828358
 20
3.830217240506272
 30
0.0
 11
-17.00233701828358
 21
1.830263016873459
 31
0.0
  0
LINE
  5
147
330
1F
100
AcDbEntity
  8
D-1
  6
Continuous
 62
     2
370
     9
100
AcDbLine
 10
-23.0022683537328
 20
3.830217240506272
 30
0.0
 11
-23.0022683537328
 21
1.830263016873459
 31
0.0
  0
LINE
  5
148
330
1F
100
AcDbEntity
  8
D-1
  6
Continuous
 62
     2
370
     9
100
AcDbLine
 10
-17.5022683537328
 20
80.74006068533049
 30
0.0
 11
-17.5022683537328
 21
91.8302248699008
 31
0.0
  0
LINE
  5
149
330
1F
100
AcDbEntity
  8
D-1
  6
Continuous
 62
     2
370
     9
100
AcDbLine
 10
-18.50212339523671
 20
80.74006068533049
 30
0.0
 11
-18.50212339523671
 21
91.8302248699008
 31
0.0
  0
LINE
  5
14A
330
1F
100
AcDbEntity
  8
D-1
  6
Continuous
 62
     2
370
     9
100
AcDbLine
 10
-21.50228361252186
 20
80.74006068533049
 30
0.0
 11
-21.50228361252186
 21
91.8302248699008
 31
0.0
  0
LINE
  5
14B
330
1F
100
AcDbEntity
  8
D-1
  6
Continuous
 62
     2
370
     9
100
AcDbLine
 10
-22.50233701828358
 20
80.74006068533049
 30
0.0
 11
-22.50233701828358
 21
91.8302248699008
 31
0.0
  0
LINE
  5
14C
330
1F
100
AcDbEntity
  8
D-1
  6
Continuous
 62
     2
370
     9
100
AcDbLine
 10
-22.50233701828358
 20
91.8302248699008
 30
0.0
 11
-17.5022683537328
 21
91.8302248699008
 31
0.0
  0
LINE
  5
14D
330
1F
100
AcDbEntity
  8
D-1
  6
Continuous
 62
     2
370
     9
100
AcDbLine
 10
-34.00206998947499
 20
1.830263016873459
 30
0.0
 11
30.99788423415782
 21
1.830263016873459
 31
0.0
  0
LINE
  5
14E
330
1F
100
AcDbEntity
  8
D-1
  6
Continuous
 62
     2
370
     9
100
AcDbLine
 10
-34.00206998947499
 20
3.830217240506272
 30
0.0
 11
-22.50233701828358
 21
3.830217240506272
 31
0.0
  0
LINE
  5
14F
330
1F
100
AcDbEntity
  8
D-1
  6
Continuous
 62
     2
370
     9
100
AcDbLine
 10
-17.5022683537328
 20
3.830217240506272
 30
0.0
 11
30.99788423415782
 21
3.830217240506272
 31
0.0
  0
LINE
  5
150
330
1F
100
AcDbEntity
  8
D-1
  6
Continuous
 62
     2
370
     9
100
AcDbLine
 10
-24.1687951481664
 20
1.330278275662522
 30
0.0
 11
-15.83581022384999
 21
1.330278275662522
 31
0.0
  0
LINE
  5
151
330
1F
100
AcDbEntity
  8
D-1
  6
JWW_DASHED1
 62
     2
370
     9
100
AcDbLine
 10
-19.50663236740468
 20
0.3064974529086157
 30
0.0
 11
-20.49797300461171
 21
0.3064974529086157
 31
0.0
  0
LINE
  5
152
330
1F
100
AcDbEntity
  8
D-1
  6
JWW_DASHED1
 62
     2
370
     9
100
AcDbLine
 10
-20.49797300461171
 20
-0.8437863605679468
 30
0.0
 11
-20.49797300461171
 21
0.3064974529086157
 31
0.0
  0
LINE
  5
153
330
1F
100
AcDbEntity
  8
D-1
  6
JWW_DASHED1
 62
     2
370
     9
100
AcDbLine
 10
-19.50663236740468
 20
-0.8437863605679468
 30
0.0
 11
-19.50663236740468
 21
0.3064974529086157
 31
0.0
  0
LINE
  5
154
330
1F
100
AcDbEntity
  8
D-5
  6
Continuous
 62
     7
370
     9
100
AcDbLine
 10
-44.25232938888905
 20
-47.34135258371248
 30
0.0
 11
55.74957033034923
 21
-47.34135258371248
 31
0.0
  0
LINE
  5
155
330
1F
100
AcDbEntity
  8
D-5
  6
Continuous
 62
     7
370
     9
100
AcDbLine
 10
55.74957033034923
 20
-9.918592573946853
 30
0.0
 11
55.74957033034923
 21
-47.34135258371248
 31
0.0
  0
LINE
  5
156
330
1F
100
AcDbEntity
  8
D-5
  6
Continuous
 62
     7
370
     9
100
AcDbLine
 10
60.33369203445079
 20
-5.369894148653884
 30
0.0
 11
99.79150148269298
 21
-5.369894148653884
 31
0.0
  0
LINE
  5
157
330
1F
100
AcDbEntity
  8
D-5
  6
Continuous
 62
     7
370
     9
100
AcDbLine
 10
99.79150148269298
 20
-5.369894148653884
 30
0.0
 11
99.79150148269298
 21
9.63031947439299
 31
0.0
  0
LINE
  5
158
330
1F
100
AcDbEntity
  8
D-5
  6
Continuous
 62
     7
370
     9
100
AcDbLine
 10
-44.25232938888905
 20
113.2696627361117
 30
0.0
 11
5.747708758083604
 21
113.2696627361117
 31
0.0
  0
LINE
  5
159
330
1F
100
AcDbEntity
  8
D-5
  6
Continuous
 62
     7
370
     9
100
AcDbLine
 10
5.747708758083604
 20
113.2696627361117
 30
0.0
 11
5.747708758083604
 21
36.74118983572112
 31
0.0
  0
LINE
  5
15A
330
1F
100
AcDbEntity
  8
D-5
  6
Continuous
 62
     7
370
     9
100
AcDbLine
 10
-47.2523904240453
 20
22.09151637380705
 30
0.0
 11
-81.94947532776234
 21
22.09151637380705
 31
0.0
  0
LINE
  5
15B
330
1F
100
AcDbEntity
  8
D-5
  6
Continuous
 62
     7
370
     9
100
AcDbLine
 10
-81.94947532776234
 20
9.63031947439299
 30
0.0
 11
-81.94947532776234
 21
22.09151637380705
 31
0.0
  0
LINE
  5
15C
330
1F
100
AcDbEntity
  8
D-5
  6
Continuous
 62
     7
370
     9
100
AcDbLine
 10
-46.81895689133046
 20
9.63031947439299
 30
0.0
 11
-81.94947532776234
 21
9.63031947439299
 31
0.0
  0
LINE
  5
15D
330
1F
100
AcDbEntity
  8
D-5
  6
Continuous
 62
     7
370
     9
100
AcDbLine
 10
40.52178712722423
 20
-4.369840742892166
 30
0.0
 11
40.52178712722423
 21
-19.12935459787263
 31
0.0
  0
LINE
  5
15E
330
1F
100
AcDbEntity
  8
D-4
  6
Continuous
 62
     7
370
     9
100
AcDbLine
 10
174.0399145686305
 20
-82.13876545602693
 30
0.0
 11
-9.590670148166396
 21
-82.13876545602693
 31
0.0
  0
LINE
  5
15F
330
1F
100
AcDbEntity
  8
D-4
  6
Continuous
 62
     7
370
     9
100
AcDbLine
 10
148.5786718928492
 20
-65.85171711618318
 30
0.0
 11
32.62604280349376
 21
-65.85171711618318
 31
0.0
  0
LINE
  5
160
330
1F
100
AcDbEntity
  8
D-4
  6
Continuous
 62
     7
370
     9
100
AcDbLine
 10
32.62604280349376
 20
-65.85171711618318
 30
0.0
 11
-2.664957562717177
 21
2.574655411892991
 31
0.0
  0
LINE
  5
161
330
1F
100
AcDbEntity
  8
D-4
  6
Continuous
 62
     7
370
     9
100
AcDbLine
 10
-2.664957562717177
 20
2.574655411892991
 30
0.0
 11
0.1873602473414167
 21
-1.531942488497634
 31
0.0
  0
LINE
  5
162
330
1F
100
AcDbEntity
  8
D-4
  6
Continuous
 62
     7
370
     9
100
AcDbLine
 10
-2.664957562717177
 20
2.574655411892991
 30
0.0
 11
-0.9726815617406146
 21
-2.130270125216384
 31
0.0
  0
LINE
  5
163
330
1F
100
AcDbEntity
  8
D-4
  6
Continuous
 62
     7
370
     9
100
AcDbLine
 10
-9.590670148166396
 20
-82.13876545602693
 30
0.0
 11
-31.1816125309789
 21
-5.369894148653884
 31
0.0
  0
LINE
  5
164
330
1F
100
AcDbEntity
  8
D-4
  6
Continuous
 62
     7
370
     9
100
AcDbLine
 10
-31.1816125309789
 20
-5.369894148653884
 30
0.0
 11
-29.21123365524647
 21
-9.96526920968904
 31
0.0
  0
LINE
  5
165
330
1F
100
AcDbEntity
  8
D-4
  6
Continuous
 62
     7
370
     9
100
AcDbLine
 10
-31.1816125309789
 20
-5.369894148653884
 30
0.0
 11
-30.46774152878163
 21
-10.31868565256013
 31
0.0
  0
LINE
  5
166
330
1F
100
AcDbEntity
  8
D-4
  6
Continuous
 62
     7
370
     9
100
AcDbLine
 10
100.7588934504664
 20
-30.74770176584138
 30
0.0
 11
63.2134070002711
 21
-30.74770176584138
 31
0.0
  0
LINE
  5
167
330
1F
100
AcDbEntity
  8
D-4
  6
Continuous
 62
     7
370
     9
100
AcDbLine
 10
63.2134070002711
 20
-30.74770176584138
 30
0.0
 11
43.6975378596461
 21
1.761041520291428
 31
0.0
  0
LINE
  5
168
330
1F
100
AcDbEntity
  8
D-4
  6
Continuous
 62
     7
370
     9
100
AcDbLine
 10
43.6975378596461
 20
1.761041520291428
 30
0.0
 11
46.80859132644298
 21
-2.153211714571853
 31
0.0
  0
LINE
  5
169
330
1F
100
AcDbEntity
  8
D-4
  6
Continuous
 62
     7
370
     9
100
AcDbLine
 10
43.6975378596461
 20
1.761041520291428
 30
0.0
 11
45.6894812190211
 21
-2.825018050021072
 31
0.0
  0
LINE
  5
16A
330
1F
100
AcDbEntity
  8
D-4
  6
Continuous
 62
     7
370
     9
100
AcDbLine
 10
-48.98519376877186
 20
28.02390467947112
 30
0.0
 11
-52.64383558395741
 21
31.43189418142424
 31
0.0
  0
LINE
  5
16B
330
1F
100
AcDbEntity
  8
D-4
  6
Continuous
 62
     7
370
     9
100
AcDbLine
 10
-48.98519376877186
 20
28.02390467947112
 30
0.0
 11
-51.63714079025624
 21
32.26268946951018
 31
0.0
  0
ARC
  5
16C
330
1F
100
AcDbEntity
  8
D-1
  6
Continuous
 62
     2
370
     9
100
AcDbCircle
 10
18.4978537165797
 20
-0.487745405978103
 30
0.0
 40
1.5
100
AcDbArc
 50
106.6070404052734
 51
180.0
  0
ARC
  5
16D
330
1F
100
AcDbEntity
  8
D-1
  6
Continuous
 62
     2
370
     9
100
AcDbCircle
 10
18.4978537165797
 20
-0.869794966524978
 30
0.0
 40
1.5
100
AcDbArc
 50
180.0
 51
270.0
  0
ARC
  5
16E
330
1F
100
AcDbEntity
  8
D-1
  6
Continuous
 62
     2
370
     9
100
AcDbCircle
 10
37.49789186355235
 20
7.130197404080491
 30
0.0
 40
1.5
100
AcDbArc
 50
0.0
 51
180.0
  0
ARC
  5
16F
330
1F
100
AcDbEntity
  8
D-1
  6
Continuous
 62
     2
370
     9
100
AcDbCircle
 10
38.49784608718517
 20
-1.869802595919509
 30
0.0
 40
0.5
100
AcDbArc
 50
270.0
 51
0.0
  0
ARC
  5
170
330
1F
100
AcDbEntity
  8
D-1
  6
Continuous
 62
     2
370
     9
100
AcDbCircle
 10
35.82156892654064
 20
3.830217240506272
 30
0.0
 40
0.2000000029802322
100
AcDbArc
 50
153.4349517822265
 51
270.0
  0
ARC
  5
171
330
1F
100
AcDbEntity
  8
D-2
  6
Continuous
 62
    30
370
     5
100
AcDbCircle
 10
34.89588685866954
 20
2.764810441189866
 30
0.0
 40
0.300000011920929
100
AcDbArc
 50
183.9999999999999
 51
319.0
  0
ARC
  5
172
330
1F
100
AcDbEntity
  8
D-2
  6
Continuous
 62
    30
370
     5
100
AcDbCircle
 10
36.79794069167735
 20
7.030206559353928
 30
0.0
 40
2.499999761581421
100
AcDbArc
 50
0.0
 51
180.2850189208984
  0
ARC
  5
173
330
1F
100
AcDbEntity
  8
D-2
  6
Continuous
 62
    30
370
     5
100
AcDbCircle
 10
36.79794069167735
 20
7.030206559353928
 30
0.0
 40
2.200000047683716
100
AcDbArc
 50
0.0
 51
180.0606536865234
  0
ARC
  5
174
330
1F
100
AcDbEntity
  8
D-2
  6
Continuous
 62
    30
370
     5
100
AcDbCircle
 10
40.29783388015392
 20
-0.313337446993728
 30
0.0
 40
1.0
100
AcDbArc
 50
180.0
 51
324.4627838134766
  0
ARC
  5
175
330
1F
100
AcDbEntity
  8
D-2
  6
Continuous
 62
    30
370
     5
100
AcDbCircle
 10
40.29783388015392
 20
-0.313337446993728
 30
0.0
 40
1.300000071525574
100
AcDbArc
 50
180.0
 51
324.4627838134766
  0
ARC
  5
176
330
1F
100
AcDbEntity
  8
D-0
  6
Continuous
 62
     3
370
     9
100
AcDbCircle
 10
-38.57385877731679
 20
-3.719984175509353
 30
0.0
 40
1.649999856948853
100
AcDbArc
 50
160.0
 51
270.0
  0
ARC
  5
177
330
1F
100
AcDbEntity
  8
D-0
  6
Continuous
 62
     3
370
     9
100
AcDbCircle
 10
53.74955507156017
 20
-3.369787337130447
 30
0.0
 40
1.0
100
AcDbArc
 50
270.0
 51
359.999984741211
  0
ARC
  5
178
330
1F
100
AcDbEntity
  8
D-0
  6
Continuous
 62
     3
370
     9
100
AcDbCircle
 10
53.74955507156017
 20
4.630151627713303
 30
0.0
 40
1.0
100
AcDbArc
 50
359.9999847412109
 51
90.00003051757811
  0
ARC
  5
179
330
1F
100
AcDbEntity
  8
D-0
  6
Continuous
 62
     3
370
     9
100
AcDbCircle
 10
53.74955507156017
 20
-3.369787337130447
 30
0.0
 40
2.0
100
AcDbArc
 50
270.0
 51
359.999984741211
  0
ARC
  5
17A
330
1F
100
AcDbEntity
  8
D-0
  6
Continuous
 62
     3
370
     9
100
AcDbCircle
 10
53.74955507156017
 20
4.630151627713303
 30
0.0
 40
2.0
100
AcDbArc
 50
359.9999847412109
 51
90.00003051757811
  0
ARC
  5
17B
330
1F
100
AcDbEntity
  8
D-0
  6
Continuous
 62
     3
370
     9
100
AcDbCircle
 10
-38.57385877731679
 20
-3.719984175509353
 30
0.0
 40
0.6499999761581421
100
AcDbArc
 50
160.0
 51
270.0
  0
ARC
  5
17C
330
1F
100
AcDbEntity
  8
D-2
  6
Continuous
 62
     4
370
     9
100
AcDbCircle
 10
-38.57385877731679
 20
-3.719984175509353
 30
0.0
 40
2.150148153305054
100
AcDbArc
 50
160.0
 51
199.1111450195312
  0
ARC
  5
17D
330
1F
100
AcDbEntity
  8
D-2
  6
Continuous
 62
     4
370
     9
100
AcDbCircle
 10
-38.57385877731679
 20
-3.719984175509353
 30
0.0
 40
1.650185823440552
100
AcDbArc
 50
160.0
 51
215.2822265625
  0
ARC
  5
17E
330
1F
100
AcDbEntity
  8
D-1
  6
Continuous
 62
     2
370
     9
100
AcDbCircle
 10
-39.5021691716039
 20
7.630212662869553
 30
0.0
 40
2.500000238418579
100
AcDbArc
 50
36.8702392578125
 51
323.1303253173828
  0
ARC
  5
17F
330
1F
100
AcDbEntity
  8
D-1
  6
Continuous
 62
     2
370
     9
100
AcDbCircle
 10
-37.7022309696996
 20
-3.069730879610916
 30
0.0
 40
1.299999952316284
100
AcDbArc
 50
179.9989013671875
 51
270.0
  0
ARC
  5
180
330
1F
100
AcDbEntity
  8
D-1
  6
Continuous
 62
     2
370
     9
100
AcDbCircle
 10
-26.51553587082265
 20
-0.487745405978103
 30
0.0
 40
1.5
100
AcDbArc
 50
0.0
 51
73.39295959472656
  0
ARC
  5
181
330
1F
100
AcDbEntity
  8
D-1
  6
Continuous
 62
     2
370
     9
100
AcDbCircle
 10
-26.51553587082265
 20
-0.869794966524978
 30
0.0
 40
1.5
100
AcDbArc
 50
270.0
 51
0.0
  0
ARC
  5
182
330
1F
100
AcDbEntity
  8
D-1
  6
Continuous
 62
     2
370
     9
100
AcDbCircle
 10
-46.52137617233632
 20
28.63561427419768
 30
0.0
 40
0.4999972879886627
100
AcDbArc
 50
302.9296264648438
 51
122.9299011230469
  0
ARC
  5
183
330
1F
100
AcDbEntity
  8
D-1
  6
Continuous
 62
     2
370
     9
100
AcDbCircle
 10
-51.68574766281483
 20
36.60920131033049
 30
0.0
 40
8.999998092651367
100
AcDbArc
 50
273.7974548339844
 51
302.9298095703125
  0
ARC
  5
184
330
1F
100
AcDbEntity
  8
D-1
  6
Continuous
 62
     2
370
     9
100
AcDbCircle
 10
-51.68574766281483
 20
36.60920131033049
 30
0.0
 40
10.00000095367432
100
AcDbArc
 50
273.7974548339844
 51
302.9298095703125
  0
ARC
  5
185
330
1F
100
AcDbEntity
  8
D-1
  6
Continuous
 62
     2
370
     9
100
AcDbCircle
 10
-50.19696287277577
 20
18.53707301443205
 30
0.0
 40
0.4999972879886627
100
AcDbArc
 50
197.070068359375
 51
17.07034301757812
  0
ARC
  5
186
330
1F
100
AcDbEntity
  8
D-1
  6
Continuous
 62
     2
370
     9
100
AcDbCircle
 10
-59.2785077488744
 20
15.74837672536955
 30
0.0
 40
8.999998092651367
100
AcDbArc
 50
17.07015991210938
 51
46.2025146484375
  0
ARC
  5
187
330
1F
100
AcDbEntity
  8
D-1
  6
Continuous
 62
     2
370
     9
100
AcDbCircle
 10
-59.2785077488744
 20
15.74837672536955
 30
0.0
 40
10.00000095367432
100
AcDbArc
 50
17.07015991210938
 51
46.2025146484375
  0
ARC
  5
188
330
1F
100
AcDbEntity
  8
D-1
  6
Continuous
 62
     2
370
     9
100
AcDbCircle
 10
-37.05222562912343
 20
20.42852198904143
 30
0.0
 40
2.899999618530273
100
AcDbArc
 50
339.9999847412109
 51
69.99998474121092
  0
ARC
  5
189
330
1F
100
AcDbEntity
  8
D-1
  6
Continuous
 62
     2
370
     9
100
AcDbCircle
 10
-37.66794447067616
 20
18.73719203298674
 30
0.0
 40
2.899999618530273
100
AcDbArc
 50
249.9999847412109
 51
339.9999847412109
  0
ARC
  5
18A
330
1F
100
AcDbEntity
  8
D-1
  6
JWW_DASHED1
 62
     2
370
     9
100
AcDbCircle
 10
-35.43070463302968
 20
17.82091700857268
 30
0.0
 40
0.5
100
AcDbArc
 50
325.5854949951172
 51
69.99998474121092
  0
ARC
  5
18B
330
1F
100
AcDbEntity
  8
D-1
  6
JWW_DASHED1
 62
     2
370
     9
100
AcDbCircle
 10
-34.7494836247289
 20
19.69230067556487
 30
0.0
 40
0.5
100
AcDbArc
 50
249.9999847412109
 51
354.4144744873047
  0
ARC
  5
18C
330
1F
100
AcDbEntity
  8
D-1
  6
Continuous
 62
     2
370
     9
100
AcDbCircle
 10
-39.5021691716039
 20
7.630212662869553
 30
0.0
 40
2.75
100
AcDbArc
 50
53.11602783203125
 51
306.8839721679688
  0
ARC
  5
18D
330
1F
100
AcDbEntity
  8
D-1
  6
Continuous
 62
     2
370
     9
100
AcDbCircle
 10
-37.25145200851796
 20
4.630746720486741
 30
0.0
 40
0.9999978542327881
100
AcDbArc
 50
306.8843383789062
 51
126.8843383789062
  0
ARC
  5
18E
330
1F
100
AcDbEntity
  8
D-1
  6
Continuous
 62
     2
370
     9
100
AcDbCircle
 10
-39.5021691716039
 20
7.630212662869553
 30
0.0
 40
4.75
100
AcDbArc
 50
180.0
 51
306.8839721679688
  0
ARC
  5
18F
330
1F
100
AcDbEntity
  8
D-1
  6
Continuous
 62
     2
370
     9
100
AcDbCircle
 10
-37.25145200851796
 20
10.62967860525237
 30
0.0
 40
0.9999943971633911
100
AcDbArc
 50
233.1156616210938
 51
70.00062561035155
  0
ARC
  5
190
330
1F
100
AcDbEntity
  8
D-1
  6
Continuous
 62
     2
370
     9
100
AcDbCircle
 10
-20.00229887131093
 20
73.56209742849455
 30
0.0
 40
7.177994728088379
100
AcDbArc
 50
71.39071655273438
 51
108.6092834472656
  0
ARC
  5
191
330
1F
100
AcDbEntity
  8
D-1
  6
Continuous
 62
     2
370
     9
100
AcDbCircle
 10
-23.44759611252186
 20
78.77601039236174
 30
0.0
 40
1.964050769805908
100
AcDbArc
 50
53.99093627929688
 51
126.0090637207031
  0
ARC
  5
192
330
1F
100
AcDbEntity
  8
D-1
  6
Continuous
 62
     2
370
     9
100
AcDbCircle
 10
-16.55696348312733
 20
78.77591883962737
 30
0.0
 40
1.964104652404785
100
AcDbArc
 50
53.99113464355469
 51
126.0088653564453
  0
CIRCLE
  5
193
330
1F
100
AcDbEntity
  8
D-2
  6
Continuous
 62
     4
370
     9
100
AcDbCircle
 10
-23.85228971603749
 20
76.14011561697112
 30
0.0
 40
0.6000000238418579
  0
CIRCLE
  5
194
330
1F
100
AcDbEntity
  8
D-2
  6
Continuous
 62
     4
370
     9
100
AcDbCircle
 10
-16.65223936203358
 20
27.34006678884612
 30
0.0
 40
0.6000000238418579
  0
CIRCLE
  5
195
330
1F
100
AcDbEntity
  8
D-2
  6
Continuous
 62
     4
370
     9
100
AcDbCircle
 10
-16.65223936203358
 20
30.51339137380705
 30
0.0
 40
0.6000000238418579
  0
CIRCLE
  5
196
330
1F
100
AcDbEntity
  8
D-2
  6
Continuous
 62
     4
370
     9
100
AcDbCircle
 10
-23.85228971603749
 20
28.54003321951018
 30
0.0
 40
0.6000000238418579
  0
CIRCLE
  5
197
330
1F
100
AcDbEntity
  8
D-2
  6
Continuous
 62
     4
370
     9
100
AcDbCircle
 10
-23.85228971603749
 20
27.34006678884612
 30
0.0
 40
0.6000000238418579
  0
CIRCLE
  5
198
330
1F
100
AcDbEntity
  8
D-2
  6
Continuous
 62
     4
370
     9
100
AcDbCircle
 10
-16.65223936203358
 20
76.14011561697112
 30
0.0
 40
0.6000000238418579
  0
CIRCLE
  5
199
330
1F
100
AcDbEntity
  8
D-2
  6
Continuous
 62
     4
370
     9
100
AcDbCircle
 10
-16.65223936203358
 20
74.94010340993987
 30
0.0
 40
0.6000000238418579
  0
CIRCLE
  5
19A
330
1F
100
AcDbEntity
  8
D-2
  6
Continuous
 62
     4
370
     9
100
AcDbCircle
 10
-23.85228971603749
 20
72.96674525564299
 30
0.0
 40
0.6000000238418579
  0
CIRCLE
  5
19B
330
1F
100
AcDbEntity
  8
D-2
  6
Continuous
 62
     4
370
     9
100
AcDbCircle
 10
-16.65223936203358
 20
34.71537196462737
 30
0.0
 40
0.6000000238418579
  0
CIRCLE
  5
19C
330
1F
100
AcDbEntity
  8
D-2
  6
Continuous
 62
     4
370
     9
100
AcDbCircle
 10
-23.85228971603749
 20
32.74205958669768
 30
0.0
 40
0.6000000238418579
  0
CIRCLE
  5
19D
330
1F
100
AcDbEntity
  8
D-2
  6
Continuous
 62
     4
370
     9
100
AcDbCircle
 10
-16.65223936203358
 20
38.31737696951018
 30
0.0
 40
0.6000000238418579
  0
CIRCLE
  5
19E
330
1F
100
AcDbEntity
  8
D-2
  6
Continuous
 62
     4
370
     9
100
AcDbCircle
 10
-23.85228971603749
 20
36.34406459158049
 30
0.0
 40
0.6000000238418579
  0
CIRCLE
  5
19F
330
1F
100
AcDbEntity
  8
D-2
  6
Continuous
 62
     4
370
     9
100
AcDbCircle
 10
-16.65223936203358
 20
67.13338649099455
 30
0.0
 40
0.6000000238418579
  0
CIRCLE
  5
1A0
330
1F
100
AcDbEntity
  8
D-2
  6
Continuous
 62
     4
370
     9
100
AcDbCircle
 10
-23.85228971603749
 20
65.16004359548674
 30
0.0
 40
0.6000000238418579
  0
CIRCLE
  5
1A1
330
1F
100
AcDbEntity
  8
D-2
  6
Continuous
 62
     4
370
     9
100
AcDbCircle
 10
-16.65223936203358
 20
70.73534571951018
 30
0.0
 40
0.6000000238418579
  0
CIRCLE
  5
1A2
330
1F
100
AcDbEntity
  8
D-2
  6
Continuous
 62
     4
370
     9
100
AcDbCircle
 10
-23.85228971603749
 20
68.76200282400237
 30
0.0
 40
0.6000000238418579
  0
ARC
  5
1A3
330
1F
100
AcDbEntity
  8
D-1
  6
JWW_DASHED1
 62
     2
370
     9
100
AcDbCircle
 10
-20.99795011642811
 20
-0.8437863605679468
 30
0.0
 40
0.5
100
AcDbArc
 50
255.5855102539062
 51
0.0
  0
ARC
  5
1A4
330
1F
100
AcDbEntity
  8
D-1
  6
JWW_DASHED1
 62
     2
370
     9
100
AcDbCircle
 10
-19.00670866134999
 20
-0.8437863605679468
 30
0.0
 40
0.5
100
AcDbArc
 50
180.0
 51
284.4144897460938
  0
ARC
  5
1A5
330
1F
100
AcDbEntity
  8
D-1
  6
Continuous
 62
     2
370
     9
100
AcDbCircle
 10
-20.00229887131093
 20
3.030282853299241
 30
0.0
 40
4.500000476837158
100
AcDbArc
 50
195.4659729003907
 51
344.5340270996094
  0
LWPOLYLINE
  5
1A6
330
1F
100
AcDbEntity
  8
D-5
  6
Continuous
 62
     7
370
     9
100
AcDbPolyline
 90
        4
 70
     1
 43
0.4
 10
40.72178712722423
 20
-5.369894148653884
 42
0.4142135623731
 10
40.52178712722423
 20
-5.169894148653884
 42
0.4142135623731
 10
40.32178712722423
 20
-5.369894148653884
 42
0.4142135623731
 10
40.52178712722423
 20
-5.569894148653884
 42
0.4142135623731
  0
LWPOLYLINE
  5
1A7
330
1F
100
AcDbEntity
  8
D-5
  6
Continuous
 62
     7
370
     9
100
AcDbPolyline
 90
        4
 70
     1
 43
0.4
 10
40.72178712722423
 20
-4.369840742892166
 42
0.4142135623731
 10
40.52178712722423
 20
-4.169840742892165
 42
0.4142135623731
 10
40.32178712722423
 20
-4.369840742892166
 42
0.4142135623731
 10
40.52178712722423
 20
-4.569840742892166
 42
0.4142135623731
  0
LWPOLYLINE
  5
1A8
330
1F
100
AcDbEntity
  8
D-5
  6
Continuous
 62
     7
370
     9
100
AcDbPolyline
 90
        4
 70
     1
 43
0.4
 10
-44.05232938888905
 20
113.2696627361117
 42
0.4142135623731
 10
-44.25232938888905
 20
113.4696627361117
 42
0.4142135623731
 10
-44.45232938888905
 20
113.2696627361117
 42
0.4142135623731
 10
-44.25232938888905
 20
113.0696627361117
 42
0.4142135623731
  0
LWPOLYLINE
  5
1A9
330
1F
100
AcDbEntity
  8
D-5
  6
Continuous
 62
     7
370
     9
100
AcDbPolyline
 90
        4
 70
     1
 43
0.4
 10
5.947708758083604
 20
113.2696627361117
 42
0.4142135623731
 10
5.747708758083604
 20
113.4696627361117
 42
0.4142135623731
 10
5.547708758083604
 20
113.2696627361117
 42
0.4142135623731
 10
5.747708758083604
 20
113.0696627361117
 42
0.4142135623731
  0
LWPOLYLINE
  5
1AA
330
1F
100
AcDbEntity
  8
D-5
  6
Continuous
 62
     7
370
     9
100
AcDbPolyline
 90
        4
 70
     1
 43
0.4
 10
-81.74947532776234
 20
9.63031947439299
 42
0.4142135623731
 10
-81.94947532776234
 20
9.83031947439299
 42
0.4142135623731
 10
-82.14947532776235
 20
9.63031947439299
 42
0.4142135623731
 10
-81.94947532776234
 20
9.430319474392991
 42
0.4142135623731
  0
LWPOLYLINE
  5
1AB
330
1F
100
AcDbEntity
  8
D-5
  6
Continuous
 62
     7
370
     9
100
AcDbPolyline
 90
        4
 70
     1
 43
0.4
 10
-81.74947532776234
 20
22.09151637380705
 42
0.4142135623731
 10
-81.94947532776234
 20
22.29151637380705
 42
0.4142135623731
 10
-82.14947532776235
 20
22.09151637380705
 42
0.4142135623731
 10
-81.94947532776234
 20
21.89151637380705
 42
0.4142135623731
  0
LWPOLYLINE
  5
1AC
330
1F
100
AcDbEntity
  8
D-5
  6
Continuous
 62
     7
370
     9
100
AcDbPolyline
 90
        4
 70
     1
 43
0.4
 10
99.99150148269298
 20
-5.369894148653884
 42
0.4142135623731
 10
99.79150148269298
 20
-5.169894148653884
 42
0.4142135623731
 10
99.59150148269298
 20
-5.369894148653884
 42
0.4142135623731
 10
99.79150148269298
 20
-5.569894148653884
 42
0.4142135623731
  0
LWPOLYLINE
  5
1AD
330
1F
100
AcDbEntity
  8
D-5
  6
Continuous
 62
     7
370
     9
100
AcDbPolyline
 90
        4
 70
     1
 43
0.4
 10
99.99150148269298
 20
9.63031947439299
 42
0.4142135623731
 10
99.79150148269298
 20
9.83031947439299
 42
0.4142135623731
 10
99.59150148269298
 20
9.63031947439299
 42
0.4142135623731
 10
99.79150148269298
 20
9.430319474392991
 42
0.4142135623731
  0
LWPOLYLINE
  5
1AE
330
1F
100
AcDbEntity
  8
D-5
  6
Continuous
 62
     7
370
     9
100
AcDbPolyline
 90
        4
 70
     1
 43
0.4
 10
55.94957033034923
 20
-47.34135258371248
 42
0.4142135623731
 10
55.74957033034923
 20
-47.14135258371248
 42
0.4142135623731
 10
55.54957033034923
 20
-47.34135258371248
 42
0.4142135623731
 10
55.74957033034923
 20
-47.54135258371248
 42
0.4142135623731
  0
LWPOLYLINE
  5
1AF
330
1F
100
AcDbEntity
  8
D-5
  6
Continuous
 62
     7
370
     9
100
AcDbPolyline
 90
        4
 70
     1
 43
0.4
 10
-44.05232938888905
 20
-47.34135258371248
 42
0.4142135623731
 10
-44.25232938888905
 20
-47.14135258371248
 42
0.4142135623731
 10
-44.45232938888905
 20
-47.34135258371248
 42
0.4142135623731
 10
-44.25232938888905
 20
-47.54135258371248
 42
0.4142135623731
  0
TEXT
  5
1B0
330
1F
100
AcDbEntity
  8
D-5
  6
Continuous
 62
     2
370
     9
100
AcDbText
 10
37.77345631667735
 20
-19.84045236446424
 30
0.0
 40
6.096
  1
1.0
 50
90.00000250447823
 41
1.083333333333334
  7
ＭＳ ゴシック
100
AcDbText
  0
TEXT
  5
1B1
330
1F
100
AcDbEntity
  8
D-5
  6
Continuous
 62
     2
370
     9
100
AcDbText
 10
-23.5022912419164
 20
116.3976627361117
 30
0.0
 40
6.096
  1
50
 41
1.0625
  7
ＭＳ ゴシック
100
AcDbText
  0
TEXT
  5
1B2
330
1F
100
AcDbEntity
  8
D-5
  6
Continuous
 62
     2
370
     9
100
AcDbText
 10
-0.7513604557835833
 20
-44.21333732492342
 30
0.0
 40
6.096
  1
100
 41
1.083333333333333
  7
ＭＳ ゴシック
100
AcDbText
  0
TEXT
  5
1B3
330
1F
100
AcDbEntity
  8
D-5
  6
Continuous
 62
     2
370
     9
100
AcDbText
 10
96.66348622390392
 20
-2.119764498253303
 30
0.0
 40
6.096
  1
15
 50
90.00000250447829
 41
1.062500000000001
  7
ＭＳ ゴシック
100
AcDbText
  0
TEXT
  5
1B4
330
1F
100
AcDbEntity
  8
D-5
  6
Continuous
 62
     2
370
     9
100
AcDbText
 10
-85.07748438766835
 20
11.61086446903185
 30
0.0
 40
6.096
  1
13
 50
90.00000250447816
 41
1.062500000000001
  7
ＭＳ ゴシック
100
AcDbText
  0
TEXT
  5
1B5
330
1F
100
AcDbEntity
  8
D-4
  6
Continuous
 62
     2
370
     9
100
AcDbText
 10
31.72547670241954
 20
-62.67693366891756
 30
0.0
 40
6.096
  1
ホルダー：アルミ　＠５００
 41
1.115384615384615
  7
ＭＳ ゴシック
100
AcDbText
  0
TEXT
  5
1B6
330
1F
100
AcDbEntity
  8
D-4
  6
Continuous
 62
     2
370
     9
100
AcDbText
 10
-7.674448529514052
 20
-78.89204444772615
 30
0.0
 40
6.096
  1
カバー：ＳＵＳ３０４　Ｈ．Ｌ．ｔ＝１．０
 41
1.11875
  7
ＭＳ ゴシック
100
AcDbText
  0
TEXT
  5
1B7
330
1F
100
AcDbEntity
  8
D-4
  6
Continuous
 62
     2
370
     9
100
AcDbText
 10
63.99917532302427
 20
-27.96760978586223
 30
0.0
 40
6.096
  1
クリップ
 50
359.9999125736164
 41
1.09375
  7
ＭＳ ゴシック
100
AcDbText
  0
LINE
  5
1B8
330
1F
100
AcDbEntity
  8
D-4
  6
Continuous
 62
     7
370
     9
100
AcDbLine
 10
11.78130005007793
 20
7.510035196827729
 30
0.0
 11
13.64072368746807
 21
12.15142993121036
 31
0.0
  0
LINE
  5
1B9
330
1F
100
AcDbEntity
  8
D-4
  6
Continuous
 62
     7
370
     9
100
AcDbLine
 10
11.78130005007793
 20
7.510035196827729
 30
0.0
 11
14.77864692812969
 21
11.51202384619602
 31
0.0
  0
LINE
  5
1BA
330
1F
100
AcDbEntity
  8
D-4
  6
Continuous
 62
     7
370
     9
100
AcDbLine
 10
43.66523168688823
 20
64.25248018889313
 30
0.0
 11
11.78130005007793
 21
7.510035196827729
 31
0.0
  0
LINE
  5
1BB
330
1F
100
AcDbEntity
  8
D-0
  6
JWW_CENTER2
 62
     7
370
     9
100
AcDbLine
 10
38.17321916457774
 20
9.182007668667922
 30
0.0
 11
37.72829194900157
 21
9.277293561154494
 31
0.0
  0
LINE
  5
1BC
330
1F
100
AcDbEntity
  8
D-0
  6
JWW_CENTER2
 62
     7
370
     9
100
AcDbLine
 10
37.72829194900157
 20
9.277293561154494
 30
0.0
 11
36.96357103225353
 21
9.429979203396925
 31
0.0
  0
LINE
  5
1BD
330
1F
100
AcDbEntity
  8
D-0
  6
JWW_CENTER2
 62
     7
370
     9
100
AcDbLine
 10
36.96357103225353
 20
9.429979203396925
 30
0.0
 11
36.20550676223399
 21
9.550443051510939
 31
0.0
  0
LINE
  5
1BE
330
1F
100
AcDbEntity
  8
D-0
  6
JWW_CENTER2
 62
     7
370
     9
100
AcDbLine
 10
36.20550676223399
 20
9.550443051510939
 30
0.0
 11
35.45831056472423
 21
9.618291257077345
 31
0.0
  0
LINE
  5
1BF
330
1F
100
AcDbEntity
  8
D-0
  6
JWW_CENTER2
 62
     7
370
     9
100
AcDbLine
 10
35.45831056472423
 20
9.618291257077345
 30
0.0
 11
34.72619386550548
 21
9.613130448514113
 31
0.0
  0
LINE
  5
1C0
330
1F
100
AcDbEntity
  8
D-0
  6
JWW_CENTER2
 62
     7
370
     9
100
AcDbLine
 10
34.72619386550548
 20
9.613130448514113
 30
0.0
 11
34.01336809035899
 21
9.51456725423921
 31
0.0
  0
LINE
  5
1C1
330
1F
100
AcDbEntity
  8
D-0
  6
JWW_CENTER2
 62
     7
370
     9
100
AcDbLine
 10
34.01336809035899
 20
9.51456725423921
 30
0.0
 11
33.61042924758556
 21
9.406567452603468
 31
0.0
  0
LINE
  5
1C2
330
1F
100
AcDbEntity
  8
D-0
  6
JWW_CENTER2
 62
     7
370
     9
100
AcDbLine
 10
33.61042924758556
 20
9.406567452603468
 30
0.0
 11
33.33018632766368
 21
9.305683015042433
 31
0.0
  0
LINE
  5
1C3
330
1F
100
AcDbEntity
  8
D-0
  6
JWW_CENTER2
 62
     7
370
     9
100
AcDbLine
 10
33.33018632766368
 20
9.305683015042433
 30
0.0
 11
32.85466905471446
 21
9.093544839078078
 31
0.0
  0
LINE
  5
1C4
330
1F
100
AcDbEntity
  8
D-0
  6
JWW_CENTER2
 62
     7
370
     9
100
AcDbLine
 10
32.85466905471446
 20
9.093544839078078
 30
0.0
 11
32.3849157893336
 21
8.850513337308058
 31
0.0
  0
LINE
  5
1C5
330
1F
100
AcDbEntity
  8
D-0
  6
JWW_CENTER2
 62
     7
370
     9
100
AcDbLine
 10
32.3849157893336
 20
8.850513337308058
 30
0.0
 11
31.91634126540782
 21
8.596887467557082
 31
0.0
  0
LINE
  5
1C6
330
1F
100
AcDbEntity
  8
D-0
  6
JWW_CENTER2
 62
     7
370
     9
100
AcDbLine
 10
31.91634126540782
 20
8.596887467557082
 30
0.0
 11
31.44435258742931
 21
8.352968094998488
 31
0.0
  0
LINE
  5
1C7
330
1F
100
AcDbEntity
  8
D-0
  6
JWW_CENTER2
 62
     7
370
     9
100
AcDbLine
 10
31.44435258742931
 20
8.352968094998488
 30
0.0
 11
30.96437211867931
 21
8.139056084805617
 31
0.0
  0
LINE
  5
1C8
330
1F
100
AcDbEntity
  8
D-0
  6
JWW_CENTER2
 62
     7
370
     9
100
AcDbLine
 10
30.96437211867931
 20
8.139056084805617
 30
0.0
 11
30.68051286574962
 21
8.03673636739839
 31
0.0
  0
LINE
  5
1C9
330
1F
100
AcDbEntity
  8
D-0
  6
JWW_CENTER2
 62
     7
370
     9
100
AcDbLine
 10
30.68051286574962
 20
8.03673636739839
 30
0.0
 11
30.40070863601329
 21
7.956468461209425
 31
0.0
  0
LINE
  5
1CA
330
1F
100
AcDbEntity
  8
D-0
  6
JWW_CENTER2
 62
     7
370
     9
100
AcDbLine
 10
30.40070863601329
 20
7.956468461209425
 30
0.0
 11
29.90840669509532
 21
7.857461808377394
 31
0.0
  0
LINE
  5
1CB
330
1F
100
AcDbEntity
  8
D-0
  6
JWW_CENTER2
 62
     7
370
     9
100
AcDbLine
 10
29.90840669509532
 20
7.857461808377394
 30
0.0
 11
29.40578790542247
 21
7.798190949612746
 31
0.0
  0
LINE
  5
1CC
330
1F
100
AcDbEntity
  8
D-0
  6
JWW_CENTER2
 62
     7
370
     9
100
AcDbLine
 10
29.40578790542247
 20
7.798190949612746
 30
0.0
 11
28.89537378188732
 21
7.766887543851027
 31
0.0
  0
LINE
  5
1CD
330
1F
100
AcDbEntity
  8
D-0
  6
JWW_CENTER2
 62
     7
370
     9
100
AcDbLine
 10
28.89537378188732
 20
7.766887543851027
 30
0.0
 11
28.3796953761256
 21
7.75178706472505
 31
0.0
  0
LINE
  5
1CE
330
1F
100
AcDbEntity
  8
D-0
  6
JWW_CENTER2
 62
     7
370
     9
100
AcDbLine
 10
28.3796953761256
 20
7.75178706472505
 30
0.0
 11
27.86127992507579
 21
7.741120217496047
 31
0.0
  0
LINE
  5
1CF
330
1F
100
AcDbEntity
  8
D-0
  6
JWW_CENTER2
 62
     7
370
     9
100
AcDbLine
 10
27.86127992507579
 20
7.741120217496047
 30
0.0
 11
27.5603422724879
 21
7.732329247647414
 31
0.0
  0
LINE
  5
1D0
330
1F
100
AcDbEntity
  8
D-0
  6
JWW_CENTER2
 62
     7
370
     9
100
AcDbLine
 10
27.5603422724879
 20
7.732329247647414
 30
0.0
 11
26.33641382094982
 21
7.651341317349562
 31
0.0
  0
LINE
  5
1D1
330
1F
100
AcDbEntity
  8
D-0
  6
JWW_CENTER2
 62
     7
370
     9
100
AcDbLine
 10
26.33641382094982
 20
7.651341317349562
 30
0.0
 11
24.2422155940211
 21
7.372477410489211
 31
0.0
  0
LINE
  5
1D2
330
1F
100
AcDbEntity
  8
D-0
  6
JWW_CENTER2
 62
     7
370
     9
100
AcDbLine
 10
24.2422155940211
 20
7.372477410489211
 30
0.0
 11
22.16747041579845
 21
6.98840987508882
 31
0.0
  0
LINE
  5
1D3
330
1F
100
AcDbEntity
  8
D-0
  6
JWW_CENTER2
 62
     7
370
     9
100
AcDbLine
 10
22.16747041579845
 20
6.98840987508882
 30
0.0
 11
20.11121316787364
 21
6.581740258389601
 31
0.0
  0
LINE
  5
1D4
330
1F
100
AcDbEntity
  8
D-0
  6
JWW_CENTER2
 62
     7
370
     9
100
AcDbLine
 10
20.11121316787364
 20
6.581740258389601
 30
0.0
 11
18.07247873183849
 21
6.235070107632765
 31
0.0
  0
LINE
  5
1D5
330
1F
100
AcDbEntity
  8
D-0
  6
JWW_CENTER2
 62
     7
370
     9
100
AcDbLine
 10
18.07247873183849
 20
6.235070107632765
 30
0.0
 11
16.05030389663341
 21
6.031000016385207
 31
0.0
  0
LINE
  5
1D6
330
1F
100
AcDbEntity
  8
D-0
  6
JWW_CENTER2
 62
     7
370
     9
100
AcDbLine
 10
16.05030389663341
 20
6.031000016385207
 30
0.0
 11
14.88464876052501
 21
6.010527489834914
 31
0.0
  0
LINE
  5
1D7
330
1F
100
AcDbEntity
  8
D-0
  6
JWW_CENTER2
 62
     7
370
     9
100
AcDbLine
 10
14.88464876052501
 20
6.010527489834914
 30
0.0
 11
14.0768103205836
 21
6.046986458951125
 31
0.0
  0
LINE
  5
1D8
330
1F
100
AcDbEntity
  8
D-0
  6
JWW_CENTER2
 62
     7
370
     9
100
AcDbLine
 10
14.0768103205836
 20
6.046986458951125
 30
0.0
 11
12.68374677535655
 21
6.186375497037062
 31
0.0
  0
LINE
  5
1D9
330
1F
100
AcDbEntity
  8
D-0
  6
JWW_CENTER2
 62
     7
370
     9
100
AcDbLine
 10
12.68374677535655
 20
6.186375497037062
 30
0.0
 11
11.28132768508556
 21
6.380630372220168
 31
0.0
  0
LINE
  5
1DA
330
1F
100
AcDbEntity
  8
D-0
  6
JWW_CENTER2
 62
     7
370
     9
100
AcDbLine
 10
11.28132768508556
 20
6.380630372220168
 30
0.0
 11
9.859033068386339
 21
6.580905793362746
 31
0.0
  0
LINE
  5
1DB
330
1F
100
AcDbEntity
  8
D-0
  6
JWW_CENTER2
 62
     7
370
     9
100
AcDbLine
 10
9.859033068386339
 20
6.580905793362746
 30
0.0
 11
8.40634294387462
 21
6.738360284024367
 31
0.0
  0
LINE
  5
1DC
330
1F
100
AcDbEntity
  8
D-0
  6
JWW_CENTER2
 62
     7
370
     9
100
AcDbLine
 10
8.40634294387462
 20
6.738360284024367
 30
0.0
 11
6.912737330166124
 21
6.804148553067336
 31
0.0
  0
LINE
  5
1DD
330
1F
100
AcDbEntity
  8
D-0
  6
JWW_CENTER2
 62
     7
370
     9
100
AcDbLine
 10
6.912737330166124
 20
6.804148553067336
 30
0.0
 11
6.023552378383926
 21
6.781058190518507
 31
0.0
  0
LINE
  5
1DE
330
1F
100
AcDbEntity
  8
D-0
  6
JWW_CENTER2
 62
     7
370
     9
100
AcDbLine
 10
6.023552378383926
 20
6.781058190518507
 30
0.0
 11
4.573752840725234
 21
6.637939332181105
 31
0.0
  0
LINE
  5
1DF
330
1F
100
AcDbEntity
  8
D-0
  6
JWW_CENTER2
 62
     7
370
     9
100
AcDbLine
 10
4.573752840725234
 20
6.637939332181105
 30
0.0
 11
2.014755686489394
 21
6.193937180691847
 31
0.0
  0
LINE
  5
1E0
330
1F
100
AcDbEntity
  8
D-0
  6
JWW_CENTER2
 62
     7
370
     9
100
AcDbLine
 10
2.014755686489394
 20
6.193937180691847
 30
0.0
 11
-0.5353691971623391
 21
5.71177470510591
 31
0.0
  0
LINE
  5
1E1
330
1F
100
AcDbEntity
  8
D-0
  6
JWW_CENTER2
 62
     7
370
     9
100
AcDbLine
 10
-0.5353691971623391
 20
5.71177470510591
 30
0.0
 11
-2.978957096370408
 21
5.437398789578566
 31
0.0
  0
LINE
  5
1E2
330
1F
100
AcDbEntity
  8
D-0
  6
JWW_CENTER2
 62
     7
370
     9
100
AcDbLine
 10
-2.978957096370408
 20
5.437398789578566
 30
0.0
 11
-5.21834448936815
 21
5.616760132962355
 31
0.0
  0
LINE
  5
1E3
330
1F
100
AcDbEntity
  8
D-0
  6
JWW_CENTER2
 62
     7
370
     9
100
AcDbLine
 10
-5.21834448936815
 20
5.616760132962355
 30
0.0
 11
-7.155867615970323
 21
6.495806573086867
 31
0.0
  0
LINE
  5
1E4
330
1F
100
AcDbEntity
  8
D-0
  6
JWW_CENTER2
 62
     7
370
     9
100
AcDbLine
 10
-7.155867615970323
 20
6.495806573086867
 30
0.0
 11
-8.102831879886338
 21
7.423166154080519
 31
0.0
  0
LINE
  5
1E5
330
1F
100
AcDbEntity
  8
D-0
  6
JWW_CENTER2
 62
     7
370
     9
100
AcDbLine
 10
-8.102831879886338
 20
7.423166154080519
 30
0.0
 11
-8.246178666385362
 21
7.612039445096144
 31
0.0
  0
LINE
  5
1E6
330
1F
100
AcDbEntity
  8
D-0
  6
JWW_CENTER2
 62
     7
370
     9
100
AcDbLine
 10
-8.246178666385362
 20
7.612039445096144
 30
0.0
 11
-8.47731641891832
 21
7.956580041104445
 31
0.0
  0
LINE
  5
1E7
330
1F
100
AcDbEntity
  8
D-0
  6
JWW_CENTER2
 62
     7
370
     9
100
AcDbLine
 10
-8.47731641891832
 20
7.956580041104445
 30
0.0
 11
-8.679168263705918
 21
8.317373154812941
 31
0.0
  0
LINE
  5
1E8
330
1F
100
AcDbEntity
  8
D-0
  6
JWW_CENTER2
 62
     7
370
     9
100
AcDbLine
 10
-8.679168263705918
 20
8.317373154812941
 30
0.0
 11
-8.841246167453477
 21
8.6855057460605
 31
0.0
  0
LINE
  5
1E9
330
1F
100
AcDbEntity
  8
D-0
  6
JWW_CENTER2
 62
     7
370
     9
100
AcDbLine
 10
-8.841246167453477
 20
8.6855057460605
 30
0.0
 11
-8.953063050540635
 21
9.052063821011672
 31
0.0
  0
LINE
  5
1EA
330
1F
100
AcDbEntity
  8
D-0
  6
JWW_CENTER2
 62
     7
370
     9
100
AcDbLine
 10
-8.953063050540635
 20
9.052063821011672
 30
0.0
 11
-9.004131356509873
 21
9.40813290899385
 31
0.0
  0
LINE
  5
1EB
330
1F
100
AcDbEntity
  8
D-0
  6
JWW_CENTER2
 62
     7
370
     9
100
AcDbLine
 10
-9.004131356509873
 20
9.40813290899385
 30
0.0
 11
-9.001783410342881
 21
9.606334565335402
 31
0.0
  0
LINE
  5
1EC
330
1F
100
AcDbEntity
  8
D-0
  6
JWW_CENTER2
 62
     7
370
     9
100
AcDbLine
 10
-9.001783410342881
 20
9.606334565335402
 30
0.0
 11
-8.90888837936754
 21
10.0120495540439
 31
0.0
  0
LINE
  5
1ED
330
1F
100
AcDbEntity
  8
D-0
  6
JWW_CENTER2
 62
     7
370
     9
100
AcDbLine
 10
-8.90888837936754
 20
10.0120495540439
 30
0.0
 11
-8.496216813358018
 21
10.61891019170869
 31
0.0
  0
LINE
  5
1EE
330
1F
100
AcDbEntity
  8
D-0
  6
JWW_CENTER2
 62
     7
370
     9
100
AcDbLine
 10
-8.496216813358018
 20
10.61891019170869
 30
0.0
 11
-7.824773350986192
 21
11.1090897304355
 31
0.0
  0
LINE
  5
1EF
330
1F
100
AcDbEntity
  8
D-0
  6
JWW_CENTER2
 62
     7
370
     9
100
AcDbLine
 10
-7.824773350986192
 20
11.1090897304355
 30
0.0
 11
-6.965322533878037
 21
11.48328101461519
 31
0.0
  0
LINE
  5
1F0
330
1F
100
AcDbEntity
  8
D-0
  6
JWW_CENTER2
 62
     7
370
     9
100
AcDbLine
 10
-6.965322533878037
 20
11.48328101461519
 30
0.0
 11
-5.988628188403794
 21
11.74217784231294
 31
0.0
  0
LINE
  5
1F1
330
1F
100
AcDbEntity
  8
D-0
  6
JWW_CENTER2
 62
     7
370
     9
100
AcDbLine
 10
-5.988628188403794
 20
11.74217784231294
 30
0.0
 11
-4.965455333026597
 21
11.88647162740816
 31
0.0
  0
LINE
  5
1F2
330
1F
100
AcDbEntity
  8
D-0
  6
JWW_CENTER2
 62
     7
370
     9
100
AcDbLine
 10
-4.965455333026597
 20
11.88647162740816
 30
0.0
 11
-4.378603259357163
 21
11.91792476003755
 31
0.0
  0
LINE
  5
1F3
330
1F
100
AcDbEntity
  8
D-0
  6
JWW_CENTER2
 62
     7
370
     9
100
AcDbLine
 10
-4.378603259357163
 20
11.91792476003755
 30
0.0
 11
-3.277911821635911
 21
11.87152707403291
 31
0.0
  0
LINE
  5
1F4
330
1F
100
AcDbEntity
  8
D-0
  6
JWW_CENTER2
 62
     7
370
     9
100
AcDbLine
 10
-3.277911821635911
 20
11.87152707403291
 30
0.0
 11
-1.549135783942887
 21
11.50632464712251
 31
0.0
  0
LINE
  5
1F5
330
1F
100
AcDbEntity
  8
D-0
  6
JWW_CENTER2
 62
     7
370
     9
100
AcDbLine
 10
-1.549135783942887
 20
11.50632464712251
 30
0.0
 11
0.0145616137660056
 21
10.87755381887544
 31
0.0
  0
LINE
  5
1F6
330
1F
100
AcDbEntity
  8
D-0
  6
JWW_CENTER2
 62
     7
370
     9
100
AcDbLine
 10
0.0145616137660056
 20
10.87755381887544
 30
0.0
 11
1.469929655758193
 21
10.09853112524141
 31
0.0
  0
LINE
  5
1F7
330
1F
100
AcDbEntity
  8
D-0
  6
JWW_CENTER2
 62
     7
370
     9
100
AcDbLine
 10
1.469929655758193
 20
10.09853112524141
 30
0.0
 11
2.873717268673232
 21
9.282573579007277
 31
0.0
  0
LINE
  5
1F8
330
1F
100
AcDbEntity
  8
D-0
  6
JWW_CENTER2
 62
     7
370
     9
100
AcDbLine
 10
2.873717268673232
 20
9.282573579007277
 30
0.0
 11
4.28267475005751
 21
8.542998192959914
 31
0.0
  0
LINE
  5
1F9
330
1F
100
AcDbEntity
  8
D-0
  6
JWW_CENTER2
 62
     7
370
     9
100
AcDbLine
 10
4.28267475005751
 20
8.542998192959914
 30
0.0
 11
5.124600371090224
 21
8.193695901089797
 31
0.0
  0
LINE
  5
1FA
330
1F
100
AcDbEntity
  8
D-0
  6
JWW_CENTER2
 62
     7
370
     9
100
AcDbLine
 10
5.124600371090224
 20
8.193695901089797
 30
0.0
 11
5.970178087917617
 21
7.931523202115187
 31
0.0
  0
LINE
  5
1FB
330
1F
100
AcDbEntity
  8
D-0
  6
JWW_CENTER2
 62
     7
370
     9
100
AcDbLine
 10
5.970178087917617
 20
7.931523202115187
 30
0.0
 11
7.489427050319932
 21
7.640298722439894
 31
0.0
  0
LINE
  5
1FC
330
1F
100
AcDbEntity
  8
D-0
  6
JWW_CENTER2
 62
     7
370
     9
100
AcDbLine
 10
7.489427050319932
 20
7.640298722439894
 30
0.0
 11
9.072349032131456
 21
7.508175728970656
 31
0.0
  0
LINE
  5
1FD
330
1F
100
AcDbEntity
  8
D-0
  6
JWW_CENTER2
 62
     7
370
     9
100
AcDbLine
 10
9.072349032131456
 20
7.508175728970656
 30
0.0
 11
10.702670534817
 21
7.483483193570265
 31
0.0
  0
LINE
  5
1FE
330
1F
100
AcDbEntity
  8
D-0
  6
JWW_CENTER2
 62
     7
370
     9
100
AcDbLine
 10
10.702670534817
 20
7.483483193570265
 30
0.0
 11
12.36411805984142
 21
7.51454627340425
 31
0.0
  0
LINE
  5
1FF
330
1F
100
AcDbEntity
  8
D-0
  6
JWW_CENTER2
 62
     7
370
     9
100
AcDbLine
 10
12.36411805984142
 20
7.51454627340425
 30
0.0
 11
14.04042001601817
 21
7.549692986661086
 31
0.0
  0
LINE
  5
200
330
1F
100
AcDbEntity
  8
D-0
  6
JWW_CENTER2
 62
     7
370
     9
100
AcDbLine
 10
14.04042001601817
 20
7.549692986661086
 30
0.0
 11
15.01306863662364
 21
7.551587937527785
 31
0.0
  0
LINE
  5
201
330
1F
100
AcDbEntity
  8
D-0
  6
JWW_CENTER2
 62
     7
370
     9
100
AcDbLine
 10
15.01306863662364
 20
7.551587937527785
 30
0.0
 11
15.69467302199962
 21
7.5396898967563
 31
0.0
  0
LINE
  5
202
330
1F
100
AcDbEntity
  8
D-0
  6
JWW_CENTER2
 62
     7
370
     9
100
AcDbLine
 10
15.69467302199962
 20
7.5396898967563
 30
0.0
 11
16.86248918410899
 21
7.509929536038527
 31
0.0
  0
LINE
  5
203
330
1F
100
AcDbEntity
  8
D-0
  6
JWW_CENTER2
 62
     7
370
     9
100
AcDbLine
 10
16.86248918410899
 20
7.509929536038527
 30
0.0
 11
18.01625963088634
 21
7.500247834378371
 31
0.0
  0
LINE
  5
204
330
1F
100
AcDbEntity
  8
D-0
  6
JWW_CENTER2
 62
     7
370
     9
100
AcDbLine
 10
18.01625963088634
 20
7.500247834378371
 30
0.0
 11
19.15049310561778
 21
7.547597764187941
 31
0.0
  0
LINE
  5
205
330
1F
100
AcDbEntity
  8
D-0
  6
JWW_CENTER2
 62
     7
370
     9
100
AcDbLine
 10
19.15049310561778
 20
7.547597764187941
 30
0.0
 11
20.25969262954357
 21
7.688935158902297
 31
0.0
  0
LINE
  5
206
330
1F
100
AcDbEntity
  8
D-0
  6
JWW_CENTER2
 62
     7
370
     9
100
AcDbLine
 10
20.25969262954357
 20
7.688935158902297
 30
0.0
 11
21.33836313125255
 21
7.961214898282179
 31
0.0
  0
LINE
  5
207
330
1F
100
AcDbEntity
  8
D-0
  6
JWW_CENTER2
 62
     7
370
     9
100
AcDbLine
 10
21.33836313125255
 20
7.961214898282179
 30
0.0
 11
21.94783922073009
 21
8.193695901089797
 31
0.0
  0
LINE
  5
208
330
1F
100
AcDbEntity
  8
D-0
  6
JWW_CENTER2
 62
     7
370
     9
100
AcDbLine
 10
21.94783922073009
 20
8.193695901089797
 30
0.0
 11
22.23409410354259
 21
8.32570349996675
 31
0.0
  0
LINE
  5
209
330
1F
100
AcDbEntity
  8
D-0
  6
JWW_CENTER2
 62
     7
370
     9
100
AcDbLine
 10
22.23409410354259
 20
8.32570349996675
 30
0.0
 11
22.7231840693629
 21
8.574684975796828
 31
0.0
  0
LINE
  5
20A
330
1F
100
AcDbEntity
  8
D-0
  6
JWW_CENTER2
 62
     7
370
     9
100
AcDbLine
 10
22.7231840693629
 20
8.574684975796828
 30
0.0
 11
23.21056505080821
 21
8.831623910123
 31
0.0
  0
LINE
  5
20B
330
1F
100
AcDbEntity
  8
D-0
  6
JWW_CENTER2
 62
     7
370
     9
100
AcDbLine
 10
23.21056505080821
 20
8.831623910123
 30
0.0
 11
23.70079751845958
 21
9.074302552395949
 31
0.0
  0
LINE
  5
20C
330
1F
100
AcDbEntity
  8
D-0
  6
JWW_CENTER2
 62
     7
370
     9
100
AcDbLine
 10
23.70079751845958
 20
9.074302552395949
 30
0.0
 11
24.19844575759532
 21
9.280503628903517
 31
0.0
  0
LINE
  5
20D
330
1F
100
AcDbEntity
  8
D-0
  6
JWW_CENTER2
 62
     7
370
     9
100
AcDbLine
 10
24.19844575759532
 20
9.280503628903517
 30
0.0
 11
24.70806833144786
 21
9.42800891225923
 31
0.0
  0
LINE
  5
20E
330
1F
100
AcDbEntity
  8
D-0
  6
JWW_CENTER2
 62
     7
370
     9
100
AcDbLine
 10
24.70806833144786
 20
9.42800891225923
 30
0.0
 11
25.01093431350353
 21
9.477912781888136
 31
0.0
  0
LINE
  5
20F
330
1F
100
AcDbEntity
  8
D-0
  6
JWW_CENTER2
 62
     7
370
     9
100
AcDbLine
 10
25.01093431350353
 20
9.477912781888136
 30
0.0
 11
25.11292215224864
 21
9.487810967618117
 31
0.0
  0
LINE
  5
210
330
1F
100
AcDbEntity
  8
D-0
  6
JWW_CENTER2
 62
     7
370
     9
100
AcDbLine
 10
25.11292215224864
 20
9.487810967618117
 30
0.0
 11
25.29019685622814
 21
9.497769711667189
 31
0.0
  0
LINE
  5
211
330
1F
100
AcDbEntity
  8
D-0
  6
JWW_CENTER2
 62
     7
370
     9
100
AcDbLine
 10
25.29019685622814
 20
9.497769711667189
 30
0.0
 11
25.46893258926036
 21
9.500354645901808
 31
0.0
  0
LINE
  5
212
330
1F
100
AcDbEntity
  8
D-0
  6
JWW_CENTER2
 62
     7
370
     9
100
AcDbLine
 10
25.46893258926036
 20
9.500354645901808
 30
0.0
 11
25.64870782729747
 21
9.497451661282668
 31
0.0
  0
LINE
  5
213
330
1F
100
AcDbEntity
  8
D-0
  6
JWW_CENTER2
 62
     7
370
     9
100
AcDbLine
 10
25.64870782729747
 20
9.497451661282668
 30
0.0
 11
25.82911058303478
 21
9.49094664877046
 31
0.0
  0
LINE
  5
214
330
1F
100
AcDbEntity
  8
D-0
  6
JWW_CENTER2
 62
     7
370
     9
100
AcDbLine
 10
25.82911058303478
 20
9.49094664877046
 30
0.0
 11
26.00972314712169
 21
9.482725022488722
 31
0.0
  0
LINE
  5
215
330
1F
100
AcDbEntity
  8
D-0
  6
JWW_CENTER2
 62
     7
370
     9
100
AcDbLine
 10
26.00972314712169
 20
9.482725022488722
 30
0.0
 11
26.11440988418224
 21
9.477912781888136
 31
0.0
  0
LINE
  5
216
330
1F
100
AcDbEntity
  8
D-0
  6
JWW_CENTER2
 62
     7
370
     9
100
AcDbLine
 10
26.11440988418224
 20
9.477912781888136
 30
0.0
 11
26.26222558852794
 21
9.471732972317824
 31
0.0
  0
LINE
  5
217
330
1F
100
AcDbEntity
  8
D-0
  6
JWW_CENTER2
 62
     7
370
     9
100
AcDbLine
 10
26.26222558852794
 20
9.471732972317824
 30
0.0
 11
26.51645036574962
 21
9.462840912991652
 31
0.0
  0
LINE
  5
218
330
1F
100
AcDbEntity
  8
D-0
  6
JWW_CENTER2
 62
     7
370
     9
100
AcDbLine
 10
26.51645036574962
 20
9.462840912991652
 30
0.0
 11
26.77000947829845
 21
9.455827115231642
 31
0.0
  0
LINE
  5
219
330
1F
100
AcDbEntity
  8
D-0
  6
JWW_CENTER2
 62
     7
370
     9
100
AcDbLine
 10
26.77000947829845
 20
9.455827115231642
 30
0.0
 11
27.02304597732189
 21
9.450281022244582
 31
0.0
  0
LINE
  5
21A
330
1F
100
AcDbEntity
  8
D-0
  6
JWW_CENTER2
 62
     7
370
     9
100
AcDbLine
 10
27.02304597732189
 20
9.450281022244582
 30
0.0
 11
27.27570482131603
 21
9.445793507748732
 31
0.0
  0
LINE
  5
21B
330
1F
100
AcDbEntity
  8
D-0
  6
JWW_CENTER2
 62
     7
370
     9
100
AcDbLine
 10
27.27570482131603
 20
9.445793507748732
 30
0.0
 11
27.52813478347423
 21
9.44195401495088
 31
0.0
  0
LINE
  5
21C
330
1F
100
AcDbEntity
  8
D-0
  6
JWW_CENTER2
 62
     7
370
     9
100
AcDbLine
 10
27.52813478347423
 20
9.44195401495088
 30
0.0
 11
27.6744951808131
 21
9.439862130337843
 31
0.0
  0
LINE
  5
21D
330
1F
100
AcDbEntity
  8
D-0
  6
JWW_CENTER2
 62
     7
370
     9
100
AcDbLine
 10
27.68876405593517
 20
8.498103020840773
 30
0.0
 11
27.68876405593517
 21
28.03246676748384
 31
0.0
  0
LINE
  5
21E
330
1F
100
AcDbEntity
  8
D-0
  6
JWW_CENTER2
 62
     7
370
     9
100
AcDbLine
 10
44.63265367385509
 20
6.882887719327101
 30
0.0
 11
38.17321916457774
 21
9.182007668667922
 31
0.0
  0
ARC
  5
21F
330
1F
100
AcDbEntity
  8
D-0
  6
JWW_CENTER2
 62
     7
370
     9
100
AcDbCircle
 10
47.59106965896251
 20
6.364480851346144
 30
0.0
 40
2.969461917877197
100
AcDbArc
 50
25.22978210449219
 51
345.6856079101562
  0
TEXT
  5
220
330
1F
100
AcDbEntity
  8
D-4
  6
Continuous
 62
     2
370
     9
100
AcDbText
 10
44.51853271915608
 20
67.42725600676381
 30
0.0
 40
6.096
  1
落下防止ワイヤー
 50
0.0000492543209846
 41
1.109375
  7
ＭＳ ゴシック
100
AcDbText
  0
TEXT
  5
221
330
1F
100
AcDbEntity
  8
D-5
  6
Continuous
 62
     2
370
     9
100
AcDbText
 10
73.37453268176128
 20
55.01076735930329
 30
0.0
 40
6.096
  1
SUS
 41
1.083333333333333
  7
ＭＳ ゴシック
100
AcDbText
  0
LINE
  5
222
330
1F
100
AcDbEntity
  8
D-4
  6
Continuous
 62
     7
370
     9
100
AcDbLine
 10
43.66523168688823
 20
64.25248018889313
 30
0.0
 11
116.4541911900621
 21
64.25248018889313
 31
0.0
  0
TEXT
  5
223
330
1F
100
AcDbEntity
  8
D-4
  6
Continuous
 62
     2
370
     9
100
AcDbText
 10
-169.0618242952241
 20
56.3808475505646
 30
0.0
 40
6.096
  1
ナイロンプラグ　呼び６
 50
359.9999607072324
 41
1.113636363636364
  7
ＭＳ ゴシック
100
AcDbText
  0
LINE
  5
224
330
1F
100
AcDbEntity
  8
D-4
  6
Continuous
 62
     7
370
     9
100
AcDbLine
 10
-48.98519376877186
 20
28.02390467947112
 30
0.0
 11
-70.05812505844472
 21
53.55854213064299
 31
0.0
  0
LINE
  5
225
330
1F
100
AcDbEntity
  8
D-3
  6
Continuous
 62
     6
370
     5
100
AcDbLine
 10
-44.25232938888905
 20
134.2992342693149
 30
0.0
 11
-107.9599074510316
 21
70.59157661402055
 31
0.0
  0
LINE
  5
226
330
1F
100
AcDbEntity
  8
D-3
  6
Continuous
 62
     6
370
     5
100
AcDbLine
 10
-44.25232938888905
 20
128.6423739177524
 30
0.0
 11
-102.302972938237
 21
70.59157661402055
 31
0.0
  0
LINE
  5
227
330
1F
100
AcDbEntity
  8
D-3
  6
Continuous
 62
     6
370
     5
100
AcDbLine
 10
-96.64608089093176
 20
70.59157661402055
 30
0.0
 11
-44.25232938888905
 21
122.9854983074008
 31
0.0
  0
LINE
  5
228
330
1F
100
AcDbEntity
  8
D-4
  6
Continuous
 62
     7
370
     9
100
AcDbLine
 10
-169.0130656083439
 20
53.55854213064299
 30
0.0
 11
-70.05812505844472
 21
53.55854213064299
 31
0.0
  0
TEXT
  5
229
330
1F
100
AcDbEntity
  8
D-6
  6
Continuous
 62
     3
370
     9
100
AcDbText
 10
-144.8852026967868
 20
-271.1692111696068
 30
0.0
 40
9.144
  1
天井－内壁　ＳＸ４５－５０Ｇ
 41
1.154761904761905
  7
ＭＳ ゴシック
100
AcDbText
  0
ENDSEC
  0
SECTION
  2
OBJECTS
  0
DICTIONARY
  5
C
330
0
100
AcDbDictionary
281
     1
  3
ACAD_DETAILVIEWSTYLE
350
26F
  3
ACAD_GROUP
350
D
  3
ACAD_LAYOUT
350
1A
  3
ACAD_MATERIAL
350
43
  3
ACAD_MLEADERSTYLE
350
6B
  3
ACAD_MLINESTYLE
350
17
  3
ACAD_PLOTSETTINGS
350
19
  3
ACAD_PLOTSTYLENAME
350
E
  3
ACAD_SCALELIST
350
47
  3
ACAD_SECTIONVIEWSTYLE
350
270
  3
ACAD_TABLESTYLE
350
69
  3
ACAD_VISUALSTYLE
350
2A
  3
ACDB_RECOMPOSE_DATA
350
26C
  3
AcDbVariableDictionary
350
22C
  0
DICTIONARY
  5
22A
330
8
100
AcDbDictionary
280
     1
281
     1
  3
ACAD_XREC_ROUNDTRIP
360
22B
  0
DICTIONARY
  5
26F
102
{ACAD_REACTORS
330
C
102
}
330
C
100
AcDbDictionary
281
     1
  0
DICTIONARY
  5
D
102
{ACAD_REACTORS
330
C
102
}
330
C
100
AcDbDictionary
281
     1
  0
DICTIONARY
  5
1A
102
{ACAD_REACTORS
330
C
102
}
330
C
100
AcDbDictionary
281
     1
  3
Layout1
350
1E
  3
Layout2
350
26
  3
Model
350
22
  0
DICTIONARY
  5
43
102
{ACAD_REACTORS
330
C
102
}
330
C
100
AcDbDictionary
281
     1
  3
ByBlock
350
45
  3
ByLayer
350
44
  3
Global
350
46
  0
DICTIONARY
  5
6B
102
{ACAD_REACTORS
330
C
102
}
330
C
100
AcDbDictionary
281
     1
  3
Standard
350
6C
  0
DICTIONARY
  5
17
102
{ACAD_REACTORS
330
C
102
}
330
C
100
AcDbDictionary
281
     1
  3
Standard
350
18
  0
DICTIONARY
  5
19
102
{ACAD_REACTORS
330
C
102
}
330
C
100
AcDbDictionary
281
     1
  0
ACDBDICTIONARYWDFLT
  5
E
102
{ACAD_REACTORS
330
C
102
}
330
C
100
AcDbDictionary
281
     1
  3
Normal
350
F
100
AcDbDictionaryWithDefault
340
F
  0
DICTIONARY
  5
47
102
{ACAD_REACTORS
330
C
102
}
330
C
100
AcDbDictionary
281
     1
  3
A0
350
48
  3
A1
350
49
  3
A2
350
4A
  3
A3
350
4B
  3
A4
350
4C
  3
A5
350
4D
  3
A6
350
4E
  3
A7
350
4F
  3
A8
350
50
  3
A9
350
51
  3
B0
350
52
  3
B1
350
53
  3
B2
350
54
  3
B3
350
55
  3
B4
350
56
  3
B5
350
57
  3
B6
350
58
  3
B7
350
59
  3
B8
350
5A
  3
B9
350
5B
  3
C0
350
5C
  3
C1
350
5D
  3
C2
350
5E
  3
C3
350
5F
  3
C4
350
60
  3
C5
350
61
  3
C6
350
62
  3
C7
350
63
  3
C8
350
64
  3
C9
350
65
  3
D0
350
66
  3
D1
350
67
  3
D2
350
68
  0
DICTIONARY
  5
270
102
{ACAD_REACTORS
330
C
102
}
330
C
100
AcDbDictionary
281
     1
  0
DICTIONARY
  5
69
102
{ACAD_REACTORS
330
C
102
}
330
C
100
AcDbDictionary
281
     1
  3
Standard
350
6A
  0
DICTIONARY
  5
2A
102
{ACAD_REACTORS
330
C
102
}
330
C
100
AcDbDictionary
281
     1
  3
2dWireframe
350
2F
  3
Basic
350
32
  3
Brighten
350
36
  3
ColorChange
350
3A
  3
Conceptual
350
34
  3
Dim
350
35
  3
EdgeColorOff
350
3D
  3
Facepattern
350
39
  3
Flat
350
2B
  3
FlatWithEdges
350
2C
  3
Gouraud
350
2D
  3
GouraudWithEdges
350
2E
  3
Hidden
350
31
  3
JitterOff
350
3B
  3
Linepattern
350
38
  3
OverhangOff
350
3C
  3
Realistic
350
33
  3
Shaded
350
42
  3
Shaded with edges
350
41
  3
Shades of Gray
350
3E
  3
Sketchy
350
3F
  3
Thicken
350
37
  3
Wireframe
350
30
  3
X-Ray
350
40
  0
XRECORD
  5
26C
102
{ACAD_REACTORS
330
C
102
}
330
C
100
AcDbXrecord
280
     1
 90
        1
330
6A
  0
DICTIONARY
  5
22C
102
{ACAD_REACTORS
330
C
102
}
330
C
100
AcDbDictionary
281
     1
  3
CANNOSCALE
350
22D
  3
CENTEREXE
350
271
  3
CENTERLTYPEFILE
350
272
  3
CMLEADERSTYLE
350
26E
  3
CTABLESTYLE
350
26D
  3
MSLTSCALE
350
22E
  3
XCLIPFRAME
350
22F
  0
XRECORD
  5
22B
102
{ACAD_REACTORS
330
22A
102
}
330
22A
100
AcDbXrecord
280
     1
102
VTR_0.000_0.000_1.000_1.000_VISUALSTYLE
340
2F
102
VTR_0.000_0.000_1.000_1.000_GRIDDISPLAY
 70
     3
102
VTR_0.000_0.000_1.000_1.000_GRIDMAJOR
 70
     5
102
VTR_0.000_0.000_1.000_1.000_DEFAULTLIGHTING
280
     1
102
VTR_0.000_0.000_1.000_1.000_DEFAULTLIGHTINGTYPE
 70
     1
102
VTR_0.000_0.000_1.000_1.000_BRIGHTNESS
141
0.0
102
VTR_0.000_0.000_1.000_1.000_CONTRAST
142
0.0
  0
LAYOUT
  5
1E
102
{ACAD_REACTORS
330
1A
102
}
330
1A
100
AcDbPlotSettings
  1

  2
none_device
  4

  6

 40
0.0
 41
0.0
 42
0.0
 43
0.0
 44
0.0
 45
0.0
 46
0.0
 47
0.0
 48
0.0
 49
0.0
140
0.0
141
0.0
142
1.0
143
1.0
 70
   688
 72
     1
 73
     0
 74
     5
  7

 75
    16
 76
     0
 77
     5
 78
   300
147
1.0
148
0.0
149
0.0
100
AcDbLayout
  1
Layout1
 70
     1
 71
     1
 10
0.0
 20
0.0
 11
420.0
 21
297.0
 12
0.0
 22
0.0
 32
0.0
 14
1.000000000000000E+20
 24
1.000000000000000E+20
 34
1.000000000000000E+20
 15
-1.000000000000000E+20
 25
-1.000000000000000E+20
 35
-1.000000000000000E+20
146
0.0
 13
0.0
 23
0.0
 33
0.0
 16
1.0
 26
0.0
 36
0.0
 17
0.0
 27
1.0
 37
0.0
 76
     0
330
1B
  0
LAYOUT
  5
26
102
{ACAD_REACTORS
330
1A
102
}
330
1A
100
AcDbPlotSettings
  1

  2
none_device
  4

  6

 40
0.0
 41
0.0
 42
0.0
 43
0.0
 44
0.0
 45
0.0
 46
0.0
 47
0.0
 48
0.0
 49
0.0
140
0.0
141
0.0
142
1.0
143
1.0
 70
   688
 72
     1
 73
     0
 74
     5
  7

 75
    16
 76
     0
 77
     5
 78
   300
147
1.0
148
0.0
149
0.0
100
AcDbLayout
  1
Layout2
 70
     1
 71
     2
 10
0.0
 20
0.0
 11
0.0
 21
0.0
 12
0.0
 22
0.0
 32
0.0
 14
0.0
 24
0.0
 34
0.0
 15
0.0
 25
0.0
 35
0.0
146
0.0
 13
0.0
 23
0.0
 33
0.0
 16
1.0
 26
0.0
 36
0.0
 17
0.0
 27
1.0
 37
0.0
 76
     0
330
23
  0
LAYOUT
  5
22
102
{ACAD_REACTORS
330
1A
102
}
330
1A
100
AcDbPlotSettings
  1

  2
none_device
  4
Letter_(8.50_x_11.00_Inches)
  6

 40
6.35
 41
6.35
 42
6.35000508
 43
6.35000508
 44
215.9
 45
279.4
 46
0.0
 47
0.0
 48
0.0
 49
0.0
140
0.0
141
0.0
142
1.0
143
1.0
 70
  1712
 72
     1
 73
     0
 74
     0
  7

 75
     0
 76
     0
 77
     5
 78
   300
147
1.0
148
0.0
149
0.0
100
AcDbLayout
  1
Model
 70
     1
 71
     0
 10
-420.0
 20
-297.0
 11
420.0
 21
297.0
 12
0.0
 22
0.0
 32
0.0
 14
-420.0
 24
-297.0
 34
0.0
 15
420.0
 25
297.0
 35
0.0
146
0.0
 13
0.0
 23
0.0
 33
0.0
 16
1.0
 26
0.0
 36
0.0
 17
0.0
 27
1.0
 37
0.0
 76
     0
330
1F
331
29
  0
MATERIAL
  5
45
102
{ACAD_REACTORS
330
43
102
}
102
{ACAD_XDICTIONARY
360
262
102
}
330
43
100
AcDbMaterial
  1
ByBlock
  0
MATERIAL
  5
44
102
{ACAD_REACTORS
330
43
102
}
102
{ACAD_XDICTIONARY
360
260
102
}
330
43
100
AcDbMaterial
  1
ByLayer
  0
MATERIAL
  5
46
102
{ACAD_REACTORS
330
43
102
}
102
{ACAD_XDICTIONARY
360
264
102
}
330
43
100
AcDbMaterial
  1
Global
  0
MLEADERSTYLE
  5
6C
102
{ACAD_REACTORS
330
6B
102
}
102
{ACAD_XDICTIONARY
360
26A
102
}
330
6B
100
AcDbMLeaderStyle
170
     2
171
     1
172
     0
 90
        2
 40
0.0
 41
0.0
173
     1
 91
-1056964608
340
14
 92
       -2
290
     1
 42
2.0
291
     1
 43
8.0
  3
Standard
341
0
 44
4.0
300

342
11
174
     1
178
     6
175
     1
176
     0
 93
-1056964608
 45
4.0
292
     0
297
     0
 46
4.0
343
0
 94
-1056964608
 47
1.0
 49
1.0
140
1.0
293
     1
141
0.0
294
     1
177
     0
142
1.0
295
     0
296
     0
143
3.75
1001
ACAD_MLEADERVER
1070
     2
  0
MLINESTYLE
  5
18
102
{ACAD_REACTORS
330
17
102
}
330
17
100
AcDbMlineStyle
  2
Standard
 70
     0
  3

 62
   256
 51
90.0
 52
90.0
 71
     2
 49
0.5
 62
   256
  6
BYLAYER
 49
-0.5
 62
   256
  6
BYLAYER
  0
ACDBPLACEHOLDER
  5
F
102
{ACAD_REACTORS
330
E
102
}
330
E
  0
SCALE
  5
48
102
{ACAD_REACTORS
330
47
102
}
330
47
100
AcDbScale
 70
     0
300
1:1
140
1.0
141
1.0
290
     1
  0
SCALE
  5
49
102
{ACAD_REACTORS
330
47
102
}
330
47
100
AcDbScale
 70
     0
300
1:2
140
1.0
141
2.0
290
     0
  0
SCALE
  5
4A
102
{ACAD_REACTORS
330
47
102
}
330
47
100
AcDbScale
 70
     0
300
1:4
140
1.0
141
4.0
290
     0
  0
SCALE
  5
4B
102
{ACAD_REACTORS
330
47
102
}
330
47
100
AcDbScale
 70
     0
300
1:5
140
1.0
141
5.0
290
     0
  0
SCALE
  5
4C
102
{ACAD_REACTORS
330
47
102
}
330
47
100
AcDbScale
 70
     0
300
1:8
140
1.0
141
8.0
290
     0
  0
SCALE
  5
4D
102
{ACAD_REACTORS
330
47
102
}
330
47
100
AcDbScale
 70
     0
300
1:10
140
1.0
141
10.0
290
     0
  0
SCALE
  5
4E
102
{ACAD_REACTORS
330
47
102
}
330
47
100
AcDbScale
 70
     0
300
1:16
140
1.0
141
16.0
290
     0
  0
SCALE
  5
4F
102
{ACAD_REACTORS
330
47
102
}
330
47
100
AcDbScale
 70
     0
300
1:20
140
1.0
141
20.0
290
     0
  0
SCALE
  5
50
102
{ACAD_REACTORS
330
47
102
}
330
47
100
AcDbScale
 70
     0
300
1:30
140
1.0
141
30.0
290
     0
  0
SCALE
  5
51
102
{ACAD_REACTORS
330
47
102
}
330
47
100
AcDbScale
 70
     0
300
1:40
140
1.0
141
40.0
290
     0
  0
SCALE
  5
52
102
{ACAD_REACTORS
330
47
102
}
330
47
100
AcDbScale
 70
     0
300
1:50
140
1.0
141
50.0
290
     0
  0
SCALE
  5
53
102
{ACAD_REACTORS
330
47
102
}
330
47
100
AcDbScale
 70
     0
300
1:100
140
1.0
141
100.0
290
     0
  0
SCALE
  5
54
102
{ACAD_REACTORS
330
47
102
}
330
47
100
AcDbScale
 70
     0
300
2:1
140
2.0
141
1.0
290
     0
  0
SCALE
  5
55
102
{ACAD_REACTORS
330
47
102
}
330
47
100
AcDbScale
 70
     0
300
4:1
140
4.0
141
1.0
290
     0
  0
SCALE
  5
56
102
{ACAD_REACTORS
330
47
102
}
330
47
100
AcDbScale
 70
     0
300
8:1
140
8.0
141
1.0
290
     0
  0
SCALE
  5
57
102
{ACAD_REACTORS
330
47
102
}
330
47
100
AcDbScale
 70
     0
300
10:1
140
10.0
141
1.0
290
     0
  0
SCALE
  5
58
102
{ACAD_REACTORS
330
47
102
}
330
47
100
AcDbScale
 70
     0
300
100:1
140
100.0
141
1.0
290
     0
  0
SCALE
  5
59
102
{ACAD_REACTORS
330
47
102
}
330
47
100
AcDbScale
 70
     0
300
1/128" = 1'-0"
140
0.0078125
141
12.0
290
     0
  0
SCALE
  5
5A
102
{ACAD_REACTORS
330
47
102
}
330
47
100
AcDbScale
 70
     0
300
1/64" = 1'-0"
140
0.015625
141
12.0
290
     0
  0
SCALE
  5
5B
102
{ACAD_REACTORS
330
47
102
}
330
47
100
AcDbScale
 70
     0
300
1/32" = 1'-0"
140
0.03125
141
12.0
290
     0
  0
SCALE
  5
5C
102
{ACAD_REACTORS
330
47
102
}
330
47
100
AcDbScale
 70
     0
300
1/16" = 1'-0"
140
0.0625
141
12.0
290
     0
  0
SCALE
  5
5D
102
{ACAD_REACTORS
330
47
102
}
330
47
100
AcDbScale
 70
     0
300
3/32" = 1'-0"
140
0.09375
141
12.0
290
     0
  0
SCALE
  5
5E
102
{ACAD_REACTORS
330
47
102
}
330
47
100
AcDbScale
 70
     0
300
1/8" = 1'-0"
140
0.125
141
12.0
290
     0
  0
SCALE
  5
5F
102
{ACAD_REACTORS
330
47
102
}
330
47
100
AcDbScale
 70
     0
300
3/16" = 1'-0"
140
0.1875
141
12.0
290
     0
  0
SCALE
  5
60
102
{ACAD_REACTORS
330
47
102
}
330
47
100
AcDbScale
 70
     0
300
1/4" = 1'-0"
140
0.25
141
12.0
290
     0
  0
SCALE
  5
61
102
{ACAD_REACTORS
330
47
102
}
330
47
100
AcDbScale
 70
     0
300
3/8" = 1'-0"
140
0.375
141
12.0
290
     0
  0
SCALE
  5
62
102
{ACAD_REACTORS
330
47
102
}
330
47
100
AcDbScale
 70
     0
300
1/2" = 1'-0"
140
0.5
141
12.0
290
     0
  0
SCALE
  5
63
102
{ACAD_REACTORS
330
47
102
}
330
47
100
AcDbScale
 70
     0
300
3/4" = 1'-0"
140
0.75
141
12.0
290
     0
  0
SCALE
  5
64
102
{ACAD_REACTORS
330
47
102
}
330
47
100
AcDbScale
 70
     0
300
1" = 1'-0"
140
1.0
141
12.0
290
     0
  0
SCALE
  5
65
102
{ACAD_REACTORS
330
47
102
}
330
47
100
AcDbScale
 70
     0
300
1-1/2" = 1'-0"
140
1.5
141
12.0
290
     0
  0
SCALE
  5
66
102
{ACAD_REACTORS
330
47
102
}
330
47
100
AcDbScale
 70
     0
300
3" = 1'-0"
140
3.0
141
12.0
290
     0
  0
SCALE
  5
67
102
{ACAD_REACTORS
330
47
102
}
330
47
100
AcDbScale
 70
     0
300
6" = 1'-0"
140
6.0
141
12.0
290
     0
  0
SCALE
  5
68
102
{ACAD_REACTORS
330
47
102
}
330
47
100
AcDbScale
 70
     0
300
1'-0" = 1'-0"
140
12.0
141
12.0
290
     0
  0
TABLESTYLE
  5
6A
102
{ACAD_REACTORS
330
69
102
}
102
{ACAD_XDICTIONARY
360
266
102
}
330
69
100
AcDbTableStyle
  3
Standard
 70
     0
 71
     0
 40
0.06
 41
0.06
280
     0
281
     0
  7
Standard
140
4.5
170
     2
 62
     0
 63
   257
283
     0
274
    -2
284
     1
 64
     0
275
    -2
285
     1
 65
     0
276
    -2
286
     1
 66
     0
277
    -2
287
     1
 67
     0
278
    -2
288
     1
 68
     0
279
    -2
289
     1
 69
     0
  7
Standard
140
6.0
170
     5
 62
     0
 63
   257
283
     0
274
    -2
284
     1
 64
     0
275
    -2
285
     1
 65
     0
276
    -2
286
     1
 66
     0
277
    -2
287
     1
 67
     0
278
    -2
288
     1
 68
     0
279
    -2
289
     1
 69
     0
  7
Standard
140
4.5
170
     5
 62
     0
 63
   257
283
     0
274
    -2
284
     1
 64
     0
275
    -2
285
     1
 65
     0
276
    -2
286
     1
 66
     0
277
    -2
287
     1
 67
     0
278
    -2
288
     1
 68
     0
279
    -2
289
     1
 69
     0
  0
VISUALSTYLE
  5
2F
102
{ACAD_REACTORS
330
2A
102
}
102
{ACAD_XDICTIONARY
360
238
102
}
330
2A
100
AcDbVisualStyle
  2
2dWireframe
 70
     4
 71
     0
 72
     2
 73
     0
 90
        0
 40
0.6
 41
30.0
 62
     5
 63
     7
421
 16777215
 74
     1
 91
        4
 64
     7
 65
   257
 75
     1
175
     1
 42
1.0
 92
        0
 66
   257
 43
1.0
 76
     1
 77
     6
 78
     2
 67
     7
 79
     5
170
     0
171
     0
290
     0
174
     0
 93
        1
 44
0.0
173
     0
291
     0
 45
0.0
1001
ACAD
1000
AcDbSavedByObjectVersion
1070
     0
  0
VISUALSTYLE
  5
32
102
{ACAD_REACTORS
330
2A
102
}
102
{ACAD_XDICTIONARY
360
23E
102
}
330
2A
100
AcDbVisualStyle
  2
Basic
 70
     7
 71
     1
 72
     0
 73
     1
 90
        0
 40
0.6
 41
30.0
 62
     5
 63
     7
421
 16777215
 74
     0
 91
        4
 64
     7
 65
   257
 75
     1
175
     1
 42
1.0
 92
        8
 66
     7
 43
1.0
 76
     1
 77
     6
 78
     2
 67
     7
 79
     5
170
     0
171
     0
290
     0
174
     0
 93
        1
 44
0.0
173
     0
291
     1
 45
0.0
1001
ACAD
1000
AcDbSavedByObjectVersion
1070
     0
  0
VISUALSTYLE
  5
36
102
{ACAD_REACTORS
330
2A
102
}
102
{ACAD_XDICTIONARY
360
246
102
}
330
2A
100
AcDbVisualStyle
  2
Brighten
 70
    12
 71
     2
 72
     2
 73
     0
 90
        0
 40
0.6
 41
30.0
 62
     5
 63
     7
421
 16777215
 74
     1
 91
        4
 64
     7
 65
   257
 75
     1
175
     1
 42
1.0
 92
        8
 66
     7
 43
1.0
 76
     1
 77
     6
 78
     2
 67
     7
 79
     5
170
     0
171
     0
290
     0
174
     0
 93
        1
 44
50.0
173
     0
291
     1
 45
0.0
1001
ACAD
1000
AcDbSavedByObjectVersion
1070
     0
  0
VISUALSTYLE
  5
3A
102
{ACAD_REACTORS
330
2A
102
}
102
{ACAD_XDICTIONARY
360
24E
102
}
330
2A
100
AcDbVisualStyle
  2
ColorChange
 70
    16
 71
     2
 72
     2
 73
     3
 90
        0
 40
0.6
 41
30.0
 62
     5
 63
     8
421
  8421504
 74
     1
 91
        4
 64
     7
 65
   257
 75
     1
175
     1
 42
1.0
 92
        8
 66
     8
424
  8421504
 43
1.0
 76
     1
 77
     6
 78
     2
 67
     7
 79
     5
170
     0
171
     0
290
     0
174
     0
 93
        1
 44
0.0
173
     0
291
     1
 45
0.0
1001
ACAD
1000
AcDbSavedByObjectVersion
1070
     0
  0
VISUALSTYLE
  5
34
102
{ACAD_REACTORS
330
2A
102
}
102
{ACAD_XDICTIONARY
360
242
102
}
330
2A
100
AcDbVisualStyle
  2
Conceptual
 70
     9
 71
     3
 72
     2
 73
     0
 90
        0
 40
0.6
 41
30.0
 62
     5
 63
     7
421
 16777215
 74
     2
 91
        2
 64
     7
 65
   257
 75
     1
175
     1
 42
179.0
 92
        8
 66
     7
 43
1.0
 76
     1
 77
     6
 78
     2
 67
     7
 79
     3
170
     0
171
     0
290
     0
174
     0
 93
        1
 44
0.0
173
     0
291
     0
 45
0.0
1001
ACAD
1000
AcDbSavedByObjectVersion
1070
     0
  0
VISUALSTYLE
  5
35
102
{ACAD_REACTORS
330
2A
102
}
102
{ACAD_XDICTIONARY
360
244
102
}
330
2A
100
AcDbVisualStyle
  2
Dim
 70
    11
 71
     2
 72
     2
 73
     0
 90
        0
 40
0.6
 41
30.0
 62
     5
 63
     7
421
 16777215
 74
     1
 91
        4
 64
     7
 65
   257
 75
     1
175
     1
 42
1.0
 92
        8
 66
     7
 43
1.0
 76
     1
 77
     6
 78
     2
 67
     7
 79
     5
170
     0
171
     0
290
     0
174
     0
 93
        1
 44
-50.0
173
     0
291
     1
 45
0.0
1001
ACAD
1000
AcDbSavedByObjectVersion
1070
     0
  0
VISUALSTYLE
  5
3D
102
{ACAD_REACTORS
330
2A
102
}
102
{ACAD_XDICTIONARY
360
254
102
}
330
2A
100
AcDbVisualStyle
  2
EdgeColorOff
 70
    22
 71
     2
 72
     2
 73
     0
 90
        0
 40
0.6
 41
30.0
 62
     5
 63
     7
421
 16777215
 74
     1
 91
        4
 64
     7
 65
   257
 75
     1
175
     1
 42
1.0
 92
        8
 66
     7
 43
1.0
 76
     1
 77
     6
 78
     2
 67
     7
 79
     5
170
     0
171
     0
290
     0
174
     0
 93
        1
 44
0.0
173
     0
291
     1
 45
0.0
1001
ACAD
1000
AcDbSavedByObjectVersion
1070
     0
  0
VISUALSTYLE
  5
39
102
{ACAD_REACTORS
330
2A
102
}
102
{ACAD_XDICTIONARY
360
24C
102
}
330
2A
100
AcDbVisualStyle
  2
Facepattern
 70
    15
 71
     2
 72
     2
 73
     0
 90
        0
 40
0.6
 41
30.0
 62
     5
 63
     7
421
 16777215
 74
     1
 91
        4
 64
     7
 65
   257
 75
     1
175
     1
 42
1.0
 92
        8
 66
     7
 43
1.0
 76
     1
 77
     6
 78
     2
 67
     7
 79
     5
170
     0
171
     0
290
     0
174
     0
 93
        1
 44
0.0
173
     0
291
     1
 45
0.0
1001
ACAD
1000
AcDbSavedByObjectVersion
1070
     0
  0
VISUALSTYLE
  5
2B
102
{ACAD_REACTORS
330
2A
102
}
102
{ACAD_XDICTIONARY
360
230
102
}
330
2A
100
AcDbVisualStyle
  2
Flat
 70
     0
 71
     2
 72
     1
 73
     1
 90
        2
 40
0.6
 41
30.0
 62
     5
 63
     7
421
 16777215
 74
     0
 91
        0
 64
     7
 65
   257
 75
     1
175
     1
 42
1.0
 92
        8
 66
     7
 43
1.0
 76
     1
 77
     6
 78
     2
 67
     7
 79
     5
170
     0
171
     0
290
     0
174
     0
 93
       13
 44
0.0
173
     0
291
     1
 45
0.0
1001
ACAD
1000
AcDbSavedByObjectVersion
1070
     0
  0
VISUALSTYLE
  5
2C
102
{ACAD_REACTORS
330
2A
102
}
102
{ACAD_XDICTIONARY
360
232
102
}
330
2A
100
AcDbVisualStyle
  2
FlatWithEdges
 70
     1
 71
     2
 72
     1
 73
     1
 90
        2
 40
0.6
 41
30.0
 62
     5
 63
     7
421
 16777215
 74
     1
 91
        0
 64
     7
 65
   257
 75
     1
175
     1
 42
1.0
 92
        0
 66
   257
 43
1.0
 76
     1
 77
     6
 78
     2
 67
     7
 79
     5
170
     0
171
     0
290
     0
174
     0
 93
       13
 44
0.0
173
     0
291
     1
 45
0.0
1001
ACAD
1000
AcDbSavedByObjectVersion
1070
     0
  0
VISUALSTYLE
  5
2D
102
{ACAD_REACTORS
330
2A
102
}
102
{ACAD_XDICTIONARY
360
234
102
}
330
2A
100
AcDbVisualStyle
  2
Gouraud
 70
     2
 71
     2
 72
     2
 73
     1
 90
        2
 40
0.6
 41
30.0
 62
     5
 63
     7
421
 16777215
 74
     0
 91
        0
 64
     7
 65
   257
 75
     1
175
     1
 42
1.0
 92
        0
 66
     7
 43
1.0
 76
     1
 77
     6
 78
     2
 67
     7
 79
     5
170
     0
171
     0
290
     0
174
     0
 93
       13
 44
0.0
173
     0
291
     1
 45
0.0
1001
ACAD
1000
AcDbSavedByObjectVersion
1070
     0
  0
VISUALSTYLE
  5
2E
102
{ACAD_REACTORS
330
2A
102
}
102
{ACAD_XDICTIONARY
360
236
102
}
330
2A
100
AcDbVisualStyle
  2
GouraudWithEdges
 70
     3
 71
     2
 72
     2
 73
     1
 90
        2
 40
0.6
 41
30.0
 62
     5
 63
     7
421
 16777215
 74
     1
 91
        0
 64
     7
 65
   257
 75
     1
175
     1
 42
1.0
 92
        0
 66
   257
 43
1.0
 76
     1
 77
     6
 78
     2
 67
     7
 79
     5
170
     0
171
     0
290
     0
174
     0
 93
       13
 44
0.0
173
     0
291
     1
 45
0.0
1001
ACAD
1000
AcDbSavedByObjectVersion
1070
     0
  0
VISUALSTYLE
  5
31
102
{ACAD_REACTORS
330
2A
102
}
102
{ACAD_XDICTIONARY
360
23C
102
}
330
2A
100
AcDbVisualStyle
  2
Hidden
 70
     6
 71
     1
 72
     2
 73
     2
 90
        0
 40
0.6
 41
30.0
 62
     5
 63
     7
421
 16777215
 74
     2
 91
        2
 64
     7
 65
   257
 75
     2
175
     1
 42
40.0
 92
        0
 66
   257
 43
1.0
 76
     1
 77
     6
 78
     2
 67
     7
 79
     3
170
     0
171
     0
290
     0
174
     0
 93
        1
 44
0.0
173
     0
291
     0
 45
0.0
1001
ACAD
1000
AcDbSavedByObjectVersion
1070
     0
  0
VISUALSTYLE
  5
3B
102
{ACAD_REACTORS
330
2A
102
}
102
{ACAD_XDICTIONARY
360
250
102
}
330
2A
100
AcDbVisualStyle
  2
JitterOff
 70
    20
 71
     2
 72
     2
 73
     0
 90
        0
 40
0.6
 41
30.0
 62
     5
 63
     7
421
 16777215
 74
     1
 91
        4
 64
     7
 65
   257
 75
     1
175
     1
 42
1.0
 92
       10
 66
     7
 43
1.0
 76
     1
 77
     6
 78
     2
 67
     7
 79
     5
170
     0
171
     0
290
     0
174
     0
 93
        1
 44
0.0
173
     0
291
     1
 45
0.0
1001
ACAD
1000
AcDbSavedByObjectVersion
1070
     0
  0
VISUALSTYLE
  5
38
102
{ACAD_REACTORS
330
2A
102
}
102
{ACAD_XDICTIONARY
360
24A
102
}
330
2A
100
AcDbVisualStyle
  2
Linepattern
 70
    14
 71
     2
 72
     2
 73
     0
 90
        0
 40
0.6
 41
30.0
 62
     5
 63
     7
421
 16777215
 74
     1
 91
        4
 64
     7
 65
   257
 75
     7
175
     7
 42
1.0
 92
        8
 66
     7
 43
1.0
 76
     1
 77
     6
 78
     2
 67
     7
 79
     5
170
     0
171
     0
290
     0
174
     0
 93
        1
 44
0.0
173
     0
291
     1
 45
0.0
1001
ACAD
1000
AcDbSavedByObjectVersion
1070
     0
  0
VISUALSTYLE
  5
3C
102
{ACAD_REACTORS
330
2A
102
}
102
{ACAD_XDICTIONARY
360
252
102
}
330
2A
100
AcDbVisualStyle
  2
OverhangOff
 70
    21
 71
     2
 72
     2
 73
     0
 90
        0
 40
0.6
 41
30.0
 62
     5
 63
     7
421
 16777215
 74
     1
 91
        4
 64
     7
 65
   257
 75
     1
175
     1
 42
1.0
 92
        9
 66
     7
 43
1.0
 76
     1
 77
     6
 78
     2
 67
     7
 79
     5
170
     0
171
     0
290
     0
174
     0
 93
        1
 44
0.0
173
     0
291
     1
 45
0.0
1001
ACAD
1000
AcDbSavedByObjectVersion
1070
     0
  0
VISUALSTYLE
  5
33
102
{ACAD_REACTORS
330
2A
102
}
102
{ACAD_XDICTIONARY
360
240
102
}
330
2A
100
AcDbVisualStyle
  2
Realistic
 70
     8
 71
     2
 72
     3
 73
     0
 90
        2
 40
0.6
 41
30.0
 62
     5
 63
     7
421
 16777215
 74
     0
 91
        0
 64
     7
 65
   257
 75
     1
175
     1
 42
1.0
 92
        8
 66
   257
 43
1.0
 76
     1
 77
     6
 78
     2
 67
     7
 79
     3
170
     0
171
     0
290
     0
174
     0
 93
       13
 44
0.0
173
     0
291
     0
 45
0.0
1001
ACAD
1000
AcDbSavedByObjectVersion
1070
     0
  0
VISUALSTYLE
  5
42
102
{ACAD_REACTORS
330
2A
102
}
102
{ACAD_XDICTIONARY
360
25E
102
}
330
2A
100
AcDbVisualStyle
  2
Shaded
 70
    27
 71
     2
 72
     2
 73
     1
 90
        2
 40
0.6
 41
30.0
 62
     5
 63
     7
421
 16777215
 74
     0
 91
        4
 64
     7
 65
   257
 75
     1
175
     1
 42
1.0
 92
        8
 66
   257
 43
1.0
 76
     1
 77
     6
 78
     2
 67
     8
425
  7895160
 79
     3
170
     0
171
     0
290
     0
174
     0
 93
        5
 44
0.0
173
     0
291
     0
 45
0.0
1001
ACAD
1000
AcDbSavedByObjectVersion
1070
     0
  0
VISUALSTYLE
  5
41
102
{ACAD_REACTORS
330
2A
102
}
102
{ACAD_XDICTIONARY
360
25C
102
}
330
2A
100
AcDbVisualStyle
  2
Shaded with edges
 70
    26
 71
     2
 72
     2
 73
     1
 90
        2
 40
0.6
 41
30.0
 62
     5
 63
     7
421
 16777215
 74
     1
 91
       10
 64
     7
 65
   257
 75
     2
175
     1
 42
1.0
 92
        8
 66
   257
 43
1.0
 76
     1
 77
     6
 78
     2
 67
     7
 79
     3
170
     0
171
     0
290
     0
174
     0
 93
        5
 44
0.0
173
     0
291
     0
 45
0.0
1001
ACAD
1000
AcDbSavedByObjectVersion
1070
     0
  0
VISUALSTYLE
  5
3E
102
{ACAD_REACTORS
330
2A
102
}
102
{ACAD_XDICTIONARY
360
256
102
}
330
2A
100
AcDbVisualStyle
  2
Shades of Gray
 70
    23
 71
     2
 72
     2
 73
     3
 90
        0
 40
0.6
 41
30.0
 62
     5
 63
     7
421
 16777215
 74
     2
 91
        2
 64
     7
 65
     7
 75
     1
175
     1
 42
40.0
 92
        8
 66
     7
 43
1.0
 76
     1
 77
     6
 78
     2
 67
     7
 79
     3
170
     0
171
     0
290
     0
174
     0
 93
        1
 44
0.0
173
     0
291
     0
 45
0.0
1001
ACAD
1000
AcDbSavedByObjectVersion
1070
     0
  0
VISUALSTYLE
  5
3F
102
{ACAD_REACTORS
330
2A
102
}
102
{ACAD_XDICTIONARY
360
258
102
}
330
2A
100
AcDbVisualStyle
  2
Sketchy
 70
    24
 71
     1
 72
     2
 73
     2
 90
        0
 40
0.6
 41
30.0
 62
     5
 63
     7
421
 16777215
 74
     2
 91
        2
 64
     7
 65
     7
 75
     1
175
     1
 42
40.0
 92
       11
 66
     7
 43
1.0
 76
     1
 77
     6
 78
     2
 67
     7
 79
     6
170
     0
171
     0
290
     0
174
     0
 93
        1
 44
0.0
173
     0
291
     0
 45
0.0
1001
ACAD
1000
AcDbSavedByObjectVersion
1070
     0
  0
VISUALSTYLE
  5
37
102
{ACAD_REACTORS
330
2A
102
}
102
{ACAD_XDICTIONARY
360
248
102
}
330
2A
100
AcDbVisualStyle
  2
Thicken
 70
    13
 71
     2
 72
     2
 73
     0
 90
        0
 40
0.6
 41
30.0
 62
     5
 63
     7
421
 16777215
 74
     1
 91
        4
 64
     7
 65
   257
 75
     1
175
     1
 42
1.0
 92
       12
 66
     7
 43
1.0
 76
     1
 77
     6
 78
     2
 67
     7
 79
     5
170
     0
171
     0
290
     0
174
     0
 93
        1
 44
0.0
173
     0
291
     1
 45
0.0
1001
ACAD
1000
AcDbSavedByObjectVersion
1070
     0
  0
VISUALSTYLE
  5
30
102
{ACAD_REACTORS
330
2A
102
}
102
{ACAD_XDICTIONARY
360
23A
102
}
330
2A
100
AcDbVisualStyle
  2
Wireframe
 70
     5
 71
     0
 72
     2
 73
     0
 90
        0
 40
0.6
 41
30.0
 62
     5
 63
     7
421
 16777215
 74
     1
 91
        4
 64
     7
 65
   257
 75
     1
175
     1
 42
1.0
 92
        0
 66
   257
 43
1.0
 76
     1
 77
     6
 78
     2
 67
     7
 79
     3
170
     0
171
     0
290
     0
174
     0
 93
        1
 44
0.0
173
     0
291
     0
 45
0.0
1001
ACAD
1000
AcDbSavedByObjectVersion
1070
     0
  0
VISUALSTYLE
  5
40
102
{ACAD_REACTORS
330
2A
102
}
102
{ACAD_XDICTIONARY
360
25A
102
}
330
2A
100
AcDbVisualStyle
  2
X-Ray
 70
    25
 71
     2
 72
     2
 73
     1
 90
        1
 40
0.5
 41
30.0
 62
     5
 63
     7
421
 16777215
 74
     1
 91
        0
 64
     7
 65
   257
 75
     1
175
     1
 42
1.0
 92
        8
 66
     7
 43
1.0
 76
     1
 77
     6
 78
     2
 67
     7
 79
     3
170
     0
171
     0
290
     0
174
     0
 93
       13
 44
0.0
173
     0
291
     0
 45
0.0
1001
ACAD
1000
AcDbSavedByObjectVersion
1070
     0
  0
DICTIONARYVAR
  5
22D
102
{ACAD_REACTORS
330
22C
102
}
330
22C
100
DictionaryVariables
280
     0
  1
1:1
  0
DICTIONARYVAR
  5
271
102
{ACAD_REACTORS
330
22C
102
}
330
22C
100
DictionaryVariables
280
     0
  1
3.500000
  0
DICTIONARYVAR
  5
272
102
{ACAD_REACTORS
330
22C
102
}
330
22C
100
DictionaryVariables
280
     0
  1
acadiso.lin
  0
DICTIONARYVAR
  5
26E
102
{ACAD_REACTORS
330
22C
102
}
330
22C
100
DictionaryVariables
280
     0
  1
Standard
  0
DICTIONARYVAR
  5
26D
102
{ACAD_REACTORS
330
22C
102
}
330
22C
100
DictionaryVariables
280
     0
  1
Standard
  0
DICTIONARYVAR
  5
22E
102
{ACAD_REACTORS
330
22C
102
}
330
22C
100
DictionaryVariables
280
     0
  1
1
  0
DICTIONARYVAR
  5
22F
102
{ACAD_REACTORS
330
22C
102
}
330
22C
100
DictionaryVariables
280
     0
  1
2
  0
DICTIONARY
  5
262
330
45
100
AcDbDictionary
280
     1
281
     1
  3
ACAD_XREC_ROUNDTRIP
360
263
  0
DICTIONARY
  5
260
330
44
100
AcDbDictionary
280
     1
281
     1
  3
ACAD_XREC_ROUNDTRIP
360
261
  0
DICTIONARY
  5
264
330
46
100
AcDbDictionary
280
     1
281
     1
  3
ACAD_XREC_ROUNDTRIP
360
265
  0
DICTIONARY
  5
26A
330
6C
100
AcDbDictionary
280
     1
281
     1
  3
ACAD_XREC_ROUNDTRIP
360
26B
  0
DICTIONARY
  5
266
330
6A
100
AcDbDictionary
280
     1
281
     1
  3
ACAD_ROUNDTRIP_2008_TABLESTYLE_CELLSTYLEMAP
360
268
  3
ACAD_XREC_ROUNDTRIP
360
267
  0
DICTIONARY
  5
238
330
2F
100
AcDbDictionary
280
     1
281
     1
  3
ACAD_XREC_ROUNDTRIP
360
239
  0
DICTIONARY
  5
23E
330
32
100
AcDbDictionary
280
     1
281
     1
  3
ACAD_XREC_ROUNDTRIP
360
23F
  0
DICTIONARY
  5
246
330
36
100
AcDbDictionary
280
     1
281
     1
  3
ACAD_XREC_ROUNDTRIP
360
247
  0
DICTIONARY
  5
24E
330
3A
100
AcDbDictionary
280
     1
281
     1
  3
ACAD_XREC_ROUNDTRIP
360
24F
  0
DICTIONARY
  5
242
330
34
100
AcDbDictionary
280
     1
281
     1
  3
ACAD_XREC_ROUNDTRIP
360
243
  0
DICTIONARY
  5
244
330
35
100
AcDbDictionary
280
     1
281
     1
  3
ACAD_XREC_ROUNDTRIP
360
245
  0
DICTIONARY
  5
254
330
3D
100
AcDbDictionary
280
     1
281
     1
  3
ACAD_XREC_ROUNDTRIP
360
255
  0
DICTIONARY
  5
24C
330
39
100
AcDbDictionary
280
     1
281
     1
  3
ACAD_XREC_ROUNDTRIP
360
24D
  0
DICTIONARY
  5
230
330
2B
100
AcDbDictionary
280
     1
281
     1
  3
ACAD_XREC_ROUNDTRIP
360
231
  0
DICTIONARY
  5
232
330
2C
100
AcDbDictionary
280
     1
281
     1
  3
ACAD_XREC_ROUNDTRIP
360
233
  0
DICTIONARY
  5
234
330
2D
100
AcDbDictionary
280
     1
281
     1
  3
ACAD_XREC_ROUNDTRIP
360
235
  0
DICTIONARY
  5
236
330
2E
100
AcDbDictionary
280
     1
281
     1
  3
ACAD_XREC_ROUNDTRIP
360
237
  0
DICTIONARY
  5
23C
330
31
100
AcDbDictionary
280
     1
281
     1
  3
ACAD_XREC_ROUNDTRIP
360
23D
  0
DICTIONARY
  5
250
330
3B
100
AcDbDictionary
280
     1
281
     1
  3
ACAD_XREC_ROUNDTRIP
360
251
  0
DICTIONARY
  5
24A
330
38
100
AcDbDictionary
280
     1
281
     1
  3
ACAD_XREC_ROUNDTRIP
360
24B
  0
DICTIONARY
  5
252
330
3C
100
AcDbDictionary
280
     1
281
     1
  3
ACAD_XREC_ROUNDTRIP
360
253
  0
DICTIONARY
  5
240
330
33
100
AcDbDictionary
280
     1
281
     1
  3
ACAD_XREC_ROUNDTRIP
360
241
  0
DICTIONARY
  5
25E
330
42
100
AcDbDictionary
280
     1
281
     1
  3
ACAD_XREC_ROUNDTRIP
360
25F
  0
DICTIONARY
  5
25C
330
41
100
AcDbDictionary
280
     1
281
     1
  3
ACAD_XREC_ROUNDTRIP
360
25D
  0
DICTIONARY
  5
256
330
3E
100
AcDbDictionary
280
     1
281
     1
  3
ACAD_XREC_ROUNDTRIP
360
257
  0
DICTIONARY
  5
258
330
3F
100
AcDbDictionary
280
     1
281
     1
  3
ACAD_XREC_ROUNDTRIP
360
259
  0
DICTIONARY
  5
248
330
37
100
AcDbDictionary
280
     1
281
     1
  3
ACAD_XREC_ROUNDTRIP
360
249
  0
DICTIONARY
  5
23A
330
30
100
AcDbDictionary
280
     1
281
     1
  3
ACAD_XREC_ROUNDTRIP
360
23B
  0
DICTIONARY
  5
25A
330
40
100
AcDbDictionary
280
     1
281
     1
  3
ACAD_XREC_ROUNDTRIP
360
25B
  0
XRECORD
  5
263
102
{ACAD_REACTORS
330
262
102
}
330
262
100
AcDbXrecord
280
     1
102
MATERIAL
148
0.0
149
0.0
149
0.0
 93
        0
 94
      127
282
     0
 72
     1
 77
     1
171
     1
175
     1
179
     1
273
     0
  0
XRECORD
  5
261
102
{ACAD_REACTORS
330
260
102
}
330
260
100
AcDbXrecord
280
     1
102
MATERIAL
148
0.0
149
0.0
149
0.0
 93
        0
 94
      127
282
     0
 72
     1
 77
     1
171
     1
175
     1
179
     1
273
     0
  0
XRECORD
  5
265
102
{ACAD_REACTORS
330
264
102
}
330
264
100
AcDbXrecord
280
     1
102
MATERIAL
148
0.0
149
0.0
149
0.0
 93
        0
 94
      127
282
     0
 72
     1
 77
     1
171
     1
175
     1
179
     1
273
     0
  0
XRECORD
  5
26B
102
{ACAD_REACTORS
330
26A
102
}
330
26A
100
AcDbXrecord
280
     1
102
ACAD_ROUNDTRIP_2010_MLEADER_STYLE
  0
CELLSTYLEMAP
  5
268
102
{ACAD_REACTORS
330
266
102
}
330
266
100
AcDbCellStyleMap
 90
        3
300
CELLSTYLE
  1
TABLEFORMAT_BEGIN
 90
        5
170
     1
 91
        0
 92
    32768
 62
   257
 93
        1
300
CONTENTFORMAT
  1
CONTENTFORMAT_BEGIN
 90
        0
 91
        0
 92
        4
 93
        0
300

 40
0.0
140
1.0
 94
        5
 62
     0
340
11
144
6.0
309
CONTENTFORMAT_END
171
     1
301
MARGIN
  1
CELLMARGIN_BEGIN
 40
1.5
 40
1.5
 40
1.5
 40
1.5
 40
1.5
 40
1.5
309
CELLMARGIN_END
 94
        6
 95
        1
302
GRIDFORMAT
  1
GRIDFORMAT_BEGIN
 90
        0
 91
        1
 62
     0
 92
       -2
340
14
 93
        0
 40
0.045
309
GRIDFORMAT_END
 95
        2
302
GRIDFORMAT
  1
GRIDFORMAT_BEGIN
 90
        0
 91
        1
 62
     0
 92
       -2
340
14
 93
        0
 40
0.045
309
GRIDFORMAT_END
 95
        4
302
GRIDFORMAT
  1
GRIDFORMAT_BEGIN
 90
        0
 91
        1
 62
     0
 92
       -2
340
14
 93
        0
 40
0.045
309
GRIDFORMAT_END
 95
        8
302
GRIDFORMAT
  1
GRIDFORMAT_BEGIN
 90
        0
 91
        1
 62
     0
 92
       -2
340
14
 93
        0
 40
0.045
309
GRIDFORMAT_END
 95
       16
302
GRIDFORMAT
  1
GRIDFORMAT_BEGIN
 90
        0
 91
        1
 62
     0
 92
       -2
340
14
 93
        0
 40
0.045
309
GRIDFORMAT_END
 95
       32
302
GRIDFORMAT
  1
GRIDFORMAT_BEGIN
 90
        0
 91
        1
 62
     0
 92
       -2
340
14
 93
        0
 40
0.045
309
GRIDFORMAT_END
309
TABLEFORMAT_END
  1
CELLSTYLE_BEGIN
 90
        1
 91
        1
300
_TITLE
309
CELLSTYLE_END
300
CELLSTYLE
  1
TABLEFORMAT_BEGIN
 90
        5
170
     1
 91
        0
 92
        0
 62
   257
 93
        1
300
CONTENTFORMAT
  1
CONTENTFORMAT_BEGIN
 90
        0
 91
        0
 92
        4
 93
        0
300

 40
0.0
140
1.0
 94
        5
 62
     0
340
11
144
4.5
309
CONTENTFORMAT_END
171
     1
301
MARGIN
  1
CELLMARGIN_BEGIN
 40
1.5
 40
1.5
 40
1.5
 40
1.5
 40
1.5
 40
1.5
309
CELLMARGIN_END
 94
        6
 95
        1
302
GRIDFORMAT
  1
GRIDFORMAT_BEGIN
 90
        0
 91
        1
 62
     0
 92
       -2
340
14
 93
        0
 40
0.045
309
GRIDFORMAT_END
 95
        2
302
GRIDFORMAT
  1
GRIDFORMAT_BEGIN
 90
        0
 91
        1
 62
     0
 92
       -2
340
14
 93
        0
 40
0.045
309
GRIDFORMAT_END
 95
        4
302
GRIDFORMAT
  1
GRIDFORMAT_BEGIN
 90
        0
 91
        1
 62
     0
 92
       -2
340
14
 93
        0
 40
0.045
309
GRIDFORMAT_END
 95
        8
302
GRIDFORMAT
  1
GRIDFORMAT_BEGIN
 90
        0
 91
        1
 62
     0
 92
       -2
340
14
 93
        0
 40
0.045
309
GRIDFORMAT_END
 95
       16
302
GRIDFORMAT
  1
GRIDFORMAT_BEGIN
 90
        0
 91
        1
 62
     0
 92
       -2
340
14
 93
        0
 40
0.045
309
GRIDFORMAT_END
 95
       32
302
GRIDFORMAT
  1
GRIDFORMAT_BEGIN
 90
        0
 91
        1
 62
     0
 92
       -2
340
14
 93
        0
 40
0.045
309
GRIDFORMAT_END
309
TABLEFORMAT_END
  1
CELLSTYLE_BEGIN
 90
        2
 91
        1
300
_HEADER
309
CELLSTYLE_END
300
CELLSTYLE
  1
TABLEFORMAT_BEGIN
 90
        5
170
     1
 91
        0
 92
        0
 62
   257
 93
        1
300
CONTENTFORMAT
  1
CONTENTFORMAT_BEGIN
 90
        0
 91
        0
 92
        4
 93
        0
300

 40
0.0
140
1.0
 94
        2
 62
     0
340
11
144
4.5
309
CONTENTFORMAT_END
171
     1
301
MARGIN
  1
CELLMARGIN_BEGIN
 40
1.5
 40
1.5
 40
1.5
 40
1.5
 40
1.5
 40
1.5
309
CELLMARGIN_END
 94
        6
 95
        1
302
GRIDFORMAT
  1
GRIDFORMAT_BEGIN
 90
        0
 91
        1
 62
     0
 92
       -2
340
14
 93
        0
 40
0.045
309
GRIDFORMAT_END
 95
        2
302
GRIDFORMAT
  1
GRIDFORMAT_BEGIN
 90
        0
 91
        1
 62
     0
 92
       -2
340
14
 93
        0
 40
0.045
309
GRIDFORMAT_END
 95
        4
302
GRIDFORMAT
  1
GRIDFORMAT_BEGIN
 90
        0
 91
        1
 62
     0
 92
       -2
340
14
 93
        0
 40
0.045
309
GRIDFORMAT_END
 95
        8
302
GRIDFORMAT
  1
GRIDFORMAT_BEGIN
 90
        0
 91
        1
 62
     0
 92
       -2
340
14
 93
        0
 40
0.045
309
GRIDFORMAT_END
 95
       16
302
GRIDFORMAT
  1
GRIDFORMAT_BEGIN
 90
        0
 91
        1
 62
     0
 92
       -2
340
14
 93
        0
 40
0.045
309
GRIDFORMAT_END
 95
       32
302
GRIDFORMAT
  1
GRIDFORMAT_BEGIN
 90
        0
 91
        1
 62
     0
 92
       -2
340
14
 93
        0
 40
0.045
309
GRIDFORMAT_END
309
TABLEFORMAT_END
  1
CELLSTYLE_BEGIN
 90
        3
 91
        2
300
_DATA
309
CELLSTYLE_END
  0
XRECORD
  5
267
102
{ACAD_REACTORS
330
266
102
}
330
266
100
AcDbXrecord
280
     1
102
ACAD_ROUNDTRIP_PRE2007_TABLESTYLE
 90
        4
 91
        0
  1

 92
        4
 93
        0
  2

 94
        4
 95
        0
  3

  0
XRECORD
  5
239
102
{ACAD_REACTORS
330
238
102
}
330
238
100
AcDbXrecord
280
     1
102
RTVSPropertyOp0
 70
     1
102
RTVSPropertyOp1
 70
     1
102
RTVSPropertyOp2
 70
     1
102
RTVSPropertyOp3
 70
     1
102
RTVSPropertyOp4
 70
     1
102
RTVSPropertyOp5
 70
     1
102
RTVSPropertyOp6
 70
     1
102
RTVSPropertyOp7
 70
     1
102
RTVSPropertyOp8
 70
     1
102
RTVSPropertyOp9
 70
     1
102
RTVSPropertyOp10
 70
     1
102
RTVSPropertyOp11
 70
     1
102
RTVSPropertyOp12
 70
     1
102
RTVSPropertyOp13
 70
     1
102
RTVSPropertyOp14
 70
     1
102
RTVSPropertyOp15
 70
     1
102
RTVSPropertyOp16
 70
     1
102
RTVSPropertyOp17
 70
     1
102
RTVSPropertyOp18
 70
     1
102
RTVSPropertyOp19
 70
     1
102
RTVSPropertyOp20
 70
     1
102
RTVSPropertyOp21
 70
     1
102
RTVSPropertyOp22
 70
     1
102
RTVSPropertyOp23
 70
     1
102
RTVSPropertyOp24
 70
     1
102
RTVSPropertyOp25
 70
     1
102
RTVSPropertyOp26
 70
     1
102
RTVSPropertyOp27
 70
     1
102
RTVSPropertyOp28
 70
     1
102
RTVSPropertyOp29
 70
     1
102
RTVSPropertyOp30
 70
     1
102
RTVSPropertyOp31
 70
     1
102
RTVSPropertyOp32
 70
     1
102
RTVSPropertyOp33
 70
     1
102
RTVSPropertyOp34
 70
     1
102
RTVSPropertyOp35
 70
     1
102
RTVSPropertyOp36
 70
     1
102
RTVSPropertyOp37
 70
     1
102
RTVSPropertyOp38
 70
     1
102
RTVSPropertyOp39
 70
     1
102
RTVSPropertyOp40
 70
     1
102
RTVSPropertyOp41
 70
     1
102
RTVSPropertyOp42
 70
     1
102
RTVSPropertyOp43
 70
     1
102
RTVSPropertyOp44
 70
     1
102
RTVSPropertyOp45
 70
     1
102
RTVSPropertyOp46
 70
     1
102
RTVSPropertyOp47
 70
     1
102
RTVSPropertyOp48
 70
     1
102
RTVSPropertyOp49
 70
     1
102
RTVSPropertyOp50
 70
     1
102
RTVSPropertyOp51
 70
     0
102
RTVSPropertyOp52
 70
     0
102
RTVSPropertyOp53
 70
     1
102
RTVSPropertyOp54
 70
     1
102
RTVSPropertyOp55
 70
     1
102
RTVSPropertyOp56
 70
     1
102
RTVSPropertyOp57
 70
     1
102
RTVSPost2010Prop28
280
     1
102
RTVSPost2010PropOp28
 70
     1
102
RTVSPost2010Prop29
280
     1
102
RTVSPost2010PropOp29
 70
     1
102
RTVSPost2010Prop30
280
     0
102
RTVSPost2010PropOp30
 70
     1
102
RTVSPost2010Prop31
280
     0
102
RTVSPost2010PropOp31
 70
     1
102
RTVSPost2010Prop32
280
     0
102
RTVSPost2010PropOp32
 70
     1
102
RTVSPost2010Prop33
280
     0
102
RTVSPost2010PropOp33
 70
     1
102
RTVSPost2010Prop34
280
     0
102
RTVSPost2010PropOp34
 70
     1
102
RTVSPost2010Prop35
280
     0
102
RTVSPost2010PropOp35
 70
     1
102
RTVSPost2010Prop36
280
     0
102
RTVSPost2010PropOp36
 70
     1
102
RTVSPost2010Prop37
 90
       50
102
RTVSPost2010PropOp37
 70
     1
102
RTVSPost2010Prop38
140
0.0
102
RTVSPost2010PropOp38
 70
     1
102
RTVSPost2010Prop39
140
1.0
102
RTVSPost2010PropOp39
 70
     1
102
RTVSPost2010Prop40
 90
        0
102
RTVSPost2010PropOp40
 70
     1
102
RTVSPost2010Prop41ColorIndex
 90
       18
102
RTVSPost2010Prop41ColorRGB
 90
        0
102
RTVSPost2010PropOp41
 70
     1
102
RTVSPost2010Prop42
 90
       50
102
RTVSPost2010PropOp42
 70
     1
102
RTVSPost2010Prop43
 90
        3
102
RTVSPost2010PropOp43
 70
     1
102
RTVSPost2010Prop44ColorIndex
 90
        5
102
RTVSPost2010Prop44ColorRGB
 90
      255
102
RTVSPost2010PropOp44
 70
     1
102
RTVSPost2010Prop45
280
     0
102
RTVSPost2010PropOp45
 70
     1
102
RTVSPost2010Prop46
 90
       50
102
RTVSPost2010PropOp46
 70
     1
102
RTVSPost2010Prop47
 90
       50
102
RTVSPost2010PropOp47
 70
     1
102
RTVSPost2010Prop48
 90
       50
102
RTVSPost2010PropOp48
 70
     1
102
RTVSPost2010Prop49
280
     0
102
RTVSPost2010PropOp49
 70
     1
102
RTVSPost2010Prop50
 90
       50
102
RTVSPost2010PropOp50
 70
     1
102
RTVSPost2010Prop51ColorIndex
 90
      256
102
RTVSPost2010Prop51ColorRGB
 90
-16777216
102
RTVSPost2010PropOp51
 70
     0
102
RTVSPost2010Prop52
140
1.0
102
RTVSPost2010PropOp52
 70
     0
102
RTVSPost2010Prop53
 90
        2
102
RTVSPost2010PropOp53
 70
     1
102
RTVSPost2010Prop54
  1
strokes_ogs.tif
102
RTVSPost2010PropOp54
 70
     1
102
RTVSPost2010Prop55
280
     0
102
RTVSPost2010PropOp55
 70
     1
102
RTVSPost2010Prop56
140
1.0
102
RTVSPost2010PropOp56
 70
     1
102
RTVSPost2010Prop57
140
1.0
102
RTVSPost2010PropOp57
 70
     1
  0
XRECORD
  5
23F
102
{ACAD_REACTORS
330
23E
102
}
330
23E
100
AcDbXrecord
280
     1
102
RTVSPropertyOp0
 70
     1
102
RTVSPropertyOp1
 70
     1
102
RTVSPropertyOp2
 70
     1
102
RTVSPropertyOp3
 70
     1
102
RTVSPropertyOp4
 70
     1
102
RTVSPropertyOp5
 70
     1
102
RTVSPropertyOp6
 70
     1
102
RTVSPropertyOp7
 70
     1
102
RTVSPropertyOp8
 70
     1
102
RTVSPropertyOp9
 70
     1
102
RTVSPropertyOp10
 70
     1
102
RTVSPropertyOp11
 70
     1
102
RTVSPropertyOp12
 70
     1
102
RTVSPropertyOp13
 70
     1
102
RTVSPropertyOp14
 70
     1
102
RTVSPropertyOp15
 70
     1
102
RTVSPropertyOp16
 70
     1
102
RTVSPropertyOp17
 70
     1
102
RTVSPropertyOp18
 70
     1
102
RTVSPropertyOp19
 70
     1
102
RTVSPropertyOp20
 70
     1
102
RTVSPropertyOp21
 70
     1
102
RTVSPropertyOp22
 70
     1
102
RTVSPropertyOp23
 70
     1
102
RTVSPropertyOp24
 70
     1
102
RTVSPropertyOp25
 70
     1
102
RTVSPropertyOp26
 70
     1
102
RTVSPropertyOp27
 70
     1
102
RTVSPropertyOp28
 70
     1
102
RTVSPropertyOp29
 70
     1
102
RTVSPropertyOp30
 70
     1
102
RTVSPropertyOp31
 70
     1
102
RTVSPropertyOp32
 70
     1
102
RTVSPropertyOp33
 70
     1
102
RTVSPropertyOp34
 70
     1
102
RTVSPropertyOp35
 70
     1
102
RTVSPropertyOp36
 70
     1
102
RTVSPropertyOp37
 70
     1
102
RTVSPropertyOp38
 70
     1
102
RTVSPropertyOp39
 70
     1
102
RTVSPropertyOp40
 70
     1
102
RTVSPropertyOp41
 70
     1
102
RTVSPropertyOp42
 70
     1
102
RTVSPropertyOp43
 70
     1
102
RTVSPropertyOp44
 70
     1
102
RTVSPropertyOp45
 70
     1
102
RTVSPropertyOp46
 70
     1
102
RTVSPropertyOp47
 70
     1
102
RTVSPropertyOp48
 70
     1
102
RTVSPropertyOp49
 70
     1
102
RTVSPropertyOp50
 70
     1
102
RTVSPropertyOp51
 70
     0
102
RTVSPropertyOp52
 70
     0
102
RTVSPropertyOp53
 70
     1
102
RTVSPropertyOp54
 70
     1
102
RTVSPropertyOp55
 70
     1
102
RTVSPropertyOp56
 70
     1
102
RTVSPropertyOp57
 70
     1
102
RTVSPost2010Prop28
280
     0
102
RTVSPost2010PropOp28
 70
     1
102
RTVSPost2010Prop29
280
     1
102
RTVSPost2010PropOp29
 70
     1
102
RTVSPost2010Prop30
280
     1
102
RTVSPost2010PropOp30
 70
     1
102
RTVSPost2010Prop31
280
     0
102
RTVSPost2010PropOp31
 70
     1
102
RTVSPost2010Prop32
280
     0
102
RTVSPost2010PropOp32
 70
     1
102
RTVSPost2010Prop33
280
     0
102
RTVSPost2010PropOp33
 70
     1
102
RTVSPost2010Prop34
280
     0
102
RTVSPost2010PropOp34
 70
     1
102
RTVSPost2010Prop35
280
     0
102
RTVSPost2010PropOp35
 70
     1
102
RTVSPost2010Prop36
280
     0
102
RTVSPost2010PropOp36
 70
     1
102
RTVSPost2010Prop37
 90
       50
102
RTVSPost2010PropOp37
 70
     1
102
RTVSPost2010Prop38
140
0.0
102
RTVSPost2010PropOp38
 70
     1
102
RTVSPost2010Prop39
140
1.0
102
RTVSPost2010PropOp39
 70
     1
102
RTVSPost2010Prop40
 90
        0
102
RTVSPost2010PropOp40
 70
     1
102
RTVSPost2010Prop41ColorIndex
 90
       18
102
RTVSPost2010Prop41ColorRGB
 90
        0
102
RTVSPost2010PropOp41
 70
     1
102
RTVSPost2010Prop42
 90
       50
102
RTVSPost2010PropOp42
 70
     1
102
RTVSPost2010Prop43
 90
        3
102
RTVSPost2010PropOp43
 70
     1
102
RTVSPost2010Prop44ColorIndex
 90
        5
102
RTVSPost2010Prop44ColorRGB
 90
      255
102
RTVSPost2010PropOp44
 70
     1
102
RTVSPost2010Prop45
280
     0
102
RTVSPost2010PropOp45
 70
     1
102
RTVSPost2010Prop46
 90
       50
102
RTVSPost2010PropOp46
 70
     1
102
RTVSPost2010Prop47
 90
       50
102
RTVSPost2010PropOp47
 70
     1
102
RTVSPost2010Prop48
 90
       50
102
RTVSPost2010PropOp48
 70
     1
102
RTVSPost2010Prop49
280
     0
102
RTVSPost2010PropOp49
 70
     1
102
RTVSPost2010Prop50
 90
       50
102
RTVSPost2010PropOp50
 70
     1
102
RTVSPost2010Prop51ColorIndex
 90
      256
102
RTVSPost2010Prop51ColorRGB
 90
-16777216
102
RTVSPost2010PropOp51
 70
     0
102
RTVSPost2010Prop52
140
1.0
102
RTVSPost2010PropOp52
 70
     0
102
RTVSPost2010Prop53
 90
        2
102
RTVSPost2010PropOp53
 70
     1
102
RTVSPost2010Prop54
  1
strokes_ogs.tif
102
RTVSPost2010PropOp54
 70
     1
102
RTVSPost2010Prop55
280
     0
102
RTVSPost2010PropOp55
 70
     1
102
RTVSPost2010Prop56
140
1.0
102
RTVSPost2010PropOp56
 70
     1
102
RTVSPost2010Prop57
140
1.0
102
RTVSPost2010PropOp57
 70
     1
  0
XRECORD
  5
247
102
{ACAD_REACTORS
330
246
102
}
330
246
100
AcDbXrecord
280
     1
102
RTVSPropertyOp0
 70
     1
102
RTVSPropertyOp1
 70
     1
102
RTVSPropertyOp2
 70
     1
102
RTVSPropertyOp3
 70
     1
102
RTVSPropertyOp4
 70
     1
102
RTVSPropertyOp5
 70
     1
102
RTVSPropertyOp6
 70
     1
102
RTVSPropertyOp7
 70
     1
102
RTVSPropertyOp8
 70
     1
102
RTVSPropertyOp9
 70
     1
102
RTVSPropertyOp10
 70
     1
102
RTVSPropertyOp11
 70
     1
102
RTVSPropertyOp12
 70
     1
102
RTVSPropertyOp13
 70
     1
102
RTVSPropertyOp14
 70
     1
102
RTVSPropertyOp15
 70
     1
102
RTVSPropertyOp16
 70
     1
102
RTVSPropertyOp17
 70
     1
102
RTVSPropertyOp18
 70
     1
102
RTVSPropertyOp19
 70
     1
102
RTVSPropertyOp20
 70
     1
102
RTVSPropertyOp21
 70
     1
102
RTVSPropertyOp22
 70
     1
102
RTVSPropertyOp23
 70
     1
102
RTVSPropertyOp24
 70
     1
102
RTVSPropertyOp25
 70
     1
102
RTVSPropertyOp26
 70
     1
102
RTVSPropertyOp27
 70
     1
102
RTVSPropertyOp28
 70
     1
102
RTVSPropertyOp29
 70
     1
102
RTVSPropertyOp30
 70
     1
102
RTVSPropertyOp31
 70
     1
102
RTVSPropertyOp32
 70
     1
102
RTVSPropertyOp33
 70
     1
102
RTVSPropertyOp34
 70
     1
102
RTVSPropertyOp35
 70
     1
102
RTVSPropertyOp36
 70
     1
102
RTVSPropertyOp37
 70
     1
102
RTVSPropertyOp38
 70
     1
102
RTVSPropertyOp39
 70
     1
102
RTVSPropertyOp40
 70
     1
102
RTVSPropertyOp41
 70
     1
102
RTVSPropertyOp42
 70
     1
102
RTVSPropertyOp43
 70
     1
102
RTVSPropertyOp44
 70
     1
102
RTVSPropertyOp45
 70
     1
102
RTVSPropertyOp46
 70
     1
102
RTVSPropertyOp47
 70
     1
102
RTVSPropertyOp48
 70
     1
102
RTVSPropertyOp49
 70
     1
102
RTVSPropertyOp50
 70
     1
102
RTVSPropertyOp51
 70
     0
102
RTVSPropertyOp52
 70
     0
102
RTVSPropertyOp53
 70
     1
102
RTVSPropertyOp54
 70
     1
102
RTVSPropertyOp55
 70
     1
102
RTVSPropertyOp56
 70
     1
102
RTVSPropertyOp57
 70
     1
102
RTVSPost2010Prop28
280
     0
102
RTVSPost2010PropOp28
 70
     1
102
RTVSPost2010Prop29
280
     1
102
RTVSPost2010PropOp29
 70
     1
102
RTVSPost2010Prop30
280
     1
102
RTVSPost2010PropOp30
 70
     1
102
RTVSPost2010Prop31
280
     0
102
RTVSPost2010PropOp31
 70
     1
102
RTVSPost2010Prop32
280
     0
102
RTVSPost2010PropOp32
 70
     1
102
RTVSPost2010Prop33
280
     0
102
RTVSPost2010PropOp33
 70
     1
102
RTVSPost2010Prop34
280
     0
102
RTVSPost2010PropOp34
 70
     1
102
RTVSPost2010Prop35
280
     0
102
RTVSPost2010PropOp35
 70
     1
102
RTVSPost2010Prop36
280
     0
102
RTVSPost2010PropOp36
 70
     1
102
RTVSPost2010Prop37
 90
       50
102
RTVSPost2010PropOp37
 70
     1
102
RTVSPost2010Prop38
140
0.0
102
RTVSPost2010PropOp38
 70
     1
102
RTVSPost2010Prop39
140
1.0
102
RTVSPost2010PropOp39
 70
     1
102
RTVSPost2010Prop40
 90
        0
102
RTVSPost2010PropOp40
 70
     1
102
RTVSPost2010Prop41ColorIndex
 90
       18
102
RTVSPost2010Prop41ColorRGB
 90
        0
102
RTVSPost2010PropOp41
 70
     1
102
RTVSPost2010Prop42
 90
       50
102
RTVSPost2010PropOp42
 70
     1
102
RTVSPost2010Prop43
 90
        3
102
RTVSPost2010PropOp43
 70
     1
102
RTVSPost2010Prop44ColorIndex
 90
        5
102
RTVSPost2010Prop44ColorRGB
 90
      255
102
RTVSPost2010PropOp44
 70
     1
102
RTVSPost2010Prop45
280
     0
102
RTVSPost2010PropOp45
 70
     1
102
RTVSPost2010Prop46
 90
       50
102
RTVSPost2010PropOp46
 70
     1
102
RTVSPost2010Prop47
 90
       50
102
RTVSPost2010PropOp47
 70
     1
102
RTVSPost2010Prop48
 90
       50
102
RTVSPost2010PropOp48
 70
     1
102
RTVSPost2010Prop49
280
     0
102
RTVSPost2010PropOp49
 70
     1
102
RTVSPost2010Prop50
 90
       50
102
RTVSPost2010PropOp50
 70
     1
102
RTVSPost2010Prop51ColorIndex
 90
      256
102
RTVSPost2010Prop51ColorRGB
 90
-16777216
102
RTVSPost2010PropOp51
 70
     0
102
RTVSPost2010Prop52
140
1.0
102
RTVSPost2010PropOp52
 70
     0
102
RTVSPost2010Prop53
 90
        2
102
RTVSPost2010PropOp53
 70
     1
102
RTVSPost2010Prop54
  1
strokes_ogs.tif
102
RTVSPost2010PropOp54
 70
     1
102
RTVSPost2010Prop55
280
     0
102
RTVSPost2010PropOp55
 70
     1
102
RTVSPost2010Prop56
140
1.0
102
RTVSPost2010PropOp56
 70
     1
102
RTVSPost2010Prop57
140
1.0
102
RTVSPost2010PropOp57
 70
     1
  0
XRECORD
  5
24F
102
{ACAD_REACTORS
330
24E
102
}
330
24E
100
AcDbXrecord
280
     1
102
RTVSPropertyOp0
 70
     1
102
RTVSPropertyOp1
 70
     1
102
RTVSPropertyOp2
 70
     1
102
RTVSPropertyOp3
 70
     1
102
RTVSPropertyOp4
 70
     1
102
RTVSPropertyOp5
 70
     1
102
RTVSPropertyOp6
 70
     1
102
RTVSPropertyOp7
 70
     1
102
RTVSPropertyOp8
 70
     1
102
RTVSPropertyOp9
 70
     1
102
RTVSPropertyOp10
 70
     1
102
RTVSPropertyOp11
 70
     1
102
RTVSPropertyOp12
 70
     1
102
RTVSPropertyOp13
 70
     1
102
RTVSPropertyOp14
 70
     1
102
RTVSPropertyOp15
 70
     1
102
RTVSPropertyOp16
 70
     1
102
RTVSPropertyOp17
 70
     1
102
RTVSPropertyOp18
 70
     1
102
RTVSPropertyOp19
 70
     1
102
RTVSPropertyOp20
 70
     1
102
RTVSPropertyOp21
 70
     1
102
RTVSPropertyOp22
 70
     1
102
RTVSPropertyOp23
 70
     1
102
RTVSPropertyOp24
 70
     1
102
RTVSPropertyOp25
 70
     1
102
RTVSPropertyOp26
 70
     1
102
RTVSPropertyOp27
 70
     1
102
RTVSPropertyOp28
 70
     1
102
RTVSPropertyOp29
 70
     1
102
RTVSPropertyOp30
 70
     1
102
RTVSPropertyOp31
 70
     1
102
RTVSPropertyOp32
 70
     1
102
RTVSPropertyOp33
 70
     1
102
RTVSPropertyOp34
 70
     1
102
RTVSPropertyOp35
 70
     1
102
RTVSPropertyOp36
 70
     1
102
RTVSPropertyOp37
 70
     1
102
RTVSPropertyOp38
 70
     1
102
RTVSPropertyOp39
 70
     1
102
RTVSPropertyOp40
 70
     1
102
RTVSPropertyOp41
 70
     1
102
RTVSPropertyOp42
 70
     1
102
RTVSPropertyOp43
 70
     1
102
RTVSPropertyOp44
 70
     1
102
RTVSPropertyOp45
 70
     1
102
RTVSPropertyOp46
 70
     1
102
RTVSPropertyOp47
 70
     1
102
RTVSPropertyOp48
 70
     1
102
RTVSPropertyOp49
 70
     1
102
RTVSPropertyOp50
 70
     1
102
RTVSPropertyOp51
 70
     0
102
RTVSPropertyOp52
 70
     0
102
RTVSPropertyOp53
 70
     1
102
RTVSPropertyOp54
 70
     1
102
RTVSPropertyOp55
 70
     1
102
RTVSPropertyOp56
 70
     1
102
RTVSPropertyOp57
 70
     1
102
RTVSPost2010Prop28
280
     0
102
RTVSPost2010PropOp28
 70
     1
102
RTVSPost2010Prop29
280
     1
102
RTVSPost2010PropOp29
 70
     1
102
RTVSPost2010Prop30
280
     1
102
RTVSPost2010PropOp30
 70
     1
102
RTVSPost2010Prop31
280
     0
102
RTVSPost2010PropOp31
 70
     1
102
RTVSPost2010Prop32
280
     0
102
RTVSPost2010PropOp32
 70
     1
102
RTVSPost2010Prop33
280
     0
102
RTVSPost2010PropOp33
 70
     1
102
RTVSPost2010Prop34
280
     0
102
RTVSPost2010PropOp34
 70
     1
102
RTVSPost2010Prop35
280
     0
102
RTVSPost2010PropOp35
 70
     1
102
RTVSPost2010Prop36
280
     0
102
RTVSPost2010PropOp36
 70
     1
102
RTVSPost2010Prop37
 90
       50
102
RTVSPost2010PropOp37
 70
     1
102
RTVSPost2010Prop38
140
0.0
102
RTVSPost2010PropOp38
 70
     1
102
RTVSPost2010Prop39
140
1.0
102
RTVSPost2010PropOp39
 70
     1
102
RTVSPost2010Prop40
 90
        0
102
RTVSPost2010PropOp40
 70
     1
102
RTVSPost2010Prop41ColorIndex
 90
       18
102
RTVSPost2010Prop41ColorRGB
 90
        0
102
RTVSPost2010PropOp41
 70
     1
102
RTVSPost2010Prop42
 90
       50
102
RTVSPost2010PropOp42
 70
     1
102
RTVSPost2010Prop43
 90
        3
102
RTVSPost2010PropOp43
 70
     1
102
RTVSPost2010Prop44ColorIndex
 90
        5
102
RTVSPost2010Prop44ColorRGB
 90
      255
102
RTVSPost2010PropOp44
 70
     1
102
RTVSPost2010Prop45
280
     0
102
RTVSPost2010PropOp45
 70
     1
102
RTVSPost2010Prop46
 90
       50
102
RTVSPost2010PropOp46
 70
     1
102
RTVSPost2010Prop47
 90
       50
102
RTVSPost2010PropOp47
 70
     1
102
RTVSPost2010Prop48
 90
       50
102
RTVSPost2010PropOp48
 70
     1
102
RTVSPost2010Prop49
280
     0
102
RTVSPost2010PropOp49
 70
     1
102
RTVSPost2010Prop50
 90
       50
102
RTVSPost2010PropOp50
 70
     1
102
RTVSPost2010Prop51ColorIndex
 90
      256
102
RTVSPost2010Prop51ColorRGB
 90
-16777216
102
RTVSPost2010PropOp51
 70
     0
102
RTVSPost2010Prop52
140
1.0
102
RTVSPost2010PropOp52
 70
     0
102
RTVSPost2010Prop53
 90
        2
102
RTVSPost2010PropOp53
 70
     1
102
RTVSPost2010Prop54
  1
strokes_ogs.tif
102
RTVSPost2010PropOp54
 70
     1
102
RTVSPost2010Prop55
280
     0
102
RTVSPost2010PropOp55
 70
     1
102
RTVSPost2010Prop56
140
1.0
102
RTVSPost2010PropOp56
 70
     1
102
RTVSPost2010Prop57
140
1.0
102
RTVSPost2010PropOp57
 70
     1
  0
XRECORD
  5
243
102
{ACAD_REACTORS
330
242
102
}
330
242
100
AcDbXrecord
280
     1
102
RTVSPropertyOp0
 70
     1
102
RTVSPropertyOp1
 70
     1
102
RTVSPropertyOp2
 70
     1
102
RTVSPropertyOp3
 70
     1
102
RTVSPropertyOp4
 70
     1
102
RTVSPropertyOp5
 70
     1
102
RTVSPropertyOp6
 70
     1
102
RTVSPropertyOp7
 70
     1
102
RTVSPropertyOp8
 70
     1
102
RTVSPropertyOp9
 70
     1
102
RTVSPropertyOp10
 70
     1
102
RTVSPropertyOp11
 70
     1
102
RTVSPropertyOp12
 70
     1
102
RTVSPropertyOp13
 70
     1
102
RTVSPropertyOp14
 70
     1
102
RTVSPropertyOp15
 70
     1
102
RTVSPropertyOp16
 70
     1
102
RTVSPropertyOp17
 70
     1
102
RTVSPropertyOp18
 70
     1
102
RTVSPropertyOp19
 70
     1
102
RTVSPropertyOp20
 70
     1
102
RTVSPropertyOp21
 70
     1
102
RTVSPropertyOp22
 70
     1
102
RTVSPropertyOp23
 70
     1
102
RTVSPropertyOp24
 70
     1
102
RTVSPropertyOp25
 70
     1
102
RTVSPropertyOp26
 70
     1
102
RTVSPropertyOp27
 70
     1
102
RTVSPropertyOp28
 70
     1
102
RTVSPropertyOp29
 70
     1
102
RTVSPropertyOp30
 70
     1
102
RTVSPropertyOp31
 70
     1
102
RTVSPropertyOp32
 70
     1
102
RTVSPropertyOp33
 70
     1
102
RTVSPropertyOp34
 70
     1
102
RTVSPropertyOp35
 70
     1
102
RTVSPropertyOp36
 70
     1
102
RTVSPropertyOp37
 70
     1
102
RTVSPropertyOp38
 70
     1
102
RTVSPropertyOp39
 70
     1
102
RTVSPropertyOp40
 70
     1
102
RTVSPropertyOp41
 70
     1
102
RTVSPropertyOp42
 70
     1
102
RTVSPropertyOp43
 70
     1
102
RTVSPropertyOp44
 70
     1
102
RTVSPropertyOp45
 70
     1
102
RTVSPropertyOp46
 70
     1
102
RTVSPropertyOp47
 70
     1
102
RTVSPropertyOp48
 70
     1
102
RTVSPropertyOp49
 70
     1
102
RTVSPropertyOp50
 70
     1
102
RTVSPropertyOp51
 70
     0
102
RTVSPropertyOp52
 70
     0
102
RTVSPropertyOp53
 70
     1
102
RTVSPropertyOp54
 70
     1
102
RTVSPropertyOp55
 70
     1
102
RTVSPropertyOp56
 70
     1
102
RTVSPropertyOp57
 70
     1
102
RTVSPost2010Prop28
280
     0
102
RTVSPost2010PropOp28
 70
     1
102
RTVSPost2010Prop29
280
     1
102
RTVSPost2010PropOp29
 70
     1
102
RTVSPost2010Prop30
280
     1
102
RTVSPost2010PropOp30
 70
     1
102
RTVSPost2010Prop31
280
     0
102
RTVSPost2010PropOp31
 70
     1
102
RTVSPost2010Prop32
280
     0
102
RTVSPost2010PropOp32
 70
     1
102
RTVSPost2010Prop33
280
     0
102
RTVSPost2010PropOp33
 70
     1
102
RTVSPost2010Prop34
280
     0
102
RTVSPost2010PropOp34
 70
     1
102
RTVSPost2010Prop35
280
     0
102
RTVSPost2010PropOp35
 70
     1
102
RTVSPost2010Prop36
280
     0
102
RTVSPost2010PropOp36
 70
     1
102
RTVSPost2010Prop37
 90
       50
102
RTVSPost2010PropOp37
 70
     1
102
RTVSPost2010Prop38
140
0.0
102
RTVSPost2010PropOp38
 70
     1
102
RTVSPost2010Prop39
140
1.0
102
RTVSPost2010PropOp39
 70
     1
102
RTVSPost2010Prop40
 90
        0
102
RTVSPost2010PropOp40
 70
     1
102
RTVSPost2010Prop41ColorIndex
 90
       18
102
RTVSPost2010Prop41ColorRGB
 90
        0
102
RTVSPost2010PropOp41
 70
     1
102
RTVSPost2010Prop42
 90
       50
102
RTVSPost2010PropOp42
 70
     1
102
RTVSPost2010Prop43
 90
        3
102
RTVSPost2010PropOp43
 70
     1
102
RTVSPost2010Prop44ColorIndex
 90
        5
102
RTVSPost2010Prop44ColorRGB
 90
      255
102
RTVSPost2010PropOp44
 70
     1
102
RTVSPost2010Prop45
280
     0
102
RTVSPost2010PropOp45
 70
     1
102
RTVSPost2010Prop46
 90
       50
102
RTVSPost2010PropOp46
 70
     1
102
RTVSPost2010Prop47
 90
       50
102
RTVSPost2010PropOp47
 70
     1
102
RTVSPost2010Prop48
 90
       50
102
RTVSPost2010PropOp48
 70
     1
102
RTVSPost2010Prop49
280
     0
102
RTVSPost2010PropOp49
 70
     1
102
RTVSPost2010Prop50
 90
       50
102
RTVSPost2010PropOp50
 70
     1
102
RTVSPost2010Prop51ColorIndex
 90
      256
102
RTVSPost2010Prop51ColorRGB
 90
-16777216
102
RTVSPost2010PropOp51
 70
     0
102
RTVSPost2010Prop52
140
1.0
102
RTVSPost2010PropOp52
 70
     0
102
RTVSPost2010Prop53
 90
        2
102
RTVSPost2010PropOp53
 70
     1
102
RTVSPost2010Prop54
  1
strokes_ogs.tif
102
RTVSPost2010PropOp54
 70
     1
102
RTVSPost2010Prop55
280
     0
102
RTVSPost2010PropOp55
 70
     1
102
RTVSPost2010Prop56
140
1.0
102
RTVSPost2010PropOp56
 70
     1
102
RTVSPost2010Prop57
140
1.0
102
RTVSPost2010PropOp57
 70
     1
  0
XRECORD
  5
245
102
{ACAD_REACTORS
330
244
102
}
330
244
100
AcDbXrecord
280
     1
102
RTVSPropertyOp0
 70
     1
102
RTVSPropertyOp1
 70
     1
102
RTVSPropertyOp2
 70
     1
102
RTVSPropertyOp3
 70
     1
102
RTVSPropertyOp4
 70
     1
102
RTVSPropertyOp5
 70
     1
102
RTVSPropertyOp6
 70
     1
102
RTVSPropertyOp7
 70
     1
102
RTVSPropertyOp8
 70
     1
102
RTVSPropertyOp9
 70
     1
102
RTVSPropertyOp10
 70
     1
102
RTVSPropertyOp11
 70
     1
102
RTVSPropertyOp12
 70
     1
102
RTVSPropertyOp13
 70
     1
102
RTVSPropertyOp14
 70
     1
102
RTVSPropertyOp15
 70
     1
102
RTVSPropertyOp16
 70
     1
102
RTVSPropertyOp17
 70
     1
102
RTVSPropertyOp18
 70
     1
102
RTVSPropertyOp19
 70
     1
102
RTVSPropertyOp20
 70
     1
102
RTVSPropertyOp21
 70
     1
102
RTVSPropertyOp22
 70
     1
102
RTVSPropertyOp23
 70
     1
102
RTVSPropertyOp24
 70
     1
102
RTVSPropertyOp25
 70
     1
102
RTVSPropertyOp26
 70
     1
102
RTVSPropertyOp27
 70
     1
102
RTVSPropertyOp28
 70
     1
102
RTVSPropertyOp29
 70
     1
102
RTVSPropertyOp30
 70
     1
102
RTVSPropertyOp31
 70
     1
102
RTVSPropertyOp32
 70
     1
102
RTVSPropertyOp33
 70
     1
102
RTVSPropertyOp34
 70
     1
102
RTVSPropertyOp35
 70
     1
102
RTVSPropertyOp36
 70
     1
102
RTVSPropertyOp37
 70
     1
102
RTVSPropertyOp38
 70
     1
102
RTVSPropertyOp39
 70
     1
102
RTVSPropertyOp40
 70
     1
102
RTVSPropertyOp41
 70
     1
102
RTVSPropertyOp42
 70
     1
102
RTVSPropertyOp43
 70
     1
102
RTVSPropertyOp44
 70
     1
102
RTVSPropertyOp45
 70
     1
102
RTVSPropertyOp46
 70
     1
102
RTVSPropertyOp47
 70
     1
102
RTVSPropertyOp48
 70
     1
102
RTVSPropertyOp49
 70
     1
102
RTVSPropertyOp50
 70
     1
102
RTVSPropertyOp51
 70
     0
102
RTVSPropertyOp52
 70
     0
102
RTVSPropertyOp53
 70
     1
102
RTVSPropertyOp54
 70
     1
102
RTVSPropertyOp55
 70
     1
102
RTVSPropertyOp56
 70
     1
102
RTVSPropertyOp57
 70
     1
102
RTVSPost2010Prop28
280
     0
102
RTVSPost2010PropOp28
 70
     1
102
RTVSPost2010Prop29
280
     1
102
RTVSPost2010PropOp29
 70
     1
102
RTVSPost2010Prop30
280
     1
102
RTVSPost2010PropOp30
 70
     1
102
RTVSPost2010Prop31
280
     0
102
RTVSPost2010PropOp31
 70
     1
102
RTVSPost2010Prop32
280
     0
102
RTVSPost2010PropOp32
 70
     1
102
RTVSPost2010Prop33
280
     0
102
RTVSPost2010PropOp33
 70
     1
102
RTVSPost2010Prop34
280
     0
102
RTVSPost2010PropOp34
 70
     1
102
RTVSPost2010Prop35
280
     0
102
RTVSPost2010PropOp35
 70
     1
102
RTVSPost2010Prop36
280
     0
102
RTVSPost2010PropOp36
 70
     1
102
RTVSPost2010Prop37
 90
       50
102
RTVSPost2010PropOp37
 70
     1
102
RTVSPost2010Prop38
140
0.0
102
RTVSPost2010PropOp38
 70
     1
102
RTVSPost2010Prop39
140
1.0
102
RTVSPost2010PropOp39
 70
     1
102
RTVSPost2010Prop40
 90
        0
102
RTVSPost2010PropOp40
 70
     1
102
RTVSPost2010Prop41ColorIndex
 90
       18
102
RTVSPost2010Prop41ColorRGB
 90
        0
102
RTVSPost2010PropOp41
 70
     1
102
RTVSPost2010Prop42
 90
       50
102
RTVSPost2010PropOp42
 70
     1
102
RTVSPost2010Prop43
 90
        3
102
RTVSPost2010PropOp43
 70
     1
102
RTVSPost2010Prop44ColorIndex
 90
        5
102
RTVSPost2010Prop44ColorRGB
 90
      255
102
RTVSPost2010PropOp44
 70
     1
102
RTVSPost2010Prop45
280
     0
102
RTVSPost2010PropOp45
 70
     1
102
RTVSPost2010Prop46
 90
       50
102
RTVSPost2010PropOp46
 70
     1
102
RTVSPost2010Prop47
 90
       50
102
RTVSPost2010PropOp47
 70
     1
102
RTVSPost2010Prop48
 90
       50
102
RTVSPost2010PropOp48
 70
     1
102
RTVSPost2010Prop49
280
     0
102
RTVSPost2010PropOp49
 70
     1
102
RTVSPost2010Prop50
 90
       50
102
RTVSPost2010PropOp50
 70
     1
102
RTVSPost2010Prop51ColorIndex
 90
      256
102
RTVSPost2010Prop51ColorRGB
 90
-16777216
102
RTVSPost2010PropOp51
 70
     0
102
RTVSPost2010Prop52
140
1.0
102
RTVSPost2010PropOp52
 70
     0
102
RTVSPost2010Prop53
 90
        2
102
RTVSPost2010PropOp53
 70
     1
102
RTVSPost2010Prop54
  1
strokes_ogs.tif
102
RTVSPost2010PropOp54
 70
     1
102
RTVSPost2010Prop55
280
     0
102
RTVSPost2010PropOp55
 70
     1
102
RTVSPost2010Prop56
140
1.0
102
RTVSPost2010PropOp56
 70
     1
102
RTVSPost2010Prop57
140
1.0
102
RTVSPost2010PropOp57
 70
     1
  0
XRECORD
  5
255
102
{ACAD_REACTORS
330
254
102
}
330
254
100
AcDbXrecord
280
     1
102
RTVSPropertyOp0
 70
     0
102
RTVSPropertyOp1
 70
     0
102
RTVSPropertyOp2
 70
     0
102
RTVSPropertyOp3
 70
     0
102
RTVSPropertyOp4
 70
     0
102
RTVSPropertyOp5
 70
     0
102
RTVSPropertyOp6
 70
     0
102
RTVSPropertyOp7
 70
     0
102
RTVSPropertyOp8
 70
     0
102
RTVSPropertyOp9
 70
     0
102
RTVSPropertyOp10
 70
     0
102
RTVSPropertyOp11
 70
     0
102
RTVSPropertyOp12
 70
     0
102
RTVSPropertyOp13
 70
     0
102
RTVSPropertyOp14
 70
     2
102
RTVSPropertyOp15
 70
     0
102
RTVSPropertyOp16
 70
     0
102
RTVSPropertyOp17
 70
     0
102
RTVSPropertyOp18
 70
     0
102
RTVSPropertyOp19
 70
     0
102
RTVSPropertyOp20
 70
     0
102
RTVSPropertyOp21
 70
     0
102
RTVSPropertyOp22
 70
     0
102
RTVSPropertyOp23
 70
     0
102
RTVSPropertyOp24
 70
     0
102
RTVSPropertyOp25
 70
     0
102
RTVSPropertyOp26
 70
     0
102
RTVSPropertyOp27
 70
     0
102
RTVSPropertyOp28
 70
     0
102
RTVSPropertyOp29
 70
     0
102
RTVSPropertyOp30
 70
     0
102
RTVSPropertyOp31
 70
     0
102
RTVSPropertyOp32
 70
     0
102
RTVSPropertyOp33
 70
     0
102
RTVSPropertyOp34
 70
     0
102
RTVSPropertyOp35
 70
     0
102
RTVSPropertyOp36
 70
     0
102
RTVSPropertyOp37
 70
     0
102
RTVSPropertyOp38
 70
     0
102
RTVSPropertyOp39
 70
     0
102
RTVSPropertyOp40
 70
     0
102
RTVSPropertyOp41
 70
     0
102
RTVSPropertyOp42
 70
     0
102
RTVSPropertyOp43
 70
     0
102
RTVSPropertyOp44
 70
     0
102
RTVSPropertyOp45
 70
     0
102
RTVSPropertyOp46
 70
     0
102
RTVSPropertyOp47
 70
     0
102
RTVSPropertyOp48
 70
     0
102
RTVSPropertyOp49
 70
     0
102
RTVSPropertyOp50
 70
     0
102
RTVSPropertyOp51
 70
     0
102
RTVSPropertyOp52
 70
     0
102
RTVSPropertyOp53
 70
     0
102
RTVSPropertyOp54
 70
     0
102
RTVSPropertyOp55
 70
     0
102
RTVSPropertyOp56
 70
     0
102
RTVSPropertyOp57
 70
     0
102
RTVSPost2010Prop28
280
     0
102
RTVSPost2010PropOp28
 70
     0
102
RTVSPost2010Prop29
280
     1
102
RTVSPost2010PropOp29
 70
     0
102
RTVSPost2010Prop30
280
     1
102
RTVSPost2010PropOp30
 70
     0
102
RTVSPost2010Prop31
280
     0
102
RTVSPost2010PropOp31
 70
     0
102
RTVSPost2010Prop32
280
     0
102
RTVSPost2010PropOp32
 70
     0
102
RTVSPost2010Prop33
280
     0
102
RTVSPost2010PropOp33
 70
     0
102
RTVSPost2010Prop34
280
     0
102
RTVSPost2010PropOp34
 70
     0
102
RTVSPost2010Prop35
280
     0
102
RTVSPost2010PropOp35
 70
     0
102
RTVSPost2010Prop36
280
     0
102
RTVSPost2010PropOp36
 70
     0
102
RTVSPost2010Prop37
 90
       50
102
RTVSPost2010PropOp37
 70
     0
102
RTVSPost2010Prop38
140
0.0
102
RTVSPost2010PropOp38
 70
     0
102
RTVSPost2010Prop39
140
1.0
102
RTVSPost2010PropOp39
 70
     0
102
RTVSPost2010Prop40
 90
        0
102
RTVSPost2010PropOp40
 70
     0
102
RTVSPost2010Prop41ColorIndex
 90
       18
102
RTVSPost2010Prop41ColorRGB
 90
        0
102
RTVSPost2010PropOp41
 70
     0
102
RTVSPost2010Prop42
 90
       50
102
RTVSPost2010PropOp42
 70
     0
102
RTVSPost2010Prop43
 90
        3
102
RTVSPost2010PropOp43
 70
     0
102
RTVSPost2010Prop44ColorIndex
 90
        5
102
RTVSPost2010Prop44ColorRGB
 90
      255
102
RTVSPost2010PropOp44
 70
     0
102
RTVSPost2010Prop45
280
     0
102
RTVSPost2010PropOp45
 70
     0
102
RTVSPost2010Prop46
 90
       50
102
RTVSPost2010PropOp46
 70
     0
102
RTVSPost2010Prop47
 90
       50
102
RTVSPost2010PropOp47
 70
     0
102
RTVSPost2010Prop48
 90
       50
102
RTVSPost2010PropOp48
 70
     0
102
RTVSPost2010Prop49
280
     0
102
RTVSPost2010PropOp49
 70
     0
102
RTVSPost2010Prop50
 90
       50
102
RTVSPost2010PropOp50
 70
     0
102
RTVSPost2010Prop51ColorIndex
 90
      256
102
RTVSPost2010Prop51ColorRGB
 90
-16777216
102
RTVSPost2010PropOp51
 70
     0
102
RTVSPost2010Prop52
140
1.0
102
RTVSPost2010PropOp52
 70
     0
102
RTVSPost2010Prop53
 90
        2
102
RTVSPost2010PropOp53
 70
     0
102
RTVSPost2010Prop54
  1
strokes_ogs.tif
102
RTVSPost2010PropOp54
 70
     0
102
RTVSPost2010Prop55
280
     0
102
RTVSPost2010PropOp55
 70
     0
102
RTVSPost2010Prop56
140
1.0
102
RTVSPost2010PropOp56
 70
     0
102
RTVSPost2010Prop57
140
1.0
102
RTVSPost2010PropOp57
 70
     0
  0
XRECORD
  5
24D
102
{ACAD_REACTORS
330
24C
102
}
330
24C
100
AcDbXrecord
280
     1
102
RTVSPropertyOp0
 70
     1
102
RTVSPropertyOp1
 70
     1
102
RTVSPropertyOp2
 70
     1
102
RTVSPropertyOp3
 70
     1
102
RTVSPropertyOp4
 70
     1
102
RTVSPropertyOp5
 70
     1
102
RTVSPropertyOp6
 70
     1
102
RTVSPropertyOp7
 70
     1
102
RTVSPropertyOp8
 70
     1
102
RTVSPropertyOp9
 70
     1
102
RTVSPropertyOp10
 70
     1
102
RTVSPropertyOp11
 70
     1
102
RTVSPropertyOp12
 70
     1
102
RTVSPropertyOp13
 70
     1
102
RTVSPropertyOp14
 70
     1
102
RTVSPropertyOp15
 70
     1
102
RTVSPropertyOp16
 70
     1
102
RTVSPropertyOp17
 70
     1
102
RTVSPropertyOp18
 70
     1
102
RTVSPropertyOp19
 70
     1
102
RTVSPropertyOp20
 70
     1
102
RTVSPropertyOp21
 70
     1
102
RTVSPropertyOp22
 70
     1
102
RTVSPropertyOp23
 70
     1
102
RTVSPropertyOp24
 70
     1
102
RTVSPropertyOp25
 70
     1
102
RTVSPropertyOp26
 70
     1
102
RTVSPropertyOp27
 70
     1
102
RTVSPropertyOp28
 70
     1
102
RTVSPropertyOp29
 70
     1
102
RTVSPropertyOp30
 70
     1
102
RTVSPropertyOp31
 70
     1
102
RTVSPropertyOp32
 70
     1
102
RTVSPropertyOp33
 70
     1
102
RTVSPropertyOp34
 70
     1
102
RTVSPropertyOp35
 70
     1
102
RTVSPropertyOp36
 70
     1
102
RTVSPropertyOp37
 70
     1
102
RTVSPropertyOp38
 70
     1
102
RTVSPropertyOp39
 70
     1
102
RTVSPropertyOp40
 70
     1
102
RTVSPropertyOp41
 70
     1
102
RTVSPropertyOp42
 70
     1
102
RTVSPropertyOp43
 70
     1
102
RTVSPropertyOp44
 70
     1
102
RTVSPropertyOp45
 70
     1
102
RTVSPropertyOp46
 70
     1
102
RTVSPropertyOp47
 70
     1
102
RTVSPropertyOp48
 70
     1
102
RTVSPropertyOp49
 70
     1
102
RTVSPropertyOp50
 70
     1
102
RTVSPropertyOp51
 70
     0
102
RTVSPropertyOp52
 70
     0
102
RTVSPropertyOp53
 70
     1
102
RTVSPropertyOp54
 70
     1
102
RTVSPropertyOp55
 70
     1
102
RTVSPropertyOp56
 70
     1
102
RTVSPropertyOp57
 70
     1
102
RTVSPost2010Prop28
280
     0
102
RTVSPost2010PropOp28
 70
     1
102
RTVSPost2010Prop29
280
     1
102
RTVSPost2010PropOp29
 70
     1
102
RTVSPost2010Prop30
280
     1
102
RTVSPost2010PropOp30
 70
     1
102
RTVSPost2010Prop31
280
     0
102
RTVSPost2010PropOp31
 70
     1
102
RTVSPost2010Prop32
280
     0
102
RTVSPost2010PropOp32
 70
     1
102
RTVSPost2010Prop33
280
     0
102
RTVSPost2010PropOp33
 70
     1
102
RTVSPost2010Prop34
280
     0
102
RTVSPost2010PropOp34
 70
     1
102
RTVSPost2010Prop35
280
     0
102
RTVSPost2010PropOp35
 70
     1
102
RTVSPost2010Prop36
280
     0
102
RTVSPost2010PropOp36
 70
     1
102
RTVSPost2010Prop37
 90
       50
102
RTVSPost2010PropOp37
 70
     1
102
RTVSPost2010Prop38
140
0.0
102
RTVSPost2010PropOp38
 70
     1
102
RTVSPost2010Prop39
140
1.0
102
RTVSPost2010PropOp39
 70
     1
102
RTVSPost2010Prop40
 90
        0
102
RTVSPost2010PropOp40
 70
     1
102
RTVSPost2010Prop41ColorIndex
 90
       18
102
RTVSPost2010Prop41ColorRGB
 90
        0
102
RTVSPost2010PropOp41
 70
     1
102
RTVSPost2010Prop42
 90
       50
102
RTVSPost2010PropOp42
 70
     1
102
RTVSPost2010Prop43
 90
        3
102
RTVSPost2010PropOp43
 70
     1
102
RTVSPost2010Prop44ColorIndex
 90
        5
102
RTVSPost2010Prop44ColorRGB
 90
      255
102
RTVSPost2010PropOp44
 70
     1
102
RTVSPost2010Prop45
280
     0
102
RTVSPost2010PropOp45
 70
     1
102
RTVSPost2010Prop46
 90
       50
102
RTVSPost2010PropOp46
 70
     1
102
RTVSPost2010Prop47
 90
       50
102
RTVSPost2010PropOp47
 70
     1
102
RTVSPost2010Prop48
 90
       50
102
RTVSPost2010PropOp48
 70
     1
102
RTVSPost2010Prop49
280
     0
102
RTVSPost2010PropOp49
 70
     1
102
RTVSPost2010Prop50
 90
       50
102
RTVSPost2010PropOp50
 70
     1
102
RTVSPost2010Prop51ColorIndex
 90
      256
102
RTVSPost2010Prop51ColorRGB
 90
-16777216
102
RTVSPost2010PropOp51
 70
     0
102
RTVSPost2010Prop52
140
1.0
102
RTVSPost2010PropOp52
 70
     0
102
RTVSPost2010Prop53
 90
        2
102
RTVSPost2010PropOp53
 70
     1
102
RTVSPost2010Prop54
  1
strokes_ogs.tif
102
RTVSPost2010PropOp54
 70
     1
102
RTVSPost2010Prop55
280
     0
102
RTVSPost2010PropOp55
 70
     1
102
RTVSPost2010Prop56
140
1.0
102
RTVSPost2010PropOp56
 70
     1
102
RTVSPost2010Prop57
140
1.0
102
RTVSPost2010PropOp57
 70
     1
  0
XRECORD
  5
231
102
{ACAD_REACTORS
330
230
102
}
330
230
100
AcDbXrecord
280
     1
102
RTVSPropertyOp0
 70
     1
102
RTVSPropertyOp1
 70
     1
102
RTVSPropertyOp2
 70
     1
102
RTVSPropertyOp3
 70
     1
102
RTVSPropertyOp4
 70
     1
102
RTVSPropertyOp5
 70
     1
102
RTVSPropertyOp6
 70
     1
102
RTVSPropertyOp7
 70
     1
102
RTVSPropertyOp8
 70
     1
102
RTVSPropertyOp9
 70
     1
102
RTVSPropertyOp10
 70
     1
102
RTVSPropertyOp11
 70
     1
102
RTVSPropertyOp12
 70
     1
102
RTVSPropertyOp13
 70
     1
102
RTVSPropertyOp14
 70
     1
102
RTVSPropertyOp15
 70
     1
102
RTVSPropertyOp16
 70
     1
102
RTVSPropertyOp17
 70
     1
102
RTVSPropertyOp18
 70
     1
102
RTVSPropertyOp19
 70
     1
102
RTVSPropertyOp20
 70
     1
102
RTVSPropertyOp21
 70
     1
102
RTVSPropertyOp22
 70
     1
102
RTVSPropertyOp23
 70
     1
102
RTVSPropertyOp24
 70
     1
102
RTVSPropertyOp25
 70
     1
102
RTVSPropertyOp26
 70
     1
102
RTVSPropertyOp27
 70
     1
102
RTVSPropertyOp28
 70
     1
102
RTVSPropertyOp29
 70
     1
102
RTVSPropertyOp30
 70
     1
102
RTVSPropertyOp31
 70
     1
102
RTVSPropertyOp32
 70
     1
102
RTVSPropertyOp33
 70
     1
102
RTVSPropertyOp34
 70
     1
102
RTVSPropertyOp35
 70
     1
102
RTVSPropertyOp36
 70
     1
102
RTVSPropertyOp37
 70
     1
102
RTVSPropertyOp38
 70
     1
102
RTVSPropertyOp39
 70
     1
102
RTVSPropertyOp40
 70
     1
102
RTVSPropertyOp41
 70
     1
102
RTVSPropertyOp42
 70
     1
102
RTVSPropertyOp43
 70
     1
102
RTVSPropertyOp44
 70
     1
102
RTVSPropertyOp45
 70
     1
102
RTVSPropertyOp46
 70
     1
102
RTVSPropertyOp47
 70
     1
102
RTVSPropertyOp48
 70
     1
102
RTVSPropertyOp49
 70
     1
102
RTVSPropertyOp50
 70
     1
102
RTVSPropertyOp51
 70
     0
102
RTVSPropertyOp52
 70
     0
102
RTVSPropertyOp53
 70
     1
102
RTVSPropertyOp54
 70
     1
102
RTVSPropertyOp55
 70
     1
102
RTVSPropertyOp56
 70
     1
102
RTVSPropertyOp57
 70
     1
102
RTVSPost2010Prop28
280
     0
102
RTVSPost2010PropOp28
 70
     1
102
RTVSPost2010Prop29
280
     1
102
RTVSPost2010PropOp29
 70
     1
102
RTVSPost2010Prop30
280
     1
102
RTVSPost2010PropOp30
 70
     1
102
RTVSPost2010Prop31
280
     0
102
RTVSPost2010PropOp31
 70
     1
102
RTVSPost2010Prop32
280
     0
102
RTVSPost2010PropOp32
 70
     1
102
RTVSPost2010Prop33
280
     0
102
RTVSPost2010PropOp33
 70
     1
102
RTVSPost2010Prop34
280
     0
102
RTVSPost2010PropOp34
 70
     1
102
RTVSPost2010Prop35
280
     0
102
RTVSPost2010PropOp35
 70
     1
102
RTVSPost2010Prop36
280
     0
102
RTVSPost2010PropOp36
 70
     1
102
RTVSPost2010Prop37
 90
       50
102
RTVSPost2010PropOp37
 70
     1
102
RTVSPost2010Prop38
140
0.0
102
RTVSPost2010PropOp38
 70
     1
102
RTVSPost2010Prop39
140
1.0
102
RTVSPost2010PropOp39
 70
     1
102
RTVSPost2010Prop40
 90
        0
102
RTVSPost2010PropOp40
 70
     1
102
RTVSPost2010Prop41ColorIndex
 90
       18
102
RTVSPost2010Prop41ColorRGB
 90
        0
102
RTVSPost2010PropOp41
 70
     1
102
RTVSPost2010Prop42
 90
       50
102
RTVSPost2010PropOp42
 70
     1
102
RTVSPost2010Prop43
 90
        3
102
RTVSPost2010PropOp43
 70
     1
102
RTVSPost2010Prop44ColorIndex
 90
        5
102
RTVSPost2010Prop44ColorRGB
 90
      255
102
RTVSPost2010PropOp44
 70
     1
102
RTVSPost2010Prop45
280
     0
102
RTVSPost2010PropOp45
 70
     1
102
RTVSPost2010Prop46
 90
       50
102
RTVSPost2010PropOp46
 70
     1
102
RTVSPost2010Prop47
 90
       50
102
RTVSPost2010PropOp47
 70
     1
102
RTVSPost2010Prop48
 90
       50
102
RTVSPost2010PropOp48
 70
     1
102
RTVSPost2010Prop49
280
     0
102
RTVSPost2010PropOp49
 70
     1
102
RTVSPost2010Prop50
 90
       50
102
RTVSPost2010PropOp50
 70
     1
102
RTVSPost2010Prop51ColorIndex
 90
      256
102
RTVSPost2010Prop51ColorRGB
 90
-16777216
102
RTVSPost2010PropOp51
 70
     0
102
RTVSPost2010Prop52
140
1.0
102
RTVSPost2010PropOp52
 70
     0
102
RTVSPost2010Prop53
 90
        2
102
RTVSPost2010PropOp53
 70
     1
102
RTVSPost2010Prop54
  1
strokes_ogs.tif
102
RTVSPost2010PropOp54
 70
     1
102
RTVSPost2010Prop55
280
     0
102
RTVSPost2010PropOp55
 70
     1
102
RTVSPost2010Prop56
140
1.0
102
RTVSPost2010PropOp56
 70
     1
102
RTVSPost2010Prop57
140
1.0
102
RTVSPost2010PropOp57
 70
     1
  0
XRECORD
  5
233
102
{ACAD_REACTORS
330
232
102
}
330
232
100
AcDbXrecord
280
     1
102
RTVSPropertyOp0
 70
     1
102
RTVSPropertyOp1
 70
     1
102
RTVSPropertyOp2
 70
     1
102
RTVSPropertyOp3
 70
     1
102
RTVSPropertyOp4
 70
     1
102
RTVSPropertyOp5
 70
     1
102
RTVSPropertyOp6
 70
     1
102
RTVSPropertyOp7
 70
     1
102
RTVSPropertyOp8
 70
     1
102
RTVSPropertyOp9
 70
     1
102
RTVSPropertyOp10
 70
     1
102
RTVSPropertyOp11
 70
     1
102
RTVSPropertyOp12
 70
     1
102
RTVSPropertyOp13
 70
     1
102
RTVSPropertyOp14
 70
     1
102
RTVSPropertyOp15
 70
     1
102
RTVSPropertyOp16
 70
     1
102
RTVSPropertyOp17
 70
     1
102
RTVSPropertyOp18
 70
     1
102
RTVSPropertyOp19
 70
     1
102
RTVSPropertyOp20
 70
     1
102
RTVSPropertyOp21
 70
     1
102
RTVSPropertyOp22
 70
     1
102
RTVSPropertyOp23
 70
     1
102
RTVSPropertyOp24
 70
     1
102
RTVSPropertyOp25
 70
     1
102
RTVSPropertyOp26
 70
     1
102
RTVSPropertyOp27
 70
     1
102
RTVSPropertyOp28
 70
     1
102
RTVSPropertyOp29
 70
     1
102
RTVSPropertyOp30
 70
     1
102
RTVSPropertyOp31
 70
     1
102
RTVSPropertyOp32
 70
     1
102
RTVSPropertyOp33
 70
     1
102
RTVSPropertyOp34
 70
     1
102
RTVSPropertyOp35
 70
     1
102
RTVSPropertyOp36
 70
     1
102
RTVSPropertyOp37
 70
     1
102
RTVSPropertyOp38
 70
     1
102
RTVSPropertyOp39
 70
     1
102
RTVSPropertyOp40
 70
     1
102
RTVSPropertyOp41
 70
     1
102
RTVSPropertyOp42
 70
     1
102
RTVSPropertyOp43
 70
     1
102
RTVSPropertyOp44
 70
     1
102
RTVSPropertyOp45
 70
     1
102
RTVSPropertyOp46
 70
     1
102
RTVSPropertyOp47
 70
     1
102
RTVSPropertyOp48
 70
     1
102
RTVSPropertyOp49
 70
     1
102
RTVSPropertyOp50
 70
     1
102
RTVSPropertyOp51
 70
     0
102
RTVSPropertyOp52
 70
     0
102
RTVSPropertyOp53
 70
     1
102
RTVSPropertyOp54
 70
     1
102
RTVSPropertyOp55
 70
     1
102
RTVSPropertyOp56
 70
     1
102
RTVSPropertyOp57
 70
     1
102
RTVSPost2010Prop28
280
     0
102
RTVSPost2010PropOp28
 70
     1
102
RTVSPost2010Prop29
280
     1
102
RTVSPost2010PropOp29
 70
     1
102
RTVSPost2010Prop30
280
     1
102
RTVSPost2010PropOp30
 70
     1
102
RTVSPost2010Prop31
280
     0
102
RTVSPost2010PropOp31
 70
     1
102
RTVSPost2010Prop32
280
     0
102
RTVSPost2010PropOp32
 70
     1
102
RTVSPost2010Prop33
280
     0
102
RTVSPost2010PropOp33
 70
     1
102
RTVSPost2010Prop34
280
     0
102
RTVSPost2010PropOp34
 70
     1
102
RTVSPost2010Prop35
280
     0
102
RTVSPost2010PropOp35
 70
     1
102
RTVSPost2010Prop36
280
     0
102
RTVSPost2010PropOp36
 70
     1
102
RTVSPost2010Prop37
 90
       50
102
RTVSPost2010PropOp37
 70
     1
102
RTVSPost2010Prop38
140
0.0
102
RTVSPost2010PropOp38
 70
     1
102
RTVSPost2010Prop39
140
1.0
102
RTVSPost2010PropOp39
 70
     1
102
RTVSPost2010Prop40
 90
        0
102
RTVSPost2010PropOp40
 70
     1
102
RTVSPost2010Prop41ColorIndex
 90
       18
102
RTVSPost2010Prop41ColorRGB
 90
        0
102
RTVSPost2010PropOp41
 70
     1
102
RTVSPost2010Prop42
 90
       50
102
RTVSPost2010PropOp42
 70
     1
102
RTVSPost2010Prop43
 90
        3
102
RTVSPost2010PropOp43
 70
     1
102
RTVSPost2010Prop44ColorIndex
 90
        5
102
RTVSPost2010Prop44ColorRGB
 90
      255
102
RTVSPost2010PropOp44
 70
     1
102
RTVSPost2010Prop45
280
     0
102
RTVSPost2010PropOp45
 70
     1
102
RTVSPost2010Prop46
 90
       50
102
RTVSPost2010PropOp46
 70
     1
102
RTVSPost2010Prop47
 90
       50
102
RTVSPost2010PropOp47
 70
     1
102
RTVSPost2010Prop48
 90
       50
102
RTVSPost2010PropOp48
 70
     1
102
RTVSPost2010Prop49
280
     0
102
RTVSPost2010PropOp49
 70
     1
102
RTVSPost2010Prop50
 90
       50
102
RTVSPost2010PropOp50
 70
     1
102
RTVSPost2010Prop51ColorIndex
 90
      256
102
RTVSPost2010Prop51ColorRGB
 90
-16777216
102
RTVSPost2010PropOp51
 70
     0
102
RTVSPost2010Prop52
140
1.0
102
RTVSPost2010PropOp52
 70
     0
102
RTVSPost2010Prop53
 90
        2
102
RTVSPost2010PropOp53
 70
     1
102
RTVSPost2010Prop54
  1
strokes_ogs.tif
102
RTVSPost2010PropOp54
 70
     1
102
RTVSPost2010Prop55
280
     0
102
RTVSPost2010PropOp55
 70
     1
102
RTVSPost2010Prop56
140
1.0
102
RTVSPost2010PropOp56
 70
     1
102
RTVSPost2010Prop57
140
1.0
102
RTVSPost2010PropOp57
 70
     1
  0
XRECORD
  5
235
102
{ACAD_REACTORS
330
234
102
}
330
234
100
AcDbXrecord
280
     1
102
RTVSPropertyOp0
 70
     1
102
RTVSPropertyOp1
 70
     1
102
RTVSPropertyOp2
 70
     1
102
RTVSPropertyOp3
 70
     1
102
RTVSPropertyOp4
 70
     1
102
RTVSPropertyOp5
 70
     1
102
RTVSPropertyOp6
 70
     1
102
RTVSPropertyOp7
 70
     1
102
RTVSPropertyOp8
 70
     1
102
RTVSPropertyOp9
 70
     1
102
RTVSPropertyOp10
 70
     1
102
RTVSPropertyOp11
 70
     1
102
RTVSPropertyOp12
 70
     1
102
RTVSPropertyOp13
 70
     1
102
RTVSPropertyOp14
 70
     1
102
RTVSPropertyOp15
 70
     1
102
RTVSPropertyOp16
 70
     1
102
RTVSPropertyOp17
 70
     1
102
RTVSPropertyOp18
 70
     1
102
RTVSPropertyOp19
 70
     1
102
RTVSPropertyOp20
 70
     1
102
RTVSPropertyOp21
 70
     1
102
RTVSPropertyOp22
 70
     1
102
RTVSPropertyOp23
 70
     1
102
RTVSPropertyOp24
 70
     1
102
RTVSPropertyOp25
 70
     1
102
RTVSPropertyOp26
 70
     1
102
RTVSPropertyOp27
 70
     1
102
RTVSPropertyOp28
 70
     1
102
RTVSPropertyOp29
 70
     1
102
RTVSPropertyOp30
 70
     1
102
RTVSPropertyOp31
 70
     1
102
RTVSPropertyOp32
 70
     1
102
RTVSPropertyOp33
 70
     1
102
RTVSPropertyOp34
 70
     1
102
RTVSPropertyOp35
 70
     1
102
RTVSPropertyOp36
 70
     1
102
RTVSPropertyOp37
 70
     1
102
RTVSPropertyOp38
 70
     1
102
RTVSPropertyOp39
 70
     1
102
RTVSPropertyOp40
 70
     1
102
RTVSPropertyOp41
 70
     1
102
RTVSPropertyOp42
 70
     1
102
RTVSPropertyOp43
 70
     1
102
RTVSPropertyOp44
 70
     1
102
RTVSPropertyOp45
 70
     1
102
RTVSPropertyOp46
 70
     1
102
RTVSPropertyOp47
 70
     1
102
RTVSPropertyOp48
 70
     1
102
RTVSPropertyOp49
 70
     1
102
RTVSPropertyOp50
 70
     1
102
RTVSPropertyOp51
 70
     0
102
RTVSPropertyOp52
 70
     0
102
RTVSPropertyOp53
 70
     1
102
RTVSPropertyOp54
 70
     1
102
RTVSPropertyOp55
 70
     1
102
RTVSPropertyOp56
 70
     1
102
RTVSPropertyOp57
 70
     1
102
RTVSPost2010Prop28
280
     0
102
RTVSPost2010PropOp28
 70
     1
102
RTVSPost2010Prop29
280
     1
102
RTVSPost2010PropOp29
 70
     1
102
RTVSPost2010Prop30
280
     1
102
RTVSPost2010PropOp30
 70
     1
102
RTVSPost2010Prop31
280
     0
102
RTVSPost2010PropOp31
 70
     1
102
RTVSPost2010Prop32
280
     0
102
RTVSPost2010PropOp32
 70
     1
102
RTVSPost2010Prop33
280
     0
102
RTVSPost2010PropOp33
 70
     1
102
RTVSPost2010Prop34
280
     0
102
RTVSPost2010PropOp34
 70
     1
102
RTVSPost2010Prop35
280
     0
102
RTVSPost2010PropOp35
 70
     1
102
RTVSPost2010Prop36
280
     0
102
RTVSPost2010PropOp36
 70
     1
102
RTVSPost2010Prop37
 90
       50
102
RTVSPost2010PropOp37
 70
     1
102
RTVSPost2010Prop38
140
0.0
102
RTVSPost2010PropOp38
 70
     1
102
RTVSPost2010Prop39
140
1.0
102
RTVSPost2010PropOp39
 70
     1
102
RTVSPost2010Prop40
 90
        0
102
RTVSPost2010PropOp40
 70
     1
102
RTVSPost2010Prop41ColorIndex
 90
       18
102
RTVSPost2010Prop41ColorRGB
 90
        0
102
RTVSPost2010PropOp41
 70
     1
102
RTVSPost2010Prop42
 90
       50
102
RTVSPost2010PropOp42
 70
     1
102
RTVSPost2010Prop43
 90
        3
102
RTVSPost2010PropOp43
 70
     1
102
RTVSPost2010Prop44ColorIndex
 90
        5
102
RTVSPost2010Prop44ColorRGB
 90
      255
102
RTVSPost2010PropOp44
 70
     1
102
RTVSPost2010Prop45
280
     0
102
RTVSPost2010PropOp45
 70
     1
102
RTVSPost2010Prop46
 90
       50
102
RTVSPost2010PropOp46
 70
     1
102
RTVSPost2010Prop47
 90
       50
102
RTVSPost2010PropOp47
 70
     1
102
RTVSPost2010Prop48
 90
       50
102
RTVSPost2010PropOp48
 70
     1
102
RTVSPost2010Prop49
280
     0
102
RTVSPost2010PropOp49
 70
     1
102
RTVSPost2010Prop50
 90
       50
102
RTVSPost2010PropOp50
 70
     1
102
RTVSPost2010Prop51ColorIndex
 90
      256
102
RTVSPost2010Prop51ColorRGB
 90
-16777216
102
RTVSPost2010PropOp51
 70
     0
102
RTVSPost2010Prop52
140
1.0
102
RTVSPost2010PropOp52
 70
     0
102
RTVSPost2010Prop53
 90
        2
102
RTVSPost2010PropOp53
 70
     1
102
RTVSPost2010Prop54
  1
strokes_ogs.tif
102
RTVSPost2010PropOp54
 70
     1
102
RTVSPost2010Prop55
280
     0
102
RTVSPost2010PropOp55
 70
     1
102
RTVSPost2010Prop56
140
1.0
102
RTVSPost2010PropOp56
 70
     1
102
RTVSPost2010Prop57
140
1.0
102
RTVSPost2010PropOp57
 70
     1
  0
XRECORD
  5
237
102
{ACAD_REACTORS
330
236
102
}
330
236
100
AcDbXrecord
280
     1
102
RTVSPropertyOp0
 70
     1
102
RTVSPropertyOp1
 70
     1
102
RTVSPropertyOp2
 70
     1
102
RTVSPropertyOp3
 70
     1
102
RTVSPropertyOp4
 70
     1
102
RTVSPropertyOp5
 70
     1
102
RTVSPropertyOp6
 70
     1
102
RTVSPropertyOp7
 70
     1
102
RTVSPropertyOp8
 70
     1
102
RTVSPropertyOp9
 70
     1
102
RTVSPropertyOp10
 70
     1
102
RTVSPropertyOp11
 70
     1
102
RTVSPropertyOp12
 70
     1
102
RTVSPropertyOp13
 70
     1
102
RTVSPropertyOp14
 70
     1
102
RTVSPropertyOp15
 70
     1
102
RTVSPropertyOp16
 70
     1
102
RTVSPropertyOp17
 70
     1
102
RTVSPropertyOp18
 70
     1
102
RTVSPropertyOp19
 70
     1
102
RTVSPropertyOp20
 70
     1
102
RTVSPropertyOp21
 70
     1
102
RTVSPropertyOp22
 70
     1
102
RTVSPropertyOp23
 70
     1
102
RTVSPropertyOp24
 70
     1
102
RTVSPropertyOp25
 70
     1
102
RTVSPropertyOp26
 70
     1
102
RTVSPropertyOp27
 70
     1
102
RTVSPropertyOp28
 70
     1
102
RTVSPropertyOp29
 70
     1
102
RTVSPropertyOp30
 70
     1
102
RTVSPropertyOp31
 70
     1
102
RTVSPropertyOp32
 70
     1
102
RTVSPropertyOp33
 70
     1
102
RTVSPropertyOp34
 70
     1
102
RTVSPropertyOp35
 70
     1
102
RTVSPropertyOp36
 70
     1
102
RTVSPropertyOp37
 70
     1
102
RTVSPropertyOp38
 70
     1
102
RTVSPropertyOp39
 70
     1
102
RTVSPropertyOp40
 70
     1
102
RTVSPropertyOp41
 70
     1
102
RTVSPropertyOp42
 70
     1
102
RTVSPropertyOp43
 70
     1
102
RTVSPropertyOp44
 70
     1
102
RTVSPropertyOp45
 70
     1
102
RTVSPropertyOp46
 70
     1
102
RTVSPropertyOp47
 70
     1
102
RTVSPropertyOp48
 70
     1
102
RTVSPropertyOp49
 70
     1
102
RTVSPropertyOp50
 70
     1
102
RTVSPropertyOp51
 70
     0
102
RTVSPropertyOp52
 70
     0
102
RTVSPropertyOp53
 70
     1
102
RTVSPropertyOp54
 70
     1
102
RTVSPropertyOp55
 70
     1
102
RTVSPropertyOp56
 70
     1
102
RTVSPropertyOp57
 70
     1
102
RTVSPost2010Prop28
280
     0
102
RTVSPost2010PropOp28
 70
     1
102
RTVSPost2010Prop29
280
     1
102
RTVSPost2010PropOp29
 70
     1
102
RTVSPost2010Prop30
280
     1
102
RTVSPost2010PropOp30
 70
     1
102
RTVSPost2010Prop31
280
     0
102
RTVSPost2010PropOp31
 70
     1
102
RTVSPost2010Prop32
280
     0
102
RTVSPost2010PropOp32
 70
     1
102
RTVSPost2010Prop33
280
     0
102
RTVSPost2010PropOp33
 70
     1
102
RTVSPost2010Prop34
280
     0
102
RTVSPost2010PropOp34
 70
     1
102
RTVSPost2010Prop35
280
     0
102
RTVSPost2010PropOp35
 70
     1
102
RTVSPost2010Prop36
280
     0
102
RTVSPost2010PropOp36
 70
     1
102
RTVSPost2010Prop37
 90
       50
102
RTVSPost2010PropOp37
 70
     1
102
RTVSPost2010Prop38
140
0.0
102
RTVSPost2010PropOp38
 70
     1
102
RTVSPost2010Prop39
140
1.0
102
RTVSPost2010PropOp39
 70
     1
102
RTVSPost2010Prop40
 90
        0
102
RTVSPost2010PropOp40
 70
     1
102
RTVSPost2010Prop41ColorIndex
 90
       18
102
RTVSPost2010Prop41ColorRGB
 90
        0
102
RTVSPost2010PropOp41
 70
     1
102
RTVSPost2010Prop42
 90
       50
102
RTVSPost2010PropOp42
 70
     1
102
RTVSPost2010Prop43
 90
        3
102
RTVSPost2010PropOp43
 70
     1
102
RTVSPost2010Prop44ColorIndex
 90
        5
102
RTVSPost2010Prop44ColorRGB
 90
      255
102
RTVSPost2010PropOp44
 70
     1
102
RTVSPost2010Prop45
280
     0
102
RTVSPost2010PropOp45
 70
     1
102
RTVSPost2010Prop46
 90
       50
102
RTVSPost2010PropOp46
 70
     1
102
RTVSPost2010Prop47
 90
       50
102
RTVSPost2010PropOp47
 70
     1
102
RTVSPost2010Prop48
 90
       50
102
RTVSPost2010PropOp48
 70
     1
102
RTVSPost2010Prop49
280
     0
102
RTVSPost2010PropOp49
 70
     1
102
RTVSPost2010Prop50
 90
       50
102
RTVSPost2010PropOp50
 70
     1
102
RTVSPost2010Prop51ColorIndex
 90
      256
102
RTVSPost2010Prop51ColorRGB
 90
-16777216
102
RTVSPost2010PropOp51
 70
     0
102
RTVSPost2010Prop52
140
1.0
102
RTVSPost2010PropOp52
 70
     0
102
RTVSPost2010Prop53
 90
        2
102
RTVSPost2010PropOp53
 70
     1
102
RTVSPost2010Prop54
  1
strokes_ogs.tif
102
RTVSPost2010PropOp54
 70
     1
102
RTVSPost2010Prop55
280
     0
102
RTVSPost2010PropOp55
 70
     1
102
RTVSPost2010Prop56
140
1.0
102
RTVSPost2010PropOp56
 70
     1
102
RTVSPost2010Prop57
140
1.0
102
RTVSPost2010PropOp57
 70
     1
  0
XRECORD
  5
23D
102
{ACAD_REACTORS
330
23C
102
}
330
23C
100
AcDbXrecord
280
     1
102
RTVSPropertyOp0
 70
     1
102
RTVSPropertyOp1
 70
     1
102
RTVSPropertyOp2
 70
     1
102
RTVSPropertyOp3
 70
     1
102
RTVSPropertyOp4
 70
     1
102
RTVSPropertyOp5
 70
     1
102
RTVSPropertyOp6
 70
     1
102
RTVSPropertyOp7
 70
     1
102
RTVSPropertyOp8
 70
     1
102
RTVSPropertyOp9
 70
     1
102
RTVSPropertyOp10
 70
     1
102
RTVSPropertyOp11
 70
     1
102
RTVSPropertyOp12
 70
     1
102
RTVSPropertyOp13
 70
     1
102
RTVSPropertyOp14
 70
     1
102
RTVSPropertyOp15
 70
     1
102
RTVSPropertyOp16
 70
     1
102
RTVSPropertyOp17
 70
     1
102
RTVSPropertyOp18
 70
     1
102
RTVSPropertyOp19
 70
     1
102
RTVSPropertyOp20
 70
     1
102
RTVSPropertyOp21
 70
     1
102
RTVSPropertyOp22
 70
     1
102
RTVSPropertyOp23
 70
     1
102
RTVSPropertyOp24
 70
     1
102
RTVSPropertyOp25
 70
     1
102
RTVSPropertyOp26
 70
     1
102
RTVSPropertyOp27
 70
     1
102
RTVSPropertyOp28
 70
     1
102
RTVSPropertyOp29
 70
     1
102
RTVSPropertyOp30
 70
     1
102
RTVSPropertyOp31
 70
     1
102
RTVSPropertyOp32
 70
     1
102
RTVSPropertyOp33
 70
     1
102
RTVSPropertyOp34
 70
     1
102
RTVSPropertyOp35
 70
     1
102
RTVSPropertyOp36
 70
     1
102
RTVSPropertyOp37
 70
     1
102
RTVSPropertyOp38
 70
     1
102
RTVSPropertyOp39
 70
     1
102
RTVSPropertyOp40
 70
     1
102
RTVSPropertyOp41
 70
     1
102
RTVSPropertyOp42
 70
     1
102
RTVSPropertyOp43
 70
     1
102
RTVSPropertyOp44
 70
     1
102
RTVSPropertyOp45
 70
     1
102
RTVSPropertyOp46
 70
     1
102
RTVSPropertyOp47
 70
     1
102
RTVSPropertyOp48
 70
     1
102
RTVSPropertyOp49
 70
     1
102
RTVSPropertyOp50
 70
     1
102
RTVSPropertyOp51
 70
     0
102
RTVSPropertyOp52
 70
     0
102
RTVSPropertyOp53
 70
     1
102
RTVSPropertyOp54
 70
     1
102
RTVSPropertyOp55
 70
     1
102
RTVSPropertyOp56
 70
     1
102
RTVSPropertyOp57
 70
     1
102
RTVSPost2010Prop28
280
     0
102
RTVSPost2010PropOp28
 70
     1
102
RTVSPost2010Prop29
280
     1
102
RTVSPost2010PropOp29
 70
     1
102
RTVSPost2010Prop30
280
     1
102
RTVSPost2010PropOp30
 70
     1
102
RTVSPost2010Prop31
280
     0
102
RTVSPost2010PropOp31
 70
     1
102
RTVSPost2010Prop32
280
     0
102
RTVSPost2010PropOp32
 70
     1
102
RTVSPost2010Prop33
280
     0
102
RTVSPost2010PropOp33
 70
     1
102
RTVSPost2010Prop34
280
     0
102
RTVSPost2010PropOp34
 70
     1
102
RTVSPost2010Prop35
280
     0
102
RTVSPost2010PropOp35
 70
     1
102
RTVSPost2010Prop36
280
     0
102
RTVSPost2010PropOp36
 70
     1
102
RTVSPost2010Prop37
 90
       50
102
RTVSPost2010PropOp37
 70
     1
102
RTVSPost2010Prop38
140
0.0
102
RTVSPost2010PropOp38
 70
     1
102
RTVSPost2010Prop39
140
1.0
102
RTVSPost2010PropOp39
 70
     1
102
RTVSPost2010Prop40
 90
        0
102
RTVSPost2010PropOp40
 70
     1
102
RTVSPost2010Prop41ColorIndex
 90
       18
102
RTVSPost2010Prop41ColorRGB
 90
        0
102
RTVSPost2010PropOp41
 70
     1
102
RTVSPost2010Prop42
 90
       50
102
RTVSPost2010PropOp42
 70
     1
102
RTVSPost2010Prop43
 90
        3
102
RTVSPost2010PropOp43
 70
     1
102
RTVSPost2010Prop44ColorIndex
 90
        5
102
RTVSPost2010Prop44ColorRGB
 90
      255
102
RTVSPost2010PropOp44
 70
     1
102
RTVSPost2010Prop45
280
     0
102
RTVSPost2010PropOp45
 70
     1
102
RTVSPost2010Prop46
 90
       50
102
RTVSPost2010PropOp46
 70
     1
102
RTVSPost2010Prop47
 90
       50
102
RTVSPost2010PropOp47
 70
     1
102
RTVSPost2010Prop48
 90
       50
102
RTVSPost2010PropOp48
 70
     1
102
RTVSPost2010Prop49
280
     0
102
RTVSPost2010PropOp49
 70
     1
102
RTVSPost2010Prop50
 90
       50
102
RTVSPost2010PropOp50
 70
     1
102
RTVSPost2010Prop51ColorIndex
 90
      256
102
RTVSPost2010Prop51ColorRGB
 90
-16777216
102
RTVSPost2010PropOp51
 70
     0
102
RTVSPost2010Prop52
140
1.0
102
RTVSPost2010PropOp52
 70
     0
102
RTVSPost2010Prop53
 90
        2
102
RTVSPost2010PropOp53
 70
     1
102
RTVSPost2010Prop54
  1
strokes_ogs.tif
102
RTVSPost2010PropOp54
 70
     1
102
RTVSPost2010Prop55
280
     0
102
RTVSPost2010PropOp55
 70
     1
102
RTVSPost2010Prop56
140
1.0
102
RTVSPost2010PropOp56
 70
     1
102
RTVSPost2010Prop57
140
1.0
102
RTVSPost2010PropOp57
 70
     1
  0
XRECORD
  5
251
102
{ACAD_REACTORS
330
250
102
}
330
250
100
AcDbXrecord
280
     1
102
RTVSPropertyOp0
 70
     0
102
RTVSPropertyOp1
 70
     0
102
RTVSPropertyOp2
 70
     0
102
RTVSPropertyOp3
 70
     0
102
RTVSPropertyOp4
 70
     0
102
RTVSPropertyOp5
 70
     0
102
RTVSPropertyOp6
 70
     0
102
RTVSPropertyOp7
 70
     0
102
RTVSPropertyOp8
 70
     0
102
RTVSPropertyOp9
 70
     0
102
RTVSPropertyOp10
 70
     0
102
RTVSPropertyOp11
 70
     0
102
RTVSPropertyOp12
 70
     0
102
RTVSPropertyOp13
 70
     0
102
RTVSPropertyOp14
 70
     2
102
RTVSPropertyOp15
 70
     0
102
RTVSPropertyOp16
 70
     0
102
RTVSPropertyOp17
 70
     0
102
RTVSPropertyOp18
 70
     0
102
RTVSPropertyOp19
 70
     0
102
RTVSPropertyOp20
 70
     0
102
RTVSPropertyOp21
 70
     0
102
RTVSPropertyOp22
 70
     0
102
RTVSPropertyOp23
 70
     0
102
RTVSPropertyOp24
 70
     0
102
RTVSPropertyOp25
 70
     0
102
RTVSPropertyOp26
 70
     0
102
RTVSPropertyOp27
 70
     0
102
RTVSPropertyOp28
 70
     0
102
RTVSPropertyOp29
 70
     0
102
RTVSPropertyOp30
 70
     0
102
RTVSPropertyOp31
 70
     0
102
RTVSPropertyOp32
 70
     0
102
RTVSPropertyOp33
 70
     0
102
RTVSPropertyOp34
 70
     0
102
RTVSPropertyOp35
 70
     0
102
RTVSPropertyOp36
 70
     0
102
RTVSPropertyOp37
 70
     0
102
RTVSPropertyOp38
 70
     0
102
RTVSPropertyOp39
 70
     0
102
RTVSPropertyOp40
 70
     0
102
RTVSPropertyOp41
 70
     0
102
RTVSPropertyOp42
 70
     0
102
RTVSPropertyOp43
 70
     0
102
RTVSPropertyOp44
 70
     0
102
RTVSPropertyOp45
 70
     0
102
RTVSPropertyOp46
 70
     0
102
RTVSPropertyOp47
 70
     0
102
RTVSPropertyOp48
 70
     0
102
RTVSPropertyOp49
 70
     0
102
RTVSPropertyOp50
 70
     0
102
RTVSPropertyOp51
 70
     0
102
RTVSPropertyOp52
 70
     0
102
RTVSPropertyOp53
 70
     0
102
RTVSPropertyOp54
 70
     0
102
RTVSPropertyOp55
 70
     0
102
RTVSPropertyOp56
 70
     0
102
RTVSPropertyOp57
 70
     0
102
RTVSPost2010Prop28
280
     0
102
RTVSPost2010PropOp28
 70
     0
102
RTVSPost2010Prop29
280
     1
102
RTVSPost2010PropOp29
 70
     0
102
RTVSPost2010Prop30
280
     1
102
RTVSPost2010PropOp30
 70
     0
102
RTVSPost2010Prop31
280
     0
102
RTVSPost2010PropOp31
 70
     0
102
RTVSPost2010Prop32
280
     0
102
RTVSPost2010PropOp32
 70
     0
102
RTVSPost2010Prop33
280
     0
102
RTVSPost2010PropOp33
 70
     0
102
RTVSPost2010Prop34
280
     0
102
RTVSPost2010PropOp34
 70
     0
102
RTVSPost2010Prop35
280
     0
102
RTVSPost2010PropOp35
 70
     0
102
RTVSPost2010Prop36
280
     0
102
RTVSPost2010PropOp36
 70
     0
102
RTVSPost2010Prop37
 90
       50
102
RTVSPost2010PropOp37
 70
     0
102
RTVSPost2010Prop38
140
0.0
102
RTVSPost2010PropOp38
 70
     0
102
RTVSPost2010Prop39
140
1.0
102
RTVSPost2010PropOp39
 70
     0
102
RTVSPost2010Prop40
 90
        0
102
RTVSPost2010PropOp40
 70
     0
102
RTVSPost2010Prop41ColorIndex
 90
       18
102
RTVSPost2010Prop41ColorRGB
 90
        0
102
RTVSPost2010PropOp41
 70
     0
102
RTVSPost2010Prop42
 90
       50
102
RTVSPost2010PropOp42
 70
     0
102
RTVSPost2010Prop43
 90
        3
102
RTVSPost2010PropOp43
 70
     0
102
RTVSPost2010Prop44ColorIndex
 90
        5
102
RTVSPost2010Prop44ColorRGB
 90
      255
102
RTVSPost2010PropOp44
 70
     0
102
RTVSPost2010Prop45
280
     0
102
RTVSPost2010PropOp45
 70
     0
102
RTVSPost2010Prop46
 90
       50
102
RTVSPost2010PropOp46
 70
     0
102
RTVSPost2010Prop47
 90
       50
102
RTVSPost2010PropOp47
 70
     0
102
RTVSPost2010Prop48
 90
       50
102
RTVSPost2010PropOp48
 70
     0
102
RTVSPost2010Prop49
280
     0
102
RTVSPost2010PropOp49
 70
     0
102
RTVSPost2010Prop50
 90
       50
102
RTVSPost2010PropOp50
 70
     0
102
RTVSPost2010Prop51ColorIndex
 90
      256
102
RTVSPost2010Prop51ColorRGB
 90
-16777216
102
RTVSPost2010PropOp51
 70
     0
102
RTVSPost2010Prop52
140
1.0
102
RTVSPost2010PropOp52
 70
     0
102
RTVSPost2010Prop53
 90
        2
102
RTVSPost2010PropOp53
 70
     0
102
RTVSPost2010Prop54
  1
strokes_ogs.tif
102
RTVSPost2010PropOp54
 70
     0
102
RTVSPost2010Prop55
280
     0
102
RTVSPost2010PropOp55
 70
     0
102
RTVSPost2010Prop56
140
1.0
102
RTVSPost2010PropOp56
 70
     0
102
RTVSPost2010Prop57
140
1.0
102
RTVSPost2010PropOp57
 70
     0
  0
XRECORD
  5
24B
102
{ACAD_REACTORS
330
24A
102
}
330
24A
100
AcDbXrecord
280
     1
102
RTVSPropertyOp0
 70
     1
102
RTVSPropertyOp1
 70
     1
102
RTVSPropertyOp2
 70
     1
102
RTVSPropertyOp3
 70
     1
102
RTVSPropertyOp4
 70
     1
102
RTVSPropertyOp5
 70
     1
102
RTVSPropertyOp6
 70
     1
102
RTVSPropertyOp7
 70
     1
102
RTVSPropertyOp8
 70
     1
102
RTVSPropertyOp9
 70
     1
102
RTVSPropertyOp10
 70
     1
102
RTVSPropertyOp11
 70
     1
102
RTVSPropertyOp12
 70
     1
102
RTVSPropertyOp13
 70
     1
102
RTVSPropertyOp14
 70
     1
102
RTVSPropertyOp15
 70
     1
102
RTVSPropertyOp16
 70
     1
102
RTVSPropertyOp17
 70
     1
102
RTVSPropertyOp18
 70
     1
102
RTVSPropertyOp19
 70
     1
102
RTVSPropertyOp20
 70
     1
102
RTVSPropertyOp21
 70
     1
102
RTVSPropertyOp22
 70
     1
102
RTVSPropertyOp23
 70
     1
102
RTVSPropertyOp24
 70
     1
102
RTVSPropertyOp25
 70
     1
102
RTVSPropertyOp26
 70
     1
102
RTVSPropertyOp27
 70
     1
102
RTVSPropertyOp28
 70
     1
102
RTVSPropertyOp29
 70
     1
102
RTVSPropertyOp30
 70
     1
102
RTVSPropertyOp31
 70
     1
102
RTVSPropertyOp32
 70
     1
102
RTVSPropertyOp33
 70
     1
102
RTVSPropertyOp34
 70
     1
102
RTVSPropertyOp35
 70
     1
102
RTVSPropertyOp36
 70
     1
102
RTVSPropertyOp37
 70
     1
102
RTVSPropertyOp38
 70
     1
102
RTVSPropertyOp39
 70
     1
102
RTVSPropertyOp40
 70
     1
102
RTVSPropertyOp41
 70
     1
102
RTVSPropertyOp42
 70
     1
102
RTVSPropertyOp43
 70
     1
102
RTVSPropertyOp44
 70
     1
102
RTVSPropertyOp45
 70
     1
102
RTVSPropertyOp46
 70
     1
102
RTVSPropertyOp47
 70
     1
102
RTVSPropertyOp48
 70
     1
102
RTVSPropertyOp49
 70
     1
102
RTVSPropertyOp50
 70
     1
102
RTVSPropertyOp51
 70
     0
102
RTVSPropertyOp52
 70
     0
102
RTVSPropertyOp53
 70
     1
102
RTVSPropertyOp54
 70
     1
102
RTVSPropertyOp55
 70
     1
102
RTVSPropertyOp56
 70
     1
102
RTVSPropertyOp57
 70
     1
102
RTVSPost2010Prop28
280
     0
102
RTVSPost2010PropOp28
 70
     1
102
RTVSPost2010Prop29
280
     1
102
RTVSPost2010PropOp29
 70
     1
102
RTVSPost2010Prop30
280
     1
102
RTVSPost2010PropOp30
 70
     1
102
RTVSPost2010Prop31
280
     0
102
RTVSPost2010PropOp31
 70
     1
102
RTVSPost2010Prop32
280
     0
102
RTVSPost2010PropOp32
 70
     1
102
RTVSPost2010Prop33
280
     0
102
RTVSPost2010PropOp33
 70
     1
102
RTVSPost2010Prop34
280
     0
102
RTVSPost2010PropOp34
 70
     1
102
RTVSPost2010Prop35
280
     0
102
RTVSPost2010PropOp35
 70
     1
102
RTVSPost2010Prop36
280
     0
102
RTVSPost2010PropOp36
 70
     1
102
RTVSPost2010Prop37
 90
       50
102
RTVSPost2010PropOp37
 70
     1
102
RTVSPost2010Prop38
140
0.0
102
RTVSPost2010PropOp38
 70
     1
102
RTVSPost2010Prop39
140
1.0
102
RTVSPost2010PropOp39
 70
     1
102
RTVSPost2010Prop40
 90
        0
102
RTVSPost2010PropOp40
 70
     1
102
RTVSPost2010Prop41ColorIndex
 90
       18
102
RTVSPost2010Prop41ColorRGB
 90
        0
102
RTVSPost2010PropOp41
 70
     1
102
RTVSPost2010Prop42
 90
       50
102
RTVSPost2010PropOp42
 70
     1
102
RTVSPost2010Prop43
 90
        3
102
RTVSPost2010PropOp43
 70
     1
102
RTVSPost2010Prop44ColorIndex
 90
        5
102
RTVSPost2010Prop44ColorRGB
 90
      255
102
RTVSPost2010PropOp44
 70
     1
102
RTVSPost2010Prop45
280
     0
102
RTVSPost2010PropOp45
 70
     1
102
RTVSPost2010Prop46
 90
       50
102
RTVSPost2010PropOp46
 70
     1
102
RTVSPost2010Prop47
 90
       50
102
RTVSPost2010PropOp47
 70
     1
102
RTVSPost2010Prop48
 90
       50
102
RTVSPost2010PropOp48
 70
     1
102
RTVSPost2010Prop49
280
     0
102
RTVSPost2010PropOp49
 70
     1
102
RTVSPost2010Prop50
 90
       50
102
RTVSPost2010PropOp50
 70
     1
102
RTVSPost2010Prop51ColorIndex
 90
      256
102
RTVSPost2010Prop51ColorRGB
 90
-16777216
102
RTVSPost2010PropOp51
 70
     0
102
RTVSPost2010Prop52
140
1.0
102
RTVSPost2010PropOp52
 70
     0
102
RTVSPost2010Prop53
 90
        2
102
RTVSPost2010PropOp53
 70
     1
102
RTVSPost2010Prop54
  1
strokes_ogs.tif
102
RTVSPost2010PropOp54
 70
     1
102
RTVSPost2010Prop55
280
     0
102
RTVSPost2010PropOp55
 70
     1
102
RTVSPost2010Prop56
140
1.0
102
RTVSPost2010PropOp56
 70
     1
102
RTVSPost2010Prop57
140
1.0
102
RTVSPost2010PropOp57
 70
     1
  0
XRECORD
  5
253
102
{ACAD_REACTORS
330
252
102
}
330
252
100
AcDbXrecord
280
     1
102
RTVSPropertyOp0
 70
     0
102
RTVSPropertyOp1
 70
     0
102
RTVSPropertyOp2
 70
     0
102
RTVSPropertyOp3
 70
     0
102
RTVSPropertyOp4
 70
     0
102
RTVSPropertyOp5
 70
     0
102
RTVSPropertyOp6
 70
     0
102
RTVSPropertyOp7
 70
     0
102
RTVSPropertyOp8
 70
     0
102
RTVSPropertyOp9
 70
     0
102
RTVSPropertyOp10
 70
     0
102
RTVSPropertyOp11
 70
     0
102
RTVSPropertyOp12
 70
     0
102
RTVSPropertyOp13
 70
     0
102
RTVSPropertyOp14
 70
     2
102
RTVSPropertyOp15
 70
     0
102
RTVSPropertyOp16
 70
     0
102
RTVSPropertyOp17
 70
     0
102
RTVSPropertyOp18
 70
     0
102
RTVSPropertyOp19
 70
     0
102
RTVSPropertyOp20
 70
     0
102
RTVSPropertyOp21
 70
     0
102
RTVSPropertyOp22
 70
     0
102
RTVSPropertyOp23
 70
     0
102
RTVSPropertyOp24
 70
     0
102
RTVSPropertyOp25
 70
     0
102
RTVSPropertyOp26
 70
     0
102
RTVSPropertyOp27
 70
     0
102
RTVSPropertyOp28
 70
     0
102
RTVSPropertyOp29
 70
     0
102
RTVSPropertyOp30
 70
     0
102
RTVSPropertyOp31
 70
     0
102
RTVSPropertyOp32
 70
     0
102
RTVSPropertyOp33
 70
     0
102
RTVSPropertyOp34
 70
     0
102
RTVSPropertyOp35
 70
     0
102
RTVSPropertyOp36
 70
     0
102
RTVSPropertyOp37
 70
     0
102
RTVSPropertyOp38
 70
     0
102
RTVSPropertyOp39
 70
     0
102
RTVSPropertyOp40
 70
     0
102
RTVSPropertyOp41
 70
     0
102
RTVSPropertyOp42
 70
     0
102
RTVSPropertyOp43
 70
     0
102
RTVSPropertyOp44
 70
     0
102
RTVSPropertyOp45
 70
     0
102
RTVSPropertyOp46
 70
     0
102
RTVSPropertyOp47
 70
     0
102
RTVSPropertyOp48
 70
     0
102
RTVSPropertyOp49
 70
     0
102
RTVSPropertyOp50
 70
     0
102
RTVSPropertyOp51
 70
     0
102
RTVSPropertyOp52
 70
     0
102
RTVSPropertyOp53
 70
     0
102
RTVSPropertyOp54
 70
     0
102
RTVSPropertyOp55
 70
     0
102
RTVSPropertyOp56
 70
     0
102
RTVSPropertyOp57
 70
     0
102
RTVSPost2010Prop28
280
     0
102
RTVSPost2010PropOp28
 70
     0
102
RTVSPost2010Prop29
280
     1
102
RTVSPost2010PropOp29
 70
     0
102
RTVSPost2010Prop30
280
     1
102
RTVSPost2010PropOp30
 70
     0
102
RTVSPost2010Prop31
280
     0
102
RTVSPost2010PropOp31
 70
     0
102
RTVSPost2010Prop32
280
     0
102
RTVSPost2010PropOp32
 70
     0
102
RTVSPost2010Prop33
280
     0
102
RTVSPost2010PropOp33
 70
     0
102
RTVSPost2010Prop34
280
     0
102
RTVSPost2010PropOp34
 70
     0
102
RTVSPost2010Prop35
280
     0
102
RTVSPost2010PropOp35
 70
     0
102
RTVSPost2010Prop36
280
     0
102
RTVSPost2010PropOp36
 70
     0
102
RTVSPost2010Prop37
 90
       50
102
RTVSPost2010PropOp37
 70
     0
102
RTVSPost2010Prop38
140
0.0
102
RTVSPost2010PropOp38
 70
     0
102
RTVSPost2010Prop39
140
1.0
102
RTVSPost2010PropOp39
 70
     0
102
RTVSPost2010Prop40
 90
        0
102
RTVSPost2010PropOp40
 70
     0
102
RTVSPost2010Prop41ColorIndex
 90
       18
102
RTVSPost2010Prop41ColorRGB
 90
        0
102
RTVSPost2010PropOp41
 70
     0
102
RTVSPost2010Prop42
 90
       50
102
RTVSPost2010PropOp42
 70
     0
102
RTVSPost2010Prop43
 90
        3
102
RTVSPost2010PropOp43
 70
     0
102
RTVSPost2010Prop44ColorIndex
 90
        5
102
RTVSPost2010Prop44ColorRGB
 90
      255
102
RTVSPost2010PropOp44
 70
     0
102
RTVSPost2010Prop45
280
     0
102
RTVSPost2010PropOp45
 70
     0
102
RTVSPost2010Prop46
 90
       50
102
RTVSPost2010PropOp46
 70
     0
102
RTVSPost2010Prop47
 90
       50
102
RTVSPost2010PropOp47
 70
     0
102
RTVSPost2010Prop48
 90
       50
102
RTVSPost2010PropOp48
 70
     0
102
RTVSPost2010Prop49
280
     0
102
RTVSPost2010PropOp49
 70
     0
102
RTVSPost2010Prop50
 90
       50
102
RTVSPost2010PropOp50
 70
     0
102
RTVSPost2010Prop51ColorIndex
 90
      256
102
RTVSPost2010Prop51ColorRGB
 90
-16777216
102
RTVSPost2010PropOp51
 70
     0
102
RTVSPost2010Prop52
140
1.0
102
RTVSPost2010PropOp52
 70
     0
102
RTVSPost2010Prop53
 90
        2
102
RTVSPost2010PropOp53
 70
     0
102
RTVSPost2010Prop54
  1
strokes_ogs.tif
102
RTVSPost2010PropOp54
 70
     0
102
RTVSPost2010Prop55
280
     0
102
RTVSPost2010PropOp55
 70
     0
102
RTVSPost2010Prop56
140
1.0
102
RTVSPost2010PropOp56
 70
     0
102
RTVSPost2010Prop57
140
1.0
102
RTVSPost2010PropOp57
 70
     0
  0
XRECORD
  5
241
102
{ACAD_REACTORS
330
240
102
}
330
240
100
AcDbXrecord
280
     1
102
RTVSPropertyOp0
 70
     1
102
RTVSPropertyOp1
 70
     1
102
RTVSPropertyOp2
 70
     1
102
RTVSPropertyOp3
 70
     1
102
RTVSPropertyOp4
 70
     1
102
RTVSPropertyOp5
 70
     1
102
RTVSPropertyOp6
 70
     1
102
RTVSPropertyOp7
 70
     1
102
RTVSPropertyOp8
 70
     1
102
RTVSPropertyOp9
 70
     1
102
RTVSPropertyOp10
 70
     1
102
RTVSPropertyOp11
 70
     1
102
RTVSPropertyOp12
 70
     1
102
RTVSPropertyOp13
 70
     1
102
RTVSPropertyOp14
 70
     1
102
RTVSPropertyOp15
 70
     1
102
RTVSPropertyOp16
 70
     1
102
RTVSPropertyOp17
 70
     1
102
RTVSPropertyOp18
 70
     1
102
RTVSPropertyOp19
 70
     1
102
RTVSPropertyOp20
 70
     1
102
RTVSPropertyOp21
 70
     1
102
RTVSPropertyOp22
 70
     1
102
RTVSPropertyOp23
 70
     1
102
RTVSPropertyOp24
 70
     1
102
RTVSPropertyOp25
 70
     1
102
RTVSPropertyOp26
 70
     1
102
RTVSPropertyOp27
 70
     1
102
RTVSPropertyOp28
 70
     1
102
RTVSPropertyOp29
 70
     1
102
RTVSPropertyOp30
 70
     1
102
RTVSPropertyOp31
 70
     1
102
RTVSPropertyOp32
 70
     1
102
RTVSPropertyOp33
 70
     1
102
RTVSPropertyOp34
 70
     1
102
RTVSPropertyOp35
 70
     1
102
RTVSPropertyOp36
 70
     1
102
RTVSPropertyOp37
 70
     1
102
RTVSPropertyOp38
 70
     1
102
RTVSPropertyOp39
 70
     1
102
RTVSPropertyOp40
 70
     1
102
RTVSPropertyOp41
 70
     1
102
RTVSPropertyOp42
 70
     1
102
RTVSPropertyOp43
 70
     1
102
RTVSPropertyOp44
 70
     1
102
RTVSPropertyOp45
 70
     1
102
RTVSPropertyOp46
 70
     1
102
RTVSPropertyOp47
 70
     1
102
RTVSPropertyOp48
 70
     1
102
RTVSPropertyOp49
 70
     1
102
RTVSPropertyOp50
 70
     1
102
RTVSPropertyOp51
 70
     0
102
RTVSPropertyOp52
 70
     0
102
RTVSPropertyOp53
 70
     1
102
RTVSPropertyOp54
 70
     1
102
RTVSPropertyOp55
 70
     1
102
RTVSPropertyOp56
 70
     1
102
RTVSPropertyOp57
 70
     1
102
RTVSPost2010Prop28
280
     0
102
RTVSPost2010PropOp28
 70
     1
102
RTVSPost2010Prop29
280
     1
102
RTVSPost2010PropOp29
 70
     1
102
RTVSPost2010Prop30
280
     1
102
RTVSPost2010PropOp30
 70
     1
102
RTVSPost2010Prop31
280
     0
102
RTVSPost2010PropOp31
 70
     1
102
RTVSPost2010Prop32
280
     0
102
RTVSPost2010PropOp32
 70
     1
102
RTVSPost2010Prop33
280
     0
102
RTVSPost2010PropOp33
 70
     1
102
RTVSPost2010Prop34
280
     0
102
RTVSPost2010PropOp34
 70
     1
102
RTVSPost2010Prop35
280
     0
102
RTVSPost2010PropOp35
 70
     1
102
RTVSPost2010Prop36
280
     0
102
RTVSPost2010PropOp36
 70
     1
102
RTVSPost2010Prop37
 90
       50
102
RTVSPost2010PropOp37
 70
     1
102
RTVSPost2010Prop38
140
0.0
102
RTVSPost2010PropOp38
 70
     1
102
RTVSPost2010Prop39
140
1.0
102
RTVSPost2010PropOp39
 70
     1
102
RTVSPost2010Prop40
 90
        0
102
RTVSPost2010PropOp40
 70
     1
102
RTVSPost2010Prop41ColorIndex
 90
       18
102
RTVSPost2010Prop41ColorRGB
 90
        0
102
RTVSPost2010PropOp41
 70
     1
102
RTVSPost2010Prop42
 90
       50
102
RTVSPost2010PropOp42
 70
     1
102
RTVSPost2010Prop43
 90
        3
102
RTVSPost2010PropOp43
 70
     1
102
RTVSPost2010Prop44ColorIndex
 90
        5
102
RTVSPost2010Prop44ColorRGB
 90
      255
102
RTVSPost2010PropOp44
 70
     1
102
RTVSPost2010Prop45
280
     0
102
RTVSPost2010PropOp45
 70
     1
102
RTVSPost2010Prop46
 90
       50
102
RTVSPost2010PropOp46
 70
     1
102
RTVSPost2010Prop47
 90
       50
102
RTVSPost2010PropOp47
 70
     1
102
RTVSPost2010Prop48
 90
       50
102
RTVSPost2010PropOp48
 70
     1
102
RTVSPost2010Prop49
280
     0
102
RTVSPost2010PropOp49
 70
     1
102
RTVSPost2010Prop50
 90
       50
102
RTVSPost2010PropOp50
 70
     1
102
RTVSPost2010Prop51ColorIndex
 90
      256
102
RTVSPost2010Prop51ColorRGB
 90
-16777216
102
RTVSPost2010PropOp51
 70
     0
102
RTVSPost2010Prop52
140
1.0
102
RTVSPost2010PropOp52
 70
     0
102
RTVSPost2010Prop53
 90
        2
102
RTVSPost2010PropOp53
 70
     1
102
RTVSPost2010Prop54
  1
strokes_ogs.tif
102
RTVSPost2010PropOp54
 70
     1
102
RTVSPost2010Prop55
280
     0
102
RTVSPost2010PropOp55
 70
     1
102
RTVSPost2010Prop56
140
1.0
102
RTVSPost2010PropOp56
 70
     1
102
RTVSPost2010Prop57
140
1.0
102
RTVSPost2010PropOp57
 70
     1
  0
XRECORD
  5
25F
102
{ACAD_REACTORS
330
25E
102
}
330
25E
100
AcDbXrecord
280
     1
102
RTVSPropertyOp0
 70
     1
102
RTVSPropertyOp1
 70
     1
102
RTVSPropertyOp2
 70
     1
102
RTVSPropertyOp3
 70
     1
102
RTVSPropertyOp4
 70
     1
102
RTVSPropertyOp5
 70
     1
102
RTVSPropertyOp6
 70
     1
102
RTVSPropertyOp7
 70
     1
102
RTVSPropertyOp8
 70
     1
102
RTVSPropertyOp9
 70
     1
102
RTVSPropertyOp10
 70
     1
102
RTVSPropertyOp11
 70
     1
102
RTVSPropertyOp12
 70
     1
102
RTVSPropertyOp13
 70
     1
102
RTVSPropertyOp14
 70
     1
102
RTVSPropertyOp15
 70
     1
102
RTVSPropertyOp16
 70
     1
102
RTVSPropertyOp17
 70
     1
102
RTVSPropertyOp18
 70
     1
102
RTVSPropertyOp19
 70
     1
102
RTVSPropertyOp20
 70
     1
102
RTVSPropertyOp21
 70
     1
102
RTVSPropertyOp22
 70
     1
102
RTVSPropertyOp23
 70
     1
102
RTVSPropertyOp24
 70
     1
102
RTVSPropertyOp25
 70
     1
102
RTVSPropertyOp26
 70
     1
102
RTVSPropertyOp27
 70
     1
102
RTVSPropertyOp28
 70
     1
102
RTVSPropertyOp29
 70
     1
102
RTVSPropertyOp30
 70
     1
102
RTVSPropertyOp31
 70
     1
102
RTVSPropertyOp32
 70
     1
102
RTVSPropertyOp33
 70
     1
102
RTVSPropertyOp34
 70
     1
102
RTVSPropertyOp35
 70
     1
102
RTVSPropertyOp36
 70
     1
102
RTVSPropertyOp37
 70
     1
102
RTVSPropertyOp38
 70
     1
102
RTVSPropertyOp39
 70
     1
102
RTVSPropertyOp40
 70
     1
102
RTVSPropertyOp41
 70
     1
102
RTVSPropertyOp42
 70
     1
102
RTVSPropertyOp43
 70
     1
102
RTVSPropertyOp44
 70
     1
102
RTVSPropertyOp45
 70
     1
102
RTVSPropertyOp46
 70
     1
102
RTVSPropertyOp47
 70
     1
102
RTVSPropertyOp48
 70
     1
102
RTVSPropertyOp49
 70
     1
102
RTVSPropertyOp50
 70
     1
102
RTVSPropertyOp51
 70
     0
102
RTVSPropertyOp52
 70
     0
102
RTVSPropertyOp53
 70
     1
102
RTVSPropertyOp54
 70
     1
102
RTVSPropertyOp55
 70
     1
102
RTVSPropertyOp56
 70
     1
102
RTVSPropertyOp57
 70
     1
102
RTVSPost2010Prop28
280
     0
102
RTVSPost2010PropOp28
 70
     1
102
RTVSPost2010Prop29
280
     1
102
RTVSPost2010PropOp29
 70
     1
102
RTVSPost2010Prop30
280
     1
102
RTVSPost2010PropOp30
 70
     1
102
RTVSPost2010Prop31
280
     0
102
RTVSPost2010PropOp31
 70
     1
102
RTVSPost2010Prop32
280
     0
102
RTVSPost2010PropOp32
 70
     1
102
RTVSPost2010Prop33
280
     0
102
RTVSPost2010PropOp33
 70
     1
102
RTVSPost2010Prop34
280
     0
102
RTVSPost2010PropOp34
 70
     1
102
RTVSPost2010Prop35
280
     0
102
RTVSPost2010PropOp35
 70
     1
102
RTVSPost2010Prop36
280
     0
102
RTVSPost2010PropOp36
 70
     1
102
RTVSPost2010Prop37
 90
       50
102
RTVSPost2010PropOp37
 70
     1
102
RTVSPost2010Prop38
140
0.0
102
RTVSPost2010PropOp38
 70
     1
102
RTVSPost2010Prop39
140
1.0
102
RTVSPost2010PropOp39
 70
     1
102
RTVSPost2010Prop40
 90
        0
102
RTVSPost2010PropOp40
 70
     1
102
RTVSPost2010Prop41ColorIndex
 90
       18
102
RTVSPost2010Prop41ColorRGB
 90
        0
102
RTVSPost2010PropOp41
 70
     1
102
RTVSPost2010Prop42
 90
       50
102
RTVSPost2010PropOp42
 70
     1
102
RTVSPost2010Prop43
 90
        3
102
RTVSPost2010PropOp43
 70
     1
102
RTVSPost2010Prop44ColorIndex
 90
        5
102
RTVSPost2010Prop44ColorRGB
 90
      255
102
RTVSPost2010PropOp44
 70
     1
102
RTVSPost2010Prop45
280
     0
102
RTVSPost2010PropOp45
 70
     1
102
RTVSPost2010Prop46
 90
       50
102
RTVSPost2010PropOp46
 70
     1
102
RTVSPost2010Prop47
 90
       50
102
RTVSPost2010PropOp47
 70
     1
102
RTVSPost2010Prop48
 90
       50
102
RTVSPost2010PropOp48
 70
     1
102
RTVSPost2010Prop49
280
     0
102
RTVSPost2010PropOp49
 70
     1
102
RTVSPost2010Prop50
 90
       50
102
RTVSPost2010PropOp50
 70
     1
102
RTVSPost2010Prop51ColorIndex
 90
      256
102
RTVSPost2010Prop51ColorRGB
 90
-16777216
102
RTVSPost2010PropOp51
 70
     0
102
RTVSPost2010Prop52
140
1.0
102
RTVSPost2010PropOp52
 70
     0
102
RTVSPost2010Prop53
 90
        2
102
RTVSPost2010PropOp53
 70
     1
102
RTVSPost2010Prop54
  1
strokes_ogs.tif
102
RTVSPost2010PropOp54
 70
     1
102
RTVSPost2010Prop55
280
     0
102
RTVSPost2010PropOp55
 70
     1
102
RTVSPost2010Prop56
140
1.0
102
RTVSPost2010PropOp56
 70
     1
102
RTVSPost2010Prop57
140
1.0
102
RTVSPost2010PropOp57
 70
     1
  0
XRECORD
  5
25D
102
{ACAD_REACTORS
330
25C
102
}
330
25C
100
AcDbXrecord
280
     1
102
RTVSPropertyOp0
 70
     1
102
RTVSPropertyOp1
 70
     1
102
RTVSPropertyOp2
 70
     1
102
RTVSPropertyOp3
 70
     1
102
RTVSPropertyOp4
 70
     1
102
RTVSPropertyOp5
 70
     1
102
RTVSPropertyOp6
 70
     1
102
RTVSPropertyOp7
 70
     1
102
RTVSPropertyOp8
 70
     1
102
RTVSPropertyOp9
 70
     1
102
RTVSPropertyOp10
 70
     1
102
RTVSPropertyOp11
 70
     1
102
RTVSPropertyOp12
 70
     1
102
RTVSPropertyOp13
 70
     1
102
RTVSPropertyOp14
 70
     1
102
RTVSPropertyOp15
 70
     1
102
RTVSPropertyOp16
 70
     1
102
RTVSPropertyOp17
 70
     1
102
RTVSPropertyOp18
 70
     1
102
RTVSPropertyOp19
 70
     1
102
RTVSPropertyOp20
 70
     1
102
RTVSPropertyOp21
 70
     1
102
RTVSPropertyOp22
 70
     1
102
RTVSPropertyOp23
 70
     1
102
RTVSPropertyOp24
 70
     1
102
RTVSPropertyOp25
 70
     1
102
RTVSPropertyOp26
 70
     1
102
RTVSPropertyOp27
 70
     1
102
RTVSPropertyOp28
 70
     1
102
RTVSPropertyOp29
 70
     1
102
RTVSPropertyOp30
 70
     1
102
RTVSPropertyOp31
 70
     1
102
RTVSPropertyOp32
 70
     1
102
RTVSPropertyOp33
 70
     1
102
RTVSPropertyOp34
 70
     1
102
RTVSPropertyOp35
 70
     1
102
RTVSPropertyOp36
 70
     1
102
RTVSPropertyOp37
 70
     1
102
RTVSPropertyOp38
 70
     1
102
RTVSPropertyOp39
 70
     1
102
RTVSPropertyOp40
 70
     1
102
RTVSPropertyOp41
 70
     1
102
RTVSPropertyOp42
 70
     1
102
RTVSPropertyOp43
 70
     1
102
RTVSPropertyOp44
 70
     1
102
RTVSPropertyOp45
 70
     1
102
RTVSPropertyOp46
 70
     1
102
RTVSPropertyOp47
 70
     1
102
RTVSPropertyOp48
 70
     1
102
RTVSPropertyOp49
 70
     1
102
RTVSPropertyOp50
 70
     1
102
RTVSPropertyOp51
 70
     0
102
RTVSPropertyOp52
 70
     0
102
RTVSPropertyOp53
 70
     1
102
RTVSPropertyOp54
 70
     1
102
RTVSPropertyOp55
 70
     1
102
RTVSPropertyOp56
 70
     1
102
RTVSPropertyOp57
 70
     1
102
RTVSPost2010Prop28
280
     0
102
RTVSPost2010PropOp28
 70
     1
102
RTVSPost2010Prop29
280
     1
102
RTVSPost2010PropOp29
 70
     1
102
RTVSPost2010Prop30
280
     1
102
RTVSPost2010PropOp30
 70
     1
102
RTVSPost2010Prop31
280
     0
102
RTVSPost2010PropOp31
 70
     1
102
RTVSPost2010Prop32
280
     0
102
RTVSPost2010PropOp32
 70
     1
102
RTVSPost2010Prop33
280
     0
102
RTVSPost2010PropOp33
 70
     1
102
RTVSPost2010Prop34
280
     0
102
RTVSPost2010PropOp34
 70
     1
102
RTVSPost2010Prop35
280
     0
102
RTVSPost2010PropOp35
 70
     1
102
RTVSPost2010Prop36
280
     0
102
RTVSPost2010PropOp36
 70
     1
102
RTVSPost2010Prop37
 90
       50
102
RTVSPost2010PropOp37
 70
     1
102
RTVSPost2010Prop38
140
0.0
102
RTVSPost2010PropOp38
 70
     1
102
RTVSPost2010Prop39
140
1.0
102
RTVSPost2010PropOp39
 70
     1
102
RTVSPost2010Prop40
 90
        0
102
RTVSPost2010PropOp40
 70
     1
102
RTVSPost2010Prop41ColorIndex
 90
       18
102
RTVSPost2010Prop41ColorRGB
 90
        0
102
RTVSPost2010PropOp41
 70
     1
102
RTVSPost2010Prop42
 90
       50
102
RTVSPost2010PropOp42
 70
     1
102
RTVSPost2010Prop43
 90
        3
102
RTVSPost2010PropOp43
 70
     1
102
RTVSPost2010Prop44ColorIndex
 90
        5
102
RTVSPost2010Prop44ColorRGB
 90
      255
102
RTVSPost2010PropOp44
 70
     1
102
RTVSPost2010Prop45
280
     0
102
RTVSPost2010PropOp45
 70
     1
102
RTVSPost2010Prop46
 90
       50
102
RTVSPost2010PropOp46
 70
     1
102
RTVSPost2010Prop47
 90
       50
102
RTVSPost2010PropOp47
 70
     1
102
RTVSPost2010Prop48
 90
       50
102
RTVSPost2010PropOp48
 70
     1
102
RTVSPost2010Prop49
280
     0
102
RTVSPost2010PropOp49
 70
     1
102
RTVSPost2010Prop50
 90
       50
102
RTVSPost2010PropOp50
 70
     1
102
RTVSPost2010Prop51ColorIndex
 90
      256
102
RTVSPost2010Prop51ColorRGB
 90
-16777216
102
RTVSPost2010PropOp51
 70
     0
102
RTVSPost2010Prop52
140
1.0
102
RTVSPost2010PropOp52
 70
     0
102
RTVSPost2010Prop53
 90
        2
102
RTVSPost2010PropOp53
 70
     1
102
RTVSPost2010Prop54
  1
strokes_ogs.tif
102
RTVSPost2010PropOp54
 70
     1
102
RTVSPost2010Prop55
280
     0
102
RTVSPost2010PropOp55
 70
     1
102
RTVSPost2010Prop56
140
1.0
102
RTVSPost2010PropOp56
 70
     1
102
RTVSPost2010Prop57
140
1.0
102
RTVSPost2010PropOp57
 70
     1
  0
XRECORD
  5
257
102
{ACAD_REACTORS
330
256
102
}
330
256
100
AcDbXrecord
280
     1
102
RTVSPropertyOp0
 70
     1
102
RTVSPropertyOp1
 70
     1
102
RTVSPropertyOp2
 70
     1
102
RTVSPropertyOp3
 70
     1
102
RTVSPropertyOp4
 70
     1
102
RTVSPropertyOp5
 70
     1
102
RTVSPropertyOp6
 70
     1
102
RTVSPropertyOp7
 70
     1
102
RTVSPropertyOp8
 70
     1
102
RTVSPropertyOp9
 70
     1
102
RTVSPropertyOp10
 70
     1
102
RTVSPropertyOp11
 70
     1
102
RTVSPropertyOp12
 70
     1
102
RTVSPropertyOp13
 70
     1
102
RTVSPropertyOp14
 70
     1
102
RTVSPropertyOp15
 70
     1
102
RTVSPropertyOp16
 70
     1
102
RTVSPropertyOp17
 70
     1
102
RTVSPropertyOp18
 70
     1
102
RTVSPropertyOp19
 70
     1
102
RTVSPropertyOp20
 70
     1
102
RTVSPropertyOp21
 70
     1
102
RTVSPropertyOp22
 70
     1
102
RTVSPropertyOp23
 70
     1
102
RTVSPropertyOp24
 70
     1
102
RTVSPropertyOp25
 70
     1
102
RTVSPropertyOp26
 70
     1
102
RTVSPropertyOp27
 70
     1
102
RTVSPropertyOp28
 70
     1
102
RTVSPropertyOp29
 70
     1
102
RTVSPropertyOp30
 70
     1
102
RTVSPropertyOp31
 70
     1
102
RTVSPropertyOp32
 70
     1
102
RTVSPropertyOp33
 70
     1
102
RTVSPropertyOp34
 70
     1
102
RTVSPropertyOp35
 70
     1
102
RTVSPropertyOp36
 70
     1
102
RTVSPropertyOp37
 70
     1
102
RTVSPropertyOp38
 70
     1
102
RTVSPropertyOp39
 70
     1
102
RTVSPropertyOp40
 70
     1
102
RTVSPropertyOp41
 70
     1
102
RTVSPropertyOp42
 70
     1
102
RTVSPropertyOp43
 70
     1
102
RTVSPropertyOp44
 70
     1
102
RTVSPropertyOp45
 70
     1
102
RTVSPropertyOp46
 70
     1
102
RTVSPropertyOp47
 70
     1
102
RTVSPropertyOp48
 70
     1
102
RTVSPropertyOp49
 70
     1
102
RTVSPropertyOp50
 70
     1
102
RTVSPropertyOp51
 70
     0
102
RTVSPropertyOp52
 70
     0
102
RTVSPropertyOp53
 70
     1
102
RTVSPropertyOp54
 70
     1
102
RTVSPropertyOp55
 70
     1
102
RTVSPropertyOp56
 70
     1
102
RTVSPropertyOp57
 70
     1
102
RTVSPost2010Prop28
280
     0
102
RTVSPost2010PropOp28
 70
     1
102
RTVSPost2010Prop29
280
     1
102
RTVSPost2010PropOp29
 70
     1
102
RTVSPost2010Prop30
280
     1
102
RTVSPost2010PropOp30
 70
     1
102
RTVSPost2010Prop31
280
     0
102
RTVSPost2010PropOp31
 70
     1
102
RTVSPost2010Prop32
280
     0
102
RTVSPost2010PropOp32
 70
     1
102
RTVSPost2010Prop33
280
     0
102
RTVSPost2010PropOp33
 70
     1
102
RTVSPost2010Prop34
280
     0
102
RTVSPost2010PropOp34
 70
     1
102
RTVSPost2010Prop35
280
     0
102
RTVSPost2010PropOp35
 70
     1
102
RTVSPost2010Prop36
280
     0
102
RTVSPost2010PropOp36
 70
     1
102
RTVSPost2010Prop37
 90
       50
102
RTVSPost2010PropOp37
 70
     1
102
RTVSPost2010Prop38
140
0.0
102
RTVSPost2010PropOp38
 70
     1
102
RTVSPost2010Prop39
140
1.0
102
RTVSPost2010PropOp39
 70
     1
102
RTVSPost2010Prop40
 90
        0
102
RTVSPost2010PropOp40
 70
     1
102
RTVSPost2010Prop41ColorIndex
 90
       18
102
RTVSPost2010Prop41ColorRGB
 90
        0
102
RTVSPost2010PropOp41
 70
     1
102
RTVSPost2010Prop42
 90
       50
102
RTVSPost2010PropOp42
 70
     1
102
RTVSPost2010Prop43
 90
        3
102
RTVSPost2010PropOp43
 70
     1
102
RTVSPost2010Prop44ColorIndex
 90
        5
102
RTVSPost2010Prop44ColorRGB
 90
      255
102
RTVSPost2010PropOp44
 70
     1
102
RTVSPost2010Prop45
280
     0
102
RTVSPost2010PropOp45
 70
     1
102
RTVSPost2010Prop46
 90
       50
102
RTVSPost2010PropOp46
 70
     1
102
RTVSPost2010Prop47
 90
       50
102
RTVSPost2010PropOp47
 70
     1
102
RTVSPost2010Prop48
 90
       50
102
RTVSPost2010PropOp48
 70
     1
102
RTVSPost2010Prop49
280
     0
102
RTVSPost2010PropOp49
 70
     1
102
RTVSPost2010Prop50
 90
       50
102
RTVSPost2010PropOp50
 70
     1
102
RTVSPost2010Prop51ColorIndex
 90
      256
102
RTVSPost2010Prop51ColorRGB
 90
-16777216
102
RTVSPost2010PropOp51
 70
     0
102
RTVSPost2010Prop52
140
1.0
102
RTVSPost2010PropOp52
 70
     0
102
RTVSPost2010Prop53
 90
        2
102
RTVSPost2010PropOp53
 70
     1
102
RTVSPost2010Prop54
  1
strokes_ogs.tif
102
RTVSPost2010PropOp54
 70
     1
102
RTVSPost2010Prop55
280
     0
102
RTVSPost2010PropOp55
 70
     1
102
RTVSPost2010Prop56
140
1.0
102
RTVSPost2010PropOp56
 70
     1
102
RTVSPost2010Prop57
140
1.0
102
RTVSPost2010PropOp57
 70
     1
  0
XRECORD
  5
259
102
{ACAD_REACTORS
330
258
102
}
330
258
100
AcDbXrecord
280
     1
102
RTVSPropertyOp0
 70
     1
102
RTVSPropertyOp1
 70
     1
102
RTVSPropertyOp2
 70
     1
102
RTVSPropertyOp3
 70
     1
102
RTVSPropertyOp4
 70
     1
102
RTVSPropertyOp5
 70
     1
102
RTVSPropertyOp6
 70
     1
102
RTVSPropertyOp7
 70
     1
102
RTVSPropertyOp8
 70
     1
102
RTVSPropertyOp9
 70
     1
102
RTVSPropertyOp10
 70
     1
102
RTVSPropertyOp11
 70
     1
102
RTVSPropertyOp12
 70
     1
102
RTVSPropertyOp13
 70
     1
102
RTVSPropertyOp14
 70
     1
102
RTVSPropertyOp15
 70
     1
102
RTVSPropertyOp16
 70
     1
102
RTVSPropertyOp17
 70
     1
102
RTVSPropertyOp18
 70
     1
102
RTVSPropertyOp19
 70
     1
102
RTVSPropertyOp20
 70
     1
102
RTVSPropertyOp21
 70
     1
102
RTVSPropertyOp22
 70
     1
102
RTVSPropertyOp23
 70
     1
102
RTVSPropertyOp24
 70
     1
102
RTVSPropertyOp25
 70
     1
102
RTVSPropertyOp26
 70
     1
102
RTVSPropertyOp27
 70
     1
102
RTVSPropertyOp28
 70
     1
102
RTVSPropertyOp29
 70
     1
102
RTVSPropertyOp30
 70
     1
102
RTVSPropertyOp31
 70
     1
102
RTVSPropertyOp32
 70
     1
102
RTVSPropertyOp33
 70
     1
102
RTVSPropertyOp34
 70
     1
102
RTVSPropertyOp35
 70
     1
102
RTVSPropertyOp36
 70
     1
102
RTVSPropertyOp37
 70
     1
102
RTVSPropertyOp38
 70
     1
102
RTVSPropertyOp39
 70
     1
102
RTVSPropertyOp40
 70
     1
102
RTVSPropertyOp41
 70
     1
102
RTVSPropertyOp42
 70
     1
102
RTVSPropertyOp43
 70
     1
102
RTVSPropertyOp44
 70
     1
102
RTVSPropertyOp45
 70
     1
102
RTVSPropertyOp46
 70
     1
102
RTVSPropertyOp47
 70
     1
102
RTVSPropertyOp48
 70
     1
102
RTVSPropertyOp49
 70
     1
102
RTVSPropertyOp50
 70
     1
102
RTVSPropertyOp51
 70
     0
102
RTVSPropertyOp52
 70
     0
102
RTVSPropertyOp53
 70
     1
102
RTVSPropertyOp54
 70
     1
102
RTVSPropertyOp55
 70
     1
102
RTVSPropertyOp56
 70
     1
102
RTVSPropertyOp57
 70
     1
102
RTVSPost2010Prop28
280
     0
102
RTVSPost2010PropOp28
 70
     1
102
RTVSPost2010Prop29
280
     1
102
RTVSPost2010PropOp29
 70
     1
102
RTVSPost2010Prop30
280
     1
102
RTVSPost2010PropOp30
 70
     1
102
RTVSPost2010Prop31
280
     0
102
RTVSPost2010PropOp31
 70
     1
102
RTVSPost2010Prop32
280
     0
102
RTVSPost2010PropOp32
 70
     1
102
RTVSPost2010Prop33
280
     0
102
RTVSPost2010PropOp33
 70
     1
102
RTVSPost2010Prop34
280
     0
102
RTVSPost2010PropOp34
 70
     1
102
RTVSPost2010Prop35
280
     0
102
RTVSPost2010PropOp35
 70
     1
102
RTVSPost2010Prop36
280
     0
102
RTVSPost2010PropOp36
 70
     1
102
RTVSPost2010Prop37
 90
       50
102
RTVSPost2010PropOp37
 70
     1
102
RTVSPost2010Prop38
140
0.0
102
RTVSPost2010PropOp38
 70
     1
102
RTVSPost2010Prop39
140
1.0
102
RTVSPost2010PropOp39
 70
     1
102
RTVSPost2010Prop40
 90
        0
102
RTVSPost2010PropOp40
 70
     1
102
RTVSPost2010Prop41ColorIndex
 90
       18
102
RTVSPost2010Prop41ColorRGB
 90
        0
102
RTVSPost2010PropOp41
 70
     1
102
RTVSPost2010Prop42
 90
       50
102
RTVSPost2010PropOp42
 70
     1
102
RTVSPost2010Prop43
 90
        3
102
RTVSPost2010PropOp43
 70
     1
102
RTVSPost2010Prop44ColorIndex
 90
        5
102
RTVSPost2010Prop44ColorRGB
 90
      255
102
RTVSPost2010PropOp44
 70
     1
102
RTVSPost2010Prop45
280
     0
102
RTVSPost2010PropOp45
 70
     1
102
RTVSPost2010Prop46
 90
       50
102
RTVSPost2010PropOp46
 70
     1
102
RTVSPost2010Prop47
 90
       50
102
RTVSPost2010PropOp47
 70
     1
102
RTVSPost2010Prop48
 90
       50
102
RTVSPost2010PropOp48
 70
     1
102
RTVSPost2010Prop49
280
     0
102
RTVSPost2010PropOp49
 70
     1
102
RTVSPost2010Prop50
 90
       50
102
RTVSPost2010PropOp50
 70
     1
102
RTVSPost2010Prop51ColorIndex
 90
      256
102
RTVSPost2010Prop51ColorRGB
 90
-16777216
102
RTVSPost2010PropOp51
 70
     0
102
RTVSPost2010Prop52
140
1.0
102
RTVSPost2010PropOp52
 70
     0
102
RTVSPost2010Prop53
 90
        2
102
RTVSPost2010PropOp53
 70
     1
102
RTVSPost2010Prop54
  1
strokes_ogs.tif
102
RTVSPost2010PropOp54
 70
     1
102
RTVSPost2010Prop55
280
     0
102
RTVSPost2010PropOp55
 70
     1
102
RTVSPost2010Prop56
140
1.0
102
RTVSPost2010PropOp56
 70
     1
102
RTVSPost2010Prop57
140
1.0
102
RTVSPost2010PropOp57
 70
     1
  0
XRECORD
  5
249
102
{ACAD_REACTORS
330
248
102
}
330
248
100
AcDbXrecord
280
     1
102
RTVSPropertyOp0
 70
     1
102
RTVSPropertyOp1
 70
     1
102
RTVSPropertyOp2
 70
     1
102
RTVSPropertyOp3
 70
     1
102
RTVSPropertyOp4
 70
     1
102
RTVSPropertyOp5
 70
     1
102
RTVSPropertyOp6
 70
     1
102
RTVSPropertyOp7
 70
     1
102
RTVSPropertyOp8
 70
     1
102
RTVSPropertyOp9
 70
     1
102
RTVSPropertyOp10
 70
     1
102
RTVSPropertyOp11
 70
     1
102
RTVSPropertyOp12
 70
     1
102
RTVSPropertyOp13
 70
     1
102
RTVSPropertyOp14
 70
     1
102
RTVSPropertyOp15
 70
     1
102
RTVSPropertyOp16
 70
     1
102
RTVSPropertyOp17
 70
     1
102
RTVSPropertyOp18
 70
     1
102
RTVSPropertyOp19
 70
     1
102
RTVSPropertyOp20
 70
     1
102
RTVSPropertyOp21
 70
     1
102
RTVSPropertyOp22
 70
     1
102
RTVSPropertyOp23
 70
     1
102
RTVSPropertyOp24
 70
     1
102
RTVSPropertyOp25
 70
     1
102
RTVSPropertyOp26
 70
     1
102
RTVSPropertyOp27
 70
     1
102
RTVSPropertyOp28
 70
     1
102
RTVSPropertyOp29
 70
     1
102
RTVSPropertyOp30
 70
     1
102
RTVSPropertyOp31
 70
     1
102
RTVSPropertyOp32
 70
     1
102
RTVSPropertyOp33
 70
     1
102
RTVSPropertyOp34
 70
     1
102
RTVSPropertyOp35
 70
     1
102
RTVSPropertyOp36
 70
     1
102
RTVSPropertyOp37
 70
     1
102
RTVSPropertyOp38
 70
     1
102
RTVSPropertyOp39
 70
     1
102
RTVSPropertyOp40
 70
     1
102
RTVSPropertyOp41
 70
     1
102
RTVSPropertyOp42
 70
     1
102
RTVSPropertyOp43
 70
     1
102
RTVSPropertyOp44
 70
     1
102
RTVSPropertyOp45
 70
     1
102
RTVSPropertyOp46
 70
     1
102
RTVSPropertyOp47
 70
     1
102
RTVSPropertyOp48
 70
     1
102
RTVSPropertyOp49
 70
     1
102
RTVSPropertyOp50
 70
     1
102
RTVSPropertyOp51
 70
     0
102
RTVSPropertyOp52
 70
     0
102
RTVSPropertyOp53
 70
     1
102
RTVSPropertyOp54
 70
     1
102
RTVSPropertyOp55
 70
     1
102
RTVSPropertyOp56
 70
     1
102
RTVSPropertyOp57
 70
     1
102
RTVSPost2010Prop28
280
     0
102
RTVSPost2010PropOp28
 70
     1
102
RTVSPost2010Prop29
280
     1
102
RTVSPost2010PropOp29
 70
     1
102
RTVSPost2010Prop30
280
     1
102
RTVSPost2010PropOp30
 70
     1
102
RTVSPost2010Prop31
280
     0
102
RTVSPost2010PropOp31
 70
     1
102
RTVSPost2010Prop32
280
     0
102
RTVSPost2010PropOp32
 70
     1
102
RTVSPost2010Prop33
280
     0
102
RTVSPost2010PropOp33
 70
     1
102
RTVSPost2010Prop34
280
     0
102
RTVSPost2010PropOp34
 70
     1
102
RTVSPost2010Prop35
280
     0
102
RTVSPost2010PropOp35
 70
     1
102
RTVSPost2010Prop36
280
     0
102
RTVSPost2010PropOp36
 70
     1
102
RTVSPost2010Prop37
 90
       50
102
RTVSPost2010PropOp37
 70
     1
102
RTVSPost2010Prop38
140
0.0
102
RTVSPost2010PropOp38
 70
     1
102
RTVSPost2010Prop39
140
1.0
102
RTVSPost2010PropOp39
 70
     1
102
RTVSPost2010Prop40
 90
        0
102
RTVSPost2010PropOp40
 70
     1
102
RTVSPost2010Prop41ColorIndex
 90
       18
102
RTVSPost2010Prop41ColorRGB
 90
        0
102
RTVSPost2010PropOp41
 70
     1
102
RTVSPost2010Prop42
 90
       50
102
RTVSPost2010PropOp42
 70
     1
102
RTVSPost2010Prop43
 90
        3
102
RTVSPost2010PropOp43
 70
     1
102
RTVSPost2010Prop44ColorIndex
 90
        5
102
RTVSPost2010Prop44ColorRGB
 90
      255
102
RTVSPost2010PropOp44
 70
     1
102
RTVSPost2010Prop45
280
     0
102
RTVSPost2010PropOp45
 70
     1
102
RTVSPost2010Prop46
 90
       50
102
RTVSPost2010PropOp46
 70
     1
102
RTVSPost2010Prop47
 90
       50
102
RTVSPost2010PropOp47
 70
     1
102
RTVSPost2010Prop48
 90
       50
102
RTVSPost2010PropOp48
 70
     1
102
RTVSPost2010Prop49
280
     0
102
RTVSPost2010PropOp49
 70
     1
102
RTVSPost2010Prop50
 90
       50
102
RTVSPost2010PropOp50
 70
     1
102
RTVSPost2010Prop51ColorIndex
 90
      256
102
RTVSPost2010Prop51ColorRGB
 90
-16777216
102
RTVSPost2010PropOp51
 70
     0
102
RTVSPost2010Prop52
140
1.0
102
RTVSPost2010PropOp52
 70
     0
102
RTVSPost2010Prop53
 90
        2
102
RTVSPost2010PropOp53
 70
     1
102
RTVSPost2010Prop54
  1
strokes_ogs.tif
102
RTVSPost2010PropOp54
 70
     1
102
RTVSPost2010Prop55
280
     0
102
RTVSPost2010PropOp55
 70
     1
102
RTVSPost2010Prop56
140
1.0
102
RTVSPost2010PropOp56
 70
     1
102
RTVSPost2010Prop57
140
1.0
102
RTVSPost2010PropOp57
 70
     1
  0
XRECORD
  5
23B
102
{ACAD_REACTORS
330
23A
102
}
330
23A
100
AcDbXrecord
280
     1
102
RTVSPropertyOp0
 70
     1
102
RTVSPropertyOp1
 70
     1
102
RTVSPropertyOp2
 70
     1
102
RTVSPropertyOp3
 70
     1
102
RTVSPropertyOp4
 70
     1
102
RTVSPropertyOp5
 70
     1
102
RTVSPropertyOp6
 70
     1
102
RTVSPropertyOp7
 70
     1
102
RTVSPropertyOp8
 70
     1
102
RTVSPropertyOp9
 70
     1
102
RTVSPropertyOp10
 70
     1
102
RTVSPropertyOp11
 70
     1
102
RTVSPropertyOp12
 70
     1
102
RTVSPropertyOp13
 70
     1
102
RTVSPropertyOp14
 70
     1
102
RTVSPropertyOp15
 70
     1
102
RTVSPropertyOp16
 70
     1
102
RTVSPropertyOp17
 70
     1
102
RTVSPropertyOp18
 70
     1
102
RTVSPropertyOp19
 70
     1
102
RTVSPropertyOp20
 70
     1
102
RTVSPropertyOp21
 70
     1
102
RTVSPropertyOp22
 70
     1
102
RTVSPropertyOp23
 70
     1
102
RTVSPropertyOp24
 70
     1
102
RTVSPropertyOp25
 70
     1
102
RTVSPropertyOp26
 70
     1
102
RTVSPropertyOp27
 70
     1
102
RTVSPropertyOp28
 70
     1
102
RTVSPropertyOp29
 70
     1
102
RTVSPropertyOp30
 70
     1
102
RTVSPropertyOp31
 70
     1
102
RTVSPropertyOp32
 70
     1
102
RTVSPropertyOp33
 70
     1
102
RTVSPropertyOp34
 70
     1
102
RTVSPropertyOp35
 70
     1
102
RTVSPropertyOp36
 70
     1
102
RTVSPropertyOp37
 70
     1
102
RTVSPropertyOp38
 70
     1
102
RTVSPropertyOp39
 70
     1
102
RTVSPropertyOp40
 70
     1
102
RTVSPropertyOp41
 70
     1
102
RTVSPropertyOp42
 70
     1
102
RTVSPropertyOp43
 70
     1
102
RTVSPropertyOp44
 70
     1
102
RTVSPropertyOp45
 70
     1
102
RTVSPropertyOp46
 70
     1
102
RTVSPropertyOp47
 70
     1
102
RTVSPropertyOp48
 70
     1
102
RTVSPropertyOp49
 70
     1
102
RTVSPropertyOp50
 70
     1
102
RTVSPropertyOp51
 70
     0
102
RTVSPropertyOp52
 70
     0
102
RTVSPropertyOp53
 70
     1
102
RTVSPropertyOp54
 70
     1
102
RTVSPropertyOp55
 70
     1
102
RTVSPropertyOp56
 70
     1
102
RTVSPropertyOp57
 70
     1
102
RTVSPost2010Prop28
280
     0
102
RTVSPost2010PropOp28
 70
     1
102
RTVSPost2010Prop29
280
     1
102
RTVSPost2010PropOp29
 70
     1
102
RTVSPost2010Prop30
280
     1
102
RTVSPost2010PropOp30
 70
     1
102
RTVSPost2010Prop31
280
     0
102
RTVSPost2010PropOp31
 70
     1
102
RTVSPost2010Prop32
280
     0
102
RTVSPost2010PropOp32
 70
     1
102
RTVSPost2010Prop33
280
     0
102
RTVSPost2010PropOp33
 70
     1
102
RTVSPost2010Prop34
280
     0
102
RTVSPost2010PropOp34
 70
     1
102
RTVSPost2010Prop35
280
     0
102
RTVSPost2010PropOp35
 70
     1
102
RTVSPost2010Prop36
280
     0
102
RTVSPost2010PropOp36
 70
     1
102
RTVSPost2010Prop37
 90
       50
102
RTVSPost2010PropOp37
 70
     1
102
RTVSPost2010Prop38
140
0.0
102
RTVSPost2010PropOp38
 70
     1
102
RTVSPost2010Prop39
140
1.0
102
RTVSPost2010PropOp39
 70
     1
102
RTVSPost2010Prop40
 90
        0
102
RTVSPost2010PropOp40
 70
     1
102
RTVSPost2010Prop41ColorIndex
 90
       18
102
RTVSPost2010Prop41ColorRGB
 90
        0
102
RTVSPost2010PropOp41
 70
     1
102
RTVSPost2010Prop42
 90
       50
102
RTVSPost2010PropOp42
 70
     1
102
RTVSPost2010Prop43
 90
        3
102
RTVSPost2010PropOp43
 70
     1
102
RTVSPost2010Prop44ColorIndex
 90
        5
102
RTVSPost2010Prop44ColorRGB
 90
      255
102
RTVSPost2010PropOp44
 70
     1
102
RTVSPost2010Prop45
280
     0
102
RTVSPost2010PropOp45
 70
     1
102
RTVSPost2010Prop46
 90
       50
102
RTVSPost2010PropOp46
 70
     1
102
RTVSPost2010Prop47
 90
       50
102
RTVSPost2010PropOp47
 70
     1
102
RTVSPost2010Prop48
 90
       50
102
RTVSPost2010PropOp48
 70
     1
102
RTVSPost2010Prop49
280
     0
102
RTVSPost2010PropOp49
 70
     1
102
RTVSPost2010Prop50
 90
       50
102
RTVSPost2010PropOp50
 70
     1
102
RTVSPost2010Prop51ColorIndex
 90
      256
102
RTVSPost2010Prop51ColorRGB
 90
-16777216
102
RTVSPost2010PropOp51
 70
     0
102
RTVSPost2010Prop52
140
1.0
102
RTVSPost2010PropOp52
 70
     0
102
RTVSPost2010Prop53
 90
        2
102
RTVSPost2010PropOp53
 70
     1
102
RTVSPost2010Prop54
  1
strokes_ogs.tif
102
RTVSPost2010PropOp54
 70
     1
102
RTVSPost2010Prop55
280
     0
102
RTVSPost2010PropOp55
 70
     1
102
RTVSPost2010Prop56
140
1.0
102
RTVSPost2010PropOp56
 70
     1
102
RTVSPost2010Prop57
140
1.0
102
RTVSPost2010PropOp57
 70
     1
  0
XRECORD
  5
25B
102
{ACAD_REACTORS
330
25A
102
}
330
25A
100
AcDbXrecord
280
     1
102
RTVSPropertyOp0
 70
     1
102
RTVSPropertyOp1
 70
     1
102
RTVSPropertyOp2
 70
     1
102
RTVSPropertyOp3
 70
     1
102
RTVSPropertyOp4
 70
     1
102
RTVSPropertyOp5
 70
     1
102
RTVSPropertyOp6
 70
     1
102
RTVSPropertyOp7
 70
     1
102
RTVSPropertyOp8
 70
     1
102
RTVSPropertyOp9
 70
     1
102
RTVSPropertyOp10
 70
     1
102
RTVSPropertyOp11
 70
     1
102
RTVSPropertyOp12
 70
     1
102
RTVSPropertyOp13
 70
     1
102
RTVSPropertyOp14
 70
     1
102
RTVSPropertyOp15
 70
     1
102
RTVSPropertyOp16
 70
     1
102
RTVSPropertyOp17
 70
     1
102
RTVSPropertyOp18
 70
     1
102
RTVSPropertyOp19
 70
     1
102
RTVSPropertyOp20
 70
     1
102
RTVSPropertyOp21
 70
     1
102
RTVSPropertyOp22
 70
     1
102
RTVSPropertyOp23
 70
     1
102
RTVSPropertyOp24
 70
     1
102
RTVSPropertyOp25
 70
     1
102
RTVSPropertyOp26
 70
     1
102
RTVSPropertyOp27
 70
     1
102
RTVSPropertyOp28
 70
     1
102
RTVSPropertyOp29
 70
     1
102
RTVSPropertyOp30
 70
     1
102
RTVSPropertyOp31
 70
     1
102
RTVSPropertyOp32
 70
     1
102
RTVSPropertyOp33
 70
     1
102
RTVSPropertyOp34
 70
     1
102
RTVSPropertyOp35
 70
     1
102
RTVSPropertyOp36
 70
     1
102
RTVSPropertyOp37
 70
     1
102
RTVSPropertyOp38
 70
     1
102
RTVSPropertyOp39
 70
     1
102
RTVSPropertyOp40
 70
     1
102
RTVSPropertyOp41
 70
     1
102
RTVSPropertyOp42
 70
     1
102
RTVSPropertyOp43
 70
     1
102
RTVSPropertyOp44
 70
     1
102
RTVSPropertyOp45
 70
     1
102
RTVSPropertyOp46
 70
     1
102
RTVSPropertyOp47
 70
     1
102
RTVSPropertyOp48
 70
     1
102
RTVSPropertyOp49
 70
     1
102
RTVSPropertyOp50
 70
     1
102
RTVSPropertyOp51
 70
     0
102
RTVSPropertyOp52
 70
     0
102
RTVSPropertyOp53
 70
     1
102
RTVSPropertyOp54
 70
     1
102
RTVSPropertyOp55
 70
     1
102
RTVSPropertyOp56
 70
     1
102
RTVSPropertyOp57
 70
     1
102
RTVSPost2010Prop28
280
     0
102
RTVSPost2010PropOp28
 70
     1
102
RTVSPost2010Prop29
280
     1
102
RTVSPost2010PropOp29
 70
     1
102
RTVSPost2010Prop30
280
     1
102
RTVSPost2010PropOp30
 70
     1
102
RTVSPost2010Prop31
280
     0
102
RTVSPost2010PropOp31
 70
     1
102
RTVSPost2010Prop32
280
     0
102
RTVSPost2010PropOp32
 70
     1
102
RTVSPost2010Prop33
280
     0
102
RTVSPost2010PropOp33
 70
     1
102
RTVSPost2010Prop34
280
     0
102
RTVSPost2010PropOp34
 70
     1
102
RTVSPost2010Prop35
280
     0
102
RTVSPost2010PropOp35
 70
     1
102
RTVSPost2010Prop36
280
     0
102
RTVSPost2010PropOp36
 70
     1
102
RTVSPost2010Prop37
 90
       50
102
RTVSPost2010PropOp37
 70
     1
102
RTVSPost2010Prop38
140
0.0
102
RTVSPost2010PropOp38
 70
     1
102
RTVSPost2010Prop39
140
1.0
102
RTVSPost2010PropOp39
 70
     1
102
RTVSPost2010Prop40
 90
        0
102
RTVSPost2010PropOp40
 70
     1
102
RTVSPost2010Prop41ColorIndex
 90
       18
102
RTVSPost2010Prop41ColorRGB
 90
        0
102
RTVSPost2010PropOp41
 70
     1
102
RTVSPost2010Prop42
 90
       50
102
RTVSPost2010PropOp42
 70
     1
102
RTVSPost2010Prop43
 90
        3
102
RTVSPost2010PropOp43
 70
     1
102
RTVSPost2010Prop44ColorIndex
 90
        5
102
RTVSPost2010Prop44ColorRGB
 90
      255
102
RTVSPost2010PropOp44
 70
     1
102
RTVSPost2010Prop45
280
     0
102
RTVSPost2010PropOp45
 70
     1
102
RTVSPost2010Prop46
 90
       50
102
RTVSPost2010PropOp46
 70
     1
102
RTVSPost2010Prop47
 90
       50
102
RTVSPost2010PropOp47
 70
     1
102
RTVSPost2010Prop48
 90
       50
102
RTVSPost2010PropOp48
 70
     1
102
RTVSPost2010Prop49
280
     0
102
RTVSPost2010PropOp49
 70
     1
102
RTVSPost2010Prop50
 90
       50
102
RTVSPost2010PropOp50
 70
     1
102
RTVSPost2010Prop51ColorIndex
 90
      256
102
RTVSPost2010Prop51ColorRGB
 90
-16777216
102
RTVSPost2010PropOp51
 70
     0
102
RTVSPost2010Prop52
140
1.0
102
RTVSPost2010PropOp52
 70
     0
102
RTVSPost2010Prop53
 90
        2
102
RTVSPost2010PropOp53
 70
     1
102
RTVSPost2010Prop54
  1
strokes_ogs.tif
102
RTVSPost2010PropOp54
 70
     1
102
RTVSPost2010Prop55
280
     0
102
RTVSPost2010PropOp55
 70
     1
102
RTVSPost2010Prop56
140
1.0
102
RTVSPost2010PropOp56
 70
     1
102
RTVSPost2010Prop57
140
1.0
102
RTVSPost2010PropOp57
 70
     1
  0
ENDSEC
  0
EOF
