  0
SECTION
  2
HEADER
  9
$ACADVER
  1
AC1018
  9
$ACADMAINTVER
 70
     0
  9
$DWGCODEPAGE
  3
ANSI_932
  9
$INSBASE
 10
0.0
 20
0.0
 30
0.0
  9
$EXTMIN
 10
-2100.0
 20
-1485.0
 30
0.0
  9
$EXTMAX
 10
2100.0
 20
1485.0
 30
0.0
  9
$LIMMIN
 10
-2100.0
 20
-1485.0
  9
$LIMMAX
 10
2100.0
 20
1485.0
  9
$ORTHOMODE
 70
     0
  9
$REGENMODE
 70
     1
  9
$FILLMODE
 70
     1
  9
$QTEXTMODE
 70
     0
  9
$MIRRTEXT
 70
     1
  9
$LTSCALE
 40
10.0
  9
$ATTMODE
 70
     1
  9
$TEXTSIZE
 40
2.5
  9
$TRACEWID
 40
1.0
  9
$TEXTSTYLE
  7
Standard
  9
$CLAYER
  8
0
  9
$CELTYPE
  6
ByLayer
  9
$CECOLOR
 62
   256
  9
$CELTSCALE
 40
1.0
  9
$DISPSILH
 70
     0
  9
$DIMSCALE
 40
1.0
  9
$DIMASZ
 40
2.5
  9
$DIMEXO
 40
0.625
  9
$DIMDLI
 40
3.75
  9
$DIMRND
 40
0.0
  9
$DIMDLE
 40
0.0
  9
$DIMEXE
 40
1.25
  9
$DIMTP
 40
0.0
  9
$DIMTM
 40
0.0
  9
$DIMTXT
 40
2.5
  9
$DIMCEN
 40
2.5
  9
$DIMTSZ
 40
0.0
  9
$DIMTOL
 70
     0
  9
$DIMLIM
 70
     0
  9
$DIMTIH
 70
     0
  9
$DIMTOH
 70
     0
  9
$DIMSE1
 70
     0
  9
$DIMSE2
 70
     0
  9
$DIMTAD
 70
     1
  9
$DIMZIN
 70
     8
  9
$DIMBLK
  1

  9
$DIMASO
 70
     1
  9
$DIMSHO
 70
     1
  9
$DIMPOST
  1

  9
$DIMAPOST
  1

  9
$DIMALT
 70
     0
  9
$DIMALTD
 70
     3
  9
$DIMALTF
 40
0.03937007874016
  9
$DIMLFAC
 40
1.0
  9
$DIMTOFL
 70
     1
  9
$DIMTVP
 40
0.0
  9
$DIMTIX
 70
     0
  9
$DIMSOXD
 70
     0
  9
$DIMSAH
 70
     0
  9
$DIMBLK1
  1

  9
$DIMBLK2
  1

  9
$DIMSTYLE
  2
ISO-25
  9
$DIMCLRD
 70
     0
  9
$DIMCLRE
 70
     0
  9
$DIMCLRT
 70
     0
  9
$DIMTFAC
 40
1.0
  9
$DIMGAP
 40
0.625
  9
$DIMJUST
 70
     0
  9
$DIMSD1
 70
     0
  9
$DIMSD2
 70
     0
  9
$DIMTOLJ
 70
     0
  9
$DIMTZIN
 70
     8
  9
$DIMALTZ
 70
     0
  9
$DIMALTTZ
 70
     0
  9
$DIMUPT
 70
     0
  9
$DIMDEC
 70
     2
  9
$DIMTDEC
 70
     2
  9
$DIMALTU
 70
     2
  9
$DIMALTTD
 70
     3
  9
$DIMTXSTY
  7
Standard
  9
$DIMAUNIT
 70
     0
  9
$DIMADEC
 70
     0
  9
$DIMALTRND
 40
0.0
  9
$DIMAZIN
 70
     0
  9
$DIMDSEP
 70
    44
  9
$DIMATFIT
 70
     3
  9
$DIMFRAC
 70
     0
  9
$DIMLDRBLK
  1

  9
$DIMLUNIT
 70
     2
  9
$DIMLWD
 70
    -2
  9
$DIMLWE
 70
    -2
  9
$DIMTMOVE
 70
     0
  9
$LUNITS
 70
     2
  9
$LUPREC
 70
     4
  9
$SKETCHINC
 40
1.0
  9
$FILLETRAD
 40
10.0
  9
$AUNITS
 70
     0
  9
$AUPREC
 70
     0
  9
$MENU
  1
.
  9
$ELEVATION
 40
0.0
  9
$PELEVATION
 40
0.0
  9
$THICKNESS
 40
0.0
  9
$LIMCHECK
 70
     0
  9
$CHAMFERA
 40
10.0
  9
$CHAMFERB
 40
10.0
  9
$CHAMFERC
 40
20.0
  9
$CHAMFERD
 40
0.0
  9
$SKPOLY
 70
     0
  9
$TDCREATE
 40
2456499.586367292
  9
$TDUCREATE
 40
2456499.211367292
  9
$TDUPDATE
 40
2456499.586367303
  9
$TDUUPDATE
 40
2456499.211367303
  9
$TDINDWG
 40
0.0000000116
  9
$TDUSRTIMER
 40
0.0000000116
  9
$USRTIMER
 70
     1
  9
$ANGBASE
 50
0.0
  9
$ANGDIR
 70
     0
  9
$PDMODE
 70
     0
  9
$PDSIZE
 40
0.0
  9
$PLINEWID
 40
0.0
  9
$SPLFRAME
 70
     0
  9
$SPLINETYPE
 70
     6
  9
$SPLINESEGS
 70
     8
  9
$HANDSEED
  5
1EB
  9
$SURFTAB1
 70
     6
  9
$SURFTAB2
 70
     6
  9
$SURFTYPE
 70
     6
  9
$SURFU
 70
     6
  9
$SURFV
 70
     6
  9
$UCSBASE
  2

  9
$UCSNAME
  2

  9
$UCSORG
 10
0.0
 20
0.0
 30
0.0
  9
$UCSXDIR
 10
1.0
 20
0.0
 30
0.0
  9
$UCSYDIR
 10
0.0
 20
1.0
 30
0.0
  9
$UCSORTHOREF
  2

  9
$UCSORTHOVIEW
 70
     0
  9
$UCSORGTOP
 10
0.0
 20
0.0
 30
0.0
  9
$UCSORGBOTTOM
 10
0.0
 20
0.0
 30
0.0
  9
$UCSORGLEFT
 10
0.0
 20
0.0
 30
0.0
  9
$UCSORGRIGHT
 10
0.0
 20
0.0
 30
0.0
  9
$UCSORGFRONT
 10
0.0
 20
0.0
 30
0.0
  9
$UCSORGBACK
 10
0.0
 20
0.0
 30
0.0
  9
$PUCSBASE
  2

  9
$PUCSNAME
  2

  9
$PUCSORG
 10
0.0
 20
0.0
 30
0.0
  9
$PUCSXDIR
 10
1.0
 20
0.0
 30
0.0
  9
$PUCSYDIR
 10
0.0
 20
1.0
 30
0.0
  9
$PUCSORTHOREF
  2

  9
$PUCSORTHOVIEW
 70
     0
  9
$PUCSORGTOP
 10
0.0
 20
0.0
 30
0.0
  9
$PUCSORGBOTTOM
 10
0.0
 20
0.0
 30
0.0
  9
$PUCSORGLEFT
 10
0.0
 20
0.0
 30
0.0
  9
$PUCSORGRIGHT
 10
0.0
 20
0.0
 30
0.0
  9
$PUCSORGFRONT
 10
0.0
 20
0.0
 30
0.0
  9
$PUCSORGBACK
 10
0.0
 20
0.0
 30
0.0
  9
$USERI1
 70
     0
  9
$USERI2
 70
     0
  9
$USERI3
 70
     0
  9
$USERI4
 70
     0
  9
$USERI5
 70
     0
  9
$USERR1
 40
0.0
  9
$USERR2
 40
0.0
  9
$USERR3
 40
0.0
  9
$USERR4
 40
0.0
  9
$USERR5
 40
0.0
  9
$WORLDVIEW
 70
     1
  9
$SHADEDGE
 70
     3
  9
$SHADEDIF
 70
    70
  9
$TILEMODE
 70
     1
  9
$MAXACTVP
 70
    64
  9
$PINSBASE
 10
0.0
 20
0.0
 30
0.0
  9
$PLIMCHECK
 70
     0
  9
$PEXTMIN
 10
1.000000000000000E+20
 20
1.000000000000000E+20
 30
1.000000000000000E+20
  9
$PEXTMAX
 10
-1.000000000000000E+20
 20
-1.000000000000000E+20
 30
-1.000000000000000E+20
  9
$PLIMMIN
 10
0.0
 20
0.0
  9
$PLIMMAX
 10
420.0
 20
297.0
  9
$UNITMODE
 70
     0
  9
$VISRETAIN
 70
     1
  9
$PLINEGEN
 70
     0
  9
$PSLTSCALE
 70
     1
  9
$TREEDEPTH
 70
  3020
  9
$CMLSTYLE
  2
Standard
  9
$CMLJUST
 70
     0
  9
$CMLSCALE
 40
20.0
  9
$PROXYGRAPHICS
 70
     1
  9
$MEASUREMENT
 70
     1
  9
$CELWEIGHT
370
    -1
  9
$ENDCAPS
280
     0
  9
$JOINSTYLE
280
     0
  9
$LWDISPLAY
290
     0
  9
$INSUNITS
 70
     4
  9
$HYPERLINKBASE
  1

  9
$STYLESHEET
  1

  9
$XEDIT
290
     1
  9
$CEPSNTYPE
380
     0
  9
$PSTYLEMODE
290
     1
  9
$FINGERPRINTGUID
  2
{8C22FC3D-1F7D-4302-A5FF-DD3E06F4F3D1}
  9
$VERSIONGUID
  2
{FAEB1C32-E019-11D5-929B-00C0DF256EC4}
  9
$EXTNAMES
290
     1
  9
$PSVPSCALE
 40
0.0
  9
$OLESTARTUP
290
     0
  9
$SORTENTS
280
   127
  9
$INDEXCTL
280
     0
  9
$HIDETEXT
280
     1
  9
$XCLIPFRAME
290
     0
  9
$HALOGAP
280
     0
  9
$OBSCOLOR
 70
   257
  9
$OBSLTYPE
280
     0
  9
$INTERSECTIONDISPLAY
280
     0
  9
$INTERSECTIONCOLOR
 70
   257
  9
$DIMASSOC
280
     2
  9
$PROJECTNAME
  1

  0
ENDSEC
  0
SECTION
  2
CLASSES
  0
CLASS
  1
ACDBDICTIONARYWDFLT
  2
AcDbDictionaryWithDefault
  3
ObjectDBX Classes
 90
        0
 91
        4
280
     0
281
     0
  0
CLASS
  1
VISUALSTYLE
  2
AcDbVisualStyle
  3
ObjectDBX Classes
 90
     4095
 91
        4
280
     0
281
     0
  0
ENDSEC
  0
SECTION
  2
TABLES
  0
TABLE
  2
VPORT
  5
8
330
0
100
AcDbSymbolTable
 70
     1
  0
VPORT
  5
29
330
8
100
AcDbSymbolTableRecord
100
AcDbViewportTableRecord
  2
*Active
 70
     0
 10
0.0
 20
0.0
 11
1.0
 21
1.0
 12
0.0
 22
0.0
 13
0.0
 23
0.0
 14
10.0
 24
10.0
 15
10.0
 25
10.0
 16
0.0
 26
0.0
 36
1.0
 17
0.0
 27
0.0
 37
0.0
 40
3267.0
 41
1.414141414141414
 42
50.0
 43
0.0
 44
0.0
 50
0.0
 51
0.0
 71
     0
 72
 10000
 73
     1
 74
     3
 75
     0
 76
     0
 77
     0
 78
     0
281
     0
 65
     1
110
0.0
120
0.0
130
0.0
111
1.0
121
0.0
131
0.0
112
0.0
122
1.0
132
0.0
 79
     0
146
0.0
  0
ENDTAB
  0
TABLE
  2
LTYPE
  5
5
330
0
100
AcDbSymbolTable
 70
     5
  0
LTYPE
  5
14
330
5
100
AcDbSymbolTableRecord
100
AcDbLinetypeTableRecord
  2
ByBlock
 70
     0
  3

 72
    65
 73
     0
 40
0.0
  0
LTYPE
  5
15
330
5
100
AcDbSymbolTableRecord
100
AcDbLinetypeTableRecord
  2
ByLayer
 70
     0
  3

 72
    65
 73
     0
 40
0.0
  0
LTYPE
  5
16
330
5
100
AcDbSymbolTableRecord
100
AcDbLinetypeTableRecord
  2
Continuous
 70
     0
  3
Solid line
 72
    65
 73
     0
 40
0.0
  0
LTYPE
  5
3C
330
5
100
AcDbSymbolTableRecord
100
AcDbLinetypeTableRecord
  2
JWW_DASHED3
 70
     0
  3
---  ------  ------  ------  ---
 72
    65
 73
     2
 40
3.386666666666667
 49
2.54
 74
     0
 49
-0.8466666666666667
 74
     0
  0
LTYPE
  5
3D
330
5
100
AcDbSymbolTableRecord
100
AcDbLinetypeTableRecord
  2
JWW_HOJO
 70
     0
  3
  -   -   -   -   -   -   -   - 
 72
    65
 73
     2
 40
1.693333333333333
 49
-1.27
 74
     0
 49
0.4233333333333333
 74
     0
  0
LTYPE
  5
3E
330
5
100
AcDbSymbolTableRecord
100
AcDbLinetypeTableRecord
  2
JWW_CENTER1
 70
     0
  3
-----  --  ----------  --  -----
 72
    65
 73
     4
 40
6.773333333333333
 49
4.233333333333333
 74
     0
 49
-0.8466666666666667
 74
     0
 49
0.8466666666666667
 74
     0
 49
-0.8466666666666667
 74
     0
  0
LTYPE
  5
3F
330
5
100
AcDbSymbolTableRecord
100
AcDbLinetypeTableRecord
  2
JWW_CENTER2
 70
     0
  3
-------------  --  -------------
 72
    65
 73
     4
 40
13.54666666666667
 49
11.00666666666667
 74
     0
 49
-0.8466666666666667
 74
     0
 49
0.8466666666666667
 74
     0
 49
-0.8466666666666667
 74
     0
  0
ENDTAB
  0
TABLE
  2
LAYER
  5
2
330
0
100
AcDbSymbolTable
 70
    16
  0
LAYER
  5
10
330
2
100
AcDbSymbolTableRecord
100
AcDbLayerTableRecord
  2
0
 70
     0
 62
     7
  6
Continuous
370
    -3
390
F
  0
LAYER
  5
40
330
2
100
AcDbSymbolTableRecord
100
AcDbLayerTableRecord
  2
C-2
 70
     0
 62
     7
  6
Continuous
370
    -3
390
F
  0
LAYER
  5
41
330
2
100
AcDbSymbolTableRecord
100
AcDbLayerTableRecord
  2
C-A
 70
     0
 62
     7
  6
Continuous
370
    -3
390
F
  0
LAYER
  5
42
330
2
100
AcDbSymbolTableRecord
100
AcDbLayerTableRecord
  2
C-1
 70
     0
 62
     7
  6
Continuous
370
    -3
390
F
  0
LAYER
  5
43
330
2
100
AcDbSymbolTableRecord
100
AcDbLayerTableRecord
  2
C-4
 70
     0
 62
     7
  6
Continuous
370
    -3
390
F
  0
LAYER
  5
44
330
2
100
AcDbSymbolTableRecord
100
AcDbLayerTableRecord
  2
C-5
 70
     0
 62
     7
  6
Continuous
370
    -3
390
F
  0
LAYER
  5
45
330
2
100
AcDbSymbolTableRecord
100
AcDbLayerTableRecord
  2
C-0
 70
     0
 62
     7
  6
Continuous
370
    -3
390
F
  0
LAYER
  5
46
330
2
100
AcDbSymbolTableRecord
100
AcDbLayerTableRecord
  2
C-3
 70
     0
 62
     7
  6
Continuous
370
    -3
390
F
  0
LAYER
  5
47
330
2
100
AcDbSymbolTableRecord
100
AcDbLayerTableRecord
  2
D-A
 70
     0
 62
     7
  6
Continuous
370
    -3
390
F
  0
LAYER
  5
48
330
2
100
AcDbSymbolTableRecord
100
AcDbLayerTableRecord
  2
D-4
 70
     0
 62
     7
  6
Continuous
370
    -3
390
F
  0
LAYER
  5
49
330
2
100
AcDbSymbolTableRecord
100
AcDbLayerTableRecord
  2
D-5
 70
     0
 62
     7
  6
Continuous
370
    -3
390
F
  0
LAYER
  5
4A
330
2
100
AcDbSymbolTableRecord
100
AcDbLayerTableRecord
  2
D-6
 70
     0
 62
     7
  6
Continuous
370
    -3
390
F
  0
LAYER
  5
4B
330
2
100
AcDbSymbolTableRecord
100
AcDbLayerTableRecord
  2
D-9
 70
     0
 62
     7
  6
Continuous
370
    -3
390
F
  0
LAYER
  5
4C
330
2
100
AcDbSymbolTableRecord
100
AcDbLayerTableRecord
  2
D-1
 70
     0
 62
     7
  6
Continuous
370
    -3
390
F
  0
LAYER
  5
4D
330
2
100
AcDbSymbolTableRecord
100
AcDbLayerTableRecord
  2
D-2
 70
     0
 62
     7
  6
Continuous
370
    -3
390
F
  0
LAYER
  5
4E
330
2
100
AcDbSymbolTableRecord
100
AcDbLayerTableRecord
  2
F-4
 70
     0
 62
     7
  6
Continuous
370
    -3
390
F
  0
ENDTAB
  0
TABLE
  2
STYLE
  5
3
330
0
100
AcDbSymbolTable
 70
     2
  0
STYLE
  5
11
330
3
100
AcDbSymbolTableRecord
100
AcDbTextStyleTableRecord
  2
Standard
 70
     0
 40
0.0
 41
1.0
 50
0.0
 71
     0
 42
2.5
  3
txt
  4

1001
ACAD
1000

1071
        0
  0
STYLE
  5
3B
330
3
100
AcDbSymbolTableRecord
100
AcDbTextStyleTableRecord
  2
ＭＳ ゴシック
 70
     0
 40
1.0
 41
1.0
 50
0.0
 71
     0
 42
10.0
  3

  4

1001
ACAD
1000
MS Gothic
1071
    32817
  0
ENDTAB
  0
TABLE
  2
VIEW
  5
6
330
0
100
AcDbSymbolTable
 70
     0
  0
ENDTAB
  0
TABLE
  2
UCS
  5
7
330
0
100
AcDbSymbolTable
 70
     0
  0
ENDTAB
  0
TABLE
  2
APPID
  5
9
330
0
100
AcDbSymbolTable
 70
     1
  0
APPID
  5
12
330
9
100
AcDbSymbolTableRecord
100
AcDbRegAppTableRecord
  2
ACAD
 70
     0
  0
ENDTAB
  0
TABLE
  2
DIMSTYLE
  5
A
330
0
100
AcDbSymbolTable
 70
     1
100
AcDbDimStyleTable
  0
DIMSTYLE
105
27
330
A
100
AcDbSymbolTableRecord
100
AcDbDimStyleTableRecord
  2
ISO-25
 70
     0
 41
2.5
 42
0.625
 43
3.75
 44
1.25
 73
     0
 74
     0
 77
     1
 78
     8
140
2.5
141
2.5
143
0.03937007874016
147
0.625
171
     3
172
     1
271
     2
272
     2
274
     3
278
    44
283
     0
284
     8
340
11
  0
ENDTAB
  0
TABLE
  2
BLOCK_RECORD
  5
1
330
0
100
AcDbSymbolTable
 70
     1
  0
BLOCK_RECORD
  5
1F
330
1
100
AcDbSymbolTableRecord
100
AcDbBlockTableRecord
  2
*Model_Space
340
22
  0
BLOCK_RECORD
  5
1B
330
1
100
AcDbSymbolTableRecord
100
AcDbBlockTableRecord
  2
*Paper_Space
340
1E
  0
BLOCK_RECORD
  5
23
330
1
100
AcDbSymbolTableRecord
100
AcDbBlockTableRecord
  2
*Paper_Space0
340
26
  0
ENDTAB
  0
ENDSEC
  0
SECTION
  2
BLOCKS
  0
BLOCK
  5
20
330
1F
100
AcDbEntity
  8
0
100
AcDbBlockBegin
  2
*Model_Space
 70
     0
 10
0.0
 20
0.0
 30
0.0
  3
*Model_Space
  1

  0
ENDBLK
  5
21
330
1F
100
AcDbEntity
  8
0
100
AcDbBlockEnd
  0
BLOCK
  5
1C
330
1B
100
AcDbEntity
 67
     1
  8
0
100
AcDbBlockBegin
  2
*Paper_Space
 70
     0
 10
0.0
 20
0.0
 30
0.0
  3
*Paper_Space
  1

  0
ENDBLK
  5
1D
330
1B
100
AcDbEntity
 67
     1
  8
0
100
AcDbBlockEnd
  0
BLOCK
  5
24
330
23
100
AcDbEntity
  8
0
100
AcDbBlockBegin
  2
*Paper_Space0
 70
     0
 10
0.0
 20
0.0
 30
0.0
  3
*Paper_Space0
  1

  0
ENDBLK
  5
25
330
23
100
AcDbEntity
  8
0
100
AcDbBlockEnd
  0
ENDSEC
  0
SECTION
  2
ENTITIES
  0
LINE
  5
4F
330
1F
100
AcDbEntity
  8
C-2
  6
Continuous
 62
     3
370
    13
100
AcDbLine
 10
-820.513146632426
 20
798.8101773648651
 30
0.0
 11
-820.513146632426
 21
918.8105732685813
 31
0.0
  0
LINE
  5
50
330
1F
100
AcDbEntity
  8
C-2
  6
Continuous
 62
     3
370
    13
100
AcDbLine
 10
-820.513146632426
 20
918.8105732685813
 30
0.0
 11
-321.5132571555469
 21
918.8105732685813
 31
0.0
  0
LINE
  5
51
330
1F
100
AcDbEntity
  8
C-2
  6
Continuous
 62
     3
370
    13
100
AcDbLine
 10
-321.5132571555469
 20
918.8105732685813
 30
0.0
 11
-321.5132571555469
 21
798.8101773648651
 31
0.0
  0
LINE
  5
52
330
1F
100
AcDbEntity
  8
C-2
  6
Continuous
 62
     3
370
    13
100
AcDbLine
 10
-321.5132571555469
 20
798.8101773648651
 30
0.0
 11
-820.513146632426
 21
798.8101773648651
 31
0.0
  0
LINE
  5
53
330
1F
100
AcDbEntity
  8
C-2
  6
Continuous
 62
     3
370
    13
100
AcDbLine
 10
-821.5132983955174
 20
798.8101773648651
 30
0.0
 11
-821.5132983955174
 21
918.8105732685813
 31
0.0
  0
LINE
  5
54
330
1F
100
AcDbEntity
  8
C-A
  6
Continuous
 62
     3
370
    13
100
AcDbLine
 10
-468.0133445842841
 20
881.8101542704815
 30
0.0
 11
-434.0133808754581
 21
881.8101542704815
 31
0.0
  0
LINE
  5
55
330
1F
100
AcDbEntity
  8
C-A
  6
Continuous
 62
     3
370
    13
100
AcDbLine
 10
-468.0133445842841
 20
875.8109757706927
 30
0.0
 11
-434.0133808754581
 21
875.8109757706927
 31
0.0
  0
LINE
  5
56
330
1F
100
AcDbEntity
  8
C-A
  6
Continuous
 62
     3
370
    13
100
AcDbLine
 10
-388.0133280882961
 20
881.8101542704815
 30
0.0
 11
-354.0133643794701
 21
881.8101542704815
 31
0.0
  0
LINE
  5
57
330
1F
100
AcDbEntity
  8
C-A
  6
Continuous
 62
     3
370
    13
100
AcDbLine
 10
-388.0133280882961
 20
875.8109757706927
 30
0.0
 11
-354.0133643794701
 21
875.8109757706927
 31
0.0
  0
LINE
  5
58
330
1F
100
AcDbEntity
  8
C-A
  6
Continuous
 62
     3
370
    13
100
AcDbLine
 10
-388.0133280882961
 20
841.8097748627533
 30
0.0
 11
-354.0133643794701
 21
841.8097748627533
 31
0.0
  0
LINE
  5
59
330
1F
100
AcDbEntity
  8
C-A
  6
Continuous
 62
     3
370
    13
100
AcDbLine
 10
-388.0133280882961
 20
835.8108438027873
 30
0.0
 11
-354.0133643794701
 21
835.8108438027873
 31
0.0
  0
LINE
  5
5A
330
1F
100
AcDbEntity
  8
C-A
  6
Continuous
 62
     3
370
    13
100
AcDbLine
 10
-468.0133445842841
 20
841.8097748627533
 30
0.0
 11
-434.0133808754581
 21
841.8097748627533
 31
0.0
  0
LINE
  5
5B
330
1F
100
AcDbEntity
  8
C-A
  6
Continuous
 62
     3
370
    13
100
AcDbLine
 10
-468.0133445842841
 20
835.8108438027873
 30
0.0
 11
-434.0133808754581
 21
835.8108438027873
 31
0.0
  0
LINE
  5
5C
330
1F
100
AcDbEntity
  8
C-A
  6
Continuous
 62
     3
370
    13
100
AcDbLine
 10
-548.0133610802725
 20
841.8097748627533
 30
0.0
 11
-514.0135210913576
 21
841.8097748627533
 31
0.0
  0
LINE
  5
5D
330
1F
100
AcDbEntity
  8
C-A
  6
Continuous
 62
     3
370
    13
100
AcDbLine
 10
-548.0133610802725
 20
835.8108438027873
 30
0.0
 11
-514.0135210913576
 21
835.8108438027873
 31
0.0
  0
LINE
  5
5E
330
1F
100
AcDbEntity
  8
C-2
  6
Continuous
 62
     3
370
    13
100
AcDbLine
 10
-320.513229112367
 20
798.8101773648651
 30
0.0
 11
-320.513229112367
 21
918.8105732685813
 31
0.0
  0
LINE
  5
5F
330
1F
100
AcDbEntity
  8
C-2
  6
Continuous
 62
     3
370
    13
100
AcDbLine
 10
-320.513229112367
 20
918.8105732685813
 30
0.0
 11
178.4869078043349
 21
918.8105732685813
 31
0.0
  0
LINE
  5
60
330
1F
100
AcDbEntity
  8
C-2
  6
Continuous
 62
     3
370
    13
100
AcDbLine
 10
178.4869078043349
 20
918.8105732685813
 30
0.0
 11
178.4869078043349
 21
798.8101773648651
 31
0.0
  0
LINE
  5
61
330
1F
100
AcDbEntity
  8
C-2
  6
Continuous
 62
     3
370
    13
100
AcDbLine
 10
178.4869078043349
 20
798.8101773648651
 30
0.0
 11
-320.513229112367
 21
798.8101773648651
 31
0.0
  0
LINE
  5
62
330
1F
100
AcDbEntity
  8
C-A
  6
Continuous
 62
     3
370
    13
100
AcDbLine
 10
-288.0132456083552
 20
881.8101542704815
 30
0.0
 11
-254.0132818995292
 21
881.8101542704815
 31
0.0
  0
LINE
  5
63
330
1F
100
AcDbEntity
  8
C-A
  6
Continuous
 62
     3
370
    13
100
AcDbLine
 10
-288.0132456083552
 20
875.8109757706927
 30
0.0
 11
-254.0132818995292
 21
875.8109757706927
 31
0.0
  0
LINE
  5
64
330
1F
100
AcDbEntity
  8
C-A
  6
Continuous
 62
     3
370
    13
100
AcDbLine
 10
-288.0132456083552
 20
841.8097748627533
 30
0.0
 11
-254.0132818995292
 21
841.8097748627533
 31
0.0
  0
LINE
  5
65
330
1F
100
AcDbEntity
  8
C-A
  6
Continuous
 62
     3
370
    13
100
AcDbLine
 10
-288.0132456083552
 20
835.8108438027873
 30
0.0
 11
-254.0132818995292
 21
835.8108438027873
 31
0.0
  0
LINE
  5
66
330
1F
100
AcDbEntity
  8
C-A
  6
Continuous
 62
     3
370
    13
100
AcDbLine
 10
-208.013229112367
 20
881.8101542704815
 30
0.0
 11
-174.0133891234524
 21
881.8101542704815
 31
0.0
  0
LINE
  5
67
330
1F
100
AcDbEntity
  8
C-A
  6
Continuous
 62
     3
370
    13
100
AcDbLine
 10
-208.013229112367
 20
875.8109757706927
 30
0.0
 11
-174.0133891234524
 21
875.8109757706927
 31
0.0
  0
LINE
  5
68
330
1F
100
AcDbEntity
  8
C-A
  6
Continuous
 62
     3
370
    13
100
AcDbLine
 10
-208.013229112367
 20
841.8097748627533
 30
0.0
 11
-174.0133891234524
 21
841.8097748627533
 31
0.0
  0
LINE
  5
69
330
1F
100
AcDbEntity
  8
C-A
  6
Continuous
 62
     3
370
    13
100
AcDbLine
 10
-208.013229112367
 20
835.8108438027873
 30
0.0
 11
-174.0133891234524
 21
835.8108438027873
 31
0.0
  0
LINE
  5
6A
330
1F
100
AcDbEntity
  8
C-A
  6
Continuous
 62
     3
370
    13
100
AcDbLine
 10
-128.0133363362901
 20
881.8101542704815
 30
0.0
 11
-94.01300146773025
 21
881.8101542704815
 31
0.0
  0
LINE
  5
6B
330
1F
100
AcDbEntity
  8
C-A
  6
Continuous
 62
     3
370
    13
100
AcDbLine
 10
-128.0133363362901
 20
875.8109757706927
 30
0.0
 11
-94.01300146773025
 21
875.8109757706927
 31
0.0
  0
LINE
  5
6C
330
1F
100
AcDbEntity
  8
C-A
  6
Continuous
 62
     3
370
    13
100
AcDbLine
 10
-31.27376839921226
 20
918.8105732685813
 30
0.0
 11
-151.273916863106
 21
798.8101773648651
 31
0.0
  0
LINE
  5
6D
330
1F
100
AcDbEntity
  8
C-A
  6
Continuous
 62
     3
370
    13
100
AcDbLine
 10
-494.4425157598542
 20
918.8105732685813
 30
0.0
 11
-614.4425405038364
 21
798.8101773648651
 31
0.0
  0
LINE
  5
6E
330
1F
100
AcDbEntity
  8
C-A
  6
Continuous
 62
     3
370
    13
100
AcDbLine
 10
-505.4423293551878
 20
907.8103885135135
 30
0.0
 11
-321.5132571555469
 21
907.8103885135135
 31
0.0
  0
LINE
  5
6F
330
1F
100
AcDbEntity
  8
C-A
  6
Continuous
 62
     3
370
    13
100
AcDbLine
 10
-523.4422155328696
 20
889.8098837362755
 30
0.0
 11
-321.5132571555469
 21
889.8098837362755
 31
0.0
  0
LINE
  5
70
330
1F
100
AcDbEntity
  8
C-A
  6
Continuous
 62
     3
370
    13
100
AcDbLine
 10
-545.4425850430048
 20
867.8102565456084
 30
0.0
 11
-321.5132571555469
 21
867.8102565456084
 31
0.0
  0
LINE
  5
71
330
1F
100
AcDbEntity
  8
C-A
  6
Continuous
 62
     3
370
    13
100
AcDbLine
 10
-563.4424712206862
 20
849.8107415276606
 30
0.0
 11
-321.5132571555469
 21
849.8107415276606
 31
0.0
  0
LINE
  5
72
330
1F
100
AcDbEntity
  8
C-A
  6
Continuous
 62
     3
370
    13
100
AcDbLine
 10
-585.44271701091
 20
827.8098771378802
 30
0.0
 11
-321.5132571555469
 21
827.8098771378802
 31
0.0
  0
LINE
  5
73
330
1F
100
AcDbEntity
  8
C-A
  6
Continuous
 62
     3
370
    13
100
AcDbLine
 10
-603.4426031885916
 20
809.8106095597552
 30
0.0
 11
-321.5132571555469
 21
809.8106095597552
 31
0.0
  0
LINE
  5
74
330
1F
100
AcDbEntity
  8
C-A
  6
Continuous
 62
     3
370
    13
100
AcDbLine
 10
-509.9422699696305
 20
903.310447899071
 30
0.0
 11
-321.5132571555469
 21
903.310447899071
 31
0.0
  0
LINE
  5
75
330
1F
100
AcDbEntity
  8
C-A
  6
Continuous
 62
     3
370
    13
100
AcDbLine
 10
-514.4420868641618
 20
898.8105072846283
 30
0.0
 11
-321.5132571555469
 21
898.8105072846283
 31
0.0
  0
LINE
  5
76
330
1F
100
AcDbEntity
  8
C-A
  6
Continuous
 62
     3
370
    13
100
AcDbLine
 10
-518.9423986383383
 20
894.3108141100086
 30
0.0
 11
-321.5132571555469
 21
894.3108141100086
 31
0.0
  0
LINE
  5
77
330
1F
100
AcDbEntity
  8
C-A
  6
Continuous
 62
     3
370
    13
100
AcDbLine
 10
-549.942401937536
 20
863.3103159311656
 30
0.0
 11
-321.5132571555469
 21
863.3103159311656
 31
0.0
  0
LINE
  5
78
330
1F
100
AcDbEntity
  8
C-A
  6
Continuous
 62
     3
370
    13
100
AcDbLine
 10
-554.4422188320673
 20
858.8103753167231
 30
0.0
 11
-321.5132571555469
 21
858.8103753167231
 31
0.0
  0
LINE
  5
79
330
1F
100
AcDbEntity
  8
C-A
  6
Continuous
 62
     3
370
    13
100
AcDbLine
 10
-558.942654326155
 20
854.3106821421031
 30
0.0
 11
-321.5132571555469
 21
854.3106821421031
 31
0.0
  0
LINE
  5
7A
330
1F
100
AcDbEntity
  8
C-A
  6
Continuous
 62
     3
370
    13
100
AcDbLine
 10
-589.9426576253527
 20
823.3101839632602
 30
0.0
 11
-321.5132571555469
 21
823.3101839632602
 31
0.0
  0
LINE
  5
7B
330
1F
100
AcDbEntity
  8
C-A
  6
Continuous
 62
     3
370
    13
100
AcDbLine
 10
-594.442474519884
 20
818.8102433488177
 30
0.0
 11
-321.5132571555469
 21
818.8102433488177
 31
0.0
  0
LINE
  5
7C
330
1F
100
AcDbEntity
  8
C-A
  6
Continuous
 62
     3
370
    13
100
AcDbLine
 10
-598.9427862940604
 20
814.310302734375
 30
0.0
 11
-321.5132571555469
 21
814.310302734375
 31
0.0
  0
LINE
  5
7D
330
1F
100
AcDbEntity
  8
C-A
  6
Continuous
 62
     3
370
    13
100
AcDbLine
 10
-320.513229112367
 20
907.8103885135135
 30
0.0
 11
-42.27370571445732
 21
907.8103885135135
 31
0.0
  0
LINE
  5
7E
330
1F
100
AcDbEntity
  8
C-A
  6
Continuous
 62
     3
370
    13
100
AcDbLine
 10
-320.513229112367
 20
889.8098837362755
 30
0.0
 11
-60.27359189213882
 21
889.8098837362755
 31
0.0
  0
LINE
  5
7F
330
1F
100
AcDbEntity
  8
C-A
  6
Continuous
 62
     3
370
    13
100
AcDbLine
 10
-320.513229112367
 20
867.8102565456084
 30
0.0
 11
-82.2738376823628
 21
867.8102565456084
 31
0.0
  0
LINE
  5
80
330
1F
100
AcDbEntity
  8
C-A
  6
Continuous
 62
     3
370
    13
100
AcDbLine
 10
-320.513229112367
 20
849.8107415276606
 30
0.0
 11
-100.2740950197781
 21
849.8107415276606
 31
0.0
  0
LINE
  5
81
330
1F
100
AcDbEntity
  8
C-A
  6
Continuous
 62
     3
370
    13
100
AcDbLine
 10
-320.513229112367
 20
827.8098771378802
 30
0.0
 11
-122.2743408100021
 21
827.8098771378802
 31
0.0
  0
LINE
  5
82
330
1F
100
AcDbEntity
  8
C-A
  6
Continuous
 62
     3
370
    13
100
AcDbLine
 10
-320.513229112367
 20
809.8106095597552
 30
0.0
 11
-140.2742269876836
 21
809.8106095597552
 31
0.0
  0
LINE
  5
83
330
1F
100
AcDbEntity
  8
C-A
  6
Continuous
 62
     3
370
    13
100
AcDbLine
 10
-320.513229112367
 20
903.310447899071
 30
0.0
 11
-46.77352260898857
 21
903.310447899071
 31
0.0
  0
LINE
  5
84
330
1F
100
AcDbEntity
  8
C-A
  6
Continuous
 62
     3
370
    13
100
AcDbLine
 10
-320.513229112367
 20
898.8105072846283
 30
0.0
 11
-51.27358694334248
 21
898.8105072846283
 31
0.0
  0
LINE
  5
85
330
1F
100
AcDbEntity
  8
C-A
  6
Continuous
 62
     3
370
    13
100
AcDbLine
 10
-320.513229112367
 20
894.3108141100086
 30
0.0
 11
-55.77377499760757
 21
894.3108141100086
 31
0.0
  0
LINE
  5
86
330
1F
100
AcDbEntity
  8
C-A
  6
Continuous
 62
     3
370
    13
100
AcDbLine
 10
-320.513229112367
 20
863.3103159311656
 30
0.0
 11
-86.77377829680523
 21
863.3103159311656
 31
0.0
  0
LINE
  5
87
330
1F
100
AcDbEntity
  8
C-A
  6
Continuous
 62
     3
370
    13
100
AcDbLine
 10
-320.513229112367
 20
858.8103753167231
 30
0.0
 11
-91.27384263115914
 21
858.8103753167231
 31
0.0
  0
LINE
  5
88
330
1F
100
AcDbEntity
  8
C-A
  6
Continuous
 62
     3
370
    13
100
AcDbLine
 10
-320.513229112367
 20
854.3106821421031
 30
0.0
 11
-95.77415440533571
 21
854.3106821421031
 31
0.0
  0
LINE
  5
89
330
1F
100
AcDbEntity
  8
C-A
  6
Continuous
 62
     3
370
    13
100
AcDbLine
 10
-320.513229112367
 20
823.3101839632602
 30
0.0
 11
-126.7741577045334
 21
823.3101839632602
 31
0.0
  0
LINE
  5
8A
330
1F
100
AcDbEntity
  8
C-A
  6
Continuous
 62
     3
370
    13
100
AcDbLine
 10
-320.513229112367
 20
818.8102433488177
 30
0.0
 11
-131.2740983189758
 21
818.8102433488177
 31
0.0
  0
LINE
  5
8B
330
1F
100
AcDbEntity
  8
C-A
  6
Continuous
 62
     3
370
    13
100
AcDbLine
 10
-320.513229112367
 20
814.310302734375
 30
0.0
 11
-135.7744100931524
 21
814.310302734375
 31
0.0
  0
LINE
  5
8C
330
1F
100
AcDbEntity
  8
C-A
  6
Continuous
 62
     3
370
    13
100
AcDbLine
 10
-531.4423161583975
 20
881.8101542704815
 30
0.0
 11
-514.0135210913576
 21
881.8101542704815
 31
0.0
  0
LINE
  5
8D
330
1F
100
AcDbEntity
  8
C-A
  6
Continuous
 62
     3
370
    13
100
AcDbLine
 10
-537.4422369776541
 20
875.8109757706927
 30
0.0
 11
-514.0135210913576
 21
875.8109757706927
 31
0.0
  0
LINE
  5
8E
330
1F
100
AcDbEntity
  8
C-A
  6
Continuous
 62
     3
370
    13
100
AcDbLine
 10
-128.0133363362901
 20
841.8097748627533
 30
0.0
 11
-108.2740719253948
 21
841.8097748627533
 31
0.0
  0
LINE
  5
8F
330
1F
100
AcDbEntity
  8
C-A
  6
Continuous
 62
     3
370
    13
100
AcDbLine
 10
-128.0133363362901
 20
835.8108438027873
 30
0.0
 11
-114.2739927446516
 21
835.8108438027873
 31
0.0
  0
LINE
  5
90
330
1F
100
AcDbEntity
  8
C-2
  6
Continuous
 62
     3
370
    13
100
AcDbLine
 10
179.4868121276036
 20
918.8105732685813
 30
0.0
 11
179.4868121276036
 21
798.8101773648651
 31
0.0
  0
LINE
  5
91
330
1F
100
AcDbEntity
  8
C-2
  6
Continuous
 62
     3
370
    13
100
AcDbLine
 10
-821.5132983955174
 20
918.8105732685813
 30
0.0
 11
-1071.513257155547
 21
918.8105732685813
 31
0.0
  0
LINE
  5
92
330
1F
100
AcDbEntity
  8
C-2
  6
Continuous
 62
     3
370
    13
100
AcDbLine
 10
-821.5132983955174
 20
798.8101773648651
 30
0.0
 11
-1071.513257155547
 21
798.8101773648651
 31
0.0
  0
LINE
  5
93
330
1F
100
AcDbEntity
  8
C-2
  6
Continuous
 62
     3
370
    13
100
AcDbLine
 10
179.4868121276036
 20
918.8105732685813
 30
0.0
 11
429.4866471677219
 21
918.8105732685813
 31
0.0
  0
LINE
  5
94
330
1F
100
AcDbEntity
  8
C-2
  6
Continuous
 62
     3
370
    13
100
AcDbLine
 10
179.4868121276036
 20
798.8101773648651
 30
0.0
 11
429.4866471677219
 21
798.8101773648651
 31
0.0
  0
LINE
  5
95
330
1F
100
AcDbEntity
  8
C-1
  6
Continuous
 62
     2
370
    13
100
AcDbLine
 10
-1071.513257155547
 20
919.8104775918498
 30
0.0
 11
429.4866471677219
 21
919.8104775918498
 31
0.0
  0
LINE
  5
96
330
1F
100
AcDbEntity
  8
C-1
  6
JWW_DASHED3
 62
     2
370
    13
100
AcDbLine
 10
-1071.513257155547
 20
893.8102433488177
 30
0.0
 11
429.4866471677219
 21
893.8102433488177
 31
0.0
  0
LINE
  5
97
330
1F
100
AcDbEntity
  8
C-1
  6
JWW_DASHED3
 62
     2
370
    13
100
AcDbLine
 10
429.4866471677219
 20
823.8105072846283
 30
0.0
 11
-1071.513257155547
 21
823.8105072846283
 31
0.0
  0
LINE
  5
98
330
1F
100
AcDbEntity
  8
C-1
  6
Continuous
 62
     2
370
    13
100
AcDbLine
 10
429.4866471677219
 20
797.8102730415964
 30
0.0
 11
-1071.513257155547
 21
797.8102730415964
 31
0.0
  0
LINE
  5
99
330
1F
100
AcDbEntity
  8
C-1
  6
Continuous
 62
     2
370
    13
100
AcDbLine
 10
-1071.513257155547
 20
926.8105501741977
 30
0.0
 11
429.4866471677219
 21
926.8105501741977
 31
0.0
  0
LINE
  5
9A
330
1F
100
AcDbEntity
  8
C-1
  6
Continuous
 62
     2
370
    13
100
AcDbLine
 10
429.4866471677219
 20
790.810447899071
 30
0.0
 11
-1071.513257155547
 21
790.810447899071
 31
0.0
  0
LINE
  5
9B
330
1F
100
AcDbEntity
  8
C-A
  6
JWW_HOJO
 62
     3
370
    13
100
AcDbLine
 10
-398.3376309678357
 20
878.8104413006758
 30
0.0
 11
-330.3527973793643
 21
878.8104413006758
 31
0.0
  0
LINE
  5
9C
330
1F
100
AcDbEntity
  8
C-A
  6
JWW_HOJO
 62
     3
370
    13
100
AcDbLine
 10
-371.0133462338831
 20
893.9549956450592
 30
0.0
 11
-371.0133462338831
 21
864.3626774968328
 31
0.0
  0
LINE
  5
9D
330
1F
100
AcDbEntity
  8
C-4
  6
Continuous
 62
     7
370
    13
100
AcDbLine
 10
-821.5132983955174
 20
938.8108866923565
 30
0.0
 11
-821.5132983955174
 21
1021.810863597973
 31
0.0
  0
LINE
  5
9E
330
1F
100
AcDbEntity
  8
C-4
  6
Continuous
 62
     7
370
    13
100
AcDbLine
 10
-820.513146632426
 20
938.8108866923565
 30
0.0
 11
-820.513146632426
 21
1101.810632654139
 31
0.0
  0
LINE
  5
9F
330
1F
100
AcDbEntity
  8
C-4
  6
Continuous
 62
     7
370
    13
100
AcDbLine
 10
-1071.513257155547
 20
1018.810655748522
 30
0.0
 11
429.4866471677219
 21
1018.810655748522
 31
0.0
  0
LINE
  5
A0
330
1F
100
AcDbEntity
  8
C-4
  6
Continuous
 62
     7
370
    13
100
AcDbLine
 10
-321.5132571555469
 20
938.8108866923565
 30
0.0
 11
-321.5132571555469
 21
1021.810863597973
 31
0.0
  0
LINE
  5
A1
330
1F
100
AcDbEntity
  8
C-4
  6
Continuous
 62
     7
370
    13
100
AcDbLine
 10
-320.513229112367
 20
938.8108866923565
 30
0.0
 11
-320.513229112367
 21
1101.810632654139
 31
0.0
  0
LINE
  5
A2
330
1F
100
AcDbEntity
  8
C-4
  6
Continuous
 62
     7
370
    13
100
AcDbLine
 10
178.4869078043349
 20
938.8108866923565
 30
0.0
 11
178.4869078043349
 21
1021.810863597973
 31
0.0
  0
LINE
  5
A3
330
1F
100
AcDbEntity
  8
C-4
  6
Continuous
 62
     7
370
    13
100
AcDbLine
 10
179.4868121276036
 20
938.8108866923565
 30
0.0
 11
179.4868121276036
 21
1101.810632654139
 31
0.0
  0
LINE
  5
A4
330
1F
100
AcDbEntity
  8
C-4
  6
Continuous
 62
     7
370
    13
100
AcDbLine
 10
-1071.513257155547
 20
1098.81067224451
 30
0.0
 11
429.4866471677219
 21
1098.81067224451
 31
0.0
  0
LINE
  5
A5
330
1F
100
AcDbEntity
  8
C-2
  6
Continuous
 62
     3
370
    13
100
AcDbLine
 10
-1091.5133231395
 20
843.810078388936
 30
0.0
 11
-1051.513129311639
 21
873.8106722445102
 31
0.0
  0
LINE
  5
A6
330
1F
100
AcDbEntity
  8
C-2
  6
Continuous
 62
     3
370
    13
100
AcDbLine
 10
-1091.5133231395
 20
843.810078388936
 30
0.0
 11
-1071.513257155547
 21
843.810078388936
 31
0.0
  0
LINE
  5
A7
330
1F
100
AcDbEntity
  8
C-2
  6
Continuous
 62
     3
370
    13
100
AcDbLine
 10
-1071.513257155547
 20
873.8106722445102
 30
0.0
 11
-1051.513129311639
 21
873.8106722445102
 31
0.0
  0
LINE
  5
A8
330
1F
100
AcDbEntity
  8
C-2
  6
Continuous
 62
     3
370
    13
100
AcDbLine
 10
409.4868286235916
 20
843.810078388936
 30
0.0
 11
449.4869605914971
 21
873.8106722445102
 31
0.0
  0
LINE
  5
A9
330
1F
100
AcDbEntity
  8
C-2
  6
Continuous
 62
     3
370
    13
100
AcDbLine
 10
409.4868286235916
 20
843.810078388936
 30
0.0
 11
429.4866471677219
 21
843.810078388936
 31
0.0
  0
LINE
  5
AA
330
1F
100
AcDbEntity
  8
C-2
  6
Continuous
 62
     3
370
    13
100
AcDbLine
 10
429.4866471677219
 20
873.8106722445102
 30
0.0
 11
449.4869605914971
 21
873.8106722445102
 31
0.0
  0
LINE
  5
AB
330
1F
100
AcDbEntity
  8
C-2
  6
Continuous
 62
     3
370
    13
100
AcDbLine
 10
-1071.513257155547
 20
775.8103984111065
 30
0.0
 11
-1071.513257155547
 21
843.810078388936
 31
0.0
  0
LINE
  5
AC
330
1F
100
AcDbEntity
  8
C-2
  6
Continuous
 62
     3
370
    13
100
AcDbLine
 10
-1071.513257155547
 20
873.8106722445102
 30
0.0
 11
-1071.513257155547
 21
941.8103522223396
 31
0.0
  0
LINE
  5
AD
330
1F
100
AcDbEntity
  8
C-2
  6
Continuous
 62
     3
370
    13
100
AcDbLine
 10
429.4866471677219
 20
941.8103522223396
 30
0.0
 11
429.4866471677219
 21
873.8106722445102
 31
0.0
  0
LINE
  5
AE
330
1F
100
AcDbEntity
  8
C-2
  6
Continuous
 62
     3
370
    13
100
AcDbLine
 10
429.4866471677219
 20
843.810078388936
 30
0.0
 11
429.4866471677219
 21
775.8103984111065
 31
0.0
  0
LINE
  5
AF
330
1F
100
AcDbEntity
  8
C-5
  6
Continuous
 62
     7
370
    13
100
AcDbLine
 10
-33.51309879406045
 20
590.8102829391894
 30
0.0
 11
-33.51309879406045
 21
525.810810810811
 31
0.0
  0
LINE
  5
B0
330
1F
100
AcDbEntity
  8
C-5
  6
Continuous
 62
     7
370
    13
100
AcDbLine
 10
-33.51309879406045
 20
525.810810810811
 30
0.0
 11
-608.5135111937649
 21
525.810810810811
 31
0.0
  0
LINE
  5
B1
330
1F
100
AcDbEntity
  8
C-5
  6
Continuous
 62
     7
370
    13
100
AcDbLine
 10
-608.5135111937649
 20
590.8102829391894
 30
0.0
 11
-33.51309879406045
 21
590.8102829391894
 31
0.0
  0
LINE
  5
B2
330
1F
100
AcDbEntity
  8
C-5
  6
Continuous
 62
     7
370
    13
100
AcDbLine
 10
-608.5135111937649
 20
525.810810810811
 30
0.0
 11
-608.5135111937649
 21
590.8102829391894
 31
0.0
  0
LINE
  5
B3
330
1F
100
AcDbEntity
  8
C-0
  6
JWW_CENTER1
 62
     3
370
    13
100
AcDbLine
 10
536.3306677019278
 20
666.848045555321
 30
0.0
 11
769.9425632889211
 21
666.848045555321
 31
0.0
  0
LINE
  5
B4
330
1F
100
AcDbEntity
  8
C-0
  6
Continuous
 62
     3
370
    13
100
AcDbLine
 10
741.6423758944956
 20
681.847847603463
 30
0.0
 11
571.642309910543
 21
681.847847603463
 31
0.0
  0
LINE
  5
B5
330
1F
100
AcDbEntity
  8
C-0
  6
Continuous
 62
     3
370
    13
100
AcDbLine
 10
571.642309910543
 20
651.8482435071792
 30
0.0
 11
741.6423758944956
 21
651.8482435071792
 31
0.0
  0
LINE
  5
B6
330
1F
100
AcDbEntity
  8
C-0
  6
Continuous
 62
     7
370
    13
100
AcDbLine
 10
556.6425078624007
 20
759.0676302523227
 30
0.0
 11
756.6424253824601
 21
759.0676302523227
 31
0.0
  0
LINE
  5
B7
330
1F
100
AcDbEntity
  8
C-0
  6
Continuous
 62
     7
370
    13
100
AcDbLine
 10
756.6424253824601
 20
703.0341400971283
 30
0.0
 11
756.6424253824601
 21
762.0670957823057
 31
0.0
  0
LINE
  5
B8
330
1F
100
AcDbEntity
  8
C-0
  6
Continuous
 62
     7
370
    13
100
AcDbLine
 10
556.6425078624007
 20
703.0341400971283
 30
0.0
 11
556.6425078624007
 21
762.0670957823057
 31
0.0
  0
LINE
  5
B9
330
1F
100
AcDbEntity
  8
C-0
  6
Continuous
 62
     7
370
    13
100
AcDbLine
 10
776.5343601639211
 20
651.8482435071792
 30
0.0
 11
839.4773599263789
 21
651.8482435071792
 31
0.0
  0
LINE
  5
BA
330
1F
100
AcDbEntity
  8
C-0
  6
Continuous
 62
     7
370
    13
100
AcDbLine
 10
836.4771520769278
 20
651.8482435071792
 30
0.0
 11
836.4771520769278
 21
681.847847603463
 31
0.0
  0
LINE
  5
BB
330
1F
100
AcDbEntity
  8
C-0
  6
Continuous
 62
     7
370
    13
100
AcDbLine
 10
839.4773599263789
 20
681.847847603463
 30
0.0
 11
776.5343601639211
 21
681.847847603463
 31
0.0
  0
LINE
  5
BC
330
1F
100
AcDbEntity
  8
C-5
  6
Continuous
 62
     7
370
    13
100
AcDbLine
 10
376.5488766335156
 20
525.810810810811
 30
0.0
 11
376.5488766335156
 21
590.8102829391894
 31
0.0
  0
LINE
  5
BD
330
1F
100
AcDbEntity
  8
C-5
  6
Continuous
 62
     7
370
    13
100
AcDbLine
 10
376.5488766335156
 20
590.8102829391894
 30
0.0
 11
951.549536473043
 21
590.8102829391894
 31
0.0
  0
LINE
  5
BE
330
1F
100
AcDbEntity
  8
C-5
  6
Continuous
 62
     7
370
    13
100
AcDbLine
 10
951.549536473043
 20
590.8102829391894
 30
0.0
 11
951.549536473043
 21
525.810810810811
 31
0.0
  0
LINE
  5
BF
330
1F
100
AcDbEntity
  8
C-5
  6
Continuous
 62
     7
370
    13
100
AcDbLine
 10
951.549536473043
 20
525.810810810811
 30
0.0
 11
376.5488766335156
 21
525.810810810811
 31
0.0
  0
LINE
  5
C0
330
1F
100
AcDbEntity
  8
C-3
  6
Continuous
 62
     7
370
    13
100
AcDbLine
 10
-263.9764463579328
 20
817.8326086095863
 30
0.0
 11
-248.7572889070248
 21
797.9990696262669
 31
0.0
  0
LINE
  5
C1
330
1F
100
AcDbEntity
  8
C-3
  6
Continuous
 62
     7
370
    13
100
AcDbLine
 10
-263.9764463579328
 20
817.8326086095863
 30
0.0
 11
-254.4093093356565
 21
794.735833245355
 31
0.0
  0
LINE
  5
C2
330
1F
100
AcDbEntity
  8
C-3
  6
Continuous
 62
     7
370
    13
100
AcDbLine
 10
-179.8571754146263
 20
672.1341024862755
 30
0.0
 11
-263.9764463579328
 21
817.8326086095863
 31
0.0
  0
LINE
  5
C3
330
1F
100
AcDbEntity
  8
C-3
  6
Continuous
 62
     7
370
    13
100
AcDbLine
 10
-179.8571754146263
 20
672.1341024862755
 30
0.0
 11
295.55563668947
 21
672.1341024862755
 31
0.0
  0
LINE
  5
C4
330
1F
100
AcDbEntity
  8
C-4
  6
Continuous
 62
     7
370
    13
100
AcDbLine
 10
-651.013156530019
 20
838.8103093327703
 30
0.0
 11
-651.013156530019
 21
878.8104413006758
 31
0.0
  0
LINE
  5
C5
330
1F
100
AcDbEntity
  8
C-4
  6
Continuous
 62
     7
370
    13
100
AcDbLine
 10
-451.0133627298711
 20
735.810266443201
 30
0.0
 11
-371.0133462338831
 21
735.810266443201
 31
0.0
  0
LINE
  5
C6
330
1F
100
AcDbEntity
  8
C-4
  6
Continuous
 62
     7
370
    13
100
AcDbLine
 10
-531.9067607054836
 20
878.8104413006758
 30
0.0
 11
-654.0131169396475
 21
878.8104413006758
 31
0.0
  0
LINE
  5
C7
330
1F
100
AcDbEntity
  8
C-0
  6
JWW_CENTER1
 62
     3
370
    13
100
AcDbLine
 10
656.6428377821643
 20
696.4294763513516
 30
0.0
 11
656.6428377821643
 21
633.785383894637
 31
0.0
  0
LINE
  5
C8
330
1F
100
AcDbEntity
  8
C-4
  6
Continuous
 62
     7
370
    13
100
AcDbLine
 10
-451.0133627298711
 20
838.0575973923144
 30
0.0
 11
-451.0133627298711
 21
732.8103060335727
 31
0.0
  0
LINE
  5
C9
330
1F
100
AcDbEntity
  8
C-4
  6
Continuous
 62
     7
370
    13
100
AcDbLine
 10
-371.0133462338831
 20
838.0575973923144
 30
0.0
 11
-371.0133462338831
 21
732.8103060335727
 31
0.0
  0
LINE
  5
CA
330
1F
100
AcDbEntity
  8
C-4
  6
Continuous
 62
     7
370
    13
100
AcDbLine
 10
-543.6680703549769
 20
838.8103093327703
 30
0.0
 11
-654.0131169396475
 21
838.8103093327703
 31
0.0
  0
LINE
  5
CB
330
1F
100
AcDbEntity
  8
D-A
  6
JWW_DASHED3
 62
     3
370
    13
100
AcDbLine
 10
-351.6535307909987
 20
-363.2467816327069
 30
0.0
 11
-351.6535307909987
 21
-313.2468641126478
 31
0.0
  0
LINE
  5
CC
330
1F
100
AcDbEntity
  8
D-A
  6
Continuous
 62
     3
370
    13
100
AcDbLine
 10
-326.6538194707917
 20
-338.2469465925886
 30
0.0
 11
-326.6538194707917
 21
-322.7469449429898
 31
0.0
  0
LINE
  5
CD
330
1F
100
AcDbEntity
  8
D-A
  6
Continuous
 62
     3
370
    13
100
AcDbLine
 10
-351.6535307909987
 20
-313.2468641126478
 30
0.0
 11
-351.6535307909987
 21
-283.247260016364
 31
0.0
  0
LINE
  5
CE
330
1F
100
AcDbEntity
  8
D-A
  6
Continuous
 62
     3
370
    13
100
AcDbLine
 10
-201.6536545109099
 20
-401.7475519953547
 30
0.0
 11
-326.6538194707917
 21
-401.7475519953547
 31
0.0
  0
LINE
  5
CF
330
1F
100
AcDbEntity
  8
D-A
  6
Continuous
 62
     3
370
    13
100
AcDbLine
 10
-329.5828883712352
 20
-385.3174240524704
 30
0.0
 11
-351.6535307909987
 21
-363.2467816327069
 31
0.0
  0
LINE
  5
D0
330
1F
100
AcDbEntity
  8
D-A
  6
Continuous
 62
     3
370
    13
100
AcDbLine
 10
-326.6538194707917
 20
-413.2473177523225
 30
0.0
 11
-326.6538194707917
 21
-392.3888830236485
 31
0.0
  0
LINE
  5
D1
330
1F
100
AcDbEntity
  8
D-A
  6
Continuous
 62
     3
370
    13
100
AcDbLine
 10
-201.6536545109099
 20
-413.2473177523225
 30
0.0
 11
-326.6538194707917
 21
-413.2473177523225
 31
0.0
  0
LINE
  5
D2
330
1F
100
AcDbEntity
  8
D-A
  6
Continuous
 62
     3
370
    13
100
AcDbLine
 10
-201.6536545109099
 20
-373.2469383445945
 30
0.0
 11
-201.6536545109099
 21
-413.2473177523225
 31
0.0
  0
LINE
  5
D3
330
1F
100
AcDbEntity
  8
D-A
  6
Continuous
 62
     3
370
    13
100
AcDbLine
 10
-291.2985041334818
 20
-363.2467816327069
 30
0.0
 11
-211.6539349427089
 21
-363.2467816327069
 31
0.0
  0
LINE
  5
D4
330
1F
100
AcDbEntity
  8
D-A
  6
Continuous
 62
     3
370
    13
100
AcDbLine
 10
-351.6535307909987
 20
-313.2468641126478
 30
0.0
 11
-308.9763473820037
 21
-355.9250372809332
 31
0.0
  0
LINE
  5
D5
330
1F
100
AcDbEntity
  8
D-A
  6
Continuous
 62
     3
370
    13
100
AcDbLine
 10
-363.153791427612
 20
-283.247260016364
 30
0.0
 11
-363.153791427612
 21
-395.7473837362753
 31
0.0
  0
LINE
  5
D6
330
1F
100
AcDbEntity
  8
D-A
  6
JWW_CENTER2
 62
     3
370
    13
100
AcDbLine
 10
-308.6587583696516
 20
-340.7469548405827
 30
0.0
 11
-369.0772533416745
 21
-340.7469548405827
 31
0.0
  0
LINE
  5
D7
330
1F
100
AcDbEntity
  8
D-A
  6
JWW_DASHED3
 62
     3
370
    13
100
AcDbLine
 10
-326.6538194707917
 20
-358.746717298353
 30
0.0
 11
-326.6538194707917
 21
-338.2469465925886
 31
0.0
  0
LINE
  5
D8
330
1F
100
AcDbEntity
  8
D-A
  6
Continuous
 62
     3
370
    13
100
AcDbLine
 10
-365.4037617348331
 20
-330.746798128695
 30
0.0
 11
-366.6534565590518
 21
-331.9972352723817
 31
0.0
  0
LINE
  5
D9
330
1F
100
AcDbEntity
  8
D-A
  6
Continuous
 62
     3
370
    13
100
AcDbLine
 10
-365.4037617348331
 20
-350.7464929529138
 30
0.0
 11
-366.6534565590518
 21
-349.4971692884291
 31
0.0
  0
LINE
  5
DA
330
1F
100
AcDbEntity
  8
D-A
  6
JWW_DASHED3
 62
     3
370
    13
100
AcDbLine
 10
-365.4037617348331
 20
-330.746798128695
 30
0.0
 11
-365.4037617348331
 21
-350.7464929529138
 31
0.0
  0
LINE
  5
DB
330
1F
100
AcDbEntity
  8
D-A
  6
Continuous
 62
     3
370
    13
100
AcDbLine
 10
-363.153791427612
 20
-331.9972352723817
 30
0.0
 11
-366.6534565590518
 21
-331.9972352723817
 31
0.0
  0
LINE
  5
DC
330
1F
100
AcDbEntity
  8
D-A
  6
Continuous
 62
     3
370
    13
100
AcDbLine
 10
-363.153791427612
 20
-330.746798128695
 30
0.0
 11
-365.4037617348331
 21
-330.746798128695
 31
0.0
  0
LINE
  5
DD
330
1F
100
AcDbEntity
  8
D-A
  6
Continuous
 62
     3
370
    13
100
AcDbLine
 10
-363.153791427612
 20
-349.4971692884291
 30
0.0
 11
-366.6534565590518
 21
-349.4971692884291
 31
0.0
  0
LINE
  5
DE
330
1F
100
AcDbEntity
  8
D-A
  6
Continuous
 62
     3
370
    13
100
AcDbLine
 10
-363.153791427612
 20
-350.7464929529138
 30
0.0
 11
-365.4037617348331
 21
-350.7464929529138
 31
0.0
  0
LINE
  5
DF
330
1F
100
AcDbEntity
  8
D-A
  6
JWW_DASHED3
 62
     3
370
    13
100
AcDbLine
 10
-326.6538194707917
 20
-350.7464929529138
 30
0.0
 11
-363.153791427612
 21
-350.7464929529138
 31
0.0
  0
LINE
  5
E0
330
1F
100
AcDbEntity
  8
D-A
  6
JWW_DASHED3
 62
     3
370
    13
100
AcDbLine
 10
-326.6538194707917
 20
-349.4971692884291
 30
0.0
 11
-363.153791427612
 21
-349.4971692884291
 31
0.0
  0
LINE
  5
E1
330
1F
100
AcDbEntity
  8
D-A
  6
JWW_DASHED3
 62
     3
370
    13
100
AcDbLine
 10
-320.1535753301667
 20
-358.746717298353
 30
0.0
 11
-326.6538194707917
 21
-358.746717298353
 31
0.0
  0
LINE
  5
E2
330
1F
100
AcDbEntity
  8
D-A
  6
Continuous
 62
     3
370
    13
100
AcDbLine
 10
-320.1535753301667
 20
-322.7469449429898
 30
0.0
 11
-326.6538194707917
 21
-322.7469449429898
 31
0.0
  0
LINE
  5
E3
330
1F
100
AcDbEntity
  8
D-A
  6
Continuous
 62
     3
370
    13
100
AcDbLine
 10
-313.6537023492758
 20
-329.2469416437922
 30
0.0
 11
-313.6537023492758
 21
-351.24755859375
 31
0.0
  0
LINE
  5
E4
330
1F
100
AcDbEntity
  8
D-A
  6
JWW_DASHED3
 62
     3
370
    13
100
AcDbLine
 10
-313.6537023492758
 20
-352.2470917572846
 30
0.0
 11
-313.6537023492758
 21
-351.24755859375
 31
0.0
  0
LINE
  5
E5
330
1F
100
AcDbEntity
  8
D-A
  6
Continuous
 62
     3
370
    13
100
AcDbLine
 10
-326.6538194707917
 20
-330.746798128695
 30
0.0
 11
-334.1540916545966
 21
-330.746798128695
 31
0.0
  0
LINE
  5
E6
330
1F
100
AcDbEntity
  8
D-A
  6
Continuous
 62
     3
370
    13
100
AcDbLine
 10
-326.6538194707917
 20
-331.9972352723817
 30
0.0
 11
-332.904025670644
 21
-331.9972352723817
 31
0.0
  0
LINE
  5
E7
330
1F
100
AcDbEntity
  8
D-A
  6
JWW_DASHED3
 62
     3
370
    13
100
AcDbLine
 10
-334.1540916545966
 20
-330.746798128695
 30
0.0
 11
-363.153791427612
 21
-330.746798128695
 31
0.0
  0
LINE
  5
E8
330
1F
100
AcDbEntity
  8
D-A
  6
JWW_DASHED3
 62
     3
370
    13
100
AcDbLine
 10
-363.153791427612
 20
-331.9972352723817
 30
0.0
 11
-332.904025670644
 21
-331.9972352723817
 31
0.0
  0
LINE
  5
E9
330
1F
100
AcDbEntity
  8
D-4
  6
Continuous
 62
     7
370
    13
100
AcDbLine
 10
-1074.322008442234
 20
-157.3274849556586
 30
0.0
 11
-501.6542731104667
 21
-157.3274849556586
 31
0.0
  0
LINE
  5
EA
330
1F
100
AcDbEntity
  8
D-4
  6
Continuous
 62
     7
370
    13
100
AcDbLine
 10
-501.6542731104667
 20
-262.791286159206
 30
0.0
 11
-501.6542731104667
 21
-154.3270296663852
 31
0.0
  0
LINE
  5
EB
330
1F
100
AcDbEntity
  8
D-4
  6
Continuous
 62
     7
370
    13
100
AcDbLine
 10
-501.6542731104667
 20
-157.3274849556586
 30
0.0
 11
-376.6534895510281
 21
-157.3274849556586
 31
0.0
  0
LINE
  5
EC
330
1F
100
AcDbEntity
  8
D-4
  6
Continuous
 62
     7
370
    13
100
AcDbLine
 10
-376.6534895510281
 20
-262.791286159206
 30
0.0
 11
-376.6534895510281
 21
-45.57549553948462
 31
0.0
  0
LINE
  5
ED
330
1F
100
AcDbEntity
  8
D-4
  6
Continuous
 62
     7
370
    13
100
AcDbLine
 10
-371.6532256152175
 20
-262.791286159206
 30
0.0
 11
-371.6532256152175
 21
-45.57549553948462
 31
0.0
  0
LINE
  5
EE
330
1F
100
AcDbEntity
  8
D-4
  6
Continuous
 62
     7
370
    13
100
AcDbLine
 10
-346.6543803343899
 20
-262.791286159206
 30
0.0
 11
-346.6543803343899
 21
65.12091559332788
 31
0.0
  0
LINE
  5
EF
330
1F
100
AcDbEntity
  8
D-5
  6
Continuous
 62
     7
370
    13
100
AcDbLine
 10
-252.1306360090097
 20
-115.335709855363
 30
0.0
 11
7.252488265166903
 21
-115.335709855363
 31
0.0
  0
LINE
  5
F0
330
1F
100
AcDbEntity
  8
D-4
  6
Continuous
 62
     7
370
    13
100
AcDbLine
 10
-101.6528297115013
 20
-598.1202491554053
 30
0.0
 11
-101.6528297115013
 21
-841.3299643026814
 31
0.0
  0
LINE
  5
F1
330
1F
100
AcDbEntity
  8
D-4
  6
Continuous
 62
     7
370
    13
100
AcDbLine
 10
-501.6537782308214
 20
-683.86569461307
 30
0.0
 11
-351.6535307909987
 21
-683.86569461307
 31
0.0
  0
LINE
  5
F2
330
1F
100
AcDbEntity
  8
D-4
  6
Continuous
 62
     7
370
    13
100
AcDbLine
 10
170.0311467454245
 20
-528.247078560494
 30
0.0
 11
170.0311467454245
 21
-278.2468723606418
 31
0.0
  0
LINE
  5
F3
330
1F
100
AcDbEntity
  8
D-6
  6
Continuous
 62
     6
370
    13
100
AcDbLine
 10
-351.6535307909987
 20
-528.247078560494
 30
0.0
 11
-351.6535307909987
 21
-778.246789880701
 31
0.0
  0
LINE
  5
F4
330
1F
100
AcDbEntity
  8
D-6
  6
JWW_DASHED3
 62
     6
370
    13
100
AcDbLine
 10
-258.152578972481
 20
-655.7470043285473
 30
0.0
 11
-258.152578972481
 21
-528.247078560494
 31
0.0
  0
LINE
  5
F5
330
1F
100
AcDbEntity
  8
D-6
  6
JWW_DASHED3
 62
     6
370
    13
100
AcDbLine
 10
-213.1524305085873
 20
-528.247078560494
 30
0.0
 11
-213.1524305085873
 21
-655.7470043285473
 31
0.0
  0
LINE
  5
F6
330
1F
100
AcDbEntity
  8
D-6
  6
Continuous
 62
     6
370
    13
100
AcDbLine
 10
-101.6539431907032
 20
-428.2472435203758
 30
0.0
 11
63.34721977646325
 21
-428.2472435203758
 31
0.0
  0
LINE
  5
F7
330
1F
100
AcDbEntity
  8
D-6
  6
Continuous
 62
     6
370
    13
100
AcDbLine
 10
-336.6538524627683
 20
-773.3962270375844
 30
0.0
 11
8.497234292932774
 21
-428.2472435203758
 31
0.0
  0
LINE
  5
F8
330
1F
100
AcDbEntity
  8
D-6
  6
Continuous
 62
     6
370
    13
100
AcDbLine
 10
-336.6538524627683
 20
-766.323902027027
 30
0.0
 11
1.422929763794514
 21
-428.2472435203758
 31
0.0
  0
LINE
  5
F9
330
1F
100
AcDbEntity
  8
D-6
  6
Continuous
 62
     6
370
    13
100
AcDbLine
 10
-336.6538524627683
 20
-759.2555360536318
 30
0.0
 11
-105.644034050606
 21
-528.247078560494
 31
0.0
  0
LINE
  5
FA
330
1F
100
AcDbEntity
  8
D-6
  6
Continuous
 62
     6
370
    13
100
AcDbLine
 10
-101.6539431907032
 20
-428.2472435203758
 30
0.0
 11
-101.6539431907032
 21
-528.247078560494
 31
0.0
  0
LINE
  5
FB
330
1F
100
AcDbEntity
  8
D-6
  6
Continuous
 62
     6
370
    13
100
AcDbLine
 10
-101.6539431907032
 20
-524.2568639806798
 30
0.0
 11
-5.643580410931008
 21
-428.2472435203758
 31
0.0
  0
LINE
  5
FC
330
1F
100
AcDbEntity
  8
D-4
  6
Continuous
 62
     7
370
    13
100
AcDbLine
 10
-45.87494489308909
 20
-528.247078560494
 30
0.0
 11
173.0316020346982
 21
-528.247078560494
 31
0.0
  0
LINE
  5
FD
330
1F
100
AcDbEntity
  8
D-6
  6
Continuous
 62
     6
370
    13
100
AcDbLine
 10
-351.6535307909987
 20
-528.247078560494
 30
0.0
 11
-101.6539431907032
 21
-528.247078560494
 31
0.0
  0
LINE
  5
FE
330
1F
100
AcDbEntity
  8
D-6
  6
Continuous
 62
     6
370
    13
100
AcDbLine
 10
-258.152578972481
 20
-330.7471692884291
 30
0.0
 11
-213.1524305085873
 21
-330.7471692884291
 31
0.0
  0
LINE
  5
FF
330
1F
100
AcDbEntity
  8
D-6
  6
JWW_CENTER2
 62
     6
370
    13
100
AcDbLine
 10
-235.6525047405341
 20
-326.6673814928208
 30
0.0
 11
-235.6525047405341
 21
-655.7470043285473
 31
0.0
  0
LINE
  5
100
330
1F
100
AcDbEntity
  8
D-4
  6
Continuous
 62
     7
370
    13
100
AcDbLine
 10
-346.6537617348331
 20
-468.7777627480996
 30
0.0
 11
-196.6532668551878
 21
-468.7777627480996
 31
0.0
  0
LINE
  5
101
330
1F
100
AcDbEntity
  8
D-4
  6
Continuous
 62
     7
370
    13
100
AcDbLine
 10
-346.6537617348331
 20
-416.2144923854518
 30
0.0
 11
-346.6537617348331
 21
-471.7779705975506
 31
0.0
  0
LINE
  5
102
330
1F
100
AcDbEntity
  8
D-4
  6
Continuous
 62
     7
370
    13
100
AcDbLine
 10
-201.6536545109099
 20
-416.2144923854518
 30
0.0
 11
-201.6536545109099
 21
-471.7779705975506
 31
0.0
  0
LINE
  5
103
330
1F
100
AcDbEntity
  8
D-4
  6
Continuous
 62
     7
370
    13
100
AcDbLine
 10
-189.8275156278865
 20
-413.2473177523225
 30
0.0
 11
-110.6035941355933
 21
-413.2473177523225
 31
0.0
  0
LINE
  5
104
330
1F
100
AcDbEntity
  8
D-4
  6
Continuous
 62
     7
370
    13
100
AcDbLine
 10
-189.8275156278865
 20
-363.2467816327069
 30
0.0
 11
-110.6035941355933
 21
-363.2467816327069
 31
0.0
  0
LINE
  5
105
330
1F
100
AcDbEntity
  8
D-4
  6
Continuous
 62
     7
370
    13
100
AcDbLine
 10
-113.6036782651331
 20
-363.2467816327069
 30
0.0
 11
-113.6036782651331
 21
-278.2468723606418
 31
0.0
  0
LINE
  5
106
330
1F
100
AcDbEntity
  8
D-6
  6
Continuous
 62
     6
370
    13
100
AcDbLine
 10
-258.152578972481
 20
-528.247078560494
 30
0.0
 11
-258.152578972481
 21
-413.2473177523225
 31
0.0
  0
LINE
  5
107
330
1F
100
AcDbEntity
  8
D-6
  6
Continuous
 62
     6
370
    13
100
AcDbLine
 10
-213.1524305085873
 20
-528.247078560494
 30
0.0
 11
-213.1524305085873
 21
-413.2473177523225
 31
0.0
  0
LINE
  5
108
330
1F
100
AcDbEntity
  8
D-6
  6
Continuous
 62
     6
370
    13
100
AcDbLine
 10
-258.152578972481
 20
-363.2467816327069
 30
0.0
 11
-258.152578972481
 21
-330.7471692884291
 31
0.0
  0
LINE
  5
109
330
1F
100
AcDbEntity
  8
D-6
  6
Continuous
 62
     6
370
    13
100
AcDbLine
 10
-213.1524305085873
 20
-363.2467816327069
 30
0.0
 11
-213.1524305085873
 21
-330.7471692884291
 31
0.0
  0
LINE
  5
10A
330
1F
100
AcDbEntity
  8
D-4
  6
Continuous
 62
     7
370
    13
100
AcDbLine
 10
-647.136764268617
 20
-403.2471610404349
 30
0.0
 11
-647.136764268617
 21
-278.2468723606418
 31
0.0
  0
LINE
  5
10B
330
1F
100
AcDbEntity
  8
D-4
  6
Continuous
 62
     7
370
    13
100
AcDbLine
 10
-374.7984332007326
 20
-403.2471610404349
 30
0.0
 11
-650.1367246782454
 21
-403.2471610404349
 31
0.0
  0
LINE
  5
10C
330
1F
100
AcDbEntity
  8
D-4
  6
Continuous
 62
     7
370
    13
100
AcDbLine
 10
-374.7984332007326
 20
-278.2468723606418
 30
0.0
 11
-650.1367246782454
 21
-278.2468723606418
 31
0.0
  0
LINE
  5
10D
330
1F
100
AcDbEntity
  8
D-4
  6
Continuous
 62
     7
370
    13
100
AcDbLine
 10
-1074.322008442234
 20
62.12046030405418
 30
0.0
 11
-346.6543803343899
 21
62.12046030405418
 31
0.0
  0
LINE
  5
10E
330
1F
100
AcDbEntity
  8
D-4
  6
Continuous
 62
     7
370
    13
100
AcDbLine
 10
-501.6537782308214
 20
-838.3303750527871
 30
0.0
 11
-101.6528297115013
 21
-838.3303750527871
 31
0.0
  0
LINE
  5
10F
330
1F
100
AcDbEntity
  8
D-4
  6
Continuous
 62
     7
370
    13
100
AcDbLine
 10
-1074.322008442234
 20
-48.57520850929035
 30
0.0
 11
-300.1166408126414
 21
-48.57520850929035
 31
0.0
  0
LINE
  5
110
330
1F
100
AcDbEntity
  8
D-4
  6
Continuous
 62
     7
370
    13
100
AcDbLine
 10
-113.6036782651331
 20
-413.2473177523225
 30
0.0
 11
-113.6036782651331
 21
-363.2467816327069
 31
0.0
  0
LINE
  5
111
330
1F
100
AcDbEntity
  8
D-4
  6
Continuous
 62
     7
370
    13
100
AcDbLine
 10
-501.6537782308214
 20
-803.2471198004645
 30
0.0
 11
-501.6537782308214
 21
-841.3299643026814
 31
0.0
  0
LINE
  5
112
330
1F
100
AcDbEntity
  8
D-5
  6
Continuous
 62
     2
370
    13
100
AcDbLine
 10
-843.6486463288999
 20
-974.1891891891892
 30
0.0
 11
-843.6486463288999
 21
-909.1895933408995
 31
0.0
  0
LINE
  5
113
330
1F
100
AcDbEntity
  8
D-5
  6
Continuous
 62
     2
370
    13
100
AcDbLine
 10
-843.6486463288999
 20
-909.1895933408995
 30
0.0
 11
-268.6482339291956
 21
-909.1895933408995
 31
0.0
  0
LINE
  5
114
330
1F
100
AcDbEntity
  8
D-5
  6
Continuous
 62
     2
370
    13
100
AcDbLine
 10
-268.6482339291956
 20
-909.1895933408995
 30
0.0
 11
-268.6482339291956
 21
-974.1891891891892
 31
0.0
  0
LINE
  5
115
330
1F
100
AcDbEntity
  8
D-5
  6
Continuous
 62
     2
370
    13
100
AcDbLine
 10
-268.6482339291956
 20
-974.1891891891892
 30
0.0
 11
-843.6486463288999
 21
-974.1891891891892
 31
0.0
  0
LINE
  5
116
330
1F
100
AcDbEntity
  8
D-A
  6
Continuous
 62
     3
370
    13
100
AcDbLine
 10
-363.153791427612
 20
-283.247260016364
 30
0.0
 11
-351.6535307909987
 21
-283.247260016364
 31
0.0
  0
LINE
  5
117
330
1F
100
AcDbEntity
  8
D-A
  6
Continuous
 62
     3
370
    13
100
AcDbLine
 10
-351.6535307909987
 20
-395.7473837362753
 30
0.0
 11
-363.153791427612
 21
-395.7473837362753
 31
0.0
  0
LINE
  5
118
330
1F
100
AcDbEntity
  8
D-A
  6
Continuous
 62
     3
370
    13
100
AcDbLine
 10
-351.6535307909987
 20
-395.7473837362753
 30
0.0
 11
-351.6535307909987
 21
-363.2467816327069
 31
0.0
  0
LINE
  5
119
330
1F
100
AcDbEntity
  8
D-5
  6
Continuous
 62
     7
370
    13
100
AcDbLine
 10
-252.1306360090097
 20
-115.335709855363
 30
0.0
 11
-415.4322585544065
 21
-302.9607906857052
 31
0.0
  0
LINE
  5
11A
330
1F
100
AcDbEntity
  8
D-5
  6
Continuous
 62
     7
370
    13
100
AcDbLine
 10
-415.4322585544065
 20
-302.9607906857052
 30
0.0
 11
-401.6210336942927
 21
-282.1211613835515
 31
0.0
  0
LINE
  5
11B
330
1F
100
AcDbEntity
  8
D-5
  6
Continuous
 62
     7
370
    13
100
AcDbLine
 10
-415.4322585544065
 20
-302.9607906857052
 30
0.0
 11
-396.6982184229667
 21
-286.4059530722128
 31
0.0
  0
LINE
  5
11C
330
1F
100
AcDbEntity
  8
D-5
  6
Continuous
 62
     7
370
    13
100
AcDbLine
 10
-252.1306360090097
 20
-170.1978198902026
 30
0.0
 11
-348.6060619354245
 21
-281.0429423564188
 31
0.0
  0
LINE
  5
11D
330
1F
100
AcDbEntity
  8
D-5
  6
Continuous
 62
     7
370
    13
100
AcDbLine
 10
-348.6060619354245
 20
-281.0429423564188
 30
0.0
 11
-334.794713355399
 21
-260.2044265334671
 31
0.0
  0
LINE
  5
11E
330
1F
100
AcDbEntity
  8
D-5
  6
Continuous
 62
     7
370
    13
100
AcDbLine
 10
-348.6060619354245
 20
-281.0429423564188
 30
0.0
 11
-329.8717743641618
 21
-264.4889707823057
 31
0.0
  0
LINE
  5
11F
330
1F
100
AcDbEntity
  8
D-5
  6
Continuous
 62
     7
370
    13
100
AcDbLine
 10
-316.6327540938914
 20
-366.4235377956081
 30
0.0
 11
-195.5456024891618
 21
-227.3013635583825
 31
0.0
  0
LINE
  5
120
330
1F
100
AcDbEntity
  8
D-5
  6
Continuous
 62
     7
370
    13
100
AcDbLine
 10
-316.6327540938914
 20
-366.4235377956081
 30
0.0
 11
-302.8216529536888
 21
-345.5847745328336
 31
0.0
  0
LINE
  5
121
330
1F
100
AcDbEntity
  8
D-5
  6
Continuous
 62
     7
370
    13
100
AcDbLine
 10
-316.6327540938914
 20
-366.4235377956081
 30
0.0
 11
-297.8984665226287
 21
-349.8691950617609
 31
0.0
  0
LINE
  5
122
330
1F
100
AcDbEntity
  8
D-5
  6
Continuous
 62
     7
370
    13
100
AcDbLine
 10
-195.5456024891618
 20
-227.3013635583825
 30
0.0
 11
191.1565690427219
 21
-227.3013635583825
 31
0.0
  0
LINE
  5
123
330
1F
100
AcDbEntity
  8
D-6
  6
Continuous
 62
     6
370
    13
100
AcDbLine
 10
-351.6535307909987
 20
-278.2476146801098
 30
0.0
 11
63.34721977646325
 21
-278.2476146801098
 31
0.0
  0
LINE
  5
124
330
1F
100
AcDbEntity
  8
D-4
  6
Continuous
 62
     7
370
    13
100
AcDbLine
 10
81.84656323613382
 20
-278.2476146801098
 30
0.0
 11
173.0316020346982
 21
-278.2476146801098
 31
0.0
  0
LINE
  5
125
330
1F
100
AcDbEntity
  8
D-5
  6
Continuous
 62
     7
370
    13
100
AcDbLine
 10
-252.1306360090097
 20
-170.1978198902026
 30
0.0
 11
198.8366062576711
 21
-170.1978198902026
 31
0.0
  0
LINE
  5
126
330
1F
100
AcDbEntity
  8
D-9
  6
Continuous
 62
     4
370
    13
100
AcDbLine
 10
-468.6976394137815
 20
-295.7468063766892
 30
0.0
 11
-486.1976971497404
 21
-313.2468641126478
 31
0.0
  0
LINE
  5
127
330
1F
100
AcDbEntity
  8
D-9
  6
Continuous
 62
     4
370
    13
100
AcDbLine
 10
-440.4132881680047
 20
-295.7468063766892
 30
0.0
 11
-457.9132221840518
 21
-313.2468641126478
 31
0.0
  0
LINE
  5
128
330
1F
100
AcDbEntity
  8
D-9
  6
Continuous
 62
     4
370
    13
100
AcDbLine
 10
-433.3419529167378
 20
-295.7468063766892
 30
0.0
 11
-450.8420106526964
 21
-313.2468641126478
 31
0.0
  0
LINE
  5
129
330
1F
100
AcDbEntity
  8
D-9
  6
Continuous
 62
     4
370
    13
100
AcDbLine
 10
-426.2712362650274
 20
-295.7468063766892
 30
0.0
 11
-443.7706754014295
 21
-313.2468641126478
 31
0.0
  0
LINE
  5
12A
330
1F
100
AcDbEntity
  8
D-9
  6
Continuous
 62
     4
370
    13
100
AcDbLine
 10
-419.1997772938493
 20
-295.7468063766892
 30
0.0
 11
-438.8229924279287
 21
-315.3696503510345
 31
0.0
  0
LINE
  5
12B
330
1F
100
AcDbEntity
  8
D-9
  6
Continuous
 62
     4
370
    13
100
AcDbLine
 10
-412.1290606421388
 20
-295.7468063766892
 30
0.0
 11
-434.7824238442081
 21
-318.4001695787583
 31
0.0
  0
LINE
  5
12C
330
1F
100
AcDbEntity
  8
D-9
  6
Continuous
 62
     4
370
    13
100
AcDbLine
 10
-405.0576016709607
 20
-295.7468063766892
 30
0.0
 11
-430.7418552604878
 21
-321.4304413666595
 31
0.0
  0
LINE
  5
12D
330
1F
100
AcDbEntity
  8
D-9
  6
Continuous
 62
     4
370
    13
100
AcDbLine
 10
-397.9868850192503
 20
-295.7468063766892
 30
0.0
 11
-426.7012866767672
 21
-324.4609605943833
 31
0.0
  0
LINE
  5
12E
330
1F
100
AcDbEntity
  8
D-9
  6
Continuous
 62
     4
370
    13
100
AcDbLine
 10
-390.9155497679836
 20
-295.7468063766892
 30
0.0
 11
-422.6600994934904
 21
-327.4916035420185
 31
0.0
  0
LINE
  5
12F
330
1F
100
AcDbEntity
  8
D-9
  6
Continuous
 62
     4
370
    13
100
AcDbLine
 10
-383.8445856764505
 20
-295.7468063766892
 30
0.0
 11
-416.3445691804625
 21
-328.2467898807009
 31
0.0
  0
LINE
  5
130
330
1F
100
AcDbEntity
  8
D-9
  6
Continuous
 62
     4
370
    13
100
AcDbLine
 10
-376.7733741450951
 20
-295.7468063766892
 30
0.0
 11
-409.2731102092841
 21
-328.2467898807009
 31
0.0
  0
LINE
  5
131
330
1F
100
AcDbEntity
  8
D-9
  6
Continuous
 62
     4
370
    13
100
AcDbLine
 10
-371.6537204948628
 20
-297.6978693781672
 30
0.0
 11
-402.202393557574
 21
-328.2467898807009
 31
0.0
  0
LINE
  5
132
330
1F
100
AcDbEntity
  8
D-9
  6
Continuous
 62
     4
370
    13
100
AcDbLine
 10
-371.6537204948628
 20
-318.9111328125
 30
0.0
 11
-380.9888826834185
 21
-328.2467898807009
 31
0.0
  0
LINE
  5
133
330
1F
100
AcDbEntity
  8
D-9
  6
Continuous
 62
     4
370
    13
100
AcDbLine
 10
-371.6537204948628
 20
-311.8400450010557
 30
0.0
 11
-388.060094214774
 21
-328.2467898807009
 31
0.0
  0
LINE
  5
134
330
1F
100
AcDbEntity
  8
D-9
  6
Continuous
 62
     4
370
    13
100
AcDbLine
 10
-371.6537204948628
 20
-304.7689571896115
 30
0.0
 11
-395.1309345863956
 21
-328.2467898807009
 31
0.0
  0
LINE
  5
135
330
1F
100
AcDbEntity
  8
D-9
  6
Continuous
 62
     4
370
    13
100
AcDbLine
 10
-482.8399387565815
 20
-295.7468063766892
 30
0.0
 11
-491.6537452388451
 21
-304.5603654191299
 31
0.0
  0
LINE
  5
136
330
1F
100
AcDbEntity
  8
D-9
  6
Continuous
 62
     4
370
    13
100
AcDbLine
 10
-475.7689746650485
 20
-295.7468063766892
 30
0.0
 11
-491.6537452388451
 21
-311.6314532305742
 31
0.0
  0
LINE
  5
137
330
1F
100
AcDbEntity
  8
D-9
  6
Continuous
 62
     4
370
    13
100
AcDbLine
 10
-486.6534813030341
 20
-295.7468063766892
 30
0.0
 11
-371.6537204948628
 21
-295.7468063766892
 31
0.0
  0
LINE
  5
138
330
1F
100
AcDbEntity
  8
D-9
  6
Continuous
 62
     4
370
    13
100
AcDbLine
 10
-491.6537452388451
 20
-300.7469465925886
 30
0.0
 11
-491.6537452388451
 21
-313.2468641126478
 31
0.0
  0
LINE
  5
139
330
1F
100
AcDbEntity
  8
D-6
  6
Continuous
 62
     6
370
    13
100
AcDbLine
 10
-501.6537782308214
 20
-333.2468063766892
 30
0.0
 11
-501.6537782308214
 21
-778.246789880701
 31
0.0
  0
LINE
  5
13A
330
1F
100
AcDbEntity
  8
D-1
  6
Continuous
 62
     2
370
    13
100
AcDbLine
 10
-351.6532833511761
 20
-398.2466496648015
 30
0.0
 11
-366.6533328391407
 21
-398.2466496648015
 31
0.0
  0
LINE
  5
13B
330
1F
100
AcDbEntity
  8
D-1
  6
Continuous
 62
     2
370
    13
100
AcDbLine
 10
-351.6532833511761
 20
-283.2468888566299
 30
0.0
 11
-366.6533328391407
 21
-283.2468888566299
 31
0.0
  0
LINE
  5
13C
330
1F
100
AcDbEntity
  8
D-1
  6
Continuous
 62
     2
370
    13
100
AcDbLine
 10
-346.6532668551878
 20
-375.746699152766
 30
0.0
 11
-351.6532833511761
 21
-375.746699152766
 31
0.0
  0
LINE
  5
13D
330
1F
100
AcDbEntity
  8
D-1
  6
Continuous
 62
     2
370
    13
100
AcDbLine
 10
-351.6532833511761
 20
-398.2466496648015
 30
0.0
 11
-351.6532833511761
 21
-375.746699152766
 31
0.0
  0
LINE
  5
13E
330
1F
100
AcDbEntity
  8
D-1
  6
Continuous
 62
     2
370
    13
100
AcDbLine
 10
-346.6532668551878
 20
-305.7467156487542
 30
0.0
 11
-351.6532833511761
 21
-305.7467156487542
 31
0.0
  0
LINE
  5
13F
330
1F
100
AcDbEntity
  8
D-1
  6
Continuous
 62
     2
370
    13
100
AcDbLine
 10
-351.6532833511761
 20
-305.7467156487542
 30
0.0
 11
-351.6532833511761
 21
-283.2468888566299
 31
0.0
  0
LINE
  5
140
330
1F
100
AcDbEntity
  8
D-1
  6
Continuous
 62
     2
370
    13
100
AcDbLine
 10
-424.6532272648162
 20
-332.2466546135979
 30
0.0
 11
-443.3198400445883
 21
-318.2468806086359
 31
0.0
  0
LINE
  5
141
330
1F
100
AcDbEntity
  8
D-1
  6
Continuous
 62
     2
370
    13
100
AcDbLine
 10
-371.6533493351287
 20
-328.2466661607896
 30
0.0
 11
-421.6532668551878
 21
-328.2466661607896
 31
0.0
  0
LINE
  5
142
330
1F
100
AcDbEntity
  8
D-1
  6
Continuous
 62
     2
370
    13
100
AcDbLine
 10
-366.6533328391407
 20
-338.246699152766
 30
0.0
 11
-366.6533328391407
 21
-398.2466496648015
 31
0.0
  0
LINE
  5
143
330
1F
100
AcDbEntity
  8
D-1
  6
Continuous
 62
     2
370
    13
100
AcDbLine
 10
-366.6533328391407
 20
-328.2466661607896
 30
0.0
 11
-366.6533328391407
 21
-283.2468888566299
 31
0.0
  0
LINE
  5
144
330
1F
100
AcDbEntity
  8
D-1
  6
Continuous
 62
     2
370
    13
100
AcDbLine
 10
-346.6532668551878
 20
-281.2465853304475
 30
0.0
 11
-346.6532668551878
 21
-305.7467156487542
 31
0.0
  0
LINE
  5
145
330
1F
100
AcDbEntity
  8
D-1
  6
Continuous
 62
     2
370
    13
100
AcDbLine
 10
-368.6532652055891
 20
-278.2467486407305
 30
0.0
 11
-349.6532272648162
 21
-278.2467486407305
 31
0.0
  0
LINE
  5
146
330
1F
100
AcDbEntity
  8
D-1
  6
Continuous
 62
     2
370
    13
100
AcDbLine
 10
-371.6533493351287
 20
-281.2465853304475
 30
0.0
 11
-371.6533493351287
 21
-328.2466661607896
 31
0.0
  0
LINE
  5
147
330
1F
100
AcDbEntity
  8
D-1
  6
Continuous
 62
     2
370
    13
100
AcDbLine
 10
-346.6532668551878
 20
-400.2467057511612
 30
0.0
 11
-346.6532668551878
 21
-375.746699152766
 31
0.0
  0
LINE
  5
148
330
1F
100
AcDbEntity
  8
D-1
  6
Continuous
 62
     2
370
    13
100
AcDbLine
 10
-368.6532652055891
 20
-403.2466661607896
 30
0.0
 11
-349.6532272648162
 21
-403.2466661607896
 31
0.0
  0
LINE
  5
149
330
1F
100
AcDbEntity
  8
D-1
  6
Continuous
 62
     2
370
    13
100
AcDbLine
 10
-371.6533493351287
 20
-400.2467057511612
 30
0.0
 11
-371.6533493351287
 21
-338.246699152766
 31
0.0
  0
LINE
  5
14A
330
1F
100
AcDbEntity
  8
D-1
  6
Continuous
 62
     2
370
    13
100
AcDbLine
 10
-440.3332413853821
 20
-314.2368708430109
 30
0.0
 11
-421.6532668551878
 21
-328.2466661607896
 31
0.0
  0
LINE
  5
14B
330
1F
100
AcDbEntity
  8
D-1
  6
Continuous
 62
     2
370
    13
100
AcDbLine
 10
-496.6532668551878
 20
-333.2465589368666
 30
0.0
 11
-371.6533493351287
 21
-333.2465589368666
 31
0.0
  0
LINE
  5
14C
330
1F
100
AcDbEntity
  8
D-1
  6
Continuous
 62
     2
370
    13
100
AcDbLine
 10
-496.6532668551878
 20
-333.2465589368666
 30
0.0
 11
-496.6532668551878
 21
-318.2468806086359
 31
0.0
  0
LINE
  5
14D
330
1F
100
AcDbEntity
  8
D-1
  6
Continuous
 62
     2
370
    13
100
AcDbLine
 10
-501.6532833511761
 20
-333.2465589368666
 30
0.0
 11
-501.6532833511761
 21
-318.2468806086359
 31
0.0
  0
LINE
  5
14E
330
1F
100
AcDbEntity
  8
D-1
  6
Continuous
 62
     2
370
    13
100
AcDbLine
 10
-496.6532668551878
 20
-338.246699152766
 30
0.0
 11
-371.6533493351287
 21
-338.246699152766
 31
0.0
  0
LINE
  5
14F
330
1F
100
AcDbEntity
  8
D-1
  6
Continuous
 62
     2
370
    13
100
AcDbLine
 10
-483.4835297352555
 20
-313.9166837125211
 30
0.0
 11
-471.6533080951584
 21
-320.7468888566299
 31
0.0
  0
LINE
  5
150
330
1F
100
AcDbEntity
  8
D-1
  6
Continuous
 62
     2
370
    13
100
AcDbLine
 10
-459.8230864550612
 20
-313.9166837125211
 30
0.0
 11
-471.6533080951584
 21
-320.7468888566299
 31
0.0
  0
LINE
  5
151
330
1F
100
AcDbEntity
  8
D-1
  6
Continuous
 62
     2
370
    13
100
AcDbLine
 10
-469.1532998471644
 20
-325.0769620328336
 30
0.0
 11
-457.3232019269784
 21
-318.2468806086359
 31
0.0
  0
LINE
  5
152
330
1F
100
AcDbEntity
  8
D-1
  6
Continuous
 62
     2
370
    13
100
AcDbLine
 10
-474.1533163431524
 20
-325.0769620328336
 30
0.0
 11
-485.9835379832495
 21
-318.2468806086359
 31
0.0
  0
LINE
  5
153
330
1F
100
AcDbEntity
  8
D-1
  6
Continuous
 62
     2
370
    13
100
AcDbLine
 10
-443.3032615764716
 20
-313.2468641126478
 30
0.0
 11
-457.3230782070672
 21
-313.2468641126478
 31
0.0
  0
LINE
  5
154
330
1F
100
AcDbEntity
  8
D-1
  6
Continuous
 62
     2
370
    13
100
AcDbLine
 10
-485.9835379832495
 20
-313.2468641126478
 30
0.0
 11
-496.6532668551878
 21
-313.2468641126478
 31
0.0
  0
LINE
  5
155
330
1F
100
AcDbEntity
  8
D-1
  6
Continuous
 62
     2
370
    13
100
AcDbLine
 10
-443.3198400445883
 20
-318.2468806086359
 30
0.0
 11
-457.3232019269784
 21
-318.2468806086359
 31
0.0
  0
LINE
  5
156
330
1F
100
AcDbEntity
  8
D-1
  6
Continuous
 62
     2
370
    13
100
AcDbLine
 10
-485.9835379832495
 20
-318.2468806086359
 30
0.0
 11
-496.6532668551878
 21
-318.2468806086359
 31
0.0
  0
LINE
  5
157
330
1F
100
AcDbEntity
  8
D-9
  6
Continuous
 62
     4
370
    13
100
AcDbLine
 10
-447.4842522595375
 20
-295.7468063766892
 30
0.0
 11
-472.1804786372826
 21
-320.4424141548775
 31
0.0
  0
LINE
  5
158
330
1F
100
AcDbEntity
  8
D-9
  6
Continuous
 62
     4
370
    13
100
AcDbLine
 10
-454.5554637908933
 20
-295.7468063766892
 30
0.0
 11
-476.6630984641407
 21
-317.8544410499366
 31
0.0
  0
LINE
  5
159
330
1F
100
AcDbEntity
  8
D-9
  6
Continuous
 62
     4
370
    13
100
AcDbLine
 10
-461.6264278824261
 20
-295.7468063766892
 30
0.0
 11
-481.1460894507326
 21
-315.266220505173
 31
0.0
  0
LINE
  5
15A
330
1F
100
AcDbEntity
  8
D-2
  6
Continuous
 62
     3
370
    13
100
AcDbLine
 10
-376.6538607107623
 20
-280.7470043285473
 30
0.0
 11
-376.6538607107623
 21
-295.7468063766892
 31
0.0
  0
LINE
  5
15B
330
1F
100
AcDbEntity
  8
D-4
  6
Continuous
 62
     7
370
    13
100
AcDbLine
 10
-858.3803473292166
 20
-242.7267621014569
 30
0.0
 11
-858.3803473292166
 21
-326.9296677048142
 31
0.0
  0
LINE
  5
15C
330
1F
100
AcDbEntity
  8
D-2
  6
Continuous
 62
     3
370
    13
100
AcDbLine
 10
-1049.323101301451
 20
-435.9902541701858
 30
0.0
 11
-1049.323101301451
 21
-212.0478119721282
 31
0.0
  0
LINE
  5
15D
330
1F
100
AcDbEntity
  8
D-2
  6
Continuous
 62
     3
370
    13
100
AcDbLine
 10
-376.6538607107623
 20
-295.7468063766892
 30
0.0
 11
-1049.323101301451
 21
-295.7468063766892
 31
0.0
  0
LINE
  5
15E
330
1F
100
AcDbEntity
  8
D-2
  6
Continuous
 62
     3
370
    13
100
AcDbLine
 10
-376.6538607107623
 20
-285.7472682643581
 30
0.0
 11
-1049.323101301451
 21
-285.7472682643581
 31
0.0
  0
LINE
  5
15F
330
1F
100
AcDbEntity
  8
D-2
  6
Continuous
 62
     3
370
    13
100
AcDbLine
 10
-376.6538607107623
 20
-290.7470373205235
 30
0.0
 11
-1049.323101301451
 21
-290.7470373205235
 31
0.0
  0
LINE
  5
160
330
1F
100
AcDbEntity
  8
D-2
  6
Continuous
 62
     3
370
    13
100
AcDbLine
 10
-376.6538607107623
 20
-280.7470043285473
 30
0.0
 11
-1049.323101301451
 21
-280.7470043285473
 31
0.0
  0
LINE
  5
161
330
1F
100
AcDbEntity
  8
D-5
  6
Continuous
 62
     7
370
    13
100
AcDbLine
 10
-252.1316257683003
 20
-52.00101285367396
 30
0.0
 11
399.2556868372742
 21
-52.00101285367396
 31
0.0
  0
LINE
  5
162
330
1F
100
AcDbEntity
  8
D-5
  6
Continuous
 62
     7
370
    13
100
AcDbLine
 10
-252.1316257683003
 20
-52.00101285367396
 30
0.0
 11
-449.644278191231
 21
-280.7470043285473
 31
0.0
  0
LINE
  5
163
330
1F
100
AcDbEntity
  8
D-5
  6
Continuous
 62
     7
370
    13
100
AcDbLine
 10
-449.644278191231
 20
-280.7470043285473
 30
0.0
 11
-435.9159456716998
 21
-259.8540517446156
 31
0.0
  0
LINE
  5
164
330
1F
100
AcDbEntity
  8
D-5
  6
Continuous
 62
     7
370
    13
100
AcDbLine
 10
-449.644278191231
 20
-280.7470043285473
 30
0.0
 11
-430.976057052612
 21
-264.1190482474661
 31
0.0
  0
LINE
  5
165
330
1F
100
AcDbEntity
  8
D-5
  6
Continuous
 62
     2
370
    13
100
AcDbLine
 10
623.0177454046304
 20
-328.2471610404349
 30
0.0
 11
398.0184877240984
 21
-328.2471610404349
 31
0.0
  0
LINE
  5
166
330
1F
100
AcDbEntity
  8
D-5
  6
Continuous
 62
     2
370
    13
100
AcDbLine
 10
623.0177454046304
 20
-278.2468723606418
 30
0.0
 11
623.0177454046304
 21
-328.2471610404349
 31
0.0
  0
LINE
  5
167
330
1F
100
AcDbEntity
  8
D-5
  6
Continuous
 62
     2
370
    13
100
AcDbLine
 10
398.0184877240984
 20
-278.2468723606418
 30
0.0
 11
623.0177454046304
 21
-278.2468723606418
 31
0.0
  0
LINE
  5
168
330
1F
100
AcDbEntity
  8
D-5
  6
Continuous
 62
     2
370
    13
100
AcDbLine
 10
398.0184877240984
 20
-328.2471610404349
 30
0.0
 11
398.0184877240984
 21
-278.2468723606418
 31
0.0
  0
ARC
  5
169
330
1F
100
AcDbEntity
  8
C-A
  6
Continuous
 62
     3
370
    13
100
AcDbCircle
 10
-514.0135210913576
 20
878.8104413006758
 30
0.0
 40
2.999960167987927
100
AcDbArc
 50
270.0
 51
90.0
  0
ARC
  5
16A
330
1F
100
AcDbEntity
  8
C-A
  6
Continuous
 62
     3
370
    13
100
AcDbCircle
 10
-468.0133445842841
 20
878.8104413006758
 30
0.0
 40
2.999960167987927
100
AcDbArc
 50
90.0
 51
270.0
  0
ARC
  5
16B
330
1F
100
AcDbEntity
  8
C-A
  6
Continuous
 62
     3
370
    13
100
AcDbCircle
 10
-434.0133808754581
 20
878.8104413006758
 30
0.0
 40
2.999960167987927
100
AcDbArc
 50
270.0
 51
90.0
  0
ARC
  5
16C
330
1F
100
AcDbEntity
  8
C-A
  6
Continuous
 62
     3
370
    13
100
AcDbCircle
 10
-388.0133280882961
 20
878.8104413006758
 30
0.0
 40
2.999960167987927
100
AcDbArc
 50
90.0
 51
270.0
  0
ARC
  5
16D
330
1F
100
AcDbEntity
  8
C-A
  6
Continuous
 62
     3
370
    13
100
AcDbCircle
 10
-354.0133643794701
 20
878.8104413006758
 30
0.0
 40
2.999960167987927
100
AcDbArc
 50
270.0
 51
90.0
  0
ARC
  5
16E
330
1F
100
AcDbEntity
  8
C-A
  6
Continuous
 62
     3
370
    13
100
AcDbCircle
 10
-388.0133280882961
 20
838.8103093327703
 30
0.0
 40
2.999960167987927
100
AcDbArc
 50
90.0
 51
270.0
  0
ARC
  5
16F
330
1F
100
AcDbEntity
  8
C-A
  6
Continuous
 62
     3
370
    13
100
AcDbCircle
 10
-354.0133643794701
 20
838.8103093327703
 30
0.0
 40
2.999960167987927
100
AcDbArc
 50
270.0
 51
90.0
  0
ARC
  5
170
330
1F
100
AcDbEntity
  8
C-A
  6
Continuous
 62
     3
370
    13
100
AcDbCircle
 10
-468.0133445842841
 20
838.8103093327703
 30
0.0
 40
2.999960167987927
100
AcDbArc
 50
90.0
 51
270.0
  0
ARC
  5
171
330
1F
100
AcDbEntity
  8
C-A
  6
Continuous
 62
     3
370
    13
100
AcDbCircle
 10
-434.0133808754581
 20
838.8103093327703
 30
0.0
 40
2.999960167987927
100
AcDbArc
 50
270.0
 51
90.0
  0
ARC
  5
172
330
1F
100
AcDbEntity
  8
C-A
  6
Continuous
 62
     3
370
    13
100
AcDbCircle
 10
-548.0133610802725
 20
838.8103093327703
 30
0.0
 40
2.999960167987927
100
AcDbArc
 50
90.0
 51
270.0
  0
ARC
  5
173
330
1F
100
AcDbEntity
  8
C-A
  6
Continuous
 62
     3
370
    13
100
AcDbCircle
 10
-514.0135210913576
 20
838.8103093327703
 30
0.0
 40
2.999960167987927
100
AcDbArc
 50
270.0
 51
90.0
  0
ARC
  5
174
330
1F
100
AcDbEntity
  8
C-A
  6
Continuous
 62
     3
370
    13
100
AcDbCircle
 10
-288.0132456083552
 20
878.8104413006758
 30
0.0
 40
2.999960167987927
100
AcDbArc
 50
90.0
 51
270.0
  0
ARC
  5
175
330
1F
100
AcDbEntity
  8
C-A
  6
Continuous
 62
     3
370
    13
100
AcDbCircle
 10
-254.0132818995292
 20
878.8104413006758
 30
0.0
 40
2.999960167987927
100
AcDbArc
 50
270.0
 51
90.0
  0
ARC
  5
176
330
1F
100
AcDbEntity
  8
C-A
  6
Continuous
 62
     3
370
    13
100
AcDbCircle
 10
-288.0132456083552
 20
838.8103093327703
 30
0.0
 40
2.999960167987927
100
AcDbArc
 50
90.0
 51
270.0
  0
ARC
  5
177
330
1F
100
AcDbEntity
  8
C-A
  6
Continuous
 62
     3
370
    13
100
AcDbCircle
 10
-254.0132818995292
 20
838.8103093327703
 30
0.0
 40
2.999960167987927
100
AcDbArc
 50
270.0
 51
90.0
  0
ARC
  5
178
330
1F
100
AcDbEntity
  8
C-A
  6
Continuous
 62
     3
370
    13
100
AcDbCircle
 10
-208.013229112367
 20
878.8104413006758
 30
0.0
 40
2.999960167987927
100
AcDbArc
 50
90.0
 51
270.0
  0
ARC
  5
179
330
1F
100
AcDbEntity
  8
C-A
  6
Continuous
 62
     3
370
    13
100
AcDbCircle
 10
-174.0133891234524
 20
878.8104413006758
 30
0.0
 40
2.999960167987927
100
AcDbArc
 50
270.0
 51
90.0
  0
ARC
  5
17A
330
1F
100
AcDbEntity
  8
C-A
  6
Continuous
 62
     3
370
    13
100
AcDbCircle
 10
-208.013229112367
 20
838.8103093327703
 30
0.0
 40
2.999960167987927
100
AcDbArc
 50
90.0
 51
270.0
  0
ARC
  5
17B
330
1F
100
AcDbEntity
  8
C-A
  6
Continuous
 62
     3
370
    13
100
AcDbCircle
 10
-174.0133891234524
 20
838.8103093327703
 30
0.0
 40
2.999960167987927
100
AcDbArc
 50
270.0
 51
90.0
  0
ARC
  5
17C
330
1F
100
AcDbEntity
  8
C-A
  6
Continuous
 62
     3
370
    13
100
AcDbCircle
 10
-128.0133363362901
 20
838.8103093327703
 30
0.0
 40
2.999960167987927
100
AcDbArc
 50
90.0
 51
270.0
  0
ARC
  5
17D
330
1F
100
AcDbEntity
  8
C-A
  6
Continuous
 62
     3
370
    13
100
AcDbCircle
 10
-128.0133363362901
 20
878.8104413006758
 30
0.0
 40
2.999960167987927
100
AcDbArc
 50
90.0
 51
270.0
  0
ARC
  5
17E
330
1F
100
AcDbEntity
  8
C-A
  6
Continuous
 62
     3
370
    13
100
AcDbCircle
 10
-94.01300146773025
 20
878.8104413006758
 30
0.0
 40
2.999960167987927
100
AcDbArc
 50
270.0
 51
90.0
  0
ARC
  5
17F
330
1F
100
AcDbEntity
  8
C-0
  6
Continuous
 62
     3
370
    13
100
AcDbCircle
 10
741.6416335750273
 20
666.848045555321
 30
0.0
 40
14.99999922675056
100
AcDbArc
 50
1.165664672851562
 51
89.9994354248047
  0
ARC
  5
180
330
1F
100
AcDbEntity
  8
C-0
  6
Continuous
 62
     3
370
    13
100
AcDbCircle
 10
741.6423758944956
 20
666.848045555321
 30
0.0
 40
14.99999922675056
100
AcDbArc
 50
270.0
 51
0.0012359619140681
  0
ARC
  5
181
330
1F
100
AcDbEntity
  8
C-0
  6
Continuous
 62
     3
370
    13
100
AcDbCircle
 10
571.642309910543
 20
666.848045555321
 30
0.0
 40
14.99999922675056
100
AcDbArc
 50
179.9994049072265
 51
270.0
  0
ARC
  5
182
330
1F
100
AcDbEntity
  8
C-0
  6
Continuous
 62
     3
370
    13
100
AcDbCircle
 10
571.642309910543
 20
666.848045555321
 30
0.0
 40
14.99999922675056
100
AcDbArc
 50
89.99996948242188
 51
179.9988098144531
  0
ARC
  5
183
330
1F
100
AcDbEntity
  8
D-A
  6
Continuous
 62
     3
370
    13
100
AcDbCircle
 10
-336.6538524627683
 20
-392.3888830236485
 30
0.0
 40
10.00000012887491
100
AcDbArc
 50
7.016464233398438
 51
45.0
  0
ARC
  5
184
330
1F
100
AcDbEntity
  8
D-A
  6
Continuous
 62
     3
370
    13
100
AcDbCircle
 10
-211.6539349427089
 20
-373.2469383445945
 30
0.0
 40
10.00000012887491
100
AcDbArc
 50
7.016464233398438
 51
90.0
  0
ARC
  5
185
330
1F
100
AcDbEntity
  8
D-A
  6
Continuous
 62
     3
370
    13
100
AcDbCircle
 10
-291.2985041334818
 20
-338.2469465925886
 30
0.0
 40
25.00000128874908
100
AcDbArc
 50
225.0
 51
270.0
  0
ARC
  5
186
330
1F
100
AcDbEntity
  8
D-A
  6
JWW_DASHED3
 62
     3
370
    13
100
AcDbCircle
 10
-320.1535753301667
 20
-352.2470917572846
 30
0.0
 40
6.50000008376869
100
AcDbArc
 50
270.0
 51
0.0
  0
ARC
  5
187
330
1F
100
AcDbEntity
  8
D-A
  6
Continuous
 62
     3
370
    13
100
AcDbCircle
 10
-320.1535753301667
 20
-329.2469416437922
 30
0.0
 40
6.50000008376869
100
AcDbArc
 50
0.0
 51
90.0
  0
ARC
  5
188
330
1F
100
AcDbEntity
  8
D-9
  6
Continuous
 62
     4
370
    13
100
AcDbCircle
 10
-486.6534813030341
 20
-300.7469465925886
 30
0.0
 40
5.000000064437454
100
AcDbArc
 50
90.0
 51
180.0
  0
ARC
  5
189
330
1F
100
AcDbEntity
  8
D-1
  6
Continuous
 62
     2
370
    13
100
AcDbCircle
 10
-421.6532668551878
 20
-328.2466661607896
 30
0.0
 40
5.000000064437454
100
AcDbArc
 50
233.1302490234375
 51
270.0000000000001
  0
ARC
  5
18A
330
1F
100
AcDbEntity
  8
D-1
  6
Continuous
 62
     2
370
    13
100
AcDbCircle
 10
-496.6532668551878
 20
-318.2468806086359
 30
0.0
 40
5.000000064437454
100
AcDbArc
 50
90.0
 51
180.0
  0
ARC
  5
18B
330
1F
100
AcDbEntity
  8
D-1
  6
Continuous
 62
     2
370
    13
100
AcDbCircle
 10
-371.6533493351287
 20
-338.246699152766
 30
0.0
 40
5.000000064437454
100
AcDbArc
 50
0.0
 51
90.0
  0
ARC
  5
18C
330
1F
100
AcDbEntity
  8
D-1
  6
Continuous
 62
     2
370
    13
100
AcDbCircle
 10
-371.6533493351287
 20
-328.2466661607896
 30
0.0
 40
5.000000064437454
100
AcDbArc
 50
270.0
 51
0.0
  0
ARC
  5
18D
330
1F
100
AcDbEntity
  8
D-1
  6
Continuous
 62
     2
370
    13
100
AcDbCircle
 10
-349.6532272648162
 20
-281.2465853304475
 30
0.0
 40
3.000000038662472
100
AcDbArc
 50
0.0
 51
90.0
  0
ARC
  5
18E
330
1F
100
AcDbEntity
  8
D-1
  6
Continuous
 62
     2
370
    13
100
AcDbCircle
 10
-368.6532652055891
 20
-281.2465853304475
 30
0.0
 40
3.000000038662472
100
AcDbArc
 50
90.0
 51
180.0
  0
ARC
  5
18F
330
1F
100
AcDbEntity
  8
D-1
  6
Continuous
 62
     2
370
    13
100
AcDbCircle
 10
-349.6532272648162
 20
-400.2467057511612
 30
0.0
 40
3.000000038662472
100
AcDbArc
 50
270.0
 51
0.0
  0
ARC
  5
190
330
1F
100
AcDbEntity
  8
D-1
  6
Continuous
 62
     2
370
    13
100
AcDbCircle
 10
-368.6532652055891
 20
-400.2467057511612
 30
0.0
 40
3.000000038662472
100
AcDbArc
 50
180.0
 51
270.0
  0
ARC
  5
191
330
1F
100
AcDbEntity
  8
D-1
  6
Continuous
 62
     2
370
    13
100
AcDbCircle
 10
-443.3036327362058
 20
-318.1967740445523
 30
0.0
 40
4.950000305433531
100
AcDbArc
 50
53.12966918945312
 51
90.0
  0
ARC
  5
192
330
1F
100
AcDbEntity
  8
D-1
  6
Continuous
 62
     2
370
    13
100
AcDbCircle
 10
-496.6532668551878
 20
-333.2465589368666
 30
0.0
 40
5.000000064437454
100
AcDbArc
 50
180.0
 51
270.0
  0
ARC
  5
193
330
1F
100
AcDbEntity
  8
D-1
  6
Continuous
 62
     2
370
    13
100
AcDbCircle
 10
-485.9835379832495
 20
-318.2468806086359
 30
0.0
 40
5.000000064437454
100
AcDbArc
 50
59.99996948242189
 51
90.00000000000003
  0
ARC
  5
194
330
1F
100
AcDbEntity
  8
D-1
  6
Continuous
 62
     2
370
    13
100
AcDbCircle
 10
-457.3230782070672
 20
-318.2468806086359
 30
0.0
 40
5.000000064437454
100
AcDbArc
 50
90.0
 51
120.0000305175781
  0
ARC
  5
195
330
1F
100
AcDbEntity
  8
D-1
  6
Continuous
 62
     2
370
    13
100
AcDbCircle
 10
-471.6533080951584
 20
-320.7468888566299
 30
0.0
 40
5.000000064437454
100
AcDbArc
 50
239.9999694824219
 51
300.0000305175781
  0
TEXT
  5
196
330
1F
100
AcDbEntity
  8
C-3
  6
Continuous
 62
     7
370
    13
100
AcDbText
 10
-178.2240148492758
 20
633.3892489706506
 30
0.0
 40
22.86
  1
被膜厚さ７５μ（色：グレ－）
 41
1.154761904761905
  7
ＭＳ ゴシック
100
AcDbText
  0
TEXT
  5
197
330
1F
100
AcDbEntity
  8
C-3
  6
Continuous
 62
     7
370
    13
100
AcDbText
 10
-68.8164888845904
 20
686.3636405986065
 30
0.0
 40
22.86
  1
セラミクス溶射
 41
1.142857142857143
  7
ＭＳ ゴシック
100
AcDbText
  0
TEXT
  5
198
330
1F
100
AcDbEntity
  8
C-4
  6
Continuous
 62
     2
370
    13
100
AcDbText
 10
-852.2135572175717
 20
1029.450424804688
 30
0.0
 40
30.48
  1
1
 41
0.9999999999999998
  7
ＭＳ ゴシック
100
AcDbText
  0
TEXT
  5
199
330
1F
100
AcDbEntity
  8
C-4
  6
Continuous
 62
     2
370
    13
100
AcDbText
 10
-603.513263753942
 20
1029.450424804688
 30
0.0
 40
30.48
  1
499
 41
1.083333333333333
  7
ＭＳ ゴシック
100
AcDbText
  0
TEXT
  5
19A
330
1F
100
AcDbEntity
  8
C-4
  6
Continuous
 62
     2
370
    13
100
AcDbText
 10
-352.2136396975127
 20
1029.450424804688
 30
0.0
 40
30.48
  1
1
 41
0.9999999999999998
  7
ＭＳ ゴシック
100
AcDbText
  0
TEXT
  5
19B
330
1F
100
AcDbEntity
  8
C-4
  6
Continuous
 62
     2
370
    13
100
AcDbText
 10
-103.5132225139718
 20
1029.450424804688
 30
0.0
 40
30.48
  1
499
 41
1.083333333333333
  7
ＭＳ ゴシック
100
AcDbText
  0
TEXT
  5
19C
330
1F
100
AcDbEntity
  8
C-4
  6
Continuous
 62
     2
370
    13
100
AcDbText
 10
147.7865871223248
 20
1029.450424804688
 30
0.0
 40
30.48
  1
1
 41
0.9999999999999998
  7
ＭＳ ゴシック
100
AcDbText
  0
TEXT
  5
19D
330
1F
100
AcDbEntity
  8
C-4
  6
Continuous
 62
     2
370
    13
100
AcDbText
 10
-603.0130641524853
 20
1109.450441300676
 30
0.0
 40
30.48
  1
500
 41
1.083333333333333
  7
ＭＳ ゴシック
100
AcDbText
  0
TEXT
  5
19E
330
1F
100
AcDbEntity
  8
C-4
  6
Continuous
 62
     2
370
    13
100
AcDbText
 10
-103.0132703523374
 20
1109.450441300676
 30
0.0
 40
30.48
  1
500
 41
1.083333333333333
  7
ＭＳ ゴシック
100
AcDbText
  0
TEXT
  5
19F
330
1F
100
AcDbEntity
  8
C-5
  6
Continuous
 62
     2
370
    13
100
AcDbText
 10
-588.5134287138238
 20
543.9504808910474
 30
0.0
 40
30.48
  1
平面詳細図　Ｓ＝１：１０
 41
1.114583333333333
  7
ＭＳ ゴシック
100
AcDbText
  0
TEXT
  5
1A0
330
1F
100
AcDbEntity
  8
C-0
  6
Continuous
 62
     2
370
    13
100
AcDbText
 10
635.3922191826077
 20
769.7078941881335
 30
0.0
 40
30.48
  1
40
 41
1.0625
  7
ＭＳ ゴシック
100
AcDbText
  0
TEXT
  5
1A1
330
1F
100
AcDbEntity
  8
C-0
  6
Continuous
 62
     2
370
    13
100
AcDbText
 10
825.8368881411169
 20
656.8485404349663
 30
0.0
 40
30.48
  1
6
 50
90.0
 41
0.9999999999999998
  7
ＭＳ ゴシック
100
AcDbText
  0
TEXT
  5
1A2
330
1F
100
AcDbEntity
  8
C-5
  6
Continuous
 62
     2
370
    13
100
AcDbText
 10
419.0494539931018
 20
543.9504808910474
 30
0.0
 40
30.48
  1
排水穴詳細　Ｓ＝１：２
 41
1.113636363636364
  7
ＭＳ ゴシック
100
AcDbText
  0
TEXT
  5
1A3
330
1F
100
AcDbEntity
  8
C-4
  6
Continuous
 62
     2
370
    13
100
AcDbText
 10
-661.6532967459185
 20
837.5602515968119
 30
0.0
 40
30.48
  1
40
 50
90.0
 41
1.0625
  7
ＭＳ ゴシック
100
AcDbText
  0
TEXT
  5
1A4
330
1F
100
AcDbEntity
  8
C-4
  6
Continuous
 62
     2
370
    13
100
AcDbText
 10
-432.2633544818771
 20
746.4500354993667
 30
0.0
 40
30.48
  1
80
 41
1.0625
  7
ＭＳ ゴシック
100
AcDbText
  0
TEXT
  5
1A5
330
1F
100
AcDbEntity
  8
D-4
  6
Continuous
 62
     2
370
    13
100
AcDbText
 10
-409.5992647634965
 20
-37.93593433277032
 30
0.0
 40
30.48
  1
1
 41
0.9999999999999998
  7
ＭＳ ゴシック
100
AcDbText
  0
TEXT
  5
1A6
330
1F
100
AcDbEntity
  8
D-4
  6
Continuous
 62
     2
370
    13
100
AcDbText
 10
-460.4035720309691
 20
-146.6872210198479
 30
0.0
 40
30.48
  1
25
 41
1.0625
  7
ＭＳ ゴシック
100
AcDbText
  0
TEXT
  5
1A7
330
1F
100
AcDbEntity
  8
D-5
  6
Continuous
 62
     7
370
    13
100
AcDbText
 10
-251.2977288220375
 20
-107.5838988597971
 30
0.0
 40
22.86
  1
塩ビクッション
 41
1.142857142857143
  7
ＭＳ ゴシック
100
AcDbText
  0
TEXT
  5
1A8
330
1F
100
AcDbEntity
  8
D-4
  6
Continuous
 62
     2
370
    13
100
AcDbText
 10
-492.0499871228188
 20
-673.2259255569046
 30
0.0
 40
30.48
  1
25～30
 41
1.104166666666667
  7
ＭＳ ゴシック
100
AcDbText
  0
TEXT
  5
1A9
330
1F
100
AcDbEntity
  8
D-4
  6
Continuous
 62
     2
370
    13
100
AcDbText
 10
-369.5222408707073
 20
-827.6901111169763
 30
0.0
 40
30.48
  1
75～80
 41
1.104166666666667
  7
ＭＳ ゴシック
100
AcDbText
  0
TEXT
  5
1AA
330
1F
100
AcDbEntity
  8
D-4
  6
Continuous
 62
     2
370
    13
100
AcDbText
 10
159.3913776892588
 20
-473.760054304793
 30
0.0
 40
30.48
  1
40～50
 50
90.0
 41
1.104166666666667
  7
ＭＳ ゴシック
100
AcDbText
  0
TEXT
  5
1AB
330
1F
100
AcDbEntity
  8
D-4
  6
Continuous
 62
     2
370
    13
100
AcDbText
 10
-318.0154143617516
 20
-458.1384885722955
 30
0.0
 40
30.48
  1
29
 50
0.0010007472011468
 41
1.0625
  7
ＭＳ ゴシック
100
AcDbText
  0
TEXT
  5
1AC
330
1F
100
AcDbEntity
  8
D-4
  6
Continuous
 62
     2
370
    13
100
AcDbText
 10
-124.2439422009438
 20
-409.4968641126477
 30
0.0
 40
30.48
  1
10
 50
90.0
 41
1.0625
  7
ＭＳ ゴシック
100
AcDbText
  0
TEXT
  5
1AD
330
1F
100
AcDbEntity
  8
D-4
  6
Continuous
 62
     2
370
    13
100
AcDbText
 10
-124.2439422009438
 20
-341.9966414168073
 30
0.0
 40
30.48
  1
17
 50
90.0
 41
1.0625
  7
ＭＳ ゴシック
100
AcDbText
  0
TEXT
  5
1AE
330
1F
100
AcDbEntity
  8
D-4
  6
Continuous
 62
     2
370
    13
100
AcDbText
 10
-657.7765333247826
 20
-361.9967074007601
 30
0.0
 40
30.48
  1
25
 50
90.0
 41
1.0625
  7
ＭＳ ゴシック
100
AcDbText
  0
TEXT
  5
1AF
330
1F
100
AcDbEntity
  8
D-4
  6
Continuous
 62
     2
370
    13
100
AcDbText
 10
-335.5420104877363
 20
-37.93593433277032
 30
0.0
 40
30.48
  1
5
 41
0.9999999999999998
  7
ＭＳ ゴシック
100
AcDbText
  0
TEXT
  5
1B0
330
1F
100
AcDbEntity
  8
D-5
  6
Continuous
 62
     2
370
    13
100
AcDbText
 10
-801.1483768450429
 20
-956.0492716691313
 30
0.0
 40
30.48
  1
断面詳細図　Ｓ＝１：２
 50
359.9999855334109
 41
1.113636363636364
  7
ＭＳ ゴシック
100
AcDbText
  0
TEXT
  5
1B1
330
1F
100
AcDbEntity
  8
D-5
  6
Continuous
 62
     7
370
    13
100
AcDbText
 10
-194.7134541176457
 20
-220.2626741316512
 30
0.0
 40
22.86
  1
溶接用アンカ－＠５００
 41
1.151515151515152
  7
ＭＳ ゴシック
100
AcDbText
  0
TEXT
  5
1B2
330
1F
100
AcDbEntity
  8
D-5
  6
Continuous
 62
     7
370
    13
100
AcDbText
 10
-195.1036667179413
 20
-256.8311869193411
 30
0.0
 40
22.86
  1
ｔ＝２．３（ＳＰＨＣ）
 41
1.151515151515152
  7
ＭＳ ゴシック
100
AcDbText
  0
TEXT
  5
1B3
330
1F
100
AcDbEntity
  8
D-5
  6
Continuous
 62
     2
370
    13
100
AcDbText
 10
559.8201218166871
 20
-785.2900603093327
 30
0.0
 40
30.48
  1
材質：冷間圧延ステンレス鋼板（ＳＵＳ３０４－２Ｂ）
 41
1.12
  7
ＭＳ ゴシック
100
AcDbText
  0
TEXT
  5
1B4
330
1F
100
AcDbEntity
  8
D-5
  6
Continuous
 62
     2
370
    13
100
AcDbText
 10
559.8201465606694
 20
-850.2905221970016
 30
0.0
 40
30.48
  1
定尺：３０００
 41
1.107142857142857
  7
ＭＳ ゴシック
100
AcDbText
  0
TEXT
  5
1B5
330
1F
100
AcDbEntity
  8
D-5
  6
Continuous
 62
     7
370
    13
100
AcDbText
 10
-252.4910939706334
 20
-161.2093046611062
 30
0.0
 40
22.86
  1
ステンレス製受枠ＳＦ０３Ｂ
 41
1.153846153846154
  7
ＭＳ ゴシック
100
AcDbText
  0
TEXT
  5
1B6
330
1F
100
AcDbEntity
  8
D-5
  6
Continuous
 62
     2
370
    13
100
AcDbText
 10
500.1084881859861
 20
-720.2903407411318
 30
0.0
 40
30.48
  1
ステンレス製受枠　ＳＦ０３Ｂ
 41
1.116071428571428
  7
ＭＳ ゴシック
100
AcDbText
  0
TEXT
  5
1B7
330
1F
100
AcDbEntity
  8
D-4
  6
Continuous
 62
     2
370
    13
100
AcDbText
 10
-869.0206112650275
 20
-262.1248358649176
 30
0.0
 40
30.48
  1
3
 50
90.0
 41
0.9999999999999998
  7
ＭＳ ゴシック
100
AcDbText
  0
TEXT
  5
1B8
330
1F
100
AcDbEntity
  8
D-5
  6
Continuous
 62
     7
370
    13
100
AcDbText
 10
-246.9842423619447
 20
-8.149834974134098
 30
0.0
 40
22.86
  1
ノンスリップタイプ
 41
1.148148148148148
  7
ＭＳ ゴシック
100
AcDbText
  0
TEXT
  5
1B9
330
1F
100
AcDbEntity
  8
D-5
  6
Continuous
 62
     7
370
    13
100
AcDbText
 10
-248.1891918182369
 20
-42.77718235325155
 30
0.0
 40
22.86
  1
ステンレス製排水用蓋ＳＺ－３（ｔ＝３）
 41
1.157894736842105
  7
ＭＳ ゴシック
100
AcDbText
  0
TEXT
  5
1BA
330
1F
100
AcDbEntity
  8
D-5
  6
Continuous
 62
     2
370
    13
100
AcDbText
 10
445.5179928444533
 20
-317.6067733847128
 30
0.0
 40
30.48
  1
仕　様
 41
1.083333333333333
  7
ＭＳ ゴシック
100
AcDbText
  0
TEXT
  5
1BB
330
1F
100
AcDbEntity
  8
D-5
  6
Continuous
 62
     2
370
    13
100
AcDbText
 10
559.8203692565098
 20
-445.527470571157
 30
0.0
 40
30.48
  1
材質：冷間圧延ステンレス鋼板（ＳＵＳ３０４－２Ｂ）
 41
1.12
  7
ＭＳ ゴシック
100
AcDbText
  0
TEXT
  5
1BC
330
1F
100
AcDbEntity
  8
D-5
  6
Continuous
 62
     2
370
    13
100
AcDbText
 10
559.8203445125275
 20
-510.5274994391364
 30
0.0
 40
30.48
  1
処理：ヘアライン
 41
1.109375
  7
ＭＳ ゴシック
100
AcDbText
  0
TEXT
  5
1BD
330
1F
100
AcDbEntity
  8
D-5
  6
Continuous
 62
     2
370
    13
100
AcDbText
 10
559.8204448050261
 20
-577.0788522751421
 30
0.0
 40
30.48
  1
定尺：５００
 50
359.9999866252354
 41
1.104166666666667
  7
ＭＳ ゴシック
100
AcDbText
  0
TEXT
  5
1BE
330
1F
100
AcDbEntity
  8
D-5
  6
Continuous
 62
     2
370
    13
100
AcDbText
 10
500.1084634420038
 20
-380.5273798432221
 30
0.0
 40
30.48
  1
ノンスリップタイプステンレス製排水用蓋　ＳＺ－３　１２０×５００
 41
1.12109375
  7
ＭＳ ゴシック
100
AcDbText
  0
TEXT
  5
1BF
330
1F
100
AcDbEntity
  8
D-4
  6
Continuous
 62
     2
370
    13
100
AcDbText
 10
-1077.232876081724
 20
76.96151010874168
 30
0.0
 40
30.48
  1
132
 41
1.083333333333333
  7
ＭＳ ゴシック
100
AcDbText
  0
TEXT
  5
1C0
330
1F
100
AcDbEntity
  8
D-4
  6
Continuous
 62
     2
370
    13
100
AcDbText
 10
-1077.232876081724
 20
-34.70189585092889
 30
0.0
 40
30.48
  1
120
 41
1.083333333333333
  7
ＭＳ ゴシック
100
AcDbText
  0
TEXT
  5
1C1
330
1F
100
AcDbEntity
  8
D-4
  6
Continuous
 62
     2
370
    13
100
AcDbText
 10
-1075.273839331961
 20
-140.4882348632813
 30
0.0
 40
30.48
  1
70
 41
1.0625
  7
ＭＳ ゴシック
100
AcDbText
  0
TEXT
  5
1C2
330
1F
100
AcDbEntity
  8
F-4
  6
Continuous
 62
     2
370
    13
100
AcDbText
 10
-798.5002327480828
 20
-1349.359880404086
 30
0.0
 40
30.48
  1
ノンスリップタイプステンレス製排水用蓋　ＳＺ－３　１２０×５００＋ＳＦ０３Ｂ
 41
0.7743421052631578
  7
ＭＳ ゴシック
100
AcDbText
  0
LWPOLYLINE
  5
1C3
330
1F
100
AcDbEntity
  8
C-4
  6
Continuous
 62
     7
370
    13
100
AcDbPolyline
 90
        4
 70
     1
 43
1.0
 10
-821.0132983955174
 20
1018.810655748522
 42
0.4142135623731
 10
-821.5132983955174
 20
1019.310655748522
 42
0.4142135623731
 10
-822.0132983955173
 20
1018.810655748522
 42
0.4142135623731
 10
-821.5132983955174
 20
1018.310655748522
 42
0.4142135623731
  0
LWPOLYLINE
  5
1C4
330
1F
100
AcDbEntity
  8
C-4
  6
Continuous
 62
     7
370
    13
100
AcDbPolyline
 90
        4
 70
     1
 43
1.0
 10
-820.0131466324261
 20
1018.810655748522
 42
0.4142135623731
 10
-820.513146632426
 20
1019.310655748522
 42
0.4142135623731
 10
-821.013146632426
 20
1018.810655748522
 42
0.4142135623731
 10
-820.513146632426
 20
1018.310655748522
 42
0.4142135623731
  0
LWPOLYLINE
  5
1C5
330
1F
100
AcDbEntity
  8
C-4
  6
Continuous
 62
     7
370
    13
100
AcDbPolyline
 90
        4
 70
     1
 43
1.0
 10
-321.013257155547
 20
1018.810655748522
 42
0.4142135623731
 10
-321.5132571555469
 20
1019.310655748522
 42
0.4142135623731
 10
-322.0132571555469
 20
1018.810655748522
 42
0.4142135623731
 10
-321.5132571555469
 20
1018.310655748522
 42
0.4142135623731
  0
LWPOLYLINE
  5
1C6
330
1F
100
AcDbEntity
  8
C-4
  6
Continuous
 62
     7
370
    13
100
AcDbPolyline
 90
        4
 70
     1
 43
1.0
 10
-320.013229112367
 20
1018.810655748522
 42
0.4142135623731
 10
-320.513229112367
 20
1019.310655748522
 42
0.4142135623731
 10
-321.013229112367
 20
1018.810655748522
 42
0.4142135623731
 10
-320.513229112367
 20
1018.310655748522
 42
0.4142135623731
  0
LWPOLYLINE
  5
1C7
330
1F
100
AcDbEntity
  8
C-4
  6
Continuous
 62
     7
370
    13
100
AcDbPolyline
 90
        4
 70
     1
 43
1.0
 10
178.9869078043349
 20
1018.810655748522
 42
0.4142135623731
 10
178.4869078043349
 20
1019.310655748522
 42
0.4142135623731
 10
177.9869078043349
 20
1018.810655748522
 42
0.4142135623731
 10
178.4869078043349
 20
1018.310655748522
 42
0.4142135623731
  0
LWPOLYLINE
  5
1C8
330
1F
100
AcDbEntity
  8
C-4
  6
Continuous
 62
     7
370
    13
100
AcDbPolyline
 90
        4
 70
     1
 43
1.0
 10
179.9868121276036
 20
1018.810655748522
 42
0.4142135623731
 10
179.4868121276036
 20
1019.310655748522
 42
0.4142135623731
 10
178.9868121276036
 20
1018.810655748522
 42
0.4142135623731
 10
179.4868121276036
 20
1018.310655748522
 42
0.4142135623731
  0
LWPOLYLINE
  5
1C9
330
1F
100
AcDbEntity
  8
C-4
  6
Continuous
 62
     7
370
    13
100
AcDbPolyline
 90
        4
 70
     1
 43
1.0
 10
-820.0131466324261
 20
1098.81067224451
 42
0.4142135623731
 10
-820.513146632426
 20
1099.31067224451
 42
0.4142135623731
 10
-821.013146632426
 20
1098.81067224451
 42
0.4142135623731
 10
-820.513146632426
 20
1098.31067224451
 42
0.4142135623731
  0
LWPOLYLINE
  5
1CA
330
1F
100
AcDbEntity
  8
C-4
  6
Continuous
 62
     7
370
    13
100
AcDbPolyline
 90
        4
 70
     1
 43
1.0
 10
-320.013229112367
 20
1098.81067224451
 42
0.4142135623731
 10
-320.513229112367
 20
1099.31067224451
 42
0.4142135623731
 10
-321.013229112367
 20
1098.81067224451
 42
0.4142135623731
 10
-320.513229112367
 20
1098.31067224451
 42
0.4142135623731
  0
LWPOLYLINE
  5
1CB
330
1F
100
AcDbEntity
  8
C-4
  6
Continuous
 62
     7
370
    13
100
AcDbPolyline
 90
        4
 70
     1
 43
1.0
 10
179.9868121276036
 20
1098.81067224451
 42
0.4142135623731
 10
179.4868121276036
 20
1099.31067224451
 42
0.4142135623731
 10
178.9868121276036
 20
1098.81067224451
 42
0.4142135623731
 10
179.4868121276036
 20
1098.31067224451
 42
0.4142135623731
  0
LWPOLYLINE
  5
1CC
330
1F
100
AcDbEntity
  8
C-4
  6
Continuous
 62
     7
370
    13
100
AcDbPolyline
 90
        4
 70
     1
 43
1.0
 10
557.1425078624007
 20
759.0676302523227
 42
0.4142135623731
 10
556.6425078624007
 20
759.5676302523226
 42
0.4142135623731
 10
556.1425078624007
 20
759.0676302523227
 42
0.4142135623731
 10
556.6425078624007
 20
758.5676302523227
 42
0.4142135623731
  0
LWPOLYLINE
  5
1CD
330
1F
100
AcDbEntity
  8
C-4
  6
Continuous
 62
     7
370
    13
100
AcDbPolyline
 90
        4
 70
     1
 43
1.0
 10
757.1424253824601
 20
759.0676302523227
 42
0.4142135623731
 10
756.6424253824601
 20
759.5676302523226
 42
0.4142135623731
 10
756.1424253824601
 20
759.0676302523227
 42
0.4142135623731
 10
756.6424253824601
 20
758.5676302523227
 42
0.4142135623731
  0
LWPOLYLINE
  5
1CE
330
1F
100
AcDbEntity
  8
C-4
  6
Continuous
 62
     7
370
    13
100
AcDbPolyline
 90
        4
 70
     1
 43
1.0
 10
836.9771520769278
 20
651.8482435071792
 42
0.4142135623731
 10
836.4771520769278
 20
652.3482435071792
 42
0.4142135623731
 10
835.9771520769278
 20
651.8482435071792
 42
0.4142135623731
 10
836.4771520769278
 20
651.3482435071792
 42
0.4142135623731
  0
LWPOLYLINE
  5
1CF
330
1F
100
AcDbEntity
  8
C-4
  6
Continuous
 62
     7
370
    13
100
AcDbPolyline
 90
        4
 70
     1
 43
1.0
 10
836.9771520769278
 20
681.847847603463
 42
0.4142135623731
 10
836.4771520769278
 20
682.347847603463
 42
0.4142135623731
 10
835.9771520769278
 20
681.847847603463
 42
0.4142135623731
 10
836.4771520769278
 20
681.347847603463
 42
0.4142135623731
  0
LWPOLYLINE
  5
1D0
330
1F
100
AcDbEntity
  8
C-4
  6
Continuous
 62
     7
370
    13
100
AcDbPolyline
 90
        4
 70
     1
 43
1.0
 10
-650.513156530019
 20
838.8103093327703
 42
0.4142135623731
 10
-651.013156530019
 20
839.3103093327703
 42
0.4142135623731
 10
-651.513156530019
 20
838.8103093327703
 42
0.4142135623731
 10
-651.013156530019
 20
838.3103093327703
 42
0.4142135623731
  0
LWPOLYLINE
  5
1D1
330
1F
100
AcDbEntity
  8
C-4
  6
Continuous
 62
     7
370
    13
100
AcDbPolyline
 90
        4
 70
     1
 43
1.0
 10
-650.513156530019
 20
878.8104413006758
 42
0.4142135623731
 10
-651.013156530019
 20
879.3104413006757
 42
0.4142135623731
 10
-651.513156530019
 20
878.8104413006758
 42
0.4142135623731
 10
-651.013156530019
 20
878.3104413006758
 42
0.4142135623731
  0
LWPOLYLINE
  5
1D2
330
1F
100
AcDbEntity
  8
C-4
  6
Continuous
 62
     7
370
    13
100
AcDbPolyline
 90
        4
 70
     1
 43
1.0
 10
-450.5133627298711
 20
735.810266443201
 42
0.4142135623731
 10
-451.0133627298711
 20
736.310266443201
 42
0.4142135623731
 10
-451.5133627298711
 20
735.810266443201
 42
0.4142135623731
 10
-451.0133627298711
 20
735.310266443201
 42
0.4142135623731
  0
LWPOLYLINE
  5
1D3
330
1F
100
AcDbEntity
  8
C-4
  6
Continuous
 62
     7
370
    13
100
AcDbPolyline
 90
        4
 70
     1
 43
1.0
 10
-370.5133462338831
 20
735.810266443201
 42
0.4142135623731
 10
-371.0133462338831
 20
736.310266443201
 42
0.4142135623731
 10
-371.5133462338831
 20
735.810266443201
 42
0.4142135623731
 10
-371.0133462338831
 20
735.310266443201
 42
0.4142135623731
  0
LWPOLYLINE
  5
1D4
330
1F
100
AcDbEntity
  8
D-4
  6
Continuous
 62
     7
370
    13
100
AcDbPolyline
 90
        4
 70
     1
 43
1.0
 10
-346.1543803343899
 20
62.12046030405418
 42
0.4142135623731
 10
-346.6543803343899
 20
62.62046030405418
 42
0.4142135623731
 10
-347.1543803343899
 20
62.12046030405418
 42
0.4142135623731
 10
-346.6543803343899
 20
61.62046030405418
 42
0.4142135623731
  0
LWPOLYLINE
  5
1D5
330
1F
100
AcDbEntity
  8
D-4
  6
Continuous
 62
     7
370
    13
100
AcDbPolyline
 90
        4
 70
     1
 43
1.0
 10
-376.1534895510282
 20
-48.57520850929035
 42
0.4142135623731
 10
-376.6534895510281
 20
-48.07520850929035
 42
0.4142135623731
 10
-377.1534895510281
 20
-48.57520850929035
 42
0.4142135623731
 10
-376.6534895510281
 20
-49.07520850929035
 42
0.4142135623731
  0
LWPOLYLINE
  5
1D6
330
1F
100
AcDbEntity
  8
D-4
  6
Continuous
 62
     7
370
    13
100
AcDbPolyline
 90
        4
 70
     1
 43
1.0
 10
-371.1532256152175
 20
-48.57520850929035
 42
0.4142135623731
 10
-371.6532256152175
 20
-48.07520850929035
 42
0.4142135623731
 10
-372.1532256152175
 20
-48.57520850929035
 42
0.4142135623731
 10
-371.6532256152175
 20
-49.07520850929035
 42
0.4142135623731
  0
LWPOLYLINE
  5
1D7
330
1F
100
AcDbEntity
  8
D-4
  6
Continuous
 62
     7
370
    13
100
AcDbPolyline
 90
        4
 70
     1
 43
1.0
 10
-346.1543803343899
 20
-48.57520850929035
 42
0.4142135623731
 10
-346.6543803343899
 20
-48.07520850929035
 42
0.4142135623731
 10
-347.1543803343899
 20
-48.57520850929035
 42
0.4142135623731
 10
-346.6543803343899
 20
-49.07520850929035
 42
0.4142135623731
  0
LWPOLYLINE
  5
1D8
330
1F
100
AcDbEntity
  8
D-4
  6
Continuous
 62
     7
370
    13
100
AcDbPolyline
 90
        4
 70
     1
 43
1.0
 10
-501.1542731104668
 20
-157.3274849556586
 42
0.4142135623731
 10
-501.6542731104667
 20
-156.8274849556586
 42
0.4142135623731
 10
-502.1542731104666
 20
-157.3274849556586
 42
0.4142135623731
 10
-501.6542731104667
 20
-157.8274849556586
 42
0.4142135623731
  0
LWPOLYLINE
  5
1D9
330
1F
100
AcDbEntity
  8
D-4
  6
Continuous
 62
     7
370
    13
100
AcDbPolyline
 90
        4
 70
     1
 43
1.0
 10
-376.1534895510282
 20
-157.3274849556586
 42
0.4142135623731
 10
-376.6534895510281
 20
-156.8274849556586
 42
0.4142135623731
 10
-377.1534895510281
 20
-157.3274849556586
 42
0.4142135623731
 10
-376.6534895510281
 20
-157.8274849556586
 42
0.4142135623731
  0
LWPOLYLINE
  5
1DA
330
1F
100
AcDbEntity
  8
D-4
  6
Continuous
 62
     7
370
    13
100
AcDbPolyline
 90
        4
 70
     1
 43
1.0
 10
-646.636764268617
 20
-278.2468723606418
 42
0.4142135623731
 10
-647.136764268617
 20
-277.7468723606418
 42
0.4142135623731
 10
-647.636764268617
 20
-278.2468723606418
 42
0.4142135623731
 10
-647.136764268617
 20
-278.7468723606418
 42
0.4142135623731
  0
LWPOLYLINE
  5
1DB
330
1F
100
AcDbEntity
  8
D-4
  6
Continuous
 62
     7
370
    13
100
AcDbPolyline
 90
        4
 70
     1
 43
1.0
 10
-646.636764268617
 20
-403.2471610404349
 42
0.4142135623731
 10
-647.136764268617
 20
-402.7471610404349
 42
0.4142135623731
 10
-647.636764268617
 20
-403.2471610404349
 42
0.4142135623731
 10
-647.136764268617
 20
-403.7471610404349
 42
0.4142135623731
  0
LWPOLYLINE
  5
1DC
330
1F
100
AcDbEntity
  8
D-4
  6
Continuous
 62
     7
370
    13
100
AcDbPolyline
 90
        4
 70
     1
 43
1.0
 10
170.5311467454245
 20
-278.2468723606418
 42
0.4142135623731
 10
170.0311467454245
 20
-277.7468723606418
 42
0.4142135623731
 10
169.5311467454245
 20
-278.2468723606418
 42
0.4142135623731
 10
170.0311467454245
 20
-278.7468723606418
 42
0.4142135623731
  0
LWPOLYLINE
  5
1DD
330
1F
100
AcDbEntity
  8
D-4
  6
Continuous
 62
     7
370
    13
100
AcDbPolyline
 90
        4
 70
     1
 43
1.0
 10
170.5311467454245
 20
-528.247078560494
 42
0.4142135623731
 10
170.0311467454245
 20
-527.7470785604941
 42
0.4142135623731
 10
169.5311467454245
 20
-528.247078560494
 42
0.4142135623731
 10
170.0311467454245
 20
-528.747078560494
 42
0.4142135623731
  0
LWPOLYLINE
  5
1DE
330
1F
100
AcDbEntity
  8
D-4
  6
Continuous
 62
     7
370
    13
100
AcDbPolyline
 90
        4
 70
     1
 43
1.0
 10
-113.1036782651331
 20
-278.2468723606418
 42
0.4142135623731
 10
-113.6036782651331
 20
-277.7468723606418
 42
0.4142135623731
 10
-114.1036782651331
 20
-278.2468723606418
 42
0.4142135623731
 10
-113.6036782651331
 20
-278.7468723606418
 42
0.4142135623731
  0
LWPOLYLINE
  5
1DF
330
1F
100
AcDbEntity
  8
D-4
  6
Continuous
 62
     7
370
    13
100
AcDbPolyline
 90
        4
 70
     1
 43
1.0
 10
-113.1036782651331
 20
-363.2467816327069
 42
0.4142135623731
 10
-113.6036782651331
 20
-362.7467816327069
 42
0.4142135623731
 10
-114.1036782651331
 20
-363.2467816327069
 42
0.4142135623731
 10
-113.6036782651331
 20
-363.7467816327069
 42
0.4142135623731
  0
LWPOLYLINE
  5
1E0
330
1F
100
AcDbEntity
  8
D-4
  6
Continuous
 62
     7
370
    13
100
AcDbPolyline
 90
        4
 70
     1
 43
1.0
 10
-113.1036782651331
 20
-413.2473177523225
 42
0.4142135623731
 10
-113.6036782651331
 20
-412.7473177523225
 42
0.4142135623731
 10
-114.1036782651331
 20
-413.2473177523225
 42
0.4142135623731
 10
-113.6036782651331
 20
-413.7473177523225
 42
0.4142135623731
  0
LWPOLYLINE
  5
1E1
330
1F
100
AcDbEntity
  8
D-4
  6
Continuous
 62
     7
370
    13
100
AcDbPolyline
 90
        4
 70
     1
 43
1.0
 10
-346.1537617348331
 20
-468.7777627480996
 42
0.4142135623731
 10
-346.6537617348331
 20
-468.2777627480996
 42
0.4142135623731
 10
-347.1537617348331
 20
-468.7777627480996
 42
0.4142135623731
 10
-346.6537617348331
 20
-469.2777627480996
 42
0.4142135623731
  0
LWPOLYLINE
  5
1E2
330
1F
100
AcDbEntity
  8
D-4
  6
Continuous
 62
     7
370
    13
100
AcDbPolyline
 90
        4
 70
     1
 43
1.0
 10
-201.1536545109099
 20
-468.7777627480996
 42
0.4142135623731
 10
-201.6536545109099
 20
-468.2777627480996
 42
0.4142135623731
 10
-202.1536545109099
 20
-468.7777627480996
 42
0.4142135623731
 10
-201.6536545109099
 20
-469.2777627480996
 42
0.4142135623731
  0
LWPOLYLINE
  5
1E3
330
1F
100
AcDbEntity
  8
D-4
  6
Continuous
 62
     7
370
    13
100
AcDbPolyline
 90
        4
 70
     1
 43
1.0
 10
-501.1537782308214
 20
-683.86569461307
 42
0.4142135623731
 10
-501.6537782308214
 20
-683.3656946130701
 42
0.4142135623731
 10
-502.1537782308213
 20
-683.86569461307
 42
0.4142135623731
 10
-501.6537782308214
 20
-684.36569461307
 42
0.4142135623731
  0
LWPOLYLINE
  5
1E4
330
1F
100
AcDbEntity
  8
D-4
  6
Continuous
 62
     7
370
    13
100
AcDbPolyline
 90
        4
 70
     1
 43
1.0
 10
-351.1535307909987
 20
-683.86569461307
 42
0.4142135623731
 10
-351.6535307909987
 20
-683.3656946130701
 42
0.4142135623731
 10
-352.1535307909987
 20
-683.86569461307
 42
0.4142135623731
 10
-351.6535307909987
 20
-684.36569461307
 42
0.4142135623731
  0
LWPOLYLINE
  5
1E5
330
1F
100
AcDbEntity
  8
D-4
  6
Continuous
 62
     7
370
    13
100
AcDbPolyline
 90
        4
 70
     1
 43
1.0
 10
-501.1537782308214
 20
-838.3303750527871
 42
0.4142135623731
 10
-501.6537782308214
 20
-837.8303750527871
 42
0.4142135623731
 10
-502.1537782308213
 20
-838.3303750527871
 42
0.4142135623731
 10
-501.6537782308214
 20
-838.8303750527871
 42
0.4142135623731
  0
LWPOLYLINE
  5
1E6
330
1F
100
AcDbEntity
  8
D-4
  6
Continuous
 62
     7
370
    13
100
AcDbPolyline
 90
        4
 70
     1
 43
1.0
 10
-101.1528297115013
 20
-838.3303750527871
 42
0.4142135623731
 10
-101.6528297115013
 20
-837.8303750527871
 42
0.4142135623731
 10
-102.1528297115013
 20
-838.3303750527871
 42
0.4142135623731
 10
-101.6528297115013
 20
-838.8303750527871
 42
0.4142135623731
  0
LWPOLYLINE
  5
1E7
330
1F
100
AcDbEntity
  8
D-4
  6
Continuous
 62
     7
370
    13
100
AcDbPolyline
 90
        4
 70
     1
 43
1.0
 10
-857.8803473292168
 20
-280.7470043285473
 42
0.4142135623731
 10
-858.3803473292166
 20
-280.2470043285472
 42
0.4142135623731
 10
-858.8803473292166
 20
-280.7470043285473
 42
0.4142135623731
 10
-858.3803473292166
 20
-281.2470043285473
 42
0.4142135623731
  0
LWPOLYLINE
  5
1E8
330
1F
100
AcDbEntity
  8
D-4
  6
Continuous
 62
     7
370
    13
100
AcDbPolyline
 90
        4
 70
     1
 43
1.0
 10
-857.8803473292168
 20
-295.7468063766892
 42
0.4142135623731
 10
-858.3803473292166
 20
-295.2468063766892
 42
0.4142135623731
 10
-858.8803473292166
 20
-295.7468063766892
 42
0.4142135623731
 10
-858.3803473292166
 20
-296.2468063766892
 42
0.4142135623731
  0
ENDSEC
  0
SECTION
  2
OBJECTS
  0
DICTIONARY
  5
C
330
0
100
AcDbDictionary
281
     1
  3
ACAD_GROUP
350
D
  3
ACAD_LAYOUT
350
1A
  3
ACAD_MLEADERSTYLE
350
1EA
  3
ACAD_MLINESTYLE
350
17
  3
ACAD_PLOTSETTINGS
350
19
  3
ACAD_PLOTSTYLENAME
350
E
  3
ACAD_TABLESTYLE
350
1E9
  3
ACAD_VISUALSTYLE
350
2A
  0
DICTIONARY
  5
D
102
{ACAD_REACTORS
330
C
102
}
330
C
100
AcDbDictionary
281
     1
  0
DICTIONARY
  5
1A
102
{ACAD_REACTORS
330
C
102
}
330
C
100
AcDbDictionary
281
     1
  3
Layout1
350
1E
  3
Layout2
350
26
  3
Model
350
22
  0
DICTIONARY
  5
1EA
102
{ACAD_REACTORS
330
C
102
}
330
C
100
AcDbDictionary
281
     1
  0
DICTIONARY
  5
17
102
{ACAD_REACTORS
330
C
102
}
330
C
100
AcDbDictionary
281
     1
  3
Standard
350
18
  0
DICTIONARY
  5
19
102
{ACAD_REACTORS
330
C
102
}
330
C
100
AcDbDictionary
281
     1
  0
ACDBDICTIONARYWDFLT
  5
E
102
{ACAD_REACTORS
330
C
102
}
330
C
100
AcDbDictionary
281
     1
  3
Normal
350
F
100
AcDbDictionaryWithDefault
340
F
  0
DICTIONARY
  5
1E9
102
{ACAD_REACTORS
330
C
102
}
330
C
100
AcDbDictionary
281
     1
  0
DICTIONARY
  5
2A
102
{ACAD_REACTORS
330
C
102
}
330
C
100
AcDbDictionary
281
     1
  3
2dWireframe
350
2F
  3
3D Hidden
350
31
  3
3dWireframe
350
30
  3
Basic
350
32
  3
Brighten
350
36
  3
ColorChange
350
3A
  3
Conceptual
350
34
  3
Dim
350
35
  3
Facepattern
350
39
  3
Flat
350
2B
  3
FlatWithEdges
350
2C
  3
Gouraud
350
2D
  3
GouraudWithEdges
350
2E
  3
Linepattern
350
38
  3
Realistic
350
33
  3
Thicken
350
37
  0
LAYOUT
  5
1E
102
{ACAD_REACTORS
330
1A
102
}
330
1A
100
AcDbPlotSettings
  1

  2
none_device
  4

  6

 40
0.0
 41
0.0
 42
0.0
 43
0.0
 44
0.0
 45
0.0
 46
0.0
 47
0.0
 48
0.0
 49
0.0
140
0.0
141
0.0
142
1.0
143
1.0
 70
   688
 72
     0
 73
     0
 74
     5
  7

 75
    16
 76
     0
 77
     5
 78
   300
147
1.0
148
0.0
149
0.0
100
AcDbLayout
  1
Layout1
 70
     1
 71
     1
 10
0.0
 20
0.0
 11
420.0
 21
297.0
 12
0.0
 22
0.0
 32
0.0
 14
1.000000000000000E+20
 24
1.000000000000000E+20
 34
1.000000000000000E+20
 15
-1.000000000000000E+20
 25
-1.000000000000000E+20
 35
-1.000000000000000E+20
146
0.0
 13
0.0
 23
0.0
 33
0.0
 16
1.0
 26
0.0
 36
0.0
 17
0.0
 27
1.0
 37
0.0
 76
     0
330
1B
  0
LAYOUT
  5
26
102
{ACAD_REACTORS
330
1A
102
}
330
1A
100
AcDbPlotSettings
  1

  2
none_device
  4

  6

 40
0.0
 41
0.0
 42
0.0
 43
0.0
 44
0.0
 45
0.0
 46
0.0
 47
0.0
 48
0.0
 49
0.0
140
0.0
141
0.0
142
1.0
143
1.0
 70
   688
 72
     0
 73
     0
 74
     5
  7

 75
    16
 76
     0
 77
     5
 78
   300
147
1.0
148
0.0
149
0.0
100
AcDbLayout
  1
Layout2
 70
     1
 71
     2
 10
0.0
 20
0.0
 11
0.0
 21
0.0
 12
0.0
 22
0.0
 32
0.0
 14
0.0
 24
0.0
 34
0.0
 15
0.0
 25
0.0
 35
0.0
146
0.0
 13
0.0
 23
0.0
 33
0.0
 16
1.0
 26
0.0
 36
0.0
 17
0.0
 27
1.0
 37
0.0
 76
     0
330
23
  0
LAYOUT
  5
22
102
{ACAD_REACTORS
330
1A
102
}
330
1A
100
AcDbPlotSettings
  1

  2
none_device
  4

  6

 40
0.0
 41
0.0
 42
0.0
 43
0.0
 44
0.0
 45
0.0
 46
0.0
 47
0.0
 48
0.0
 49
0.0
140
0.0
141
0.0
142
1.0
143
1.0
 70
  1712
 72
     0
 73
     0
 74
     0
  7

 75
     0
 76
     0
 77
     5
 78
   300
147
1.0
148
0.0
149
0.0
100
AcDbLayout
  1
Model
 70
     1
 71
     0
 10
-2100.0
 20
-1485.0
 11
2100.0
 21
1485.0
 12
0.0
 22
0.0
 32
0.0
 14
-2100.0
 24
-1485.0
 34
0.0
 15
2100.0
 25
1485.0
 35
0.0
146
0.0
 13
0.0
 23
0.0
 33
0.0
 16
1.0
 26
0.0
 36
0.0
 17
0.0
 27
1.0
 37
0.0
 76
     0
330
1F
331
29
  0
MLINESTYLE
  5
18
102
{ACAD_REACTORS
330
17
102
}
330
17
100
AcDbMlineStyle
  2
Standard
 70
     0
  3

 62
   256
 51
90.0
 52
90.0
 71
     2
 49
0.5
 62
   256
  6
BYLAYER
 49
-0.5
 62
   256
  6
BYLAYER
  0
ACDBPLACEHOLDER
  5
F
102
{ACAD_REACTORS
330
E
102
}
330
E
  0
VISUALSTYLE
  5
2F
102
{ACAD_REACTORS
330
2A
102
}
330
2A
100
AcDbVisualStyle
  2
2dWireframe
 70
     4
 71
     0
 72
     2
 73
     0
 90
        0
 40
-0.6
 41
-30.0
 62
     5
 63
     7
421
 16777215
 74
     1
 91
        4
 64
     7
 65
   257
 75
     1
175
     1
 42
1.0
 92
        0
 66
   257
 43
1.0
 76
     1
 77
     6
 78
     2
 67
     7
 79
     5
170
     0
171
     0
290
     0
174
     0
 93
        1
 44
0.0
173
     0
291
     0
 45
0.0
1001
ACAD
1000
AcDbSavedByObjectVersion
1070
     0
  0
VISUALSTYLE
  5
31
102
{ACAD_REACTORS
330
2A
102
}
330
2A
100
AcDbVisualStyle
  2
3D Hidden
 70
     6
 71
     1
 72
     2
 73
     2
 90
        0
 40
-0.6
 41
-30.0
 62
     5
 63
     7
421
 16777215
 74
     2
 91
        2
 64
     7
 65
   257
 75
     2
175
     1
 42
40.0
 92
        0
 66
   257
 43
1.0
 76
     1
 77
     6
 78
     2
 67
     7
 79
     3
170
     0
171
     0
290
     0
174
     0
 93
        1
 44
0.0
173
     0
291
     0
 45
0.0
1001
ACAD
1000
AcDbSavedByObjectVersion
1070
     0
  0
VISUALSTYLE
  5
30
102
{ACAD_REACTORS
330
2A
102
}
330
2A
100
AcDbVisualStyle
  2
3dWireframe
 70
     5
 71
     0
 72
     2
 73
     0
 90
        0
 40
-0.6
 41
-30.0
 62
     5
 63
     7
421
 16777215
 74
     1
 91
        4
 64
     7
 65
   257
 75
     1
175
     1
 42
1.0
 92
        0
 66
   257
 43
1.0
 76
     1
 77
     6
 78
     2
 67
     7
 79
     5
170
     0
171
     0
290
     0
174
     0
 93
        1
 44
0.0
173
     0
291
     0
 45
0.0
1001
ACAD
1000
AcDbSavedByObjectVersion
1070
     0
  0
VISUALSTYLE
  5
32
102
{ACAD_REACTORS
330
2A
102
}
330
2A
100
AcDbVisualStyle
  2
Basic
 70
     7
 71
     1
 72
     0
 73
     1
 90
        0
 40
-0.6
 41
-30.0
 62
     5
 63
     7
421
 16777215
 74
     0
 91
        4
 64
     7
 65
   257
 75
     1
175
     1
 42
1.0
 92
        8
 66
     7
 43
1.0
 76
     1
 77
     6
 78
     2
 67
     7
 79
     5
170
     0
171
     0
290
     0
174
     0
 93
        1
 44
0.0
173
     0
291
     1
 45
0.0
1001
ACAD
1000
AcDbSavedByObjectVersion
1070
     0
  0
VISUALSTYLE
  5
36
102
{ACAD_REACTORS
330
2A
102
}
330
2A
100
AcDbVisualStyle
  2
Brighten
 70
    12
 71
     2
 72
     2
 73
     0
 90
        0
 40
-0.6
 41
-30.0
 62
     5
 63
     7
421
 16777215
 74
     1
 91
        4
 64
     7
 65
   257
 75
     1
175
     1
 42
1.0
 92
        8
 66
     7
 43
1.0
 76
     1
 77
     6
 78
     2
 67
     7
 79
     5
170
     0
171
     0
290
     0
174
     0
 93
        1
 44
50.0
173
     0
291
     1
 45
0.0
1001
ACAD
1000
AcDbSavedByObjectVersion
1070
     0
  0
VISUALSTYLE
  5
3A
102
{ACAD_REACTORS
330
2A
102
}
330
2A
100
AcDbVisualStyle
  2
ColorChange
 70
    16
 71
     2
 72
     2
 73
     3
 90
        0
 40
-0.6
 41
-30.0
 62
     5
 63
     8
421
  8421504
 74
     1
 91
        4
 64
     7
 65
   257
 75
     1
175
     1
 42
1.0
 92
        8
 66
     8
424
  8421504
 43
1.0
 76
     1
 77
     6
 78
     2
 67
     7
 79
     5
170
     0
171
     0
290
     0
174
     0
 93
        1
 44
0.0
173
     0
291
     1
 45
0.0
1001
ACAD
1000
AcDbSavedByObjectVersion
1070
     0
  0
VISUALSTYLE
  5
34
102
{ACAD_REACTORS
330
2A
102
}
330
2A
100
AcDbVisualStyle
  2
Conceptual
 70
     9
 71
     3
 72
     2
 73
     0
 90
        0
 40
-0.6
 41
-30.0
 62
     5
 63
     7
421
 16777215
 74
     2
 91
        2
 64
     7
 65
   257
 75
     1
175
     1
 42
40.0
 92
        8
 66
     7
 43
1.0
 76
     1
 77
     6
 78
     2
 67
     7
 79
     3
170
     0
171
     0
290
     0
174
     0
 93
        1
 44
0.0
173
     0
291
     0
 45
0.0
1001
ACAD
1000
AcDbSavedByObjectVersion
1070
     0
  0
VISUALSTYLE
  5
35
102
{ACAD_REACTORS
330
2A
102
}
330
2A
100
AcDbVisualStyle
  2
Dim
 70
    11
 71
     2
 72
     2
 73
     0
 90
        0
 40
-0.6
 41
-30.0
 62
     5
 63
     7
421
 16777215
 74
     1
 91
        4
 64
     7
 65
   257
 75
     1
175
     1
 42
1.0
 92
        8
 66
     7
 43
1.0
 76
     1
 77
     6
 78
     2
 67
     7
 79
     5
170
     0
171
     0
290
     0
174
     0
 93
        1
 44
-50.0
173
     0
291
     1
 45
0.0
1001
ACAD
1000
AcDbSavedByObjectVersion
1070
     0
  0
VISUALSTYLE
  5
39
102
{ACAD_REACTORS
330
2A
102
}
330
2A
100
AcDbVisualStyle
  2
Facepattern
 70
    15
 71
     2
 72
     2
 73
     0
 90
        0
 40
-0.6
 41
-30.0
 62
     5
 63
     7
421
 16777215
 74
     1
 91
        4
 64
     7
 65
   257
 75
     1
175
     1
 42
1.0
 92
        8
 66
     7
 43
1.0
 76
     1
 77
     6
 78
     2
 67
     7
 79
     5
170
     0
171
     0
290
     0
174
     0
 93
        1
 44
0.0
173
     0
291
     1
 45
0.0
1001
ACAD
1000
AcDbSavedByObjectVersion
1070
     0
  0
VISUALSTYLE
  5
2B
102
{ACAD_REACTORS
330
2A
102
}
330
2A
100
AcDbVisualStyle
  2
Flat
 70
     0
 71
     2
 72
     1
 73
     1
 90
        2
 40
-0.6
 41
30.0
 62
     5
 63
     7
421
 16777215
 74
     0
 91
        4
 64
     7
 65
   257
 75
     1
175
     1
 42
1.0
 92
        8
 66
     7
 43
1.0
 76
     1
 77
     6
 78
     2
 67
     7
 79
     5
170
     0
171
     0
290
     0
174
     0
 93
       13
 44
0.0
173
     0
291
     1
 45
0.0
1001
ACAD
1000
AcDbSavedByObjectVersion
1070
     0
  0
VISUALSTYLE
  5
2C
102
{ACAD_REACTORS
330
2A
102
}
330
2A
100
AcDbVisualStyle
  2
FlatWithEdges
 70
     1
 71
     2
 72
     1
 73
     1
 90
        2
 40
-0.6
 41
30.0
 62
     5
 63
     7
421
 16777215
 74
     1
 91
        4
 64
     7
 65
   257
 75
     1
175
     1
 42
1.0
 92
        0
 66
   257
 43
1.0
 76
     1
 77
     6
 78
     2
 67
     7
 79
     5
170
     0
171
     0
290
     0
174
     0
 93
       13
 44
0.0
173
     0
291
     1
 45
0.0
1001
ACAD
1000
AcDbSavedByObjectVersion
1070
     0
  0
VISUALSTYLE
  5
2D
102
{ACAD_REACTORS
330
2A
102
}
330
2A
100
AcDbVisualStyle
  2
Gouraud
 70
     2
 71
     2
 72
     2
 73
     1
 90
        2
 40
-0.6
 41
30.0
 62
     5
 63
     7
421
 16777215
 74
     0
 91
        4
 64
     7
 65
   257
 75
     1
175
     1
 42
1.0
 92
        0
 66
     7
 43
1.0
 76
     1
 77
     6
 78
     2
 67
     7
 79
     5
170
     0
171
     0
290
     0
174
     0
 93
       13
 44
0.0
173
     0
291
     1
 45
0.0
1001
ACAD
1000
AcDbSavedByObjectVersion
1070
     0
  0
VISUALSTYLE
  5
2E
102
{ACAD_REACTORS
330
2A
102
}
330
2A
100
AcDbVisualStyle
  2
GouraudWithEdges
 70
     3
 71
     2
 72
     2
 73
     1
 90
        2
 40
-0.6
 41
30.0
 62
     5
 63
     7
421
 16777215
 74
     1
 91
        4
 64
     7
 65
   257
 75
     1
175
     1
 42
1.0
 92
        0
 66
   257
 43
1.0
 76
     1
 77
     6
 78
     2
 67
     7
 79
     5
170
     0
171
     0
290
     0
174
     0
 93
       13
 44
0.0
173
     0
291
     1
 45
0.0
1001
ACAD
1000
AcDbSavedByObjectVersion
1070
     0
  0
VISUALSTYLE
  5
38
102
{ACAD_REACTORS
330
2A
102
}
330
2A
100
AcDbVisualStyle
  2
Linepattern
 70
    14
 71
     2
 72
     2
 73
     0
 90
        0
 40
-0.6
 41
-30.0
 62
     5
 63
     7
421
 16777215
 74
     1
 91
        4
 64
     7
 65
   257
 75
     7
175
     7
 42
1.0
 92
        8
 66
     7
 43
1.0
 76
     1
 77
     6
 78
     2
 67
     7
 79
     5
170
     0
171
     0
290
     0
174
     0
 93
        1
 44
0.0
173
     0
291
     1
 45
0.0
1001
ACAD
1000
AcDbSavedByObjectVersion
1070
     0
  0
VISUALSTYLE
  5
33
102
{ACAD_REACTORS
330
2A
102
}
330
2A
100
AcDbVisualStyle
  2
Realistic
 70
     8
 71
     2
 72
     2
 73
     0
 90
        0
 40
-0.6
 41
-30.0
 62
     5
 63
     7
421
 16777215
 74
     1
 91
        0
 64
     7
 65
   257
 75
     1
175
     1
 42
1.0
 92
        8
 66
     8
424
  7895160
 43
1.0
 76
     1
 77
     6
 78
     2
 67
     7
 79
     5
170
     0
171
     0
290
     0
174
     0
 93
       13
 44
0.0
173
     0
291
     0
 45
0.0
1001
ACAD
1000
AcDbSavedByObjectVersion
1070
     0
  0
VISUALSTYLE
  5
37
102
{ACAD_REACTORS
330
2A
102
}
330
2A
100
AcDbVisualStyle
  2
Thicken
 70
    13
 71
     2
 72
     2
 73
     0
 90
        0
 40
-0.6
 41
-30.0
 62
     5
 63
     7
421
 16777215
 74
     1
 91
        4
 64
     7
 65
   257
 75
     1
175
     1
 42
1.0
 92
       12
 66
     7
 43
1.0
 76
     1
 77
     6
 78
     2
 67
     7
 79
     5
170
     0
171
     0
290
     0
174
     0
 93
        1
 44
0.0
173
     0
291
     1
 45
0.0
1001
ACAD
1000
AcDbSavedByObjectVersion
1070
     0
  0
ENDSEC
  0
EOF
