  0
SECTION
  2
HEADER
  9
$ACADVER
  1
AC1018
  9
$ACADMAINTVER
 70
     0
  9
$DWGCODEPAGE
  3
ANSI_932
  9
$INSBASE
 10
0.0
 20
0.0
 30
0.0
  9
$EXTMIN
 10
-2100.0
 20
-1485.0
 30
0.0
  9
$EXTMAX
 10
2100.0
 20
1485.0
 30
0.0
  9
$LIMMIN
 10
-2100.0
 20
-1485.0
  9
$LIMMAX
 10
2100.0
 20
1485.0
  9
$ORTHOMODE
 70
     0
  9
$REGENMODE
 70
     1
  9
$FILLMODE
 70
     1
  9
$QTEXTMODE
 70
     0
  9
$MIRRTEXT
 70
     1
  9
$LTSCALE
 40
10.0
  9
$ATTMODE
 70
     1
  9
$TEXTSIZE
 40
2.5
  9
$TRACEWID
 40
1.0
  9
$TEXTSTYLE
  7
Standard
  9
$CLAYER
  8
0
  9
$CELTYPE
  6
ByLayer
  9
$CECOLOR
 62
   256
  9
$CELTSCALE
 40
1.0
  9
$DISPSILH
 70
     0
  9
$DIMSCALE
 40
1.0
  9
$DIMASZ
 40
2.5
  9
$DIMEXO
 40
0.625
  9
$DIMDLI
 40
3.75
  9
$DIMRND
 40
0.0
  9
$DIMDLE
 40
0.0
  9
$DIMEXE
 40
1.25
  9
$DIMTP
 40
0.0
  9
$DIMTM
 40
0.0
  9
$DIMTXT
 40
2.5
  9
$DIMCEN
 40
2.5
  9
$DIMTSZ
 40
0.0
  9
$DIMTOL
 70
     0
  9
$DIMLIM
 70
     0
  9
$DIMTIH
 70
     0
  9
$DIMTOH
 70
     0
  9
$DIMSE1
 70
     0
  9
$DIMSE2
 70
     0
  9
$DIMTAD
 70
     1
  9
$DIMZIN
 70
     8
  9
$DIMBLK
  1

  9
$DIMASO
 70
     1
  9
$DIMSHO
 70
     1
  9
$DIMPOST
  1

  9
$DIMAPOST
  1

  9
$DIMALT
 70
     0
  9
$DIMALTD
 70
     3
  9
$DIMALTF
 40
0.03937007874016
  9
$DIMLFAC
 40
1.0
  9
$DIMTOFL
 70
     1
  9
$DIMTVP
 40
0.0
  9
$DIMTIX
 70
     0
  9
$DIMSOXD
 70
     0
  9
$DIMSAH
 70
     0
  9
$DIMBLK1
  1

  9
$DIMBLK2
  1

  9
$DIMSTYLE
  2
ISO-25
  9
$DIMCLRD
 70
     0
  9
$DIMCLRE
 70
     0
  9
$DIMCLRT
 70
     0
  9
$DIMTFAC
 40
1.0
  9
$DIMGAP
 40
0.625
  9
$DIMJUST
 70
     0
  9
$DIMSD1
 70
     0
  9
$DIMSD2
 70
     0
  9
$DIMTOLJ
 70
     0
  9
$DIMTZIN
 70
     8
  9
$DIMALTZ
 70
     0
  9
$DIMALTTZ
 70
     0
  9
$DIMUPT
 70
     0
  9
$DIMDEC
 70
     2
  9
$DIMTDEC
 70
     2
  9
$DIMALTU
 70
     2
  9
$DIMALTTD
 70
     3
  9
$DIMTXSTY
  7
Standard
  9
$DIMAUNIT
 70
     0
  9
$DIMADEC
 70
     0
  9
$DIMALTRND
 40
0.0
  9
$DIMAZIN
 70
     0
  9
$DIMDSEP
 70
    44
  9
$DIMATFIT
 70
     3
  9
$DIMFRAC
 70
     0
  9
$DIMLDRBLK
  1

  9
$DIMLUNIT
 70
     2
  9
$DIMLWD
 70
    -2
  9
$DIMLWE
 70
    -2
  9
$DIMTMOVE
 70
     0
  9
$LUNITS
 70
     2
  9
$LUPREC
 70
     4
  9
$SKETCHINC
 40
1.0
  9
$FILLETRAD
 40
10.0
  9
$AUNITS
 70
     0
  9
$AUPREC
 70
     0
  9
$MENU
  1
.
  9
$ELEVATION
 40
0.0
  9
$PELEVATION
 40
0.0
  9
$THICKNESS
 40
0.0
  9
$LIMCHECK
 70
     0
  9
$CHAMFERA
 40
10.0
  9
$CHAMFERB
 40
10.0
  9
$CHAMFERC
 40
20.0
  9
$CHAMFERD
 40
0.0
  9
$SKPOLY
 70
     0
  9
$TDCREATE
 40
2456499.586387697
  9
$TDUCREATE
 40
2456499.211387697
  9
$TDUPDATE
 40
2456499.586387708
  9
$TDUUPDATE
 40
2456499.211387708
  9
$TDINDWG
 40
0.0000000116
  9
$TDUSRTIMER
 40
0.0000000116
  9
$USRTIMER
 70
     1
  9
$ANGBASE
 50
0.0
  9
$ANGDIR
 70
     0
  9
$PDMODE
 70
     0
  9
$PDSIZE
 40
0.0
  9
$PLINEWID
 40
0.0
  9
$SPLFRAME
 70
     0
  9
$SPLINETYPE
 70
     6
  9
$SPLINESEGS
 70
     8
  9
$HANDSEED
  5
2BD
  9
$SURFTAB1
 70
     6
  9
$SURFTAB2
 70
     6
  9
$SURFTYPE
 70
     6
  9
$SURFU
 70
     6
  9
$SURFV
 70
     6
  9
$UCSBASE
  2

  9
$UCSNAME
  2

  9
$UCSORG
 10
0.0
 20
0.0
 30
0.0
  9
$UCSXDIR
 10
1.0
 20
0.0
 30
0.0
  9
$UCSYDIR
 10
0.0
 20
1.0
 30
0.0
  9
$UCSORTHOREF
  2

  9
$UCSORTHOVIEW
 70
     0
  9
$UCSORGTOP
 10
0.0
 20
0.0
 30
0.0
  9
$UCSORGBOTTOM
 10
0.0
 20
0.0
 30
0.0
  9
$UCSORGLEFT
 10
0.0
 20
0.0
 30
0.0
  9
$UCSORGRIGHT
 10
0.0
 20
0.0
 30
0.0
  9
$UCSORGFRONT
 10
0.0
 20
0.0
 30
0.0
  9
$UCSORGBACK
 10
0.0
 20
0.0
 30
0.0
  9
$PUCSBASE
  2

  9
$PUCSNAME
  2

  9
$PUCSORG
 10
0.0
 20
0.0
 30
0.0
  9
$PUCSXDIR
 10
1.0
 20
0.0
 30
0.0
  9
$PUCSYDIR
 10
0.0
 20
1.0
 30
0.0
  9
$PUCSORTHOREF
  2

  9
$PUCSORTHOVIEW
 70
     0
  9
$PUCSORGTOP
 10
0.0
 20
0.0
 30
0.0
  9
$PUCSORGBOTTOM
 10
0.0
 20
0.0
 30
0.0
  9
$PUCSORGLEFT
 10
0.0
 20
0.0
 30
0.0
  9
$PUCSORGRIGHT
 10
0.0
 20
0.0
 30
0.0
  9
$PUCSORGFRONT
 10
0.0
 20
0.0
 30
0.0
  9
$PUCSORGBACK
 10
0.0
 20
0.0
 30
0.0
  9
$USERI1
 70
     0
  9
$USERI2
 70
     0
  9
$USERI3
 70
     0
  9
$USERI4
 70
     0
  9
$USERI5
 70
     0
  9
$USERR1
 40
0.0
  9
$USERR2
 40
0.0
  9
$USERR3
 40
0.0
  9
$USERR4
 40
0.0
  9
$USERR5
 40
0.0
  9
$WORLDVIEW
 70
     1
  9
$SHADEDGE
 70
     3
  9
$SHADEDIF
 70
    70
  9
$TILEMODE
 70
     1
  9
$MAXACTVP
 70
    64
  9
$PINSBASE
 10
0.0
 20
0.0
 30
0.0
  9
$PLIMCHECK
 70
     0
  9
$PEXTMIN
 10
1.000000000000000E+20
 20
1.000000000000000E+20
 30
1.000000000000000E+20
  9
$PEXTMAX
 10
-1.000000000000000E+20
 20
-1.000000000000000E+20
 30
-1.000000000000000E+20
  9
$PLIMMIN
 10
0.0
 20
0.0
  9
$PLIMMAX
 10
420.0
 20
297.0
  9
$UNITMODE
 70
     0
  9
$VISRETAIN
 70
     1
  9
$PLINEGEN
 70
     0
  9
$PSLTSCALE
 70
     1
  9
$TREEDEPTH
 70
  3020
  9
$CMLSTYLE
  2
Standard
  9
$CMLJUST
 70
     0
  9
$CMLSCALE
 40
20.0
  9
$PROXYGRAPHICS
 70
     1
  9
$MEASUREMENT
 70
     1
  9
$CELWEIGHT
370
    -1
  9
$ENDCAPS
280
     0
  9
$JOINSTYLE
280
     0
  9
$LWDISPLAY
290
     0
  9
$INSUNITS
 70
     4
  9
$HYPERLINKBASE
  1

  9
$STYLESHEET
  1

  9
$XEDIT
290
     1
  9
$CEPSNTYPE
380
     0
  9
$PSTYLEMODE
290
     1
  9
$FINGERPRINTGUID
  2
{62C67BD6-FD0D-4052-8520-CD083EA2E04D}
  9
$VERSIONGUID
  2
{FAEB1C32-E019-11D5-929B-00C0DF256EC4}
  9
$EXTNAMES
290
     1
  9
$PSVPSCALE
 40
0.0
  9
$OLESTARTUP
290
     0
  9
$SORTENTS
280
   127
  9
$INDEXCTL
280
     0
  9
$HIDETEXT
280
     1
  9
$XCLIPFRAME
290
     0
  9
$HALOGAP
280
     0
  9
$OBSCOLOR
 70
   257
  9
$OBSLTYPE
280
     0
  9
$INTERSECTIONDISPLAY
280
     0
  9
$INTERSECTIONCOLOR
 70
   257
  9
$DIMASSOC
280
     2
  9
$PROJECTNAME
  1

  0
ENDSEC
  0
SECTION
  2
CLASSES
  0
CLASS
  1
ACDBDICTIONARYWDFLT
  2
AcDbDictionaryWithDefault
  3
ObjectDBX Classes
 90
        0
 91
        4
280
     0
281
     0
  0
CLASS
  1
VISUALSTYLE
  2
AcDbVisualStyle
  3
ObjectDBX Classes
 90
     4095
 91
        4
280
     0
281
     0
  0
ENDSEC
  0
SECTION
  2
TABLES
  0
TABLE
  2
VPORT
  5
8
330
0
100
AcDbSymbolTable
 70
     1
  0
VPORT
  5
29
330
8
100
AcDbSymbolTableRecord
100
AcDbViewportTableRecord
  2
*Active
 70
     0
 10
0.0
 20
0.0
 11
1.0
 21
1.0
 12
0.0
 22
0.0
 13
0.0
 23
0.0
 14
10.0
 24
10.0
 15
10.0
 25
10.0
 16
0.0
 26
0.0
 36
1.0
 17
0.0
 27
0.0
 37
0.0
 40
3267.0
 41
1.414141414141414
 42
50.0
 43
0.0
 44
0.0
 50
0.0
 51
0.0
 71
     0
 72
 10000
 73
     1
 74
     3
 75
     0
 76
     0
 77
     0
 78
     0
281
     0
 65
     1
110
0.0
120
0.0
130
0.0
111
1.0
121
0.0
131
0.0
112
0.0
122
1.0
132
0.0
 79
     0
146
0.0
  0
ENDTAB
  0
TABLE
  2
LTYPE
  5
5
330
0
100
AcDbSymbolTable
 70
     4
  0
LTYPE
  5
14
330
5
100
AcDbSymbolTableRecord
100
AcDbLinetypeTableRecord
  2
ByBlock
 70
     0
  3

 72
    65
 73
     0
 40
0.0
  0
LTYPE
  5
15
330
5
100
AcDbSymbolTableRecord
100
AcDbLinetypeTableRecord
  2
ByLayer
 70
     0
  3

 72
    65
 73
     0
 40
0.0
  0
LTYPE
  5
16
330
5
100
AcDbSymbolTableRecord
100
AcDbLinetypeTableRecord
  2
Continuous
 70
     0
  3
Solid line
 72
    65
 73
     0
 40
0.0
  0
LTYPE
  5
3C
330
5
100
AcDbSymbolTableRecord
100
AcDbLinetypeTableRecord
  2
JWW_DASHED3
 70
     0
  3
---  ------  ------  ------  ---
 72
    65
 73
     2
 40
3.386666666666667
 49
2.54
 74
     0
 49
-0.8466666666666667
 74
     0
  0
LTYPE
  5
3D
330
5
100
AcDbSymbolTableRecord
100
AcDbLinetypeTableRecord
  2
JWW_CENTER1
 70
     0
  3
-----  --  ----------  --  -----
 72
    65
 73
     4
 40
6.773333333333333
 49
4.233333333333333
 74
     0
 49
-0.8466666666666667
 74
     0
 49
0.8466666666666667
 74
     0
 49
-0.8466666666666667
 74
     0
  0
LTYPE
  5
3E
330
5
100
AcDbSymbolTableRecord
100
AcDbLinetypeTableRecord
  2
JWW_CENTER2
 70
     0
  3
-------------  --  -------------
 72
    65
 73
     4
 40
13.54666666666667
 49
11.00666666666667
 74
     0
 49
-0.8466666666666667
 74
     0
 49
0.8466666666666667
 74
     0
 49
-0.8466666666666667
 74
     0
  0
ENDTAB
  0
TABLE
  2
LAYER
  5
2
330
0
100
AcDbSymbolTable
 70
    15
  0
LAYER
  5
10
330
2
100
AcDbSymbolTableRecord
100
AcDbLayerTableRecord
  2
0
 70
     0
 62
     7
  6
Continuous
370
    -3
390
F
  0
LAYER
  5
3F
330
2
100
AcDbSymbolTableRecord
100
AcDbLayerTableRecord
  2
C-2
 70
     0
 62
     7
  6
Continuous
370
    -3
390
F
  0
LAYER
  5
40
330
2
100
AcDbSymbolTableRecord
100
AcDbLayerTableRecord
  2
C-A
 70
     0
 62
     7
  6
Continuous
370
    -3
390
F
  0
LAYER
  5
41
330
2
100
AcDbSymbolTableRecord
100
AcDbLayerTableRecord
  2
C-1
 70
     0
 62
     7
  6
Continuous
370
    -3
390
F
  0
LAYER
  5
42
330
2
100
AcDbSymbolTableRecord
100
AcDbLayerTableRecord
  2
C-4
 70
     0
 62
     7
  6
Continuous
370
    -3
390
F
  0
LAYER
  5
43
330
2
100
AcDbSymbolTableRecord
100
AcDbLayerTableRecord
  2
C-5
 70
     0
 62
     7
  6
Continuous
370
    -3
390
F
  0
LAYER
  5
44
330
2
100
AcDbSymbolTableRecord
100
AcDbLayerTableRecord
  2
C-B
 70
     0
 62
     7
  6
Continuous
370
    -3
390
F
  0
LAYER
  5
45
330
2
100
AcDbSymbolTableRecord
100
AcDbLayerTableRecord
  2
D-A
 70
     0
 62
     7
  6
Continuous
370
    -3
390
F
  0
LAYER
  5
46
330
2
100
AcDbSymbolTableRecord
100
AcDbLayerTableRecord
  2
D-4
 70
     0
 62
     7
  6
Continuous
370
    -3
390
F
  0
LAYER
  5
47
330
2
100
AcDbSymbolTableRecord
100
AcDbLayerTableRecord
  2
D-5
 70
     0
 62
     7
  6
Continuous
370
    -3
390
F
  0
LAYER
  5
48
330
2
100
AcDbSymbolTableRecord
100
AcDbLayerTableRecord
  2
D-6
 70
     0
 62
     7
  6
Continuous
370
    -3
390
F
  0
LAYER
  5
49
330
2
100
AcDbSymbolTableRecord
100
AcDbLayerTableRecord
  2
D-9
 70
     0
 62
     7
  6
Continuous
370
    -3
390
F
  0
LAYER
  5
4A
330
2
100
AcDbSymbolTableRecord
100
AcDbLayerTableRecord
  2
D-1
 70
     0
 62
     7
  6
Continuous
370
    -3
390
F
  0
LAYER
  5
4B
330
2
100
AcDbSymbolTableRecord
100
AcDbLayerTableRecord
  2
D-2
 70
     0
 62
     7
  6
Continuous
370
    -3
390
F
  0
LAYER
  5
4C
330
2
100
AcDbSymbolTableRecord
100
AcDbLayerTableRecord
  2
F-4
 70
     0
 62
     7
  6
Continuous
370
    -3
390
F
  0
ENDTAB
  0
TABLE
  2
STYLE
  5
3
330
0
100
AcDbSymbolTable
 70
     2
  0
STYLE
  5
11
330
3
100
AcDbSymbolTableRecord
100
AcDbTextStyleTableRecord
  2
Standard
 70
     0
 40
0.0
 41
1.0
 50
0.0
 71
     0
 42
2.5
  3
txt
  4

1001
ACAD
1000

1071
        0
  0
STYLE
  5
3B
330
3
100
AcDbSymbolTableRecord
100
AcDbTextStyleTableRecord
  2
ＭＳ ゴシック
 70
     0
 40
1.0
 41
1.0
 50
0.0
 71
     0
 42
10.0
  3

  4

1001
ACAD
1000
MS Gothic
1071
    32817
  0
ENDTAB
  0
TABLE
  2
VIEW
  5
6
330
0
100
AcDbSymbolTable
 70
     0
  0
ENDTAB
  0
TABLE
  2
UCS
  5
7
330
0
100
AcDbSymbolTable
 70
     0
  0
ENDTAB
  0
TABLE
  2
APPID
  5
9
330
0
100
AcDbSymbolTable
 70
     1
  0
APPID
  5
12
330
9
100
AcDbSymbolTableRecord
100
AcDbRegAppTableRecord
  2
ACAD
 70
     0
  0
ENDTAB
  0
TABLE
  2
DIMSTYLE
  5
A
330
0
100
AcDbSymbolTable
 70
     1
100
AcDbDimStyleTable
  0
DIMSTYLE
105
27
330
A
100
AcDbSymbolTableRecord
100
AcDbDimStyleTableRecord
  2
ISO-25
 70
     0
 41
2.5
 42
0.625
 43
3.75
 44
1.25
 73
     0
 74
     0
 77
     1
 78
     8
140
2.5
141
2.5
143
0.03937007874016
147
0.625
171
     3
172
     1
271
     2
272
     2
274
     3
278
    44
283
     0
284
     8
340
11
  0
ENDTAB
  0
TABLE
  2
BLOCK_RECORD
  5
1
330
0
100
AcDbSymbolTable
 70
     1
  0
BLOCK_RECORD
  5
1F
330
1
100
AcDbSymbolTableRecord
100
AcDbBlockTableRecord
  2
*Model_Space
340
22
  0
BLOCK_RECORD
  5
1B
330
1
100
AcDbSymbolTableRecord
100
AcDbBlockTableRecord
  2
*Paper_Space
340
1E
  0
BLOCK_RECORD
  5
23
330
1
100
AcDbSymbolTableRecord
100
AcDbBlockTableRecord
  2
*Paper_Space0
340
26
  0
ENDTAB
  0
ENDSEC
  0
SECTION
  2
BLOCKS
  0
BLOCK
  5
20
330
1F
100
AcDbEntity
  8
0
100
AcDbBlockBegin
  2
*Model_Space
 70
     0
 10
0.0
 20
0.0
 30
0.0
  3
*Model_Space
  1

  0
ENDBLK
  5
21
330
1F
100
AcDbEntity
  8
0
100
AcDbBlockEnd
  0
BLOCK
  5
1C
330
1B
100
AcDbEntity
 67
     1
  8
0
100
AcDbBlockBegin
  2
*Paper_Space
 70
     0
 10
0.0
 20
0.0
 30
0.0
  3
*Paper_Space
  1

  0
ENDBLK
  5
1D
330
1B
100
AcDbEntity
 67
     1
  8
0
100
AcDbBlockEnd
  0
BLOCK
  5
24
330
23
100
AcDbEntity
  8
0
100
AcDbBlockBegin
  2
*Paper_Space0
 70
     0
 10
0.0
 20
0.0
 30
0.0
  3
*Paper_Space0
  1

  0
ENDBLK
  5
25
330
23
100
AcDbEntity
  8
0
100
AcDbBlockEnd
  0
ENDSEC
  0
SECTION
  2
ENTITIES
  0
LINE
  5
4D
330
1F
100
AcDbEntity
  8
C-2
  6
Continuous
 62
     3
370
    13
100
AcDbLine
 10
-516.9590447400062
 20
1057.999432538007
 30
0.0
 11
-516.9590447400062
 21
557.9993912980365
 31
0.0
  0
LINE
  5
4E
330
1F
100
AcDbEntity
  8
C-2
  6
Continuous
 62
     3
370
    13
100
AcDbLine
 10
-516.9590447400062
 20
557.9993912980365
 30
0.0
 11
-1016.958962260066
 21
557.9993912980365
 31
0.0
  0
LINE
  5
4F
330
1F
100
AcDbEntity
  8
C-A
  6
Continuous
 62
     3
370
    13
100
AcDbLine
 10
-1016.958962260066
 20
1043.999287373311
 30
0.0
 11
-516.9590447400062
 21
1043.999287373311
 31
0.0
  0
LINE
  5
50
330
1F
100
AcDbEntity
  8
C-A
  6
Continuous
 62
     3
370
    13
100
AcDbLine
 10
-1016.958962260066
 20
1021.999165302998
 30
0.0
 11
-516.9590447400062
 21
1021.999165302998
 31
0.0
  0
LINE
  5
51
330
1F
100
AcDbEntity
  8
C-A
  6
Continuous
 62
     3
370
    13
100
AcDbLine
 10
-1016.958962260066
 20
993.9993698532519
 30
0.0
 11
-516.9590447400062
 21
993.9993698532519
 31
0.0
  0
LINE
  5
52
330
1F
100
AcDbEntity
  8
C-A
  6
Continuous
 62
     3
370
    13
100
AcDbLine
 10
-1016.958962260066
 20
971.9992477829394
 30
0.0
 11
-516.9590447400062
 21
971.9992477829394
 31
0.0
  0
LINE
  5
53
330
1F
100
AcDbEntity
  8
C-A
  6
Continuous
 62
     3
370
    13
100
AcDbLine
 10
-1016.958962260066
 20
943.9994523331927
 30
0.0
 11
-516.9590447400062
 21
943.9994523331927
 31
0.0
  0
LINE
  5
54
330
1F
100
AcDbEntity
  8
C-A
  6
Continuous
 62
     3
370
    13
100
AcDbLine
 10
-1016.958962260066
 20
921.9993302628802
 30
0.0
 11
-516.9590447400062
 21
921.9993302628802
 31
0.0
  0
LINE
  5
55
330
1F
100
AcDbEntity
  8
C-A
  6
Continuous
 62
     3
370
    13
100
AcDbLine
 10
-1016.958962260066
 20
893.999287373311
 30
0.0
 11
-516.9590447400062
 21
893.999287373311
 31
0.0
  0
LINE
  5
56
330
1F
100
AcDbEntity
  8
C-A
  6
Continuous
 62
     3
370
    13
100
AcDbLine
 10
-1016.958962260066
 20
871.999412742821
 30
0.0
 11
-516.9590447400062
 21
871.999412742821
 31
0.0
  0
LINE
  5
57
330
1F
100
AcDbEntity
  8
C-A
  6
Continuous
 62
     3
370
    13
100
AcDbLine
 10
-1016.958962260066
 20
843.9991224134292
 30
0.0
 11
-516.9590447400062
 21
843.9991224134292
 31
0.0
  0
LINE
  5
58
330
1F
100
AcDbEntity
  8
C-A
  6
Continuous
 62
     3
370
    13
100
AcDbLine
 10
-1016.958962260066
 20
821.9992477829394
 30
0.0
 11
-516.9590447400062
 21
821.9992477829394
 31
0.0
  0
LINE
  5
59
330
1F
100
AcDbEntity
  8
C-A
  6
Continuous
 62
     3
370
    13
100
AcDbLine
 10
-1016.958962260066
 20
793.99920489337
 30
0.0
 11
-516.9590447400062
 21
793.99920489337
 31
0.0
  0
LINE
  5
5A
330
1F
100
AcDbEntity
  8
C-A
  6
Continuous
 62
     3
370
    13
100
AcDbLine
 10
-1016.958962260066
 20
771.9993302628802
 30
0.0
 11
-516.9590447400062
 21
771.9993302628802
 31
0.0
  0
LINE
  5
5B
330
1F
100
AcDbEntity
  8
C-A
  6
Continuous
 62
     3
370
    13
100
AcDbLine
 10
-1016.958962260066
 20
743.999287373311
 30
0.0
 11
-516.9590447400062
 21
743.999287373311
 31
0.0
  0
LINE
  5
5C
330
1F
100
AcDbEntity
  8
C-A
  6
Continuous
 62
     3
370
    13
100
AcDbLine
 10
-1016.958962260066
 20
721.999412742821
 30
0.0
 11
-516.9590447400062
 21
721.999412742821
 31
0.0
  0
LINE
  5
5D
330
1F
100
AcDbEntity
  8
C-A
  6
Continuous
 62
     3
370
    13
100
AcDbLine
 10
-1016.958962260066
 20
693.9991224134292
 30
0.0
 11
-516.9590447400062
 21
693.9991224134292
 31
0.0
  0
LINE
  5
5E
330
1F
100
AcDbEntity
  8
C-A
  6
Continuous
 62
     3
370
    13
100
AcDbLine
 10
-1016.958962260066
 20
671.9992477829394
 30
0.0
 11
-516.9590447400062
 21
671.9992477829394
 31
0.0
  0
LINE
  5
5F
330
1F
100
AcDbEntity
  8
C-A
  6
Continuous
 62
     3
370
    13
100
AcDbLine
 10
-1016.958962260066
 20
643.99920489337
 30
0.0
 11
-516.9590447400062
 21
643.99920489337
 31
0.0
  0
LINE
  5
60
330
1F
100
AcDbEntity
  8
C-A
  6
Continuous
 62
     3
370
    13
100
AcDbLine
 10
-1016.958962260066
 20
621.9993302628802
 30
0.0
 11
-516.9590447400062
 21
621.9993302628802
 31
0.0
  0
LINE
  5
61
330
1F
100
AcDbEntity
  8
C-A
  6
Continuous
 62
     3
370
    13
100
AcDbLine
 10
-1016.958962260066
 20
593.999287373311
 30
0.0
 11
-516.9590447400062
 21
593.999287373311
 31
0.0
  0
LINE
  5
62
330
1F
100
AcDbEntity
  8
C-A
  6
Continuous
 62
     3
370
    13
100
AcDbLine
 10
-1016.958962260066
 20
571.9991653029984
 30
0.0
 11
-516.9590447400062
 21
571.9991653029984
 31
0.0
  0
LINE
  5
63
330
1F
100
AcDbEntity
  8
C-A
  6
Continuous
 62
     3
370
    13
100
AcDbLine
 10
-1016.958962260066
 20
1039.599312447213
 30
0.0
 11
-516.9590447400062
 21
1039.599312447213
 31
0.0
  0
LINE
  5
64
330
1F
100
AcDbEntity
  8
C-A
  6
Continuous
 62
     3
370
    13
100
AcDbLine
 10
-1016.958962260066
 20
1035.199337521115
 30
0.0
 11
-516.9590447400062
 21
1035.199337521115
 31
0.0
  0
LINE
  5
65
330
1F
100
AcDbEntity
  8
C-A
  6
Continuous
 62
     3
370
    13
100
AcDbLine
 10
-1016.958962260066
 20
1030.799362595017
 30
0.0
 11
-516.9590447400062
 21
1030.799362595017
 31
0.0
  0
LINE
  5
66
330
1F
100
AcDbEntity
  8
C-A
  6
Continuous
 62
     3
370
    13
100
AcDbLine
 10
-1016.958962260066
 20
1026.399387668919
 30
0.0
 11
-516.9590447400062
 21
1026.399387668919
 31
0.0
  0
LINE
  5
67
330
1F
100
AcDbEntity
  8
C-A
  6
Continuous
 62
     3
370
    13
100
AcDbLine
 10
-1016.958962260066
 20
989.599394927154
 30
0.0
 11
-516.9590447400062
 21
989.599394927154
 31
0.0
  0
LINE
  5
68
330
1F
100
AcDbEntity
  8
C-A
  6
Continuous
 62
     3
370
    13
100
AcDbLine
 10
-1016.958962260066
 20
985.1991725612334
 30
0.0
 11
-516.9590447400062
 21
985.1991725612334
 31
0.0
  0
LINE
  5
69
330
1F
100
AcDbEntity
  8
C-A
  6
Continuous
 62
     3
370
    13
100
AcDbLine
 10
-1016.958962260066
 20
980.7989501953125
 30
0.0
 11
-516.9590447400062
 21
980.7989501953125
 31
0.0
  0
LINE
  5
6A
330
1F
100
AcDbEntity
  8
C-A
  6
Continuous
 62
     3
370
    13
100
AcDbLine
 10
-1016.958962260066
 20
976.3992227090373
 30
0.0
 11
-516.9590447400062
 21
976.3992227090373
 31
0.0
  0
LINE
  5
6B
330
1F
100
AcDbEntity
  8
C-A
  6
Continuous
 62
     3
370
    13
100
AcDbLine
 10
-1016.958962260066
 20
939.5994774070948
 30
0.0
 11
-516.9590447400062
 21
939.5994774070948
 31
0.0
  0
LINE
  5
6C
330
1F
100
AcDbEntity
  8
C-A
  6
Continuous
 62
     3
370
    13
100
AcDbLine
 10
-1016.958962260066
 20
935.1990076013516
 30
0.0
 11
-516.9590447400062
 21
935.1990076013516
 31
0.0
  0
LINE
  5
6D
330
1F
100
AcDbEntity
  8
C-A
  6
Continuous
 62
     3
370
    13
100
AcDbLine
 10
-1016.958962260066
 20
930.799280115076
 30
0.0
 11
-516.9590447400062
 21
930.799280115076
 31
0.0
  0
LINE
  5
6E
330
1F
100
AcDbEntity
  8
C-A
  6
Continuous
 62
     3
370
    13
100
AcDbLine
 10
-1016.958962260066
 20
926.3990577491554
 30
0.0
 11
-516.9590447400062
 21
926.3990577491554
 31
0.0
  0
LINE
  5
6F
330
1F
100
AcDbEntity
  8
C-A
  6
Continuous
 62
     3
370
    13
100
AcDbLine
 10
-1016.958962260066
 20
889.5990650073904
 30
0.0
 11
-516.9590447400062
 21
889.5990650073904
 31
0.0
  0
LINE
  5
70
330
1F
100
AcDbEntity
  8
C-A
  6
Continuous
 62
     3
370
    13
100
AcDbLine
 10
-1016.958962260066
 20
885.1993375211151
 30
0.0
 11
-516.9590447400062
 21
885.1993375211151
 31
0.0
  0
LINE
  5
71
330
1F
100
AcDbEntity
  8
C-A
  6
Continuous
 62
     3
370
    13
100
AcDbLine
 10
-1016.958962260066
 20
880.7991151551943
 30
0.0
 11
-516.9590447400062
 21
880.7991151551943
 31
0.0
  0
LINE
  5
72
330
1F
100
AcDbEntity
  8
C-A
  6
Continuous
 62
     3
370
    13
100
AcDbLine
 10
-1016.958962260066
 20
876.399387668919
 30
0.0
 11
-516.9590447400062
 21
876.399387668919
 31
0.0
  0
LINE
  5
73
330
1F
100
AcDbEntity
  8
C-A
  6
Continuous
 62
     3
370
    13
100
AcDbLine
 10
-1016.958962260066
 20
839.599394927154
 30
0.0
 11
-516.9590447400062
 21
839.599394927154
 31
0.0
  0
LINE
  5
74
330
1F
100
AcDbEntity
  8
C-A
  6
Continuous
 62
     3
370
    13
100
AcDbLine
 10
-1016.958962260066
 20
835.1991725612334
 30
0.0
 11
-516.9590447400062
 21
835.1991725612334
 31
0.0
  0
LINE
  5
75
330
1F
100
AcDbEntity
  8
C-A
  6
Continuous
 62
     3
370
    13
100
AcDbLine
 10
-1016.958962260066
 20
830.7994450749578
 30
0.0
 11
-516.9590447400062
 21
830.7994450749578
 31
0.0
  0
LINE
  5
76
330
1F
100
AcDbEntity
  8
C-A
  6
Continuous
 62
     3
370
    13
100
AcDbLine
 10
-1016.958962260066
 20
826.3992227090373
 30
0.0
 11
-516.9590447400062
 21
826.3992227090373
 31
0.0
  0
LINE
  5
77
330
1F
100
AcDbEntity
  8
C-A
  6
Continuous
 62
     3
370
    13
100
AcDbLine
 10
-1016.958962260066
 20
789.5992299672721
 30
0.0
 11
-516.9590447400062
 21
789.5992299672721
 31
0.0
  0
LINE
  5
78
330
1F
100
AcDbEntity
  8
C-A
  6
Continuous
 62
     3
370
    13
100
AcDbLine
 10
-1016.958962260066
 20
785.1990076013516
 30
0.0
 11
-516.9590447400062
 21
785.1990076013516
 31
0.0
  0
LINE
  5
79
330
1F
100
AcDbEntity
  8
C-A
  6
Continuous
 62
     3
370
    13
100
AcDbLine
 10
-1016.958962260066
 20
780.7990326752533
 30
0.0
 11
-516.9590447400062
 21
780.7990326752533
 31
0.0
  0
LINE
  5
7A
330
1F
100
AcDbEntity
  8
C-A
  6
Continuous
 62
     3
370
    13
100
AcDbLine
 10
-1016.958962260066
 20
776.3990577491554
 30
0.0
 11
-516.9590447400062
 21
776.3990577491554
 31
0.0
  0
LINE
  5
7B
330
1F
100
AcDbEntity
  8
C-A
  6
Continuous
 62
     3
370
    13
100
AcDbLine
 10
-1016.958962260066
 20
739.5990650073904
 30
0.0
 11
-516.9590447400062
 21
739.5990650073904
 31
0.0
  0
LINE
  5
7C
330
1F
100
AcDbEntity
  8
C-A
  6
Continuous
 62
     3
370
    13
100
AcDbLine
 10
-1016.958962260066
 20
735.1990900812925
 30
0.0
 11
-516.9590447400062
 21
735.1990900812925
 31
0.0
  0
LINE
  5
7D
330
1F
100
AcDbEntity
  8
C-A
  6
Continuous
 62
     3
370
    13
100
AcDbLine
 10
-1016.958962260066
 20
730.7991151551943
 30
0.0
 11
-516.9590447400062
 21
730.7991151551943
 31
0.0
  0
LINE
  5
7E
330
1F
100
AcDbEntity
  8
C-A
  6
Continuous
 62
     3
370
    13
100
AcDbLine
 10
-1016.958962260066
 20
726.3991402290964
 30
0.0
 11
-516.9590447400062
 21
726.3991402290964
 31
0.0
  0
LINE
  5
7F
330
1F
100
AcDbEntity
  8
C-A
  6
Continuous
 62
     3
370
    13
100
AcDbLine
 10
-1016.958962260066
 20
689.5991474873313
 30
0.0
 11
-516.9590447400062
 21
689.5991474873313
 31
0.0
  0
LINE
  5
80
330
1F
100
AcDbEntity
  8
C-A
  6
Continuous
 62
     3
370
    13
100
AcDbLine
 10
-1016.958962260066
 20
685.1991725612334
 30
0.0
 11
-516.9590447400062
 21
685.1991725612334
 31
0.0
  0
LINE
  5
81
330
1F
100
AcDbEntity
  8
C-A
  6
Continuous
 62
     3
370
    13
100
AcDbLine
 10
-1016.958962260066
 20
680.7991976351352
 30
0.0
 11
-516.9590447400062
 21
680.7991976351352
 31
0.0
  0
LINE
  5
82
330
1F
100
AcDbEntity
  8
C-A
  6
Continuous
 62
     3
370
    13
100
AcDbLine
 10
-1016.958962260066
 20
676.3992227090373
 30
0.0
 11
-516.9590447400062
 21
676.3992227090373
 31
0.0
  0
LINE
  5
83
330
1F
100
AcDbEntity
  8
C-A
  6
Continuous
 62
     3
370
    13
100
AcDbLine
 10
-1016.958962260066
 20
639.5992299672721
 30
0.0
 11
-516.9590447400062
 21
639.5992299672721
 31
0.0
  0
LINE
  5
84
330
1F
100
AcDbEntity
  8
C-A
  6
Continuous
 62
     3
370
    13
100
AcDbLine
 10
-1016.958962260066
 20
635.1992550411742
 30
0.0
 11
-516.9590447400062
 21
635.1992550411742
 31
0.0
  0
LINE
  5
85
330
1F
100
AcDbEntity
  8
C-A
  6
Continuous
 62
     3
370
    13
100
AcDbLine
 10
-1016.958962260066
 20
630.7990326752533
 30
0.0
 11
-516.9590447400062
 21
630.7990326752533
 31
0.0
  0
LINE
  5
86
330
1F
100
AcDbEntity
  8
C-A
  6
Continuous
 62
     3
370
    13
100
AcDbLine
 10
-1016.958962260066
 20
626.3990577491554
 30
0.0
 11
-516.9590447400062
 21
626.3990577491554
 31
0.0
  0
LINE
  5
87
330
1F
100
AcDbEntity
  8
C-A
  6
Continuous
 62
     3
370
    13
100
AcDbLine
 10
-1016.958962260066
 20
589.5991887273016
 30
0.0
 11
-516.9590447400062
 21
589.5991887273016
 31
0.0
  0
LINE
  5
88
330
1F
100
AcDbEntity
  8
C-A
  6
Continuous
 62
     3
370
    13
100
AcDbLine
 10
-1016.958962260066
 20
585.1992138012037
 30
0.0
 11
-516.9590447400062
 21
585.1992138012037
 31
0.0
  0
LINE
  5
89
330
1F
100
AcDbEntity
  8
C-A
  6
Continuous
 62
     3
370
    13
100
AcDbLine
 10
-1016.958962260066
 20
580.7991151551943
 30
0.0
 11
-516.9590447400062
 21
580.7991151551943
 31
0.0
  0
LINE
  5
8A
330
1F
100
AcDbEntity
  8
C-A
  6
Continuous
 62
     3
370
    13
100
AcDbLine
 10
-1016.958962260066
 20
576.3991402290964
 30
0.0
 11
-516.9590447400062
 21
576.3991402290964
 31
0.0
  0
LINE
  5
8B
330
1F
100
AcDbEntity
  8
C-A
  6
Continuous
 62
     3
370
    13
100
AcDbLine
 10
-983.958902874508
 20
1010.998733108108
 30
0.0
 11
-949.9591866055048
 21
1010.998733108108
 31
0.0
  0
LINE
  5
8C
330
1F
100
AcDbEntity
  8
C-A
  6
Continuous
 62
     3
370
    13
100
AcDbLine
 10
-983.958902874508
 20
1004.999802048142
 30
0.0
 11
-949.9591866055048
 21
1004.999802048142
 31
0.0
  0
LINE
  5
8D
330
1F
100
AcDbEntity
  8
C-A
  6
Continuous
 62
     3
370
    13
100
AcDbLine
 10
-903.9588863785198
 20
1010.998733108108
 30
0.0
 11
-869.9587989497826
 21
1010.998733108108
 31
0.0
  0
LINE
  5
8E
330
1F
100
AcDbEntity
  8
C-A
  6
Continuous
 62
     3
370
    13
100
AcDbLine
 10
-903.9588863785198
 20
1004.999802048142
 30
0.0
 11
-869.9587989497826
 21
1004.999802048142
 31
0.0
  0
LINE
  5
8F
330
1F
100
AcDbEntity
  8
C-A
  6
Continuous
 62
     3
370
    13
100
AcDbLine
 10
-823.9594884820883
 20
1010.998733108108
 30
0.0
 11
-789.9594010533509
 21
1010.998733108108
 31
0.0
  0
LINE
  5
90
330
1F
100
AcDbEntity
  8
C-A
  6
Continuous
 62
     3
370
    13
100
AcDbLine
 10
-823.9594884820883
 20
1004.999802048142
 30
0.0
 11
-789.9594010533509
 21
1004.999802048142
 31
0.0
  0
LINE
  5
91
330
1F
100
AcDbEntity
  8
C-A
  6
Continuous
 62
     3
370
    13
100
AcDbLine
 10
-743.9591008263662
 20
1010.998733108108
 30
0.0
 11
-709.9590133976287
 21
1010.998733108108
 31
0.0
  0
LINE
  5
92
330
1F
100
AcDbEntity
  8
C-A
  6
Continuous
 62
     3
370
    13
100
AcDbLine
 10
-743.9591008263662
 20
1004.999802048142
 30
0.0
 11
-709.9590133976287
 21
1004.999802048142
 31
0.0
  0
LINE
  5
93
330
1F
100
AcDbEntity
  8
C-A
  6
Continuous
 62
     3
370
    13
100
AcDbLine
 10
-663.958713170644
 20
1010.998733108108
 30
0.0
 11
-629.9586257419065
 21
1010.998733108108
 31
0.0
  0
LINE
  5
94
330
1F
100
AcDbEntity
  8
C-A
  6
Continuous
 62
     3
370
    13
100
AcDbLine
 10
-663.958713170644
 20
1004.999802048142
 30
0.0
 11
-629.9586257419065
 21
1004.999802048142
 31
0.0
  0
LINE
  5
95
330
1F
100
AcDbEntity
  8
C-A
  6
Continuous
 62
     3
370
    13
100
AcDbLine
 10
-583.9593152742125
 20
1010.998733108108
 30
0.0
 11
-549.9593515653864
 21
1010.998733108108
 31
0.0
  0
LINE
  5
96
330
1F
100
AcDbEntity
  8
C-A
  6
Continuous
 62
     3
370
    13
100
AcDbLine
 10
-583.9593152742125
 20
1004.999802048142
 30
0.0
 11
-549.9593515653864
 21
1004.999802048142
 31
0.0
  0
LINE
  5
97
330
1F
100
AcDbEntity
  8
C-A
  6
Continuous
 62
     3
370
    13
100
AcDbLine
 10
-983.958902874508
 20
960.9988155880492
 30
0.0
 11
-949.9591866055048
 21
960.9988155880492
 31
0.0
  0
LINE
  5
98
330
1F
100
AcDbEntity
  8
C-A
  6
Continuous
 62
     3
370
    13
100
AcDbLine
 10
-983.958902874508
 20
954.9996370882602
 30
0.0
 11
-949.9591866055048
 21
954.9996370882602
 31
0.0
  0
LINE
  5
99
330
1F
100
AcDbEntity
  8
C-A
  6
Continuous
 62
     3
370
    13
100
AcDbLine
 10
-903.9588863785198
 20
960.9988155880492
 30
0.0
 11
-869.9587989497826
 21
960.9988155880492
 31
0.0
  0
LINE
  5
9A
330
1F
100
AcDbEntity
  8
C-A
  6
Continuous
 62
     3
370
    13
100
AcDbLine
 10
-903.9588863785198
 20
954.9996370882602
 30
0.0
 11
-869.9587989497826
 21
954.9996370882602
 31
0.0
  0
LINE
  5
9B
330
1F
100
AcDbEntity
  8
C-A
  6
Continuous
 62
     3
370
    13
100
AcDbLine
 10
-823.9594884820883
 20
960.9988155880492
 30
0.0
 11
-789.9594010533509
 21
960.9988155880492
 31
0.0
  0
LINE
  5
9C
330
1F
100
AcDbEntity
  8
C-A
  6
Continuous
 62
     3
370
    13
100
AcDbLine
 10
-823.9594884820883
 20
954.9996370882602
 30
0.0
 11
-789.9594010533509
 21
954.9996370882602
 31
0.0
  0
LINE
  5
9D
330
1F
100
AcDbEntity
  8
C-A
  6
Continuous
 62
     3
370
    13
100
AcDbLine
 10
-743.9591008263662
 20
960.9988155880492
 30
0.0
 11
-709.9590133976287
 21
960.9988155880492
 31
0.0
  0
LINE
  5
9E
330
1F
100
AcDbEntity
  8
C-A
  6
Continuous
 62
     3
370
    13
100
AcDbLine
 10
-743.9591008263662
 20
954.9996370882602
 30
0.0
 11
-709.9590133976287
 21
954.9996370882602
 31
0.0
  0
LINE
  5
9F
330
1F
100
AcDbEntity
  8
C-A
  6
Continuous
 62
     3
370
    13
100
AcDbLine
 10
-663.958713170644
 20
960.9988155880492
 30
0.0
 11
-629.9586257419065
 21
960.9988155880492
 31
0.0
  0
LINE
  5
A0
330
1F
100
AcDbEntity
  8
C-A
  6
Continuous
 62
     3
370
    13
100
AcDbLine
 10
-663.958713170644
 20
954.9996370882602
 30
0.0
 11
-629.9586257419065
 21
954.9996370882602
 31
0.0
  0
LINE
  5
A1
330
1F
100
AcDbEntity
  8
C-A
  6
Continuous
 62
     3
370
    13
100
AcDbLine
 10
-583.9593152742125
 20
960.9988155880492
 30
0.0
 11
-549.9593515653864
 21
960.9988155880492
 31
0.0
  0
LINE
  5
A2
330
1F
100
AcDbEntity
  8
C-A
  6
Continuous
 62
     3
370
    13
100
AcDbLine
 10
-583.9593152742125
 20
954.9996370882602
 30
0.0
 11
-549.9593515653864
 21
954.9996370882602
 31
0.0
  0
LINE
  5
A3
330
1F
100
AcDbEntity
  8
C-A
  6
Continuous
 62
     3
370
    13
100
AcDbLine
 10
-983.958902874508
 20
910.9988980679901
 30
0.0
 11
-949.9591866055048
 21
910.9988980679901
 31
0.0
  0
LINE
  5
A4
330
1F
100
AcDbEntity
  8
C-A
  6
Continuous
 62
     3
370
    13
100
AcDbLine
 10
-983.958902874508
 20
904.999719568201
 30
0.0
 11
-949.9591866055048
 21
904.999719568201
 31
0.0
  0
LINE
  5
A5
330
1F
100
AcDbEntity
  8
C-A
  6
Continuous
 62
     3
370
    13
100
AcDbLine
 10
-903.9588863785198
 20
910.9988980679901
 30
0.0
 11
-869.9587989497826
 21
910.9988980679901
 31
0.0
  0
LINE
  5
A6
330
1F
100
AcDbEntity
  8
C-A
  6
Continuous
 62
     3
370
    13
100
AcDbLine
 10
-903.9588863785198
 20
904.999719568201
 30
0.0
 11
-869.9587989497826
 21
904.999719568201
 31
0.0
  0
LINE
  5
A7
330
1F
100
AcDbEntity
  8
C-A
  6
Continuous
 62
     3
370
    13
100
AcDbLine
 10
-823.9594884820883
 20
910.9988980679901
 30
0.0
 11
-789.9594010533509
 21
910.9988980679901
 31
0.0
  0
LINE
  5
A8
330
1F
100
AcDbEntity
  8
C-A
  6
Continuous
 62
     3
370
    13
100
AcDbLine
 10
-823.9594884820883
 20
904.999719568201
 30
0.0
 11
-789.9594010533509
 21
904.999719568201
 31
0.0
  0
LINE
  5
A9
330
1F
100
AcDbEntity
  8
C-A
  6
Continuous
 62
     3
370
    13
100
AcDbLine
 10
-743.9591008263662
 20
910.9988980679901
 30
0.0
 11
-709.9590133976287
 21
910.9988980679901
 31
0.0
  0
LINE
  5
AA
330
1F
100
AcDbEntity
  8
C-A
  6
Continuous
 62
     3
370
    13
100
AcDbLine
 10
-743.9591008263662
 20
904.999719568201
 30
0.0
 11
-709.9590133976287
 21
904.999719568201
 31
0.0
  0
LINE
  5
AB
330
1F
100
AcDbEntity
  8
C-A
  6
Continuous
 62
     3
370
    13
100
AcDbLine
 10
-663.958713170644
 20
910.9988980679901
 30
0.0
 11
-629.9586257419065
 21
910.9988980679901
 31
0.0
  0
LINE
  5
AC
330
1F
100
AcDbEntity
  8
C-A
  6
Continuous
 62
     3
370
    13
100
AcDbLine
 10
-663.958713170644
 20
904.999719568201
 30
0.0
 11
-629.9586257419065
 21
904.999719568201
 31
0.0
  0
LINE
  5
AD
330
1F
100
AcDbEntity
  8
C-A
  6
Continuous
 62
     3
370
    13
100
AcDbLine
 10
-583.9593152742125
 20
910.9988980679901
 30
0.0
 11
-549.9593515653864
 21
910.9988980679901
 31
0.0
  0
LINE
  5
AE
330
1F
100
AcDbEntity
  8
C-A
  6
Continuous
 62
     3
370
    13
100
AcDbLine
 10
-583.9593152742125
 20
904.999719568201
 30
0.0
 11
-549.9593515653864
 21
904.999719568201
 31
0.0
  0
LINE
  5
AF
330
1F
100
AcDbEntity
  8
C-A
  6
Continuous
 62
     3
370
    13
100
AcDbLine
 10
-983.958902874508
 20
860.9987331081084
 30
0.0
 11
-949.9591866055048
 21
860.9987331081084
 31
0.0
  0
LINE
  5
B0
330
1F
100
AcDbEntity
  8
C-A
  6
Continuous
 62
     3
370
    13
100
AcDbLine
 10
-983.958902874508
 20
854.9998020481419
 30
0.0
 11
-949.9591866055048
 21
854.9998020481419
 31
0.0
  0
LINE
  5
B1
330
1F
100
AcDbEntity
  8
C-A
  6
Continuous
 62
     3
370
    13
100
AcDbLine
 10
-903.9588863785198
 20
860.9987331081084
 30
0.0
 11
-869.9587989497826
 21
860.9987331081084
 31
0.0
  0
LINE
  5
B2
330
1F
100
AcDbEntity
  8
C-A
  6
Continuous
 62
     3
370
    13
100
AcDbLine
 10
-903.9588863785198
 20
854.9998020481419
 30
0.0
 11
-869.9587989497826
 21
854.9998020481419
 31
0.0
  0
LINE
  5
B3
330
1F
100
AcDbEntity
  8
C-A
  6
Continuous
 62
     3
370
    13
100
AcDbLine
 10
-823.9594884820883
 20
860.9987331081084
 30
0.0
 11
-789.9594010533509
 21
860.9987331081084
 31
0.0
  0
LINE
  5
B4
330
1F
100
AcDbEntity
  8
C-A
  6
Continuous
 62
     3
370
    13
100
AcDbLine
 10
-823.9594884820883
 20
854.9998020481419
 30
0.0
 11
-789.9594010533509
 21
854.9998020481419
 31
0.0
  0
LINE
  5
B5
330
1F
100
AcDbEntity
  8
C-A
  6
Continuous
 62
     3
370
    13
100
AcDbLine
 10
-743.9591008263662
 20
860.9987331081084
 30
0.0
 11
-709.9590133976287
 21
860.9987331081084
 31
0.0
  0
LINE
  5
B6
330
1F
100
AcDbEntity
  8
C-A
  6
Continuous
 62
     3
370
    13
100
AcDbLine
 10
-743.9591008263662
 20
854.9998020481419
 30
0.0
 11
-709.9590133976287
 21
854.9998020481419
 31
0.0
  0
LINE
  5
B7
330
1F
100
AcDbEntity
  8
C-A
  6
Continuous
 62
     3
370
    13
100
AcDbLine
 10
-663.958713170644
 20
860.9987331081084
 30
0.0
 11
-629.9586257419065
 21
860.9987331081084
 31
0.0
  0
LINE
  5
B8
330
1F
100
AcDbEntity
  8
C-A
  6
Continuous
 62
     3
370
    13
100
AcDbLine
 10
-663.958713170644
 20
854.9998020481419
 30
0.0
 11
-629.9586257419065
 21
854.9998020481419
 31
0.0
  0
LINE
  5
B9
330
1F
100
AcDbEntity
  8
C-A
  6
Continuous
 62
     3
370
    13
100
AcDbLine
 10
-583.9593152742125
 20
860.9987331081084
 30
0.0
 11
-549.9593515653864
 21
860.9987331081084
 31
0.0
  0
LINE
  5
BA
330
1F
100
AcDbEntity
  8
C-A
  6
Continuous
 62
     3
370
    13
100
AcDbLine
 10
-583.9593152742125
 20
854.9998020481419
 30
0.0
 11
-549.9593515653864
 21
854.9998020481419
 31
0.0
  0
LINE
  5
BB
330
1F
100
AcDbEntity
  8
C-A
  6
Continuous
 62
     3
370
    13
100
AcDbLine
 10
-983.958902874508
 20
810.9988155880492
 30
0.0
 11
-949.9591866055048
 21
810.9988155880492
 31
0.0
  0
LINE
  5
BC
330
1F
100
AcDbEntity
  8
C-A
  6
Continuous
 62
     3
370
    13
100
AcDbLine
 10
-983.958902874508
 20
804.9998845280828
 30
0.0
 11
-949.9591866055048
 21
804.9998845280828
 31
0.0
  0
LINE
  5
BD
330
1F
100
AcDbEntity
  8
C-A
  6
Continuous
 62
     3
370
    13
100
AcDbLine
 10
-903.9588863785198
 20
810.9988155880492
 30
0.0
 11
-869.9587989497826
 21
810.9988155880492
 31
0.0
  0
LINE
  5
BE
330
1F
100
AcDbEntity
  8
C-A
  6
Continuous
 62
     3
370
    13
100
AcDbLine
 10
-903.9588863785198
 20
804.9998845280828
 30
0.0
 11
-869.9587989497826
 21
804.9998845280828
 31
0.0
  0
LINE
  5
BF
330
1F
100
AcDbEntity
  8
C-A
  6
Continuous
 62
     3
370
    13
100
AcDbLine
 10
-823.9594884820883
 20
810.9988155880492
 30
0.0
 11
-789.9594010533509
 21
810.9988155880492
 31
0.0
  0
LINE
  5
C0
330
1F
100
AcDbEntity
  8
C-A
  6
Continuous
 62
     3
370
    13
100
AcDbLine
 10
-823.9594884820883
 20
804.9998845280828
 30
0.0
 11
-789.9594010533509
 21
804.9998845280828
 31
0.0
  0
LINE
  5
C1
330
1F
100
AcDbEntity
  8
C-A
  6
Continuous
 62
     3
370
    13
100
AcDbLine
 10
-743.9591008263662
 20
810.9988155880492
 30
0.0
 11
-709.9590133976287
 21
810.9988155880492
 31
0.0
  0
LINE
  5
C2
330
1F
100
AcDbEntity
  8
C-A
  6
Continuous
 62
     3
370
    13
100
AcDbLine
 10
-743.9591008263662
 20
804.9998845280828
 30
0.0
 11
-709.9590133976287
 21
804.9998845280828
 31
0.0
  0
LINE
  5
C3
330
1F
100
AcDbEntity
  8
C-A
  6
Continuous
 62
     3
370
    13
100
AcDbLine
 10
-663.958713170644
 20
810.9988155880492
 30
0.0
 11
-629.9586257419065
 21
810.9988155880492
 31
0.0
  0
LINE
  5
C4
330
1F
100
AcDbEntity
  8
C-A
  6
Continuous
 62
     3
370
    13
100
AcDbLine
 10
-663.958713170644
 20
804.9998845280828
 30
0.0
 11
-629.9586257419065
 21
804.9998845280828
 31
0.0
  0
LINE
  5
C5
330
1F
100
AcDbEntity
  8
C-A
  6
Continuous
 62
     3
370
    13
100
AcDbLine
 10
-583.9593152742125
 20
810.9988155880492
 30
0.0
 11
-549.9593515653864
 21
810.9988155880492
 31
0.0
  0
LINE
  5
C6
330
1F
100
AcDbEntity
  8
C-A
  6
Continuous
 62
     3
370
    13
100
AcDbLine
 10
-583.9593152742125
 20
804.9998845280828
 30
0.0
 11
-549.9593515653864
 21
804.9998845280828
 31
0.0
  0
LINE
  5
C7
330
1F
100
AcDbEntity
  8
C-A
  6
Continuous
 62
     3
370
    13
100
AcDbLine
 10
-983.958902874508
 20
760.9988980679901
 30
0.0
 11
-949.9591866055048
 21
760.9988980679901
 31
0.0
  0
LINE
  5
C8
330
1F
100
AcDbEntity
  8
C-A
  6
Continuous
 62
     3
370
    13
100
AcDbLine
 10
-983.958902874508
 20
754.9994721283783
 30
0.0
 11
-949.9591866055048
 21
754.9994721283783
 31
0.0
  0
LINE
  5
C9
330
1F
100
AcDbEntity
  8
C-A
  6
Continuous
 62
     3
370
    13
100
AcDbLine
 10
-903.9588863785198
 20
760.9988980679901
 30
0.0
 11
-869.9587989497826
 21
760.9988980679901
 31
0.0
  0
LINE
  5
CA
330
1F
100
AcDbEntity
  8
C-A
  6
Continuous
 62
     3
370
    13
100
AcDbLine
 10
-903.9588863785198
 20
754.9994721283783
 30
0.0
 11
-869.9587989497826
 21
754.9994721283783
 31
0.0
  0
LINE
  5
CB
330
1F
100
AcDbEntity
  8
C-A
  6
Continuous
 62
     3
370
    13
100
AcDbLine
 10
-823.9594884820883
 20
760.9988980679901
 30
0.0
 11
-789.9594010533509
 21
760.9988980679901
 31
0.0
  0
LINE
  5
CC
330
1F
100
AcDbEntity
  8
C-A
  6
Continuous
 62
     3
370
    13
100
AcDbLine
 10
-823.9594884820883
 20
754.9994721283783
 30
0.0
 11
-789.9594010533509
 21
754.9994721283783
 31
0.0
  0
LINE
  5
CD
330
1F
100
AcDbEntity
  8
C-A
  6
Continuous
 62
     3
370
    13
100
AcDbLine
 10
-743.9591008263662
 20
760.9988980679901
 30
0.0
 11
-709.9590133976287
 21
760.9988980679901
 31
0.0
  0
LINE
  5
CE
330
1F
100
AcDbEntity
  8
C-A
  6
Continuous
 62
     3
370
    13
100
AcDbLine
 10
-743.9591008263662
 20
754.9994721283783
 30
0.0
 11
-709.9590133976287
 21
754.9994721283783
 31
0.0
  0
LINE
  5
CF
330
1F
100
AcDbEntity
  8
C-A
  6
Continuous
 62
     3
370
    13
100
AcDbLine
 10
-663.958713170644
 20
760.9988980679901
 30
0.0
 11
-629.9586257419065
 21
760.9988980679901
 31
0.0
  0
LINE
  5
D0
330
1F
100
AcDbEntity
  8
C-A
  6
Continuous
 62
     3
370
    13
100
AcDbLine
 10
-663.958713170644
 20
754.9994721283783
 30
0.0
 11
-629.9586257419065
 21
754.9994721283783
 31
0.0
  0
LINE
  5
D1
330
1F
100
AcDbEntity
  8
C-A
  6
Continuous
 62
     3
370
    13
100
AcDbLine
 10
-583.9593152742125
 20
760.9988980679901
 30
0.0
 11
-549.9593515653864
 21
760.9988980679901
 31
0.0
  0
LINE
  5
D2
330
1F
100
AcDbEntity
  8
C-A
  6
Continuous
 62
     3
370
    13
100
AcDbLine
 10
-583.9593152742125
 20
754.9994721283783
 30
0.0
 11
-549.9593515653864
 21
754.9994721283783
 31
0.0
  0
LINE
  5
D3
330
1F
100
AcDbEntity
  8
C-A
  6
Continuous
 62
     3
370
    13
100
AcDbLine
 10
-983.958902874508
 20
710.9989805479307
 30
0.0
 11
-949.9591866055048
 21
710.9989805479307
 31
0.0
  0
LINE
  5
D4
330
1F
100
AcDbEntity
  8
C-A
  6
Continuous
 62
     3
370
    13
100
AcDbLine
 10
-983.958902874508
 20
704.9998020481419
 30
0.0
 11
-949.9591866055048
 21
704.9998020481419
 31
0.0
  0
LINE
  5
D5
330
1F
100
AcDbEntity
  8
C-A
  6
Continuous
 62
     3
370
    13
100
AcDbLine
 10
-903.9588863785198
 20
710.9989805479307
 30
0.0
 11
-869.9587989497826
 21
710.9989805479307
 31
0.0
  0
LINE
  5
D6
330
1F
100
AcDbEntity
  8
C-A
  6
Continuous
 62
     3
370
    13
100
AcDbLine
 10
-903.9588863785198
 20
704.9998020481419
 30
0.0
 11
-869.9587989497826
 21
704.9998020481419
 31
0.0
  0
LINE
  5
D7
330
1F
100
AcDbEntity
  8
C-A
  6
Continuous
 62
     3
370
    13
100
AcDbLine
 10
-823.9594884820883
 20
710.9989805479307
 30
0.0
 11
-789.9594010533509
 21
710.9989805479307
 31
0.0
  0
LINE
  5
D8
330
1F
100
AcDbEntity
  8
C-A
  6
Continuous
 62
     3
370
    13
100
AcDbLine
 10
-823.9594884820883
 20
704.9998020481419
 30
0.0
 11
-789.9594010533509
 21
704.9998020481419
 31
0.0
  0
LINE
  5
D9
330
1F
100
AcDbEntity
  8
C-A
  6
Continuous
 62
     3
370
    13
100
AcDbLine
 10
-743.9591008263662
 20
710.9989805479307
 30
0.0
 11
-709.9590133976287
 21
710.9989805479307
 31
0.0
  0
LINE
  5
DA
330
1F
100
AcDbEntity
  8
C-A
  6
Continuous
 62
     3
370
    13
100
AcDbLine
 10
-743.9591008263662
 20
704.9998020481419
 30
0.0
 11
-709.9590133976287
 21
704.9998020481419
 31
0.0
  0
LINE
  5
DB
330
1F
100
AcDbEntity
  8
C-A
  6
Continuous
 62
     3
370
    13
100
AcDbLine
 10
-663.958713170644
 20
710.9989805479307
 30
0.0
 11
-629.9586257419065
 21
710.9989805479307
 31
0.0
  0
LINE
  5
DC
330
1F
100
AcDbEntity
  8
C-A
  6
Continuous
 62
     3
370
    13
100
AcDbLine
 10
-663.958713170644
 20
704.9998020481419
 30
0.0
 11
-629.9586257419065
 21
704.9998020481419
 31
0.0
  0
LINE
  5
DD
330
1F
100
AcDbEntity
  8
C-A
  6
Continuous
 62
     3
370
    13
100
AcDbLine
 10
-583.9593152742125
 20
710.9989805479307
 30
0.0
 11
-549.9593515653864
 21
710.9989805479307
 31
0.0
  0
LINE
  5
DE
330
1F
100
AcDbEntity
  8
C-A
  6
Continuous
 62
     3
370
    13
100
AcDbLine
 10
-583.9593152742125
 20
704.9998020481419
 30
0.0
 11
-549.9593515653864
 21
704.9998020481419
 31
0.0
  0
LINE
  5
DF
330
1F
100
AcDbEntity
  8
C-A
  6
Continuous
 62
     3
370
    13
100
AcDbLine
 10
-983.958902874508
 20
660.9990630278717
 30
0.0
 11
-949.9591866055048
 21
660.9990630278717
 31
0.0
  0
LINE
  5
E0
330
1F
100
AcDbEntity
  8
C-A
  6
Continuous
 62
     3
370
    13
100
AcDbLine
 10
-983.958902874508
 20
654.9996370882602
 30
0.0
 11
-949.9591866055048
 21
654.9996370882602
 31
0.0
  0
LINE
  5
E1
330
1F
100
AcDbEntity
  8
C-A
  6
Continuous
 62
     3
370
    13
100
AcDbLine
 10
-903.9588863785198
 20
660.9990630278717
 30
0.0
 11
-869.9587989497826
 21
660.9990630278717
 31
0.0
  0
LINE
  5
E2
330
1F
100
AcDbEntity
  8
C-A
  6
Continuous
 62
     3
370
    13
100
AcDbLine
 10
-903.9588863785198
 20
654.9996370882602
 30
0.0
 11
-869.9587989497826
 21
654.9996370882602
 31
0.0
  0
LINE
  5
E3
330
1F
100
AcDbEntity
  8
C-A
  6
Continuous
 62
     3
370
    13
100
AcDbLine
 10
-823.9594884820883
 20
660.9990630278717
 30
0.0
 11
-789.9594010533509
 21
660.9990630278717
 31
0.0
  0
LINE
  5
E4
330
1F
100
AcDbEntity
  8
C-A
  6
Continuous
 62
     3
370
    13
100
AcDbLine
 10
-823.9594884820883
 20
654.9996370882602
 30
0.0
 11
-789.9594010533509
 21
654.9996370882602
 31
0.0
  0
LINE
  5
E5
330
1F
100
AcDbEntity
  8
C-A
  6
Continuous
 62
     3
370
    13
100
AcDbLine
 10
-743.9591008263662
 20
660.9990630278717
 30
0.0
 11
-709.9590133976287
 21
660.9990630278717
 31
0.0
  0
LINE
  5
E6
330
1F
100
AcDbEntity
  8
C-A
  6
Continuous
 62
     3
370
    13
100
AcDbLine
 10
-743.9591008263662
 20
654.9996370882602
 30
0.0
 11
-709.9590133976287
 21
654.9996370882602
 31
0.0
  0
LINE
  5
E7
330
1F
100
AcDbEntity
  8
C-A
  6
Continuous
 62
     3
370
    13
100
AcDbLine
 10
-663.958713170644
 20
660.9990630278717
 30
0.0
 11
-629.9586257419065
 21
660.9990630278717
 31
0.0
  0
LINE
  5
E8
330
1F
100
AcDbEntity
  8
C-A
  6
Continuous
 62
     3
370
    13
100
AcDbLine
 10
-663.958713170644
 20
654.9996370882602
 30
0.0
 11
-629.9586257419065
 21
654.9996370882602
 31
0.0
  0
LINE
  5
E9
330
1F
100
AcDbEntity
  8
C-A
  6
Continuous
 62
     3
370
    13
100
AcDbLine
 10
-583.9593152742125
 20
660.9990630278717
 30
0.0
 11
-549.9593515653864
 21
660.9990630278717
 31
0.0
  0
LINE
  5
EA
330
1F
100
AcDbEntity
  8
C-A
  6
Continuous
 62
     3
370
    13
100
AcDbLine
 10
-583.9593152742125
 20
654.9996370882602
 30
0.0
 11
-549.9593515653864
 21
654.9996370882602
 31
0.0
  0
LINE
  5
EB
330
1F
100
AcDbEntity
  8
C-A
  6
Continuous
 62
     3
370
    13
100
AcDbLine
 10
-983.958902874508
 20
610.9988980679898
 30
0.0
 11
-949.9591866055048
 21
610.9988980679898
 31
0.0
  0
LINE
  5
EC
330
1F
100
AcDbEntity
  8
C-A
  6
Continuous
 62
     3
370
    13
100
AcDbLine
 10
-983.958902874508
 20
604.9999670080238
 30
0.0
 11
-949.9591866055048
 21
604.9999670080238
 31
0.0
  0
LINE
  5
ED
330
1F
100
AcDbEntity
  8
C-A
  6
Continuous
 62
     3
370
    13
100
AcDbLine
 10
-903.9588863785198
 20
610.9988980679898
 30
0.0
 11
-869.9587989497826
 21
610.9988980679898
 31
0.0
  0
LINE
  5
EE
330
1F
100
AcDbEntity
  8
C-A
  6
Continuous
 62
     3
370
    13
100
AcDbLine
 10
-903.9588863785198
 20
604.9999670080238
 30
0.0
 11
-869.9587989497826
 21
604.9999670080238
 31
0.0
  0
LINE
  5
EF
330
1F
100
AcDbEntity
  8
C-A
  6
Continuous
 62
     3
370
    13
100
AcDbLine
 10
-823.9594884820883
 20
610.9988980679898
 30
0.0
 11
-789.9594010533509
 21
610.9988980679898
 31
0.0
  0
LINE
  5
F0
330
1F
100
AcDbEntity
  8
C-A
  6
Continuous
 62
     3
370
    13
100
AcDbLine
 10
-823.9594884820883
 20
604.9999670080238
 30
0.0
 11
-789.9594010533509
 21
604.9999670080238
 31
0.0
  0
LINE
  5
F1
330
1F
100
AcDbEntity
  8
C-A
  6
Continuous
 62
     3
370
    13
100
AcDbLine
 10
-743.9591008263662
 20
610.9988980679898
 30
0.0
 11
-709.9590133976287
 21
610.9988980679898
 31
0.0
  0
LINE
  5
F2
330
1F
100
AcDbEntity
  8
C-A
  6
Continuous
 62
     3
370
    13
100
AcDbLine
 10
-743.9591008263662
 20
604.9999670080238
 30
0.0
 11
-709.9590133976287
 21
604.9999670080238
 31
0.0
  0
LINE
  5
F3
330
1F
100
AcDbEntity
  8
C-A
  6
Continuous
 62
     3
370
    13
100
AcDbLine
 10
-663.958713170644
 20
610.9988980679898
 30
0.0
 11
-629.9586257419065
 21
610.9988980679898
 31
0.0
  0
LINE
  5
F4
330
1F
100
AcDbEntity
  8
C-A
  6
Continuous
 62
     3
370
    13
100
AcDbLine
 10
-663.958713170644
 20
604.9999670080238
 30
0.0
 11
-629.9586257419065
 21
604.9999670080238
 31
0.0
  0
LINE
  5
F5
330
1F
100
AcDbEntity
  8
C-A
  6
Continuous
 62
     3
370
    13
100
AcDbLine
 10
-583.9593152742125
 20
610.9988980679898
 30
0.0
 11
-549.9593515653864
 21
610.9988980679898
 31
0.0
  0
LINE
  5
F6
330
1F
100
AcDbEntity
  8
C-A
  6
Continuous
 62
     3
370
    13
100
AcDbLine
 10
-583.9593152742125
 20
604.9999670080238
 30
0.0
 11
-549.9593515653864
 21
604.9999670080238
 31
0.0
  0
LINE
  5
F7
330
1F
100
AcDbEntity
  8
C-1
  6
JWW_DASHED3
 62
     2
370
    13
100
AcDbLine
 10
-541.9583849004791
 20
1032.999350058066
 30
0.0
 11
-541.9583849004791
 21
582.9993500580658
 31
0.0
  0
LINE
  5
F8
330
1F
100
AcDbEntity
  8
C-1
  6
JWW_DASHED3
 62
     2
370
    13
100
AcDbLine
 10
-541.9583849004791
 20
582.9993500580658
 30
0.0
 11
-991.9587560602133
 21
582.9993500580658
 31
0.0
  0
LINE
  5
F9
330
1F
100
AcDbEntity
  8
C-1
  6
JWW_DASHED3
 62
     2
370
    13
100
AcDbLine
 10
-991.9587560602133
 20
582.9993500580658
 30
0.0
 11
-991.9587560602133
 21
1032.999350058066
 31
0.0
  0
LINE
  5
FA
330
1F
100
AcDbEntity
  8
C-1
  6
JWW_DASHED3
 62
     2
370
    13
100
AcDbLine
 10
-991.9587560602133
 20
1032.999350058066
 30
0.0
 11
-541.9583849004791
 21
1032.999350058066
 31
0.0
  0
LINE
  5
FB
330
1F
100
AcDbEntity
  8
C-1
  6
Continuous
 62
     2
370
    13
100
AcDbLine
 10
-515.9592641366489
 20
1058.999336861275
 30
0.0
 11
-515.9592641366489
 21
556.9993632548565
 31
0.0
  0
LINE
  5
FC
330
1F
100
AcDbEntity
  8
C-1
  6
Continuous
 62
     2
370
    13
100
AcDbLine
 10
-515.9592641366489
 20
556.9993632548565
 30
0.0
 11
-1017.958990303245
 21
556.9993632548565
 31
0.0
  0
LINE
  5
FD
330
1F
100
AcDbEntity
  8
C-1
  6
Continuous
 62
     2
370
    13
100
AcDbLine
 10
-508.9593152742125
 20
1065.999409443623
 30
0.0
 11
-508.9593152742125
 21
549.9992906725086
 31
0.0
  0
LINE
  5
FE
330
1F
100
AcDbEntity
  8
C-1
  6
Continuous
 62
     2
370
    13
100
AcDbLine
 10
-508.9593152742125
 20
549.9992906725086
 30
0.0
 11
-1024.958939165682
 21
549.9992906725086
 31
0.0
  0
LINE
  5
FF
330
1F
100
AcDbEntity
  8
C-2
  6
Continuous
 62
     3
370
    13
100
AcDbLine
 10
-1016.958962260066
 20
557.9993912980365
 30
0.0
 11
-1016.958962260066
 21
1057.999432538007
 31
0.0
  0
LINE
  5
100
330
1F
100
AcDbEntity
  8
C-2
  6
Continuous
 62
     3
370
    13
100
AcDbLine
 10
-516.9590447400062
 20
1057.999432538007
 30
0.0
 11
-1016.958962260066
 21
1057.999432538007
 31
0.0
  0
LINE
  5
101
330
1F
100
AcDbEntity
  8
C-1
  6
Continuous
 62
     2
370
    13
100
AcDbLine
 10
-515.9592641366489
 20
1058.999336861275
 30
0.0
 11
-1017.958990303245
 21
1058.999336861275
 31
0.0
  0
LINE
  5
102
330
1F
100
AcDbEntity
  8
C-1
  6
Continuous
 62
     2
370
    13
100
AcDbLine
 10
-1017.958990303245
 20
556.9993632548565
 30
0.0
 11
-1017.958990303245
 21
1058.999336861275
 31
0.0
  0
LINE
  5
103
330
1F
100
AcDbEntity
  8
C-1
  6
Continuous
 62
     2
370
    13
100
AcDbLine
 10
-508.9593152742125
 20
1065.999409443623
 30
0.0
 11
-1024.958939165682
 21
1065.999409443623
 31
0.0
  0
LINE
  5
104
330
1F
100
AcDbEntity
  8
C-1
  6
Continuous
 62
     2
370
    13
100
AcDbLine
 10
-1024.958939165682
 20
549.9992906725086
 30
0.0
 11
-1024.958939165682
 21
1065.999409443623
 31
0.0
  0
LINE
  5
105
330
1F
100
AcDbEntity
  8
C-4
  6
Continuous
 62
     7
370
    13
100
AcDbLine
 10
-1066.276193309474
 20
1192.998640730575
 30
0.0
 11
-464.2071015125993
 21
1192.998640730575
 31
0.0
  0
LINE
  5
106
330
1F
100
AcDbEntity
  8
C-4
  6
Continuous
 62
     7
370
    13
100
AcDbLine
 10
-1016.958962260066
 20
1077.999498521959
 30
0.0
 11
-1016.958962260066
 21
1195.999096019848
 31
0.0
  0
LINE
  5
107
330
1F
100
AcDbEntity
  8
C-4
  6
Continuous
 62
     7
370
    13
100
AcDbLine
 10
-516.958549860361
 20
1077.999498521959
 30
0.0
 11
-516.958549860361
 21
1195.999096019848
 31
0.0
  0
LINE
  5
108
330
1F
100
AcDbEntity
  8
C-4
  6
Continuous
 62
     7
370
    13
100
AcDbLine
 10
-1024.958939165682
 20
1247.998574746622
 30
0.0
 11
-508.9588203945672
 21
1247.998574746622
 31
0.0
  0
LINE
  5
109
330
1F
100
AcDbEntity
  8
C-4
  6
Continuous
 62
     7
370
    13
100
AcDbLine
 10
-508.9588203945672
 20
1077.999498521959
 30
0.0
 11
-508.9588203945672
 21
1250.999277475718
 31
0.0
  0
LINE
  5
10A
330
1F
100
AcDbEntity
  8
C-4
  6
Continuous
 62
     7
370
    13
100
AcDbLine
 10
-1016.958962260066
 20
1137.999449033995
 30
0.0
 11
-516.958549860361
 21
1137.999449033995
 31
0.0
  0
LINE
  5
10B
330
1F
100
AcDbEntity
  8
C-4
  6
Continuous
 62
     7
370
    13
100
AcDbLine
 10
-991.9585086203906
 20
1077.999498521959
 30
0.0
 11
-991.9585086203906
 21
1140.999409443623
 31
0.0
  0
LINE
  5
10C
330
1F
100
AcDbEntity
  8
C-4
  6
Continuous
 62
     7
370
    13
100
AcDbLine
 10
-541.9578900208342
 20
1077.999498521959
 30
0.0
 11
-541.9578900208342
 21
1140.999409443623
 31
0.0
  0
LINE
  5
10D
330
1F
100
AcDbEntity
  8
C-4
  6
Continuous
 62
     7
370
    13
100
AcDbLine
 10
-1017.958990303245
 20
1077.999498521959
 30
0.0
 11
-1017.958990303245
 21
1195.999096019848
 31
0.0
  0
LINE
  5
10E
330
1F
100
AcDbEntity
  8
C-4
  6
Continuous
 62
     7
370
    13
100
AcDbLine
 10
-1024.958939165682
 20
1077.999498521959
 30
0.0
 11
-1024.958939165682
 21
1250.999277475718
 31
0.0
  0
LINE
  5
10F
330
1F
100
AcDbEntity
  8
C-4
  6
Continuous
 62
     7
370
    13
100
AcDbLine
 10
-515.9587692570037
 20
1077.999498521959
 30
0.0
 11
-515.9587692570037
 21
1195.999096019848
 31
0.0
  0
LINE
  5
110
330
1F
100
AcDbEntity
  8
C-5
  6
Continuous
 62
     7
370
    13
100
AcDbLine
 10
-680.0674167839253
 20
578.9686790672511
 30
0.0
 11
-664.848135613106
 21
559.1347689241977
 31
0.0
  0
LINE
  5
111
330
1F
100
AcDbEntity
  8
C-5
  6
Continuous
 62
     7
370
    13
100
AcDbLine
 10
-680.0674167839253
 20
578.9686790672511
 30
0.0
 11
-670.5004034815604
 21
555.8716562631969
 31
0.0
  0
LINE
  5
112
330
1F
100
AcDbEntity
  8
C-5
  6
Continuous
 62
     7
370
    13
100
AcDbLine
 10
-613.6612492638662
 20
463.9498653927365
 30
0.0
 11
-138.2479422801245
 21
463.9498653927365
 31
0.0
  0
LINE
  5
113
330
1F
100
AcDbEntity
  8
C-2
  6
JWW_CENTER1
 62
     3
370
    13
100
AcDbLine
 10
-262.6300025630638
 20
732.9993500580658
 30
0.0
 11
-29.01785953624795
 21
732.9993500580658
 31
0.0
  0
LINE
  5
114
330
1F
100
AcDbEntity
  8
C-2
  6
Continuous
 62
     3
370
    13
100
AcDbLine
 10
-57.31804693067346
 20
747.9991521062078
 30
0.0
 11
-227.318360354449
 21
747.9991521062078
 31
0.0
  0
LINE
  5
115
330
1F
100
AcDbEntity
  8
C-2
  6
Continuous
 62
     3
370
    13
100
AcDbLine
 10
-227.318360354449
 20
717.9993005701016
 30
0.0
 11
-57.31804693067346
 21
717.9993005701016
 31
0.0
  0
LINE
  5
116
330
1F
100
AcDbEntity
  8
C-2
  6
JWW_CENTER1
 62
     3
370
    13
100
AcDbLine
 10
-142.3178324828274
 20
762.5807808540964
 30
0.0
 11
-142.3178324828274
 21
699.9366883973818
 31
0.0
  0
LINE
  5
117
330
1F
100
AcDbEntity
  8
C-4
  6
Continuous
 62
     7
370
    13
100
AcDbLine
 10
-242.3184098424133
 20
825.2189347550677
 30
0.0
 11
-42.31824488253153
 21
825.2189347550677
 31
0.0
  0
LINE
  5
118
330
1F
100
AcDbEntity
  8
C-4
  6
Continuous
 62
     7
370
    13
100
AcDbLine
 10
-42.31824488253153
 20
769.1851971600508
 30
0.0
 11
-42.31824488253153
 21
828.2184002850508
 31
0.0
  0
LINE
  5
119
330
1F
100
AcDbEntity
  8
C-4
  6
Continuous
 62
     7
370
    13
100
AcDbLine
 10
-242.3184098424133
 20
769.1851971600508
 30
0.0
 11
-242.3184098424133
 21
828.2184002850508
 31
0.0
  0
LINE
  5
11A
330
1F
100
AcDbEntity
  8
C-4
  6
Continuous
 62
     7
370
    13
100
AcDbLine
 10
-22.42631010107061
 20
717.9993005701016
 30
0.0
 11
40.5166896613872
 21
717.9993005701016
 31
0.0
  0
LINE
  5
11B
330
1F
100
AcDbEntity
  8
C-4
  6
Continuous
 62
     7
370
    13
100
AcDbLine
 10
37.51672925175882
 20
717.9993005701016
 30
0.0
 11
37.51672925175882
 21
747.9991521062078
 31
0.0
  0
LINE
  5
11C
330
1F
100
AcDbEntity
  8
C-4
  6
Continuous
 62
     7
370
    13
100
AcDbLine
 10
40.5166896613872
 20
747.9991521062078
 30
0.0
 11
-22.42631010107061
 21
747.9991521062078
 31
0.0
  0
LINE
  5
11D
330
1F
100
AcDbEntity
  8
C-5
  6
Continuous
 62
     7
370
    13
100
AcDbLine
 10
-422.4117936314758
 20
591.9621153135557
 30
0.0
 11
-422.4117936314758
 21
656.9615874419342
 31
0.0
  0
LINE
  5
11E
330
1F
100
AcDbEntity
  8
C-5
  6
Continuous
 62
     7
370
    13
100
AcDbLine
 10
-422.4117936314758
 20
656.9615874419342
 30
0.0
 11
152.5886187682286
 21
656.9615874419342
 31
0.0
  0
LINE
  5
11F
330
1F
100
AcDbEntity
  8
C-5
  6
Continuous
 62
     7
370
    13
100
AcDbLine
 10
152.5886187682286
 20
656.9615874419342
 30
0.0
 11
152.5886187682286
 21
591.9621153135557
 31
0.0
  0
LINE
  5
120
330
1F
100
AcDbEntity
  8
C-5
  6
Continuous
 62
     7
370
    13
100
AcDbLine
 10
152.5886187682286
 20
591.9621153135557
 30
0.0
 11
-422.4117936314758
 21
591.9621153135557
 31
0.0
  0
LINE
  5
121
330
1F
100
AcDbEntity
  8
C-5
  6
Continuous
 62
     7
370
    13
100
AcDbLine
 10
-613.6612492638662
 20
463.9498653927365
 30
0.0
 11
-680.0674167839253
 21
578.9686790672511
 31
0.0
  0
LINE
  5
122
330
1F
100
AcDbEntity
  8
C-4
  6
Continuous
 62
     7
370
    13
100
AcDbLine
 10
-1081.958929268089
 20
657.9991026182432
 30
0.0
 11
-1081.958929268089
 21
607.9994325380068
 31
0.0
  0
LINE
  5
123
330
1F
100
AcDbEntity
  8
C-4
  6
Continuous
 62
     7
370
    13
100
AcDbLine
 10
-966.9591684599176
 20
484.9998185441302
 30
0.0
 11
-886.9592756838408
 21
484.9998185441302
 31
0.0
  0
LINE
  5
124
330
1F
100
AcDbEntity
  8
C-5
  6
Continuous
 62
     7
370
    13
100
AcDbLine
 10
-479.4590447400063
 20
379.9995958482899
 30
0.0
 11
-479.4590447400063
 21
315.0
 31
0.0
  0
LINE
  5
125
330
1F
100
AcDbEntity
  8
C-5
  6
Continuous
 62
     7
370
    13
100
AcDbLine
 10
-479.4590447400063
 20
315.0
 30
0.0
 11
-1054.459457139711
 21
315.0
 31
0.0
  0
LINE
  5
126
330
1F
100
AcDbEntity
  8
C-5
  6
Continuous
 62
     7
370
    13
100
AcDbLine
 10
-1054.459457139711
 20
379.9995958482899
 30
0.0
 11
-479.4590447400063
 21
379.9995958482899
 31
0.0
  0
LINE
  5
127
330
1F
100
AcDbEntity
  8
C-5
  6
Continuous
 62
     7
370
    13
100
AcDbLine
 10
-1054.459457139711
 20
315.0
 30
0.0
 11
-1054.459457139711
 21
379.9995958482899
 31
0.0
  0
LINE
  5
128
330
1F
100
AcDbEntity
  8
C-B
  6
JWW_DASHED3
 62
     6
370
    13
100
AcDbLine
 10
-939.4587065722487
 20
1022.999069626267
 30
0.0
 11
-914.4587478122191
 21
1022.999069626267
 31
0.0
  0
LINE
  5
129
330
1F
100
AcDbEntity
  8
C-B
  6
JWW_DASHED3
 62
     6
370
    13
100
AcDbLine
 10
-939.4587065722487
 20
1022.999069626267
 30
0.0
 11
-939.4587065722487
 21
592.9993830500425
 31
0.0
  0
LINE
  5
12A
330
1F
100
AcDbEntity
  8
C-B
  6
JWW_DASHED3
 62
     6
370
    13
100
AcDbLine
 10
-939.4587065722487
 20
592.9993830500425
 30
0.0
 11
-914.4587478122191
 21
592.9993830500425
 31
0.0
  0
LINE
  5
12B
330
1F
100
AcDbEntity
  8
C-B
  6
JWW_DASHED3
 62
     6
370
    13
100
AcDbLine
 10
-914.4587478122191
 20
1022.999069626267
 30
0.0
 11
-914.4587478122191
 21
592.9993830500425
 31
0.0
  0
LINE
  5
12C
330
1F
100
AcDbEntity
  8
C-B
  6
JWW_DASHED3
 62
     6
370
    13
100
AcDbLine
 10
-936.458622442709
 20
1022.999069626267
 30
0.0
 11
-936.458622442709
 21
592.9993830500425
 31
0.0
  0
LINE
  5
12D
330
1F
100
AcDbEntity
  8
C-B
  6
JWW_DASHED3
 62
     6
370
    13
100
AcDbLine
 10
-594.4588055481779
 20
1022.999069626267
 30
0.0
 11
-619.4586405882961
 21
1022.999069626267
 31
0.0
  0
LINE
  5
12E
330
1F
100
AcDbEntity
  8
C-B
  6
JWW_DASHED3
 62
     6
370
    13
100
AcDbLine
 10
-594.4588055481779
 20
1022.999069626267
 30
0.0
 11
-594.4588055481779
 21
592.9993830500425
 31
0.0
  0
LINE
  5
12F
330
1F
100
AcDbEntity
  8
C-B
  6
JWW_DASHED3
 62
     6
370
    13
100
AcDbLine
 10
-594.4588055481779
 20
592.9993830500425
 30
0.0
 11
-619.4586405882961
 21
592.9993830500425
 31
0.0
  0
LINE
  5
130
330
1F
100
AcDbEntity
  8
C-B
  6
JWW_DASHED3
 62
     6
370
    13
100
AcDbLine
 10
-619.4586405882961
 20
1022.999069626267
 30
0.0
 11
-619.4586405882961
 21
592.9993830500425
 31
0.0
  0
LINE
  5
131
330
1F
100
AcDbEntity
  8
C-B
  6
JWW_DASHED3
 62
     6
370
    13
100
AcDbLine
 10
-597.4588896777175
 20
1022.999069626267
 30
0.0
 11
-597.4588896777175
 21
592.9993830500425
 31
0.0
  0
LINE
  5
132
330
1F
100
AcDbEntity
  8
C-4
  6
Continuous
 62
     7
370
    13
100
AcDbLine
 10
-966.9591684599176
 20
607.8408236116977
 30
0.0
 11
-966.9591684599176
 21
481.9997344145904
 31
0.0
  0
LINE
  5
133
330
1F
100
AcDbEntity
  8
C-4
  6
Continuous
 62
     7
370
    13
100
AcDbLine
 10
-886.9592756838408
 20
607.8408236116977
 30
0.0
 11
-886.9592756838408
 21
481.9997344145904
 31
0.0
  0
LINE
  5
134
330
1F
100
AcDbEntity
  8
C-4
  6
Continuous
 62
     7
370
    13
100
AcDbLine
 10
-979.6703995885072
 20
607.9994325380068
 30
0.0
 11
-1084.959013397629
 21
607.9994325380068
 31
0.0
  0
LINE
  5
135
330
1F
100
AcDbEntity
  8
C-4
  6
Continuous
 62
     7
370
    13
100
AcDbLine
 10
-979.6703995885072
 20
657.9991026182432
 30
0.0
 11
-1084.959013397629
 21
657.9991026182432
 31
0.0
  0
LINE
  5
136
330
1F
100
AcDbEntity
  8
C-B
  6
JWW_DASHED3
 62
     6
370
    13
100
AcDbLine
 10
-754.4590859799767
 20
1022.999069626267
 30
0.0
 11
-779.4589210200951
 21
1022.999069626267
 31
0.0
  0
LINE
  5
137
330
1F
100
AcDbEntity
  8
C-B
  6
JWW_DASHED3
 62
     6
370
    13
100
AcDbLine
 10
-754.4590859799767
 20
1022.999069626267
 30
0.0
 11
-754.4590859799767
 21
592.9993830500425
 31
0.0
  0
LINE
  5
138
330
1F
100
AcDbEntity
  8
C-B
  6
JWW_DASHED3
 62
     6
370
    13
100
AcDbLine
 10
-754.4590859799767
 20
592.9993830500425
 30
0.0
 11
-779.4589210200951
 21
592.9993830500425
 31
0.0
  0
LINE
  5
139
330
1F
100
AcDbEntity
  8
C-B
  6
JWW_DASHED3
 62
     6
370
    13
100
AcDbLine
 10
-779.4589210200951
 20
1022.999069626267
 30
0.0
 11
-779.4589210200951
 21
592.9993830500425
 31
0.0
  0
LINE
  5
13A
330
1F
100
AcDbEntity
  8
C-B
  6
JWW_DASHED3
 62
     6
370
    13
100
AcDbLine
 10
-757.4591701095164
 20
1022.999069626267
 30
0.0
 11
-757.4591701095164
 21
592.9993830500425
 31
0.0
  0
LINE
  5
13B
330
1F
100
AcDbEntity
  8
D-A
  6
JWW_DASHED3
 62
     3
370
    13
100
AcDbLine
 10
-372.3314581690605
 20
-377.9348095043285
 30
0.0
 11
-372.3314581690605
 21
-327.9348919842694
 31
0.0
  0
LINE
  5
13C
330
1F
100
AcDbEntity
  8
D-A
  6
Continuous
 62
     3
370
    13
100
AcDbLine
 10
-347.3318705687649
 20
-352.9349744642103
 30
0.0
 11
-347.3318705687649
 21
-337.4349728146115
 31
0.0
  0
LINE
  5
13D
330
1F
100
AcDbEntity
  8
D-A
  6
Continuous
 62
     3
370
    13
100
AcDbLine
 10
-372.3314581690605
 20
-327.9348919842694
 30
0.0
 11
-372.3314581690605
 21
-297.9352878879855
 31
0.0
  0
LINE
  5
13E
330
1F
100
AcDbEntity
  8
D-A
  6
Continuous
 62
     3
370
    13
100
AcDbLine
 10
-222.3315818889716
 20
-416.4355798669763
 30
0.0
 11
-347.3318705687649
 21
-416.4355798669763
 31
0.0
  0
LINE
  5
13F
330
1F
100
AcDbEntity
  8
D-A
  6
Continuous
 62
     3
370
    13
100
AcDbLine
 10
-350.2608157492969
 20
-400.0054519240921
 30
0.0
 11
-372.3314581690605
 21
-377.9348095043285
 31
0.0
  0
LINE
  5
140
330
1F
100
AcDbEntity
  8
D-A
  6
Continuous
 62
     3
370
    13
100
AcDbLine
 10
-347.3318705687649
 20
-427.9353456239442
 30
0.0
 11
-347.3318705687649
 21
-407.0769108952702
 31
0.0
  0
LINE
  5
141
330
1F
100
AcDbEntity
  8
D-A
  6
Continuous
 62
     3
370
    13
100
AcDbLine
 10
-222.3315818889716
 20
-427.9353456239442
 30
0.0
 11
-347.3318705687649
 21
-427.9353456239442
 31
0.0
  0
LINE
  5
142
330
1F
100
AcDbEntity
  8
D-A
  6
Continuous
 62
     3
370
    13
100
AcDbLine
 10
-222.3315818889716
 20
-387.9349662162161
 30
0.0
 11
-222.3315818889716
 21
-427.9353456239442
 31
0.0
  0
LINE
  5
143
330
1F
100
AcDbEntity
  8
D-A
  6
Continuous
 62
     3
370
    13
100
AcDbLine
 10
-311.9764315115435
 20
-377.9348095043285
 30
0.0
 11
-232.3319860406821
 21
-377.9348095043285
 31
0.0
  0
LINE
  5
144
330
1F
100
AcDbEntity
  8
D-A
  6
Continuous
 62
     3
370
    13
100
AcDbLine
 10
-372.3314581690605
 20
-327.9348919842694
 30
0.0
 11
-329.6542747600654
 21
-370.6130651525548
 31
0.0
  0
LINE
  5
145
330
1F
100
AcDbEntity
  8
D-A
  6
Continuous
 62
     3
370
    13
100
AcDbLine
 10
-383.8317188056735
 20
-297.9352878879855
 30
0.0
 11
-383.8317188056735
 21
-410.4354116078969
 31
0.0
  0
LINE
  5
146
330
1F
100
AcDbEntity
  8
D-A
  6
JWW_CENTER2
 62
     3
370
    13
100
AcDbLine
 10
-329.3368094676245
 20
-355.4349827122043
 30
0.0
 11
-389.755180719736
 21
-355.4349827122043
 31
0.0
  0
LINE
  5
147
330
1F
100
AcDbEntity
  8
D-A
  6
JWW_DASHED3
 62
     3
370
    13
100
AcDbLine
 10
-347.3318705687649
 20
-373.4347451699746
 30
0.0
 11
-347.3318705687649
 21
-352.9349744642103
 31
0.0
  0
LINE
  5
148
330
1F
100
AcDbEntity
  8
D-A
  6
Continuous
 62
     3
370
    13
100
AcDbLine
 10
-386.0816891128948
 20
-345.4348260003167
 30
0.0
 11
-387.3315076570248
 21
-346.6852631440034
 31
0.0
  0
LINE
  5
149
330
1F
100
AcDbEntity
  8
D-A
  6
Continuous
 62
     3
370
    13
100
AcDbLine
 10
-386.0816891128948
 20
-365.4345208245354
 30
0.0
 11
-387.3315076570248
 21
-364.1851971600506
 31
0.0
  0
LINE
  5
14A
330
1F
100
AcDbEntity
  8
D-A
  6
JWW_DASHED3
 62
     3
370
    13
100
AcDbLine
 10
-386.0816891128948
 20
-345.4348260003167
 30
0.0
 11
-386.0816891128948
 21
-365.4345208245354
 31
0.0
  0
LINE
  5
14B
330
1F
100
AcDbEntity
  8
D-A
  6
Continuous
 62
     3
370
    13
100
AcDbLine
 10
-383.8317188056735
 20
-346.6852631440034
 30
0.0
 11
-387.3315076570248
 21
-346.6852631440034
 31
0.0
  0
LINE
  5
14C
330
1F
100
AcDbEntity
  8
D-A
  6
Continuous
 62
     3
370
    13
100
AcDbLine
 10
-383.8317188056735
 20
-345.4348260003167
 30
0.0
 11
-386.0816891128948
 21
-345.4348260003167
 31
0.0
  0
LINE
  5
14D
330
1F
100
AcDbEntity
  8
D-A
  6
Continuous
 62
     3
370
    13
100
AcDbLine
 10
-383.8317188056735
 20
-364.1851971600506
 30
0.0
 11
-387.3315076570248
 21
-364.1851971600506
 31
0.0
  0
LINE
  5
14E
330
1F
100
AcDbEntity
  8
D-A
  6
Continuous
 62
     3
370
    13
100
AcDbLine
 10
-383.8317188056735
 20
-365.4345208245354
 30
0.0
 11
-386.0816891128948
 21
-365.4345208245354
 31
0.0
  0
LINE
  5
14F
330
1F
100
AcDbEntity
  8
D-A
  6
JWW_DASHED3
 62
     3
370
    13
100
AcDbLine
 10
-347.3318705687649
 20
-365.4345208245354
 30
0.0
 11
-383.8317188056735
 21
-365.4345208245354
 31
0.0
  0
LINE
  5
150
330
1F
100
AcDbEntity
  8
D-A
  6
JWW_DASHED3
 62
     3
370
    13
100
AcDbLine
 10
-347.3318705687649
 20
-364.1851971600506
 30
0.0
 11
-383.8317188056735
 21
-364.1851971600506
 31
0.0
  0
LINE
  5
151
330
1F
100
AcDbEntity
  8
D-A
  6
JWW_DASHED3
 62
     3
370
    13
100
AcDbLine
 10
-340.8316264281399
 20
-373.4347451699746
 30
0.0
 11
-347.3318705687649
 21
-373.4347451699746
 31
0.0
  0
LINE
  5
152
330
1F
100
AcDbEntity
  8
D-A
  6
Continuous
 62
     3
370
    13
100
AcDbLine
 10
-340.8316264281399
 20
-337.4349728146115
 30
0.0
 11
-347.3318705687649
 21
-337.4349728146115
 31
0.0
  0
LINE
  5
153
330
1F
100
AcDbEntity
  8
D-A
  6
Continuous
 62
     3
370
    13
100
AcDbLine
 10
-334.3316297273373
 20
-343.9349695154138
 30
0.0
 11
-334.3316297273373
 21
-365.9355864653716
 31
0.0
  0
LINE
  5
154
330
1F
100
AcDbEntity
  8
D-A
  6
JWW_DASHED3
 62
     3
370
    13
100
AcDbLine
 10
-334.3316297273373
 20
-366.9351196289062
 30
0.0
 11
-334.3316297273373
 21
-365.9355864653716
 31
0.0
  0
LINE
  5
155
330
1F
100
AcDbEntity
  8
D-A
  6
Continuous
 62
     3
370
    13
100
AcDbLine
 10
-347.3318705687649
 20
-345.4348260003167
 30
0.0
 11
-354.8320190326584
 21
-345.4348260003167
 31
0.0
  0
LINE
  5
156
330
1F
100
AcDbEntity
  8
D-A
  6
Continuous
 62
     3
370
    13
100
AcDbLine
 10
-347.3318705687649
 20
-346.6852631440034
 30
0.0
 11
-353.5819530487058
 21
-346.6852631440034
 31
0.0
  0
LINE
  5
157
330
1F
100
AcDbEntity
  8
D-A
  6
JWW_DASHED3
 62
     3
370
    13
100
AcDbLine
 10
-354.8320190326584
 20
-345.4348260003167
 30
0.0
 11
-383.8317188056735
 21
-345.4348260003167
 31
0.0
  0
LINE
  5
158
330
1F
100
AcDbEntity
  8
D-A
  6
JWW_DASHED3
 62
     3
370
    13
100
AcDbLine
 10
-383.8317188056735
 20
-346.6852631440034
 30
0.0
 11
-353.5819530487058
 21
-346.6852631440034
 31
0.0
  0
LINE
  5
159
330
1F
100
AcDbEntity
  8
D-4
  6
Continuous
 62
     7
370
    13
100
AcDbLine
 10
-1094.999997680251
 20
-172.0155128272805
 30
0.0
 11
-522.3322004885281
 21
-172.0155128272805
 31
0.0
  0
LINE
  5
15A
330
1F
100
AcDbEntity
  8
D-4
  6
Continuous
 62
     7
370
    13
100
AcDbLine
 10
-522.3322004885281
 20
-277.4793140308276
 30
0.0
 11
-522.3322004885281
 21
-169.0150575380068
 31
0.0
  0
LINE
  5
15B
330
1F
100
AcDbEntity
  8
D-4
  6
Continuous
 62
     7
370
    13
100
AcDbLine
 10
-522.3322004885281
 20
-172.0155128272805
 30
0.0
 11
-397.3315406490013
 21
-172.0155128272805
 31
0.0
  0
LINE
  5
15C
330
1F
100
AcDbEntity
  8
D-4
  6
Continuous
 62
     7
370
    13
100
AcDbLine
 10
-397.3315406490013
 20
-277.4793140308276
 30
0.0
 11
-397.3315406490013
 21
-60.26352341110623
 31
0.0
  0
LINE
  5
15D
330
1F
100
AcDbEntity
  8
D-4
  6
Continuous
 62
     7
370
    13
100
AcDbLine
 10
-392.3312767131904
 20
-277.4793140308276
 30
0.0
 11
-392.3312767131904
 21
-60.26352341110623
 31
0.0
  0
LINE
  5
15E
330
1F
100
AcDbEntity
  8
D-4
  6
Continuous
 62
     7
370
    13
100
AcDbLine
 10
-367.3324314323628
 20
-277.4793140308276
 30
0.0
 11
-367.3324314323628
 21
50.43288772170627
 31
0.0
  0
LINE
  5
15F
330
1F
100
AcDbEntity
  8
D-5
  6
Continuous
 62
     7
370
    13
100
AcDbLine
 10
-272.8086871069826
 20
-130.0237377269846
 30
0.0
 11
-13.42543911289482
 21
-130.0237377269846
 31
0.0
  0
LINE
  5
160
330
1F
100
AcDbEntity
  8
D-4
  6
Continuous
 62
     7
370
    13
100
AcDbLine
 10
-122.3308808094743
 20
-612.808277027027
 30
0.0
 11
-122.3308808094743
 21
-856.0179921743031
 31
0.0
  0
LINE
  5
161
330
1F
100
AcDbEntity
  8
D-4
  6
Continuous
 62
     7
370
    13
100
AcDbLine
 10
-522.3317056088831
 20
-698.5537224846917
 30
0.0
 11
-372.3314581690605
 21
-698.5537224846917
 31
0.0
  0
LINE
  5
162
330
1F
100
AcDbEntity
  8
D-4
  6
Continuous
 62
     7
370
    13
100
AcDbLine
 10
149.3530956474515
 20
-542.9351064321156
 30
0.0
 11
149.3530956474515
 21
-292.9349002322634
 31
0.0
  0
LINE
  5
163
330
1F
100
AcDbEntity
  8
D-6
  6
Continuous
 62
     6
370
    13
100
AcDbLine
 10
-372.3314581690605
 20
-542.9351064321156
 30
0.0
 11
-372.3314581690605
 21
-792.9348796122782
 31
0.0
  0
LINE
  5
164
330
1F
100
AcDbEntity
  8
D-6
  6
JWW_DASHED3
 62
     6
370
    13
100
AcDbLine
 10
-278.8306300704539
 20
-670.4350322001688
 30
0.0
 11
-278.8306300704539
 21
-542.9351064321156
 31
0.0
  0
LINE
  5
165
330
1F
100
AcDbEntity
  8
D-6
  6
JWW_DASHED3
 62
     6
370
    13
100
AcDbLine
 10
-233.8304816065605
 20
-542.9351064321156
 30
0.0
 11
-233.8304816065605
 21
-670.4350322001688
 31
0.0
  0
LINE
  5
166
330
1F
100
AcDbEntity
  8
D-6
  6
Continuous
 62
     6
370
    13
100
AcDbLine
 10
-122.3318705687649
 20
-442.9352713919974
 30
0.0
 11
42.66916867849034
 21
-442.9352713919974
 31
0.0
  0
LINE
  5
167
330
1F
100
AcDbEntity
  8
D-6
  6
Continuous
 62
     6
370
    13
100
AcDbLine
 10
-357.3319035607412
 20
-788.084254909206
 30
0.0
 11
-12.18081680504014
 21
-442.9352713919974
 31
0.0
  0
LINE
  5
168
330
1F
100
AcDbEntity
  8
D-6
  6
Continuous
 62
     6
370
    13
100
AcDbLine
 10
-357.3319035607412
 20
-781.0119298986485
 30
0.0
 11
-19.25512133417868
 21
-442.9352713919974
 31
0.0
  0
LINE
  5
169
330
1F
100
AcDbEntity
  8
D-6
  6
Continuous
 62
     6
370
    13
100
AcDbLine
 10
-357.3319035607412
 20
-773.9435639252533
 30
0.0
 11
-126.3220851485789
 21
-542.9351064321156
 31
0.0
  0
LINE
  5
16A
330
1F
100
AcDbEntity
  8
D-6
  6
Continuous
 62
     6
370
    13
100
AcDbLine
 10
-122.3318705687649
 20
-442.9352713919974
 30
0.0
 11
-122.3318705687649
 21
-542.9351064321156
 31
0.0
  0
LINE
  5
16B
330
1F
100
AcDbEntity
  8
D-6
  6
Continuous
 62
     6
370
    13
100
AcDbLine
 10
-122.3318705687649
 20
-538.9448918523015
 30
0.0
 11
-26.32150778899273
 21
-442.9352713919974
 31
0.0
  0
LINE
  5
16C
330
1F
100
AcDbEntity
  8
D-4
  6
Continuous
 62
     7
370
    13
100
AcDbLine
 10
-66.552995991062
 20
-542.9351064321156
 30
0.0
 11
152.3535509367252
 21
-542.9351064321156
 31
0.0
  0
LINE
  5
16D
330
1F
100
AcDbEntity
  8
D-6
  6
Continuous
 62
     6
370
    13
100
AcDbLine
 10
-372.3314581690605
 20
-542.9351064321156
 30
0.0
 11
-122.3318705687649
 21
-542.9351064321156
 31
0.0
  0
LINE
  5
16E
330
1F
100
AcDbEntity
  8
D-6
  6
Continuous
 62
     6
370
    13
100
AcDbLine
 10
-278.8306300704539
 20
-345.4351971600506
 30
0.0
 11
-233.8304816065605
 21
-345.4351971600506
 31
0.0
  0
LINE
  5
16F
330
1F
100
AcDbEntity
  8
D-6
  6
JWW_CENTER2
 62
     6
370
    13
100
AcDbLine
 10
-256.3304321185959
 20
-341.3554093644424
 30
0.0
 11
-256.3304321185959
 21
-670.4350322001688
 31
0.0
  0
LINE
  5
170
330
1F
100
AcDbEntity
  8
D-4
  6
Continuous
 62
     7
370
    13
100
AcDbLine
 10
-367.3316891128948
 20
-483.4657906197212
 30
0.0
 11
-217.3311942332495
 21
-483.4657906197212
 31
0.0
  0
LINE
  5
171
330
1F
100
AcDbEntity
  8
D-4
  6
Continuous
 62
     7
370
    13
100
AcDbLine
 10
-367.3316891128948
 20
-430.9025202570734
 30
0.0
 11
-367.3316891128948
 21
-486.4659984691723
 31
0.0
  0
LINE
  5
172
330
1F
100
AcDbEntity
  8
D-4
  6
Continuous
 62
     7
370
    13
100
AcDbLine
 10
-222.3315818889716
 20
-430.9025202570734
 30
0.0
 11
-222.3315818889716
 21
-486.4659984691723
 31
0.0
  0
LINE
  5
173
330
1F
100
AcDbEntity
  8
D-4
  6
Continuous
 62
     7
370
    13
100
AcDbLine
 10
-210.5055667258594
 20
-427.9353456239442
 30
0.0
 11
-131.281521513655
 21
-427.9353456239442
 31
0.0
  0
LINE
  5
174
330
1F
100
AcDbEntity
  8
D-4
  6
Continuous
 62
     7
370
    13
100
AcDbLine
 10
-210.5055667258594
 20
-377.9348095043285
 30
0.0
 11
-131.281521513655
 21
-377.9348095043285
 31
0.0
  0
LINE
  5
175
330
1F
100
AcDbEntity
  8
D-4
  6
Continuous
 62
     7
370
    13
100
AcDbLine
 10
-134.281729363106
 20
-377.9348095043285
 30
0.0
 11
-134.281729363106
 21
-292.9349002322634
 31
0.0
  0
LINE
  5
176
330
1F
100
AcDbEntity
  8
D-6
  6
Continuous
 62
     6
370
    13
100
AcDbLine
 10
-278.8306300704539
 20
-542.9351064321156
 30
0.0
 11
-278.8306300704539
 21
-427.9353456239442
 31
0.0
  0
LINE
  5
177
330
1F
100
AcDbEntity
  8
D-6
  6
Continuous
 62
     6
370
    13
100
AcDbLine
 10
-233.8304816065605
 20
-542.9351064321156
 30
0.0
 11
-233.8304816065605
 21
-427.9353456239442
 31
0.0
  0
LINE
  5
178
330
1F
100
AcDbEntity
  8
D-6
  6
Continuous
 62
     6
370
    13
100
AcDbLine
 10
-278.8306300704539
 20
-377.9348095043285
 30
0.0
 11
-278.8306300704539
 21
-345.4351971600506
 31
0.0
  0
LINE
  5
179
330
1F
100
AcDbEntity
  8
D-6
  6
Continuous
 62
     6
370
    13
100
AcDbLine
 10
-233.8304816065605
 20
-377.9348095043285
 30
0.0
 11
-233.8304816065605
 21
-345.4351971600506
 31
0.0
  0
LINE
  5
17A
330
1F
100
AcDbEntity
  8
D-4
  6
Continuous
 62
     7
370
    13
100
AcDbLine
 10
-667.8146916466787
 20
-417.9351889120565
 30
0.0
 11
-667.8146916466787
 21
-292.9349002322634
 31
0.0
  0
LINE
  5
17B
330
1F
100
AcDbEntity
  8
D-4
  6
Continuous
 62
     7
370
    13
100
AcDbLine
 10
-395.4764842987058
 20
-417.9351889120565
 30
0.0
 11
-670.8146520563071
 21
-417.9351889120565
 31
0.0
  0
LINE
  5
17C
330
1F
100
AcDbEntity
  8
D-4
  6
Continuous
 62
     7
370
    13
100
AcDbLine
 10
-395.4764842987058
 20
-292.9349002322634
 30
0.0
 11
-670.8146520563071
 21
-292.9349002322634
 31
0.0
  0
LINE
  5
17D
330
1F
100
AcDbEntity
  8
D-4
  6
Continuous
 62
     7
370
    13
100
AcDbLine
 10
-1094.999997680251
 20
47.43243243243256
 30
0.0
 11
-367.3324314323628
 21
47.43243243243256
 31
0.0
  0
LINE
  5
17E
330
1F
100
AcDbEntity
  8
D-4
  6
Continuous
 62
     7
370
    13
100
AcDbLine
 10
-522.3317056088831
 20
-853.0184029244087
 30
0.0
 11
-122.3308808094743
 21
-853.0184029244087
 31
0.0
  0
LINE
  5
17F
330
1F
100
AcDbEntity
  8
D-4
  6
Continuous
 62
     7
370
    13
100
AcDbLine
 10
-1094.999997680251
 20
-63.26323638091196
 30
0.0
 11
-320.7945681907032
 21
-63.26323638091196
 31
0.0
  0
LINE
  5
180
330
1F
100
AcDbEntity
  8
D-4
  6
Continuous
 62
     7
370
    13
100
AcDbLine
 10
-134.281729363106
 20
-427.9353456239442
 30
0.0
 11
-134.281729363106
 21
-377.9348095043285
 31
0.0
  0
LINE
  5
181
330
1F
100
AcDbEntity
  8
D-4
  6
Continuous
 62
     7
370
    13
100
AcDbLine
 10
-522.3317056088831
 20
-817.935147672086
 30
0.0
 11
-522.3317056088831
 21
-856.0179921743031
 31
0.0
  0
LINE
  5
182
330
1F
100
AcDbEntity
  8
D-5
  6
Continuous
 62
     2
370
    13
100
AcDbLine
 10
-864.3266974268729
 20
-988.8772170608108
 30
0.0
 11
-864.3266974268729
 21
-923.877621212521
 31
0.0
  0
LINE
  5
183
330
1F
100
AcDbEntity
  8
D-5
  6
Continuous
 62
     2
370
    13
100
AcDbLine
 10
-864.3266974268729
 20
-923.877621212521
 30
0.0
 11
-289.3262850271685
 21
-923.877621212521
 31
0.0
  0
LINE
  5
184
330
1F
100
AcDbEntity
  8
D-5
  6
Continuous
 62
     2
370
    13
100
AcDbLine
 10
-289.3262850271685
 20
-923.877621212521
 30
0.0
 11
-289.3262850271685
 21
-988.8772170608108
 31
0.0
  0
LINE
  5
185
330
1F
100
AcDbEntity
  8
D-5
  6
Continuous
 62
     2
370
    13
100
AcDbLine
 10
-289.3262850271685
 20
-988.8772170608108
 30
0.0
 11
-864.3266974268729
 21
-988.8772170608108
 31
0.0
  0
LINE
  5
186
330
1F
100
AcDbEntity
  8
D-A
  6
Continuous
 62
     3
370
    13
100
AcDbLine
 10
-383.8317188056735
 20
-297.9352878879855
 30
0.0
 11
-372.3314581690605
 21
-297.9352878879855
 31
0.0
  0
LINE
  5
187
330
1F
100
AcDbEntity
  8
D-A
  6
Continuous
 62
     3
370
    13
100
AcDbLine
 10
-372.3314581690605
 20
-410.4354116078969
 30
0.0
 11
-383.8317188056735
 21
-410.4354116078969
 31
0.0
  0
LINE
  5
188
330
1F
100
AcDbEntity
  8
D-A
  6
Continuous
 62
     3
370
    13
100
AcDbLine
 10
-372.3314581690605
 20
-410.4354116078969
 30
0.0
 11
-372.3314581690605
 21
-377.9348095043285
 31
0.0
  0
LINE
  5
189
330
1F
100
AcDbEntity
  8
D-5
  6
Continuous
 62
     7
370
    13
100
AcDbLine
 10
-272.8086871069826
 20
-130.0237377269846
 30
0.0
 11
-436.1103096523797
 21
-317.6488185573268
 31
0.0
  0
LINE
  5
18A
330
1F
100
AcDbEntity
  8
D-5
  6
Continuous
 62
     7
370
    13
100
AcDbLine
 10
-436.1103096523797
 20
-317.6488185573268
 30
0.0
 11
-422.2989610723542
 21
-296.809189255173
 31
0.0
  0
LINE
  5
18B
330
1F
100
AcDbEntity
  8
D-5
  6
Continuous
 62
     7
370
    13
100
AcDbLine
 10
-436.1103096523797
 20
-317.6488185573268
 30
0.0
 11
-417.3762695209396
 21
-301.0939809438344
 31
0.0
  0
LINE
  5
18C
330
1F
100
AcDbEntity
  8
D-5
  6
Continuous
 62
     7
370
    13
100
AcDbLine
 10
-272.8086871069826
 20
-184.8858477618242
 30
0.0
 11
-369.283989313486
 21
-295.7309702280405
 31
0.0
  0
LINE
  5
18D
330
1F
100
AcDbEntity
  8
D-5
  6
Continuous
 62
     7
370
    13
100
AcDbLine
 10
-369.283989313486
 20
-295.7309702280405
 30
0.0
 11
-355.4726407334607
 21
-274.8924544050886
 31
0.0
  0
LINE
  5
18E
330
1F
100
AcDbEntity
  8
D-5
  6
Continuous
 62
     7
370
    13
100
AcDbLine
 10
-369.283989313486
 20
-295.7309702280405
 30
0.0
 11
-350.5498254621347
 21
-279.1769986539273
 31
0.0
  0
LINE
  5
18F
330
1F
100
AcDbEntity
  8
D-5
  6
Continuous
 62
     7
370
    13
100
AcDbLine
 10
-337.3106814719532
 20
-381.1115656672297
 30
0.0
 11
-216.2236535871347
 21
-241.9893914300042
 31
0.0
  0
LINE
  5
190
330
1F
100
AcDbEntity
  8
D-5
  6
Continuous
 62
     7
370
    13
100
AcDbLine
 10
-337.3106814719532
 20
-381.1115656672297
 30
0.0
 11
-323.4997040516618
 21
-360.2728024044552
 31
0.0
  0
LINE
  5
191
330
1F
100
AcDbEntity
  8
D-5
  6
Continuous
 62
     7
370
    13
100
AcDbLine
 10
-337.3106814719532
 20
-381.1115656672297
 30
0.0
 11
-318.5763939006904
 21
-364.5572229333825
 31
0.0
  0
LINE
  5
192
330
1F
100
AcDbEntity
  8
D-5
  6
Continuous
 62
     7
370
    13
100
AcDbLine
 10
-216.2236535871347
 20
-241.9893914300042
 30
0.0
 11
170.4785179447487
 21
-241.9893914300042
 31
0.0
  0
LINE
  5
193
330
1F
100
AcDbEntity
  8
D-6
  6
Continuous
 62
     6
370
    13
100
AcDbLine
 10
-372.3314581690605
 20
-292.9356425517313
 30
0.0
 11
42.66916867849034
 21
-292.9356425517313
 31
0.0
  0
LINE
  5
194
330
1F
100
AcDbEntity
  8
D-4
  6
Continuous
 62
     7
370
    13
100
AcDbLine
 10
61.16851213816091
 20
-292.9356425517313
 30
0.0
 11
152.3535509367252
 21
-292.9356425517313
 31
0.0
  0
LINE
  5
195
330
1F
100
AcDbEntity
  8
D-5
  6
Continuous
 62
     7
370
    13
100
AcDbLine
 10
-272.8086871069826
 20
-184.8858477618242
 30
0.0
 11
178.1585551596982
 21
-184.8858477618242
 31
0.0
  0
LINE
  5
196
330
1F
100
AcDbEntity
  8
D-9
  6
Continuous
 62
     4
370
    13
100
AcDbLine
 10
-489.3756905117547
 20
-310.4348342483108
 30
0.0
 11
-506.8756245278018
 21
-327.9348919842694
 31
0.0
  0
LINE
  5
197
330
1F
100
AcDbEntity
  8
D-9
  6
Continuous
 62
     4
370
    13
100
AcDbLine
 10
-461.0913392659776
 20
-310.4348342483108
 30
0.0
 11
-478.591273282025
 21
-327.9348919842694
 31
0.0
  0
LINE
  5
198
330
1F
100
AcDbEntity
  8
D-9
  6
Continuous
 62
     4
370
    13
100
AcDbLine
 10
-454.0200040147107
 20
-310.4348342483108
 30
0.0
 11
-471.5199380307581
 21
-327.9348919842694
 31
0.0
  0
LINE
  5
199
330
1F
100
AcDbEntity
  8
D-9
  6
Continuous
 62
     4
370
    13
100
AcDbLine
 10
-446.9491636430891
 20
-310.4348342483108
 30
0.0
 11
-464.4486027794912
 21
-327.9348919842694
 31
0.0
  0
LINE
  5
19A
330
1F
100
AcDbEntity
  8
D-9
  6
Continuous
 62
     4
370
    13
100
AcDbLine
 10
-439.8778283918222
 20
-310.4348342483108
 30
0.0
 11
-459.5010435259016
 21
-330.0576782226562
 31
0.0
  0
LINE
  5
19B
330
1F
100
AcDbEntity
  8
D-9
  6
Continuous
 62
     4
370
    13
100
AcDbLine
 10
-432.8069880202005
 20
-310.4348342483108
 30
0.0
 11
-455.4603512222698
 21
-333.0881974503799
 31
0.0
  0
LINE
  5
19C
330
1F
100
AcDbEntity
  8
D-9
  6
Continuous
 62
     4
370
    13
100
AcDbLine
 10
-425.7356527689336
 20
-310.4348342483108
 30
0.0
 11
-451.4199063584607
 21
-336.1184692382812
 31
0.0
  0
LINE
  5
19D
330
1F
100
AcDbEntity
  8
D-9
  6
Continuous
 62
     4
370
    13
100
AcDbLine
 10
-418.664812397312
 20
-310.4348342483108
 30
0.0
 11
-447.3792140548289
 21
-339.1489884660049
 31
0.0
  0
LINE
  5
19E
330
1F
100
AcDbEntity
  8
D-9
  6
Continuous
 62
     4
370
    13
100
AcDbLine
 10
-411.5934771460451
 20
-310.4348342483108
 30
0.0
 11
-443.3380268715518
 21
-342.1796314136401
 31
0.0
  0
LINE
  5
19F
330
1F
100
AcDbEntity
  8
D-9
  6
Continuous
 62
     4
370
    13
100
AcDbLine
 10
-404.5225130545123
 20
-310.4348342483108
 30
0.0
 11
-437.0226202784355
 21
-342.9348177523225
 31
0.0
  0
LINE
  5
1A0
330
1F
100
AcDbEntity
  8
D-9
  6
Continuous
 62
     4
370
    13
100
AcDbLine
 10
-397.4513015231565
 20
-310.4348342483108
 30
0.0
 11
-429.9510375873459
 21
-342.9348177523225
 31
0.0
  0
LINE
  5
1A1
330
1F
100
AcDbEntity
  8
D-9
  6
Continuous
 62
     4
370
    13
100
AcDbLine
 10
-392.3317715928357
 20
-312.3858972497888
 30
0.0
 11
-422.8804446555469
 21
-342.9348177523225
 31
0.0
  0
LINE
  5
1A2
330
1F
100
AcDbEntity
  8
D-9
  6
Continuous
 62
     4
370
    13
100
AcDbLine
 10
-392.3317715928357
 20
-333.5991606841216
 30
0.0
 11
-401.6669337813914
 21
-342.9348177523225
 31
0.0
  0
LINE
  5
1A3
330
1F
100
AcDbEntity
  8
D-9
  6
Continuous
 62
     4
370
    13
100
AcDbLine
 10
-392.3317715928357
 20
-326.5280728726773
 30
0.0
 11
-408.7380215928357
 21
-342.9348177523225
 31
0.0
  0
LINE
  5
1A4
330
1F
100
AcDbEntity
  8
D-9
  6
Continuous
 62
     4
370
    13
100
AcDbLine
 10
-392.3317715928357
 20
-319.4569850612331
 30
0.0
 11
-415.8088619644573
 21
-342.9348177523225
 31
0.0
  0
LINE
  5
1A5
330
1F
100
AcDbEntity
  8
D-9
  6
Continuous
 62
     4
370
    13
100
AcDbLine
 10
-503.5178661346433
 20
-310.4348342483108
 30
0.0
 11
-512.3316726169065
 21
-319.2483932907517
 31
0.0
  0
LINE
  5
1A6
330
1F
100
AcDbEntity
  8
D-9
  6
Continuous
 62
     4
370
    13
100
AcDbLine
 10
-496.4470257630217
 20
-310.4348342483108
 30
0.0
 11
-512.3316726169065
 21
-326.3194811021958
 31
0.0
  0
LINE
  5
1A7
330
1F
100
AcDbEntity
  8
D-9
  6
Continuous
 62
     4
370
    13
100
AcDbLine
 10
-507.3314086810959
 20
-310.4348342483108
 30
0.0
 11
-392.3317715928357
 21
-310.4348342483108
 31
0.0
  0
LINE
  5
1A8
330
1F
100
AcDbEntity
  8
D-9
  6
Continuous
 62
     4
370
    13
100
AcDbLine
 10
-512.3316726169065
 20
-315.4349744642103
 30
0.0
 11
-512.3316726169065
 21
-327.9348919842694
 31
0.0
  0
LINE
  5
1A9
330
1F
100
AcDbEntity
  8
D-6
  6
Continuous
 62
     6
370
    13
100
AcDbLine
 10
-522.3317056088831
 20
-347.9348342483108
 30
0.0
 11
-522.3317056088831
 21
-792.9348796122782
 31
0.0
  0
LINE
  5
1AA
330
1F
100
AcDbEntity
  8
D-1
  6
Continuous
 62
     2
370
    13
100
AcDbLine
 10
-372.3312107292378
 20
-412.934677536423
 30
0.0
 11
-387.3312602172024
 21
-412.934677536423
 31
0.0
  0
LINE
  5
1AB
330
1F
100
AcDbEntity
  8
D-1
  6
Continuous
 62
     2
370
    13
100
AcDbLine
 10
-372.3312107292378
 20
-297.9349167282517
 30
0.0
 11
-387.3312602172024
 21
-297.9349167282517
 31
0.0
  0
LINE
  5
1AC
330
1F
100
AcDbEntity
  8
D-1
  6
Continuous
 62
     2
370
    13
100
AcDbLine
 10
-367.3311942332495
 20
-390.4347270243876
 30
0.0
 11
-372.3312107292378
 21
-390.4347270243876
 31
0.0
  0
LINE
  5
1AD
330
1F
100
AcDbEntity
  8
D-1
  6
Continuous
 62
     2
370
    13
100
AcDbLine
 10
-372.3312107292378
 20
-412.934677536423
 30
0.0
 11
-372.3312107292378
 21
-390.4347270243876
 31
0.0
  0
LINE
  5
1AE
330
1F
100
AcDbEntity
  8
D-1
  6
Continuous
 62
     2
370
    13
100
AcDbLine
 10
-367.3311942332495
 20
-320.4347435203758
 30
0.0
 11
-372.3312107292378
 21
-320.4347435203758
 31
0.0
  0
LINE
  5
1AF
330
1F
100
AcDbEntity
  8
D-1
  6
Continuous
 62
     2
370
    13
100
AcDbLine
 10
-372.3312107292378
 20
-320.4347435203758
 30
0.0
 11
-372.3312107292378
 21
-297.9349167282517
 31
0.0
  0
LINE
  5
1B0
330
1F
100
AcDbEntity
  8
D-1
  6
Continuous
 62
     2
370
    13
100
AcDbLine
 10
-445.3311546428779
 20
-346.9346824852195
 30
0.0
 11
-463.99776742265
 21
-332.9349084802575
 31
0.0
  0
LINE
  5
1B1
330
1F
100
AcDbEntity
  8
D-1
  6
Continuous
 62
     2
370
    13
100
AcDbLine
 10
-392.3312767131904
 20
-342.9346940324112
 30
0.0
 11
-442.3311942332495
 21
-342.9346940324112
 31
0.0
  0
LINE
  5
1B2
330
1F
100
AcDbEntity
  8
D-1
  6
Continuous
 62
     2
370
    13
100
AcDbLine
 10
-387.3312602172024
 20
-352.9347270243876
 30
0.0
 11
-387.3312602172024
 21
-412.934677536423
 31
0.0
  0
LINE
  5
1B3
330
1F
100
AcDbEntity
  8
D-1
  6
Continuous
 62
     2
370
    13
100
AcDbLine
 10
-387.3312602172024
 20
-342.9346940324112
 30
0.0
 11
-387.3312602172024
 21
-297.9349167282517
 31
0.0
  0
LINE
  5
1B4
330
1F
100
AcDbEntity
  8
D-1
  6
Continuous
 62
     2
370
    13
100
AcDbLine
 10
-367.3311942332495
 20
-295.9346132020692
 30
0.0
 11
-367.3311942332495
 21
-320.4347435203758
 31
0.0
  0
LINE
  5
1B5
330
1F
100
AcDbEntity
  8
D-1
  6
Continuous
 62
     2
370
    13
100
AcDbLine
 10
-389.331316303562
 20
-292.9347765123521
 30
0.0
 11
-370.3311546428779
 21
-292.9347765123521
 31
0.0
  0
LINE
  5
1B6
330
1F
100
AcDbEntity
  8
D-1
  6
Continuous
 62
     2
370
    13
100
AcDbLine
 10
-392.3312767131904
 20
-295.9346132020692
 30
0.0
 11
-392.3312767131904
 21
-342.9346940324112
 31
0.0
  0
LINE
  5
1B7
330
1F
100
AcDbEntity
  8
D-1
  6
Continuous
 62
     2
370
    13
100
AcDbLine
 10
-367.3311942332495
 20
-414.9347336227829
 30
0.0
 11
-367.3311942332495
 21
-390.4347270243876
 31
0.0
  0
LINE
  5
1B8
330
1F
100
AcDbEntity
  8
D-1
  6
Continuous
 62
     2
370
    13
100
AcDbLine
 10
-389.331316303562
 20
-417.9346940324114
 30
0.0
 11
-370.3311546428779
 21
-417.9346940324114
 31
0.0
  0
LINE
  5
1B9
330
1F
100
AcDbEntity
  8
D-1
  6
Continuous
 62
     2
370
    13
100
AcDbLine
 10
-392.3312767131904
 20
-414.9347336227829
 30
0.0
 11
-392.3312767131904
 21
-352.9347270243876
 31
0.0
  0
LINE
  5
1BA
330
1F
100
AcDbEntity
  8
D-1
  6
Continuous
 62
     2
370
    13
100
AcDbLine
 10
-461.0111687634438
 20
-328.9248987146325
 30
0.0
 11
-442.3311942332495
 21
-342.9346940324112
 31
0.0
  0
LINE
  5
1BB
330
1F
100
AcDbEntity
  8
D-1
  6
Continuous
 62
     2
370
    13
100
AcDbLine
 10
-517.3311942332496
 20
-347.9345868084881
 30
0.0
 11
-392.3312767131904
 21
-347.9345868084881
 31
0.0
  0
LINE
  5
1BC
330
1F
100
AcDbEntity
  8
D-1
  6
Continuous
 62
     2
370
    13
100
AcDbLine
 10
-517.3311942332496
 20
-347.9345868084881
 30
0.0
 11
-517.3311942332496
 21
-332.9349084802575
 31
0.0
  0
LINE
  5
1BD
330
1F
100
AcDbEntity
  8
D-1
  6
Continuous
 62
     2
370
    13
100
AcDbLine
 10
-522.3312107292378
 20
-347.9345868084881
 30
0.0
 11
-522.3312107292378
 21
-332.9349084802575
 31
0.0
  0
LINE
  5
1BE
330
1F
100
AcDbEntity
  8
D-1
  6
Continuous
 62
     2
370
    13
100
AcDbLine
 10
-517.3311942332496
 20
-352.9347270243876
 30
0.0
 11
-392.3312767131904
 21
-352.9347270243876
 31
0.0
  0
LINE
  5
1BF
330
1F
100
AcDbEntity
  8
D-1
  6
Continuous
 62
     2
370
    13
100
AcDbLine
 10
-504.1614571133172
 20
-328.6047115841427
 30
0.0
 11
-492.3313591931313
 21
-335.4349167282517
 31
0.0
  0
LINE
  5
1C0
330
1F
100
AcDbEntity
  8
D-1
  6
Continuous
 62
     2
370
    13
100
AcDbLine
 10
-480.501013833123
 20
-328.6047115841427
 30
0.0
 11
-492.3313591931313
 21
-335.4349167282517
 31
0.0
  0
LINE
  5
1C1
330
1F
100
AcDbEntity
  8
D-1
  6
Continuous
 62
     2
370
    13
100
AcDbLine
 10
-489.8312272252258
 20
-339.7649899044552
 30
0.0
 11
-478.0011293050401
 21
-332.9349084802575
 31
0.0
  0
LINE
  5
1C2
330
1F
100
AcDbEntity
  8
D-1
  6
Continuous
 62
     2
370
    13
100
AcDbLine
 10
-494.8312437212141
 20
-339.7649899044552
 30
0.0
 11
-506.6615890812224
 21
-332.9349084802575
 31
0.0
  0
LINE
  5
1C3
330
1F
100
AcDbEntity
  8
D-1
  6
Continuous
 62
     2
370
    13
100
AcDbLine
 10
-463.9811889545334
 20
-327.9348919842694
 30
0.0
 11
-478.0011293050401
 21
-327.9348919842694
 31
0.0
  0
LINE
  5
1C4
330
1F
100
AcDbEntity
  8
D-1
  6
Continuous
 62
     2
370
    13
100
AcDbLine
 10
-506.6615890812224
 20
-327.9348919842694
 30
0.0
 11
-517.3311942332496
 21
-327.9348919842694
 31
0.0
  0
LINE
  5
1C5
330
1F
100
AcDbEntity
  8
D-1
  6
Continuous
 62
     2
370
    13
100
AcDbLine
 10
-463.99776742265
 20
-332.9349084802575
 30
0.0
 11
-478.0011293050401
 21
-332.9349084802575
 31
0.0
  0
LINE
  5
1C6
330
1F
100
AcDbEntity
  8
D-1
  6
Continuous
 62
     2
370
    13
100
AcDbLine
 10
-506.6615890812224
 20
-332.9349084802575
 30
0.0
 11
-517.3311942332496
 21
-332.9349084802575
 31
0.0
  0
LINE
  5
1C7
330
1F
100
AcDbEntity
  8
D-9
  6
Continuous
 62
     4
370
    13
100
AcDbLine
 10
-468.1621796375993
 20
-310.4348342483108
 30
0.0
 11
-492.858406015344
 21
-335.1304420264991
 31
0.0
  0
LINE
  5
1C8
330
1F
100
AcDbEntity
  8
D-9
  6
Continuous
 62
     4
370
    13
100
AcDbLine
 10
-475.2335148888662
 20
-310.4348342483108
 30
0.0
 11
-497.3410258422024
 21
-332.5424689215582
 31
0.0
  0
LINE
  5
1C9
330
1F
100
AcDbEntity
  8
D-9
  6
Continuous
 62
     4
370
    13
100
AcDbLine
 10
-482.3043552604878
 20
-310.4348342483108
 30
0.0
 11
-501.8241405487058
 21
-329.9542483767947
 31
0.0
  0
LINE
  5
1CA
330
1F
100
AcDbEntity
  8
D-2
  6
Continuous
 62
     3
370
    13
100
AcDbLine
 10
-397.331788088824
 20
-295.4350322001688
 30
0.0
 11
-397.331788088824
 21
-310.4348342483108
 31
0.0
  0
LINE
  5
1CB
330
1F
100
AcDbEntity
  8
D-4
  6
Continuous
 62
     7
370
    13
100
AcDbLine
 10
-879.0582747072783
 20
-257.4147899730785
 30
0.0
 11
-879.0582747072783
 21
-341.6176955764358
 31
0.0
  0
LINE
  5
1CC
330
1F
100
AcDbEntity
  8
D-2
  6
Continuous
 62
     3
370
    13
100
AcDbLine
 10
-397.331788088824
 20
-310.4348342483108
 30
0.0
 11
-1070.001090539468
 21
-310.4348342483108
 31
0.0
  0
LINE
  5
1CD
330
1F
100
AcDbEntity
  8
D-2
  6
Continuous
 62
     3
370
    13
100
AcDbLine
 10
-397.331788088824
 20
-300.4352961359797
 30
0.0
 11
-1070.001090539468
 21
-300.4352961359797
 31
0.0
  0
LINE
  5
1CE
330
1F
100
AcDbEntity
  8
D-2
  6
Continuous
 62
     3
370
    13
100
AcDbLine
 10
-397.331788088824
 20
-305.4350651921452
 30
0.0
 11
-1070.001090539468
 21
-305.4350651921452
 31
0.0
  0
LINE
  5
1CF
330
1F
100
AcDbEntity
  8
D-2
  6
Continuous
 62
     3
370
    13
100
AcDbLine
 10
-397.331788088824
 20
-295.4350322001688
 30
0.0
 11
-1070.001090539468
 21
-295.4350322001688
 31
0.0
  0
LINE
  5
1D0
330
1F
100
AcDbEntity
  8
D-5
  6
Continuous
 62
     7
370
    13
100
AcDbLine
 10
-272.8096768662732
 20
-66.68904072529557
 30
0.0
 11
378.5776357393013
 21
-66.68904072529557
 31
0.0
  0
LINE
  5
1D1
330
1F
100
AcDbEntity
  8
D-5
  6
Continuous
 62
     7
370
    13
100
AcDbLine
 10
-272.8096768662732
 20
-66.68904072529557
 30
0.0
 11
-470.3223292892039
 21
-295.4350322001688
 31
0.0
  0
LINE
  5
1D2
330
1F
100
AcDbEntity
  8
D-5
  6
Continuous
 62
     7
370
    13
100
AcDbLine
 10
-470.3223292892039
 20
-295.4350322001688
 30
0.0
 11
-456.5938730497615
 21
-274.5420796162372
 31
0.0
  0
LINE
  5
1D3
330
1F
100
AcDbEntity
  8
D-5
  6
Continuous
 62
     7
370
    13
100
AcDbLine
 10
-470.3223292892039
 20
-295.4350322001688
 30
0.0
 11
-451.6539844306735
 21
-278.8070761190878
 31
0.0
  0
LINE
  5
1D4
330
1F
100
AcDbEntity
  8
D-5
  6
Continuous
 62
     2
370
    13
100
AcDbLine
 10
602.3396943066575
 20
-342.9351889120565
 30
0.0
 11
377.3404366261255
 21
-342.9351889120565
 31
0.0
  0
LINE
  5
1D5
330
1F
100
AcDbEntity
  8
D-5
  6
Continuous
 62
     2
370
    13
100
AcDbLine
 10
602.3396943066575
 20
-292.9349002322634
 30
0.0
 11
602.3396943066575
 21
-342.9351889120565
 31
0.0
  0
LINE
  5
1D6
330
1F
100
AcDbEntity
  8
D-5
  6
Continuous
 62
     2
370
    13
100
AcDbLine
 10
377.3404366261255
 20
-292.9349002322634
 30
0.0
 11
602.3396943066575
 21
-292.9349002322634
 31
0.0
  0
LINE
  5
1D7
330
1F
100
AcDbEntity
  8
D-5
  6
Continuous
 62
     2
370
    13
100
AcDbLine
 10
377.3404366261255
 20
-342.9351889120565
 30
0.0
 11
377.3404366261255
 21
-292.9349002322634
 31
0.0
  0
LINE
  5
1D8
330
1F
100
AcDbEntity
  8
D-5
  6
Continuous
 62
     7
370
    13
100
AcDbLine
 10
-1119.253492355346
 20
-664.0181134198162
 30
0.0
 11
-1000.374617447724
 21
-403.8801121067355
 31
0.0
  0
LINE
  5
1D9
330
1F
100
AcDbEntity
  8
D-2
  6
Continuous
 62
     3
370
    13
100
AcDbLine
 10
-572.3318705687649
 20
-435.4348754882812
 30
0.0
 11
-1070.001090539468
 21
-435.4348754882812
 31
0.0
  0
LINE
  5
1DA
330
1F
100
AcDbEntity
  8
D-2
  6
Continuous
 62
     3
370
    13
100
AcDbLine
 10
-572.3318705687649
 20
-310.4348342483108
 30
0.0
 11
-572.3318705687649
 21
-435.4348754882812
 31
0.0
  0
LINE
  5
1DB
330
1F
100
AcDbEntity
  8
D-2
  6
JWW_DASHED3
 62
     3
370
    13
100
AcDbLine
 10
-572.3318705687649
 20
-325.4348837362753
 30
0.0
 11
-1070.001090539468
 21
-325.4348837362753
 31
0.0
  0
LINE
  5
1DC
330
1F
100
AcDbEntity
  8
D-2
  6
Continuous
 62
     3
370
    13
100
AcDbLine
 10
-1070.001090539468
 20
-499.0862954629433
 30
0.0
 11
-1070.001090539468
 21
-226.73583984375
 31
0.0
  0
LINE
  5
1DD
330
1F
100
AcDbEntity
  8
D-4
  6
Continuous
 62
     7
370
    13
100
AcDbLine
 10
-1000.374617447724
 20
-403.8801121067355
 30
0.0
 11
-1007.708795650585
 21
-427.7800771352406
 31
0.0
  0
LINE
  5
1DE
330
1F
100
AcDbEntity
  8
D-4
  6
Continuous
 62
     7
370
    13
100
AcDbLine
 10
-1000.374617447724
 20
-403.8801121067355
 30
0.0
 11
-1013.644629555779
 21
-425.067518079603
 31
0.0
  0
LINE
  5
1DF
330
1F
100
AcDbEntity
  8
D-5
  6
Continuous
 62
     7
370
    13
100
AcDbLine
 10
-1119.253492355346
 20
-664.0181134198162
 30
0.0
 11
-606.8809032440183
 21
-664.0181134198162
 31
0.0
  0
ARC
  5
1E0
330
1F
100
AcDbEntity
  8
C-A
  6
Continuous
 62
     3
370
    13
100
AcDbCircle
 10
-983.958902874508
 20
1007.999267578125
 30
0.0
 40
2.999960167987927
100
AcDbArc
 50
90.0
 51
270.0
  0
ARC
  5
1E1
330
1F
100
AcDbEntity
  8
C-A
  6
Continuous
 62
     3
370
    13
100
AcDbCircle
 10
-949.9591866055048
 20
1007.999267578125
 30
0.0
 40
2.999960167987927
100
AcDbArc
 50
270.0
 51
90.0
  0
ARC
  5
1E2
330
1F
100
AcDbEntity
  8
C-A
  6
Continuous
 62
     3
370
    13
100
AcDbCircle
 10
-903.9588863785198
 20
1007.999267578125
 30
0.0
 40
2.999960167987927
100
AcDbArc
 50
90.0
 51
270.0
  0
ARC
  5
1E3
330
1F
100
AcDbEntity
  8
C-A
  6
Continuous
 62
     3
370
    13
100
AcDbCircle
 10
-869.9587989497826
 20
1007.999267578125
 30
0.0
 40
2.999960167987927
100
AcDbArc
 50
270.0
 51
90.0
  0
ARC
  5
1E4
330
1F
100
AcDbEntity
  8
C-A
  6
Continuous
 62
     3
370
    13
100
AcDbCircle
 10
-823.9594884820883
 20
1007.999267578125
 30
0.0
 40
2.999960167987927
100
AcDbArc
 50
90.0
 51
270.0
  0
ARC
  5
1E5
330
1F
100
AcDbEntity
  8
C-A
  6
Continuous
 62
     3
370
    13
100
AcDbCircle
 10
-789.9594010533509
 20
1007.999267578125
 30
0.0
 40
2.999960167987927
100
AcDbArc
 50
270.0
 51
90.0
  0
ARC
  5
1E6
330
1F
100
AcDbEntity
  8
C-A
  6
Continuous
 62
     3
370
    13
100
AcDbCircle
 10
-743.9591008263662
 20
1007.999267578125
 30
0.0
 40
2.999960167987927
100
AcDbArc
 50
90.0
 51
270.0
  0
ARC
  5
1E7
330
1F
100
AcDbEntity
  8
C-A
  6
Continuous
 62
     3
370
    13
100
AcDbCircle
 10
-709.9590133976287
 20
1007.999267578125
 30
0.0
 40
2.999960167987927
100
AcDbArc
 50
270.0
 51
90.0
  0
ARC
  5
1E8
330
1F
100
AcDbEntity
  8
C-A
  6
Continuous
 62
     3
370
    13
100
AcDbCircle
 10
-663.958713170644
 20
1007.999267578125
 30
0.0
 40
2.999960167987927
100
AcDbArc
 50
90.0
 51
270.0
  0
ARC
  5
1E9
330
1F
100
AcDbEntity
  8
C-A
  6
Continuous
 62
     3
370
    13
100
AcDbCircle
 10
-629.9586257419065
 20
1007.999267578125
 30
0.0
 40
2.999960167987927
100
AcDbArc
 50
270.0
 51
90.0
  0
ARC
  5
1EA
330
1F
100
AcDbEntity
  8
C-A
  6
Continuous
 62
     3
370
    13
100
AcDbCircle
 10
-583.9593152742125
 20
1007.999267578125
 30
0.0
 40
2.999960167987927
100
AcDbArc
 50
90.0
 51
270.0
  0
ARC
  5
1EB
330
1F
100
AcDbEntity
  8
C-A
  6
Continuous
 62
     3
370
    13
100
AcDbCircle
 10
-549.9593515653864
 20
1007.999267578125
 30
0.0
 40
2.999960167987927
100
AcDbArc
 50
270.0
 51
90.0
  0
ARC
  5
1EC
330
1F
100
AcDbEntity
  8
C-A
  6
Continuous
 62
     3
370
    13
100
AcDbCircle
 10
-983.958902874508
 20
957.9993500580658
 30
0.0
 40
2.999960167987927
100
AcDbArc
 50
90.0
 51
270.0
  0
ARC
  5
1ED
330
1F
100
AcDbEntity
  8
C-A
  6
Continuous
 62
     3
370
    13
100
AcDbCircle
 10
-949.9591866055048
 20
957.9993500580658
 30
0.0
 40
2.999960167987927
100
AcDbArc
 50
270.0
 51
90.0
  0
ARC
  5
1EE
330
1F
100
AcDbEntity
  8
C-A
  6
Continuous
 62
     3
370
    13
100
AcDbCircle
 10
-903.9588863785198
 20
957.9993500580658
 30
0.0
 40
2.999960167987927
100
AcDbArc
 50
90.0
 51
270.0
  0
ARC
  5
1EF
330
1F
100
AcDbEntity
  8
C-A
  6
Continuous
 62
     3
370
    13
100
AcDbCircle
 10
-869.9587989497826
 20
957.9993500580658
 30
0.0
 40
2.999960167987927
100
AcDbArc
 50
270.0
 51
90.0
  0
ARC
  5
1F0
330
1F
100
AcDbEntity
  8
C-A
  6
Continuous
 62
     3
370
    13
100
AcDbCircle
 10
-823.9594884820883
 20
957.9993500580658
 30
0.0
 40
2.999960167987927
100
AcDbArc
 50
90.0
 51
270.0
  0
ARC
  5
1F1
330
1F
100
AcDbEntity
  8
C-A
  6
Continuous
 62
     3
370
    13
100
AcDbCircle
 10
-789.9594010533509
 20
957.9993500580658
 30
0.0
 40
2.999960167987927
100
AcDbArc
 50
270.0
 51
90.0
  0
ARC
  5
1F2
330
1F
100
AcDbEntity
  8
C-A
  6
Continuous
 62
     3
370
    13
100
AcDbCircle
 10
-743.9591008263662
 20
957.9993500580658
 30
0.0
 40
2.999960167987927
100
AcDbArc
 50
90.0
 51
270.0
  0
ARC
  5
1F3
330
1F
100
AcDbEntity
  8
C-A
  6
Continuous
 62
     3
370
    13
100
AcDbCircle
 10
-709.9590133976287
 20
957.9993500580658
 30
0.0
 40
2.999960167987927
100
AcDbArc
 50
270.0
 51
90.0
  0
ARC
  5
1F4
330
1F
100
AcDbEntity
  8
C-A
  6
Continuous
 62
     3
370
    13
100
AcDbCircle
 10
-663.958713170644
 20
957.9993500580658
 30
0.0
 40
2.999960167987927
100
AcDbArc
 50
90.0
 51
270.0
  0
ARC
  5
1F5
330
1F
100
AcDbEntity
  8
C-A
  6
Continuous
 62
     3
370
    13
100
AcDbCircle
 10
-629.9586257419065
 20
957.9993500580658
 30
0.0
 40
2.999960167987927
100
AcDbArc
 50
270.0
 51
90.0
  0
ARC
  5
1F6
330
1F
100
AcDbEntity
  8
C-A
  6
Continuous
 62
     3
370
    13
100
AcDbCircle
 10
-583.9593152742125
 20
957.9993500580658
 30
0.0
 40
2.999960167987927
100
AcDbArc
 50
90.0
 51
270.0
  0
ARC
  5
1F7
330
1F
100
AcDbEntity
  8
C-A
  6
Continuous
 62
     3
370
    13
100
AcDbCircle
 10
-549.9593515653864
 20
957.9993500580658
 30
0.0
 40
2.999960167987927
100
AcDbArc
 50
270.0
 51
90.0
  0
ARC
  5
1F8
330
1F
100
AcDbEntity
  8
C-A
  6
Continuous
 62
     3
370
    13
100
AcDbCircle
 10
-983.958902874508
 20
907.9994325380068
 30
0.0
 40
2.999960167987927
100
AcDbArc
 50
90.0
 51
270.0
  0
ARC
  5
1F9
330
1F
100
AcDbEntity
  8
C-A
  6
Continuous
 62
     3
370
    13
100
AcDbCircle
 10
-949.9591866055048
 20
907.9994325380068
 30
0.0
 40
2.999960167987927
100
AcDbArc
 50
270.0
 51
90.0
  0
ARC
  5
1FA
330
1F
100
AcDbEntity
  8
C-A
  6
Continuous
 62
     3
370
    13
100
AcDbCircle
 10
-903.9588863785198
 20
907.9994325380068
 30
0.0
 40
2.999960167987927
100
AcDbArc
 50
90.0
 51
270.0
  0
ARC
  5
1FB
330
1F
100
AcDbEntity
  8
C-A
  6
Continuous
 62
     3
370
    13
100
AcDbCircle
 10
-869.9587989497826
 20
907.9994325380068
 30
0.0
 40
2.999960167987927
100
AcDbArc
 50
270.0
 51
90.0
  0
ARC
  5
1FC
330
1F
100
AcDbEntity
  8
C-A
  6
Continuous
 62
     3
370
    13
100
AcDbCircle
 10
-823.9594884820883
 20
907.9994325380068
 30
0.0
 40
2.999960167987927
100
AcDbArc
 50
90.0
 51
270.0
  0
ARC
  5
1FD
330
1F
100
AcDbEntity
  8
C-A
  6
Continuous
 62
     3
370
    13
100
AcDbCircle
 10
-789.9594010533509
 20
907.9994325380068
 30
0.0
 40
2.999960167987927
100
AcDbArc
 50
270.0
 51
90.0
  0
ARC
  5
1FE
330
1F
100
AcDbEntity
  8
C-A
  6
Continuous
 62
     3
370
    13
100
AcDbCircle
 10
-743.9591008263662
 20
907.9994325380068
 30
0.0
 40
2.999960167987927
100
AcDbArc
 50
90.0
 51
270.0
  0
ARC
  5
1FF
330
1F
100
AcDbEntity
  8
C-A
  6
Continuous
 62
     3
370
    13
100
AcDbCircle
 10
-709.9590133976287
 20
907.9994325380068
 30
0.0
 40
2.999960167987927
100
AcDbArc
 50
270.0
 51
90.0
  0
ARC
  5
200
330
1F
100
AcDbEntity
  8
C-A
  6
Continuous
 62
     3
370
    13
100
AcDbCircle
 10
-663.958713170644
 20
907.9994325380068
 30
0.0
 40
2.999960167987927
100
AcDbArc
 50
90.0
 51
270.0
  0
ARC
  5
201
330
1F
100
AcDbEntity
  8
C-A
  6
Continuous
 62
     3
370
    13
100
AcDbCircle
 10
-629.9586257419065
 20
907.9994325380068
 30
0.0
 40
2.999960167987927
100
AcDbArc
 50
270.0
 51
90.0
  0
ARC
  5
202
330
1F
100
AcDbEntity
  8
C-A
  6
Continuous
 62
     3
370
    13
100
AcDbCircle
 10
-583.9593152742125
 20
907.9994325380068
 30
0.0
 40
2.999960167987927
100
AcDbArc
 50
90.0
 51
270.0
  0
ARC
  5
203
330
1F
100
AcDbEntity
  8
C-A
  6
Continuous
 62
     3
370
    13
100
AcDbCircle
 10
-549.9593515653864
 20
907.9994325380068
 30
0.0
 40
2.999960167987927
100
AcDbArc
 50
270.0
 51
90.0
  0
ARC
  5
204
330
1F
100
AcDbEntity
  8
C-A
  6
Continuous
 62
     3
370
    13
100
AcDbCircle
 10
-983.958902874508
 20
857.999267578125
 30
0.0
 40
2.999960167987927
100
AcDbArc
 50
90.0
 51
270.0
  0
ARC
  5
205
330
1F
100
AcDbEntity
  8
C-A
  6
Continuous
 62
     3
370
    13
100
AcDbCircle
 10
-949.9591866055048
 20
857.999267578125
 30
0.0
 40
2.999960167987927
100
AcDbArc
 50
270.0
 51
90.0
  0
ARC
  5
206
330
1F
100
AcDbEntity
  8
C-A
  6
Continuous
 62
     3
370
    13
100
AcDbCircle
 10
-903.9588863785198
 20
857.999267578125
 30
0.0
 40
2.999960167987927
100
AcDbArc
 50
90.0
 51
270.0
  0
ARC
  5
207
330
1F
100
AcDbEntity
  8
C-A
  6
Continuous
 62
     3
370
    13
100
AcDbCircle
 10
-869.9587989497826
 20
857.999267578125
 30
0.0
 40
2.999960167987927
100
AcDbArc
 50
270.0
 51
90.0
  0
ARC
  5
208
330
1F
100
AcDbEntity
  8
C-A
  6
Continuous
 62
     3
370
    13
100
AcDbCircle
 10
-823.9594884820883
 20
857.999267578125
 30
0.0
 40
2.999960167987927
100
AcDbArc
 50
90.0
 51
270.0
  0
ARC
  5
209
330
1F
100
AcDbEntity
  8
C-A
  6
Continuous
 62
     3
370
    13
100
AcDbCircle
 10
-789.9594010533509
 20
857.999267578125
 30
0.0
 40
2.999960167987927
100
AcDbArc
 50
270.0
 51
90.0
  0
ARC
  5
20A
330
1F
100
AcDbEntity
  8
C-A
  6
Continuous
 62
     3
370
    13
100
AcDbCircle
 10
-743.9591008263662
 20
857.999267578125
 30
0.0
 40
2.999960167987927
100
AcDbArc
 50
90.0
 51
270.0
  0
ARC
  5
20B
330
1F
100
AcDbEntity
  8
C-A
  6
Continuous
 62
     3
370
    13
100
AcDbCircle
 10
-709.9590133976287
 20
857.999267578125
 30
0.0
 40
2.999960167987927
100
AcDbArc
 50
270.0
 51
90.0
  0
ARC
  5
20C
330
1F
100
AcDbEntity
  8
C-A
  6
Continuous
 62
     3
370
    13
100
AcDbCircle
 10
-663.958713170644
 20
857.999267578125
 30
0.0
 40
2.999960167987927
100
AcDbArc
 50
90.0
 51
270.0
  0
ARC
  5
20D
330
1F
100
AcDbEntity
  8
C-A
  6
Continuous
 62
     3
370
    13
100
AcDbCircle
 10
-629.9586257419065
 20
857.999267578125
 30
0.0
 40
2.999960167987927
100
AcDbArc
 50
270.0
 51
90.0
  0
ARC
  5
20E
330
1F
100
AcDbEntity
  8
C-A
  6
Continuous
 62
     3
370
    13
100
AcDbCircle
 10
-583.9593152742125
 20
857.999267578125
 30
0.0
 40
2.999960167987927
100
AcDbArc
 50
90.0
 51
270.0
  0
ARC
  5
20F
330
1F
100
AcDbEntity
  8
C-A
  6
Continuous
 62
     3
370
    13
100
AcDbCircle
 10
-549.9593515653864
 20
857.999267578125
 30
0.0
 40
2.999960167987927
100
AcDbArc
 50
270.0
 51
90.0
  0
ARC
  5
210
330
1F
100
AcDbEntity
  8
C-A
  6
Continuous
 62
     3
370
    13
100
AcDbCircle
 10
-983.958902874508
 20
807.9993500580658
 30
0.0
 40
2.999960167987927
100
AcDbArc
 50
90.0
 51
270.0
  0
ARC
  5
211
330
1F
100
AcDbEntity
  8
C-A
  6
Continuous
 62
     3
370
    13
100
AcDbCircle
 10
-949.9591866055048
 20
807.9993500580658
 30
0.0
 40
2.999960167987927
100
AcDbArc
 50
270.0
 51
90.0
  0
ARC
  5
212
330
1F
100
AcDbEntity
  8
C-A
  6
Continuous
 62
     3
370
    13
100
AcDbCircle
 10
-903.9588863785198
 20
807.9993500580658
 30
0.0
 40
2.999960167987927
100
AcDbArc
 50
90.0
 51
270.0
  0
ARC
  5
213
330
1F
100
AcDbEntity
  8
C-A
  6
Continuous
 62
     3
370
    13
100
AcDbCircle
 10
-869.9587989497826
 20
807.9993500580658
 30
0.0
 40
2.999960167987927
100
AcDbArc
 50
270.0
 51
90.0
  0
ARC
  5
214
330
1F
100
AcDbEntity
  8
C-A
  6
Continuous
 62
     3
370
    13
100
AcDbCircle
 10
-823.9594884820883
 20
807.9993500580658
 30
0.0
 40
2.999960167987927
100
AcDbArc
 50
90.0
 51
270.0
  0
ARC
  5
215
330
1F
100
AcDbEntity
  8
C-A
  6
Continuous
 62
     3
370
    13
100
AcDbCircle
 10
-789.9594010533509
 20
807.9993500580658
 30
0.0
 40
2.999960167987927
100
AcDbArc
 50
270.0
 51
90.0
  0
ARC
  5
216
330
1F
100
AcDbEntity
  8
C-A
  6
Continuous
 62
     3
370
    13
100
AcDbCircle
 10
-743.9591008263662
 20
807.9993500580658
 30
0.0
 40
2.999960167987927
100
AcDbArc
 50
90.0
 51
270.0
  0
ARC
  5
217
330
1F
100
AcDbEntity
  8
C-A
  6
Continuous
 62
     3
370
    13
100
AcDbCircle
 10
-709.9590133976287
 20
807.9993500580658
 30
0.0
 40
2.999960167987927
100
AcDbArc
 50
270.0
 51
90.0
  0
ARC
  5
218
330
1F
100
AcDbEntity
  8
C-A
  6
Continuous
 62
     3
370
    13
100
AcDbCircle
 10
-663.958713170644
 20
807.9993500580658
 30
0.0
 40
2.999960167987927
100
AcDbArc
 50
90.0
 51
270.0
  0
ARC
  5
219
330
1F
100
AcDbEntity
  8
C-A
  6
Continuous
 62
     3
370
    13
100
AcDbCircle
 10
-629.9586257419065
 20
807.9993500580658
 30
0.0
 40
2.999960167987927
100
AcDbArc
 50
270.0
 51
90.0
  0
ARC
  5
21A
330
1F
100
AcDbEntity
  8
C-A
  6
Continuous
 62
     3
370
    13
100
AcDbCircle
 10
-583.9593152742125
 20
807.9993500580658
 30
0.0
 40
2.999960167987927
100
AcDbArc
 50
90.0
 51
270.0
  0
ARC
  5
21B
330
1F
100
AcDbEntity
  8
C-A
  6
Continuous
 62
     3
370
    13
100
AcDbCircle
 10
-549.9593515653864
 20
807.9993500580658
 30
0.0
 40
2.999960167987927
100
AcDbArc
 50
270.0
 51
90.0
  0
ARC
  5
21C
330
1F
100
AcDbEntity
  8
C-A
  6
Continuous
 62
     3
370
    13
100
AcDbCircle
 10
-983.958902874508
 20
757.9991850981842
 30
0.0
 40
2.999960167987927
100
AcDbArc
 50
90.0
 51
270.0
  0
ARC
  5
21D
330
1F
100
AcDbEntity
  8
C-A
  6
Continuous
 62
     3
370
    13
100
AcDbCircle
 10
-949.9591866055048
 20
757.9991850981842
 30
0.0
 40
2.999960167987927
100
AcDbArc
 50
270.0
 51
90.0
  0
ARC
  5
21E
330
1F
100
AcDbEntity
  8
C-A
  6
Continuous
 62
     3
370
    13
100
AcDbCircle
 10
-903.9588863785198
 20
757.9991850981842
 30
0.0
 40
2.999960167987927
100
AcDbArc
 50
90.0
 51
270.0
  0
ARC
  5
21F
330
1F
100
AcDbEntity
  8
C-A
  6
Continuous
 62
     3
370
    13
100
AcDbCircle
 10
-869.9587989497826
 20
757.9991850981842
 30
0.0
 40
2.999960167987927
100
AcDbArc
 50
270.0
 51
90.0
  0
ARC
  5
220
330
1F
100
AcDbEntity
  8
C-A
  6
Continuous
 62
     3
370
    13
100
AcDbCircle
 10
-823.9594884820883
 20
757.9991850981842
 30
0.0
 40
2.999960167987927
100
AcDbArc
 50
90.0
 51
270.0
  0
ARC
  5
221
330
1F
100
AcDbEntity
  8
C-A
  6
Continuous
 62
     3
370
    13
100
AcDbCircle
 10
-789.9594010533509
 20
757.9991850981842
 30
0.0
 40
2.999960167987927
100
AcDbArc
 50
270.0
 51
90.0
  0
ARC
  5
222
330
1F
100
AcDbEntity
  8
C-A
  6
Continuous
 62
     3
370
    13
100
AcDbCircle
 10
-743.9591008263662
 20
757.9991850981842
 30
0.0
 40
2.999960167987927
100
AcDbArc
 50
90.0
 51
270.0
  0
ARC
  5
223
330
1F
100
AcDbEntity
  8
C-A
  6
Continuous
 62
     3
370
    13
100
AcDbCircle
 10
-709.9590133976287
 20
757.9991850981842
 30
0.0
 40
2.999960167987927
100
AcDbArc
 50
270.0
 51
90.0
  0
ARC
  5
224
330
1F
100
AcDbEntity
  8
C-A
  6
Continuous
 62
     3
370
    13
100
AcDbCircle
 10
-663.958713170644
 20
757.9991850981842
 30
0.0
 40
2.999960167987927
100
AcDbArc
 50
90.0
 51
270.0
  0
ARC
  5
225
330
1F
100
AcDbEntity
  8
C-A
  6
Continuous
 62
     3
370
    13
100
AcDbCircle
 10
-629.9586257419065
 20
757.9991850981842
 30
0.0
 40
2.999960167987927
100
AcDbArc
 50
270.0
 51
90.0
  0
ARC
  5
226
330
1F
100
AcDbEntity
  8
C-A
  6
Continuous
 62
     3
370
    13
100
AcDbCircle
 10
-583.9593152742125
 20
757.9991850981842
 30
0.0
 40
2.999960167987927
100
AcDbArc
 50
90.0
 51
270.0
  0
ARC
  5
227
330
1F
100
AcDbEntity
  8
C-A
  6
Continuous
 62
     3
370
    13
100
AcDbCircle
 10
-549.9593515653864
 20
757.9991850981842
 30
0.0
 40
2.999960167987927
100
AcDbArc
 50
270.0
 51
90.0
  0
ARC
  5
228
330
1F
100
AcDbEntity
  8
C-A
  6
Continuous
 62
     3
370
    13
100
AcDbCircle
 10
-983.958902874508
 20
707.999267578125
 30
0.0
 40
2.999960167987927
100
AcDbArc
 50
90.0
 51
270.0
  0
ARC
  5
229
330
1F
100
AcDbEntity
  8
C-A
  6
Continuous
 62
     3
370
    13
100
AcDbCircle
 10
-949.9591866055048
 20
707.999267578125
 30
0.0
 40
2.999960167987927
100
AcDbArc
 50
270.0
 51
90.0
  0
ARC
  5
22A
330
1F
100
AcDbEntity
  8
C-A
  6
Continuous
 62
     3
370
    13
100
AcDbCircle
 10
-903.9588863785198
 20
707.999267578125
 30
0.0
 40
2.999960167987927
100
AcDbArc
 50
90.0
 51
270.0
  0
ARC
  5
22B
330
1F
100
AcDbEntity
  8
C-A
  6
Continuous
 62
     3
370
    13
100
AcDbCircle
 10
-869.9587989497826
 20
707.999267578125
 30
0.0
 40
2.999960167987927
100
AcDbArc
 50
270.0
 51
90.0
  0
ARC
  5
22C
330
1F
100
AcDbEntity
  8
C-A
  6
Continuous
 62
     3
370
    13
100
AcDbCircle
 10
-823.9594884820883
 20
707.999267578125
 30
0.0
 40
2.999960167987927
100
AcDbArc
 50
90.0
 51
270.0
  0
ARC
  5
22D
330
1F
100
AcDbEntity
  8
C-A
  6
Continuous
 62
     3
370
    13
100
AcDbCircle
 10
-789.9594010533509
 20
707.999267578125
 30
0.0
 40
2.999960167987927
100
AcDbArc
 50
270.0
 51
90.0
  0
ARC
  5
22E
330
1F
100
AcDbEntity
  8
C-A
  6
Continuous
 62
     3
370
    13
100
AcDbCircle
 10
-743.9591008263662
 20
707.999267578125
 30
0.0
 40
2.999960167987927
100
AcDbArc
 50
90.0
 51
270.0
  0
ARC
  5
22F
330
1F
100
AcDbEntity
  8
C-A
  6
Continuous
 62
     3
370
    13
100
AcDbCircle
 10
-709.9590133976287
 20
707.999267578125
 30
0.0
 40
2.999960167987927
100
AcDbArc
 50
270.0
 51
90.0
  0
ARC
  5
230
330
1F
100
AcDbEntity
  8
C-A
  6
Continuous
 62
     3
370
    13
100
AcDbCircle
 10
-663.958713170644
 20
707.999267578125
 30
0.0
 40
2.999960167987927
100
AcDbArc
 50
90.0
 51
270.0
  0
ARC
  5
231
330
1F
100
AcDbEntity
  8
C-A
  6
Continuous
 62
     3
370
    13
100
AcDbCircle
 10
-629.9586257419065
 20
707.999267578125
 30
0.0
 40
2.999960167987927
100
AcDbArc
 50
270.0
 51
90.0
  0
ARC
  5
232
330
1F
100
AcDbEntity
  8
C-A
  6
Continuous
 62
     3
370
    13
100
AcDbCircle
 10
-583.9593152742125
 20
707.999267578125
 30
0.0
 40
2.999960167987927
100
AcDbArc
 50
90.0
 51
270.0
  0
ARC
  5
233
330
1F
100
AcDbEntity
  8
C-A
  6
Continuous
 62
     3
370
    13
100
AcDbCircle
 10
-549.9593515653864
 20
707.999267578125
 30
0.0
 40
2.999960167987927
100
AcDbArc
 50
270.0
 51
90.0
  0
ARC
  5
234
330
1F
100
AcDbEntity
  8
C-A
  6
Continuous
 62
     3
370
    13
100
AcDbCircle
 10
-983.958902874508
 20
657.9991026182432
 30
0.0
 40
2.999960167987927
100
AcDbArc
 50
90.0
 51
270.0
  0
ARC
  5
235
330
1F
100
AcDbEntity
  8
C-A
  6
Continuous
 62
     3
370
    13
100
AcDbCircle
 10
-949.9591866055048
 20
657.9991026182432
 30
0.0
 40
2.999960167987927
100
AcDbArc
 50
270.0
 51
90.0
  0
ARC
  5
236
330
1F
100
AcDbEntity
  8
C-A
  6
Continuous
 62
     3
370
    13
100
AcDbCircle
 10
-903.9588863785198
 20
657.9991026182432
 30
0.0
 40
2.999960167987927
100
AcDbArc
 50
90.0
 51
270.0
  0
ARC
  5
237
330
1F
100
AcDbEntity
  8
C-A
  6
Continuous
 62
     3
370
    13
100
AcDbCircle
 10
-869.9587989497826
 20
657.9991026182432
 30
0.0
 40
2.999960167987927
100
AcDbArc
 50
270.0
 51
90.0
  0
ARC
  5
238
330
1F
100
AcDbEntity
  8
C-A
  6
Continuous
 62
     3
370
    13
100
AcDbCircle
 10
-823.9594884820883
 20
657.9991026182432
 30
0.0
 40
2.999960167987927
100
AcDbArc
 50
90.0
 51
270.0
  0
ARC
  5
239
330
1F
100
AcDbEntity
  8
C-A
  6
Continuous
 62
     3
370
    13
100
AcDbCircle
 10
-789.9594010533509
 20
657.9991026182432
 30
0.0
 40
2.999960167987927
100
AcDbArc
 50
270.0
 51
90.0
  0
ARC
  5
23A
330
1F
100
AcDbEntity
  8
C-A
  6
Continuous
 62
     3
370
    13
100
AcDbCircle
 10
-743.9591008263662
 20
657.9991026182432
 30
0.0
 40
2.999960167987927
100
AcDbArc
 50
90.0
 51
270.0
  0
ARC
  5
23B
330
1F
100
AcDbEntity
  8
C-A
  6
Continuous
 62
     3
370
    13
100
AcDbCircle
 10
-709.9590133976287
 20
657.9991026182432
 30
0.0
 40
2.999960167987927
100
AcDbArc
 50
270.0
 51
90.0
  0
ARC
  5
23C
330
1F
100
AcDbEntity
  8
C-A
  6
Continuous
 62
     3
370
    13
100
AcDbCircle
 10
-663.958713170644
 20
657.9991026182432
 30
0.0
 40
2.999960167987927
100
AcDbArc
 50
90.0
 51
270.0
  0
ARC
  5
23D
330
1F
100
AcDbEntity
  8
C-A
  6
Continuous
 62
     3
370
    13
100
AcDbCircle
 10
-629.9586257419065
 20
657.9991026182432
 30
0.0
 40
2.999960167987927
100
AcDbArc
 50
270.0
 51
90.0
  0
ARC
  5
23E
330
1F
100
AcDbEntity
  8
C-A
  6
Continuous
 62
     3
370
    13
100
AcDbCircle
 10
-583.9593152742125
 20
657.9991026182432
 30
0.0
 40
2.999960167987927
100
AcDbArc
 50
90.0
 51
270.0
  0
ARC
  5
23F
330
1F
100
AcDbEntity
  8
C-A
  6
Continuous
 62
     3
370
    13
100
AcDbCircle
 10
-549.9593515653864
 20
657.9991026182432
 30
0.0
 40
2.999960167987927
100
AcDbArc
 50
270.0
 51
90.0
  0
ARC
  5
240
330
1F
100
AcDbEntity
  8
C-A
  6
Continuous
 62
     3
370
    13
100
AcDbCircle
 10
-983.958902874508
 20
607.9994325380068
 30
0.0
 40
2.999960167987927
100
AcDbArc
 50
90.0
 51
270.0
  0
ARC
  5
241
330
1F
100
AcDbEntity
  8
C-A
  6
Continuous
 62
     3
370
    13
100
AcDbCircle
 10
-949.9591866055048
 20
607.9994325380068
 30
0.0
 40
2.999960167987927
100
AcDbArc
 50
270.0
 51
90.0
  0
ARC
  5
242
330
1F
100
AcDbEntity
  8
C-A
  6
Continuous
 62
     3
370
    13
100
AcDbCircle
 10
-903.9588863785198
 20
607.9994325380068
 30
0.0
 40
2.999960167987927
100
AcDbArc
 50
90.0
 51
270.0
  0
ARC
  5
243
330
1F
100
AcDbEntity
  8
C-A
  6
Continuous
 62
     3
370
    13
100
AcDbCircle
 10
-869.9587989497826
 20
607.9994325380068
 30
0.0
 40
2.999960167987927
100
AcDbArc
 50
270.0
 51
90.0
  0
ARC
  5
244
330
1F
100
AcDbEntity
  8
C-A
  6
Continuous
 62
     3
370
    13
100
AcDbCircle
 10
-823.9594884820883
 20
607.9994325380068
 30
0.0
 40
2.999960167987927
100
AcDbArc
 50
90.0
 51
270.0
  0
ARC
  5
245
330
1F
100
AcDbEntity
  8
C-A
  6
Continuous
 62
     3
370
    13
100
AcDbCircle
 10
-789.9594010533509
 20
607.9994325380068
 30
0.0
 40
2.999960167987927
100
AcDbArc
 50
270.0
 51
90.0
  0
ARC
  5
246
330
1F
100
AcDbEntity
  8
C-A
  6
Continuous
 62
     3
370
    13
100
AcDbCircle
 10
-743.9591008263662
 20
607.9994325380068
 30
0.0
 40
2.999960167987927
100
AcDbArc
 50
90.0
 51
270.0
  0
ARC
  5
247
330
1F
100
AcDbEntity
  8
C-A
  6
Continuous
 62
     3
370
    13
100
AcDbCircle
 10
-709.9590133976287
 20
607.9994325380068
 30
0.0
 40
2.999960167987927
100
AcDbArc
 50
270.0
 51
90.0
  0
ARC
  5
248
330
1F
100
AcDbEntity
  8
C-A
  6
Continuous
 62
     3
370
    13
100
AcDbCircle
 10
-663.958713170644
 20
607.9994325380068
 30
0.0
 40
2.999960167987927
100
AcDbArc
 50
90.0
 51
270.0
  0
ARC
  5
249
330
1F
100
AcDbEntity
  8
C-A
  6
Continuous
 62
     3
370
    13
100
AcDbCircle
 10
-629.9586257419065
 20
607.9994325380068
 30
0.0
 40
2.999960167987927
100
AcDbArc
 50
270.0
 51
90.0
  0
ARC
  5
24A
330
1F
100
AcDbEntity
  8
C-A
  6
Continuous
 62
     3
370
    13
100
AcDbCircle
 10
-583.9593152742125
 20
607.9994325380068
 30
0.0
 40
2.999960167987927
100
AcDbArc
 50
90.0
 51
270.0
  0
ARC
  5
24B
330
1F
100
AcDbEntity
  8
C-A
  6
Continuous
 62
     3
370
    13
100
AcDbCircle
 10
-549.9593515653864
 20
607.9994325380068
 30
0.0
 40
2.999960167987927
100
AcDbArc
 50
270.0
 51
90.0
  0
ARC
  5
24C
330
1F
100
AcDbEntity
  8
C-2
  6
Continuous
 62
     3
370
    13
100
AcDbCircle
 10
-57.31903668996409
 20
732.9993500580658
 30
0.0
 40
14.99999922675056
100
AcDbArc
 50
1.165664672851562
 51
89.9994354248047
  0
ARC
  5
24D
330
1F
100
AcDbEntity
  8
C-2
  6
Continuous
 62
     3
370
    13
100
AcDbCircle
 10
-57.31804693067346
 20
732.9993500580658
 30
0.0
 40
14.99999922675056
100
AcDbArc
 50
270.0
 51
0.0012359619140681
  0
ARC
  5
24E
330
1F
100
AcDbEntity
  8
C-2
  6
Continuous
 62
     3
370
    13
100
AcDbCircle
 10
-227.318360354449
 20
732.9993500580658
 30
0.0
 40
14.99999922675056
100
AcDbArc
 50
179.9994049072265
 51
270.0
  0
ARC
  5
24F
330
1F
100
AcDbEntity
  8
C-2
  6
Continuous
 62
     3
370
    13
100
AcDbCircle
 10
-227.318360354449
 20
732.9993500580658
 30
0.0
 40
14.99999922675056
100
AcDbArc
 50
89.99996948242188
 51
179.9988098144531
  0
ARC
  5
250
330
1F
100
AcDbEntity
  8
D-A
  6
Continuous
 62
     3
370
    13
100
AcDbCircle
 10
-357.3319035607412
 20
-407.0769108952702
 30
0.0
 40
10.00000012887491
100
AcDbArc
 50
7.016464233398438
 51
45.0
  0
ARC
  5
251
330
1F
100
AcDbEntity
  8
D-A
  6
Continuous
 62
     3
370
    13
100
AcDbCircle
 10
-232.3319860406821
 20
-387.9349662162161
 30
0.0
 40
10.00000012887491
100
AcDbArc
 50
7.016464233398438
 51
90.0
  0
ARC
  5
252
330
1F
100
AcDbEntity
  8
D-A
  6
Continuous
 62
     3
370
    13
100
AcDbCircle
 10
-311.9764315115435
 20
-352.9349744642103
 30
0.0
 40
25.00000128874908
100
AcDbArc
 50
225.0
 51
270.0
  0
ARC
  5
253
330
1F
100
AcDbEntity
  8
D-A
  6
JWW_DASHED3
 62
     3
370
    13
100
AcDbCircle
 10
-340.8316264281399
 20
-366.9351196289062
 30
0.0
 40
6.50000008376869
100
AcDbArc
 50
270.0
 51
0.0
  0
ARC
  5
254
330
1F
100
AcDbEntity
  8
D-A
  6
Continuous
 62
     3
370
    13
100
AcDbCircle
 10
-340.8316264281399
 20
-343.9349695154138
 30
0.0
 40
6.50000008376869
100
AcDbArc
 50
0.0
 51
90.0
  0
ARC
  5
255
330
1F
100
AcDbEntity
  8
D-9
  6
Continuous
 62
     4
370
    13
100
AcDbCircle
 10
-507.3314086810959
 20
-315.4349744642103
 30
0.0
 40
5.000000064437454
100
AcDbArc
 50
90.0
 51
180.0
  0
ARC
  5
256
330
1F
100
AcDbEntity
  8
D-1
  6
Continuous
 62
     2
370
    13
100
AcDbCircle
 10
-442.3311942332495
 20
-342.9346940324112
 30
0.0
 40
5.000000064437454
100
AcDbArc
 50
233.1302490234375
 51
270.0000000000001
  0
ARC
  5
257
330
1F
100
AcDbEntity
  8
D-1
  6
Continuous
 62
     2
370
    13
100
AcDbCircle
 10
-517.3311942332496
 20
-332.9349084802575
 30
0.0
 40
5.000000064437454
100
AcDbArc
 50
90.0
 51
180.0
  0
ARC
  5
258
330
1F
100
AcDbEntity
  8
D-1
  6
Continuous
 62
     2
370
    13
100
AcDbCircle
 10
-392.3312767131904
 20
-352.9347270243876
 30
0.0
 40
5.000000064437454
100
AcDbArc
 50
0.0
 51
90.0
  0
ARC
  5
259
330
1F
100
AcDbEntity
  8
D-1
  6
Continuous
 62
     2
370
    13
100
AcDbCircle
 10
-392.3312767131904
 20
-342.9346940324112
 30
0.0
 40
5.000000064437454
100
AcDbArc
 50
270.0
 51
0.0
  0
ARC
  5
25A
330
1F
100
AcDbEntity
  8
D-1
  6
Continuous
 62
     2
370
    13
100
AcDbCircle
 10
-370.3311546428779
 20
-295.9346132020692
 30
0.0
 40
3.000000038662472
100
AcDbArc
 50
0.0
 51
90.0
  0
ARC
  5
25B
330
1F
100
AcDbEntity
  8
D-1
  6
Continuous
 62
     2
370
    13
100
AcDbCircle
 10
-389.331316303562
 20
-295.9346132020692
 30
0.0
 40
3.000000038662472
100
AcDbArc
 50
90.0
 51
180.0
  0
ARC
  5
25C
330
1F
100
AcDbEntity
  8
D-1
  6
Continuous
 62
     2
370
    13
100
AcDbCircle
 10
-370.3311546428779
 20
-414.9347336227829
 30
0.0
 40
3.000000038662472
100
AcDbArc
 50
270.0
 51
0.0
  0
ARC
  5
25D
330
1F
100
AcDbEntity
  8
D-1
  6
Continuous
 62
     2
370
    13
100
AcDbCircle
 10
-389.331316303562
 20
-414.9347336227829
 30
0.0
 40
3.000000038662472
100
AcDbArc
 50
180.0
 51
270.0
  0
ARC
  5
25E
330
1F
100
AcDbEntity
  8
D-1
  6
Continuous
 62
     2
370
    13
100
AcDbCircle
 10
-463.9816838341787
 20
-332.884801916174
 30
0.0
 40
4.950000305433531
100
AcDbArc
 50
53.12966918945312
 51
90.0
  0
ARC
  5
25F
330
1F
100
AcDbEntity
  8
D-1
  6
Continuous
 62
     2
370
    13
100
AcDbCircle
 10
-517.3311942332496
 20
-347.9345868084881
 30
0.0
 40
5.000000064437454
100
AcDbArc
 50
180.0
 51
270.0
  0
ARC
  5
260
330
1F
100
AcDbEntity
  8
D-1
  6
Continuous
 62
     2
370
    13
100
AcDbCircle
 10
-506.6615890812224
 20
-332.9349084802575
 30
0.0
 40
5.000000064437454
100
AcDbArc
 50
59.99996948242189
 51
90.00000000000003
  0
ARC
  5
261
330
1F
100
AcDbEntity
  8
D-1
  6
Continuous
 62
     2
370
    13
100
AcDbCircle
 10
-478.0011293050401
 20
-332.9349084802575
 30
0.0
 40
5.000000064437454
100
AcDbArc
 50
90.0
 51
120.0000305175781
  0
ARC
  5
262
330
1F
100
AcDbEntity
  8
D-1
  6
Continuous
 62
     2
370
    13
100
AcDbCircle
 10
-492.3313591931313
 20
-335.4349167282517
 30
0.0
 40
5.000000064437454
100
AcDbArc
 50
239.9999694824219
 51
300.0000305175781
  0
TEXT
  5
263
330
1F
100
AcDbEntity
  8
C-4
  6
Continuous
 62
     2
370
    13
100
AcDbText
 10
-991.0914712338831
 20
1148.639218090161
 30
0.0
 40
30.48
  1
25
 41
1.0625
  7
ＭＳ ゴシック
100
AcDbText
  0
TEXT
  5
264
330
1F
100
AcDbEntity
  8
C-4
  6
Continuous
 62
     2
370
    13
100
AcDbText
 10
-589.3386487703061
 20
1148.639218090161
 30
0.0
 40
30.48
  1
25
 41
1.0625
  7
ＭＳ ゴシック
100
AcDbText
  0
TEXT
  5
265
330
1F
100
AcDbEntity
  8
C-4
  6
Continuous
 62
     2
370
    13
100
AcDbText
 10
-1007.588661554697
 20
1203.638904666386
 30
0.0
 40
30.48
  1
1
 41
0.9999999999999998
  7
ＭＳ ゴシック
100
AcDbText
  0
TEXT
  5
266
330
1F
100
AcDbEntity
  8
C-4
  6
Continuous
 62
     2
370
    13
100
AcDbText
 10
-550.866494823146
 20
1203.638904666386
 30
0.0
 40
30.48
  1
1
 41
0.9999999999999998
  7
ＭＳ ゴシック
100
AcDbText
  0
TEXT
  5
267
330
1F
100
AcDbEntity
  8
C-4
  6
Continuous
 62
     2
370
    13
100
AcDbText
 10
-799.4585086203906
 20
1148.638970650338
 30
0.0
 40
30.48
  1
450
 41
1.083333333333333
  7
ＭＳ ゴシック
100
AcDbText
  0
TEXT
  5
268
330
1F
100
AcDbEntity
  8
C-4
  6
Continuous
 62
     2
370
    13
100
AcDbText
 10
-799.4585086203906
 20
1203.638904666386
 30
0.0
 40
30.48
  1
500
 41
1.083333333333333
  7
ＭＳ ゴシック
100
AcDbText
  0
TEXT
  5
269
330
1F
100
AcDbEntity
  8
C-5
  6
Continuous
 62
     7
370
    13
100
AcDbText
 10
-612.0281516375052
 20
425.2047644372878
 30
0.0
 40
22.86
  1
被膜厚さ７５μ（色：グレ－）
 50
0.0000146157296511
 41
1.154761904761905
  7
ＭＳ ゴシック
100
AcDbText
  0
TEXT
  5
26A
330
1F
100
AcDbEntity
  8
C-5
  6
Continuous
 62
     7
370
    13
100
AcDbText
 10
-502.620624593786
 20
478.1794035050677
 30
0.0
 40
22.86
  1
セラミクス溶射
 41
1.142857142857143
  7
ＭＳ ゴシック
100
AcDbText
  0
TEXT
  5
26B
330
1F
100
AcDbEntity
  8
C-4
  6
Continuous
 62
     2
370
    13
100
AcDbText
 10
-163.5684510823839
 20
835.8591986908783
 30
0.0
 40
30.48
  1
40
 41
1.0625
  7
ＭＳ ゴシック
100
AcDbText
  0
TEXT
  5
26C
330
1F
100
AcDbEntity
  8
C-4
  6
Continuous
 62
     2
370
    13
100
AcDbText
 10
26.87646531594815
 20
722.9998449377113
 30
0.0
 40
30.48
  1
6
 50
90.0
 41
0.9999999999999998
  7
ＭＳ ゴシック
100
AcDbText
  0
TEXT
  5
26D
330
1F
100
AcDbEntity
  8
C-5
  6
Continuous
 62
     2
370
    13
100
AcDbText
 10
-379.9114637117124
 20
610.1017853937925
 30
0.0
 40
30.48
  1
排水穴詳細　Ｓ＝１：２
 41
1.113636363636364
  7
ＭＳ ゴシック
100
AcDbText
  0
TEXT
  5
26E
330
1F
100
AcDbEntity
  8
C-4
  6
Continuous
 62
     2
370
    13
100
AcDbText
 10
-1092.598945764077
 20
611.7491438582138
 30
0.0
 40
30.48
  1
50
 50
90.0
 41
1.0625
  7
ＭＳ ゴシック
100
AcDbText
  0
TEXT
  5
26F
330
1F
100
AcDbEntity
  8
C-4
  6
Continuous
 62
     2
370
    13
100
AcDbText
 10
-948.2091602119235
 20
495.6395876002958
 30
0.0
 40
30.48
  1
80
 41
1.0625
  7
ＭＳ ゴシック
100
AcDbText
  0
TEXT
  5
270
330
1F
100
AcDbEntity
  8
C-5
  6
Continuous
 62
     2
370
    13
100
AcDbText
 10
-1034.45937465977
 20
333.1396700802364
 30
0.0
 40
30.48
  1
平面詳細図　Ｓ＝１：１０
 41
1.114583333333333
  7
ＭＳ ゴシック
100
AcDbText
  0
TEXT
  5
271
330
1F
100
AcDbEntity
  8
C-4
  6
Continuous
 62
     2
370
    13
100
AcDbText
 10
-799.4585086203906
 20
1260.045781513936
 30
0.0
 40
30.48
  1
512
 41
1.083333333333333
  7
ＭＳ ゴシック
100
AcDbText
  0
TEXT
  5
272
330
1F
100
AcDbEntity
  8
C-4
  6
Continuous
 62
     2
370
    13
100
AcDbText
 10
-1057.180427087319
 20
1203.638904666386
 30
0.0
 40
30.48
  1
5
 41
0.9999999999999998
  7
ＭＳ ゴシック
100
AcDbText
  0
TEXT
  5
273
330
1F
100
AcDbEntity
  8
C-4
  6
Continuous
 62
     2
370
    13
100
AcDbText
 10
-490.643106151271
 20
1203.638904666386
 30
0.0
 40
30.48
  1
5
 41
0.9999999999999998
  7
ＭＳ ゴシック
100
AcDbText
  0
TEXT
  5
274
330
1F
100
AcDbEntity
  8
D-4
  6
Continuous
 62
     2
370
    13
100
AcDbText
 10
-430.2771921415582
 20
-52.62396220439193
 30
0.0
 40
30.48
  1
1
 41
0.9999999999999998
  7
ＭＳ ゴシック
100
AcDbText
  0
TEXT
  5
275
330
1F
100
AcDbEntity
  8
D-4
  6
Continuous
 62
     2
370
    13
100
AcDbText
 10
-481.0814994090309
 20
-161.3752488914695
 30
0.0
 40
30.48
  1
25
 41
1.0625
  7
ＭＳ ゴシック
100
AcDbText
  0
TEXT
  5
276
330
1F
100
AcDbEntity
  8
D-5
  6
Continuous
 62
     7
370
    13
100
AcDbText
 10
-271.9757799200104
 20
-122.2719267314187
 30
0.0
 40
22.86
  1
塩ビクッション
 41
1.142857142857143
  7
ＭＳ ゴシック
100
AcDbText
  0
TEXT
  5
277
330
1F
100
AcDbEntity
  8
D-4
  6
Continuous
 62
     2
370
    13
100
AcDbText
 10
-512.7280382207919
 20
-687.9139534285262
 30
0.0
 40
30.48
  1
25～30
 41
1.104166666666667
  7
ＭＳ ゴシック
100
AcDbText
  0
TEXT
  5
278
330
1F
100
AcDbEntity
  8
D-4
  6
Continuous
 62
     2
370
    13
100
AcDbText
 10
-390.2002919686802
 20
-842.3782008485537
 30
0.0
 40
30.48
  1
75～80
 41
1.104166666666667
  7
ＭＳ ゴシック
100
AcDbText
  0
TEXT
  5
279
330
1F
100
AcDbEntity
  8
D-4
  6
Continuous
 62
     2
370
    13
100
AcDbText
 10
138.7133265912859
 20
-488.4480821764146
 30
0.0
 40
30.48
  1
40～50
 50
90.0
 41
1.104166666666667
  7
ＭＳ ゴシック
100
AcDbText
  0
TEXT
  5
27A
330
1F
100
AcDbEntity
  8
D-4
  6
Continuous
 62
     2
370
    13
100
AcDbText
 10
-338.6933417398131
 20
-472.8265164439171
 30
0.0
 40
30.48
  1
29
 50
0.0010007472011468
 41
1.0625
  7
ＭＳ ゴシック
100
AcDbText
  0
TEXT
  5
27B
330
1F
100
AcDbEntity
  8
D-4
  6
Continuous
 62
     2
370
    13
100
AcDbText
 10
-144.9219932989167
 20
-424.1848919842693
 30
0.0
 40
30.48
  1
10
 50
90.0
 41
1.0625
  7
ＭＳ ゴシック
100
AcDbText
  0
TEXT
  5
27C
330
1F
100
AcDbEntity
  8
D-4
  6
Continuous
 62
     2
370
    13
100
AcDbText
 10
-144.9219932989167
 20
-356.6846692884289
 30
0.0
 40
30.48
  1
17
 50
90.0
 41
1.0625
  7
ＭＳ ゴシック
100
AcDbText
  0
TEXT
  5
27D
330
1F
100
AcDbEntity
  8
D-4
  6
Continuous
 62
     2
370
    13
100
AcDbText
 10
-678.454460702844
 20
-386.9396312816722
 30
0.0
 40
30.48
  1
25
 50
90.0
 41
1.0625
  7
ＭＳ ゴシック
100
AcDbText
  0
TEXT
  5
27E
330
1F
100
AcDbEntity
  8
D-4
  6
Continuous
 62
     2
370
    13
100
AcDbText
 10
-356.2200615857096
 20
-52.62396220439193
 30
0.0
 40
30.48
  1
5
 41
0.9999999999999998
  7
ＭＳ ゴシック
100
AcDbText
  0
TEXT
  5
27F
330
1F
100
AcDbEntity
  8
D-5
  6
Continuous
 62
     2
370
    13
100
AcDbText
 10
-821.8264279430159
 20
-970.7372995407528
 30
0.0
 40
30.48
  1
断面詳細図　Ｓ＝１：２
 50
359.9999855334109
 41
1.113636363636364
  7
ＭＳ ゴシック
100
AcDbText
  0
TEXT
  5
280
330
1F
100
AcDbEntity
  8
D-5
  6
Continuous
 62
     7
370
    13
100
AcDbText
 10
-215.7817178159142
 20
-271.5192147909627
 30
0.0
 40
22.86
  1
ｔ＝２．３（ＳＰＨＣ）
 41
1.151515151515152
  7
ＭＳ ゴシック
100
AcDbText
  0
TEXT
  5
281
330
1F
100
AcDbEntity
  8
D-5
  6
Continuous
 62
     2
370
    13
100
AcDbText
 10
539.1420707187142
 20
-799.9780881809543
 30
0.0
 40
30.48
  1
材質：冷間圧延ステンレス鋼板（ＳＵＳ３０４－２Ｂ）
 41
1.12
  7
ＭＳ ゴシック
100
AcDbText
  0
TEXT
  5
282
330
1F
100
AcDbEntity
  8
D-5
  6
Continuous
 62
     7
370
    13
100
AcDbText
 10
-273.1689594887393
 20
-175.8973325327279
 30
0.0
 40
22.86
  1
ステンレス製受枠ＳＦ０３Ｂ
 41
1.153846153846154
  7
ＭＳ ゴシック
100
AcDbText
  0
TEXT
  5
283
330
1F
100
AcDbEntity
  8
D-4
  6
Continuous
 62
     2
370
    13
100
AcDbText
 10
-889.6985386430891
 20
-276.8128637365392
 30
0.0
 40
30.48
  1
3
 50
90.0
 41
0.9999999999999998
  7
ＭＳ ゴシック
100
AcDbText
  0
TEXT
  5
284
330
1F
100
AcDbEntity
  8
D-5
  6
Continuous
 62
     7
370
    13
100
AcDbText
 10
-267.6621697400063
 20
-22.83786284575571
 30
0.0
 40
22.86
  1
ノンスリップタイプ
 41
1.148148148148148
  7
ＭＳ ゴシック
100
AcDbText
  0
TEXT
  5
285
330
1F
100
AcDbEntity
  8
D-5
  6
Continuous
 62
     7
370
    13
100
AcDbText
 10
-268.8672429162099
 20
-57.46521022487316
 30
0.0
 40
22.86
  1
ステンレス製排水用蓋ＳＺ－３（ｔ＝３）
 41
1.157894736842105
  7
ＭＳ ゴシック
100
AcDbText
  0
TEXT
  5
286
330
1F
100
AcDbEntity
  8
D-5
  6
Continuous
 62
     2
370
    13
100
AcDbText
 10
424.8399417464802
 20
-332.2948012563344
 30
0.0
 40
30.48
  1
仕　様
 41
1.083333333333333
  7
ＭＳ ゴシック
100
AcDbText
  0
TEXT
  5
287
330
1F
100
AcDbEntity
  8
D-5
  6
Continuous
 62
     2
370
    13
100
AcDbText
 10
539.1423181585369
 20
-460.2154984427787
 30
0.0
 40
30.48
  1
材質：冷間圧延ステンレス鋼板（ＳＵＳ３０４－２Ｂ）
 41
1.12
  7
ＭＳ ゴシック
100
AcDbText
  0
TEXT
  5
288
330
1F
100
AcDbEntity
  8
D-5
  6
Continuous
 62
     2
370
    13
100
AcDbText
 10
539.1422934145546
 20
-525.2155273107579
 30
0.0
 40
30.48
  1
処理：ヘアライン
 41
1.109375
  7
ＭＳ ゴシック
100
AcDbText
  0
TEXT
  5
289
330
1F
100
AcDbEntity
  8
D-5
  6
Continuous
 62
     7
370
    13
100
AcDbText
 10
-1096.279581173046
 20
-698.8725943240603
 30
0.0
 40
22.86
  1
（ＳＵＳ３０４）
 41
1.145833333333333
  7
ＭＳ ゴシック
100
AcDbText
  0
TEXT
  5
28A
330
1F
100
AcDbEntity
  8
D-5
  6
Continuous
 62
     2
370
    13
100
AcDbText
 10
479.4304123440309
 20
-395.2154077148438
 30
0.0
 40
30.48
  1
ノンスリップタイプステンレス製排水用蓋　ＳＺ－３　５００×５００
 41
1.12109375
  7
ＭＳ ゴシック
100
AcDbText
  0
TEXT
  5
28B
330
1F
100
AcDbEntity
  8
D-4
  6
Continuous
 62
     2
370
    13
100
AcDbText
 10
-1097.910883877728
 20
62.27348223712006
 30
0.0
 40
30.48
  1
□512
 41
1.1
  7
ＭＳ ゴシック
100
AcDbText
  0
TEXT
  5
28C
330
1F
100
AcDbEntity
  8
D-4
  6
Continuous
 62
     2
370
    13
100
AcDbText
 10
-1097.910883877728
 20
-49.38992372255051
 30
0.0
 40
30.48
  1
□500
 41
1.1
  7
ＭＳ ゴシック
100
AcDbText
  0
TEXT
  5
28D
330
1F
100
AcDbEntity
  8
D-4
  6
Continuous
 62
     2
370
    13
100
AcDbText
 10
-1095.95184094197
 20
-155.1762627349029
 30
0.0
 40
30.48
  1
□450
 41
1.1
  7
ＭＳ ゴシック
100
AcDbText
  0
TEXT
  5
28E
330
1F
100
AcDbEntity
  8
D-5
  6
Continuous
 62
     7
370
    13
100
AcDbText
 10
-215.3914887196305
 20
-234.9507020032728
 30
0.0
 40
22.86
  1
溶接用アンカ－
 41
1.142857142857143
  7
ＭＳ ゴシック
100
AcDbText
  0
TEXT
  5
28F
330
1F
100
AcDbEntity
  8
D-5
  6
Continuous
 62
     7
370
    13
100
AcDbText
 10
-1096.279544057072
 20
-648.1235527409733
 30
0.0
 40
22.86
  1
補強材Ｌ２５×２５×３～３本
 41
1.154761904761905
  7
ＭＳ ゴシック
100
AcDbText
  0
TEXT
  5
290
330
1F
100
AcDbEntity
  8
D-5
  6
Continuous
 62
     2
370
    13
100
AcDbText
 10
479.4304370880132
 20
-734.9783686127533
 30
0.0
 40
30.48
  1
ステンレス製受枠　ＳＦ０３Ｂ（四方枠）
 41
1.118421052631579
  7
ＭＳ ゴシック
100
AcDbText
  0
TEXT
  5
291
330
1F
100
AcDbEntity
  8
F-4
  6
Continuous
 62
     2
370
    13
100
AcDbText
 10
-798.5002327480828
 20
-1349.359880404086
 30
0.0
 40
30.48
  1
ノンスリップタイプステンレス製排水用蓋　ＳＺ－３　５００×５００＋ＳＦ０３Ｂ
 41
0.7743421052631578
  7
ＭＳ ゴシック
100
AcDbText
  0
LWPOLYLINE
  5
292
330
1F
100
AcDbEntity
  8
C-4
  6
Continuous
 62
     7
370
    13
100
AcDbPolyline
 90
        4
 70
     1
 43
1.0
 10
-1016.458962260066
 20
1192.998640730575
 42
0.4142135623731
 10
-1016.958962260066
 20
1193.498640730574
 42
0.4142135623731
 10
-1017.458962260066
 20
1192.998640730575
 42
0.4142135623731
 10
-1016.958962260066
 20
1192.498640730575
 42
0.4142135623731
  0
LWPOLYLINE
  5
293
330
1F
100
AcDbEntity
  8
C-4
  6
Continuous
 62
     7
370
    13
100
AcDbPolyline
 90
        4
 70
     1
 43
1.0
 10
-516.458549860361
 20
1192.998640730575
 42
0.4142135623731
 10
-516.958549860361
 20
1193.498640730574
 42
0.4142135623731
 10
-517.4585498603609
 20
1192.998640730575
 42
0.4142135623731
 10
-516.958549860361
 20
1192.498640730575
 42
0.4142135623731
  0
LWPOLYLINE
  5
294
330
1F
100
AcDbEntity
  8
C-4
  6
Continuous
 62
     7
370
    13
100
AcDbPolyline
 90
        4
 70
     1
 43
1.0
 10
-1024.458939165682
 20
1247.998574746622
 42
0.4142135623731
 10
-1024.958939165682
 20
1248.498574746622
 42
0.4142135623731
 10
-1025.458939165682
 20
1247.998574746622
 42
0.4142135623731
 10
-1024.958939165682
 20
1247.498574746622
 42
0.4142135623731
  0
LWPOLYLINE
  5
295
330
1F
100
AcDbEntity
  8
C-4
  6
Continuous
 62
     7
370
    13
100
AcDbPolyline
 90
        4
 70
     1
 43
1.0
 10
-508.4588203945673
 20
1247.998574746622
 42
0.4142135623731
 10
-508.9588203945672
 20
1248.498574746622
 42
0.4142135623731
 10
-509.4588203945672
 20
1247.998574746622
 42
0.4142135623731
 10
-508.9588203945672
 20
1247.498574746622
 42
0.4142135623731
  0
LWPOLYLINE
  5
296
330
1F
100
AcDbEntity
  8
C-4
  6
Continuous
 62
     7
370
    13
100
AcDbPolyline
 90
        4
 70
     1
 43
1.0
 10
-991.4585086203907
 20
1137.999449033995
 42
0.4142135623731
 10
-991.9585086203906
 20
1138.499449033995
 42
0.4142135623731
 10
-992.4585086203906
 20
1137.999449033995
 42
0.4142135623731
 10
-991.9585086203906
 20
1137.499449033995
 42
0.4142135623731
  0
LWPOLYLINE
  5
297
330
1F
100
AcDbEntity
  8
C-4
  6
Continuous
 62
     7
370
    13
100
AcDbPolyline
 90
        4
 70
     1
 43
1.0
 10
-541.4578900208342
 20
1137.999449033995
 42
0.4142135623731
 10
-541.9578900208342
 20
1138.499449033995
 42
0.4142135623731
 10
-542.4578900208342
 20
1137.999449033995
 42
0.4142135623731
 10
-541.9578900208342
 20
1137.499449033995
 42
0.4142135623731
  0
LWPOLYLINE
  5
298
330
1F
100
AcDbEntity
  8
C-4
  6
Continuous
 62
     7
370
    13
100
AcDbPolyline
 90
        4
 70
     1
 43
1.0
 10
-1016.458962260066
 20
1137.999449033995
 42
0.4142135623731
 10
-1016.958962260066
 20
1138.499449033995
 42
0.4142135623731
 10
-1017.458962260066
 20
1137.999449033995
 42
0.4142135623731
 10
-1016.958962260066
 20
1137.499449033995
 42
0.4142135623731
  0
LWPOLYLINE
  5
299
330
1F
100
AcDbEntity
  8
C-4
  6
Continuous
 62
     7
370
    13
100
AcDbPolyline
 90
        4
 70
     1
 43
1.0
 10
-516.458549860361
 20
1137.999449033995
 42
0.4142135623731
 10
-516.958549860361
 20
1138.499449033995
 42
0.4142135623731
 10
-517.4585498603609
 20
1137.999449033995
 42
0.4142135623731
 10
-516.958549860361
 20
1137.499449033995
 42
0.4142135623731
  0
LWPOLYLINE
  5
29A
330
1F
100
AcDbEntity
  8
C-4
  6
Continuous
 62
     7
370
    13
100
AcDbPolyline
 90
        4
 70
     1
 43
1.0
 10
-1017.458990303245
 20
1192.998640730575
 42
0.4142135623731
 10
-1017.958990303245
 20
1193.498640730574
 42
0.4142135623731
 10
-1018.458990303245
 20
1192.998640730575
 42
0.4142135623731
 10
-1017.958990303245
 20
1192.498640730575
 42
0.4142135623731
  0
LWPOLYLINE
  5
29B
330
1F
100
AcDbEntity
  8
C-4
  6
Continuous
 62
     7
370
    13
100
AcDbPolyline
 90
        4
 70
     1
 43
1.0
 10
-1024.458939165682
 20
1192.998640730575
 42
0.4142135623731
 10
-1024.958939165682
 20
1193.498640730574
 42
0.4142135623731
 10
-1025.458939165682
 20
1192.998640730575
 42
0.4142135623731
 10
-1024.958939165682
 20
1192.498640730575
 42
0.4142135623731
  0
LWPOLYLINE
  5
29C
330
1F
100
AcDbEntity
  8
C-4
  6
Continuous
 62
     7
370
    13
100
AcDbPolyline
 90
        4
 70
     1
 43
1.0
 10
-515.4587692570037
 20
1192.998640730575
 42
0.4142135623731
 10
-515.9587692570037
 20
1193.498640730574
 42
0.4142135623731
 10
-516.4587692570036
 20
1192.998640730575
 42
0.4142135623731
 10
-515.9587692570037
 20
1192.498640730575
 42
0.4142135623731
  0
LWPOLYLINE
  5
29D
330
1F
100
AcDbEntity
  8
C-4
  6
Continuous
 62
     7
370
    13
100
AcDbPolyline
 90
        4
 70
     1
 43
1.0
 10
-508.4588203945673
 20
1192.998640730575
 42
0.4142135623731
 10
-508.9588203945672
 20
1193.498640730574
 42
0.4142135623731
 10
-509.4588203945672
 20
1192.998640730575
 42
0.4142135623731
 10
-508.9588203945672
 20
1192.498640730575
 42
0.4142135623731
  0
LWPOLYLINE
  5
29E
330
1F
100
AcDbEntity
  8
C-4
  6
Continuous
 62
     7
370
    13
100
AcDbPolyline
 90
        4
 70
     1
 43
1.0
 10
-241.8184098424133
 20
825.2189347550677
 42
0.4142135623731
 10
-242.3184098424133
 20
825.7189347550677
 42
0.4142135623731
 10
-242.8184098424133
 20
825.2189347550677
 42
0.4142135623731
 10
-242.3184098424133
 20
824.7189347550677
 42
0.4142135623731
  0
LWPOLYLINE
  5
29F
330
1F
100
AcDbEntity
  8
C-4
  6
Continuous
 62
     7
370
    13
100
AcDbPolyline
 90
        4
 70
     1
 43
1.0
 10
-41.81824488253153
 20
825.2189347550677
 42
0.4142135623731
 10
-42.31824488253153
 20
825.7189347550677
 42
0.4142135623731
 10
-42.81824488253153
 20
825.2189347550677
 42
0.4142135623731
 10
-42.31824488253153
 20
824.7189347550677
 42
0.4142135623731
  0
LWPOLYLINE
  5
2A0
330
1F
100
AcDbEntity
  8
C-4
  6
Continuous
 62
     7
370
    13
100
AcDbPolyline
 90
        4
 70
     1
 43
1.0
 10
38.01672925175882
 20
717.9993005701016
 42
0.4142135623731
 10
37.51672925175882
 20
718.4993005701016
 42
0.4142135623731
 10
37.01672925175882
 20
717.9993005701016
 42
0.4142135623731
 10
37.51672925175882
 20
717.4993005701016
 42
0.4142135623731
  0
LWPOLYLINE
  5
2A1
330
1F
100
AcDbEntity
  8
C-4
  6
Continuous
 62
     7
370
    13
100
AcDbPolyline
 90
        4
 70
     1
 43
1.0
 10
38.01672925175882
 20
747.9991521062078
 42
0.4142135623731
 10
37.51672925175882
 20
748.4991521062078
 42
0.4142135623731
 10
37.01672925175882
 20
747.9991521062078
 42
0.4142135623731
 10
37.51672925175882
 20
747.4991521062078
 42
0.4142135623731
  0
LWPOLYLINE
  5
2A2
330
1F
100
AcDbEntity
  8
C-4
  6
Continuous
 62
     7
370
    13
100
AcDbPolyline
 90
        4
 70
     1
 43
1.0
 10
-1081.458929268089
 20
657.9991026182432
 42
0.4142135623731
 10
-1081.958929268089
 20
658.4991026182432
 42
0.4142135623731
 10
-1082.458929268089
 20
657.9991026182432
 42
0.4142135623731
 10
-1081.958929268089
 20
657.4991026182432
 42
0.4142135623731
  0
LWPOLYLINE
  5
2A3
330
1F
100
AcDbEntity
  8
C-4
  6
Continuous
 62
     7
370
    13
100
AcDbPolyline
 90
        4
 70
     1
 43
1.0
 10
-1081.458929268089
 20
607.9994325380068
 42
0.4142135623731
 10
-1081.958929268089
 20
608.4994325380068
 42
0.4142135623731
 10
-1082.458929268089
 20
607.9994325380068
 42
0.4142135623731
 10
-1081.958929268089
 20
607.4994325380068
 42
0.4142135623731
  0
LWPOLYLINE
  5
2A4
330
1F
100
AcDbEntity
  8
C-4
  6
Continuous
 62
     7
370
    13
100
AcDbPolyline
 90
        4
 70
     1
 43
1.0
 10
-966.4591684599177
 20
484.9998185441302
 42
0.4142135623731
 10
-966.9591684599176
 20
485.4998185441302
 42
0.4142135623731
 10
-967.4591684599176
 20
484.9998185441302
 42
0.4142135623731
 10
-966.9591684599176
 20
484.4998185441302
 42
0.4142135623731
  0
LWPOLYLINE
  5
2A5
330
1F
100
AcDbEntity
  8
C-4
  6
Continuous
 62
     7
370
    13
100
AcDbPolyline
 90
        4
 70
     1
 43
1.0
 10
-886.4592756838408
 20
484.9998185441302
 42
0.4142135623731
 10
-886.9592756838408
 20
485.4998185441302
 42
0.4142135623731
 10
-887.4592756838408
 20
484.9998185441302
 42
0.4142135623731
 10
-886.9592756838408
 20
484.4998185441302
 42
0.4142135623731
  0
LWPOLYLINE
  5
2A6
330
1F
100
AcDbEntity
  8
D-4
  6
Continuous
 62
     7
370
    13
100
AcDbPolyline
 90
        4
 70
     1
 43
1.0
 10
-366.8324314323628
 20
47.43243243243256
 42
0.4142135623731
 10
-367.3324314323628
 20
47.93243243243256
 42
0.4142135623731
 10
-367.8324314323628
 20
47.43243243243256
 42
0.4142135623731
 10
-367.3324314323628
 20
46.93243243243256
 42
0.4142135623731
  0
LWPOLYLINE
  5
2A7
330
1F
100
AcDbEntity
  8
D-4
  6
Continuous
 62
     7
370
    13
100
AcDbPolyline
 90
        4
 70
     1
 43
1.0
 10
-396.8315406490013
 20
-63.26323638091196
 42
0.4142135623731
 10
-397.3315406490013
 20
-62.76323638091196
 42
0.4142135623731
 10
-397.8315406490013
 20
-63.26323638091196
 42
0.4142135623731
 10
-397.3315406490013
 20
-63.76323638091196
 42
0.4142135623731
  0
LWPOLYLINE
  5
2A8
330
1F
100
AcDbEntity
  8
D-4
  6
Continuous
 62
     7
370
    13
100
AcDbPolyline
 90
        4
 70
     1
 43
1.0
 10
-391.8312767131904
 20
-63.26323638091196
 42
0.4142135623731
 10
-392.3312767131904
 20
-62.76323638091196
 42
0.4142135623731
 10
-392.8312767131904
 20
-63.26323638091196
 42
0.4142135623731
 10
-392.3312767131904
 20
-63.76323638091196
 42
0.4142135623731
  0
LWPOLYLINE
  5
2A9
330
1F
100
AcDbEntity
  8
D-4
  6
Continuous
 62
     7
370
    13
100
AcDbPolyline
 90
        4
 70
     1
 43
1.0
 10
-366.8324314323628
 20
-63.26323638091196
 42
0.4142135623731
 10
-367.3324314323628
 20
-62.76323638091196
 42
0.4142135623731
 10
-367.8324314323628
 20
-63.26323638091196
 42
0.4142135623731
 10
-367.3324314323628
 20
-63.76323638091196
 42
0.4142135623731
  0
LWPOLYLINE
  5
2AA
330
1F
100
AcDbEntity
  8
D-4
  6
Continuous
 62
     7
370
    13
100
AcDbPolyline
 90
        4
 70
     1
 43
1.0
 10
-521.8322004885282
 20
-172.0155128272805
 42
0.4142135623731
 10
-522.3322004885281
 20
-171.5155128272805
 42
0.4142135623731
 10
-522.8322004885281
 20
-172.0155128272805
 42
0.4142135623731
 10
-522.3322004885281
 20
-172.5155128272805
 42
0.4142135623731
  0
LWPOLYLINE
  5
2AB
330
1F
100
AcDbEntity
  8
D-4
  6
Continuous
 62
     7
370
    13
100
AcDbPolyline
 90
        4
 70
     1
 43
1.0
 10
-396.8315406490013
 20
-172.0155128272805
 42
0.4142135623731
 10
-397.3315406490013
 20
-171.5155128272805
 42
0.4142135623731
 10
-397.8315406490013
 20
-172.0155128272805
 42
0.4142135623731
 10
-397.3315406490013
 20
-172.5155128272805
 42
0.4142135623731
  0
LWPOLYLINE
  5
2AC
330
1F
100
AcDbEntity
  8
D-4
  6
Continuous
 62
     7
370
    13
100
AcDbPolyline
 90
        4
 70
     1
 43
1.0
 10
-667.3146916466787
 20
-292.9349002322634
 42
0.4142135623731
 10
-667.8146916466787
 20
-292.4349002322634
 42
0.4142135623731
 10
-668.3146916466786
 20
-292.9349002322634
 42
0.4142135623731
 10
-667.8146916466787
 20
-293.4349002322634
 42
0.4142135623731
  0
LWPOLYLINE
  5
2AD
330
1F
100
AcDbEntity
  8
D-4
  6
Continuous
 62
     7
370
    13
100
AcDbPolyline
 90
        4
 70
     1
 43
1.0
 10
-667.3146916466787
 20
-417.9351889120565
 42
0.4142135623731
 10
-667.8146916466787
 20
-417.4351889120566
 42
0.4142135623731
 10
-668.3146916466786
 20
-417.9351889120565
 42
0.4142135623731
 10
-667.8146916466787
 20
-418.4351889120564
 42
0.4142135623731
  0
LWPOLYLINE
  5
2AE
330
1F
100
AcDbEntity
  8
D-4
  6
Continuous
 62
     7
370
    13
100
AcDbPolyline
 90
        4
 70
     1
 43
1.0
 10
149.8530956474515
 20
-292.9349002322634
 42
0.4142135623731
 10
149.3530956474515
 20
-292.4349002322634
 42
0.4142135623731
 10
148.8530956474515
 20
-292.9349002322634
 42
0.4142135623731
 10
149.3530956474515
 20
-293.4349002322634
 42
0.4142135623731
  0
LWPOLYLINE
  5
2AF
330
1F
100
AcDbEntity
  8
D-4
  6
Continuous
 62
     7
370
    13
100
AcDbPolyline
 90
        4
 70
     1
 43
1.0
 10
149.8530956474515
 20
-542.9351064321156
 42
0.4142135623731
 10
149.3530956474515
 20
-542.4351064321156
 42
0.4142135623731
 10
148.8530956474515
 20
-542.9351064321156
 42
0.4142135623731
 10
149.3530956474515
 20
-543.4351064321156
 42
0.4142135623731
  0
LWPOLYLINE
  5
2B0
330
1F
100
AcDbEntity
  8
D-4
  6
Continuous
 62
     7
370
    13
100
AcDbPolyline
 90
        4
 70
     1
 43
1.0
 10
-133.781729363106
 20
-292.9349002322634
 42
0.4142135623731
 10
-134.281729363106
 20
-292.4349002322634
 42
0.4142135623731
 10
-134.781729363106
 20
-292.9349002322634
 42
0.4142135623731
 10
-134.281729363106
 20
-293.4349002322634
 42
0.4142135623731
  0
LWPOLYLINE
  5
2B1
330
1F
100
AcDbEntity
  8
D-4
  6
Continuous
 62
     7
370
    13
100
AcDbPolyline
 90
        4
 70
     1
 43
1.0
 10
-133.781729363106
 20
-377.9348095043285
 42
0.4142135623731
 10
-134.281729363106
 20
-377.4348095043285
 42
0.4142135623731
 10
-134.781729363106
 20
-377.9348095043285
 42
0.4142135623731
 10
-134.281729363106
 20
-378.4348095043285
 42
0.4142135623731
  0
LWPOLYLINE
  5
2B2
330
1F
100
AcDbEntity
  8
D-4
  6
Continuous
 62
     7
370
    13
100
AcDbPolyline
 90
        4
 70
     1
 43
1.0
 10
-133.781729363106
 20
-427.9353456239442
 42
0.4142135623731
 10
-134.281729363106
 20
-427.4353456239442
 42
0.4142135623731
 10
-134.781729363106
 20
-427.9353456239442
 42
0.4142135623731
 10
-134.281729363106
 20
-428.4353456239441
 42
0.4142135623731
  0
LWPOLYLINE
  5
2B3
330
1F
100
AcDbEntity
  8
D-4
  6
Continuous
 62
     7
370
    13
100
AcDbPolyline
 90
        4
 70
     1
 43
1.0
 10
-366.8316891128949
 20
-483.4657906197212
 42
0.4142135623731
 10
-367.3316891128948
 20
-482.9657906197212
 42
0.4142135623731
 10
-367.8316891128948
 20
-483.4657906197212
 42
0.4142135623731
 10
-367.3316891128948
 20
-483.9657906197212
 42
0.4142135623731
  0
LWPOLYLINE
  5
2B4
330
1F
100
AcDbEntity
  8
D-4
  6
Continuous
 62
     7
370
    13
100
AcDbPolyline
 90
        4
 70
     1
 43
1.0
 10
-221.8315818889716
 20
-483.4657906197212
 42
0.4142135623731
 10
-222.3315818889716
 20
-482.9657906197212
 42
0.4142135623731
 10
-222.8315818889716
 20
-483.4657906197212
 42
0.4142135623731
 10
-222.3315818889716
 20
-483.9657906197212
 42
0.4142135623731
  0
LWPOLYLINE
  5
2B5
330
1F
100
AcDbEntity
  8
D-4
  6
Continuous
 62
     7
370
    13
100
AcDbPolyline
 90
        4
 70
     1
 43
1.0
 10
-521.8317056088831
 20
-698.5537224846917
 42
0.4142135623731
 10
-522.3317056088831
 20
-698.0537224846917
 42
0.4142135623731
 10
-522.8317056088831
 20
-698.5537224846917
 42
0.4142135623731
 10
-522.3317056088831
 20
-699.0537224846917
 42
0.4142135623731
  0
LWPOLYLINE
  5
2B6
330
1F
100
AcDbEntity
  8
D-4
  6
Continuous
 62
     7
370
    13
100
AcDbPolyline
 90
        4
 70
     1
 43
1.0
 10
-371.8314581690605
 20
-698.5537224846917
 42
0.4142135623731
 10
-372.3314581690605
 20
-698.0537224846917
 42
0.4142135623731
 10
-372.8314581690604
 20
-698.5537224846917
 42
0.4142135623731
 10
-372.3314581690605
 20
-699.0537224846917
 42
0.4142135623731
  0
LWPOLYLINE
  5
2B7
330
1F
100
AcDbEntity
  8
D-4
  6
Continuous
 62
     7
370
    13
100
AcDbPolyline
 90
        4
 70
     1
 43
1.0
 10
-521.8317056088831
 20
-853.0184029244087
 42
0.4142135623731
 10
-522.3317056088831
 20
-852.5184029244087
 42
0.4142135623731
 10
-522.8317056088831
 20
-853.0184029244087
 42
0.4142135623731
 10
-522.3317056088831
 20
-853.5184029244087
 42
0.4142135623731
  0
LWPOLYLINE
  5
2B8
330
1F
100
AcDbEntity
  8
D-4
  6
Continuous
 62
     7
370
    13
100
AcDbPolyline
 90
        4
 70
     1
 43
1.0
 10
-121.8308808094743
 20
-853.0184029244087
 42
0.4142135623731
 10
-122.3308808094743
 20
-852.5184029244087
 42
0.4142135623731
 10
-122.8308808094743
 20
-853.0184029244087
 42
0.4142135623731
 10
-122.3308808094743
 20
-853.5184029244087
 42
0.4142135623731
  0
LWPOLYLINE
  5
2B9
330
1F
100
AcDbEntity
  8
D-4
  6
Continuous
 62
     7
370
    13
100
AcDbPolyline
 90
        4
 70
     1
 43
1.0
 10
-878.5582747072783
 20
-295.4350322001688
 42
0.4142135623731
 10
-879.0582747072783
 20
-294.9350322001688
 42
0.4142135623731
 10
-879.5582747072783
 20
-295.4350322001688
 42
0.4142135623731
 10
-879.0582747072783
 20
-295.9350322001689
 42
0.4142135623731
  0
LWPOLYLINE
  5
2BA
330
1F
100
AcDbEntity
  8
D-4
  6
Continuous
 62
     7
370
    13
100
AcDbPolyline
 90
        4
 70
     1
 43
1.0
 10
-878.5582747072783
 20
-310.4348342483108
 42
0.4142135623731
 10
-879.0582747072783
 20
-309.9348342483108
 42
0.4142135623731
 10
-879.5582747072783
 20
-310.4348342483108
 42
0.4142135623731
 10
-879.0582747072783
 20
-310.9348342483108
 42
0.4142135623731
  0
ENDSEC
  0
SECTION
  2
OBJECTS
  0
DICTIONARY
  5
C
330
0
100
AcDbDictionary
281
     1
  3
ACAD_GROUP
350
D
  3
ACAD_LAYOUT
350
1A
  3
ACAD_MLEADERSTYLE
350
2BC
  3
ACAD_MLINESTYLE
350
17
  3
ACAD_PLOTSETTINGS
350
19
  3
ACAD_PLOTSTYLENAME
350
E
  3
ACAD_TABLESTYLE
350
2BB
  3
ACAD_VISUALSTYLE
350
2A
  0
DICTIONARY
  5
D
102
{ACAD_REACTORS
330
C
102
}
330
C
100
AcDbDictionary
281
     1
  0
DICTIONARY
  5
1A
102
{ACAD_REACTORS
330
C
102
}
330
C
100
AcDbDictionary
281
     1
  3
Layout1
350
1E
  3
Layout2
350
26
  3
Model
350
22
  0
DICTIONARY
  5
2BC
102
{ACAD_REACTORS
330
C
102
}
330
C
100
AcDbDictionary
281
     1
  0
DICTIONARY
  5
17
102
{ACAD_REACTORS
330
C
102
}
330
C
100
AcDbDictionary
281
     1
  3
Standard
350
18
  0
DICTIONARY
  5
19
102
{ACAD_REACTORS
330
C
102
}
330
C
100
AcDbDictionary
281
     1
  0
ACDBDICTIONARYWDFLT
  5
E
102
{ACAD_REACTORS
330
C
102
}
330
C
100
AcDbDictionary
281
     1
  3
Normal
350
F
100
AcDbDictionaryWithDefault
340
F
  0
DICTIONARY
  5
2BB
102
{ACAD_REACTORS
330
C
102
}
330
C
100
AcDbDictionary
281
     1
  0
DICTIONARY
  5
2A
102
{ACAD_REACTORS
330
C
102
}
330
C
100
AcDbDictionary
281
     1
  3
2dWireframe
350
2F
  3
3D Hidden
350
31
  3
3dWireframe
350
30
  3
Basic
350
32
  3
Brighten
350
36
  3
ColorChange
350
3A
  3
Conceptual
350
34
  3
Dim
350
35
  3
Facepattern
350
39
  3
Flat
350
2B
  3
FlatWithEdges
350
2C
  3
Gouraud
350
2D
  3
GouraudWithEdges
350
2E
  3
Linepattern
350
38
  3
Realistic
350
33
  3
Thicken
350
37
  0
LAYOUT
  5
1E
102
{ACAD_REACTORS
330
1A
102
}
330
1A
100
AcDbPlotSettings
  1

  2
none_device
  4

  6

 40
0.0
 41
0.0
 42
0.0
 43
0.0
 44
0.0
 45
0.0
 46
0.0
 47
0.0
 48
0.0
 49
0.0
140
0.0
141
0.0
142
1.0
143
1.0
 70
   688
 72
     0
 73
     0
 74
     5
  7

 75
    16
 76
     0
 77
     5
 78
   300
147
1.0
148
0.0
149
0.0
100
AcDbLayout
  1
Layout1
 70
     1
 71
     1
 10
0.0
 20
0.0
 11
420.0
 21
297.0
 12
0.0
 22
0.0
 32
0.0
 14
1.000000000000000E+20
 24
1.000000000000000E+20
 34
1.000000000000000E+20
 15
-1.000000000000000E+20
 25
-1.000000000000000E+20
 35
-1.000000000000000E+20
146
0.0
 13
0.0
 23
0.0
 33
0.0
 16
1.0
 26
0.0
 36
0.0
 17
0.0
 27
1.0
 37
0.0
 76
     0
330
1B
  0
LAYOUT
  5
26
102
{ACAD_REACTORS
330
1A
102
}
330
1A
100
AcDbPlotSettings
  1

  2
none_device
  4

  6

 40
0.0
 41
0.0
 42
0.0
 43
0.0
 44
0.0
 45
0.0
 46
0.0
 47
0.0
 48
0.0
 49
0.0
140
0.0
141
0.0
142
1.0
143
1.0
 70
   688
 72
     0
 73
     0
 74
     5
  7

 75
    16
 76
     0
 77
     5
 78
   300
147
1.0
148
0.0
149
0.0
100
AcDbLayout
  1
Layout2
 70
     1
 71
     2
 10
0.0
 20
0.0
 11
0.0
 21
0.0
 12
0.0
 22
0.0
 32
0.0
 14
0.0
 24
0.0
 34
0.0
 15
0.0
 25
0.0
 35
0.0
146
0.0
 13
0.0
 23
0.0
 33
0.0
 16
1.0
 26
0.0
 36
0.0
 17
0.0
 27
1.0
 37
0.0
 76
     0
330
23
  0
LAYOUT
  5
22
102
{ACAD_REACTORS
330
1A
102
}
330
1A
100
AcDbPlotSettings
  1

  2
none_device
  4

  6

 40
0.0
 41
0.0
 42
0.0
 43
0.0
 44
0.0
 45
0.0
 46
0.0
 47
0.0
 48
0.0
 49
0.0
140
0.0
141
0.0
142
1.0
143
1.0
 70
  1712
 72
     0
 73
     0
 74
     0
  7

 75
     0
 76
     0
 77
     5
 78
   300
147
1.0
148
0.0
149
0.0
100
AcDbLayout
  1
Model
 70
     1
 71
     0
 10
-2100.0
 20
-1485.0
 11
2100.0
 21
1485.0
 12
0.0
 22
0.0
 32
0.0
 14
-2100.0
 24
-1485.0
 34
0.0
 15
2100.0
 25
1485.0
 35
0.0
146
0.0
 13
0.0
 23
0.0
 33
0.0
 16
1.0
 26
0.0
 36
0.0
 17
0.0
 27
1.0
 37
0.0
 76
     0
330
1F
331
29
  0
MLINESTYLE
  5
18
102
{ACAD_REACTORS
330
17
102
}
330
17
100
AcDbMlineStyle
  2
Standard
 70
     0
  3

 62
   256
 51
90.0
 52
90.0
 71
     2
 49
0.5
 62
   256
  6
BYLAYER
 49
-0.5
 62
   256
  6
BYLAYER
  0
ACDBPLACEHOLDER
  5
F
102
{ACAD_REACTORS
330
E
102
}
330
E
  0
VISUALSTYLE
  5
2F
102
{ACAD_REACTORS
330
2A
102
}
330
2A
100
AcDbVisualStyle
  2
2dWireframe
 70
     4
 71
     0
 72
     2
 73
     0
 90
        0
 40
-0.6
 41
-30.0
 62
     5
 63
     7
421
 16777215
 74
     1
 91
        4
 64
     7
 65
   257
 75
     1
175
     1
 42
1.0
 92
        0
 66
   257
 43
1.0
 76
     1
 77
     6
 78
     2
 67
     7
 79
     5
170
     0
171
     0
290
     0
174
     0
 93
        1
 44
0.0
173
     0
291
     0
 45
0.0
1001
ACAD
1000
AcDbSavedByObjectVersion
1070
     0
  0
VISUALSTYLE
  5
31
102
{ACAD_REACTORS
330
2A
102
}
330
2A
100
AcDbVisualStyle
  2
3D Hidden
 70
     6
 71
     1
 72
     2
 73
     2
 90
        0
 40
-0.6
 41
-30.0
 62
     5
 63
     7
421
 16777215
 74
     2
 91
        2
 64
     7
 65
   257
 75
     2
175
     1
 42
40.0
 92
        0
 66
   257
 43
1.0
 76
     1
 77
     6
 78
     2
 67
     7
 79
     3
170
     0
171
     0
290
     0
174
     0
 93
        1
 44
0.0
173
     0
291
     0
 45
0.0
1001
ACAD
1000
AcDbSavedByObjectVersion
1070
     0
  0
VISUALSTYLE
  5
30
102
{ACAD_REACTORS
330
2A
102
}
330
2A
100
AcDbVisualStyle
  2
3dWireframe
 70
     5
 71
     0
 72
     2
 73
     0
 90
        0
 40
-0.6
 41
-30.0
 62
     5
 63
     7
421
 16777215
 74
     1
 91
        4
 64
     7
 65
   257
 75
     1
175
     1
 42
1.0
 92
        0
 66
   257
 43
1.0
 76
     1
 77
     6
 78
     2
 67
     7
 79
     5
170
     0
171
     0
290
     0
174
     0
 93
        1
 44
0.0
173
     0
291
     0
 45
0.0
1001
ACAD
1000
AcDbSavedByObjectVersion
1070
     0
  0
VISUALSTYLE
  5
32
102
{ACAD_REACTORS
330
2A
102
}
330
2A
100
AcDbVisualStyle
  2
Basic
 70
     7
 71
     1
 72
     0
 73
     1
 90
        0
 40
-0.6
 41
-30.0
 62
     5
 63
     7
421
 16777215
 74
     0
 91
        4
 64
     7
 65
   257
 75
     1
175
     1
 42
1.0
 92
        8
 66
     7
 43
1.0
 76
     1
 77
     6
 78
     2
 67
     7
 79
     5
170
     0
171
     0
290
     0
174
     0
 93
        1
 44
0.0
173
     0
291
     1
 45
0.0
1001
ACAD
1000
AcDbSavedByObjectVersion
1070
     0
  0
VISUALSTYLE
  5
36
102
{ACAD_REACTORS
330
2A
102
}
330
2A
100
AcDbVisualStyle
  2
Brighten
 70
    12
 71
     2
 72
     2
 73
     0
 90
        0
 40
-0.6
 41
-30.0
 62
     5
 63
     7
421
 16777215
 74
     1
 91
        4
 64
     7
 65
   257
 75
     1
175
     1
 42
1.0
 92
        8
 66
     7
 43
1.0
 76
     1
 77
     6
 78
     2
 67
     7
 79
     5
170
     0
171
     0
290
     0
174
     0
 93
        1
 44
50.0
173
     0
291
     1
 45
0.0
1001
ACAD
1000
AcDbSavedByObjectVersion
1070
     0
  0
VISUALSTYLE
  5
3A
102
{ACAD_REACTORS
330
2A
102
}
330
2A
100
AcDbVisualStyle
  2
ColorChange
 70
    16
 71
     2
 72
     2
 73
     3
 90
        0
 40
-0.6
 41
-30.0
 62
     5
 63
     8
421
  8421504
 74
     1
 91
        4
 64
     7
 65
   257
 75
     1
175
     1
 42
1.0
 92
        8
 66
     8
424
  8421504
 43
1.0
 76
     1
 77
     6
 78
     2
 67
     7
 79
     5
170
     0
171
     0
290
     0
174
     0
 93
        1
 44
0.0
173
     0
291
     1
 45
0.0
1001
ACAD
1000
AcDbSavedByObjectVersion
1070
     0
  0
VISUALSTYLE
  5
34
102
{ACAD_REACTORS
330
2A
102
}
330
2A
100
AcDbVisualStyle
  2
Conceptual
 70
     9
 71
     3
 72
     2
 73
     0
 90
        0
 40
-0.6
 41
-30.0
 62
     5
 63
     7
421
 16777215
 74
     2
 91
        2
 64
     7
 65
   257
 75
     1
175
     1
 42
40.0
 92
        8
 66
     7
 43
1.0
 76
     1
 77
     6
 78
     2
 67
     7
 79
     3
170
     0
171
     0
290
     0
174
     0
 93
        1
 44
0.0
173
     0
291
     0
 45
0.0
1001
ACAD
1000
AcDbSavedByObjectVersion
1070
     0
  0
VISUALSTYLE
  5
35
102
{ACAD_REACTORS
330
2A
102
}
330
2A
100
AcDbVisualStyle
  2
Dim
 70
    11
 71
     2
 72
     2
 73
     0
 90
        0
 40
-0.6
 41
-30.0
 62
     5
 63
     7
421
 16777215
 74
     1
 91
        4
 64
     7
 65
   257
 75
     1
175
     1
 42
1.0
 92
        8
 66
     7
 43
1.0
 76
     1
 77
     6
 78
     2
 67
     7
 79
     5
170
     0
171
     0
290
     0
174
     0
 93
        1
 44
-50.0
173
     0
291
     1
 45
0.0
1001
ACAD
1000
AcDbSavedByObjectVersion
1070
     0
  0
VISUALSTYLE
  5
39
102
{ACAD_REACTORS
330
2A
102
}
330
2A
100
AcDbVisualStyle
  2
Facepattern
 70
    15
 71
     2
 72
     2
 73
     0
 90
        0
 40
-0.6
 41
-30.0
 62
     5
 63
     7
421
 16777215
 74
     1
 91
        4
 64
     7
 65
   257
 75
     1
175
     1
 42
1.0
 92
        8
 66
     7
 43
1.0
 76
     1
 77
     6
 78
     2
 67
     7
 79
     5
170
     0
171
     0
290
     0
174
     0
 93
        1
 44
0.0
173
     0
291
     1
 45
0.0
1001
ACAD
1000
AcDbSavedByObjectVersion
1070
     0
  0
VISUALSTYLE
  5
2B
102
{ACAD_REACTORS
330
2A
102
}
330
2A
100
AcDbVisualStyle
  2
Flat
 70
     0
 71
     2
 72
     1
 73
     1
 90
        2
 40
-0.6
 41
30.0
 62
     5
 63
     7
421
 16777215
 74
     0
 91
        4
 64
     7
 65
   257
 75
     1
175
     1
 42
1.0
 92
        8
 66
     7
 43
1.0
 76
     1
 77
     6
 78
     2
 67
     7
 79
     5
170
     0
171
     0
290
     0
174
     0
 93
       13
 44
0.0
173
     0
291
     1
 45
0.0
1001
ACAD
1000
AcDbSavedByObjectVersion
1070
     0
  0
VISUALSTYLE
  5
2C
102
{ACAD_REACTORS
330
2A
102
}
330
2A
100
AcDbVisualStyle
  2
FlatWithEdges
 70
     1
 71
     2
 72
     1
 73
     1
 90
        2
 40
-0.6
 41
30.0
 62
     5
 63
     7
421
 16777215
 74
     1
 91
        4
 64
     7
 65
   257
 75
     1
175
     1
 42
1.0
 92
        0
 66
   257
 43
1.0
 76
     1
 77
     6
 78
     2
 67
     7
 79
     5
170
     0
171
     0
290
     0
174
     0
 93
       13
 44
0.0
173
     0
291
     1
 45
0.0
1001
ACAD
1000
AcDbSavedByObjectVersion
1070
     0
  0
VISUALSTYLE
  5
2D
102
{ACAD_REACTORS
330
2A
102
}
330
2A
100
AcDbVisualStyle
  2
Gouraud
 70
     2
 71
     2
 72
     2
 73
     1
 90
        2
 40
-0.6
 41
30.0
 62
     5
 63
     7
421
 16777215
 74
     0
 91
        4
 64
     7
 65
   257
 75
     1
175
     1
 42
1.0
 92
        0
 66
     7
 43
1.0
 76
     1
 77
     6
 78
     2
 67
     7
 79
     5
170
     0
171
     0
290
     0
174
     0
 93
       13
 44
0.0
173
     0
291
     1
 45
0.0
1001
ACAD
1000
AcDbSavedByObjectVersion
1070
     0
  0
VISUALSTYLE
  5
2E
102
{ACAD_REACTORS
330
2A
102
}
330
2A
100
AcDbVisualStyle
  2
GouraudWithEdges
 70
     3
 71
     2
 72
     2
 73
     1
 90
        2
 40
-0.6
 41
30.0
 62
     5
 63
     7
421
 16777215
 74
     1
 91
        4
 64
     7
 65
   257
 75
     1
175
     1
 42
1.0
 92
        0
 66
   257
 43
1.0
 76
     1
 77
     6
 78
     2
 67
     7
 79
     5
170
     0
171
     0
290
     0
174
     0
 93
       13
 44
0.0
173
     0
291
     1
 45
0.0
1001
ACAD
1000
AcDbSavedByObjectVersion
1070
     0
  0
VISUALSTYLE
  5
38
102
{ACAD_REACTORS
330
2A
102
}
330
2A
100
AcDbVisualStyle
  2
Linepattern
 70
    14
 71
     2
 72
     2
 73
     0
 90
        0
 40
-0.6
 41
-30.0
 62
     5
 63
     7
421
 16777215
 74
     1
 91
        4
 64
     7
 65
   257
 75
     7
175
     7
 42
1.0
 92
        8
 66
     7
 43
1.0
 76
     1
 77
     6
 78
     2
 67
     7
 79
     5
170
     0
171
     0
290
     0
174
     0
 93
        1
 44
0.0
173
     0
291
     1
 45
0.0
1001
ACAD
1000
AcDbSavedByObjectVersion
1070
     0
  0
VISUALSTYLE
  5
33
102
{ACAD_REACTORS
330
2A
102
}
330
2A
100
AcDbVisualStyle
  2
Realistic
 70
     8
 71
     2
 72
     2
 73
     0
 90
        0
 40
-0.6
 41
-30.0
 62
     5
 63
     7
421
 16777215
 74
     1
 91
        0
 64
     7
 65
   257
 75
     1
175
     1
 42
1.0
 92
        8
 66
     8
424
  7895160
 43
1.0
 76
     1
 77
     6
 78
     2
 67
     7
 79
     5
170
     0
171
     0
290
     0
174
     0
 93
       13
 44
0.0
173
     0
291
     0
 45
0.0
1001
ACAD
1000
AcDbSavedByObjectVersion
1070
     0
  0
VISUALSTYLE
  5
37
102
{ACAD_REACTORS
330
2A
102
}
330
2A
100
AcDbVisualStyle
  2
Thicken
 70
    13
 71
     2
 72
     2
 73
     0
 90
        0
 40
-0.6
 41
-30.0
 62
     5
 63
     7
421
 16777215
 74
     1
 91
        4
 64
     7
 65
   257
 75
     1
175
     1
 42
1.0
 92
       12
 66
     7
 43
1.0
 76
     1
 77
     6
 78
     2
 67
     7
 79
     5
170
     0
171
     0
290
     0
174
     0
 93
        1
 44
0.0
173
     0
291
     1
 45
0.0
1001
ACAD
1000
AcDbSavedByObjectVersion
1070
     0
  0
ENDSEC
  0
EOF
