  0
SECTION
  2
HEADER
  9
$ACADVER
  1
AC1015
  9
$ACADMAINTVER
 70
     6
  9
$DWGCODEPAGE
  3
ANSI_932
  9
$INSBASE
 10
0.0
 20
0.0
 30
0.0
  9
$EXTMIN
 10
-2100.0
 20
-1485.0
 30
0.0
  9
$EXTMAX
 10
2100.0
 20
1485.0
 30
0.0
  9
$LIMMIN
 10
-2100.0
 20
-1485.0
  9
$LIMMAX
 10
2100.0
 20
1485.0
  9
$ORTHOMODE
 70
     0
  9
$REGENMODE
 70
     1
  9
$FILLMODE
 70
     1
  9
$QTEXTMODE
 70
     0
  9
$MIRRTEXT
 70
     1
  9
$LTSCALE
 40
10.0
  9
$ATTMODE
 70
     1
  9
$TEXTSIZE
 40
2.5
  9
$TRACEWID
 40
1.0
  9
$TEXTSTYLE
  7
Standard
  9
$CLAYER
  8
0
  9
$CELTYPE
  6
ByLayer
  9
$CECOLOR
 62
   256
  9
$CELTSCALE
 40
1.0
  9
$DISPSILH
 70
     0
  9
$DIMSCALE
 40
1.0
  9
$DIMASZ
 40
2.5
  9
$DIMEXO
 40
0.625
  9
$DIMDLI
 40
3.75
  9
$DIMRND
 40
0.0
  9
$DIMDLE
 40
0.0
  9
$DIMEXE
 40
1.25
  9
$DIMTP
 40
0.0
  9
$DIMTM
 40
0.0
  9
$DIMTXT
 40
2.5
  9
$DIMCEN
 40
2.5
  9
$DIMTSZ
 40
0.0
  9
$DIMTOL
 70
     0
  9
$DIMLIM
 70
     0
  9
$DIMTIH
 70
     0
  9
$DIMTOH
 70
     0
  9
$DIMSE1
 70
     0
  9
$DIMSE2
 70
     0
  9
$DIMTAD
 70
     1
  9
$DIMZIN
 70
     8
  9
$DIMBLK
  1

  9
$DIMASO
 70
     1
  9
$DIMSHO
 70
     1
  9
$DIMPOST
  1

  9
$DIMAPOST
  1

  9
$DIMALT
 70
     0
  9
$DIMALTD
 70
     3
  9
$DIMALTF
 40
0.03937007874016
  9
$DIMLFAC
 40
1.0
  9
$DIMTOFL
 70
     1
  9
$DIMTVP
 40
0.0
  9
$DIMTIX
 70
     0
  9
$DIMSOXD
 70
     0
  9
$DIMSAH
 70
     0
  9
$DIMBLK1
  1

  9
$DIMBLK2
  1

  9
$DIMSTYLE
  2
ISO-25
  9
$DIMCLRD
 70
     0
  9
$DIMCLRE
 70
     0
  9
$DIMCLRT
 70
     0
  9
$DIMTFAC
 40
1.0
  9
$DIMGAP
 40
0.625
  9
$DIMJUST
 70
     0
  9
$DIMSD1
 70
     0
  9
$DIMSD2
 70
     0
  9
$DIMTOLJ
 70
     0
  9
$DIMTZIN
 70
     8
  9
$DIMALTZ
 70
     0
  9
$DIMALTTZ
 70
     0
  9
$DIMUPT
 70
     0
  9
$DIMDEC
 70
     2
  9
$DIMTDEC
 70
     2
  9
$DIMALTU
 70
     2
  9
$DIMALTTD
 70
     3
  9
$DIMTXSTY
  7
Standard
  9
$DIMAUNIT
 70
     0
  9
$DIMADEC
 70
     0
  9
$DIMALTRND
 40
0.0
  9
$DIMAZIN
 70
     0
  9
$DIMDSEP
 70
    44
  9
$DIMATFIT
 70
     3
  9
$DIMFRAC
 70
     0
  9
$DIMLDRBLK
  1

  9
$DIMLUNIT
 70
     2
  9
$DIMLWD
 70
    -2
  9
$DIMLWE
 70
    -2
  9
$DIMTMOVE
 70
     0
  9
$LUNITS
 70
     2
  9
$LUPREC
 70
     4
  9
$SKETCHINC
 40
1.0
  9
$FILLETRAD
 40
10.0
  9
$AUNITS
 70
     0
  9
$AUPREC
 70
     0
  9
$MENU
  1
.
  9
$ELEVATION
 40
0.0
  9
$PELEVATION
 40
0.0
  9
$THICKNESS
 40
0.0
  9
$LIMCHECK
 70
     0
  9
$CHAMFERA
 40
10.0
  9
$CHAMFERB
 40
10.0
  9
$CHAMFERC
 40
20.0
  9
$CHAMFERD
 40
0.0
  9
$SKPOLY
 70
     0
  9
$TDCREATE
 40
2456904.821647442
  9
$TDUCREATE
 40
2456904.446647442
  9
$TDUPDATE
 40
2456904.821647454
  9
$TDUUPDATE
 40
2456904.446647454
  9
$TDINDWG
 40
0.0000000116
  9
$TDUSRTIMER
 40
0.0000000116
  9
$USRTIMER
 70
     1
  9
$ANGBASE
 50
0.0
  9
$ANGDIR
 70
     0
  9
$PDMODE
 70
     0
  9
$PDSIZE
 40
0.0
  9
$PLINEWID
 40
0.0
  9
$SPLFRAME
 70
     0
  9
$SPLINETYPE
 70
     6
  9
$SPLINESEGS
 70
     8
  9
$HANDSEED
  5
3DC
  9
$SURFTAB1
 70
     6
  9
$SURFTAB2
 70
     6
  9
$SURFTYPE
 70
     6
  9
$SURFU
 70
     6
  9
$SURFV
 70
     6
  9
$UCSBASE
  2

  9
$UCSNAME
  2

  9
$UCSORG
 10
0.0
 20
0.0
 30
0.0
  9
$UCSXDIR
 10
1.0
 20
0.0
 30
0.0
  9
$UCSYDIR
 10
0.0
 20
1.0
 30
0.0
  9
$UCSORTHOREF
  2

  9
$UCSORTHOVIEW
 70
     0
  9
$UCSORGTOP
 10
0.0
 20
0.0
 30
0.0
  9
$UCSORGBOTTOM
 10
0.0
 20
0.0
 30
0.0
  9
$UCSORGLEFT
 10
0.0
 20
0.0
 30
0.0
  9
$UCSORGRIGHT
 10
0.0
 20
0.0
 30
0.0
  9
$UCSORGFRONT
 10
0.0
 20
0.0
 30
0.0
  9
$UCSORGBACK
 10
0.0
 20
0.0
 30
0.0
  9
$PUCSBASE
  2

  9
$PUCSNAME
  2

  9
$PUCSORG
 10
0.0
 20
0.0
 30
0.0
  9
$PUCSXDIR
 10
1.0
 20
0.0
 30
0.0
  9
$PUCSYDIR
 10
0.0
 20
1.0
 30
0.0
  9
$PUCSORTHOREF
  2

  9
$PUCSORTHOVIEW
 70
     0
  9
$PUCSORGTOP
 10
0.0
 20
0.0
 30
0.0
  9
$PUCSORGBOTTOM
 10
0.0
 20
0.0
 30
0.0
  9
$PUCSORGLEFT
 10
0.0
 20
0.0
 30
0.0
  9
$PUCSORGRIGHT
 10
0.0
 20
0.0
 30
0.0
  9
$PUCSORGFRONT
 10
0.0
 20
0.0
 30
0.0
  9
$PUCSORGBACK
 10
0.0
 20
0.0
 30
0.0
  9
$USERI1
 70
     0
  9
$USERI2
 70
     0
  9
$USERI3
 70
     0
  9
$USERI4
 70
     0
  9
$USERI5
 70
     0
  9
$USERR1
 40
0.0
  9
$USERR2
 40
0.0
  9
$USERR3
 40
0.0
  9
$USERR4
 40
0.0
  9
$USERR5
 40
0.0
  9
$WORLDVIEW
 70
     1
  9
$SHADEDGE
 70
     3
  9
$SHADEDIF
 70
    70
  9
$TILEMODE
 70
     1
  9
$MAXACTVP
 70
    64
  9
$PINSBASE
 10
0.0
 20
0.0
 30
0.0
  9
$PLIMCHECK
 70
     0
  9
$PEXTMIN
 10
1.000000000000000E+20
 20
1.000000000000000E+20
 30
1.000000000000000E+20
  9
$PEXTMAX
 10
-1.000000000000000E+20
 20
-1.000000000000000E+20
 30
-1.000000000000000E+20
  9
$PLIMMIN
 10
0.0
 20
0.0
  9
$PLIMMAX
 10
420.0
 20
297.0
  9
$UNITMODE
 70
     0
  9
$VISRETAIN
 70
     1
  9
$PLINEGEN
 70
     0
  9
$PSLTSCALE
 70
     1
  9
$TREEDEPTH
 70
  3020
  9
$CMLSTYLE
  2
Standard
  9
$CMLJUST
 70
     0
  9
$CMLSCALE
 40
20.0
  9
$PROXYGRAPHICS
 70
     1
  9
$MEASUREMENT
 70
     1
  9
$CELWEIGHT
370
    -1
  9
$ENDCAPS
280
     0
  9
$JOINSTYLE
280
     0
  9
$LWDISPLAY
290
     0
  9
$INSUNITS
 70
     4
  9
$HYPERLINKBASE
  1

  9
$STYLESHEET
  1

  9
$XEDIT
290
     1
  9
$CEPSNTYPE
380
     0
  9
$PSTYLEMODE
290
     1
  9
$FINGERPRINTGUID
  2
{F0D245EB-CC37-4A67-9FF9-3207D7806F5E}
  9
$VERSIONGUID
  2
{FAEB1C32-E019-11D5-929B-00C0DF256EC4}
  9
$EXTNAMES
290
     1
  9
$PSVPSCALE
 40
0.0
  9
$OLESTARTUP
290
     0
  0
ENDSEC
  0
SECTION
  2
CLASSES
  0
CLASS
  1
ACDBDICTIONARYWDFLT
  2
AcDbDictionaryWithDefault
  3
ObjectDBX Classes
 90
        0
280
     0
281
     0
  0
CLASS
  1
VISUALSTYLE
  2
AcDbVisualStyle
  3
ObjectDBX Classes
 90
     4095
280
     0
281
     0
  0
CLASS
  1
DICTIONARYVAR
  2
AcDbDictionaryVar
  3
ObjectDBX Classes
 90
        0
280
     0
281
     0
  0
CLASS
  1
ACDBPLACEHOLDER
  2
AcDbPlaceHolder
  3
ObjectDBX Classes
 90
        0
280
     0
281
     0
  0
CLASS
  1
LAYOUT
  2
AcDbLayout
  3
ObjectDBX Classes
 90
        0
280
     0
281
     0
  0
ENDSEC
  0
SECTION
  2
TABLES
  0
TABLE
  2
VPORT
  5
8
330
0
100
AcDbSymbolTable
 70
     1
  0
VPORT
  5
29
330
8
100
AcDbSymbolTableRecord
100
AcDbViewportTableRecord
  2
*Active
 70
     0
 10
0.0
 20
0.0
 11
1.0
 21
1.0
 12
0.0
 22
0.0
 13
0.0
 23
0.0
 14
10.0
 24
10.0
 15
10.0
 25
10.0
 16
0.0
 26
0.0
 36
1.0
 17
0.0
 27
0.0
 37
0.0
 40
3267.0
 41
1.414141414141414
 42
50.0
 43
0.0
 44
0.0
 50
0.0
 51
0.0
 71
     0
 72
 10000
 73
     1
 74
     3
 75
     0
 76
     0
 77
     0
 78
     0
281
     0
 65
     1
110
0.0
120
0.0
130
0.0
111
1.0
121
0.0
131
0.0
112
0.0
122
1.0
132
0.0
 79
     0
146
0.0
  0
ENDTAB
  0
TABLE
  2
LTYPE
  5
5
330
0
100
AcDbSymbolTable
 70
     6
  0
LTYPE
  5
14
330
5
100
AcDbSymbolTableRecord
100
AcDbLinetypeTableRecord
  2
ByBlock
 70
     0
  3

 72
    65
 73
     0
 40
0.0
  0
LTYPE
  5
15
330
5
100
AcDbSymbolTableRecord
100
AcDbLinetypeTableRecord
  2
ByLayer
 70
     0
  3

 72
    65
 73
     0
 40
0.0
  0
LTYPE
  5
16
330
5
100
AcDbSymbolTableRecord
100
AcDbLinetypeTableRecord
  2
Continuous
 70
     0
  3
Solid line
 72
    65
 73
     0
 40
0.0
  0
LTYPE
  5
3C
330
5
100
AcDbSymbolTableRecord
100
AcDbLinetypeTableRecord
  2
JWW_DASHED3
 70
     0
  3
---  ------  ------  ------  ---
 72
    65
 73
     2
 40
3.386666666666667
 49
2.54
 74
     0
 49
-0.8466666666666667
 74
     0
  0
LTYPE
  5
3D
330
5
100
AcDbSymbolTableRecord
100
AcDbLinetypeTableRecord
  2
JWW_CENTER2
 70
     0
  3
-------------  --  -------------
 72
    65
 73
     4
 40
13.54666666666667
 49
11.00666666666667
 74
     0
 49
-0.8466666666666667
 74
     0
 49
0.8466666666666667
 74
     0
 49
-0.8466666666666667
 74
     0
  0
LTYPE
  5
3E
330
5
100
AcDbSymbolTableRecord
100
AcDbLinetypeTableRecord
  2
JWW_DASHED1
 70
     0
  3
-  --  --  --  --  --  --  --  -
 72
    65
 73
     2
 40
1.693333333333333
 49
0.8466666666666667
 74
     0
 49
-0.8466666666666667
 74
     0
  0
LTYPE
  5
3F
330
5
100
AcDbSymbolTableRecord
100
AcDbLinetypeTableRecord
  2
JWW_CENTER1
 70
     0
  3
-----  --  ----------  --  -----
 72
    65
 73
     4
 40
6.773333333333333
 49
4.233333333333333
 74
     0
 49
-0.8466666666666667
 74
     0
 49
0.8466666666666667
 74
     0
 49
-0.8466666666666667
 74
     0
  0
LTYPE
  5
40
330
5
100
AcDbSymbolTableRecord
100
AcDbLinetypeTableRecord
  2
JWW_DASHED2
 70
     0
  3
--    ----    ----    ----    --
 72
    65
 73
     2
 40
3.386666666666667
 49
1.693333333333333
 74
     0
 49
-1.693333333333333
 74
     0
  0
ENDTAB
  0
TABLE
  2
LAYER
  5
2
330
0
100
AcDbSymbolTable
 70
    17
  0
LAYER
  5
10
330
2
100
AcDbSymbolTableRecord
100
AcDbLayerTableRecord
  2
0
 70
     0
 62
     7
  6
Continuous
370
    -3
390
F
  0
LAYER
  5
41
330
2
100
AcDbSymbolTableRecord
100
AcDbLayerTableRecord
  2
D-A
 70
     0
 62
     7
  6
Continuous
370
    -3
390
F
  0
LAYER
  5
42
330
2
100
AcDbSymbolTableRecord
100
AcDbLayerTableRecord
  2
D-4
 70
     0
 62
     7
  6
Continuous
370
    -3
390
F
  0
LAYER
  5
43
330
2
100
AcDbSymbolTableRecord
100
AcDbLayerTableRecord
  2
D-5
 70
     0
 62
     7
  6
Continuous
370
    -3
390
F
  0
LAYER
  5
44
330
2
100
AcDbSymbolTableRecord
100
AcDbLayerTableRecord
  2
D-6
 70
     0
 62
     7
  6
Continuous
370
    -3
390
F
  0
LAYER
  5
45
330
2
100
AcDbSymbolTableRecord
100
AcDbLayerTableRecord
  2
D-9
 70
     0
 62
     7
  6
Continuous
370
    -3
390
F
  0
LAYER
  5
46
330
2
100
AcDbSymbolTableRecord
100
AcDbLayerTableRecord
  2
D-1
 70
     0
 62
     7
  6
Continuous
370
    -3
390
F
  0
LAYER
  5
47
330
2
100
AcDbSymbolTableRecord
100
AcDbLayerTableRecord
  2
D-2
 70
     0
 62
     7
  6
Continuous
370
    -3
390
F
  0
LAYER
  5
48
330
2
100
AcDbSymbolTableRecord
100
AcDbLayerTableRecord
  2
D-0
 70
     0
 62
     7
  6
Continuous
370
    -3
390
F
  0
LAYER
  5
49
330
2
100
AcDbSymbolTableRecord
100
AcDbLayerTableRecord
  2
C-2
 70
     0
 62
     7
  6
Continuous
370
    -3
390
F
  0
LAYER
  5
4A
330
2
100
AcDbSymbolTableRecord
100
AcDbLayerTableRecord
  2
C-1
 70
     0
 62
     7
  6
Continuous
370
    -3
390
F
  0
LAYER
  5
4B
330
2
100
AcDbSymbolTableRecord
100
AcDbLayerTableRecord
  2
C-A
 70
     0
 62
     7
  6
Continuous
370
    -3
390
F
  0
LAYER
  5
4C
330
2
100
AcDbSymbolTableRecord
100
AcDbLayerTableRecord
  2
C-4
 70
     0
 62
     7
  6
Continuous
370
    -3
390
F
  0
LAYER
  5
4D
330
2
100
AcDbSymbolTableRecord
100
AcDbLayerTableRecord
  2
C-5
 70
     0
 62
     7
  6
Continuous
370
    -3
390
F
  0
LAYER
  5
4E
330
2
100
AcDbSymbolTableRecord
100
AcDbLayerTableRecord
  2
C-0
 70
     0
 62
     7
  6
Continuous
370
    -3
390
F
  0
LAYER
  5
4F
330
2
100
AcDbSymbolTableRecord
100
AcDbLayerTableRecord
  2
C-9
 70
     0
 62
     7
  6
Continuous
370
    -3
390
F
  0
LAYER
  5
50
330
2
100
AcDbSymbolTableRecord
100
AcDbLayerTableRecord
  2
F-4
 70
     0
 62
     7
  6
Continuous
370
    -3
390
F
  0
ENDTAB
  0
TABLE
  2
STYLE
  5
3
330
0
100
AcDbSymbolTable
 70
     2
  0
STYLE
  5
11
330
3
100
AcDbSymbolTableRecord
100
AcDbTextStyleTableRecord
  2
Standard
 70
     0
 40
0.0
 41
1.0
 50
0.0
 71
     0
 42
2.5
  3
txt
  4

1001
ACAD
1000

1071
        0
  0
STYLE
  5
3B
330
3
100
AcDbSymbolTableRecord
100
AcDbTextStyleTableRecord
  2
ＭＳ ゴシック
 70
     0
 40
1.0
 41
1.0
 50
0.0
 71
     0
 42
10.0
  3

  4

1001
ACAD
1000
MS Gothic
1071
    32817
  0
ENDTAB
  0
TABLE
  2
VIEW
  5
6
330
0
100
AcDbSymbolTable
 70
     0
  0
ENDTAB
  0
TABLE
  2
UCS
  5
7
330
0
100
AcDbSymbolTable
 70
     0
  0
ENDTAB
  0
TABLE
  2
APPID
  5
9
330
0
100
AcDbSymbolTable
 70
     1
  0
APPID
  5
12
330
9
100
AcDbSymbolTableRecord
100
AcDbRegAppTableRecord
  2
ACAD
 70
     0
  0
ENDTAB
  0
TABLE
  2
DIMSTYLE
  5
A
330
0
100
AcDbSymbolTable
 70
     1
100
AcDbDimStyleTable
  0
DIMSTYLE
105
27
330
A
100
AcDbSymbolTableRecord
100
AcDbDimStyleTableRecord
  2
ISO-25
 70
     0
 41
2.5
 42
0.625
 43
3.75
 44
1.25
 73
     0
 74
     0
 77
     1
 78
     8
140
2.5
141
2.5
143
0.03937007874016
147
0.625
171
     3
172
     1
271
     2
272
     2
274
     3
278
    44
283
     0
284
     8
340
11
  0
ENDTAB
  0
TABLE
  2
BLOCK_RECORD
  5
1
330
0
100
AcDbSymbolTable
 70
     1
  0
BLOCK_RECORD
  5
1F
330
1
100
AcDbSymbolTableRecord
100
AcDbBlockTableRecord
  2
*Model_Space
340
22
  0
BLOCK_RECORD
  5
1B
330
1
100
AcDbSymbolTableRecord
100
AcDbBlockTableRecord
  2
*Paper_Space
340
1E
  0
BLOCK_RECORD
  5
23
330
1
100
AcDbSymbolTableRecord
100
AcDbBlockTableRecord
  2
*Paper_Space0
340
26
  0
ENDTAB
  0
ENDSEC
  0
SECTION
  2
BLOCKS
  0
BLOCK
  5
20
330
1F
100
AcDbEntity
  8
0
100
AcDbBlockBegin
  2
*Model_Space
 70
     0
 10
0.0
 20
0.0
 30
0.0
  3
*Model_Space
  1

  0
ENDBLK
  5
21
330
1F
100
AcDbEntity
  8
0
100
AcDbBlockEnd
  0
BLOCK
  5
1C
330
1B
100
AcDbEntity
 67
     1
  8
0
100
AcDbBlockBegin
  2
*Paper_Space
 70
     0
 10
0.0
 20
0.0
 30
0.0
  3
*Paper_Space
  1

  0
ENDBLK
  5
1D
330
1B
100
AcDbEntity
 67
     1
  8
0
100
AcDbBlockEnd
  0
BLOCK
  5
24
330
23
100
AcDbEntity
  8
0
100
AcDbBlockBegin
  2
*Paper_Space0
 70
     0
 10
0.0
 20
0.0
 30
0.0
  3
*Paper_Space0
  1

  0
ENDBLK
  5
25
330
23
100
AcDbEntity
  8
0
100
AcDbBlockEnd
  0
ENDSEC
  0
SECTION
  2
ENTITIES
  0
LINE
  5
51
330
1F
100
AcDbEntity
  8
D-A
  6
JWW_DASHED3
 62
     3
370
     9
100
AcDbLine
 10
-445.9790758184482
 20
-403.7873221732474
 30
0.0
 11
-445.9790758184482
 21
-353.7874046531883
 31
0.0
  0
LINE
  5
52
330
1F
100
AcDbEntity
  8
D-A
  6
Continuous
 62
     3
370
     9
100
AcDbLine
 10
-420.9793644982415
 20
-378.7874871331292
 30
0.0
 11
-420.9793644982415
 21
-363.2874854835303
 31
0.0
  0
LINE
  5
53
330
1F
100
AcDbEntity
  8
D-A
  6
Continuous
 62
     3
370
     9
100
AcDbLine
 10
-445.9790758184482
 20
-353.7874046531883
 30
0.0
 11
-445.9790758184482
 21
-323.7878005569046
 31
0.0
  0
LINE
  5
54
330
1F
100
AcDbEntity
  8
D-A
  6
Continuous
 62
     3
370
     9
100
AcDbLine
 10
-295.9791995383597
 20
-442.2880925358952
 30
0.0
 11
-420.9793644982415
 21
-442.2880925358952
 31
0.0
  0
LINE
  5
55
330
1F
100
AcDbEntity
  8
D-A
  6
Continuous
 62
     3
370
     9
100
AcDbLine
 10
-423.9084333986847
 20
-425.8579645930109
 30
0.0
 11
-445.9790758184482
 21
-403.7873221732474
 31
0.0
  0
LINE
  5
56
330
1F
100
AcDbEntity
  8
D-A
  6
Continuous
 62
     3
370
     9
100
AcDbLine
 10
-420.9793644982415
 20
-453.7878582928631
 30
0.0
 11
-420.9793644982415
 21
-432.9294235641892
 31
0.0
  0
LINE
  5
57
330
1F
100
AcDbEntity
  8
D-A
  6
Continuous
 62
     3
370
     9
100
AcDbLine
 10
-295.9791995383597
 20
-453.7878582928631
 30
0.0
 11
-420.9793644982415
 21
-453.7878582928631
 31
0.0
  0
LINE
  5
58
330
1F
100
AcDbEntity
  8
D-A
  6
Continuous
 62
     3
370
     9
100
AcDbLine
 10
-295.9791995383597
 20
-413.787478885135
 30
0.0
 11
-295.9791995383597
 21
-453.7878582928631
 31
0.0
  0
LINE
  5
59
330
1F
100
AcDbEntity
  8
D-A
  6
Continuous
 62
     3
370
     9
100
AcDbLine
 10
-385.6240491609313
 20
-403.7873221732474
 30
0.0
 11
-305.9794799701586
 21
-403.7873221732474
 31
0.0
  0
LINE
  5
5A
330
1F
100
AcDbEntity
  8
D-A
  6
Continuous
 62
     3
370
     9
100
AcDbLine
 10
-445.9790758184482
 20
-353.7874046531883
 30
0.0
 11
-403.3018924094534
 21
-396.4655778214737
 31
0.0
  0
LINE
  5
5B
330
1F
100
AcDbEntity
  8
D-A
  6
Continuous
 62
     3
370
     9
100
AcDbLine
 10
-457.4793364550615
 20
-323.7878005569046
 30
0.0
 11
-457.4793364550615
 21
-436.2879242768159
 31
0.0
  0
LINE
  5
5C
330
1F
100
AcDbEntity
  8
D-A
  6
JWW_CENTER2
 62
     3
370
     9
100
AcDbLine
 10
-402.9843033971011
 20
-381.2874953811233
 30
0.0
 11
-463.402798369124
 21
-381.2874953811233
 31
0.0
  0
LINE
  5
5D
330
1F
100
AcDbEntity
  8
D-A
  6
JWW_DASHED3
 62
     3
370
     9
100
AcDbLine
 10
-420.9793644982415
 20
-399.2872578388935
 30
0.0
 11
-420.9793644982415
 21
-378.7874871331292
 31
0.0
  0
LINE
  5
5E
330
1F
100
AcDbEntity
  8
D-A
  6
Continuous
 62
     3
370
     9
100
AcDbLine
 10
-459.7293067622829
 20
-371.2873386692355
 30
0.0
 11
-460.9790015865016
 21
-372.5377758129223
 31
0.0
  0
LINE
  5
5F
330
1F
100
AcDbEntity
  8
D-A
  6
Continuous
 62
     3
370
     9
100
AcDbLine
 10
-459.7293067622829
 20
-391.2870334934543
 30
0.0
 11
-460.9790015865016
 21
-390.0377098289695
 31
0.0
  0
LINE
  5
60
330
1F
100
AcDbEntity
  8
D-A
  6
JWW_DASHED3
 62
     3
370
     9
100
AcDbLine
 10
-459.7293067622829
 20
-371.2873386692355
 30
0.0
 11
-459.7293067622829
 21
-391.2870334934543
 31
0.0
  0
LINE
  5
61
330
1F
100
AcDbEntity
  8
D-A
  6
Continuous
 62
     3
370
     9
100
AcDbLine
 10
-457.4793364550615
 20
-372.5377758129223
 30
0.0
 11
-460.9790015865016
 21
-372.5377758129223
 31
0.0
  0
LINE
  5
62
330
1F
100
AcDbEntity
  8
D-A
  6
Continuous
 62
     3
370
     9
100
AcDbLine
 10
-457.4793364550615
 20
-371.2873386692355
 30
0.0
 11
-459.7293067622829
 21
-371.2873386692355
 31
0.0
  0
LINE
  5
63
330
1F
100
AcDbEntity
  8
D-A
  6
Continuous
 62
     3
370
     9
100
AcDbLine
 10
-457.4793364550615
 20
-390.0377098289695
 30
0.0
 11
-460.9790015865016
 21
-390.0377098289695
 31
0.0
  0
LINE
  5
64
330
1F
100
AcDbEntity
  8
D-A
  6
Continuous
 62
     3
370
     9
100
AcDbLine
 10
-457.4793364550615
 20
-391.2870334934543
 30
0.0
 11
-459.7293067622829
 21
-391.2870334934543
 31
0.0
  0
LINE
  5
65
330
1F
100
AcDbEntity
  8
D-A
  6
JWW_DASHED3
 62
     3
370
     9
100
AcDbLine
 10
-420.9793644982415
 20
-391.2870334934543
 30
0.0
 11
-457.4793364550615
 21
-391.2870334934543
 31
0.0
  0
LINE
  5
66
330
1F
100
AcDbEntity
  8
D-A
  6
JWW_DASHED3
 62
     3
370
     9
100
AcDbLine
 10
-420.9793644982415
 20
-390.0377098289695
 30
0.0
 11
-457.4793364550615
 21
-390.0377098289695
 31
0.0
  0
LINE
  5
67
330
1F
100
AcDbEntity
  8
D-A
  6
JWW_DASHED3
 62
     3
370
     9
100
AcDbLine
 10
-414.4791203576165
 20
-399.2872578388935
 30
0.0
 11
-420.9793644982415
 21
-399.2872578388935
 31
0.0
  0
LINE
  5
68
330
1F
100
AcDbEntity
  8
D-A
  6
Continuous
 62
     3
370
     9
100
AcDbLine
 10
-414.4791203576165
 20
-363.2874854835303
 30
0.0
 11
-420.9793644982415
 21
-363.2874854835303
 31
0.0
  0
LINE
  5
69
330
1F
100
AcDbEntity
  8
D-A
  6
Continuous
 62
     3
370
     9
100
AcDbLine
 10
-407.9792473767253
 20
-369.7874821843327
 30
0.0
 11
-407.9792473767253
 21
-391.7880991342905
 31
0.0
  0
LINE
  5
6A
330
1F
100
AcDbEntity
  8
D-A
  6
JWW_DASHED3
 62
     3
370
     9
100
AcDbLine
 10
-407.9792473767253
 20
-392.7876322978251
 30
0.0
 11
-407.9792473767253
 21
-391.7880991342905
 31
0.0
  0
LINE
  5
6B
330
1F
100
AcDbEntity
  8
D-A
  6
Continuous
 62
     3
370
     9
100
AcDbLine
 10
-420.9793644982415
 20
-371.2873386692355
 30
0.0
 11
-428.4796366820464
 21
-371.2873386692355
 31
0.0
  0
LINE
  5
6C
330
1F
100
AcDbEntity
  8
D-A
  6
Continuous
 62
     3
370
     9
100
AcDbLine
 10
-420.9793644982415
 20
-372.5377758129223
 30
0.0
 11
-427.2295706980935
 21
-372.5377758129223
 31
0.0
  0
LINE
  5
6D
330
1F
100
AcDbEntity
  8
D-A
  6
JWW_DASHED3
 62
     3
370
     9
100
AcDbLine
 10
-428.4796366820464
 20
-371.2873386692355
 30
0.0
 11
-457.4793364550615
 21
-371.2873386692355
 31
0.0
  0
LINE
  5
6E
330
1F
100
AcDbEntity
  8
D-A
  6
JWW_DASHED3
 62
     3
370
     9
100
AcDbLine
 10
-457.4793364550615
 20
-372.5377758129223
 30
0.0
 11
-427.2295706980935
 21
-372.5377758129223
 31
0.0
  0
LINE
  5
6F
330
1F
100
AcDbEntity
  8
D-4
  6
Continuous
 62
     7
370
     9
100
AcDbLine
 10
-1168.647553469684
 20
-197.8680254961992
 30
0.0
 11
-595.9798181379163
 21
-197.8680254961992
 31
0.0
  0
LINE
  5
70
330
1F
100
AcDbEntity
  8
D-4
  6
Continuous
 62
     7
370
     9
100
AcDbLine
 10
-595.9798181379163
 20
-303.3318266997466
 30
0.0
 11
-595.9798181379163
 21
-194.8675702069255
 31
0.0
  0
LINE
  5
71
330
1F
100
AcDbEntity
  8
D-4
  6
Continuous
 62
     7
370
     9
100
AcDbLine
 10
-595.9798181379163
 20
-197.8680254961992
 30
0.0
 11
-470.9790345784779
 21
-197.8680254961992
 31
0.0
  0
LINE
  5
72
330
1F
100
AcDbEntity
  8
D-4
  6
Continuous
 62
     7
370
     9
100
AcDbLine
 10
-470.9790345784779
 20
-303.3318266997466
 30
0.0
 11
-470.9790345784779
 21
-86.11603608002525
 31
0.0
  0
LINE
  5
73
330
1F
100
AcDbEntity
  8
D-4
  6
Continuous
 62
     7
370
     9
100
AcDbLine
 10
-465.978770642667
 20
-303.3318266997466
 30
0.0
 11
-465.978770642667
 21
-86.11603608002525
 31
0.0
  0
LINE
  5
74
330
1F
100
AcDbEntity
  8
D-4
  6
Continuous
 62
     7
370
     9
100
AcDbLine
 10
-440.9799253618394
 20
-303.3318266997466
 30
0.0
 11
-440.9799253618394
 21
24.58037505278725
 31
0.0
  0
LINE
  5
75
330
1F
100
AcDbEntity
  8
D-5
  6
Continuous
 62
     7
370
     9
100
AcDbLine
 10
-346.4561810364594
 20
-155.8762503959036
 30
0.0
 11
-87.07305676228287
 21
-155.8762503959036
 31
0.0
  0
LINE
  5
76
330
1F
100
AcDbEntity
  8
D-4
  6
Continuous
 62
     7
370
     9
100
AcDbLine
 10
-195.9783747389508
 20
-638.6607896959459
 30
0.0
 11
-195.9783747389508
 21
-881.8705048432221
 31
0.0
  0
LINE
  5
77
330
1F
100
AcDbEntity
  8
D-4
  6
Continuous
 62
     7
370
     9
100
AcDbLine
 10
-595.9793232582708
 20
-724.4062351536105
 30
0.0
 11
-445.9790758184482
 21
-724.4062351536105
 31
0.0
  0
LINE
  5
78
330
1F
100
AcDbEntity
  8
D-4
  6
Continuous
 62
     7
370
     9
100
AcDbLine
 10
75.70560171797496
 20
-568.7876191010346
 30
0.0
 11
75.70560171797496
 21
-318.7874129011824
 31
0.0
  0
LINE
  5
79
330
1F
100
AcDbEntity
  8
D-6
  6
Continuous
 62
     6
370
     9
100
AcDbLine
 10
-445.9790758184482
 20
-568.7876191010346
 30
0.0
 11
-445.9790758184482
 21
-818.7873304212416
 31
0.0
  0
LINE
  5
7A
330
1F
100
AcDbEntity
  8
D-6
  6
JWW_DASHED3
 62
     6
370
     9
100
AcDbLine
 10
-352.4781239999305
 20
-696.2875448690877
 30
0.0
 11
-352.4781239999305
 21
-568.7876191010346
 31
0.0
  0
LINE
  5
7B
330
1F
100
AcDbEntity
  8
D-6
  6
JWW_DASHED3
 62
     6
370
     9
100
AcDbLine
 10
-307.477975536037
 20
-568.7876191010346
 30
0.0
 11
-307.477975536037
 21
-696.2875448690877
 31
0.0
  0
LINE
  5
7C
330
1F
100
AcDbEntity
  8
D-6
  6
Continuous
 62
     6
370
     9
100
AcDbLine
 10
-195.9794882181527
 20
-468.7877840609162
 30
0.0
 11
-30.97832525098625
 21
-468.7877840609162
 31
0.0
  0
LINE
  5
7D
330
1F
100
AcDbEntity
  8
D-6
  6
Continuous
 62
     6
370
     9
100
AcDbLine
 10
-430.9793974902178
 20
-813.936767578125
 30
0.0
 11
-85.82831073451672
 21
-468.7877840609162
 31
0.0
  0
LINE
  5
7E
330
1F
100
AcDbEntity
  8
D-6
  6
Continuous
 62
     6
370
     9
100
AcDbLine
 10
-430.9793974902178
 20
-806.8644425675676
 30
0.0
 11
-92.90261526365526
 21
-468.7877840609162
 31
0.0
  0
LINE
  5
7F
330
1F
100
AcDbEntity
  8
D-6
  6
Continuous
 62
     6
370
     9
100
AcDbLine
 10
-430.9793974902178
 20
-799.7960765941723
 30
0.0
 11
-199.9695790780555
 21
-568.7876191010346
 31
0.0
  0
LINE
  5
80
330
1F
100
AcDbEntity
  8
D-6
  6
Continuous
 62
     6
370
     9
100
AcDbLine
 10
-195.9794882181527
 20
-468.7877840609162
 30
0.0
 11
-195.9794882181527
 21
-568.7876191010346
 31
0.0
  0
LINE
  5
81
330
1F
100
AcDbEntity
  8
D-6
  6
Continuous
 62
     6
370
     9
100
AcDbLine
 10
-195.9794882181527
 20
-564.7974045212204
 30
0.0
 11
-99.96912543838079
 21
-468.7877840609162
 31
0.0
  0
LINE
  5
82
330
1F
100
AcDbEntity
  8
D-4
  6
Continuous
 62
     7
370
     9
100
AcDbLine
 10
-140.2004899205386
 20
-568.7876191010346
 30
0.0
 11
78.70605700724838
 21
-568.7876191010346
 31
0.0
  0
LINE
  5
83
330
1F
100
AcDbEntity
  8
D-6
  6
Continuous
 62
     6
370
     9
100
AcDbLine
 10
-445.9790758184482
 20
-568.7876191010346
 30
0.0
 11
-195.9794882181527
 21
-568.7876191010346
 31
0.0
  0
LINE
  5
84
330
1F
100
AcDbEntity
  8
D-6
  6
Continuous
 62
     6
370
     9
100
AcDbLine
 10
-352.4781239999305
 20
-371.2877098289695
 30
0.0
 11
-307.477975536037
 21
-371.2877098289695
 31
0.0
  0
LINE
  5
85
330
1F
100
AcDbEntity
  8
D-6
  6
JWW_CENTER2
 62
     6
370
     9
100
AcDbLine
 10
-329.9780497679839
 20
-367.2079220333615
 30
0.0
 11
-329.9780497679839
 21
-696.2875448690877
 31
0.0
  0
LINE
  5
86
330
1F
100
AcDbEntity
  8
D-4
  6
Continuous
 62
     7
370
     9
100
AcDbLine
 10
-440.9793067622829
 20
-509.3183032886401
 30
0.0
 11
-290.9788118826376
 21
-509.3183032886401
 31
0.0
  0
LINE
  5
87
330
1F
100
AcDbEntity
  8
D-4
  6
Continuous
 62
     7
370
     9
100
AcDbLine
 10
-440.9793067622829
 20
-456.7550329259923
 30
0.0
 11
-440.9793067622829
 21
-512.3185111380911
 31
0.0
  0
LINE
  5
88
330
1F
100
AcDbEntity
  8
D-4
  6
Continuous
 62
     7
370
     9
100
AcDbLine
 10
-295.9791995383597
 20
-456.7550329259923
 30
0.0
 11
-295.9791995383597
 21
-512.3185111380911
 31
0.0
  0
LINE
  5
89
330
1F
100
AcDbEntity
  8
D-4
  6
Continuous
 62
     7
370
     9
100
AcDbLine
 10
-284.153060655336
 20
-453.7878582928631
 30
0.0
 11
-204.929139163043
 21
-453.7878582928631
 31
0.0
  0
LINE
  5
8A
330
1F
100
AcDbEntity
  8
D-4
  6
Continuous
 62
     7
370
     9
100
AcDbLine
 10
-284.153060655336
 20
-403.7873221732474
 30
0.0
 11
-204.929139163043
 21
-403.7873221732474
 31
0.0
  0
LINE
  5
8B
330
1F
100
AcDbEntity
  8
D-4
  6
Continuous
 62
     7
370
     9
100
AcDbLine
 10
-207.9292232925826
 20
-403.7873221732474
 30
0.0
 11
-207.9292232925826
 21
-318.7874129011824
 31
0.0
  0
LINE
  5
8C
330
1F
100
AcDbEntity
  8
D-6
  6
Continuous
 62
     6
370
     9
100
AcDbLine
 10
-352.4781239999305
 20
-568.7876191010346
 30
0.0
 11
-352.4781239999305
 21
-453.7878582928631
 31
0.0
  0
LINE
  5
8D
330
1F
100
AcDbEntity
  8
D-6
  6
Continuous
 62
     6
370
     9
100
AcDbLine
 10
-307.477975536037
 20
-568.7876191010346
 30
0.0
 11
-307.477975536037
 21
-453.7878582928631
 31
0.0
  0
LINE
  5
8E
330
1F
100
AcDbEntity
  8
D-6
  6
Continuous
 62
     6
370
     9
100
AcDbLine
 10
-352.4781239999305
 20
-403.7873221732474
 30
0.0
 11
-352.4781239999305
 21
-371.2877098289695
 31
0.0
  0
LINE
  5
8F
330
1F
100
AcDbEntity
  8
D-6
  6
Continuous
 62
     6
370
     9
100
AcDbLine
 10
-307.477975536037
 20
-403.7873221732474
 30
0.0
 11
-307.477975536037
 21
-371.2877098289695
 31
0.0
  0
LINE
  5
90
330
1F
100
AcDbEntity
  8
D-4
  6
Continuous
 62
     7
370
     9
100
AcDbLine
 10
-766.4622680560961
 20
-443.7877015809754
 30
0.0
 11
-766.4622680560961
 21
-318.7874129011824
 31
0.0
  0
LINE
  5
91
330
1F
100
AcDbEntity
  8
D-4
  6
Continuous
 62
     7
370
     9
100
AcDbLine
 10
-469.1239782281824
 20
-443.7877015809754
 30
0.0
 11
-769.4622284657246
 21
-443.7877015809754
 31
0.0
  0
LINE
  5
92
330
1F
100
AcDbEntity
  8
D-4
  6
Continuous
 62
     7
370
     9
100
AcDbLine
 10
-469.1239782281824
 20
-318.7874129011824
 30
0.0
 11
-769.4622284657246
 21
-318.7874129011824
 31
0.0
  0
LINE
  5
93
330
1F
100
AcDbEntity
  8
D-4
  6
Continuous
 62
     7
370
     9
100
AcDbLine
 10
-1168.647553469684
 20
21.57991976351354
 30
0.0
 11
-440.9799253618394
 21
21.57991976351354
 31
0.0
  0
LINE
  5
94
330
1F
100
AcDbEntity
  8
D-4
  6
Continuous
 62
     7
370
     9
100
AcDbLine
 10
-595.9793232582708
 20
-878.8709155933276
 30
0.0
 11
-195.9783747389508
 21
-878.8709155933276
 31
0.0
  0
LINE
  5
95
330
1F
100
AcDbEntity
  8
D-4
  6
Continuous
 62
     7
370
     9
100
AcDbLine
 10
-1168.647553469684
 20
-89.11574904983098
 30
0.0
 11
-394.4421858400909
 21
-89.11574904983098
 31
0.0
  0
LINE
  5
96
330
1F
100
AcDbEntity
  8
D-4
  6
Continuous
 62
     7
370
     9
100
AcDbLine
 10
-207.9292232925826
 20
-453.7878582928631
 30
0.0
 11
-207.9292232925826
 21
-403.7873221732474
 31
0.0
  0
LINE
  5
97
330
1F
100
AcDbEntity
  8
D-4
  6
Continuous
 62
     7
370
     9
100
AcDbLine
 10
-595.9793232582708
 20
-843.7876603410051
 30
0.0
 11
-595.9793232582708
 21
-881.8705048432221
 31
0.0
  0
LINE
  5
98
330
1F
100
AcDbEntity
  8
D-5
  6
Continuous
 62
     2
370
     9
100
AcDbLine
 10
-937.9741913563496
 20
-1014.72972972973
 30
0.0
 11
-937.9741913563496
 21
-949.7301338814401
 31
0.0
  0
LINE
  5
99
330
1F
100
AcDbEntity
  8
D-5
  6
Continuous
 62
     2
370
     9
100
AcDbLine
 10
-937.9741913563496
 20
-949.7301338814401
 30
0.0
 11
-362.9737789566451
 21
-949.7301338814401
 31
0.0
  0
LINE
  5
9A
330
1F
100
AcDbEntity
  8
D-5
  6
Continuous
 62
     2
370
     9
100
AcDbLine
 10
-362.9737789566451
 20
-949.7301338814401
 30
0.0
 11
-362.9737789566451
 21
-1014.72972972973
 31
0.0
  0
LINE
  5
9B
330
1F
100
AcDbEntity
  8
D-5
  6
Continuous
 62
     2
370
     9
100
AcDbLine
 10
-362.9737789566451
 20
-1014.72972972973
 30
0.0
 11
-937.9741913563496
 21
-1014.72972972973
 31
0.0
  0
LINE
  5
9C
330
1F
100
AcDbEntity
  8
D-A
  6
Continuous
 62
     3
370
     9
100
AcDbLine
 10
-457.4793364550615
 20
-323.7878005569046
 30
0.0
 11
-445.9790758184482
 21
-323.7878005569046
 31
0.0
  0
LINE
  5
9D
330
1F
100
AcDbEntity
  8
D-A
  6
Continuous
 62
     3
370
     9
100
AcDbLine
 10
-445.9790758184482
 20
-436.2879242768159
 30
0.0
 11
-457.4793364550615
 21
-436.2879242768159
 31
0.0
  0
LINE
  5
9E
330
1F
100
AcDbEntity
  8
D-A
  6
Continuous
 62
     3
370
     9
100
AcDbLine
 10
-445.9790758184482
 20
-436.2879242768159
 30
0.0
 11
-445.9790758184482
 21
-403.7873221732474
 31
0.0
  0
LINE
  5
9F
330
1F
100
AcDbEntity
  8
D-5
  6
Continuous
 62
     7
370
     9
100
AcDbLine
 10
-346.4561810364594
 20
-155.8762503959036
 30
0.0
 11
-509.7578035818563
 21
-343.5013312262457
 31
0.0
  0
LINE
  5
A0
330
1F
100
AcDbEntity
  8
D-5
  6
Continuous
 62
     7
370
     9
100
AcDbLine
 10
-509.7578035818563
 20
-343.5013312262457
 30
0.0
 11
-495.9465787217422
 21
-322.6617019240921
 31
0.0
  0
LINE
  5
A1
330
1F
100
AcDbEntity
  8
D-5
  6
Continuous
 62
     7
370
     9
100
AcDbLine
 10
-509.7578035818563
 20
-343.5013312262457
 30
0.0
 11
-491.0237634504162
 21
-326.9464936127532
 31
0.0
  0
LINE
  5
A2
330
1F
100
AcDbEntity
  8
D-5
  6
Continuous
 62
     7
370
     9
100
AcDbLine
 10
-346.4561810364594
 20
-210.7383604307432
 30
0.0
 11
-442.931606962874
 21
-321.5834828969594
 31
0.0
  0
LINE
  5
A3
330
1F
100
AcDbEntity
  8
D-5
  6
Continuous
 62
     7
370
     9
100
AcDbLine
 10
-442.931606962874
 20
-321.5834828969594
 30
0.0
 11
-429.1202583828488
 21
-300.7449670740075
 31
0.0
  0
LINE
  5
A4
330
1F
100
AcDbEntity
  8
D-5
  6
Continuous
 62
     7
370
     9
100
AcDbLine
 10
-442.931606962874
 20
-321.5834828969594
 30
0.0
 11
-424.1973193916112
 21
-305.0295113228462
 31
0.0
  0
LINE
  5
A5
330
1F
100
AcDbEntity
  8
D-5
  6
Continuous
 62
     7
370
     9
100
AcDbLine
 10
-410.9582991213409
 20
-406.9640783361485
 30
0.0
 11
-289.8711475166112
 21
-267.841904098923
 31
0.0
  0
LINE
  5
A6
330
1F
100
AcDbEntity
  8
D-5
  6
Continuous
 62
     7
370
     9
100
AcDbLine
 10
-410.9582991213409
 20
-406.9640783361485
 30
0.0
 11
-397.1471979811383
 21
-386.1253150733741
 31
0.0
  0
LINE
  5
A7
330
1F
100
AcDbEntity
  8
D-5
  6
Continuous
 62
     7
370
     9
100
AcDbLine
 10
-410.9582991213409
 20
-406.9640783361485
 30
0.0
 11
-392.2240115500784
 21
-390.4097356023015
 31
0.0
  0
LINE
  5
A8
330
1F
100
AcDbEntity
  8
D-5
  6
Continuous
 62
     7
370
     9
100
AcDbLine
 10
-289.8711475166112
 20
-267.841904098923
 30
0.0
 11
96.83102401527208
 21
-267.841904098923
 31
0.0
  0
LINE
  5
A9
330
1F
100
AcDbEntity
  8
D-6
  6
Continuous
 62
     6
370
     9
100
AcDbLine
 10
-445.9790758184482
 20
-318.7881552206503
 30
0.0
 11
-30.97832525098625
 21
-318.7881552206503
 31
0.0
  0
LINE
  5
AA
330
1F
100
AcDbEntity
  8
D-4
  6
Continuous
 62
     7
370
     9
100
AcDbLine
 10
-12.47898179131568
 20
-318.7881552206503
 30
0.0
 11
78.70605700724838
 21
-318.7881552206503
 31
0.0
  0
LINE
  5
AB
330
1F
100
AcDbEntity
  8
D-5
  6
Continuous
 62
     7
370
     9
100
AcDbLine
 10
-346.4561810364594
 20
-210.7383604307432
 30
0.0
 11
104.5110612302216
 21
-210.7383604307432
 31
0.0
  0
LINE
  5
AC
330
1F
100
AcDbEntity
  8
D-9
  6
Continuous
 62
     4
370
     9
100
AcDbLine
 10
-563.0231844412313
 20
-336.2873469172297
 30
0.0
 11
-580.5232421771899
 21
-353.7874046531883
 31
0.0
  0
LINE
  5
AD
330
1F
100
AcDbEntity
  8
D-9
  6
Continuous
 62
     4
370
     9
100
AcDbLine
 10
-534.7388331954542
 20
-336.2873469172297
 30
0.0
 11
-552.2387672115017
 21
-353.7874046531883
 31
0.0
  0
LINE
  5
AE
330
1F
100
AcDbEntity
  8
D-9
  6
Continuous
 62
     4
370
     9
100
AcDbLine
 10
-527.6674979441873
 20
-336.2873469172297
 30
0.0
 11
-545.1675556801458
 21
-353.7874046531883
 31
0.0
  0
LINE
  5
AF
330
1F
100
AcDbEntity
  8
D-9
  6
Continuous
 62
     4
370
     9
100
AcDbLine
 10
-520.5967812924771
 20
-336.2873469172297
 30
0.0
 11
-538.096220428879
 21
-353.7874046531883
 31
0.0
  0
LINE
  5
B0
330
1F
100
AcDbEntity
  8
D-9
  6
Continuous
 62
     4
370
     9
100
AcDbLine
 10
-513.5253223212987
 20
-336.2873469172297
 30
0.0
 11
-533.1485374553781
 21
-355.9101908915751
 31
0.0
  0
LINE
  5
B1
330
1F
100
AcDbEntity
  8
D-9
  6
Continuous
 62
     4
370
     9
100
AcDbLine
 10
-506.4546056695886
 20
-336.2873469172297
 30
0.0
 11
-529.1079688716579
 21
-358.940710119299
 31
0.0
  0
LINE
  5
B2
330
1F
100
AcDbEntity
  8
D-9
  6
Continuous
 62
     4
370
     9
100
AcDbLine
 10
-499.3831466984102
 20
-336.2873469172297
 30
0.0
 11
-525.0674002879373
 21
-361.9709819072001
 31
0.0
  0
LINE
  5
B3
330
1F
100
AcDbEntity
  8
D-9
  6
Continuous
 62
     4
370
     9
100
AcDbLine
 10
-492.3124300467001
 20
-336.2873469172297
 30
0.0
 11
-521.026831704217
 21
-365.001501134924
 31
0.0
  0
LINE
  5
B4
330
1F
100
AcDbEntity
  8
D-9
  6
Continuous
 62
     4
370
     9
100
AcDbLine
 10
-485.2410947954331
 20
-336.2873469172297
 30
0.0
 11
-516.9856445209399
 21
-368.0321440825591
 31
0.0
  0
LINE
  5
B5
330
1F
100
AcDbEntity
  8
D-9
  6
Continuous
 62
     4
370
     9
100
AcDbLine
 10
-478.1701307039003
 20
-336.2873469172297
 30
0.0
 11
-510.670114207912
 21
-368.7873304212416
 31
0.0
  0
LINE
  5
B6
330
1F
100
AcDbEntity
  8
D-9
  6
Continuous
 62
     4
370
     9
100
AcDbLine
 10
-471.0989191725446
 20
-336.2873469172297
 30
0.0
 11
-503.5986552367339
 21
-368.7873304212416
 31
0.0
  0
LINE
  5
B7
330
1F
100
AcDbEntity
  8
D-9
  6
Continuous
 62
     4
370
     9
100
AcDbLine
 10
-465.9792655223123
 20
-338.2384099187077
 30
0.0
 11
-496.5279385850235
 21
-368.7873304212416
 31
0.0
  0
LINE
  5
B8
330
1F
100
AcDbEntity
  8
D-9
  6
Continuous
 62
     4
370
     9
100
AcDbLine
 10
-465.9792655223123
 20
-359.4516733530405
 30
0.0
 11
-475.314427710868
 21
-368.7873304212416
 31
0.0
  0
LINE
  5
B9
330
1F
100
AcDbEntity
  8
D-9
  6
Continuous
 62
     4
370
     9
100
AcDbLine
 10
-465.9792655223123
 20
-352.3805855415962
 30
0.0
 11
-482.3856392422238
 21
-368.7873304212416
 31
0.0
  0
LINE
  5
BA
330
1F
100
AcDbEntity
  8
D-9
  6
Continuous
 62
     4
370
     9
100
AcDbLine
 10
-465.9792655223123
 20
-345.309497730152
 30
0.0
 11
-489.4564796138454
 21
-368.7873304212416
 31
0.0
  0
LINE
  5
BB
330
1F
100
AcDbEntity
  8
D-9
  6
Continuous
 62
     4
370
     9
100
AcDbLine
 10
-577.165483784031
 20
-336.2873469172297
 30
0.0
 11
-585.9792902662946
 21
-345.1009059596706
 31
0.0
  0
LINE
  5
BC
330
1F
100
AcDbEntity
  8
D-9
  6
Continuous
 62
     4
370
     9
100
AcDbLine
 10
-570.0945196924982
 20
-336.2873469172297
 30
0.0
 11
-585.9792902662946
 21
-352.1719937711148
 31
0.0
  0
LINE
  5
BD
330
1F
100
AcDbEntity
  8
D-9
  6
Continuous
 62
     4
370
     9
100
AcDbLine
 10
-580.979026330484
 20
-336.2873469172297
 30
0.0
 11
-465.9792655223123
 21
-336.2873469172297
 31
0.0
  0
LINE
  5
BE
330
1F
100
AcDbEntity
  8
D-9
  6
Continuous
 62
     4
370
     9
100
AcDbLine
 10
-585.9792902662946
 20
-341.2874871331292
 30
0.0
 11
-585.9792902662946
 21
-353.7874046531883
 31
0.0
  0
LINE
  5
BF
330
1F
100
AcDbEntity
  8
D-6
  6
Continuous
 62
     6
370
     9
100
AcDbLine
 10
-595.9793232582708
 20
-373.7873469172297
 30
0.0
 11
-595.9793232582708
 21
-818.7873304212416
 31
0.0
  0
LINE
  5
C0
330
1F
100
AcDbEntity
  8
D-1
  6
Continuous
 62
     2
370
     9
100
AcDbLine
 10
-445.9788283786256
 20
-438.7871902053421
 30
0.0
 11
-460.9788778665902
 21
-438.7871902053421
 31
0.0
  0
LINE
  5
C1
330
1F
100
AcDbEntity
  8
D-1
  6
Continuous
 62
     2
370
     9
100
AcDbLine
 10
-445.9788283786256
 20
-323.7874293971706
 30
0.0
 11
-460.9788778665902
 21
-323.7874293971706
 31
0.0
  0
LINE
  5
C2
330
1F
100
AcDbEntity
  8
D-1
  6
Continuous
 62
     2
370
     9
100
AcDbLine
 10
-440.9788118826376
 20
-416.2872396933065
 30
0.0
 11
-445.9788283786256
 21
-416.2872396933065
 31
0.0
  0
LINE
  5
C3
330
1F
100
AcDbEntity
  8
D-1
  6
Continuous
 62
     2
370
     9
100
AcDbLine
 10
-445.9788283786256
 20
-438.7871902053421
 30
0.0
 11
-445.9788283786256
 21
-416.2872396933065
 31
0.0
  0
LINE
  5
C4
330
1F
100
AcDbEntity
  8
D-1
  6
Continuous
 62
     2
370
     9
100
AcDbLine
 10
-440.9788118826376
 20
-346.2872561892947
 30
0.0
 11
-445.9788283786256
 21
-346.2872561892947
 31
0.0
  0
LINE
  5
C5
330
1F
100
AcDbEntity
  8
D-1
  6
Continuous
 62
     2
370
     9
100
AcDbLine
 10
-445.9788283786256
 20
-346.2872561892947
 30
0.0
 11
-445.9788283786256
 21
-323.7874293971706
 31
0.0
  0
LINE
  5
C6
330
1F
100
AcDbEntity
  8
D-1
  6
Continuous
 62
     2
370
     9
100
AcDbLine
 10
-518.978772292266
 20
-372.7871951541384
 30
0.0
 11
-537.6453850720378
 21
-358.7874211491765
 31
0.0
  0
LINE
  5
C7
330
1F
100
AcDbEntity
  8
D-1
  6
Continuous
 62
     2
370
     9
100
AcDbLine
 10
-465.9788943625784
 20
-368.7872067013302
 30
0.0
 11
-515.9788118826375
 21
-368.7872067013302
 31
0.0
  0
LINE
  5
C8
330
1F
100
AcDbEntity
  8
D-1
  6
Continuous
 62
     2
370
     9
100
AcDbLine
 10
-460.9788778665902
 20
-378.7872396933065
 30
0.0
 11
-460.9788778665902
 21
-438.7871902053421
 31
0.0
  0
LINE
  5
C9
330
1F
100
AcDbEntity
  8
D-1
  6
Continuous
 62
     2
370
     9
100
AcDbLine
 10
-460.9788778665902
 20
-368.7872067013302
 30
0.0
 11
-460.9788778665902
 21
-323.7874293971706
 31
0.0
  0
LINE
  5
CA
330
1F
100
AcDbEntity
  8
D-1
  6
Continuous
 62
     2
370
     9
100
AcDbLine
 10
-440.9788118826376
 20
-321.7871258709881
 30
0.0
 11
-440.9788118826376
 21
-346.2872561892947
 31
0.0
  0
LINE
  5
CB
330
1F
100
AcDbEntity
  8
D-1
  6
Continuous
 62
     2
370
     9
100
AcDbLine
 10
-462.9788102330386
 20
-318.7872891812711
 30
0.0
 11
-443.9787722922659
 21
-318.7872891812711
 31
0.0
  0
LINE
  5
CC
330
1F
100
AcDbEntity
  8
D-1
  6
Continuous
 62
     2
370
     9
100
AcDbLine
 10
-465.9788943625784
 20
-321.7871258709881
 30
0.0
 11
-465.9788943625784
 21
-368.7872067013302
 31
0.0
  0
LINE
  5
CD
330
1F
100
AcDbEntity
  8
D-1
  6
Continuous
 62
     2
370
     9
100
AcDbLine
 10
-440.9788118826376
 20
-440.7872462917018
 30
0.0
 11
-440.9788118826376
 21
-416.2872396933065
 31
0.0
  0
LINE
  5
CE
330
1F
100
AcDbEntity
  8
D-1
  6
Continuous
 62
     2
370
     9
100
AcDbLine
 10
-462.9788102330386
 20
-443.7872067013302
 30
0.0
 11
-443.9787722922659
 21
-443.7872067013302
 31
0.0
  0
LINE
  5
CF
330
1F
100
AcDbEntity
  8
D-1
  6
Continuous
 62
     2
370
     9
100
AcDbLine
 10
-465.9788943625784
 20
-440.7872462917018
 30
0.0
 11
-465.9788943625784
 21
-378.7872396933065
 31
0.0
  0
LINE
  5
D0
330
1F
100
AcDbEntity
  8
D-1
  6
Continuous
 62
     2
370
     9
100
AcDbLine
 10
-534.6587864128319
 20
-354.7774113835515
 30
0.0
 11
-515.9788118826375
 21
-368.7872067013302
 31
0.0
  0
LINE
  5
D1
330
1F
100
AcDbEntity
  8
D-1
  6
Continuous
 62
     2
370
     9
100
AcDbLine
 10
-590.9788118826375
 20
-373.787099477407
 30
0.0
 11
-465.9788943625784
 21
-373.787099477407
 31
0.0
  0
LINE
  5
D2
330
1F
100
AcDbEntity
  8
D-1
  6
Continuous
 62
     2
370
     9
100
AcDbLine
 10
-590.9788118826375
 20
-373.787099477407
 30
0.0
 11
-590.9788118826375
 21
-358.7874211491765
 31
0.0
  0
LINE
  5
D3
330
1F
100
AcDbEntity
  8
D-1
  6
Continuous
 62
     2
370
     9
100
AcDbLine
 10
-595.9788283786256
 20
-373.787099477407
 30
0.0
 11
-595.9788283786256
 21
-358.7874211491765
 31
0.0
  0
LINE
  5
D4
330
1F
100
AcDbEntity
  8
D-1
  6
Continuous
 62
     2
370
     9
100
AcDbLine
 10
-590.9788118826375
 20
-378.7872396933065
 30
0.0
 11
-465.9788943625784
 21
-378.7872396933065
 31
0.0
  0
LINE
  5
D5
330
1F
100
AcDbEntity
  8
D-1
  6
Continuous
 62
     2
370
     9
100
AcDbLine
 10
-577.809074762705
 20
-354.4572242530616
 30
0.0
 11
-565.9788531226079
 21
-361.2874293971706
 31
0.0
  0
LINE
  5
D6
330
1F
100
AcDbEntity
  8
D-1
  6
Continuous
 62
     2
370
     9
100
AcDbLine
 10
-554.1486314825107
 20
-354.4572242530616
 30
0.0
 11
-565.9788531226079
 21
-361.2874293971706
 31
0.0
  0
LINE
  5
D7
330
1F
100
AcDbEntity
  8
D-1
  6
Continuous
 62
     2
370
     9
100
AcDbLine
 10
-563.4788448746139
 20
-365.6175025733741
 30
0.0
 11
-551.6487469544281
 21
-358.7874211491765
 31
0.0
  0
LINE
  5
D8
330
1F
100
AcDbEntity
  8
D-1
  6
Continuous
 62
     2
370
     9
100
AcDbLine
 10
-568.4788613706021
 20
-365.6175025733741
 30
0.0
 11
-580.3090830106993
 21
-358.7874211491765
 31
0.0
  0
LINE
  5
D9
330
1F
100
AcDbEntity
  8
D-1
  6
Continuous
 62
     2
370
     9
100
AcDbLine
 10
-537.6288066039215
 20
-353.7874046531883
 30
0.0
 11
-551.6486232345167
 21
-353.7874046531883
 31
0.0
  0
LINE
  5
DA
330
1F
100
AcDbEntity
  8
D-1
  6
Continuous
 62
     2
370
     9
100
AcDbLine
 10
-580.3090830106993
 20
-353.7874046531883
 30
0.0
 11
-590.9788118826375
 21
-353.7874046531883
 31
0.0
  0
LINE
  5
DB
330
1F
100
AcDbEntity
  8
D-1
  6
Continuous
 62
     2
370
     9
100
AcDbLine
 10
-537.6453850720378
 20
-358.7874211491765
 30
0.0
 11
-551.6487469544281
 21
-358.7874211491765
 31
0.0
  0
LINE
  5
DC
330
1F
100
AcDbEntity
  8
D-1
  6
Continuous
 62
     2
370
     9
100
AcDbLine
 10
-580.3090830106993
 20
-358.7874211491765
 30
0.0
 11
-590.9788118826375
 21
-358.7874211491765
 31
0.0
  0
LINE
  5
DD
330
1F
100
AcDbEntity
  8
D-9
  6
Continuous
 62
     4
370
     9
100
AcDbLine
 10
-541.8097972869873
 20
-336.2873469172297
 30
0.0
 11
-566.5060236647321
 21
-360.982954695418
 31
0.0
  0
LINE
  5
DE
330
1F
100
AcDbEntity
  8
D-9
  6
Continuous
 62
     4
370
     9
100
AcDbLine
 10
-548.8810088183427
 20
-336.2873469172297
 30
0.0
 11
-570.9886434915902
 21
-358.3949815904771
 31
0.0
  0
LINE
  5
DF
330
1F
100
AcDbEntity
  8
D-9
  6
Continuous
 62
     4
370
     9
100
AcDbLine
 10
-555.9519729098756
 20
-336.2873469172297
 30
0.0
 11
-575.4716344781823
 21
-355.8067610457136
 31
0.0
  0
LINE
  5
E0
330
1F
100
AcDbEntity
  8
D-2
  6
Continuous
 62
     3
370
     9
100
AcDbLine
 10
-470.9794057382118
 20
-321.2875448690878
 30
0.0
 11
-470.9794057382118
 21
-336.2873469172297
 31
0.0
  0
LINE
  5
E1
330
1F
100
AcDbEntity
  8
D-4
  6
Continuous
 62
     7
370
     9
100
AcDbLine
 10
-952.7058923566663
 20
-283.2673026419974
 30
0.0
 11
-952.7058923566663
 21
-367.4702082453547
 31
0.0
  0
LINE
  5
E2
330
1F
100
AcDbEntity
  8
D-5
  6
Continuous
 62
     7
370
     9
100
AcDbLine
 10
-1050.794873366485
 20
-573.1328479663745
 30
0.0
 11
-810.3219663774644
 21
-573.1328479663745
 31
0.0
  0
LINE
  5
E3
330
1F
100
AcDbEntity
  8
D-2
  6
Continuous
 62
     3
370
     9
100
AcDbLine
 10
-1143.6486463289
 20
-476.5307947107263
 30
0.0
 11
-1143.6486463289
 21
-252.5883525126689
 31
0.0
  0
LINE
  5
E4
330
1F
100
AcDbEntity
  8
D-2
  6
Continuous
 62
     3
370
     9
100
AcDbLine
 10
-470.9794057382118
 20
-336.2873469172297
 30
0.0
 11
-1143.6486463289
 21
-336.2873469172297
 31
0.0
  0
LINE
  5
E5
330
1F
100
AcDbEntity
  8
D-2
  6
Continuous
 62
     3
370
     9
100
AcDbLine
 10
-470.9794057382118
 20
-331.2875778610642
 30
0.0
 11
-1143.6486463289
 21
-331.2875778610642
 31
0.0
  0
LINE
  5
E6
330
1F
100
AcDbEntity
  8
D-2
  6
Continuous
 62
     3
370
     9
100
AcDbLine
 10
-470.9794057382118
 20
-326.2878088048985
 30
0.0
 11
-1143.6486463289
 21
-326.2878088048985
 31
0.0
  0
LINE
  5
E7
330
1F
100
AcDbEntity
  8
D-2
  6
Continuous
 62
     3
370
     9
100
AcDbLine
 10
-470.9794057382118
 20
-321.2875448690878
 30
0.0
 11
-1143.6486463289
 21
-321.2875448690878
 31
0.0
  0
LINE
  5
E8
330
1F
100
AcDbEntity
  8
D-5
  6
Continuous
 62
     7
370
     9
100
AcDbLine
 10
-346.4571707957498
 20
-92.54155339421459
 30
0.0
 11
346.4552454046301
 21
-92.54155339421459
 31
0.0
  0
LINE
  5
E9
330
1F
100
AcDbEntity
  8
D-5
  6
Continuous
 62
     7
370
     9
100
AcDbLine
 10
-346.4571707957498
 20
-92.54155339421459
 30
0.0
 11
-543.9698232186805
 21
-321.2875448690878
 31
0.0
  0
LINE
  5
EA
330
1F
100
AcDbEntity
  8
D-5
  6
Continuous
 62
     7
370
     9
100
AcDbLine
 10
-543.9698232186805
 20
-321.2875448690878
 30
0.0
 11
-530.2414906991493
 21
-300.3945922851562
 31
0.0
  0
LINE
  5
EB
330
1F
100
AcDbEntity
  8
D-5
  6
Continuous
 62
     7
370
     9
100
AcDbLine
 10
-543.9698232186805
 20
-321.2875448690878
 30
0.0
 11
-525.3016020800615
 21
-304.6595887880067
 31
0.0
  0
LINE
  5
EC
330
1F
100
AcDbEntity
  8
D-5
  6
Continuous
 62
     2
370
     9
100
AcDbLine
 10
528.6922003771809
 20
-368.7877015809754
 30
0.0
 11
303.6929426966489
 21
-368.7877015809754
 31
0.0
  0
LINE
  5
ED
330
1F
100
AcDbEntity
  8
D-5
  6
Continuous
 62
     2
370
     9
100
AcDbLine
 10
528.6922003771809
 20
-318.7874129011824
 30
0.0
 11
528.6922003771809
 21
-368.7877015809754
 31
0.0
  0
LINE
  5
EE
330
1F
100
AcDbEntity
  8
D-5
  6
Continuous
 62
     2
370
     9
100
AcDbLine
 10
303.6929426966489
 20
-318.7874129011824
 30
0.0
 11
528.6922003771809
 21
-318.7874129011824
 31
0.0
  0
LINE
  5
EF
330
1F
100
AcDbEntity
  8
D-5
  6
Continuous
 62
     2
370
     9
100
AcDbLine
 10
303.6929426966489
 20
-368.7877015809754
 30
0.0
 11
303.6929426966489
 21
-318.7874129011824
 31
0.0
  0
LINE
  5
F0
330
1F
100
AcDbEntity
  8
D-0
  6
Continuous
 62
     3
370
     9
100
AcDbLine
 10
-633.77971520295
 20
-346.2875036291173
 30
0.0
 11
-633.77971520295
 21
-351.2872726852829
 31
0.0
  0
LINE
  5
F1
330
1F
100
AcDbEntity
  8
D-0
  6
Continuous
 62
     3
370
     9
100
AcDbLine
 10
-614.3595244433427
 20
-351.2872726852829
 30
0.0
 11
-633.77971520295
 21
-351.2872726852829
 31
0.0
  0
LINE
  5
F2
330
1F
100
AcDbEntity
  8
D-0
  6
Continuous
 62
     3
370
     9
100
AcDbLine
 10
-614.3598956030767
 20
-346.2875036291173
 30
0.0
 11
-633.77971520295
 21
-346.2875036291173
 31
0.0
  0
LINE
  5
F3
330
1F
100
AcDbEntity
  8
D-0
  6
Continuous
 62
     3
370
     9
100
AcDbLine
 10
-718.779624475015
 20
-436.2871819573479
 30
0.0
 11
-666.2795749870506
 21
-436.2871819573479
 31
0.0
  0
LINE
  5
F4
330
1F
100
AcDbEntity
  8
D-0
  6
Continuous
 62
     3
370
     9
100
AcDbLine
 10
-651.2796492189975
 20
-436.2871819573479
 30
0.0
 11
-622.9365310153444
 21
-436.2871819573479
 31
0.0
  0
LINE
  5
F5
330
1F
100
AcDbEntity
  8
D-0
  6
Continuous
 62
     3
370
     9
100
AcDbLine
 10
-622.9365310153444
 20
-431.2874129011824
 30
0.0
 11
-659.2084871756063
 21
-431.2874129011824
 31
0.0
  0
LINE
  5
F6
330
1F
100
AcDbEntity
  8
D-0
  6
Continuous
 62
     3
370
     9
100
AcDbLine
 10
-733.779426523157
 20
-421.2876273490286
 30
0.0
 11
-733.779426523157
 21
-336.2873469172297
 31
0.0
  0
LINE
  5
F7
330
1F
100
AcDbEntity
  8
D-0
  6
Continuous
 62
     3
370
     9
100
AcDbLine
 10
-597.0310662243816
 20
-385.4490620381122
 30
0.0
 11
-607.1760989524222
 21
-351.6323275179475
 31
0.0
  0
LINE
  5
F8
330
1F
100
AcDbEntity
  8
D-0
  6
Continuous
 62
     3
370
     9
100
AcDbLine
 10
-599.7767822162524
 20
-405.8827663112331
 30
0.0
 11
-616.5765852541538
 21
-432.7624016839104
 31
0.0
  0
LINE
  5
F9
330
1F
100
AcDbEntity
  8
D-0
  6
Continuous
 62
     3
370
     9
100
AcDbLine
 10
-604.0167872970167
 20
-403.2325620908995
 30
0.0
 11
-620.8164666150066
 21
-430.1123211834881
 31
0.0
  0
LINE
  5
FA
330
1F
100
AcDbEntity
  8
D-0
  6
Continuous
 62
     3
370
     9
100
AcDbLine
 10
-611.9651729996139
 20
-353.0688394082558
 30
0.0
 11
-601.8200165516621
 21
-386.8860688080659
 31
0.0
  0
LINE
  5
FB
330
1F
100
AcDbEntity
  8
D-0
  6
JWW_DASHED1
 62
     3
370
     9
100
AcDbLine
 10
-693.7794182751628
 20
-341.2874871331292
 30
0.0
 11
-733.779426523157
 21
-341.2874871331292
 31
0.0
  0
LINE
  5
FC
330
1F
100
AcDbEntity
  8
D-0
  6
Continuous
 62
     3
370
     9
100
AcDbLine
 10
-693.7794182751628
 20
-341.2874871331292
 30
0.0
 11
-661.2795584910623
 21
-341.2874871331292
 31
0.0
  0
LINE
  5
FD
330
1F
100
AcDbEntity
  8
D-0
  6
Continuous
 62
     3
370
     9
100
AcDbLine
 10
-693.7794182751628
 20
-383.7875036291173
 30
0.0
 11
-693.7794182751628
 21
-336.2873469172297
 31
0.0
  0
LINE
  5
FE
330
1F
100
AcDbEntity
  8
D-0
  6
Continuous
 62
     3
370
     9
100
AcDbLine
 10
-691.2794100271688
 20
-386.2876355970228
 30
0.0
 11
-653.7794100271688
 21
-386.2876355970228
 31
0.0
  0
LINE
  5
FF
330
1F
100
AcDbEntity
  8
D-0
  6
JWW_DASHED1
 62
     3
370
     9
100
AcDbLine
 10
-658.7794265231569
 20
-428.7870334934543
 30
0.0
 11
-658.7794265231569
 21
-386.2876355970228
 31
0.0
  0
LINE
  5
100
330
1F
100
AcDbEntity
  8
D-0
  6
Continuous
 62
     3
370
     9
100
AcDbLine
 10
-658.7794265231569
 20
-386.2876355970228
 30
0.0
 11
-658.7794265231569
 21
-343.7871242213893
 31
0.0
  0
LINE
  5
101
330
1F
100
AcDbEntity
  8
D-0
  6
Continuous
 62
     3
370
     9
100
AcDbLine
 10
-661.2795584910623
 20
-336.2873469172297
 30
0.0
 11
-733.779426523157
 21
-336.2873469172297
 31
0.0
  0
LINE
  5
102
330
1F
100
AcDbEntity
  8
D-0
  6
Continuous
 62
     3
370
     9
100
AcDbLine
 10
-653.7794100271688
 20
-343.7871242213893
 30
0.0
 11
-653.7794100271688
 21
-428.7870334934543
 31
0.0
  0
LINE
  5
103
330
1F
100
AcDbEntity
  8
D-5
  6
Continuous
 62
     7
370
     9
100
AcDbLine
 10
-810.3219663774644
 20
-573.1328479663745
 30
0.0
 11
-692.1614092749517
 21
-436.2871819573479
 31
0.0
  0
LINE
  5
104
330
1F
100
AcDbEntity
  8
D-5
  6
Continuous
 62
     7
370
     9
100
AcDbLine
 10
-692.1614092749517
 20
-436.2871819573479
 30
0.0
 11
-705.8903603940396
 21
-457.1801345412796
 31
0.0
  0
LINE
  5
105
330
1F
100
AcDbEntity
  8
D-5
  6
Continuous
 62
     7
370
     9
100
AcDbLine
 10
-692.1614092749517
 20
-436.2871819573479
 30
0.0
 11
-710.8300015733048
 21
-452.914952458562
 31
0.0
  0
LINE
  5
106
330
1F
100
AcDbEntity
  8
C-2
  6
Continuous
 62
     3
370
     9
100
AcDbLine
 10
-892.6485358057795
 20
702.864891258446
 30
0.0
 11
-892.6485358057795
 21
852.8643963788008
 31
0.0
  0
LINE
  5
107
330
1F
100
AcDbEntity
  8
C-2
  6
Continuous
 62
     3
370
     9
100
AcDbLine
 10
-892.6485358057795
 20
852.8643963788008
 30
0.0
 11
-393.6486463289
 21
852.8643963788008
 31
0.0
  0
LINE
  5
108
330
1F
100
AcDbEntity
  8
C-2
  6
Continuous
 62
     3
370
     9
100
AcDbLine
 10
-393.6486463289
 20
852.8643963788008
 30
0.0
 11
-393.6486463289
 21
702.864891258446
 31
0.0
  0
LINE
  5
109
330
1F
100
AcDbEntity
  8
C-2
  6
Continuous
 62
     3
370
     9
100
AcDbLine
 10
-393.6486463289
 20
702.864891258446
 30
0.0
 11
-892.6485358057795
 21
702.864891258446
 31
0.0
  0
LINE
  5
10A
330
1F
100
AcDbEntity
  8
C-2
  6
Continuous
 62
     3
370
     9
100
AcDbLine
 10
-893.6486875688706
 20
702.864891258446
 30
0.0
 11
-893.6486875688706
 21
852.8643963788008
 31
0.0
  0
LINE
  5
10B
330
1F
100
AcDbEntity
  8
C-2
  6
Continuous
 62
     3
370
     9
100
AcDbLine
 10
-392.6486182857204
 20
702.864891258446
 30
0.0
 11
-392.6486182857204
 21
852.8643963788008
 31
0.0
  0
LINE
  5
10C
330
1F
100
AcDbEntity
  8
C-2
  6
Continuous
 62
     3
370
     9
100
AcDbLine
 10
-392.6486182857204
 20
852.8643963788008
 30
0.0
 11
106.3515186309817
 21
852.8643963788008
 31
0.0
  0
LINE
  5
10D
330
1F
100
AcDbEntity
  8
C-2
  6
Continuous
 62
     3
370
     9
100
AcDbLine
 10
106.3515186309817
 20
852.8643963788008
 30
0.0
 11
106.3515186309817
 21
702.864891258446
 31
0.0
  0
LINE
  5
10E
330
1F
100
AcDbEntity
  8
C-2
  6
Continuous
 62
     3
370
     9
100
AcDbLine
 10
106.3515186309817
 20
702.864891258446
 30
0.0
 11
-392.6486182857204
 21
702.864891258446
 31
0.0
  0
LINE
  5
10F
330
1F
100
AcDbEntity
  8
C-2
  6
Continuous
 62
     3
370
     9
100
AcDbLine
 10
107.3514229542502
 20
852.8643963788008
 30
0.0
 11
107.3514229542502
 21
702.864891258446
 31
0.0
  0
LINE
  5
110
330
1F
100
AcDbEntity
  8
C-2
  6
Continuous
 62
     3
370
     9
100
AcDbLine
 10
-893.6486875688706
 20
852.8643963788008
 30
0.0
 11
-1143.6486463289
 21
852.8643963788008
 31
0.0
  0
LINE
  5
111
330
1F
100
AcDbEntity
  8
C-2
  6
Continuous
 62
     3
370
     9
100
AcDbLine
 10
-893.6486875688706
 20
702.864891258446
 30
0.0
 11
-1143.6486463289
 21
702.864891258446
 31
0.0
  0
LINE
  5
112
330
1F
100
AcDbEntity
  8
C-2
  6
Continuous
 62
     3
370
     9
100
AcDbLine
 10
107.3514229542502
 20
852.8643963788008
 30
0.0
 11
357.3510105545458
 21
852.8643963788008
 31
0.0
  0
LINE
  5
113
330
1F
100
AcDbEntity
  8
C-2
  6
Continuous
 62
     3
370
     9
100
AcDbLine
 10
107.3514229542502
 20
702.864891258446
 30
0.0
 11
357.3510105545458
 21
702.864891258446
 31
0.0
  0
LINE
  5
114
330
1F
100
AcDbEntity
  8
C-1
  6
Continuous
 62
     2
370
     9
100
AcDbLine
 10
-1143.6486463289
 20
853.8640532622467
 30
0.0
 11
357.3510105545458
 21
853.8640532622467
 31
0.0
  0
LINE
  5
115
330
1F
100
AcDbEntity
  8
C-1
  6
Continuous
 62
     2
370
     9
100
AcDbLine
 10
357.3510105545458
 20
701.8649869351776
 30
0.0
 11
-1143.6486463289
 21
701.8649869351776
 31
0.0
  0
LINE
  5
116
330
1F
100
AcDbEntity
  8
C-A
  6
Continuous
 62
     3
370
     9
100
AcDbLine
 10
-551.3138371544915
 20
852.8643963788008
 30
0.0
 11
-701.3138371544915
 21
702.864891258446
 31
0.0
  0
LINE
  5
117
330
1F
100
AcDbEntity
  8
C-A
  6
Continuous
 62
     3
370
     9
100
AcDbLine
 10
-84.98355118004042
 20
852.8643963788008
 30
0.0
 11
-234.983427460129
 21
702.864891258446
 31
0.0
  0
LINE
  5
118
330
1F
100
AcDbEntity
  8
C-A
  6
Continuous
 62
     3
370
     9
100
AcDbLine
 10
-572.3138074617128
 20
831.8644260715794
 30
0.0
 11
-393.6486463289
 21
831.8644260715794
 31
0.0
  0
LINE
  5
119
330
1F
100
AcDbEntity
  8
C-A
  6
Continuous
 62
     3
370
     9
100
AcDbLine
 10
-590.3136936393944
 20
813.8649110536318
 30
0.0
 11
-393.6486463289
 21
813.8649110536318
 31
0.0
  0
LINE
  5
11A
330
1F
100
AcDbEntity
  8
C-A
  6
Continuous
 62
     3
370
     9
100
AcDbLine
 10
-620.3135451755006
 20
783.8653069573481
 30
0.0
 11
-393.6486463289
 21
783.8653069573481
 31
0.0
  0
LINE
  5
11B
330
1F
100
AcDbEntity
  8
C-A
  6
Continuous
 62
     3
370
     9
100
AcDbLine
 10
-632.3135105339256
 20
771.865217879012
 30
0.0
 11
-393.6486463289
 21
771.865217879012
 31
0.0
  0
LINE
  5
11C
330
1F
100
AcDbEntity
  8
C-A
  6
Continuous
 62
     3
370
     9
100
AcDbLine
 10
-602.3136589978191
 20
801.8645745354731
 30
0.0
 11
-393.6486463289
 21
801.8645745354731
 31
0.0
  0
LINE
  5
11D
330
1F
100
AcDbEntity
  8
C-A
  6
Continuous
 62
     3
370
     9
100
AcDbLine
 10
-662.313733229766
 20
741.8646240234375
 30
0.0
 11
-393.6486463289
 21
741.8646240234375
 31
0.0
  0
LINE
  5
11E
330
1F
100
AcDbEntity
  8
C-A
  6
Continuous
 62
     3
370
     9
100
AcDbLine
 10
-650.3136441514298
 20
753.8649605415964
 30
0.0
 11
-393.6486463289
 21
753.8649605415964
 31
0.0
  0
LINE
  5
11F
330
1F
100
AcDbEntity
  8
C-A
  6
Continuous
 62
     3
370
     9
100
AcDbLine
 10
-680.3136194074475
 20
723.8653564453125
 30
0.0
 11
-393.6486463289
 21
723.8653564453125
 31
0.0
  0
LINE
  5
120
330
1F
100
AcDbEntity
  8
C-A
  6
Continuous
 62
     3
370
     9
100
AcDbLine
 10
-576.8138717960665
 20
827.364485457137
 30
0.0
 11
-393.6486463289
 21
827.364485457137
 31
0.0
  0
LINE
  5
121
330
1F
100
AcDbEntity
  8
C-A
  6
Continuous
 62
     3
370
     9
100
AcDbLine
 10
-581.3136886905977
 20
822.8645448426943
 30
0.0
 11
-393.6486463289
 21
822.8645448426943
 31
0.0
  0
LINE
  5
122
330
1F
100
AcDbEntity
  8
C-A
  6
Continuous
 62
     3
370
     9
100
AcDbLine
 10
-585.8138767448631
 20
818.3648516680745
 30
0.0
 11
-393.6486463289
 21
818.3648516680745
 31
0.0
  0
LINE
  5
123
330
1F
100
AcDbEntity
  8
C-A
  6
Continuous
 62
     3
370
     9
100
AcDbLine
 10
-615.8137282809694
 20
788.3652475717906
 30
0.0
 11
-393.6486463289
 21
788.3652475717906
 31
0.0
  0
LINE
  5
124
330
1F
100
AcDbEntity
  8
C-A
  6
Continuous
 62
     3
370
     9
100
AcDbLine
 10
-611.3136639466156
 20
792.8649407464106
 30
0.0
 11
-393.6486463289
 21
792.8649407464106
 31
0.0
  0
LINE
  5
125
330
1F
100
AcDbEntity
  8
C-A
  6
Continuous
 62
     3
370
     9
100
AcDbLine
 10
-606.8137233321729
 20
797.3648813608531
 30
0.0
 11
-393.6486463289
 21
797.3648813608531
 31
0.0
  0
LINE
  5
126
330
1F
100
AcDbEntity
  8
C-A
  6
Continuous
 62
     3
370
     9
100
AcDbLine
 10
-645.8135798170758
 20
758.3646537162165
 30
0.0
 11
-393.6486463289
 21
758.3646537162165
 31
0.0
  0
LINE
  5
127
330
1F
100
AcDbEntity
  8
C-A
  6
Continuous
 62
     3
370
     9
100
AcDbLine
 10
-641.3135154827219
 20
762.8650892103042
 30
0.0
 11
-393.6486463289
 21
762.8650892103042
 31
0.0
  0
LINE
  5
128
330
1F
100
AcDbEntity
  8
C-A
  6
Continuous
 62
     3
370
     9
100
AcDbLine
 10
-636.8136985881906
 20
767.3650298247467
 30
0.0
 11
-393.6486463289
 21
767.3650298247467
 31
0.0
  0
LINE
  5
129
330
1F
100
AcDbEntity
  8
C-A
  6
Continuous
 62
     3
370
     9
100
AcDbLine
 10
-675.8138025129163
 20
728.3650496199325
 30
0.0
 11
-393.6486463289
 21
728.3650496199325
 31
0.0
  0
LINE
  5
12A
330
1F
100
AcDbEntity
  8
C-A
  6
Continuous
 62
     3
370
     9
100
AcDbLine
 10
-671.313614458651
 20
732.864990234375
 30
0.0
 11
-393.6486463289
 21
732.864990234375
 31
0.0
  0
LINE
  5
12B
330
1F
100
AcDbEntity
  8
C-A
  6
Continuous
 62
     3
370
     9
100
AcDbLine
 10
-666.8137975641198
 20
737.3649308488177
 30
0.0
 11
-393.6486463289
 21
737.3649308488177
 31
0.0
  0
LINE
  5
12C
330
1F
100
AcDbEntity
  8
C-A
  6
Continuous
 62
     3
370
     9
100
AcDbLine
 10
-460.1487172616493
 20
810.8644557643584
 30
0.0
 11
-426.1487535528232
 21
810.8644557643584
 31
0.0
  0
LINE
  5
12D
330
1F
100
AcDbEntity
  8
C-A
  6
Continuous
 62
     3
370
     9
100
AcDbLine
 10
-460.1487172616493
 20
804.864287505279
 30
0.0
 11
-426.1487535528232
 21
804.864287505279
 31
0.0
  0
LINE
  5
12E
330
1F
100
AcDbEntity
  8
C-A
  6
Continuous
 62
     3
370
     9
100
AcDbLine
 10
-540.1487337576375
 20
810.8644557643584
 30
0.0
 11
-506.1486463289003
 21
810.8644557643584
 31
0.0
  0
LINE
  5
12F
330
1F
100
AcDbEntity
  8
C-A
  6
Continuous
 62
     3
370
     9
100
AcDbLine
 10
-540.1487337576375
 20
804.864287505279
 30
0.0
 11
-506.1486463289003
 21
804.864287505279
 31
0.0
  0
LINE
  5
130
330
1F
100
AcDbEntity
  8
C-A
  6
Continuous
 62
     3
370
     9
100
AcDbLine
 10
-460.1487172616493
 20
780.8648516680745
 30
0.0
 11
-426.1487535528232
 21
780.8648516680745
 31
0.0
  0
LINE
  5
131
330
1F
100
AcDbEntity
  8
C-A
  6
Continuous
 62
     3
370
     9
100
AcDbLine
 10
-460.1487172616493
 20
774.864683408995
 30
0.0
 11
-426.1487535528232
 21
774.864683408995
 31
0.0
  0
LINE
  5
132
330
1F
100
AcDbEntity
  8
C-A
  6
Continuous
 62
     3
370
     9
100
AcDbLine
 10
-460.1487172616493
 20
750.8642578125
 30
0.0
 11
-426.1487535528232
 21
750.8642578125
 31
0.0
  0
LINE
  5
133
330
1F
100
AcDbEntity
  8
C-A
  6
Continuous
 62
     3
370
     9
100
AcDbLine
 10
-460.1487172616493
 20
744.8648318728885
 30
0.0
 11
-426.1487535528232
 21
744.8648318728885
 31
0.0
  0
LINE
  5
134
330
1F
100
AcDbEntity
  8
C-A
  6
Continuous
 62
     3
370
     9
100
AcDbLine
 10
-540.1487337576375
 20
780.8648516680745
 30
0.0
 11
-506.1486463289003
 21
780.8648516680745
 31
0.0
  0
LINE
  5
135
330
1F
100
AcDbEntity
  8
C-A
  6
Continuous
 62
     3
370
     9
100
AcDbLine
 10
-540.1487337576375
 20
774.864683408995
 30
0.0
 11
-506.1486463289003
 21
774.864683408995
 31
0.0
  0
LINE
  5
136
330
1F
100
AcDbEntity
  8
C-A
  6
Continuous
 62
     3
370
     9
100
AcDbLine
 10
-540.1487337576375
 20
750.8642578125
 30
0.0
 11
-506.1486463289003
 21
750.8642578125
 31
0.0
  0
LINE
  5
137
330
1F
100
AcDbEntity
  8
C-A
  6
Continuous
 62
     3
370
     9
100
AcDbLine
 10
-540.1487337576375
 20
744.8648318728885
 30
0.0
 11
-506.1486463289003
 21
744.8648318728885
 31
0.0
  0
LINE
  5
138
330
1F
100
AcDbEntity
  8
C-A
  6
Continuous
 62
     3
370
     9
100
AcDbLine
 10
-620.1487502536256
 20
780.8648516680745
 30
0.0
 11
-586.1487865447998
 21
780.8648516680745
 31
0.0
  0
LINE
  5
139
330
1F
100
AcDbEntity
  8
C-A
  6
Continuous
 62
     3
370
     9
100
AcDbLine
 10
-620.1487502536256
 20
774.864683408995
 30
0.0
 11
-586.1487865447998
 21
774.864683408995
 31
0.0
  0
LINE
  5
13A
330
1F
100
AcDbEntity
  8
C-A
  6
Continuous
 62
     3
370
     9
100
AcDbLine
 10
-620.1487502536256
 20
750.8642578125
 30
0.0
 11
-586.1487865447998
 21
750.8642578125
 31
0.0
  0
LINE
  5
13B
330
1F
100
AcDbEntity
  8
C-A
  6
Continuous
 62
     3
370
     9
100
AcDbLine
 10
-620.1487502536256
 20
744.8648318728885
 30
0.0
 11
-586.1487865447998
 21
744.8648318728885
 31
0.0
  0
LINE
  5
13C
330
1F
100
AcDbEntity
  8
C-A
  6
Continuous
 62
     3
370
     9
100
AcDbLine
 10
-593.3142726485792
 20
810.8644557643584
 30
0.0
 11
-586.1487865447998
 21
810.8644557643584
 31
0.0
  0
LINE
  5
13D
330
1F
100
AcDbEntity
  8
C-A
  6
Continuous
 62
     3
370
     9
100
AcDbLine
 10
-599.3138223081021
 20
804.864287505279
 30
0.0
 11
-586.1487865447998
 21
804.864287505279
 31
0.0
  0
LINE
  5
13E
330
1F
100
AcDbEntity
  8
C-A
  6
Continuous
 62
     3
370
     9
100
AcDbLine
 10
-213.9834571529079
 20
723.8648615656675
 30
0.0
 11
-392.6486182857204
 21
723.8648615656675
 31
0.0
  0
LINE
  5
13F
330
1F
100
AcDbEntity
  8
C-A
  6
Continuous
 62
     3
370
     9
100
AcDbLine
 10
-195.9835709752261
 20
741.8646240234375
 30
0.0
 11
-392.6486182857204
 21
741.8646240234375
 31
0.0
  0
LINE
  5
140
330
1F
100
AcDbEntity
  8
C-A
  6
Continuous
 62
     3
370
     9
100
AcDbLine
 10
-165.9837194391199
 20
771.8642281197214
 30
0.0
 11
-392.6486182857204
 21
771.8642281197214
 31
0.0
  0
LINE
  5
141
330
1F
100
AcDbEntity
  8
C-A
  6
Continuous
 62
     3
370
     9
100
AcDbLine
 10
-153.9836303607836
 20
783.8643171980575
 30
0.0
 11
-392.6486182857204
 21
783.8643171980575
 31
0.0
  0
LINE
  5
142
330
1F
100
AcDbEntity
  8
C-A
  6
Continuous
 62
     3
370
     9
100
AcDbLine
 10
-183.9836056168014
 20
753.8649605415964
 30
0.0
 11
-392.6486182857204
 21
753.8649605415964
 31
0.0
  0
LINE
  5
143
330
1F
100
AcDbEntity
  8
C-A
  6
Continuous
 62
     3
370
     9
100
AcDbLine
 10
-123.9835313848545
 20
813.8649110536318
 30
0.0
 11
-392.6486182857204
 21
813.8649110536318
 31
0.0
  0
LINE
  5
144
330
1F
100
AcDbEntity
  8
C-A
  6
Continuous
 62
     3
370
     9
100
AcDbLine
 10
-135.9836204631907
 20
801.8645745354731
 30
0.0
 11
-392.6486182857204
 21
801.8645745354731
 31
0.0
  0
LINE
  5
145
330
1F
100
AcDbEntity
  8
C-A
  6
Continuous
 62
     3
370
     9
100
AcDbLine
 10
-105.983645207173
 20
831.8644260715794
 30
0.0
 11
-392.6486182857204
 21
831.8644260715794
 31
0.0
  0
LINE
  5
146
330
1F
100
AcDbEntity
  8
C-A
  6
Continuous
 62
     3
370
     9
100
AcDbLine
 10
-209.483392818554
 20
728.3650496199325
 30
0.0
 11
-392.6486182857204
 21
728.3650496199325
 31
0.0
  0
LINE
  5
147
330
1F
100
AcDbEntity
  8
C-A
  6
Continuous
 62
     3
370
     9
100
AcDbLine
 10
-204.9834522041112
 20
732.864990234375
 30
0.0
 11
-392.6486182857204
 21
732.864990234375
 31
0.0
  0
LINE
  5
148
330
1F
100
AcDbEntity
  8
C-A
  6
Continuous
 62
     3
370
     9
100
AcDbLine
 10
-200.4833878697573
 20
737.3649308488177
 30
0.0
 11
-392.6486182857204
 21
737.3649308488177
 31
0.0
  0
LINE
  5
149
330
1F
100
AcDbEntity
  8
C-A
  6
Continuous
 62
     3
370
     9
100
AcDbLine
 10
-170.4835363336511
 20
767.3645349451016
 30
0.0
 11
-392.6486182857204
 21
767.3645349451016
 31
0.0
  0
LINE
  5
14A
330
1F
100
AcDbEntity
  8
C-A
  6
Continuous
 62
     3
370
     9
100
AcDbLine
 10
-174.983600668005
 20
762.8645943306589
 30
0.0
 11
-392.6486182857204
 21
762.8645943306589
 31
0.0
  0
LINE
  5
14B
330
1F
100
AcDbEntity
  8
C-A
  6
Continuous
 62
     3
370
     9
100
AcDbLine
 10
-179.4835412824474
 20
758.3646537162165
 30
0.0
 11
-392.6486182857204
 21
758.3646537162165
 31
0.0
  0
LINE
  5
14C
330
1F
100
AcDbEntity
  8
C-A
  6
Continuous
 62
     3
370
     9
100
AcDbLine
 10
-140.4835610776334
 20
797.3648813608531
 30
0.0
 11
-392.6486182857204
 21
797.3648813608531
 31
0.0
  0
LINE
  5
14D
330
1F
100
AcDbEntity
  8
C-A
  6
Continuous
 62
     3
370
     9
100
AcDbLine
 10
-144.9837491318985
 20
792.86395098712
 30
0.0
 11
-392.6486182857204
 21
792.86395098712
 31
0.0
  0
LINE
  5
14E
330
1F
100
AcDbEntity
  8
C-A
  6
Continuous
 62
     3
370
     9
100
AcDbLine
 10
-149.4834423065186
 20
788.3642578125
 30
0.0
 11
-392.6486182857204
 21
788.3642578125
 31
0.0
  0
LINE
  5
14F
330
1F
100
AcDbEntity
  8
C-A
  6
Continuous
 62
     3
370
     9
100
AcDbLine
 10
-110.4834621017042
 20
827.364485457137
 30
0.0
 11
-392.6486182857204
 21
827.364485457137
 31
0.0
  0
LINE
  5
150
330
1F
100
AcDbEntity
  8
C-A
  6
Continuous
 62
     3
370
     9
100
AcDbLine
 10
-114.9836501559693
 20
822.8645448426943
 30
0.0
 11
-392.6486182857204
 21
822.8645448426943
 31
0.0
  0
LINE
  5
151
330
1F
100
AcDbEntity
  8
C-A
  6
Continuous
 62
     3
370
     9
100
AcDbLine
 10
-119.4833433305894
 20
818.3648516680745
 30
0.0
 11
-392.6486182857204
 21
818.3648516680745
 31
0.0
  0
LINE
  5
152
330
1F
100
AcDbEntity
  8
C-A
  6
Continuous
 62
     3
370
     9
100
AcDbLine
 10
-326.1485473529711
 20
744.8653267525339
 30
0.0
 11
-360.1485110617972
 21
744.8653267525339
 31
0.0
  0
LINE
  5
153
330
1F
100
AcDbEntity
  8
C-A
  6
Continuous
 62
     3
370
     9
100
AcDbLine
 10
-326.1485473529711
 20
750.8647526921453
 30
0.0
 11
-360.1485110617972
 21
750.8647526921453
 31
0.0
  0
LINE
  5
154
330
1F
100
AcDbEntity
  8
C-A
  6
Continuous
 62
     3
370
     9
100
AcDbLine
 10
-246.1485308569829
 20
744.8653267525339
 30
0.0
 11
-280.1484945658089
 21
744.8653267525339
 31
0.0
  0
LINE
  5
155
330
1F
100
AcDbEntity
  8
C-A
  6
Continuous
 62
     3
370
     9
100
AcDbLine
 10
-246.1485308569829
 20
750.8647526921453
 30
0.0
 11
-280.1484945658089
 21
750.8647526921453
 31
0.0
  0
LINE
  5
156
330
1F
100
AcDbEntity
  8
C-A
  6
Continuous
 62
     3
370
     9
100
AcDbLine
 10
-326.1485473529711
 20
774.864683408995
 30
0.0
 11
-360.1485110617972
 21
774.864683408995
 31
0.0
  0
LINE
  5
157
330
1F
100
AcDbEntity
  8
C-A
  6
Continuous
 62
     3
370
     9
100
AcDbLine
 10
-326.1485473529711
 20
780.8648516680745
 30
0.0
 11
-360.1485110617972
 21
780.8648516680745
 31
0.0
  0
LINE
  5
158
330
1F
100
AcDbEntity
  8
C-A
  6
Continuous
 62
     3
370
     9
100
AcDbLine
 10
-326.1485473529711
 20
804.8652772645693
 30
0.0
 11
-360.1485110617972
 21
804.8652772645693
 31
0.0
  0
LINE
  5
159
330
1F
100
AcDbEntity
  8
C-A
  6
Continuous
 62
     3
370
     9
100
AcDbLine
 10
-326.1485473529711
 20
810.8644557643584
 30
0.0
 11
-360.1485110617972
 21
810.8644557643584
 31
0.0
  0
LINE
  5
15A
330
1F
100
AcDbEntity
  8
C-A
  6
Continuous
 62
     3
370
     9
100
AcDbLine
 10
-246.1485308569829
 20
774.864683408995
 30
0.0
 11
-280.1484945658089
 21
774.864683408995
 31
0.0
  0
LINE
  5
15B
330
1F
100
AcDbEntity
  8
C-A
  6
Continuous
 62
     3
370
     9
100
AcDbLine
 10
-246.1485308569829
 20
780.8648516680745
 30
0.0
 11
-280.1484945658089
 21
780.8648516680745
 31
0.0
  0
LINE
  5
15C
330
1F
100
AcDbEntity
  8
C-A
  6
Continuous
 62
     3
370
     9
100
AcDbLine
 10
-246.1485308569829
 20
804.8652772645693
 30
0.0
 11
-280.1484945658089
 21
804.8652772645693
 31
0.0
  0
LINE
  5
15D
330
1F
100
AcDbEntity
  8
C-A
  6
Continuous
 62
     3
370
     9
100
AcDbLine
 10
-246.1485308569829
 20
810.8644557643584
 30
0.0
 11
-280.1484945658089
 21
810.8644557643584
 31
0.0
  0
LINE
  5
15E
330
1F
100
AcDbEntity
  8
C-A
  6
Continuous
 62
     3
370
     9
100
AcDbLine
 10
-166.1485143609949
 20
774.864683408995
 30
0.0
 11
-200.1484780698209
 21
774.864683408995
 31
0.0
  0
LINE
  5
15F
330
1F
100
AcDbEntity
  8
C-A
  6
Continuous
 62
     3
370
     9
100
AcDbLine
 10
-166.1485143609949
 20
780.8648516680745
 30
0.0
 11
-200.1484780698209
 21
780.8648516680745
 31
0.0
  0
LINE
  5
160
330
1F
100
AcDbEntity
  8
C-A
  6
Continuous
 62
     3
370
     9
100
AcDbLine
 10
-166.1485143609949
 20
804.8652772645693
 30
0.0
 11
-200.1484780698209
 21
804.8652772645693
 31
0.0
  0
LINE
  5
161
330
1F
100
AcDbEntity
  8
C-A
  6
Continuous
 62
     3
370
     9
100
AcDbLine
 10
-166.1485143609949
 20
810.8644557643584
 30
0.0
 11
-200.1484780698209
 21
810.8644557643584
 31
0.0
  0
LINE
  5
162
330
1F
100
AcDbEntity
  8
C-A
  6
Continuous
 62
     3
370
     9
100
AcDbLine
 10
-192.9829919660412
 20
744.8653267525339
 30
0.0
 11
-200.1484780698209
 21
744.8653267525339
 31
0.0
  0
LINE
  5
163
330
1F
100
AcDbEntity
  8
C-A
  6
Continuous
 62
     3
370
     9
100
AcDbLine
 10
-186.9834423065186
 20
750.8647526921453
 30
0.0
 11
-200.1484780698209
 21
750.8647526921453
 31
0.0
  0
LINE
  5
164
330
1F
100
AcDbEntity
  8
C-4
  6
Continuous
 62
     7
370
     9
100
AcDbLine
 10
-893.6486875688706
 20
872.8644623627533
 30
0.0
 11
-893.6486875688706
 21
955.8641918285474
 31
0.0
  0
LINE
  5
165
330
1F
100
AcDbEntity
  8
C-4
  6
Continuous
 62
     7
370
     9
100
AcDbLine
 10
-892.6485358057795
 20
872.8644623627533
 30
0.0
 11
-892.6485358057795
 21
1035.864703204181
 31
0.0
  0
LINE
  5
166
330
1F
100
AcDbEntity
  8
C-4
  6
Continuous
 62
     7
370
     9
100
AcDbLine
 10
-1143.6486463289
 20
952.8647262985644
 30
0.0
 11
357.3510105545458
 21
952.8647262985644
 31
0.0
  0
LINE
  5
167
330
1F
100
AcDbEntity
  8
C-4
  6
Continuous
 62
     7
370
     9
100
AcDbLine
 10
-393.6486463289
 20
872.8644623627533
 30
0.0
 11
-393.6486463289
 21
955.8641918285474
 31
0.0
  0
LINE
  5
168
330
1F
100
AcDbEntity
  8
C-4
  6
Continuous
 62
     7
370
     9
100
AcDbLine
 10
-392.6486182857204
 20
872.8644623627533
 30
0.0
 11
-392.6486182857204
 21
1035.864703204181
 31
0.0
  0
LINE
  5
169
330
1F
100
AcDbEntity
  8
C-4
  6
Continuous
 62
     7
370
     9
100
AcDbLine
 10
106.3515186309817
 20
872.8644623627533
 30
0.0
 11
106.3515186309817
 21
955.8641918285474
 31
0.0
  0
LINE
  5
16A
330
1F
100
AcDbEntity
  8
C-4
  6
Continuous
 62
     7
370
     9
100
AcDbLine
 10
107.3514229542502
 20
872.8644623627533
 30
0.0
 11
107.3514229542502
 21
1035.864703204181
 31
0.0
  0
LINE
  5
16B
330
1F
100
AcDbEntity
  8
C-4
  6
Continuous
 62
     7
370
     9
100
AcDbLine
 10
-1143.6486463289
 20
1032.864000475085
 30
0.0
 11
357.3510105545458
 21
1032.864000475085
 31
0.0
  0
LINE
  5
16C
330
1F
100
AcDbEntity
  8
C-2
  6
Continuous
 62
     3
370
     9
100
AcDbLine
 10
-1163.648712312853
 20
762.8648417704815
 30
0.0
 11
-1123.648518484992
 21
792.8654356260557
 31
0.0
  0
LINE
  5
16D
330
1F
100
AcDbEntity
  8
C-2
  6
Continuous
 62
     3
370
     9
100
AcDbLine
 10
-1163.648712312853
 20
762.8648417704815
 30
0.0
 11
-1143.6486463289
 21
762.8648417704815
 31
0.0
  0
LINE
  5
16E
330
1F
100
AcDbEntity
  8
C-2
  6
Continuous
 62
     3
370
     9
100
AcDbLine
 10
-1143.6486463289
 20
792.8654356260557
 30
0.0
 11
-1123.648518484992
 21
792.8654356260557
 31
0.0
  0
LINE
  5
16F
330
1F
100
AcDbEntity
  8
C-2
  6
Continuous
 62
     3
370
     9
100
AcDbLine
 10
337.3514394502385
 20
762.8648417704815
 30
0.0
 11
377.3515714181437
 21
792.8654356260557
 31
0.0
  0
LINE
  5
170
330
1F
100
AcDbEntity
  8
C-2
  6
Continuous
 62
     3
370
     9
100
AcDbLine
 10
337.3514394502385
 20
762.8648417704815
 30
0.0
 11
357.3510105545458
 21
762.8648417704815
 31
0.0
  0
LINE
  5
171
330
1F
100
AcDbEntity
  8
C-2
  6
Continuous
 62
     3
370
     9
100
AcDbLine
 10
357.3510105545458
 20
792.8654356260557
 30
0.0
 11
377.3515714181437
 21
792.8654356260557
 31
0.0
  0
LINE
  5
172
330
1F
100
AcDbEntity
  8
C-2
  6
Continuous
 62
     3
370
     9
100
AcDbLine
 10
357.3510105545458
 20
875.8654125316724
 30
0.0
 11
357.3510105545458
 21
792.8654356260557
 31
0.0
  0
LINE
  5
173
330
1F
100
AcDbEntity
  8
C-2
  6
Continuous
 62
     3
370
     9
100
AcDbLine
 10
357.3510105545458
 20
762.8648417704815
 30
0.0
 11
357.3510105545458
 21
679.8648648648651
 31
0.0
  0
LINE
  5
174
330
1F
100
AcDbEntity
  8
C-2
  6
Continuous
 62
     3
370
     9
100
AcDbLine
 10
-1143.6486463289
 20
679.8648648648651
 30
0.0
 11
-1143.6486463289
 21
762.8648417704815
 31
0.0
  0
LINE
  5
175
330
1F
100
AcDbEntity
  8
C-2
  6
Continuous
 62
     3
370
     9
100
AcDbLine
 10
-1143.6486463289
 20
792.8654356260557
 30
0.0
 11
-1143.6486463289
 21
875.8654125316724
 31
0.0
  0
LINE
  5
176
330
1F
100
AcDbEntity
  8
C-5
  6
Continuous
 62
     7
370
     9
100
AcDbLine
 10
-105.6484879674136
 20
494.8651205526818
 30
0.0
 11
-105.6484879674136
 21
429.8655247043919
 31
0.0
  0
LINE
  5
177
330
1F
100
AcDbEntity
  8
C-5
  6
Continuous
 62
     7
370
     9
100
AcDbLine
 10
-105.6484879674136
 20
429.8655247043919
 30
0.0
 11
-680.648900367118
 21
429.8655247043919
 31
0.0
  0
LINE
  5
178
330
1F
100
AcDbEntity
  8
C-5
  6
Continuous
 62
     7
370
     9
100
AcDbLine
 10
-680.648900367118
 20
494.8651205526818
 30
0.0
 11
-105.6484879674136
 21
494.8651205526818
 31
0.0
  0
LINE
  5
179
330
1F
100
AcDbEntity
  8
C-5
  6
Continuous
 62
     7
370
     9
100
AcDbLine
 10
-680.648900367118
 20
429.8655247043919
 30
0.0
 11
-680.648900367118
 21
494.8651205526818
 31
0.0
  0
LINE
  5
17A
330
1F
100
AcDbEntity
  8
C-0
  6
JWW_CENTER1
 62
     3
370
     9
100
AcDbLine
 10
464.1950310887518
 20
570.9027594489021
 30
0.0
 11
697.8069266757452
 21
570.9027594489021
 31
0.0
  0
LINE
  5
17B
330
1F
100
AcDbEntity
  8
C-0
  6
Continuous
 62
     3
370
     9
100
AcDbLine
 10
669.5067392813191
 20
585.902561497044
 30
0.0
 11
499.5066732973669
 21
585.902561497044
 31
0.0
  0
LINE
  5
17C
330
1F
100
AcDbEntity
  8
C-0
  6
Continuous
 62
     3
370
     9
100
AcDbLine
 10
499.5066732973669
 20
555.9029574007602
 30
0.0
 11
669.5067392813191
 21
555.9029574007602
 31
0.0
  0
LINE
  5
17D
330
1F
100
AcDbEntity
  8
C-0
  6
JWW_CENTER1
 62
     3
370
     9
100
AcDbLine
 10
584.5072011689886
 20
600.4841902449325
 30
0.0
 11
584.5072011689886
 21
537.8400977882179
 31
0.0
  0
LINE
  5
17E
330
1F
100
AcDbEntity
  8
C-0
  6
Continuous
 62
     7
370
     9
100
AcDbLine
 10
484.506871249225
 20
663.122344145904
 30
0.0
 11
684.5070362091067
 21
663.122344145904
 31
0.0
  0
LINE
  5
17F
330
1F
100
AcDbEntity
  8
C-0
  6
Continuous
 62
     7
370
     9
100
AcDbLine
 10
684.5070362091067
 20
607.0888539907096
 30
0.0
 11
684.5070362091067
 21
666.121809675887
 31
0.0
  0
LINE
  5
180
330
1F
100
AcDbEntity
  8
C-0
  6
Continuous
 62
     7
370
     9
100
AcDbLine
 10
484.506871249225
 20
607.0888539907096
 30
0.0
 11
484.506871249225
 21
666.121809675887
 31
0.0
  0
LINE
  5
181
330
1F
100
AcDbEntity
  8
C-0
  6
Continuous
 62
     7
370
     9
100
AcDbLine
 10
704.3987235507452
 20
555.9029574007602
 30
0.0
 11
767.3419707530254
 21
555.9029574007602
 31
0.0
  0
LINE
  5
182
330
1F
100
AcDbEntity
  8
C-0
  6
Continuous
 62
     7
370
     9
100
AcDbLine
 10
764.3415154637521
 20
555.9029574007602
 30
0.0
 11
764.3415154637521
 21
585.902561497044
 31
0.0
  0
LINE
  5
183
330
1F
100
AcDbEntity
  8
C-0
  6
Continuous
 62
     7
370
     9
100
AcDbLine
 10
767.3419707530254
 20
585.902561497044
 30
0.0
 11
704.3987235507452
 21
585.902561497044
 31
0.0
  0
LINE
  5
184
330
1F
100
AcDbEntity
  8
C-5
  6
Continuous
 62
     7
370
     9
100
AcDbLine
 10
304.4132400203398
 20
429.8655247043919
 30
0.0
 11
304.4132400203398
 21
494.8651205526818
 31
0.0
  0
LINE
  5
185
330
1F
100
AcDbEntity
  8
C-5
  6
Continuous
 62
     7
370
     9
100
AcDbLine
 10
304.4132400203398
 20
494.8651205526818
 30
0.0
 11
879.4138998598667
 21
494.8651205526818
 31
0.0
  0
LINE
  5
186
330
1F
100
AcDbEntity
  8
C-5
  6
Continuous
 62
     7
370
     9
100
AcDbLine
 10
879.4138998598667
 20
494.8651205526818
 30
0.0
 11
879.4138998598667
 21
429.8655247043919
 31
0.0
  0
LINE
  5
187
330
1F
100
AcDbEntity
  8
C-5
  6
Continuous
 62
     7
370
     9
100
AcDbLine
 10
879.4138998598667
 20
429.8655247043919
 30
0.0
 11
304.4132400203398
 21
429.8655247043919
 31
0.0
  0
LINE
  5
188
330
1F
100
AcDbEntity
  8
C-5
  6
Continuous
 62
     7
370
     9
100
AcDbLine
 10
-342.0445764386974
 20
732.1632508973818
 30
0.0
 11
-326.8255427077008
 21
712.3294644742401
 31
0.0
  0
LINE
  5
189
330
1F
100
AcDbEntity
  8
C-5
  6
Continuous
 62
     7
370
     9
100
AcDbLine
 10
-342.0445764386974
 20
732.1632508973818
 30
0.0
 11
-332.4774394164214
 21
709.0664755331505
 31
0.0
  0
LINE
  5
18A
330
1F
100
AcDbEntity
  8
C-5
  6
Continuous
 62
     7
370
     9
100
AcDbLine
 10
-251.9925645879795
 20
576.1888163798565
 30
0.0
 11
223.4202475161166
 21
576.1888163798565
 31
0.0
  0
LINE
  5
18B
330
1F
100
AcDbEntity
  8
C-5
  6
Continuous
 62
     7
370
     9
100
AcDbLine
 10
-251.9925645879795
 20
576.1888163798565
 30
0.0
 11
-342.0444527187863
 21
732.1630034575592
 31
0.0
  0
LINE
  5
18C
330
1F
100
AcDbEntity
  8
C-1
  6
JWW_DASHED3
 62
     2
370
     9
100
AcDbLine
 10
-1143.6486463289
 20
827.8650562183279
 30
0.0
 11
357.3510105545458
 21
827.8650562183279
 31
0.0
  0
LINE
  5
18D
330
1F
100
AcDbEntity
  8
C-1
  6
JWW_DASHED3
 62
     2
370
     9
100
AcDbLine
 10
357.3510105545458
 20
727.8652211782096
 30
0.0
 11
-1143.6486463289
 21
727.8652211782096
 31
0.0
  0
LINE
  5
18E
330
1F
100
AcDbEntity
  8
C-4
  6
Continuous
 62
     7
370
     9
100
AcDbLine
 10
-523.1487519032246
 20
639.8649803367823
 30
0.0
 11
-443.1487354072362
 21
639.8649803367823
 31
0.0
  0
LINE
  5
18F
330
1F
100
AcDbEntity
  8
C-4
  6
Continuous
 62
     7
370
     9
100
AcDbLine
 10
-693.1485704473545
 20
747.8647922825169
 30
0.0
 11
-693.1485704473545
 21
777.8651386982688
 31
0.0
  0
LINE
  5
190
330
1F
100
AcDbEntity
  8
C-5
  6
Continuous
 62
     7
370
     9
100
AcDbLine
 10
26.35150213499344
 20
741.3652904613599
 30
0.0
 11
41.57053586599005
 21
721.5317514780406
 31
0.0
  0
LINE
  5
191
330
1F
100
AcDbEntity
  8
C-5
  6
Continuous
 62
     7
370
     9
100
AcDbLine
 10
26.35150213499344
 20
741.3652904613599
 30
0.0
 11
35.91851543735828
 21
718.2685150971283
 31
0.0
  0
LINE
  5
192
330
1F
100
AcDbEntity
  8
C-5
  6
Continuous
 62
     7
370
     9
100
AcDbLine
 10
26.35150213499344
 20
741.3652904613599
 30
0.0
 11
86.14013903849838
 21
637.8082605310391
 31
0.0
  0
LINE
  5
193
330
1F
100
AcDbEntity
  8
C-5
  6
Continuous
 62
     7
370
     9
100
AcDbLine
 10
86.14013903849838
 20
637.8082605310391
 30
0.0
 11
355.2759802019276
 21
637.8082605310391
 31
0.0
  0
LINE
  5
194
330
1F
100
AcDbEntity
  8
C-4
  6
Continuous
 62
     7
370
     9
100
AcDbLine
 10
-523.1487519032246
 20
747.4369688291807
 30
0.0
 11
-523.1487519032246
 21
636.865019927154
 31
0.0
  0
LINE
  5
195
330
1F
100
AcDbEntity
  8
C-4
  6
Continuous
 62
     7
370
     9
100
AcDbLine
 10
-443.1487354072362
 20
747.4369688291807
 30
0.0
 11
-443.1487354072362
 21
636.865019927154
 31
0.0
  0
LINE
  5
196
330
1F
100
AcDbEntity
  8
C-4
  6
Continuous
 62
     7
370
     9
100
AcDbLine
 10
-614.990001111417
 20
777.8651386982688
 30
0.0
 11
-696.1485308569829
 21
777.8651386982688
 31
0.0
  0
LINE
  5
197
330
1F
100
AcDbEntity
  8
C-4
  6
Continuous
 62
     7
370
     9
100
AcDbLine
 10
-614.990001111417
 20
747.8647922825169
 30
0.0
 11
-696.1485308569829
 21
747.8647922825169
 31
0.0
  0
LINE
  5
198
330
1F
100
AcDbEntity
  8
C-9
  6
JWW_DASHED2
 62
     4
370
     9
100
AcDbLine
 10
-994.6481794924348
 20
814.3642446157096
 30
0.0
 11
-994.6481794924348
 21
799.8642710092906
 31
0.0
  0
LINE
  5
199
330
1F
100
AcDbEntity
  8
C-9
  6
JWW_DASHED2
 62
     4
370
     9
100
AcDbLine
 10
-972.648304861945
 20
799.8642710092906
 30
0.0
 11
-994.6481794924348
 21
799.8642710092906
 31
0.0
  0
LINE
  5
19A
330
1F
100
AcDbEntity
  8
C-9
  6
JWW_DASHED2
 62
     4
370
     9
100
AcDbLine
 10
-972.648304861945
 20
814.3642446157096
 30
0.0
 11
-972.648304861945
 21
799.8642710092906
 31
0.0
  0
LINE
  5
19B
330
1F
100
AcDbEntity
  8
C-9
  6
JWW_DASHED2
 62
     4
370
     9
100
AcDbLine
 10
-993.6480277293437
 20
815.7781157622467
 30
0.0
 11
-993.6480277293437
 21
827.8638190192146
 31
0.0
  0
LINE
  5
19C
330
1F
100
AcDbEntity
  8
C-9
  6
JWW_DASHED2
 62
     4
370
     9
100
AcDbLine
 10
-973.647961745391
 20
815.7781157622467
 30
0.0
 11
-973.647961745391
 21
827.8638190192146
 31
0.0
  0
LINE
  5
19D
330
1F
100
AcDbEntity
  8
C-9
  6
JWW_DASHED2
 62
     4
370
     9
100
AcDbLine
 10
-993.1481992876206
 20
815.8642248205238
 30
0.0
 11
-974.1480376269365
 21
815.8642248205238
 31
0.0
  0
LINE
  5
19E
330
1F
100
AcDbEntity
  8
C-9
  6
JWW_DASHED2
 62
     4
370
     9
100
AcDbLine
 10
-993.6480277293437
 20
827.8638190192146
 30
0.0
 11
-973.647961745391
 21
827.8638190192146
 31
0.0
  0
LINE
  5
19F
330
1F
100
AcDbEntity
  8
C-9
  6
JWW_DASHED2
 62
     4
370
     9
100
AcDbLine
 10
-813.6482999131485
 20
814.3642446157096
 30
0.0
 11
-813.6482999131485
 21
799.8642710092906
 31
0.0
  0
LINE
  5
1A0
330
1F
100
AcDbEntity
  8
C-9
  6
JWW_DASHED2
 62
     4
370
     9
100
AcDbLine
 10
-791.6486727224813
 20
799.8642710092906
 30
0.0
 11
-813.6482999131485
 21
799.8642710092906
 31
0.0
  0
LINE
  5
1A1
330
1F
100
AcDbEntity
  8
C-9
  6
JWW_DASHED2
 62
     4
370
     9
100
AcDbLine
 10
-791.6486727224813
 20
814.3642446157096
 30
0.0
 11
-791.6486727224813
 21
799.8642710092906
 31
0.0
  0
LINE
  5
1A2
330
1F
100
AcDbEntity
  8
C-9
  6
JWW_DASHED2
 62
     4
370
     9
100
AcDbLine
 10
-812.6486430297025
 20
815.7781157622467
 30
0.0
 11
-812.6486430297025
 21
827.8638190192146
 31
0.0
  0
LINE
  5
1A3
330
1F
100
AcDbEntity
  8
C-9
  6
JWW_DASHED2
 62
     4
370
     9
100
AcDbLine
 10
-792.6485770457499
 20
815.7781157622467
 30
0.0
 11
-792.6485770457499
 21
827.8638190192146
 31
0.0
  0
LINE
  5
1A4
330
1F
100
AcDbEntity
  8
C-9
  6
JWW_DASHED2
 62
     4
370
     9
100
AcDbLine
 10
-812.1488145879796
 20
815.8642248205238
 30
0.0
 11
-793.1484054874728
 21
815.8642248205238
 31
0.0
  0
LINE
  5
1A5
330
1F
100
AcDbEntity
  8
C-9
  6
JWW_DASHED2
 62
     4
370
     9
100
AcDbLine
 10
-812.6486430297025
 20
827.8638190192146
 30
0.0
 11
-792.6485770457499
 21
827.8638190192146
 31
0.0
  0
LINE
  5
1A6
330
1F
100
AcDbEntity
  8
C-9
  6
JWW_DASHED2
 62
     4
370
     9
100
AcDbLine
 10
-494.6481382524644
 20
814.3642446157096
 30
0.0
 11
-494.6481382524644
 21
799.8642710092906
 31
0.0
  0
LINE
  5
1A7
330
1F
100
AcDbEntity
  8
C-9
  6
JWW_DASHED2
 62
     4
370
     9
100
AcDbLine
 10
-472.6482636219745
 20
799.8642710092906
 30
0.0
 11
-494.6481382524644
 21
799.8642710092906
 31
0.0
  0
LINE
  5
1A8
330
1F
100
AcDbEntity
  8
C-9
  6
JWW_DASHED2
 62
     4
370
     9
100
AcDbLine
 10
-472.6482636219745
 20
814.3642446157096
 30
0.0
 11
-472.6482636219745
 21
799.8642710092906
 31
0.0
  0
LINE
  5
1A9
330
1F
100
AcDbEntity
  8
C-9
  6
JWW_DASHED2
 62
     4
370
     9
100
AcDbLine
 10
-493.6479864893732
 20
815.7781157622467
 30
0.0
 11
-493.6479864893732
 21
827.8638190192146
 31
0.0
  0
LINE
  5
1AA
330
1F
100
AcDbEntity
  8
C-9
  6
JWW_DASHED2
 62
     4
370
     9
100
AcDbLine
 10
-473.6479205054204
 20
815.7781157622467
 30
0.0
 11
-473.6479205054204
 21
827.8638190192146
 31
0.0
  0
LINE
  5
1AB
330
1F
100
AcDbEntity
  8
C-9
  6
JWW_DASHED2
 62
     4
370
     9
100
AcDbLine
 10
-493.1481580476503
 20
815.8642248205238
 30
0.0
 11
-474.1479963869659
 21
815.8642248205238
 31
0.0
  0
LINE
  5
1AC
330
1F
100
AcDbEntity
  8
C-9
  6
JWW_DASHED2
 62
     4
370
     9
100
AcDbLine
 10
-493.6479864893732
 20
827.8638190192146
 30
0.0
 11
-473.6479205054204
 21
827.8638190192146
 31
0.0
  0
LINE
  5
1AD
330
1F
100
AcDbEntity
  8
C-9
  6
JWW_DASHED2
 62
     4
370
     9
100
AcDbLine
 10
-313.6483823930894
 20
814.3642446157096
 30
0.0
 11
-313.6483823930894
 21
799.8642710092906
 31
0.0
  0
LINE
  5
1AE
330
1F
100
AcDbEntity
  8
C-9
  6
JWW_DASHED2
 62
     4
370
     9
100
AcDbLine
 10
-291.6487552024222
 20
799.8642710092906
 30
0.0
 11
-313.6483823930894
 21
799.8642710092906
 31
0.0
  0
LINE
  5
1AF
330
1F
100
AcDbEntity
  8
C-9
  6
JWW_DASHED2
 62
     4
370
     9
100
AcDbLine
 10
-291.6487552024222
 20
814.3642446157096
 30
0.0
 11
-291.6487552024222
 21
799.8642710092906
 31
0.0
  0
LINE
  5
1B0
330
1F
100
AcDbEntity
  8
C-9
  6
JWW_DASHED2
 62
     4
370
     9
100
AcDbLine
 10
-312.6487255096436
 20
815.7781157622467
 30
0.0
 11
-312.6487255096436
 21
827.8638190192146
 31
0.0
  0
LINE
  5
1B1
330
1F
100
AcDbEntity
  8
C-9
  6
JWW_DASHED2
 62
     4
370
     9
100
AcDbLine
 10
-292.6486595256907
 20
815.7781157622467
 30
0.0
 11
-292.6486595256907
 21
827.8638190192146
 31
0.0
  0
LINE
  5
1B2
330
1F
100
AcDbEntity
  8
C-9
  6
JWW_DASHED2
 62
     4
370
     9
100
AcDbLine
 10
-312.1488970679204
 20
815.8642248205238
 30
0.0
 11
-293.1484879674136
 21
815.8642248205238
 31
0.0
  0
LINE
  5
1B3
330
1F
100
AcDbEntity
  8
C-9
  6
JWW_DASHED2
 62
     4
370
     9
100
AcDbLine
 10
-312.6487255096436
 20
827.8638190192146
 30
0.0
 11
-292.6486595256907
 21
827.8638190192146
 31
0.0
  0
LINE
  5
1B4
330
1F
100
AcDbEntity
  8
C-9
  6
JWW_DASHED2
 62
     4
370
     9
100
AcDbLine
 10
5.351779267594736
 20
814.3642446157096
 30
0.0
 11
5.351779267594736
 21
799.8642710092906
 31
0.0
  0
LINE
  5
1B5
330
1F
100
AcDbEntity
  8
C-9
  6
JWW_DASHED2
 62
     4
370
     9
100
AcDbLine
 10
27.35165389808458
 20
799.8642710092906
 30
0.0
 11
5.351779267594736
 21
799.8642710092906
 31
0.0
  0
LINE
  5
1B6
330
1F
100
AcDbEntity
  8
C-9
  6
JWW_DASHED2
 62
     4
370
     9
100
AcDbLine
 10
27.35165389808458
 20
814.3642446157096
 30
0.0
 11
27.35165389808458
 21
799.8642710092906
 31
0.0
  0
LINE
  5
1B7
330
1F
100
AcDbEntity
  8
C-9
  6
JWW_DASHED2
 62
     4
370
     9
100
AcDbLine
 10
6.351931030685876
 20
815.7781157622467
 30
0.0
 11
6.351931030685876
 21
827.8638190192146
 31
0.0
  0
LINE
  5
1B8
330
1F
100
AcDbEntity
  8
C-9
  6
JWW_DASHED2
 62
     4
370
     9
100
AcDbLine
 10
26.35199701463875
 20
815.7781157622467
 30
0.0
 11
26.35199701463875
 21
827.8638190192146
 31
0.0
  0
LINE
  5
1B9
330
1F
100
AcDbEntity
  8
C-9
  6
JWW_DASHED2
 62
     4
370
     9
100
AcDbLine
 10
6.851759472409071
 20
815.8642248205238
 30
0.0
 11
25.85192113309319
 21
815.8642248205238
 31
0.0
  0
LINE
  5
1BA
330
1F
100
AcDbEntity
  8
C-9
  6
JWW_DASHED2
 62
     4
370
     9
100
AcDbLine
 10
6.351931030685876
 20
827.8638190192146
 30
0.0
 11
26.35199701463875
 21
827.8638190192146
 31
0.0
  0
LINE
  5
1BB
330
1F
100
AcDbEntity
  8
C-9
  6
JWW_DASHED2
 62
     4
370
     9
100
AcDbLine
 10
186.3512876871471
 20
814.3642446157096
 30
0.0
 11
186.3512876871471
 21
799.8642710092906
 31
0.0
  0
LINE
  5
1BC
330
1F
100
AcDbEntity
  8
C-9
  6
JWW_DASHED2
 62
     4
370
     9
100
AcDbLine
 10
208.3511623176369
 20
799.8642710092906
 30
0.0
 11
186.3512876871471
 21
799.8642710092906
 31
0.0
  0
LINE
  5
1BD
330
1F
100
AcDbEntity
  8
C-9
  6
JWW_DASHED2
 62
     4
370
     9
100
AcDbLine
 10
208.3511623176369
 20
814.3642446157096
 30
0.0
 11
208.3511623176369
 21
799.8642710092906
 31
0.0
  0
LINE
  5
1BE
330
1F
100
AcDbEntity
  8
C-9
  6
JWW_DASHED2
 62
     4
370
     9
100
AcDbLine
 10
187.3509445705932
 20
815.7781157622467
 30
0.0
 11
187.3509445705932
 21
827.8638190192146
 31
0.0
  0
LINE
  5
1BF
330
1F
100
AcDbEntity
  8
C-9
  6
JWW_DASHED2
 62
     4
370
     9
100
AcDbLine
 10
207.3510105545458
 20
815.7781157622467
 30
0.0
 11
207.3510105545458
 21
827.8638190192146
 31
0.0
  0
LINE
  5
1C0
330
1F
100
AcDbEntity
  8
C-9
  6
JWW_DASHED2
 62
     4
370
     9
100
AcDbLine
 10
187.8507730123161
 20
815.8642248205238
 30
0.0
 11
206.8511821128229
 21
815.8642248205238
 31
0.0
  0
LINE
  5
1C1
330
1F
100
AcDbEntity
  8
C-9
  6
JWW_DASHED2
 62
     4
370
     9
100
AcDbLine
 10
187.3509445705932
 20
827.8638190192146
 30
0.0
 11
207.3510105545458
 21
827.8638190192146
 31
0.0
  0
LINE
  5
1C2
330
1F
100
AcDbEntity
  8
C-9
  6
JWW_DASHED2
 62
     4
370
     9
100
AcDbLine
 10
-994.6481794924348
 20
741.3650430215373
 30
0.0
 11
-994.6481794924348
 21
755.8650166279563
 31
0.0
  0
LINE
  5
1C3
330
1F
100
AcDbEntity
  8
C-9
  6
JWW_DASHED2
 62
     4
370
     9
100
AcDbLine
 10
-972.648304861945
 20
755.8650166279563
 30
0.0
 11
-994.6481794924348
 21
755.8650166279563
 31
0.0
  0
LINE
  5
1C4
330
1F
100
AcDbEntity
  8
C-9
  6
JWW_DASHED2
 62
     4
370
     9
100
AcDbLine
 10
-972.648304861945
 20
741.3650430215373
 30
0.0
 11
-972.648304861945
 21
755.8650166279563
 31
0.0
  0
LINE
  5
1C5
330
1F
100
AcDbEntity
  8
C-9
  6
JWW_DASHED2
 62
     4
370
     9
100
AcDbLine
 10
-993.6480277293437
 20
739.951171875
 30
0.0
 11
-993.6480277293437
 21
727.8654686180323
 31
0.0
  0
LINE
  5
1C6
330
1F
100
AcDbEntity
  8
C-9
  6
JWW_DASHED2
 62
     4
370
     9
100
AcDbLine
 10
-973.647961745391
 20
739.951171875
 30
0.0
 11
-973.647961745391
 21
727.8654686180323
 31
0.0
  0
LINE
  5
1C7
330
1F
100
AcDbEntity
  8
C-9
  6
JWW_DASHED2
 62
     4
370
     9
100
AcDbLine
 10
-993.1481992876206
 20
739.8650628167231
 30
0.0
 11
-974.1480376269365
 21
739.8650628167231
 31
0.0
  0
LINE
  5
1C8
330
1F
100
AcDbEntity
  8
C-9
  6
JWW_DASHED2
 62
     4
370
     9
100
AcDbLine
 10
-993.6480277293437
 20
727.8654686180323
 30
0.0
 11
-973.647961745391
 21
727.8654686180323
 31
0.0
  0
LINE
  5
1C9
330
1F
100
AcDbEntity
  8
C-9
  6
JWW_DASHED2
 62
     4
370
     9
100
AcDbLine
 10
-813.6482999131485
 20
741.3650430215373
 30
0.0
 11
-813.6482999131485
 21
755.8650166279563
 31
0.0
  0
LINE
  5
1CA
330
1F
100
AcDbEntity
  8
C-9
  6
JWW_DASHED2
 62
     4
370
     9
100
AcDbLine
 10
-791.6486727224813
 20
755.8650166279563
 30
0.0
 11
-813.6482999131485
 21
755.8650166279563
 31
0.0
  0
LINE
  5
1CB
330
1F
100
AcDbEntity
  8
C-9
  6
JWW_DASHED2
 62
     4
370
     9
100
AcDbLine
 10
-791.6486727224813
 20
741.3650430215373
 30
0.0
 11
-791.6486727224813
 21
755.8650166279563
 31
0.0
  0
LINE
  5
1CC
330
1F
100
AcDbEntity
  8
C-9
  6
JWW_DASHED2
 62
     4
370
     9
100
AcDbLine
 10
-812.6486430297025
 20
739.951171875
 30
0.0
 11
-812.6486430297025
 21
727.8654686180323
 31
0.0
  0
LINE
  5
1CD
330
1F
100
AcDbEntity
  8
C-9
  6
JWW_DASHED2
 62
     4
370
     9
100
AcDbLine
 10
-792.6485770457499
 20
739.951171875
 30
0.0
 11
-792.6485770457499
 21
727.8654686180323
 31
0.0
  0
LINE
  5
1CE
330
1F
100
AcDbEntity
  8
C-9
  6
JWW_DASHED2
 62
     4
370
     9
100
AcDbLine
 10
-812.1488145879796
 20
739.8650628167231
 30
0.0
 11
-793.1484054874728
 21
739.8650628167231
 31
0.0
  0
LINE
  5
1CF
330
1F
100
AcDbEntity
  8
C-9
  6
JWW_DASHED2
 62
     4
370
     9
100
AcDbLine
 10
-812.6486430297025
 20
727.8654686180323
 30
0.0
 11
-792.6485770457499
 21
727.8654686180323
 31
0.0
  0
LINE
  5
1D0
330
1F
100
AcDbEntity
  8
C-9
  6
JWW_DASHED2
 62
     4
370
     9
100
AcDbLine
 10
-494.6481382524644
 20
741.3650430215373
 30
0.0
 11
-494.6481382524644
 21
755.8650166279563
 31
0.0
  0
LINE
  5
1D1
330
1F
100
AcDbEntity
  8
C-9
  6
JWW_DASHED2
 62
     4
370
     9
100
AcDbLine
 10
-472.6482636219745
 20
755.8650166279563
 30
0.0
 11
-494.6481382524644
 21
755.8650166279563
 31
0.0
  0
LINE
  5
1D2
330
1F
100
AcDbEntity
  8
C-9
  6
JWW_DASHED2
 62
     4
370
     9
100
AcDbLine
 10
-472.6482636219745
 20
741.3650430215373
 30
0.0
 11
-472.6482636219745
 21
755.8650166279563
 31
0.0
  0
LINE
  5
1D3
330
1F
100
AcDbEntity
  8
C-9
  6
JWW_DASHED2
 62
     4
370
     9
100
AcDbLine
 10
-493.6479864893732
 20
739.951171875
 30
0.0
 11
-493.6479864893732
 21
727.8654686180323
 31
0.0
  0
LINE
  5
1D4
330
1F
100
AcDbEntity
  8
C-9
  6
JWW_DASHED2
 62
     4
370
     9
100
AcDbLine
 10
-473.6479205054204
 20
739.951171875
 30
0.0
 11
-473.6479205054204
 21
727.8654686180323
 31
0.0
  0
LINE
  5
1D5
330
1F
100
AcDbEntity
  8
C-9
  6
JWW_DASHED2
 62
     4
370
     9
100
AcDbLine
 10
-493.1481580476503
 20
739.8650628167231
 30
0.0
 11
-474.1479963869659
 21
739.8650628167231
 31
0.0
  0
LINE
  5
1D6
330
1F
100
AcDbEntity
  8
C-9
  6
JWW_DASHED2
 62
     4
370
     9
100
AcDbLine
 10
-493.6479864893732
 20
727.8654686180323
 30
0.0
 11
-473.6479205054204
 21
727.8654686180323
 31
0.0
  0
LINE
  5
1D7
330
1F
100
AcDbEntity
  8
C-9
  6
JWW_DASHED2
 62
     4
370
     9
100
AcDbLine
 10
-313.6483823930894
 20
741.3650430215373
 30
0.0
 11
-313.6483823930894
 21
755.8650166279563
 31
0.0
  0
LINE
  5
1D8
330
1F
100
AcDbEntity
  8
C-9
  6
JWW_DASHED2
 62
     4
370
     9
100
AcDbLine
 10
-291.6487552024222
 20
755.8650166279563
 30
0.0
 11
-313.6483823930894
 21
755.8650166279563
 31
0.0
  0
LINE
  5
1D9
330
1F
100
AcDbEntity
  8
C-9
  6
JWW_DASHED2
 62
     4
370
     9
100
AcDbLine
 10
-291.6487552024222
 20
741.3650430215373
 30
0.0
 11
-291.6487552024222
 21
755.8650166279563
 31
0.0
  0
LINE
  5
1DA
330
1F
100
AcDbEntity
  8
C-9
  6
JWW_DASHED2
 62
     4
370
     9
100
AcDbLine
 10
-312.6487255096436
 20
739.951171875
 30
0.0
 11
-312.6487255096436
 21
727.8654686180323
 31
0.0
  0
LINE
  5
1DB
330
1F
100
AcDbEntity
  8
C-9
  6
JWW_DASHED2
 62
     4
370
     9
100
AcDbLine
 10
-292.6486595256907
 20
739.951171875
 30
0.0
 11
-292.6486595256907
 21
727.8654686180323
 31
0.0
  0
LINE
  5
1DC
330
1F
100
AcDbEntity
  8
C-9
  6
JWW_DASHED2
 62
     4
370
     9
100
AcDbLine
 10
-312.1488970679204
 20
739.8650628167231
 30
0.0
 11
-293.1484879674136
 21
739.8650628167231
 31
0.0
  0
LINE
  5
1DD
330
1F
100
AcDbEntity
  8
C-9
  6
JWW_DASHED2
 62
     4
370
     9
100
AcDbLine
 10
-312.6487255096436
 20
727.8654686180323
 30
0.0
 11
-292.6486595256907
 21
727.8654686180323
 31
0.0
  0
LINE
  5
1DE
330
1F
100
AcDbEntity
  8
C-9
  6
JWW_DASHED2
 62
     4
370
     9
100
AcDbLine
 10
5.351779267594736
 20
741.3650430215373
 30
0.0
 11
5.351779267594736
 21
755.8650166279563
 31
0.0
  0
LINE
  5
1DF
330
1F
100
AcDbEntity
  8
C-9
  6
JWW_DASHED2
 62
     4
370
     9
100
AcDbLine
 10
27.35165389808458
 20
755.8650166279563
 30
0.0
 11
5.351779267594736
 21
755.8650166279563
 31
0.0
  0
LINE
  5
1E0
330
1F
100
AcDbEntity
  8
C-9
  6
JWW_DASHED2
 62
     4
370
     9
100
AcDbLine
 10
27.35165389808458
 20
741.3650430215373
 30
0.0
 11
27.35165389808458
 21
755.8650166279563
 31
0.0
  0
LINE
  5
1E1
330
1F
100
AcDbEntity
  8
C-9
  6
JWW_DASHED2
 62
     4
370
     9
100
AcDbLine
 10
6.351931030685876
 20
739.951171875
 30
0.0
 11
6.351931030685876
 21
727.8654686180323
 31
0.0
  0
LINE
  5
1E2
330
1F
100
AcDbEntity
  8
C-9
  6
JWW_DASHED2
 62
     4
370
     9
100
AcDbLine
 10
26.35199701463875
 20
739.951171875
 30
0.0
 11
26.35199701463875
 21
727.8654686180323
 31
0.0
  0
LINE
  5
1E3
330
1F
100
AcDbEntity
  8
C-9
  6
JWW_DASHED2
 62
     4
370
     9
100
AcDbLine
 10
6.851759472409071
 20
739.8650628167231
 30
0.0
 11
25.85192113309319
 21
739.8650628167231
 31
0.0
  0
LINE
  5
1E4
330
1F
100
AcDbEntity
  8
C-9
  6
JWW_DASHED2
 62
     4
370
     9
100
AcDbLine
 10
6.351931030685876
 20
727.8654686180323
 30
0.0
 11
26.35199701463875
 21
727.8654686180323
 31
0.0
  0
LINE
  5
1E5
330
1F
100
AcDbEntity
  8
C-9
  6
JWW_DASHED2
 62
     4
370
     9
100
AcDbLine
 10
186.3512876871471
 20
741.3650430215373
 30
0.0
 11
186.3512876871471
 21
755.8650166279563
 31
0.0
  0
LINE
  5
1E6
330
1F
100
AcDbEntity
  8
C-9
  6
JWW_DASHED2
 62
     4
370
     9
100
AcDbLine
 10
208.3511623176369
 20
755.8650166279563
 30
0.0
 11
186.3512876871471
 21
755.8650166279563
 31
0.0
  0
LINE
  5
1E7
330
1F
100
AcDbEntity
  8
C-9
  6
JWW_DASHED2
 62
     4
370
     9
100
AcDbLine
 10
208.3511623176369
 20
741.3650430215373
 30
0.0
 11
208.3511623176369
 21
755.8650166279563
 31
0.0
  0
LINE
  5
1E8
330
1F
100
AcDbEntity
  8
C-9
  6
JWW_DASHED2
 62
     4
370
     9
100
AcDbLine
 10
187.3509445705932
 20
739.951171875
 30
0.0
 11
187.3509445705932
 21
727.8654686180323
 31
0.0
  0
LINE
  5
1E9
330
1F
100
AcDbEntity
  8
C-9
  6
JWW_DASHED2
 62
     4
370
     9
100
AcDbLine
 10
207.3510105545458
 20
739.951171875
 30
0.0
 11
207.3510105545458
 21
727.8654686180323
 31
0.0
  0
LINE
  5
1EA
330
1F
100
AcDbEntity
  8
C-9
  6
JWW_DASHED2
 62
     4
370
     9
100
AcDbLine
 10
187.8507730123161
 20
739.8650628167231
 30
0.0
 11
206.8511821128229
 21
739.8650628167231
 31
0.0
  0
LINE
  5
1EB
330
1F
100
AcDbEntity
  8
C-9
  6
JWW_DASHED2
 62
     4
370
     9
100
AcDbLine
 10
187.3509445705932
 20
727.8654686180323
 30
0.0
 11
207.3510105545458
 21
727.8654686180323
 31
0.0
  0
ARC
  5
1EC
330
1F
100
AcDbEntity
  8
D-A
  6
Continuous
 62
     3
370
     9
100
AcDbCircle
 10
-430.9793974902178
 20
-432.9294235641892
 30
0.0
 40
10.00000012887491
100
AcDbArc
 50
7.016464233398438
 51
45.0
  0
ARC
  5
1ED
330
1F
100
AcDbEntity
  8
D-A
  6
Continuous
 62
     3
370
     9
100
AcDbCircle
 10
-305.9794799701586
 20
-413.787478885135
 30
0.0
 40
10.00000012887491
100
AcDbArc
 50
7.016464233398438
 51
90.0
  0
ARC
  5
1EE
330
1F
100
AcDbEntity
  8
D-A
  6
Continuous
 62
     3
370
     9
100
AcDbCircle
 10
-385.6240491609313
 20
-378.7874871331292
 30
0.0
 40
25.00000128874908
100
AcDbArc
 50
225.0
 51
270.0
  0
ARC
  5
1EF
330
1F
100
AcDbEntity
  8
D-A
  6
JWW_DASHED3
 62
     3
370
     9
100
AcDbCircle
 10
-414.4791203576165
 20
-392.7876322978251
 30
0.0
 40
6.50000008376869
100
AcDbArc
 50
270.0
 51
0.0
  0
ARC
  5
1F0
330
1F
100
AcDbEntity
  8
D-A
  6
Continuous
 62
     3
370
     9
100
AcDbCircle
 10
-414.4791203576165
 20
-369.7874821843327
 30
0.0
 40
6.50000008376869
100
AcDbArc
 50
0.0
 51
90.0
  0
ARC
  5
1F1
330
1F
100
AcDbEntity
  8
D-9
  6
Continuous
 62
     4
370
     9
100
AcDbCircle
 10
-580.979026330484
 20
-341.2874871331292
 30
0.0
 40
5.000000064437454
100
AcDbArc
 50
90.0
 51
180.0
  0
ARC
  5
1F2
330
1F
100
AcDbEntity
  8
D-1
  6
Continuous
 62
     2
370
     9
100
AcDbCircle
 10
-515.9788118826375
 20
-368.7872067013302
 30
0.0
 40
5.000000064437454
100
AcDbArc
 50
233.1302490234375
 51
270.0000000000001
  0
ARC
  5
1F3
330
1F
100
AcDbEntity
  8
D-1
  6
Continuous
 62
     2
370
     9
100
AcDbCircle
 10
-590.9788118826375
 20
-358.7874211491765
 30
0.0
 40
5.000000064437454
100
AcDbArc
 50
90.0
 51
180.0
  0
ARC
  5
1F4
330
1F
100
AcDbEntity
  8
D-1
  6
Continuous
 62
     2
370
     9
100
AcDbCircle
 10
-465.9788943625784
 20
-378.7872396933065
 30
0.0
 40
5.000000064437454
100
AcDbArc
 50
0.0
 51
90.0
  0
ARC
  5
1F5
330
1F
100
AcDbEntity
  8
D-1
  6
Continuous
 62
     2
370
     9
100
AcDbCircle
 10
-465.9788943625784
 20
-368.7872067013302
 30
0.0
 40
5.000000064437454
100
AcDbArc
 50
270.0
 51
0.0
  0
ARC
  5
1F6
330
1F
100
AcDbEntity
  8
D-1
  6
Continuous
 62
     2
370
     9
100
AcDbCircle
 10
-443.9787722922659
 20
-321.7871258709881
 30
0.0
 40
3.000000038662472
100
AcDbArc
 50
0.0
 51
90.0
  0
ARC
  5
1F7
330
1F
100
AcDbEntity
  8
D-1
  6
Continuous
 62
     2
370
     9
100
AcDbCircle
 10
-462.9788102330386
 20
-321.7871258709881
 30
0.0
 40
3.000000038662472
100
AcDbArc
 50
90.0
 51
180.0
  0
ARC
  5
1F8
330
1F
100
AcDbEntity
  8
D-1
  6
Continuous
 62
     2
370
     9
100
AcDbCircle
 10
-443.9787722922659
 20
-440.7872462917018
 30
0.0
 40
3.000000038662472
100
AcDbArc
 50
270.0
 51
0.0
  0
ARC
  5
1F9
330
1F
100
AcDbEntity
  8
D-1
  6
Continuous
 62
     2
370
     9
100
AcDbCircle
 10
-462.9788102330386
 20
-440.7872462917018
 30
0.0
 40
3.000000038662472
100
AcDbArc
 50
180.0
 51
270.0
  0
ARC
  5
1FA
330
1F
100
AcDbEntity
  8
D-1
  6
Continuous
 62
     2
370
     9
100
AcDbCircle
 10
-537.6291777636552
 20
-358.7373145850928
 30
0.0
 40
4.950000305433531
100
AcDbArc
 50
53.12966918945312
 51
90.0
  0
ARC
  5
1FB
330
1F
100
AcDbEntity
  8
D-1
  6
Continuous
 62
     2
370
     9
100
AcDbCircle
 10
-590.9788118826375
 20
-373.787099477407
 30
0.0
 40
5.000000064437454
100
AcDbArc
 50
180.0
 51
270.0
  0
ARC
  5
1FC
330
1F
100
AcDbEntity
  8
D-1
  6
Continuous
 62
     2
370
     9
100
AcDbCircle
 10
-580.3090830106993
 20
-358.7874211491765
 30
0.0
 40
5.000000064437454
100
AcDbArc
 50
59.99996948242189
 51
90.00000000000001
  0
ARC
  5
1FD
330
1F
100
AcDbEntity
  8
D-1
  6
Continuous
 62
     2
370
     9
100
AcDbCircle
 10
-551.6486232345167
 20
-358.7874211491765
 30
0.0
 40
5.000000064437454
100
AcDbArc
 50
90.0
 51
120.0000305175781
  0
ARC
  5
1FE
330
1F
100
AcDbEntity
  8
D-1
  6
Continuous
 62
     2
370
     9
100
AcDbCircle
 10
-565.9788531226079
 20
-361.2874293971706
 30
0.0
 40
5.000000064437454
100
AcDbArc
 50
239.9999694824219
 51
300.0000305175781
  0
ARC
  5
1FF
330
1F
100
AcDbEntity
  8
D-0
  6
Continuous
 62
     3
370
     9
100
AcDbCircle
 10
-661.2795584910623
 20
-343.7871242213893
 30
0.0
 40
2.500000032218727
100
AcDbArc
 50
0.0
 51
90.0
  0
ARC
  5
200
330
1F
100
AcDbEntity
  8
D-0
  6
Continuous
 62
     3
370
     9
100
AcDbCircle
 10
-651.2796492189975
 20
-428.7870334934543
 30
0.0
 40
2.500000032218727
100
AcDbArc
 50
180.0
 51
270.0
  0
ARC
  5
201
330
1F
100
AcDbEntity
  8
D-0
  6
Continuous
 62
     3
370
     9
100
AcDbCircle
 10
-622.9365310153444
 20
-428.7870334934543
 30
0.0
 40
2.500000032218727
100
AcDbArc
 50
270.0
 51
327.9938659667969
  0
ARC
  5
202
330
1F
100
AcDbEntity
  8
D-0
  6
Continuous
 62
     3
370
     9
100
AcDbCircle
 10
-614.3595244433427
 20
-353.7870334934543
 30
0.0
 40
2.500000032218727
100
AcDbArc
 50
16.69964599609375
 51
90.0
  0
ARC
  5
203
330
1F
100
AcDbEntity
  8
D-0
  6
Continuous
 62
     3
370
     9
100
AcDbCircle
 10
-661.2795584910623
 20
-343.7871242213893
 30
0.0
 40
7.500000096656181
100
AcDbArc
 50
0.0
 51
90.0
  0
ARC
  5
204
330
1F
100
AcDbEntity
  8
D-0
  6
Continuous
 62
     3
370
     9
100
AcDbCircle
 10
-622.9365310153444
 20
-428.7870334934543
 30
0.0
 40
7.500000096656181
100
AcDbArc
 50
270.0
 51
327.9946594238281
  0
ARC
  5
205
330
1F
100
AcDbEntity
  8
D-0
  6
Continuous
 62
     3
370
     9
100
AcDbCircle
 10
-614.3598956030767
 20
-353.7870334934543
 30
0.0
 40
7.500000096656181
100
AcDbArc
 50
16.69938659667969
 51
90.0
  0
ARC
  5
206
330
1F
100
AcDbEntity
  8
D-0
  6
Continuous
 62
     3
370
     9
100
AcDbCircle
 10
-718.779624475015
 20
-421.2876273490286
 30
0.0
 40
15.00000019331236
100
AcDbArc
 50
180.0
 51
270.0
  0
ARC
  5
207
330
1F
100
AcDbEntity
  8
D-0
  6
Continuous
 62
     3
370
     9
100
AcDbCircle
 10
-666.2795749870506
 20
-428.7870334934543
 30
0.0
 40
7.500000096656181
100
AcDbArc
 50
270.0
 51
340.5287780761719
  0
ARC
  5
208
330
1F
100
AcDbEntity
  8
D-0
  6
Continuous
 62
     3
370
     9
100
AcDbCircle
 10
-651.2796492189975
 20
-428.7870334934543
 30
0.0
 40
7.500000096656181
100
AcDbArc
 50
199.4712219238282
 51
270.0
  0
ARC
  5
209
330
1F
100
AcDbEntity
  8
D-0
  6
JWW_DASHED1
 62
     3
370
     9
100
AcDbCircle
 10
-651.2796492189975
 20
-428.7870334934543
 30
0.0
 40
7.500024743982264
100
AcDbArc
 50
180.0
 51
199.4712219238281
  0
ARC
  5
20A
330
1F
100
AcDbEntity
  8
D-0
  6
Continuous
 62
     3
370
     9
100
AcDbCircle
 10
-620.9768076200743
 20
-392.6328586887668
 30
0.0
 40
25.00000128874908
100
AcDbArc
 50
327.9944305419922
 51
16.69921874999999
  0
ARC
  5
20B
330
1F
100
AcDbEntity
  8
D-0
  6
Continuous
 62
     3
370
     9
100
AcDbCircle
 10
-620.9768076200743
 20
-392.6328586887668
 30
0.0
 40
20.00000025774982
100
AcDbArc
 50
327.9944305419922
 51
16.69921874999999
  0
ARC
  5
20C
330
1F
100
AcDbEntity
  8
D-0
  6
Continuous
 62
     3
370
     9
100
AcDbCircle
 10
-691.2794100271688
 20
-383.7875036291173
 30
0.0
 40
2.500000032218727
100
AcDbArc
 50
180.0
 51
270.0
  0
ARC
  5
20D
330
1F
100
AcDbEntity
  8
C-A
  6
Continuous
 62
     3
370
     9
100
AcDbCircle
 10
-460.1487172616493
 20
807.8647427945526
 30
0.0
 40
2.999960167987927
100
AcDbArc
 50
90.0
 51
270.0
  0
ARC
  5
20E
330
1F
100
AcDbEntity
  8
C-A
  6
Continuous
 62
     3
370
     9
100
AcDbCircle
 10
-426.1487535528232
 20
807.8647427945526
 30
0.0
 40
2.999960167987927
100
AcDbArc
 50
270.0
 51
90.0
  0
ARC
  5
20F
330
1F
100
AcDbEntity
  8
C-A
  6
Continuous
 62
     3
370
     9
100
AcDbCircle
 10
-540.1487337576375
 20
807.8647427945526
 30
0.0
 40
2.999960167987927
100
AcDbArc
 50
90.0
 51
270.0
  0
ARC
  5
210
330
1F
100
AcDbEntity
  8
C-A
  6
Continuous
 62
     3
370
     9
100
AcDbCircle
 10
-506.1486463289003
 20
807.8647427945526
 30
0.0
 40
2.999960167987927
100
AcDbArc
 50
270.0
 51
90.0
  0
ARC
  5
211
330
1F
100
AcDbEntity
  8
C-A
  6
Continuous
 62
     3
370
     9
100
AcDbCircle
 10
-586.1487865447998
 20
807.8647427945526
 30
0.0
 40
2.999960167987927
100
AcDbArc
 50
270.0
 51
90.0
  0
ARC
  5
212
330
1F
100
AcDbEntity
  8
C-A
  6
Continuous
 62
     3
370
     9
100
AcDbCircle
 10
-460.1487172616493
 20
777.8651386982688
 30
0.0
 40
2.999960167987927
100
AcDbArc
 50
90.0
 51
270.0
  0
ARC
  5
213
330
1F
100
AcDbEntity
  8
C-A
  6
Continuous
 62
     3
370
     9
100
AcDbCircle
 10
-426.1487535528232
 20
777.8651386982688
 30
0.0
 40
2.999960167987927
100
AcDbArc
 50
270.0
 51
90.0
  0
ARC
  5
214
330
1F
100
AcDbEntity
  8
C-A
  6
Continuous
 62
     3
370
     9
100
AcDbCircle
 10
-460.1487172616493
 20
747.8647922825169
 30
0.0
 40
2.999960167987927
100
AcDbArc
 50
90.0
 51
270.0
  0
ARC
  5
215
330
1F
100
AcDbEntity
  8
C-A
  6
Continuous
 62
     3
370
     9
100
AcDbCircle
 10
-426.1487535528232
 20
747.8647922825169
 30
0.0
 40
2.999960167987927
100
AcDbArc
 50
270.0
 51
90.0
  0
ARC
  5
216
330
1F
100
AcDbEntity
  8
C-A
  6
Continuous
 62
     3
370
     9
100
AcDbCircle
 10
-540.1487337576375
 20
777.8651386982688
 30
0.0
 40
2.999960167987927
100
AcDbArc
 50
90.0
 51
270.0
  0
ARC
  5
217
330
1F
100
AcDbEntity
  8
C-A
  6
Continuous
 62
     3
370
     9
100
AcDbCircle
 10
-506.1486463289003
 20
777.8651386982688
 30
0.0
 40
2.999960167987927
100
AcDbArc
 50
270.0
 51
90.0
  0
ARC
  5
218
330
1F
100
AcDbEntity
  8
C-A
  6
Continuous
 62
     3
370
     9
100
AcDbCircle
 10
-540.1487337576375
 20
747.8647922825169
 30
0.0
 40
2.999960167987927
100
AcDbArc
 50
90.0
 51
270.0
  0
ARC
  5
219
330
1F
100
AcDbEntity
  8
C-A
  6
Continuous
 62
     3
370
     9
100
AcDbCircle
 10
-506.1486463289003
 20
747.8647922825169
 30
0.0
 40
2.999960167987927
100
AcDbArc
 50
270.0
 51
90.0
  0
ARC
  5
21A
330
1F
100
AcDbEntity
  8
C-A
  6
Continuous
 62
     3
370
     9
100
AcDbCircle
 10
-620.1487502536256
 20
777.8651386982688
 30
0.0
 40
2.999960167987927
100
AcDbArc
 50
90.0
 51
270.0
  0
ARC
  5
21B
330
1F
100
AcDbEntity
  8
C-A
  6
Continuous
 62
     3
370
     9
100
AcDbCircle
 10
-586.1487865447998
 20
777.8651386982688
 30
0.0
 40
2.999960167987927
100
AcDbArc
 50
270.0
 51
90.0
  0
ARC
  5
21C
330
1F
100
AcDbEntity
  8
C-A
  6
Continuous
 62
     3
370
     9
100
AcDbCircle
 10
-620.1487502536256
 20
747.8647922825169
 30
0.0
 40
2.999960167987927
100
AcDbArc
 50
90.0
 51
270.0
  0
ARC
  5
21D
330
1F
100
AcDbEntity
  8
C-A
  6
Continuous
 62
     3
370
     9
100
AcDbCircle
 10
-586.1487865447998
 20
747.8647922825169
 30
0.0
 40
2.999960167987927
100
AcDbArc
 50
270.0
 51
90.0
  0
ARC
  5
21E
330
1F
100
AcDbEntity
  8
C-A
  6
Continuous
 62
     3
370
     9
100
AcDbCircle
 10
-326.1485473529711
 20
747.8647922825169
 30
0.0
 40
2.999960167987927
100
AcDbArc
 50
270.0
 51
90.0
  0
ARC
  5
21F
330
1F
100
AcDbEntity
  8
C-A
  6
Continuous
 62
     3
370
     9
100
AcDbCircle
 10
-360.1485110617972
 20
747.8647922825169
 30
0.0
 40
2.999960167987927
100
AcDbArc
 50
90.0
 51
270.0
  0
ARC
  5
220
330
1F
100
AcDbEntity
  8
C-A
  6
Continuous
 62
     3
370
     9
100
AcDbCircle
 10
-246.1485308569829
 20
747.8647922825169
 30
0.0
 40
2.999960167987927
100
AcDbArc
 50
270.0
 51
90.0
  0
ARC
  5
221
330
1F
100
AcDbEntity
  8
C-A
  6
Continuous
 62
     3
370
     9
100
AcDbCircle
 10
-280.1484945658089
 20
747.8647922825169
 30
0.0
 40
2.999960167987927
100
AcDbArc
 50
90.0
 51
270.0
  0
ARC
  5
222
330
1F
100
AcDbEntity
  8
C-A
  6
Continuous
 62
     3
370
     9
100
AcDbCircle
 10
-200.1484780698209
 20
747.8647922825169
 30
0.0
 40
2.999960167987927
100
AcDbArc
 50
90.0
 51
270.0
  0
ARC
  5
223
330
1F
100
AcDbEntity
  8
C-A
  6
Continuous
 62
     3
370
     9
100
AcDbCircle
 10
-326.1485473529711
 20
777.8641489389781
 30
0.0
 40
2.999960167987927
100
AcDbArc
 50
270.0
 51
90.0
  0
ARC
  5
224
330
1F
100
AcDbEntity
  8
C-A
  6
Continuous
 62
     3
370
     9
100
AcDbCircle
 10
-360.1485110617972
 20
777.8641489389781
 30
0.0
 40
2.999960167987927
100
AcDbArc
 50
90.0
 51
270.0
  0
ARC
  5
225
330
1F
100
AcDbEntity
  8
C-A
  6
Continuous
 62
     3
370
     9
100
AcDbCircle
 10
-326.1485473529711
 20
807.8647427945526
 30
0.0
 40
2.999960167987927
100
AcDbArc
 50
270.0
 51
90.0
  0
ARC
  5
226
330
1F
100
AcDbEntity
  8
C-A
  6
Continuous
 62
     3
370
     9
100
AcDbCircle
 10
-360.1485110617972
 20
807.8647427945526
 30
0.0
 40
2.999960167987927
100
AcDbArc
 50
90.0
 51
270.0
  0
ARC
  5
227
330
1F
100
AcDbEntity
  8
C-A
  6
Continuous
 62
     3
370
     9
100
AcDbCircle
 10
-246.1485308569829
 20
777.8641489389781
 30
0.0
 40
2.999960167987927
100
AcDbArc
 50
270.0
 51
90.0
  0
ARC
  5
228
330
1F
100
AcDbEntity
  8
C-A
  6
Continuous
 62
     3
370
     9
100
AcDbCircle
 10
-280.1484945658089
 20
777.8641489389781
 30
0.0
 40
2.999960167987927
100
AcDbArc
 50
90.0
 51
270.0
  0
ARC
  5
229
330
1F
100
AcDbEntity
  8
C-A
  6
Continuous
 62
     3
370
     9
100
AcDbCircle
 10
-246.1485308569829
 20
807.8647427945526
 30
0.0
 40
2.999960167987927
100
AcDbArc
 50
270.0
 51
90.0
  0
ARC
  5
22A
330
1F
100
AcDbEntity
  8
C-A
  6
Continuous
 62
     3
370
     9
100
AcDbCircle
 10
-280.1484945658089
 20
807.8647427945526
 30
0.0
 40
2.999960167987927
100
AcDbArc
 50
90.0
 51
270.0
  0
ARC
  5
22B
330
1F
100
AcDbEntity
  8
C-A
  6
Continuous
 62
     3
370
     9
100
AcDbCircle
 10
-166.1485143609949
 20
777.8641489389781
 30
0.0
 40
2.999960167987927
100
AcDbArc
 50
270.0
 51
90.0
  0
ARC
  5
22C
330
1F
100
AcDbEntity
  8
C-A
  6
Continuous
 62
     3
370
     9
100
AcDbCircle
 10
-200.1484780698209
 20
777.8641489389781
 30
0.0
 40
2.999960167987927
100
AcDbArc
 50
90.0
 51
270.0
  0
ARC
  5
22D
330
1F
100
AcDbEntity
  8
C-A
  6
Continuous
 62
     3
370
     9
100
AcDbCircle
 10
-166.1485143609949
 20
807.8647427945526
 30
0.0
 40
2.999960167987927
100
AcDbArc
 50
270.0
 51
90.0
  0
ARC
  5
22E
330
1F
100
AcDbEntity
  8
C-A
  6
Continuous
 62
     3
370
     9
100
AcDbCircle
 10
-200.1484780698209
 20
807.8647427945526
 30
0.0
 40
2.999960167987927
100
AcDbArc
 50
90.0
 51
270.0
  0
ARC
  5
22F
330
1F
100
AcDbEntity
  8
C-0
  6
Continuous
 62
     3
370
     9
100
AcDbCircle
 10
669.5062444016744
 20
570.9027594489021
 30
0.0
 40
14.99999922675056
100
AcDbArc
 50
1.165664672851562
 51
89.9994354248047
  0
ARC
  5
230
330
1F
100
AcDbEntity
  8
C-0
  6
Continuous
 62
     3
370
     9
100
AcDbCircle
 10
669.5067392813191
 20
570.9027594489021
 30
0.0
 40
14.99999922675056
100
AcDbArc
 50
270.0
 51
0.0012359619140554
  0
ARC
  5
231
330
1F
100
AcDbEntity
  8
C-0
  6
Continuous
 62
     3
370
     9
100
AcDbCircle
 10
499.5066732973669
 20
570.9027594489021
 30
0.0
 40
14.99999922675056
100
AcDbArc
 50
179.9994049072266
 51
270.0
  0
ARC
  5
232
330
1F
100
AcDbEntity
  8
C-0
  6
Continuous
 62
     3
370
     9
100
AcDbCircle
 10
499.5066732973669
 20
570.9027594489021
 30
0.0
 40
14.99999922675056
100
AcDbArc
 50
89.99996948242188
 51
179.9988098144531
  0
ARC
  5
233
330
1F
100
AcDbEntity
  8
C-9
  6
JWW_DASHED2
 62
     4
370
     9
100
AcDbCircle
 10
-993.1481992876206
 20
814.3642446157096
 30
0.0
 40
1.500000019331236
100
AcDbArc
 50
90.0
 51
180.0
  0
ARC
  5
234
330
1F
100
AcDbEntity
  8
C-9
  6
JWW_DASHED2
 62
     4
370
     9
100
AcDbCircle
 10
-974.1480376269365
 20
814.3642446157096
 30
0.0
 40
1.500000019331236
100
AcDbArc
 50
0.0
 51
90.0
  0
ARC
  5
235
330
1F
100
AcDbEntity
  8
C-9
  6
JWW_DASHED2
 62
     4
370
     9
100
AcDbCircle
 10
-812.1488145879796
 20
814.3642446157096
 30
0.0
 40
1.500000019331236
100
AcDbArc
 50
90.0
 51
180.0
  0
ARC
  5
236
330
1F
100
AcDbEntity
  8
C-9
  6
JWW_DASHED2
 62
     4
370
     9
100
AcDbCircle
 10
-793.1484054874728
 20
814.3642446157096
 30
0.0
 40
1.500000019331236
100
AcDbArc
 50
0.0
 51
90.0
  0
ARC
  5
237
330
1F
100
AcDbEntity
  8
C-9
  6
JWW_DASHED2
 62
     4
370
     9
100
AcDbCircle
 10
-493.1481580476503
 20
814.3642446157096
 30
0.0
 40
1.500000019331236
100
AcDbArc
 50
90.0
 51
180.0
  0
ARC
  5
238
330
1F
100
AcDbEntity
  8
C-9
  6
JWW_DASHED2
 62
     4
370
     9
100
AcDbCircle
 10
-474.1479963869659
 20
814.3642446157096
 30
0.0
 40
1.500000019331236
100
AcDbArc
 50
0.0
 51
90.0
  0
ARC
  5
239
330
1F
100
AcDbEntity
  8
C-9
  6
JWW_DASHED2
 62
     4
370
     9
100
AcDbCircle
 10
-312.1488970679204
 20
814.3642446157096
 30
0.0
 40
1.500000019331236
100
AcDbArc
 50
90.0
 51
180.0
  0
ARC
  5
23A
330
1F
100
AcDbEntity
  8
C-9
  6
JWW_DASHED2
 62
     4
370
     9
100
AcDbCircle
 10
-293.1484879674136
 20
814.3642446157096
 30
0.0
 40
1.500000019331236
100
AcDbArc
 50
0.0
 51
90.0
  0
ARC
  5
23B
330
1F
100
AcDbEntity
  8
C-9
  6
JWW_DASHED2
 62
     4
370
     9
100
AcDbCircle
 10
6.851759472409071
 20
814.3642446157096
 30
0.0
 40
1.500000019331236
100
AcDbArc
 50
90.0
 51
180.0
  0
ARC
  5
23C
330
1F
100
AcDbEntity
  8
C-9
  6
JWW_DASHED2
 62
     4
370
     9
100
AcDbCircle
 10
25.85192113309319
 20
814.3642446157096
 30
0.0
 40
1.500000019331236
100
AcDbArc
 50
0.0
 51
90.0
  0
ARC
  5
23D
330
1F
100
AcDbEntity
  8
C-9
  6
JWW_DASHED2
 62
     4
370
     9
100
AcDbCircle
 10
187.8507730123161
 20
814.3642446157096
 30
0.0
 40
1.500000019331236
100
AcDbArc
 50
90.0
 51
180.0
  0
ARC
  5
23E
330
1F
100
AcDbEntity
  8
C-9
  6
JWW_DASHED2
 62
     4
370
     9
100
AcDbCircle
 10
206.8511821128229
 20
814.3642446157096
 30
0.0
 40
1.500000019331236
100
AcDbArc
 50
0.0
 51
90.0
  0
ARC
  5
23F
330
1F
100
AcDbEntity
  8
C-9
  6
JWW_DASHED2
 62
     4
370
     9
100
AcDbCircle
 10
-993.1481992876206
 20
741.3650430215373
 30
0.0
 40
1.500000019331236
100
AcDbArc
 50
180.0
 51
270.0
  0
ARC
  5
240
330
1F
100
AcDbEntity
  8
C-9
  6
JWW_DASHED2
 62
     4
370
     9
100
AcDbCircle
 10
-974.1480376269365
 20
741.3650430215373
 30
0.0
 40
1.500000019331236
100
AcDbArc
 50
270.0
 51
0.0
  0
ARC
  5
241
330
1F
100
AcDbEntity
  8
C-9
  6
JWW_DASHED2
 62
     4
370
     9
100
AcDbCircle
 10
-812.1488145879796
 20
741.3650430215373
 30
0.0
 40
1.500000019331236
100
AcDbArc
 50
180.0
 51
270.0
  0
ARC
  5
242
330
1F
100
AcDbEntity
  8
C-9
  6
JWW_DASHED2
 62
     4
370
     9
100
AcDbCircle
 10
-793.1484054874728
 20
741.3650430215373
 30
0.0
 40
1.500000019331236
100
AcDbArc
 50
270.0
 51
0.0
  0
ARC
  5
243
330
1F
100
AcDbEntity
  8
C-9
  6
JWW_DASHED2
 62
     4
370
     9
100
AcDbCircle
 10
-493.1481580476503
 20
741.3650430215373
 30
0.0
 40
1.500000019331236
100
AcDbArc
 50
180.0
 51
270.0
  0
ARC
  5
244
330
1F
100
AcDbEntity
  8
C-9
  6
JWW_DASHED2
 62
     4
370
     9
100
AcDbCircle
 10
-474.1479963869659
 20
741.3650430215373
 30
0.0
 40
1.500000019331236
100
AcDbArc
 50
270.0
 51
0.0
  0
ARC
  5
245
330
1F
100
AcDbEntity
  8
C-9
  6
JWW_DASHED2
 62
     4
370
     9
100
AcDbCircle
 10
-312.1488970679204
 20
741.3650430215373
 30
0.0
 40
1.500000019331236
100
AcDbArc
 50
180.0
 51
270.0
  0
ARC
  5
246
330
1F
100
AcDbEntity
  8
C-9
  6
JWW_DASHED2
 62
     4
370
     9
100
AcDbCircle
 10
-293.1484879674136
 20
741.3650430215373
 30
0.0
 40
1.500000019331236
100
AcDbArc
 50
270.0
 51
0.0
  0
ARC
  5
247
330
1F
100
AcDbEntity
  8
C-9
  6
JWW_DASHED2
 62
     4
370
     9
100
AcDbCircle
 10
6.851759472409071
 20
741.3650430215373
 30
0.0
 40
1.500000019331236
100
AcDbArc
 50
180.0
 51
270.0
  0
ARC
  5
248
330
1F
100
AcDbEntity
  8
C-9
  6
JWW_DASHED2
 62
     4
370
     9
100
AcDbCircle
 10
25.85192113309319
 20
741.3650430215373
 30
0.0
 40
1.500000019331236
100
AcDbArc
 50
270.0
 51
0.0
  0
ARC
  5
249
330
1F
100
AcDbEntity
  8
C-9
  6
JWW_DASHED2
 62
     4
370
     9
100
AcDbCircle
 10
187.8507730123161
 20
741.3650430215373
 30
0.0
 40
1.500000019331236
100
AcDbArc
 50
180.0
 51
270.0
  0
ARC
  5
24A
330
1F
100
AcDbEntity
  8
C-9
  6
JWW_DASHED2
 62
     4
370
     9
100
AcDbCircle
 10
206.8511821128229
 20
741.3650430215373
 30
0.0
 40
1.500000019331236
100
AcDbArc
 50
270.0
 51
0.0
  0
TEXT
  5
24B
330
1F
100
AcDbEntity
  8
D-4
  6
Continuous
 62
     2
370
     9
100
AcDbText
 10
-503.9248097909463
 20
-78.47647487331066
 30
0.0
 40
30.48
  1
1
 41
0.9999999999999998
  7
ＭＳ ゴシック
100
AcDbText
  0
TEXT
  5
24C
330
1F
100
AcDbEntity
  8
D-4
  6
Continuous
 62
     2
370
     9
100
AcDbText
 10
-554.7291170584188
 20
-187.2277615603886
 30
0.0
 40
30.48
  1
25
 41
1.0625
  7
ＭＳ ゴシック
100
AcDbText
  0
TEXT
  5
24D
330
1F
100
AcDbEntity
  8
D-5
  6
Continuous
 62
     7
370
     9
100
AcDbText
 10
-345.6232738494872
 20
-148.1244394003378
 30
0.0
 40
22.86
  1
塩ビクッション
 41
1.142857142857143
  7
ＭＳ ゴシック
100
AcDbText
  0
TEXT
  5
24E
330
1F
100
AcDbEntity
  8
D-4
  6
Continuous
 62
     2
370
     9
100
AcDbText
 10
-586.3755321502684
 20
-713.766466097445
 30
0.0
 40
30.48
  1
25～30
 41
1.104166666666667
  7
ＭＳ ゴシック
100
AcDbText
  0
TEXT
  5
24F
330
1F
100
AcDbEntity
  8
D-4
  6
Continuous
 62
     2
370
     9
100
AcDbText
 10
-463.847785898157
 20
-868.2306516575169
 30
0.0
 40
30.48
  1
75～80
 41
1.104166666666667
  7
ＭＳ ゴシック
100
AcDbText
  0
TEXT
  5
250
330
1F
100
AcDbEntity
  8
D-4
  6
Continuous
 62
     2
370
     9
100
AcDbText
 10
65.06583555768891
 20
-514.3005950918657
 30
0.0
 40
30.48
  1
40～50
 50
90.00000250447816
 41
1.104166666666666
  7
ＭＳ ゴシック
100
AcDbText
  0
TEXT
  5
251
330
1F
100
AcDbEntity
  8
D-4
  6
Continuous
 62
     2
370
     9
100
AcDbText
 10
-412.3409593891963
 20
-498.6790291128181
 30
0.0
 40
30.48
  1
29
 50
0.0010007471525833
 41
1.0625
  7
ＭＳ ゴシック
100
AcDbText
  0
TEXT
  5
252
330
1F
100
AcDbEntity
  8
D-4
  6
Continuous
 62
     2
370
     9
100
AcDbText
 10
-218.5694862995265
 20
-450.0374048997205
 30
0.0
 40
30.48
  1
10
 50
90.00000250447816
 41
1.062499999999999
  7
ＭＳ ゴシック
100
AcDbText
  0
TEXT
  5
253
330
1F
100
AcDbEntity
  8
D-4
  6
Continuous
 62
     2
370
     9
100
AcDbText
 10
-218.5694862995265
 20
-382.5371822038801
 30
0.0
 40
30.48
  1
17
 50
90.00000250447816
 41
1.062499999999999
  7
ＭＳ ゴシック
100
AcDbText
  0
TEXT
  5
254
330
1F
100
AcDbEntity
  8
D-4
  6
Continuous
 62
     2
370
     9
100
AcDbText
 10
-777.1020361833945
 20
-402.5372481878328
 30
0.0
 40
30.48
  1
25
 50
90.00000250447816
 41
1.062499999999999
  7
ＭＳ ゴシック
100
AcDbText
  0
TEXT
  5
255
330
1F
100
AcDbEntity
  8
D-4
  6
Continuous
 62
     2
370
     9
100
AcDbText
 10
-429.8675555151862
 20
-78.47647487331066
 30
0.0
 40
30.48
  1
5
 41
0.9999999999999998
  7
ＭＳ ゴシック
100
AcDbText
  0
TEXT
  5
256
330
1F
100
AcDbEntity
  8
D-5
  6
Continuous
 62
     2
370
     9
100
AcDbText
 10
-895.4739218724926
 20
-996.5898122096746
 30
0.0
 40
30.48
  1
断面詳細図　Ｓ＝１：２
 50
359.9999855334116
 41
1.113636363636364
  7
ＭＳ ゴシック
100
AcDbText
  0
TEXT
  5
257
330
1F
100
AcDbEntity
  8
D-5
  6
Continuous
 62
     7
370
     9
100
AcDbText
 10
-289.0389991450952
 20
-260.8032146721916
 30
0.0
 40
22.86
  1
溶接用アンカ－＠５００
 41
1.151515151515152
  7
ＭＳ ゴシック
100
AcDbText
  0
TEXT
  5
258
330
1F
100
AcDbEntity
  8
D-5
  6
Continuous
 62
     7
370
     9
100
AcDbText
 10
-289.4292117453908
 20
-297.3717274598816
 30
0.0
 40
22.86
  1
ｔ＝２．３（ＳＰＨＣ）
 41
1.151515151515152
  7
ＭＳ ゴシック
100
AcDbText
  0
TEXT
  5
259
330
1F
100
AcDbEntity
  8
D-5
  6
Continuous
 62
     2
370
     9
100
AcDbText
 10
465.4945767892377
 20
-825.8306008498733
 30
0.0
 40
30.48
  1
材質：冷間圧延ステンレス鋼板（ＳＵＳ３０４－２Ｂ）
 41
1.12
  7
ＭＳ ゴシック
100
AcDbText
  0
TEXT
  5
25A
330
1F
100
AcDbEntity
  8
D-5
  6
Continuous
 62
     2
370
     9
100
AcDbText
 10
465.4946015332197
 20
-890.8310627375422
 30
0.0
 40
30.48
  1
定尺：３０００
 41
1.107142857142857
  7
ＭＳ ゴシック
100
AcDbText
  0
TEXT
  5
25B
330
1F
100
AcDbEntity
  8
D-5
  6
Continuous
 62
     7
370
     9
100
AcDbText
 10
-346.816638998083
 20
-201.7498452016469
 30
0.0
 40
22.86
  1
ステンレス製受枠ＳＦ０３Ｂ
 41
1.153846153846154
  7
ＭＳ ゴシック
100
AcDbText
  0
TEXT
  5
25C
330
1F
100
AcDbEntity
  8
D-5
  6
Continuous
 62
     2
370
     9
100
AcDbText
 10
405.7829431585367
 20
-760.8308812816723
 30
0.0
 40
30.48
  1
ステンレス製受枠　ＳＦ０３Ｂ
 41
1.116071428571428
  7
ＭＳ ゴシック
100
AcDbText
  0
TEXT
  5
25D
330
1F
100
AcDbEntity
  8
D-5
  6
Continuous
 62
     7
370
     9
100
AcDbText
 10
-1048.736149298178
 20
-606.0902696104307
 30
0.0
 40
22.86
  1
（４ケ／１枚）
 41
1.142857142857143
  7
ＭＳ ゴシック
100
AcDbText
  0
TEXT
  5
25E
330
1F
100
AcDbEntity
  8
D-5
  6
Continuous
 62
     7
370
     9
100
AcDbText
 10
-1036.133848151074
 20
-560.6705869272483
 30
0.0
 40
22.86
  1
　クリップ　
 50
359.9999827106554
 41
1.138888888888889
  7
ＭＳ ゴシック
100
AcDbText
  0
TEXT
  5
25F
330
1F
100
AcDbEntity
  8
D-4
  6
Continuous
 62
     2
370
     9
100
AcDbText
 10
-963.3456609757178
 20
-302.6653766519904
 30
0.0
 40
30.48
  1
3
 50
90.00000250447816
 41
0.9999999999999989
  7
ＭＳ ゴシック
100
AcDbText
  0
TEXT
  5
260
330
1F
100
AcDbEntity
  8
D-5
  6
Continuous
 62
     7
370
     9
100
AcDbText
 10
-342.5146791097279
 20
-83.31772289379218
 30
0.0
 40
22.86
  1
ステンレス製排水用蓋ＳＺ－３Ｃ（ｔ＝３）
 41
1.158333333333333
  7
ＭＳ ゴシック
100
AcDbText
  0
TEXT
  5
261
330
1F
100
AcDbEntity
  8
D-5
  6
Continuous
 62
     7
370
     9
100
AcDbText
 10
-341.3098739933321
 20
-48.69037551467473
 30
0.0
 40
22.86
  1
ノンスリップタイプ　クリップ付
 41
1.155555555555555
  7
ＭＳ ゴシック
100
AcDbText
  0
TEXT
  5
262
330
1F
100
AcDbEntity
  8
D-5
  6
Continuous
 62
     2
370
     9
100
AcDbText
 10
351.1924478170036
 20
-358.1473139252534
 30
0.0
 40
30.48
  1
仕　様
 41
1.083333333333333
  7
ＭＳ ゴシック
100
AcDbText
  0
TEXT
  5
263
330
1F
100
AcDbEntity
  8
D-5
  6
Continuous
 62
     2
370
     9
100
AcDbText
 10
405.7828689265898
 20
-421.0679203837626
 30
0.0
 40
30.48
  1
ノンスリップタイプ跳び出し防止機構付
 41
1.118055555555555
  7
ＭＳ ゴシック
100
AcDbText
  0
TEXT
  5
264
330
1F
100
AcDbEntity
  8
D-5
  6
Continuous
 62
     2
370
     9
100
AcDbText
 10
465.4948242290602
 20
-551.068039979677
 30
0.0
 40
30.48
  1
材質：冷間圧延ステンレス鋼板（ＳＵＳ３０４－２Ｂ）
 41
1.12
  7
ＭＳ ゴシック
100
AcDbText
  0
TEXT
  5
265
330
1F
100
AcDbEntity
  8
D-5
  6
Continuous
 62
     2
370
     9
100
AcDbText
 10
465.49480046787
 20
-616.0680688476505
 30
0.0
 40
30.48
  1
処理：ヘアライン
 50
359.999990016014
 41
1.109375
  7
ＭＳ ゴシック
100
AcDbText
  0
TEXT
  5
266
330
1F
100
AcDbEntity
  8
C-4
  6
Continuous
 62
     2
370
     9
100
AcDbText
 10
-924.3490701108365
 20
963.5040004750846
 30
0.0
 40
30.48
  1
1
 41
0.9999999999999998
  7
ＭＳ ゴシック
100
AcDbText
  0
TEXT
  5
267
330
1F
100
AcDbEntity
  8
C-4
  6
Continuous
 62
     2
370
     9
100
AcDbText
 10
-675.6486529272955
 20
963.5040004750846
 30
0.0
 40
30.48
  1
499
 41
1.083333333333333
  7
ＭＳ ゴシック
100
AcDbText
  0
TEXT
  5
268
330
1F
100
AcDbEntity
  8
C-4
  6
Continuous
 62
     2
370
     9
100
AcDbText
 10
-424.3490288708661
 20
963.5040004750846
 30
0.0
 40
30.48
  1
1
 41
0.9999999999999998
  7
ＭＳ ゴシック
100
AcDbText
  0
TEXT
  5
269
330
1F
100
AcDbEntity
  8
C-4
  6
Continuous
 62
     2
370
     9
100
AcDbText
 10
-175.6486116873249
 20
963.5040004750846
 30
0.0
 40
30.48
  1
499
 41
1.083333333333333
  7
ＭＳ ゴシック
100
AcDbText
  0
TEXT
  5
26A
330
1F
100
AcDbEntity
  8
C-4
  6
Continuous
 62
     2
370
     9
100
AcDbText
 10
75.65119794897143
 20
963.5040004750846
 30
0.0
 40
30.48
  1
1
 41
0.9999999999999998
  7
ＭＳ ゴシック
100
AcDbText
  0
TEXT
  5
26B
330
1F
100
AcDbEntity
  8
C-4
  6
Continuous
 62
     2
370
     9
100
AcDbText
 10
-675.1485770457499
 20
1043.504264410896
 30
0.0
 40
30.48
  1
500
 41
1.083333333333333
  7
ＭＳ ゴシック
100
AcDbText
  0
TEXT
  5
26C
330
1F
100
AcDbEntity
  8
C-4
  6
Continuous
 62
     2
370
     9
100
AcDbText
 10
-175.1486595256908
 20
1043.504264410896
 30
0.0
 40
30.48
  1
500
 41
1.083333333333333
  7
ＭＳ ゴシック
100
AcDbText
  0
TEXT
  5
26D
330
1F
100
AcDbEntity
  8
C-5
  6
Continuous
 62
     7
370
     9
100
AcDbText
 10
-250.359404022629
 20
537.4438391443203
 30
0.0
 40
22.86
  1
被膜厚さ７５μ（色：グレ－）
 41
1.154761904761905
  7
ＭＳ ゴシック
100
AcDbText
  0
TEXT
  5
26E
330
1F
100
AcDbEntity
  8
C-5
  6
Continuous
 62
     2
370
     9
100
AcDbText
 10
-660.6488178871773
 20
448.0051947846284
 30
0.0
 40
30.48
  1
平面詳細図　Ｓ＝１：１０
 41
1.114583333333333
  7
ＭＳ ゴシック
100
AcDbText
  0
TEXT
  5
26F
330
1F
100
AcDbEntity
  8
C-0
  6
Continuous
 62
     2
370
     9
100
AcDbText
 10
563.2565825694319
 20
673.7626080817146
 30
0.0
 40
30.48
  1
40
 41
1.0625
  7
ＭＳ ゴシック
100
AcDbText
  0
TEXT
  5
270
330
1F
100
AcDbEntity
  8
C-0
  6
Continuous
 62
     2
370
     9
100
AcDbText
 10
753.7012519650551
 20
560.9031922220595
 30
0.0
 40
30.48
  1
6
 50
90.00000250447816
 41
1.000000000000001
  7
ＭＳ ゴシック
100
AcDbText
  0
TEXT
  5
271
330
1F
100
AcDbEntity
  8
C-5
  6
Continuous
 62
     2
370
     9
100
AcDbText
 10
346.9140648197484
 20
448.0051947846284
 30
0.0
 40
30.48
  1
排水穴詳細　Ｓ＝１：２
 41
1.113636363636364
  7
ＭＳ ゴシック
100
AcDbText
  0
TEXT
  5
272
330
1F
100
AcDbEntity
  8
C-4
  6
Continuous
 62
     2
370
     9
100
AcDbText
 10
-504.3987436552304
 20
650.5047493929477
 30
0.0
 40
30.48
  1
80
 41
1.0625
  7
ＭＳ ゴシック
100
AcDbText
  0
TEXT
  5
273
330
1F
100
AcDbEntity
  8
C-4
  6
Continuous
 62
     2
370
     9
100
AcDbText
 10
-703.7887097343869
 20
741.6149652438605
 30
0.0
 40
30.48
  1
30
 50
90.00000250447816
 41
1.062500000000001
  7
ＭＳ ゴシック
100
AcDbText
  0
TEXT
  5
274
330
1F
100
AcDbEntity
  8
C-5
  6
Continuous
 62
     7
370
     9
100
AcDbText
 10
94.28631163932195
 20
645.90797191723
 30
0.0
 40
22.86
  1
クリップ（裏面）
 41
1.145833333333333
  7
ＭＳ ゴシック
100
AcDbText
  0
TEXT
  5
275
330
1F
100
AcDbEntity
  8
D-4
  6
Continuous
 62
     2
370
     9
100
AcDbText
 10
-1170.551774050738
 20
33.64568451752554
 30
0.0
 40
30.48
  1
162
 41
1.083333333333333
  7
ＭＳ ゴシック
100
AcDbText
  0
TEXT
  5
276
330
1F
100
AcDbEntity
  8
D-4
  6
Continuous
 62
     2
370
     9
100
AcDbText
 10
-1170.551774050738
 20
-74.75275298247446
 30
0.0
 40
30.48
  1
150
 41
1.083333333333333
  7
ＭＳ ゴシック
100
AcDbText
  0
TEXT
  5
277
330
1F
100
AcDbEntity
  8
D-4
  6
Continuous
 62
     2
370
     9
100
AcDbText
 10
-1170.551774050738
 20
-184.4570541464315
 30
0.0
 40
30.48
  1
100
 41
1.083333333333333
  7
ＭＳ ゴシック
100
AcDbText
  0
LWPOLYLINE
  5
278
330
1F
100
AcDbEntity
  8
D-4
  6
Continuous
 62
     7
370
     9
100
AcDbPolyline
 90
        4
 70
     1
 43
1.0
 10
-440.4799253618394
 20
21.57991976351354
 42
0.4142135623731
 10
-440.9799253618394
 20
22.07991976351354
 42
0.4142135623731
 10
-441.4799253618394
 20
21.57991976351354
 42
0.4142135623731
 10
-440.9799253618394
 20
21.07991976351354
 42
0.4142135623731
  0
LWPOLYLINE
  5
279
330
1F
100
AcDbEntity
  8
D-4
  6
Continuous
 62
     7
370
     9
100
AcDbPolyline
 90
        4
 70
     1
 43
1.0
 10
-470.4790345784779
 20
-89.11574904983098
 42
0.4142135623731
 10
-470.9790345784779
 20
-88.61574904983098
 42
0.4142135623731
 10
-471.4790345784779
 20
-89.11574904983098
 42
0.4142135623731
 10
-470.9790345784779
 20
-89.61574904983098
 42
0.4142135623731
  0
LWPOLYLINE
  5
27A
330
1F
100
AcDbEntity
  8
D-4
  6
Continuous
 62
     7
370
     9
100
AcDbPolyline
 90
        4
 70
     1
 43
1.0
 10
-465.478770642667
 20
-89.11574904983098
 42
0.4142135623731
 10
-465.978770642667
 20
-88.61574904983098
 42
0.4142135623731
 10
-466.478770642667
 20
-89.11574904983098
 42
0.4142135623731
 10
-465.978770642667
 20
-89.61574904983098
 42
0.4142135623731
  0
LWPOLYLINE
  5
27B
330
1F
100
AcDbEntity
  8
D-4
  6
Continuous
 62
     7
370
     9
100
AcDbPolyline
 90
        4
 70
     1
 43
1.0
 10
-440.4799253618394
 20
-89.11574904983098
 42
0.4142135623731
 10
-440.9799253618394
 20
-88.61574904983098
 42
0.4142135623731
 10
-441.4799253618394
 20
-89.11574904983098
 42
0.4142135623731
 10
-440.9799253618394
 20
-89.61574904983098
 42
0.4142135623731
  0
LWPOLYLINE
  5
27C
330
1F
100
AcDbEntity
  8
D-4
  6
Continuous
 62
     7
370
     9
100
AcDbPolyline
 90
        4
 70
     1
 43
1.0
 10
-595.4798181379163
 20
-197.8680254961992
 42
0.4142135623731
 10
-595.9798181379163
 20
-197.3680254961992
 42
0.4142135623731
 10
-596.4798181379161
 20
-197.8680254961992
 42
0.4142135623731
 10
-595.9798181379163
 20
-198.3680254961992
 42
0.4142135623731
  0
LWPOLYLINE
  5
27D
330
1F
100
AcDbEntity
  8
D-4
  6
Continuous
 62
     7
370
     9
100
AcDbPolyline
 90
        4
 70
     1
 43
1.0
 10
-470.4790345784779
 20
-197.8680254961992
 42
0.4142135623731
 10
-470.9790345784779
 20
-197.3680254961992
 42
0.4142135623731
 10
-471.4790345784779
 20
-197.8680254961992
 42
0.4142135623731
 10
-470.9790345784779
 20
-198.3680254961992
 42
0.4142135623731
  0
LWPOLYLINE
  5
27E
330
1F
100
AcDbEntity
  8
D-4
  6
Continuous
 62
     7
370
     9
100
AcDbPolyline
 90
        4
 70
     1
 43
1.0
 10
-765.9622680560961
 20
-318.7874129011824
 42
0.4142135623731
 10
-766.4622680560961
 20
-318.2874129011824
 42
0.4142135623731
 10
-766.9622680560961
 20
-318.7874129011824
 42
0.4142135623731
 10
-766.4622680560961
 20
-319.2874129011824
 42
0.4142135623731
  0
LWPOLYLINE
  5
27F
330
1F
100
AcDbEntity
  8
D-4
  6
Continuous
 62
     7
370
     9
100
AcDbPolyline
 90
        4
 70
     1
 43
1.0
 10
-765.9622680560961
 20
-443.7877015809754
 42
0.4142135623731
 10
-766.4622680560961
 20
-443.2877015809754
 42
0.4142135623731
 10
-766.9622680560961
 20
-443.7877015809754
 42
0.4142135623731
 10
-766.4622680560961
 20
-444.2877015809754
 42
0.4142135623731
  0
LWPOLYLINE
  5
280
330
1F
100
AcDbEntity
  8
D-4
  6
Continuous
 62
     7
370
     9
100
AcDbPolyline
 90
        4
 70
     1
 43
1.0
 10
76.20560171797496
 20
-318.7874129011824
 42
0.4142135623731
 10
75.70560171797496
 20
-318.2874129011824
 42
0.4142135623731
 10
75.20560171797496
 20
-318.7874129011824
 42
0.4142135623731
 10
75.70560171797496
 20
-319.2874129011824
 42
0.4142135623731
  0
LWPOLYLINE
  5
281
330
1F
100
AcDbEntity
  8
D-4
  6
Continuous
 62
     7
370
     9
100
AcDbPolyline
 90
        4
 70
     1
 43
1.0
 10
76.20560171797496
 20
-568.7876191010346
 42
0.4142135623731
 10
75.70560171797496
 20
-568.2876191010347
 42
0.4142135623731
 10
75.20560171797496
 20
-568.7876191010346
 42
0.4142135623731
 10
75.70560171797496
 20
-569.2876191010346
 42
0.4142135623731
  0
LWPOLYLINE
  5
282
330
1F
100
AcDbEntity
  8
D-4
  6
Continuous
 62
     7
370
     9
100
AcDbPolyline
 90
        4
 70
     1
 43
1.0
 10
-207.4292232925826
 20
-318.7874129011824
 42
0.4142135623731
 10
-207.9292232925826
 20
-318.2874129011824
 42
0.4142135623731
 10
-208.4292232925826
 20
-318.7874129011824
 42
0.4142135623731
 10
-207.9292232925826
 20
-319.2874129011824
 42
0.4142135623731
  0
LWPOLYLINE
  5
283
330
1F
100
AcDbEntity
  8
D-4
  6
Continuous
 62
     7
370
     9
100
AcDbPolyline
 90
        4
 70
     1
 43
1.0
 10
-207.4292232925826
 20
-403.7873221732474
 42
0.4142135623731
 10
-207.9292232925826
 20
-403.2873221732474
 42
0.4142135623731
 10
-208.4292232925826
 20
-403.7873221732474
 42
0.4142135623731
 10
-207.9292232925826
 20
-404.2873221732474
 42
0.4142135623731
  0
LWPOLYLINE
  5
284
330
1F
100
AcDbEntity
  8
D-4
  6
Continuous
 62
     7
370
     9
100
AcDbPolyline
 90
        4
 70
     1
 43
1.0
 10
-207.4292232925826
 20
-453.7878582928631
 42
0.4142135623731
 10
-207.9292232925826
 20
-453.2878582928632
 42
0.4142135623731
 10
-208.4292232925826
 20
-453.7878582928631
 42
0.4142135623731
 10
-207.9292232925826
 20
-454.2878582928631
 42
0.4142135623731
  0
LWPOLYLINE
  5
285
330
1F
100
AcDbEntity
  8
D-4
  6
Continuous
 62
     7
370
     9
100
AcDbPolyline
 90
        4
 70
     1
 43
1.0
 10
-440.4793067622829
 20
-509.3183032886401
 42
0.4142135623731
 10
-440.9793067622829
 20
-508.8183032886401
 42
0.4142135623731
 10
-441.4793067622828
 20
-509.3183032886401
 42
0.4142135623731
 10
-440.9793067622829
 20
-509.8183032886401
 42
0.4142135623731
  0
LWPOLYLINE
  5
286
330
1F
100
AcDbEntity
  8
D-4
  6
Continuous
 62
     7
370
     9
100
AcDbPolyline
 90
        4
 70
     1
 43
1.0
 10
-295.4791995383597
 20
-509.3183032886401
 42
0.4142135623731
 10
-295.9791995383597
 20
-508.8183032886401
 42
0.4142135623731
 10
-296.4791995383597
 20
-509.3183032886401
 42
0.4142135623731
 10
-295.9791995383597
 20
-509.8183032886401
 42
0.4142135623731
  0
LWPOLYLINE
  5
287
330
1F
100
AcDbEntity
  8
D-4
  6
Continuous
 62
     7
370
     9
100
AcDbPolyline
 90
        4
 70
     1
 43
1.0
 10
-595.4793232582709
 20
-724.4062351536105
 42
0.4142135623731
 10
-595.9793232582708
 20
-723.9062351536106
 42
0.4142135623731
 10
-596.4793232582708
 20
-724.4062351536105
 42
0.4142135623731
 10
-595.9793232582708
 20
-724.9062351536105
 42
0.4142135623731
  0
LWPOLYLINE
  5
288
330
1F
100
AcDbEntity
  8
D-4
  6
Continuous
 62
     7
370
     9
100
AcDbPolyline
 90
        4
 70
     1
 43
1.0
 10
-445.4790758184482
 20
-724.4062351536105
 42
0.4142135623731
 10
-445.9790758184482
 20
-723.9062351536106
 42
0.4142135623731
 10
-446.4790758184482
 20
-724.4062351536105
 42
0.4142135623731
 10
-445.9790758184482
 20
-724.9062351536105
 42
0.4142135623731
  0
LWPOLYLINE
  5
289
330
1F
100
AcDbEntity
  8
D-4
  6
Continuous
 62
     7
370
     9
100
AcDbPolyline
 90
        4
 70
     1
 43
1.0
 10
-595.4793232582709
 20
-878.8709155933276
 42
0.4142135623731
 10
-595.9793232582708
 20
-878.3709155933276
 42
0.4142135623731
 10
-596.4793232582708
 20
-878.8709155933276
 42
0.4142135623731
 10
-595.9793232582708
 20
-879.3709155933276
 42
0.4142135623731
  0
LWPOLYLINE
  5
28A
330
1F
100
AcDbEntity
  8
D-4
  6
Continuous
 62
     7
370
     9
100
AcDbPolyline
 90
        4
 70
     1
 43
1.0
 10
-195.4783747389508
 20
-878.8709155933276
 42
0.4142135623731
 10
-195.9783747389508
 20
-878.3709155933276
 42
0.4142135623731
 10
-196.4783747389508
 20
-878.8709155933276
 42
0.4142135623731
 10
-195.9783747389508
 20
-879.3709155933276
 42
0.4142135623731
  0
LWPOLYLINE
  5
28B
330
1F
100
AcDbEntity
  8
D-4
  6
Continuous
 62
     7
370
     9
100
AcDbPolyline
 90
        4
 70
     1
 43
1.0
 10
-952.2058923566663
 20
-321.2875448690878
 42
0.4142135623731
 10
-952.7058923566663
 20
-320.7875448690878
 42
0.4142135623731
 10
-953.2058923566661
 20
-321.2875448690878
 42
0.4142135623731
 10
-952.7058923566663
 20
-321.7875448690877
 42
0.4142135623731
  0
LWPOLYLINE
  5
28C
330
1F
100
AcDbEntity
  8
D-4
  6
Continuous
 62
     7
370
     9
100
AcDbPolyline
 90
        4
 70
     1
 43
1.0
 10
-952.2058923566663
 20
-336.2873469172297
 42
0.4142135623731
 10
-952.7058923566663
 20
-335.7873469172297
 42
0.4142135623731
 10
-953.2058923566661
 20
-336.2873469172297
 42
0.4142135623731
 10
-952.7058923566663
 20
-336.7873469172297
 42
0.4142135623731
  0
LWPOLYLINE
  5
28D
330
1F
100
AcDbEntity
  8
C-4
  6
Continuous
 62
     7
370
     9
100
AcDbPolyline
 90
        4
 70
     1
 43
1.0
 10
-893.1486875688706
 20
952.8647262985644
 42
0.4142135623731
 10
-893.6486875688706
 20
953.3647262985643
 42
0.4142135623731
 10
-894.1486875688706
 20
952.8647262985644
 42
0.4142135623731
 10
-893.6486875688706
 20
952.3647262985644
 42
0.4142135623731
  0
LWPOLYLINE
  5
28E
330
1F
100
AcDbEntity
  8
C-4
  6
Continuous
 62
     7
370
     9
100
AcDbPolyline
 90
        4
 70
     1
 43
1.0
 10
-892.1485358057795
 20
952.8647262985644
 42
0.4142135623731
 10
-892.6485358057795
 20
953.3647262985643
 42
0.4142135623731
 10
-893.1485358057795
 20
952.8647262985644
 42
0.4142135623731
 10
-892.6485358057795
 20
952.3647262985644
 42
0.4142135623731
  0
LWPOLYLINE
  5
28F
330
1F
100
AcDbEntity
  8
C-4
  6
Continuous
 62
     7
370
     9
100
AcDbPolyline
 90
        4
 70
     1
 43
1.0
 10
-393.1486463289001
 20
952.8647262985644
 42
0.4142135623731
 10
-393.6486463289
 20
953.3647262985643
 42
0.4142135623731
 10
-394.1486463289
 20
952.8647262985644
 42
0.4142135623731
 10
-393.6486463289
 20
952.3647262985644
 42
0.4142135623731
  0
LWPOLYLINE
  5
290
330
1F
100
AcDbEntity
  8
C-4
  6
Continuous
 62
     7
370
     9
100
AcDbPolyline
 90
        4
 70
     1
 43
1.0
 10
-392.1486182857204
 20
952.8647262985644
 42
0.4142135623731
 10
-392.6486182857204
 20
953.3647262985643
 42
0.4142135623731
 10
-393.1486182857203
 20
952.8647262985644
 42
0.4142135623731
 10
-392.6486182857204
 20
952.3647262985644
 42
0.4142135623731
  0
LWPOLYLINE
  5
291
330
1F
100
AcDbEntity
  8
C-4
  6
Continuous
 62
     7
370
     9
100
AcDbPolyline
 90
        4
 70
     1
 43
1.0
 10
106.8515186309817
 20
952.8647262985644
 42
0.4142135623731
 10
106.3515186309817
 20
953.3647262985643
 42
0.4142135623731
 10
105.8515186309817
 20
952.8647262985644
 42
0.4142135623731
 10
106.3515186309817
 20
952.3647262985644
 42
0.4142135623731
  0
LWPOLYLINE
  5
292
330
1F
100
AcDbEntity
  8
C-4
  6
Continuous
 62
     7
370
     9
100
AcDbPolyline
 90
        4
 70
     1
 43
1.0
 10
107.8514229542502
 20
952.8647262985644
 42
0.4142135623731
 10
107.3514229542502
 20
953.3647262985643
 42
0.4142135623731
 10
106.8514229542502
 20
952.8647262985644
 42
0.4142135623731
 10
107.3514229542502
 20
952.3647262985644
 42
0.4142135623731
  0
LWPOLYLINE
  5
293
330
1F
100
AcDbEntity
  8
C-4
  6
Continuous
 62
     7
370
     9
100
AcDbPolyline
 90
        4
 70
     1
 43
1.0
 10
-892.1485358057795
 20
1032.864000475085
 42
0.4142135623731
 10
-892.6485358057795
 20
1033.364000475085
 42
0.4142135623731
 10
-893.1485358057795
 20
1032.864000475085
 42
0.4142135623731
 10
-892.6485358057795
 20
1032.364000475085
 42
0.4142135623731
  0
LWPOLYLINE
  5
294
330
1F
100
AcDbEntity
  8
C-4
  6
Continuous
 62
     7
370
     9
100
AcDbPolyline
 90
        4
 70
     1
 43
1.0
 10
-392.1486182857204
 20
1032.864000475085
 42
0.4142135623731
 10
-392.6486182857204
 20
1033.364000475085
 42
0.4142135623731
 10
-393.1486182857203
 20
1032.864000475085
 42
0.4142135623731
 10
-392.6486182857204
 20
1032.364000475085
 42
0.4142135623731
  0
LWPOLYLINE
  5
295
330
1F
100
AcDbEntity
  8
C-4
  6
Continuous
 62
     7
370
     9
100
AcDbPolyline
 90
        4
 70
     1
 43
1.0
 10
107.8514229542502
 20
1032.864000475085
 42
0.4142135623731
 10
107.3514229542502
 20
1033.364000475085
 42
0.4142135623731
 10
106.8514229542502
 20
1032.864000475085
 42
0.4142135623731
 10
107.3514229542502
 20
1032.364000475085
 42
0.4142135623731
  0
LWPOLYLINE
  5
296
330
1F
100
AcDbEntity
  8
C-4
  6
Continuous
 62
     7
370
     9
100
AcDbPolyline
 90
        4
 70
     1
 43
1.0
 10
485.0068712492249
 20
663.122344145904
 42
0.4142135623731
 10
484.506871249225
 20
663.6223441459039
 42
0.4142135623731
 10
484.006871249225
 20
663.122344145904
 42
0.4142135623731
 10
484.506871249225
 20
662.622344145904
 42
0.4142135623731
  0
LWPOLYLINE
  5
297
330
1F
100
AcDbEntity
  8
C-4
  6
Continuous
 62
     7
370
     9
100
AcDbPolyline
 90
        4
 70
     1
 43
1.0
 10
685.0070362091067
 20
663.122344145904
 42
0.4142135623731
 10
684.5070362091067
 20
663.6223441459039
 42
0.4142135623731
 10
684.0070362091068
 20
663.122344145904
 42
0.4142135623731
 10
684.5070362091067
 20
662.622344145904
 42
0.4142135623731
  0
LWPOLYLINE
  5
298
330
1F
100
AcDbEntity
  8
C-4
  6
Continuous
 62
     7
370
     9
100
AcDbPolyline
 90
        4
 70
     1
 43
1.0
 10
764.841515463752
 20
555.9029574007602
 42
0.4142135623731
 10
764.3415154637521
 20
556.4029574007601
 42
0.4142135623731
 10
763.8415154637521
 20
555.9029574007602
 42
0.4142135623731
 10
764.3415154637521
 20
555.4029574007602
 42
0.4142135623731
  0
LWPOLYLINE
  5
299
330
1F
100
AcDbEntity
  8
C-4
  6
Continuous
 62
     7
370
     9
100
AcDbPolyline
 90
        4
 70
     1
 43
1.0
 10
764.841515463752
 20
585.902561497044
 42
0.4142135623731
 10
764.3415154637521
 20
586.402561497044
 42
0.4142135623731
 10
763.8415154637521
 20
585.902561497044
 42
0.4142135623731
 10
764.3415154637521
 20
585.4025614970441
 42
0.4142135623731
  0
LWPOLYLINE
  5
29A
330
1F
100
AcDbEntity
  8
C-4
  6
Continuous
 62
     7
370
     9
100
AcDbPolyline
 90
        4
 70
     1
 43
1.0
 10
-522.6487519032246
 20
639.8649803367823
 42
0.4142135623731
 10
-523.1487519032246
 20
640.3649803367823
 42
0.4142135623731
 10
-523.6487519032245
 20
639.8649803367823
 42
0.4142135623731
 10
-523.1487519032246
 20
639.3649803367823
 42
0.4142135623731
  0
LWPOLYLINE
  5
29B
330
1F
100
AcDbEntity
  8
C-4
  6
Continuous
 62
     7
370
     9
100
AcDbPolyline
 90
        4
 70
     1
 43
1.0
 10
-442.6487354072362
 20
639.8649803367823
 42
0.4142135623731
 10
-443.1487354072362
 20
640.3649803367823
 42
0.4142135623731
 10
-443.6487354072362
 20
639.8649803367823
 42
0.4142135623731
 10
-443.1487354072362
 20
639.3649803367823
 42
0.4142135623731
  0
LWPOLYLINE
  5
29C
330
1F
100
AcDbEntity
  8
C-4
  6
Continuous
 62
     7
370
     9
100
AcDbPolyline
 90
        4
 70
     1
 43
1.0
 10
-692.6485704473545
 20
747.8647922825169
 42
0.4142135623731
 10
-693.1485704473545
 20
748.3647922825169
 42
0.4142135623731
 10
-693.6485704473545
 20
747.8647922825169
 42
0.4142135623731
 10
-693.1485704473545
 20
747.364792282517
 42
0.4142135623731
  0
LWPOLYLINE
  5
29D
330
1F
100
AcDbEntity
  8
C-4
  6
Continuous
 62
     7
370
     9
100
AcDbPolyline
 90
        4
 70
     1
 43
1.0
 10
-692.6485704473545
 20
777.8651386982688
 42
0.4142135623731
 10
-693.1485704473545
 20
778.3651386982688
 42
0.4142135623731
 10
-693.6485704473545
 20
777.8651386982688
 42
0.4142135623731
 10
-693.1485704473545
 20
777.3651386982688
 42
0.4142135623731
  0
TEXT
  5
29E
330
1F
100
AcDbEntity
  8
F-4
  6
Continuous
 62
     2
370
     9
100
AcDbText
 10
-765.923531541256
 20
-1324.619796904938
 30
0.0
 40
30.48
  1
ステンレス製　ノンスリップタイプ（セラミック溶射）排水ピット蓋　クリップ付
 41
0.7743243243243242
  7
ＭＳ ゴシック
100
AcDbText
  0
LINE
  5
29F
330
1F
100
AcDbEntity
  8
D-0
  6
Continuous
 62
     7
370
     9
100
AcDbLine
 10
-169.1336237417684
 20
-339.7368714616106
 30
0.0
 11
-169.1336237417684
 21
-338.2365915581987
 31
0.0
  0
LINE
  5
2A0
330
1F
100
AcDbEntity
  8
D-0
  6
Continuous
 62
     7
370
     9
100
AcDbLine
 10
-169.1336237417684
 20
-338.2365915581987
 30
0.0
 11
-167.6338373648153
 21
-338.2365915581987
 31
0.0
  0
LINE
  5
2A1
330
1F
100
AcDbEntity
  8
D-0
  6
Continuous
 62
     7
370
     9
100
AcDbLine
 10
-167.6338373648153
 20
-338.2365915581987
 30
0.0
 11
-167.6338373648153
 21
-339.7368714616106
 31
0.0
  0
LINE
  5
2A2
330
1F
100
AcDbEntity
  8
D-0
  6
Continuous
 62
     7
370
     9
100
AcDbLine
 10
-167.6338373648153
 20
-339.7368714616106
 30
0.0
 11
-169.1336237417684
 21
-339.7368714616106
 31
0.0
  0
LINE
  5
2A3
330
1F
100
AcDbEntity
  8
D-0
  6
Continuous
 62
     7
370
     9
100
AcDbLine
 10
-118.3777986990438
 20
-342.444112043123
 30
0.0
 11
-118.3777986990438
 21
-340.9438321397112
 31
0.0
  0
LINE
  5
2A4
330
1F
100
AcDbEntity
  8
D-0
  6
Continuous
 62
     7
370
     9
100
AcDbLine
 10
-118.3777986990438
 20
-340.9438321397112
 30
0.0
 11
-116.8777834402547
 21
-340.9438321397112
 31
0.0
  0
LINE
  5
2A5
330
1F
100
AcDbEntity
  8
D-0
  6
Continuous
 62
     7
370
     9
100
AcDbLine
 10
-116.8777834402547
 20
-340.9438321397112
 30
0.0
 11
-116.8777834402547
 21
-342.444112043123
 31
0.0
  0
LINE
  5
2A6
330
1F
100
AcDbEntity
  8
D-0
  6
Continuous
 62
     7
370
     9
100
AcDbLine
 10
-116.8777834402547
 20
-342.444112043123
 30
0.0
 11
-118.3777986990438
 21
-342.444112043123
 31
0.0
  0
LINE
  5
2A7
330
1F
100
AcDbEntity
  8
D-0
  6
Continuous
 62
     7
370
     9
100
AcDbLine
 10
-53.40995659699303
 20
-340.4136822030351
 30
0.0
 11
-53.40995659699303
 21
-338.9134022996233
 31
0.0
  0
LINE
  5
2A8
330
1F
100
AcDbEntity
  8
D-0
  6
Continuous
 62
     7
370
     9
100
AcDbLine
 10
-53.40995659699303
 20
-338.9134022996233
 30
0.0
 11
-51.91017022004019
 21
-338.9134022996233
 31
0.0
  0
LINE
  5
2A9
330
1F
100
AcDbEntity
  8
D-0
  6
Continuous
 62
     7
370
     9
100
AcDbLine
 10
-51.91017022004019
 20
-338.9134022996233
 30
0.0
 11
-51.91017022004019
 21
-340.4136822030351
 31
0.0
  0
LINE
  5
2AA
330
1F
100
AcDbEntity
  8
D-0
  6
Continuous
 62
     7
370
     9
100
AcDbLine
 10
-51.91017022004019
 20
-340.4136822030351
 30
0.0
 11
-53.40995659699303
 21
-340.4136822030351
 31
0.0
  0
LINE
  5
2AB
330
1F
100
AcDbEntity
  8
D-0
  6
Continuous
 62
     7
370
     9
100
AcDbLine
 10
-77.77316918244225
 20
-372.8976056382463
 30
0.0
 11
-77.77316918244225
 21
-371.3973233506487
 31
0.0
  0
LINE
  5
2AC
330
1F
100
AcDbEntity
  8
D-0
  6
Continuous
 62
     7
370
     9
100
AcDbLine
 10
-77.77316918244225
 20
-371.3973233506487
 30
0.0
 11
-76.27288689484459
 21
-371.3973233506487
 31
0.0
  0
LINE
  5
2AD
330
1F
100
AcDbEntity
  8
D-0
  6
Continuous
 62
     7
370
     9
100
AcDbLine
 10
-76.27288689484459
 20
-371.3973233506487
 30
0.0
 11
-76.27288689484459
 21
-372.8976056382463
 31
0.0
  0
LINE
  5
2AE
330
1F
100
AcDbEntity
  8
D-0
  6
Continuous
 62
     7
370
     9
100
AcDbLine
 10
-76.27288689484459
 20
-372.8976056382463
 30
0.0
 11
-77.77316918244225
 21
-372.8976056382463
 31
0.0
  0
LINE
  5
2AF
330
1F
100
AcDbEntity
  8
D-0
  6
Continuous
 62
     7
370
     9
100
AcDbLine
 10
-128.3382021414266
 20
-376.8286559388445
 30
0.0
 11
-128.3382021414266
 21
-375.3283736512468
 31
0.0
  0
LINE
  5
2B0
330
1F
100
AcDbEntity
  8
D-0
  6
Continuous
 62
     7
370
     9
100
AcDbLine
 10
-128.3382021414266
 20
-375.3283736512468
 30
0.0
 11
-126.8381868826376
 21
-375.3283736512468
 31
0.0
  0
LINE
  5
2B1
330
1F
100
AcDbEntity
  8
D-0
  6
Continuous
 62
     7
370
     9
100
AcDbLine
 10
-126.8381868826376
 20
-375.3283736512468
 30
0.0
 11
-126.8381868826376
 21
-376.8286559388445
 31
0.0
  0
LINE
  5
2B2
330
1F
100
AcDbEntity
  8
D-0
  6
Continuous
 62
     7
370
     9
100
AcDbLine
 10
-126.8381868826376
 20
-376.8286559388445
 30
0.0
 11
-128.3382021414266
 21
-376.8286559388445
 31
0.0
  0
LINE
  5
2B3
330
1F
100
AcDbEntity
  8
D-0
  6
Continuous
 62
     7
370
     9
100
AcDbLine
 10
-145.4477297293172
 20
-410.7955167100237
 30
0.0
 11
-145.4477297293172
 21
-409.295234422426
 31
0.0
  0
LINE
  5
2B4
330
1F
100
AcDbEntity
  8
D-0
  6
Continuous
 62
     7
370
     9
100
AcDbLine
 10
-145.4477297293172
 20
-409.295234422426
 30
0.0
 11
-143.9474474417196
 21
-409.295234422426
 31
0.0
  0
LINE
  5
2B5
330
1F
100
AcDbEntity
  8
D-0
  6
Continuous
 62
     7
370
     9
100
AcDbLine
 10
-143.9474474417196
 20
-409.295234422426
 30
0.0
 11
-143.9474474417196
 21
-410.7955167100237
 31
0.0
  0
LINE
  5
2B6
330
1F
100
AcDbEntity
  8
D-0
  6
Continuous
 62
     7
370
     9
100
AcDbLine
 10
-143.9474474417196
 20
-410.7955167100237
 30
0.0
 11
-145.4477297293172
 21
-410.7955167100237
 31
0.0
  0
LINE
  5
2B7
330
1F
100
AcDbEntity
  8
D-0
  6
Continuous
 62
     7
370
     9
100
AcDbLine
 10
-176.8039881216512
 20
-396.2237784669206
 30
0.0
 11
-176.8039881216512
 21
-394.7235009476946
 31
0.0
  0
LINE
  5
2B8
330
1F
100
AcDbEntity
  8
D-0
  6
Continuous
 62
     7
370
     9
100
AcDbLine
 10
-176.8039881216512
 20
-394.7235009476946
 30
0.0
 11
-175.3042017446981
 21
-394.7235009476946
 31
0.0
  0
LINE
  5
2B9
330
1F
100
AcDbEntity
  8
D-0
  6
Continuous
 62
     7
370
     9
100
AcDbLine
 10
-175.3042017446981
 20
-394.7235009476946
 30
0.0
 11
-175.3042017446981
 21
-396.2237784669206
 31
0.0
  0
LINE
  5
2BA
330
1F
100
AcDbEntity
  8
D-0
  6
Continuous
 62
     7
370
     9
100
AcDbLine
 10
-175.3042017446981
 20
-396.2237784669206
 30
0.0
 11
-176.8039881216512
 21
-396.2237784669206
 31
0.0
  0
LINE
  5
2BB
330
1F
100
AcDbEntity
  8
D-0
  6
Continuous
 62
     7
370
     9
100
AcDbLine
 10
-187.5283991323934
 20
-437.4438092515276
 30
0.0
 11
-187.5283991323934
 21
-435.9435269639299
 31
0.0
  0
LINE
  5
2BC
330
1F
100
AcDbEntity
  8
D-0
  6
Continuous
 62
     7
370
     9
100
AcDbLine
 10
-187.5283991323934
 20
-435.9435269639299
 30
0.0
 11
-186.0281168447958
 21
-435.9435269639299
 31
0.0
  0
LINE
  5
2BD
330
1F
100
AcDbEntity
  8
D-0
  6
Continuous
 62
     7
370
     9
100
AcDbLine
 10
-186.0281168447958
 20
-435.9435269639299
 30
0.0
 11
-186.0281168447958
 21
-437.4438092515276
 31
0.0
  0
LINE
  5
2BE
330
1F
100
AcDbEntity
  8
D-0
  6
Continuous
 62
     7
370
     9
100
AcDbLine
 10
-186.0281168447958
 20
-437.4438092515276
 30
0.0
 11
-187.5283991323934
 21
-437.4438092515276
 31
0.0
  0
LINE
  5
2BF
330
1F
100
AcDbEntity
  8
D-0
  6
Continuous
 62
     7
370
     9
100
AcDbLine
 10
-150.1849352346883
 20
-445.9861848161028
 30
0.0
 11
-150.1849352346883
 21
-444.4859025285051
 31
0.0
  0
LINE
  5
2C0
330
1F
100
AcDbEntity
  8
D-0
  6
Continuous
 62
     7
370
     9
100
AcDbLine
 10
-150.1849352346883
 20
-444.4859025285051
 30
0.0
 11
-148.6846529470907
 21
-444.4859025285051
 31
0.0
  0
LINE
  5
2C1
330
1F
100
AcDbEntity
  8
D-0
  6
Continuous
 62
     7
370
     9
100
AcDbLine
 10
-148.6846529470907
 20
-444.4859025285051
 30
0.0
 11
-148.6846529470907
 21
-445.9861848161028
 31
0.0
  0
LINE
  5
2C2
330
1F
100
AcDbEntity
  8
D-0
  6
Continuous
 62
     7
370
     9
100
AcDbLine
 10
-148.6846529470907
 20
-445.9861848161028
 30
0.0
 11
-150.1849352346883
 21
-445.9861848161028
 31
0.0
  0
LINE
  5
2C3
330
1F
100
AcDbEntity
  8
D-0
  6
Continuous
 62
     7
370
     9
100
AcDbLine
 10
-97.9801165091024
 20
-450.7109734818742
 30
0.0
 11
-97.9801165091024
 21
-449.2107007310198
 31
0.0
  0
LINE
  5
2C4
330
1F
100
AcDbEntity
  8
D-0
  6
Continuous
 62
     7
370
     9
100
AcDbLine
 10
-97.9801165091024
 20
-449.2107007310198
 30
0.0
 11
-96.48006310334068
 21
-449.2107007310198
 31
0.0
  0
LINE
  5
2C5
330
1F
100
AcDbEntity
  8
D-0
  6
Continuous
 62
     7
370
     9
100
AcDbLine
 10
-96.48006310334068
 20
-449.2107007310198
 30
0.0
 11
-96.48006310334068
 21
-450.7109734818742
 31
0.0
  0
LINE
  5
2C6
330
1F
100
AcDbEntity
  8
D-0
  6
Continuous
 62
     7
370
     9
100
AcDbLine
 10
-96.48006310334068
 20
-450.7109734818742
 30
0.0
 11
-97.9801165091024
 21
-450.7109734818742
 31
0.0
  0
LINE
  5
2C7
330
1F
100
AcDbEntity
  8
D-0
  6
Continuous
 62
     7
370
     9
100
AcDbLine
 10
-43.25904717316519
 20
-443.9557549760149
 30
0.0
 11
-43.25904717316519
 21
-442.4554726884172
 31
0.0
  0
LINE
  5
2C8
330
1F
100
AcDbEntity
  8
D-0
  6
Continuous
 62
     7
370
     9
100
AcDbLine
 10
-43.25904717316519
 20
-442.4554726884172
 30
0.0
 11
-41.75899376740347
 21
-442.4554726884172
 31
0.0
  0
LINE
  5
2C9
330
1F
100
AcDbEntity
  8
D-0
  6
Continuous
 62
     7
370
     9
100
AcDbLine
 10
-41.75899376740347
 20
-442.4554726884172
 30
0.0
 11
-41.75899376740347
 21
-443.9557549760149
 31
0.0
  0
LINE
  5
2CA
330
1F
100
AcDbEntity
  8
D-0
  6
Continuous
 62
     7
370
     9
100
AcDbLine
 10
-41.75899376740347
 20
-443.9557549760149
 30
0.0
 11
-43.25904717316519
 21
-443.9557549760149
 31
0.0
  0
LINE
  5
2CB
330
1F
100
AcDbEntity
  8
D-0
  6
Continuous
 62
     7
370
     9
100
AcDbLine
 10
-55.44040551056725
 20
-404.0279099747942
 30
0.0
 11
-55.44040551056725
 21
-402.5276276871965
 31
0.0
  0
LINE
  5
2CC
330
1F
100
AcDbEntity
  8
D-0
  6
Continuous
 62
     7
370
     9
100
AcDbLine
 10
-55.44040551056725
 20
-402.5276276871965
 30
0.0
 11
-53.94035210480553
 21
-402.5276276871965
 31
0.0
  0
LINE
  5
2CD
330
1F
100
AcDbEntity
  8
D-0
  6
Continuous
 62
     7
370
     9
100
AcDbLine
 10
-53.94035210480553
 20
-402.5276276871965
 30
0.0
 11
-53.94035210480553
 21
-404.0279099747942
 31
0.0
  0
LINE
  5
2CE
330
1F
100
AcDbEntity
  8
D-0
  6
Continuous
 62
     7
370
     9
100
AcDbLine
 10
-53.94035210480553
 20
-404.0279099747942
 30
0.0
 11
-55.44040551056725
 21
-404.0279099747942
 31
0.0
  0
LINE
  5
2CF
330
1F
100
AcDbEntity
  8
D-0
  6
Continuous
 62
     7
370
     9
100
AcDbLine
 10
-415.8513151632772
 20
-333.3185682103441
 30
0.0
 11
-415.8513151632772
 21
-331.8182883069322
 31
0.0
  0
LINE
  5
2D0
330
1F
100
AcDbEntity
  8
D-0
  6
Continuous
 62
     7
370
     9
100
AcDbLine
 10
-415.8513151632772
 20
-331.8182883069322
 30
0.0
 11
-414.3515335546957
 21
-331.8182883069322
 31
0.0
  0
LINE
  5
2D1
330
1F
100
AcDbEntity
  8
D-0
  6
Continuous
 62
     7
370
     9
100
AcDbLine
 10
-414.3515335546957
 20
-331.8182883069322
 30
0.0
 11
-414.3515335546957
 21
-333.3185682103441
 31
0.0
  0
LINE
  5
2D2
330
1F
100
AcDbEntity
  8
D-0
  6
Continuous
 62
     7
370
     9
100
AcDbLine
 10
-414.3515335546957
 20
-333.3185682103441
 30
0.0
 11
-415.8513151632772
 21
-333.3185682103441
 31
0.0
  0
LINE
  5
2D3
330
1F
100
AcDbEntity
  8
D-0
  6
Continuous
 62
     7
370
     9
100
AcDbLine
 10
-389.0464579092489
 20
-350.9706351563738
 30
0.0
 11
-389.0464579092489
 21
-349.4703552529619
 31
0.0
  0
LINE
  5
2D4
330
1F
100
AcDbEntity
  8
D-0
  6
Continuous
 62
     7
370
     9
100
AcDbLine
 10
-389.0464579092489
 20
-349.4703552529619
 30
0.0
 11
-387.5466715322958
 21
-349.4703552529619
 31
0.0
  0
LINE
  5
2D5
330
1F
100
AcDbEntity
  8
D-0
  6
Continuous
 62
     7
370
     9
100
AcDbLine
 10
-387.5466715322958
 20
-349.4703552529619
 30
0.0
 11
-387.5466715322958
 21
-350.9706351563738
 31
0.0
  0
LINE
  5
2D6
330
1F
100
AcDbEntity
  8
D-0
  6
Continuous
 62
     7
370
     9
100
AcDbLine
 10
-387.5466715322958
 20
-350.9706351563738
 30
0.0
 11
-389.0464579092489
 21
-350.9706351563738
 31
0.0
  0
LINE
  5
2D7
330
1F
100
AcDbEntity
  8
D-0
  6
Continuous
 62
     7
370
     9
100
AcDbLine
 10
-370.7408701406942
 20
-385.9973046586321
 30
0.0
 11
-370.7408701406942
 21
-384.4970223710344
 31
0.0
  0
LINE
  5
2D8
330
1F
100
AcDbEntity
  8
D-0
  6
Continuous
 62
     7
370
     9
100
AcDbLine
 10
-370.7408701406942
 20
-384.4970223710344
 30
0.0
 11
-369.2405878530965
 21
-384.4970223710344
 31
0.0
  0
LINE
  5
2D9
330
1F
100
AcDbEntity
  8
D-0
  6
Continuous
 62
     7
370
     9
100
AcDbLine
 10
-369.2405878530965
 20
-384.4970223710344
 30
0.0
 11
-369.2405878530965
 21
-385.9973046586321
 31
0.0
  0
LINE
  5
2DA
330
1F
100
AcDbEntity
  8
D-0
  6
Continuous
 62
     7
370
     9
100
AcDbLine
 10
-369.2405878530965
 20
-385.9973046586321
 30
0.0
 11
-370.7408701406942
 21
-385.9973046586321
 31
0.0
  0
LINE
  5
2DB
330
1F
100
AcDbEntity
  8
D-0
  6
Continuous
 62
     7
370
     9
100
AcDbLine
 10
-336.6119848715292
 20
-345.7033059403703
 30
0.0
 11
-336.6119848715292
 21
-344.2030260369585
 31
0.0
  0
LINE
  5
2DC
330
1F
100
AcDbEntity
  8
D-0
  6
Continuous
 62
     7
370
     9
100
AcDbLine
 10
-336.6119848715292
 20
-344.2030260369585
 30
0.0
 11
-335.1117025839315
 21
-344.2030260369585
 31
0.0
  0
LINE
  5
2DD
330
1F
100
AcDbEntity
  8
D-0
  6
Continuous
 62
     7
370
     9
100
AcDbLine
 10
-335.1117025839315
 20
-344.2030260369585
 30
0.0
 11
-335.1117025839315
 21
-345.7033059403703
 31
0.0
  0
LINE
  5
2DE
330
1F
100
AcDbEntity
  8
D-0
  6
Continuous
 62
     7
370
     9
100
AcDbLine
 10
-335.1117025839315
 20
-345.7033059403703
 30
0.0
 11
-336.6119848715292
 21
-345.7033059403703
 31
0.0
  0
LINE
  5
2DF
330
1F
100
AcDbEntity
  8
D-0
  6
Continuous
 62
     7
370
     9
100
AcDbLine
 10
-266.136015556954
 20
-343.1253812119768
 30
0.0
 11
-266.136015556954
 21
-341.6251013085649
 31
0.0
  0
LINE
  5
2E0
330
1F
100
AcDbEntity
  8
D-0
  6
Continuous
 62
     7
370
     9
100
AcDbLine
 10
-266.136015556954
 20
-341.6251013085649
 30
0.0
 11
-264.6362291800008
 21
-341.6251013085649
 31
0.0
  0
LINE
  5
2E1
330
1F
100
AcDbEntity
  8
D-0
  6
Continuous
 62
     7
370
     9
100
AcDbLine
 10
-264.6362291800008
 20
-341.6251013085649
 30
0.0
 11
-264.6362291800008
 21
-343.1253812119768
 31
0.0
  0
LINE
  5
2E2
330
1F
100
AcDbEntity
  8
D-0
  6
Continuous
 62
     7
370
     9
100
AcDbLine
 10
-264.6362291800008
 20
-343.1253812119768
 30
0.0
 11
-266.136015556954
 21
-343.1253812119768
 31
0.0
  0
LINE
  5
2E3
330
1F
100
AcDbEntity
  8
D-0
  6
Continuous
 62
     7
370
     9
100
AcDbLine
 10
-285.7496439444051
 20
-364.700073938112
 30
0.0
 11
-285.7496439444051
 21
-363.199796418886
 31
0.0
  0
LINE
  5
2E4
330
1F
100
AcDbEntity
  8
D-0
  6
Continuous
 62
     7
370
     9
100
AcDbLine
 10
-285.7496439444051
 20
-363.199796418886
 30
0.0
 11
-284.2493616568075
 21
-363.199796418886
 31
0.0
  0
LINE
  5
2E5
330
1F
100
AcDbEntity
  8
D-0
  6
Continuous
 62
     7
370
     9
100
AcDbLine
 10
-284.2493616568075
 20
-363.199796418886
 30
0.0
 11
-284.2493616568075
 21
-364.700073938112
 31
0.0
  0
LINE
  5
2E6
330
1F
100
AcDbEntity
  8
D-0
  6
Continuous
 62
     7
370
     9
100
AcDbLine
 10
-284.2493616568075
 20
-364.700073938112
 30
0.0
 11
-285.7496439444051
 21
-364.700073938112
 31
0.0
  0
LINE
  5
2E7
330
1F
100
AcDbEntity
  8
D-0
  6
Continuous
 62
     7
370
     9
100
AcDbLine
 10
-272.6742159353719
 20
-389.5438716218279
 30
0.0
 11
-272.6742159353719
 21
-388.0435893342302
 31
0.0
  0
LINE
  5
2E8
330
1F
100
AcDbEntity
  8
D-0
  6
Continuous
 62
     7
370
     9
100
AcDbLine
 10
-272.6742159353719
 20
-388.0435893342302
 30
0.0
 11
-271.1739336477743
 21
-388.0435893342302
 31
0.0
  0
LINE
  5
2E9
330
1F
100
AcDbEntity
  8
D-0
  6
Continuous
 62
     7
370
     9
100
AcDbLine
 10
-271.1739336477743
 20
-388.0435893342302
 30
0.0
 11
-271.1739336477743
 21
-389.5438716218279
 31
0.0
  0
LINE
  5
2EA
330
1F
100
AcDbEntity
  8
D-0
  6
Continuous
 62
     7
370
     9
100
AcDbLine
 10
-271.1739336477743
 20
-389.5438716218279
 30
0.0
 11
-272.6742159353719
 21
-389.5438716218279
 31
0.0
  0
LINE
  5
2EB
330
1F
100
AcDbEntity
  8
D-0
  6
Continuous
 62
     7
370
     9
100
AcDbLine
 10
-268.7511049734579
 20
-428.1166074082658
 30
0.0
 11
-268.7511049734579
 21
-426.6163251206682
 31
0.0
  0
LINE
  5
2EC
330
1F
100
AcDbEntity
  8
D-0
  6
Continuous
 62
     7
370
     9
100
AcDbLine
 10
-268.7511049734579
 20
-426.6163251206682
 30
0.0
 11
-267.2513185965047
 21
-426.6163251206682
 31
0.0
  0
LINE
  5
2ED
330
1F
100
AcDbEntity
  8
D-0
  6
Continuous
 62
     7
370
     9
100
AcDbLine
 10
-267.2513185965047
 20
-426.6163251206682
 30
0.0
 11
-267.2513185965047
 21
-428.1166074082658
 31
0.0
  0
LINE
  5
2EE
330
1F
100
AcDbEntity
  8
D-0
  6
Continuous
 62
     7
370
     9
100
AcDbLine
 10
-267.2513185965047
 20
-428.1166074082658
 30
0.0
 11
-268.7511049734579
 21
-428.1166074082658
 31
0.0
  0
LINE
  5
2EF
330
1F
100
AcDbEntity
  8
D-0
  6
Continuous
 62
     7
370
     9
100
AcDbLine
 10
-96.46942009796959
 20
-413.1455228135393
 30
0.0
 11
-96.46942009796959
 21
-411.6452405259416
 31
0.0
  0
LINE
  5
2F0
330
1F
100
AcDbEntity
  8
D-0
  6
Continuous
 62
     7
370
     9
100
AcDbLine
 10
-96.46942009796959
 20
-411.6452405259416
 30
0.0
 11
-94.96940483918053
 21
-411.6452405259416
 31
0.0
  0
LINE
  5
2F1
330
1F
100
AcDbEntity
  8
D-0
  6
Continuous
 62
     7
370
     9
100
AcDbLine
 10
-94.96940483918053
 20
-411.6452405259416
 30
0.0
 11
-94.96940483918053
 21
-413.1455228135393
 31
0.0
  0
LINE
  5
2F2
330
1F
100
AcDbEntity
  8
D-0
  6
Continuous
 62
     7
370
     9
100
AcDbLine
 10
-94.96940483918053
 20
-413.1455228135393
 30
0.0
 11
-96.46942009796959
 21
-413.1455228135393
 31
0.0
  0
LINE
  5
2F3
330
1F
100
AcDbEntity
  8
D-0
  6
Continuous
 62
     7
370
     9
100
AcDbLine
 10
-35.984343193673
 20
-373.6571595475481
 30
0.0
 11
-35.984343193673
 21
-372.1568772599504
 31
0.0
  0
LINE
  5
2F4
330
1F
100
AcDbEntity
  8
D-0
  6
Continuous
 62
     7
370
     9
100
AcDbLine
 10
-35.984343193673
 20
-372.1568772599504
 30
0.0
 11
-34.48406090607534
 21
-372.1568772599504
 31
0.0
  0
LINE
  5
2F5
330
1F
100
AcDbEntity
  8
D-0
  6
Continuous
 62
     7
370
     9
100
AcDbLine
 10
-34.48406090607534
 20
-372.1568772599504
 30
0.0
 11
-34.48406090607534
 21
-373.6571595475481
 31
0.0
  0
LINE
  5
2F6
330
1F
100
AcDbEntity
  8
D-0
  6
Continuous
 62
     7
370
     9
100
AcDbLine
 10
-34.48406090607534
 20
-373.6571595475481
 30
0.0
 11
-35.984343193673
 21
-373.6571595475481
 31
0.0
  0
LINE
  5
2F7
330
1F
100
AcDbEntity
  8
D-0
  6
Continuous
 62
     7
370
     9
100
AcDbLine
 10
-189.9849306570516
 20
-362.7642772004411
 30
0.0
 11
-189.9849306570516
 21
-361.2639996812151
 31
0.0
  0
LINE
  5
2F8
330
1F
100
AcDbEntity
  8
D-0
  6
Continuous
 62
     7
370
     9
100
AcDbLine
 10
-189.9849306570516
 20
-361.2639996812151
 30
0.0
 11
-188.4846674429403
 21
-361.2639996812151
 31
0.0
  0
LINE
  5
2F9
330
1F
100
AcDbEntity
  8
D-0
  6
Continuous
 62
     7
370
     9
100
AcDbLine
 10
-188.4846674429403
 20
-361.2639996812151
 30
0.0
 11
-188.4846674429403
 21
-362.7642772004411
 31
0.0
  0
LINE
  5
2FA
330
1F
100
AcDbEntity
  8
D-0
  6
Continuous
 62
     7
370
     9
100
AcDbLine
 10
-188.4846674429403
 20
-362.7642772004411
 30
0.0
 11
-189.9849306570516
 21
-362.7642772004411
 31
0.0
  0
LINE
  5
2FB
330
1F
100
AcDbEntity
  8
D-0
  6
Continuous
 62
     7
370
     9
100
AcDbLine
 10
-269.103373192452
 20
-484.9567792222307
 30
0.0
 11
-269.103373192452
 21
-483.4565160081194
 31
0.0
  0
LINE
  5
2FC
330
1F
100
AcDbEntity
  8
D-0
  6
Continuous
 62
     7
370
     9
100
AcDbLine
 10
-269.103373192452
 20
-483.4565160081194
 30
0.0
 11
-267.6030909048544
 21
-483.4565160081194
 31
0.0
  0
LINE
  5
2FD
330
1F
100
AcDbEntity
  8
D-0
  6
Continuous
 62
     7
370
     9
100
AcDbLine
 10
-267.6030909048544
 20
-483.4565160081194
 30
0.0
 11
-267.6030909048544
 21
-484.9567792222307
 31
0.0
  0
LINE
  5
2FE
330
1F
100
AcDbEntity
  8
D-0
  6
Continuous
 62
     7
370
     9
100
AcDbLine
 10
-267.6030909048544
 20
-484.9567792222307
 30
0.0
 11
-269.103373192452
 21
-484.9567792222307
 31
0.0
  0
LINE
  5
2FF
330
1F
100
AcDbEntity
  8
D-0
  6
Continuous
 62
     7
370
     9
100
AcDbLine
 10
-223.9701258169637
 20
-493.9128873154924
 30
0.0
 11
-223.9701258169637
 21
-492.4126050278948
 31
0.0
  0
LINE
  5
300
330
1F
100
AcDbEntity
  8
D-0
  6
Continuous
 62
     7
370
     9
100
AcDbLine
 10
-223.9701258169637
 20
-492.4126050278948
 30
0.0
 11
-222.4698435293661
 21
-492.4126050278948
 31
0.0
  0
LINE
  5
301
330
1F
100
AcDbEntity
  8
D-0
  6
Continuous
 62
     7
370
     9
100
AcDbLine
 10
-222.4698435293661
 20
-492.4126050278948
 30
0.0
 11
-222.4698435293661
 21
-493.9128873154924
 31
0.0
  0
LINE
  5
302
330
1F
100
AcDbEntity
  8
D-0
  6
Continuous
 62
     7
370
     9
100
AcDbLine
 10
-222.4698435293661
 20
-493.9128873154924
 30
0.0
 11
-223.9701258169637
 21
-493.9128873154924
 31
0.0
  0
LINE
  5
303
330
1F
100
AcDbEntity
  8
D-0
  6
Continuous
 62
     7
370
     9
100
AcDbLine
 10
-240.8512484060751
 20
-514.4936559006975
 30
0.0
 11
-240.8512484060751
 21
-512.9933926865862
 31
0.0
  0
LINE
  5
304
330
1F
100
AcDbEntity
  8
D-0
  6
Continuous
 62
     7
370
     9
100
AcDbLine
 10
-240.8512484060751
 20
-512.9933926865862
 30
0.0
 11
-239.3514620291219
 21
-512.9933926865862
 31
0.0
  0
LINE
  5
305
330
1F
100
AcDbEntity
  8
D-0
  6
Continuous
 62
     7
370
     9
100
AcDbLine
 10
-239.3514620291219
 20
-512.9933926865862
 30
0.0
 11
-239.3514620291219
 21
-514.4936559006975
 31
0.0
  0
LINE
  5
306
330
1F
100
AcDbEntity
  8
D-0
  6
Continuous
 62
     7
370
     9
100
AcDbLine
 10
-239.3514620291219
 20
-514.4936559006975
 30
0.0
 11
-240.8512484060751
 21
-514.4936559006975
 31
0.0
  0
LINE
  5
307
330
1F
100
AcDbEntity
  8
D-0
  6
Continuous
 62
     7
370
     9
100
AcDbLine
 10
-289.1312204824911
 20
-549.2017552659319
 30
0.0
 11
-289.1312204824911
 21
-547.7014729783342
 31
0.0
  0
LINE
  5
308
330
1F
100
AcDbEntity
  8
D-0
  6
Continuous
 62
     7
370
     9
100
AcDbLine
 10
-289.1312204824911
 20
-547.7014729783342
 30
0.0
 11
-287.6314341055379
 21
-547.7014729783342
 31
0.0
  0
LINE
  5
309
330
1F
100
AcDbEntity
  8
D-0
  6
Continuous
 62
     7
370
     9
100
AcDbLine
 10
-287.6314341055379
 20
-547.7014729783342
 30
0.0
 11
-287.6314341055379
 21
-549.2017552659319
 31
0.0
  0
LINE
  5
30A
330
1F
100
AcDbEntity
  8
D-0
  6
Continuous
 62
     7
370
     9
100
AcDbLine
 10
-287.6314341055379
 20
-549.2017552659319
 30
0.0
 11
-289.1312204824911
 21
-549.2017552659319
 31
0.0
  0
LINE
  5
30B
330
1F
100
AcDbEntity
  8
D-0
  6
Continuous
 62
     7
370
     9
100
AcDbLine
 10
-218.046301506661
 20
-547.2268101975725
 30
0.0
 11
-218.046301506661
 21
-545.7265279099748
 31
0.0
  0
LINE
  5
30C
330
1F
100
AcDbEntity
  8
D-0
  6
Continuous
 62
     7
370
     9
100
AcDbLine
 10
-218.046301506661
 20
-545.7265279099748
 30
0.0
 11
-216.5460192190633
 21
-545.7265279099748
 31
0.0
  0
LINE
  5
30D
330
1F
100
AcDbEntity
  8
D-0
  6
Continuous
 62
     7
370
     9
100
AcDbLine
 10
-216.5460192190633
 20
-545.7265279099748
 30
0.0
 11
-216.5460192190633
 21
-547.2268101975725
 31
0.0
  0
LINE
  5
30E
330
1F
100
AcDbEntity
  8
D-0
  6
Continuous
 62
     7
370
     9
100
AcDbLine
 10
-216.5460192190633
 20
-547.2268101975725
 30
0.0
 11
-218.046301506661
 21
-547.2268101975725
 31
0.0
  0
LINE
  5
30F
330
1F
100
AcDbEntity
  8
D-0
  6
Continuous
 62
     7
370
     9
100
AcDbLine
 10
-561.533507012032
 20
-441.2455365464494
 30
0.0
 11
-561.533507012032
 21
-439.745263795595
 31
0.0
  0
LINE
  5
310
330
1F
100
AcDbEntity
  8
D-0
  6
Continuous
 62
     7
370
     9
100
AcDbLine
 10
-561.533507012032
 20
-439.745263795595
 30
0.0
 11
-560.0337206350789
 21
-439.745263795595
 31
0.0
  0
LINE
  5
311
330
1F
100
AcDbEntity
  8
D-0
  6
Continuous
 62
     7
370
     9
100
AcDbLine
 10
-560.0337206350789
 20
-439.745263795595
 30
0.0
 11
-560.0337206350789
 21
-441.2455365464494
 31
0.0
  0
LINE
  5
312
330
1F
100
AcDbEntity
  8
D-0
  6
Continuous
 62
     7
370
     9
100
AcDbLine
 10
-560.0337206350789
 20
-441.2455365464494
 30
0.0
 11
-561.533507012032
 21
-441.2455365464494
 31
0.0
  0
LINE
  5
313
330
1F
100
AcDbEntity
  8
D-0
  6
Continuous
 62
     7
370
     9
100
AcDbLine
 10
-573.4723173605428
 20
-468.2431409165666
 30
0.0
 11
-573.4723173605428
 21
-466.742858628969
 31
0.0
  0
LINE
  5
314
330
1F
100
AcDbEntity
  8
D-0
  6
Continuous
 62
     7
370
     9
100
AcDbLine
 10
-573.4723173605428
 20
-466.742858628969
 30
0.0
 11
-571.9725405203328
 21
-466.742858628969
 31
0.0
  0
LINE
  5
315
330
1F
100
AcDbEntity
  8
D-0
  6
Continuous
 62
     7
370
     9
100
AcDbLine
 10
-571.9725405203328
 20
-466.742858628969
 30
0.0
 11
-571.9725405203328
 21
-468.2431409165666
 31
0.0
  0
LINE
  5
316
330
1F
100
AcDbEntity
  8
D-0
  6
Continuous
 62
     7
370
     9
100
AcDbLine
 10
-571.9725405203328
 20
-468.2431409165666
 30
0.0
 11
-573.4723173605428
 21
-468.2431409165666
 31
0.0
  0
LINE
  5
317
330
1F
100
AcDbEntity
  8
D-0
  6
Continuous
 62
     7
370
     9
100
AcDbLine
 10
-498.4370433317648
 20
-483.0521962449358
 30
0.0
 11
-498.4370433317648
 21
-481.5519330308244
 31
0.0
  0
LINE
  5
318
330
1F
100
AcDbEntity
  8
D-0
  6
Continuous
 62
     7
370
     9
100
AcDbLine
 10
-498.4370433317648
 20
-481.5519330308244
 30
0.0
 11
-496.9372593389974
 21
-481.5519330308244
 31
0.0
  0
LINE
  5
319
330
1F
100
AcDbEntity
  8
D-0
  6
Continuous
 62
     7
370
     9
100
AcDbLine
 10
-496.9372593389974
 20
-481.5519330308244
 30
0.0
 11
-496.9372593389974
 21
-483.0521962449358
 31
0.0
  0
LINE
  5
31A
330
1F
100
AcDbEntity
  8
D-0
  6
Continuous
 62
     7
370
     9
100
AcDbLine
 10
-496.9372593389974
 20
-483.0521962449358
 30
0.0
 11
-498.4370433317648
 21
-483.0521962449358
 31
0.0
  0
LINE
  5
31B
330
1F
100
AcDbEntity
  8
D-0
  6
Continuous
 62
     7
370
     9
100
AcDbLine
 10
-484.6159409510122
 20
-511.6843602464006
 30
0.0
 11
-484.6159409510122
 21
-510.184077958803
 31
0.0
  0
LINE
  5
31C
330
1F
100
AcDbEntity
  8
D-0
  6
Continuous
 62
     7
370
     9
100
AcDbLine
 10
-484.6159409510122
 20
-510.184077958803
 30
0.0
 11
-483.1156610476003
 21
-510.184077958803
 31
0.0
  0
LINE
  5
31D
330
1F
100
AcDbEntity
  8
D-0
  6
Continuous
 62
     7
370
     9
100
AcDbLine
 10
-483.1156610476003
 20
-510.184077958803
 30
0.0
 11
-483.1156610476003
 21
-511.6843602464006
 31
0.0
  0
LINE
  5
31E
330
1F
100
AcDbEntity
  8
D-0
  6
Continuous
 62
     7
370
     9
100
AcDbLine
 10
-483.1156610476003
 20
-511.6843602464006
 30
0.0
 11
-484.6159409510122
 21
-511.6843602464006
 31
0.0
  0
LINE
  5
31F
330
1F
100
AcDbEntity
  8
D-0
  6
Continuous
 62
     7
370
     9
100
AcDbLine
 10
-514.23457016816
 20
-572.8965565964983
 30
0.0
 11
-514.23457016816
 21
-571.3962743089006
 31
0.0
  0
LINE
  5
320
330
1F
100
AcDbEntity
  8
D-0
  6
Continuous
 62
     7
370
     9
100
AcDbLine
 10
-514.23457016816
 20
-571.3962743089006
 30
0.0
 11
-512.7347837912068
 21
-571.3962743089006
 31
0.0
  0
LINE
  5
321
330
1F
100
AcDbEntity
  8
D-0
  6
Continuous
 62
     7
370
     9
100
AcDbLine
 10
-512.7347837912068
 20
-571.3962743089006
 30
0.0
 11
-512.7347837912068
 21
-572.8965565964983
 31
0.0
  0
LINE
  5
322
330
1F
100
AcDbEntity
  8
D-0
  6
Continuous
 62
     7
370
     9
100
AcDbLine
 10
-512.7347837912068
 20
-572.8965565964983
 30
0.0
 11
-514.23457016816
 21
-572.8965565964983
 31
0.0
  0
LINE
  5
323
330
1F
100
AcDbEntity
  8
D-0
  6
Continuous
 62
     7
370
     9
100
AcDbLine
 10
-528.0571590887532
 20
-632.1343037888811
 30
0.0
 11
-528.0571590887532
 21
-630.6340215012834
 31
0.0
  0
LINE
  5
324
330
1F
100
AcDbEntity
  8
D-0
  6
Continuous
 62
     7
370
     9
100
AcDbLine
 10
-528.0571590887532
 20
-630.6340215012834
 30
0.0
 11
-526.5568768011556
 21
-630.6340215012834
 31
0.0
  0
LINE
  5
325
330
1F
100
AcDbEntity
  8
D-0
  6
Continuous
 62
     7
370
     9
100
AcDbLine
 10
-526.5568768011556
 20
-630.6340215012834
 30
0.0
 11
-526.5568768011556
 21
-632.1343037888811
 31
0.0
  0
LINE
  5
326
330
1F
100
AcDbEntity
  8
D-0
  6
Continuous
 62
     7
370
     9
100
AcDbLine
 10
-526.5568768011556
 20
-632.1343037888811
 30
0.0
 11
-528.0571590887532
 21
-632.1343037888811
 31
0.0
  0
LINE
  5
327
330
1F
100
AcDbEntity
  8
D-0
  6
Continuous
 62
     7
370
     9
100
AcDbLine
 10
-558.6632524954305
 20
-642.9944989487932
 30
0.0
 11
-558.6632524954305
 21
-641.4942166611955
 31
0.0
  0
LINE
  5
328
330
1F
100
AcDbEntity
  8
D-0
  6
Continuous
 62
     7
370
     9
100
AcDbLine
 10
-558.6632524954305
 20
-641.4942166611955
 30
0.0
 11
-557.1629702078328
 21
-641.4942166611955
 31
0.0
  0
LINE
  5
329
330
1F
100
AcDbEntity
  8
D-0
  6
Continuous
 62
     7
370
     9
100
AcDbLine
 10
-557.1629702078328
 20
-641.4942166611955
 30
0.0
 11
-557.1629702078328
 21
-642.9944989487932
 31
0.0
  0
LINE
  5
32A
330
1F
100
AcDbEntity
  8
D-0
  6
Continuous
 62
     7
370
     9
100
AcDbLine
 10
-557.1629702078328
 20
-642.9944989487932
 30
0.0
 11
-558.6632524954305
 21
-642.9944989487932
 31
0.0
  0
LINE
  5
32B
330
1F
100
AcDbEntity
  8
D-0
  6
Continuous
 62
     7
370
     9
100
AcDbLine
 10
-581.5167509542928
 20
-576.8459317490862
 30
0.0
 11
-581.5167509542928
 21
-575.3456494614885
 31
0.0
  0
LINE
  5
32C
330
1F
100
AcDbEntity
  8
D-0
  6
Continuous
 62
     7
370
     9
100
AcDbLine
 10
-581.5167509542928
 20
-575.3456494614885
 30
0.0
 11
-580.0164686666951
 21
-575.3456494614885
 31
0.0
  0
LINE
  5
32D
330
1F
100
AcDbEntity
  8
D-0
  6
Continuous
 62
     7
370
     9
100
AcDbLine
 10
-580.0164686666951
 20
-575.3456494614885
 30
0.0
 11
-580.0164686666951
 21
-576.8459317490862
 31
0.0
  0
LINE
  5
32E
330
1F
100
AcDbEntity
  8
D-0
  6
Continuous
 62
     7
370
     9
100
AcDbLine
 10
-580.0164686666951
 20
-576.8459317490862
 30
0.0
 11
-581.5167509542928
 21
-576.8459317490862
 31
0.0
  0
LINE
  5
32F
330
1F
100
AcDbEntity
  8
D-0
  6
Continuous
 62
     7
370
     9
100
AcDbLine
 10
-547.8025804983602
 20
-495.8873173997209
 30
0.0
 11
-547.8025804983602
 21
-494.3870351121233
 31
0.0
  0
LINE
  5
330
330
1F
100
AcDbEntity
  8
D-0
  6
Continuous
 62
     7
370
     9
100
AcDbLine
 10
-547.8025804983602
 20
-494.3870351121233
 30
0.0
 11
-546.302794121407
 21
-494.3870351121233
 31
0.0
  0
LINE
  5
331
330
1F
100
AcDbEntity
  8
D-0
  6
Continuous
 62
     7
370
     9
100
AcDbLine
 10
-546.302794121407
 20
-494.3870351121233
 30
0.0
 11
-546.302794121407
 21
-495.8873173997209
 31
0.0
  0
LINE
  5
332
330
1F
100
AcDbEntity
  8
D-0
  6
Continuous
 62
     7
370
     9
100
AcDbLine
 10
-546.302794121407
 20
-495.8873173997209
 30
0.0
 11
-547.8025804983602
 21
-495.8873173997209
 31
0.0
  0
LINE
  5
333
330
1F
100
AcDbEntity
  8
D-0
  6
Continuous
 62
     7
370
     9
100
AcDbLine
 10
-555.7013403402791
 20
-555.1255795762346
 30
0.0
 11
-555.7013403402791
 21
-553.625297288637
 31
0.0
  0
LINE
  5
334
330
1F
100
AcDbEntity
  8
D-0
  6
Continuous
 62
     7
370
     9
100
AcDbLine
 10
-555.7013403402791
 20
-553.625297288637
 30
0.0
 11
-554.2010580526814
 21
-553.625297288637
 31
0.0
  0
LINE
  5
335
330
1F
100
AcDbEntity
  8
D-0
  6
Continuous
 62
     7
370
     9
100
AcDbLine
 10
-554.2010580526814
 20
-553.625297288637
 30
0.0
 11
-554.2010580526814
 21
-555.1255795762346
 31
0.0
  0
LINE
  5
336
330
1F
100
AcDbEntity
  8
D-0
  6
Continuous
 62
     7
370
     9
100
AcDbLine
 10
-554.2010580526814
 20
-555.1255795762346
 30
0.0
 11
-555.7013403402791
 21
-555.1255795762346
 31
0.0
  0
LINE
  5
337
330
1F
100
AcDbEntity
  8
D-0
  6
Continuous
 62
     7
370
     9
100
AcDbLine
 10
-492.5142084585653
 20
-607.6185033128069
 30
0.0
 11
-492.5142084585653
 21
-606.1182210252092
 31
0.0
  0
LINE
  5
338
330
1F
100
AcDbEntity
  8
D-0
  6
Continuous
 62
     7
370
     9
100
AcDbLine
 10
-492.5142084585653
 20
-606.1182210252092
 30
0.0
 11
-491.0139285551534
 21
-606.1182210252092
 31
0.0
  0
LINE
  5
339
330
1F
100
AcDbEntity
  8
D-0
  6
Continuous
 62
     7
370
     9
100
AcDbLine
 10
-491.0139285551534
 20
-606.1182210252092
 30
0.0
 11
-491.0139285551534
 21
-607.6185033128069
 31
0.0
  0
LINE
  5
33A
330
1F
100
AcDbEntity
  8
D-0
  6
Continuous
 62
     7
370
     9
100
AcDbLine
 10
-491.0139285551534
 20
-607.6185033128069
 30
0.0
 11
-492.5142084585653
 21
-607.6185033128069
 31
0.0
  0
LINE
  5
33B
330
1F
100
AcDbEntity
  8
D-0
  6
Continuous
 62
     7
370
     9
100
AcDbLine
 10
-569.5234381185994
 20
-745.4975507066057
 30
0.0
 11
-569.5234381185994
 21
-743.997268419008
 31
0.0
  0
LINE
  5
33C
330
1F
100
AcDbEntity
  8
D-0
  6
Continuous
 62
     7
370
     9
100
AcDbLine
 10
-569.5234381185994
 20
-743.997268419008
 30
0.0
 11
-568.0231558310018
 21
-743.997268419008
 31
0.0
  0
LINE
  5
33D
330
1F
100
AcDbEntity
  8
D-0
  6
Continuous
 62
     7
370
     9
100
AcDbLine
 10
-568.0231558310018
 20
-743.997268419008
 30
0.0
 11
-568.0231558310018
 21
-745.4975507066057
 31
0.0
  0
LINE
  5
33E
330
1F
100
AcDbEntity
  8
D-0
  6
Continuous
 62
     7
370
     9
100
AcDbLine
 10
-568.0231558310018
 20
-745.4975507066057
 30
0.0
 11
-569.5234381185994
 21
-745.4975507066057
 31
0.0
  0
LINE
  5
33F
330
1F
100
AcDbEntity
  8
D-0
  6
Continuous
 62
     7
370
     9
100
AcDbLine
 10
-499.1331755148397
 20
-749.2095944688127
 30
0.0
 11
-499.1331755148397
 21
-747.7093121812151
 31
0.0
  0
LINE
  5
340
330
1F
100
AcDbEntity
  8
D-0
  6
Continuous
 62
     7
370
     9
100
AcDbLine
 10
-499.1331755148397
 20
-747.7093121812151
 30
0.0
 11
-497.6328956114278
 21
-747.7093121812151
 31
0.0
  0
LINE
  5
341
330
1F
100
AcDbEntity
  8
D-0
  6
Continuous
 62
     7
370
     9
100
AcDbLine
 10
-497.6328956114278
 20
-747.7093121812151
 30
0.0
 11
-497.6328956114278
 21
-749.2095944688127
 31
0.0
  0
LINE
  5
342
330
1F
100
AcDbEntity
  8
D-0
  6
Continuous
 62
     7
370
     9
100
AcDbLine
 10
-497.6328956114278
 20
-749.2095944688127
 30
0.0
 11
-499.1331755148397
 21
-749.2095944688127
 31
0.0
  0
LINE
  5
343
330
1F
100
AcDbEntity
  8
D-0
  6
Continuous
 62
     7
370
     9
100
AcDbLine
 10
-474.7427346335874
 20
-775.1161954209612
 30
0.0
 11
-474.7427346335874
 21
-773.6159131333635
 31
0.0
  0
LINE
  5
344
330
1F
100
AcDbEntity
  8
D-0
  6
Continuous
 62
     7
370
     9
100
AcDbLine
 10
-474.7427346335874
 20
-773.6159131333635
 30
0.0
 11
-473.2429507898317
 21
-773.6159131333635
 31
0.0
  0
LINE
  5
345
330
1F
100
AcDbEntity
  8
D-0
  6
Continuous
 62
     7
370
     9
100
AcDbLine
 10
-473.2429507898317
 20
-773.6159131333635
 30
0.0
 11
-473.2429507898317
 21
-775.1161954209612
 31
0.0
  0
LINE
  5
346
330
1F
100
AcDbEntity
  8
D-0
  6
Continuous
 62
     7
370
     9
100
AcDbLine
 10
-473.2429507898317
 20
-775.1161954209612
 30
0.0
 11
-474.7427346335874
 21
-775.1161954209612
 31
0.0
  0
LINE
  5
347
330
1F
100
AcDbEntity
  8
D-0
  6
Continuous
 62
     7
370
     9
100
AcDbLine
 10
-468.4641545044408
 20
-813.3282086655901
 30
0.0
 11
-468.4641545044408
 21
-811.8279263779924
 31
0.0
  0
LINE
  5
348
330
1F
100
AcDbEntity
  8
D-0
  6
Continuous
 62
     7
370
     9
100
AcDbLine
 10
-468.4641545044408
 20
-811.8279263779924
 30
0.0
 11
-466.9638748990522
 21
-811.8279263779924
 31
0.0
  0
LINE
  5
349
330
1F
100
AcDbEntity
  8
D-0
  6
Continuous
 62
     7
370
     9
100
AcDbLine
 10
-466.9638748990522
 20
-811.8279263779924
 30
0.0
 11
-466.9638748990522
 21
-813.3282086655901
 31
0.0
  0
LINE
  5
34A
330
1F
100
AcDbEntity
  8
D-0
  6
Continuous
 62
     7
370
     9
100
AcDbLine
 10
-466.9638748990522
 20
-813.3282086655901
 30
0.0
 11
-468.4641545044408
 21
-813.3282086655901
 31
0.0
  0
LINE
  5
34B
330
1F
100
AcDbEntity
  8
D-0
  6
Continuous
 62
     7
370
     9
100
AcDbLine
 10
-542.6923119055257
 20
-818.7868115708635
 30
0.0
 11
-542.6923119055257
 21
-817.2865292832658
 31
0.0
  0
LINE
  5
34C
330
1F
100
AcDbEntity
  8
D-0
  6
Continuous
 62
     7
370
     9
100
AcDbLine
 10
-542.6923119055257
 20
-817.2865292832658
 30
0.0
 11
-541.1925302969441
 21
-817.2865292832658
 31
0.0
  0
LINE
  5
34D
330
1F
100
AcDbEntity
  8
D-0
  6
Continuous
 62
     7
370
     9
100
AcDbLine
 10
-541.1925302969441
 20
-817.2865292832658
 30
0.0
 11
-541.1925302969441
 21
-818.7868115708635
 31
0.0
  0
LINE
  5
34E
330
1F
100
AcDbEntity
  8
D-0
  6
Continuous
 62
     7
370
     9
100
AcDbLine
 10
-541.1925302969441
 20
-818.7868115708635
 30
0.0
 11
-542.6923119055257
 21
-818.7868115708635
 31
0.0
  0
LINE
  5
34F
330
1F
100
AcDbEntity
  8
D-0
  6
Continuous
 62
     7
370
     9
100
AcDbLine
 10
-577.4217020498738
 20
-809.4903180405901
 30
0.0
 11
-577.4217020498738
 21
-807.9900357529924
 31
0.0
  0
LINE
  5
350
330
1F
100
AcDbEntity
  8
D-0
  6
Continuous
 62
     7
370
     9
100
AcDbLine
 10
-577.4217020498738
 20
-807.9900357529924
 30
0.0
 11
-575.9214197622762
 21
-807.9900357529924
 31
0.0
  0
LINE
  5
351
330
1F
100
AcDbEntity
  8
D-0
  6
Continuous
 62
     7
370
     9
100
AcDbLine
 10
-575.9214197622762
 20
-807.9900357529924
 30
0.0
 11
-575.9214197622762
 21
-809.4903180405901
 31
0.0
  0
LINE
  5
352
330
1F
100
AcDbEntity
  8
D-0
  6
Continuous
 62
     7
370
     9
100
AcDbLine
 10
-575.9214197622762
 20
-809.4903180405901
 30
0.0
 11
-577.4217020498738
 21
-809.4903180405901
 31
0.0
  0
LINE
  5
353
330
1F
100
AcDbEntity
  8
D-0
  6
Continuous
 62
     7
370
     9
100
AcDbLine
 10
-579.6329771505818
 20
-769.1923520371721
 30
0.0
 11
-579.6329771505818
 21
-767.6920697495744
 31
0.0
  0
LINE
  5
354
330
1F
100
AcDbEntity
  8
D-0
  6
Continuous
 62
     7
370
     9
100
AcDbLine
 10
-579.6329771505818
 20
-767.6920697495744
 30
0.0
 11
-578.1331907736287
 21
-767.6920697495744
 31
0.0
  0
LINE
  5
355
330
1F
100
AcDbEntity
  8
D-0
  6
Continuous
 62
     7
370
     9
100
AcDbLine
 10
-578.1331907736287
 20
-767.6920697495744
 30
0.0
 11
-578.1331907736287
 21
-769.1923520371721
 31
0.0
  0
LINE
  5
356
330
1F
100
AcDbEntity
  8
D-0
  6
Continuous
 62
     7
370
     9
100
AcDbLine
 10
-578.1331907736287
 20
-769.1923520371721
 30
0.0
 11
-579.6329771505818
 21
-769.1923520371721
 31
0.0
  0
LINE
  5
357
330
1F
100
AcDbEntity
  8
D-0
  6
Continuous
 62
     7
370
     9
100
AcDbLine
 10
-522.1333300100789
 20
-788.9382931992815
 30
0.0
 11
-522.1333300100789
 21
-787.4380109116838
 31
0.0
  0
LINE
  5
358
330
1F
100
AcDbEntity
  8
D-0
  6
Continuous
 62
     7
370
     9
100
AcDbLine
 10
-522.1333300100789
 20
-787.4380109116838
 30
0.0
 11
-520.6330524908528
 21
-787.4380109116838
 31
0.0
  0
LINE
  5
359
330
1F
100
AcDbEntity
  8
D-0
  6
Continuous
 62
     7
370
     9
100
AcDbLine
 10
-520.6330524908528
 20
-787.4380109116838
 30
0.0
 11
-520.6330524908528
 21
-788.9382931992815
 31
0.0
  0
LINE
  5
35A
330
1F
100
AcDbEntity
  8
D-0
  6
Continuous
 62
     7
370
     9
100
AcDbLine
 10
-520.6330524908528
 20
-788.9382931992815
 30
0.0
 11
-522.1333300100789
 21
-788.9382931992815
 31
0.0
  0
LINE
  5
35B
330
1F
100
AcDbEntity
  8
D-0
  6
Continuous
 62
     7
370
     9
100
AcDbLine
 10
-533.9804874884114
 20
-755.3702542588518
 30
0.0
 11
-533.9804874884114
 21
-753.8699719712541
 31
0.0
  0
LINE
  5
35C
330
1F
100
AcDbEntity
  8
D-0
  6
Continuous
 62
     7
370
     9
100
AcDbLine
 10
-533.9804874884114
 20
-753.8699719712541
 30
0.0
 11
-532.4807011114583
 21
-753.8699719712541
 31
0.0
  0
LINE
  5
35D
330
1F
100
AcDbEntity
  8
D-0
  6
Continuous
 62
     7
370
     9
100
AcDbLine
 10
-532.4807011114583
 20
-753.8699719712541
 30
0.0
 11
-532.4807011114583
 21
-755.3702542588518
 31
0.0
  0
LINE
  5
35E
330
1F
100
AcDbEntity
  8
D-0
  6
Continuous
 62
     7
370
     9
100
AcDbLine
 10
-532.4807011114583
 20
-755.3702542588518
 30
0.0
 11
-533.9804874884114
 21
-755.3702542588518
 31
0.0
  0
LINE
  5
35F
330
1F
100
AcDbEntity
  8
D-0
  6
Continuous
 62
     7
370
     9
100
AcDbLine
 10
-478.692116044663
 20
-641.1865231797502
 30
0.0
 11
-478.692116044663
 21
-639.6862408921526
 31
0.0
  0
LINE
  5
360
330
1F
100
AcDbEntity
  8
D-0
  6
Continuous
 62
     7
370
     9
100
AcDbLine
 10
-478.692116044663
 20
-639.6862408921526
 30
0.0
 11
-477.1923320518957
 21
-639.6862408921526
 31
0.0
  0
LINE
  5
361
330
1F
100
AcDbEntity
  8
D-0
  6
Continuous
 62
     7
370
     9
100
AcDbLine
 10
-477.1923320518957
 20
-639.6862408921526
 30
0.0
 11
-477.1923320518957
 21
-641.1865231797502
 31
0.0
  0
LINE
  5
362
330
1F
100
AcDbEntity
  8
D-0
  6
Continuous
 62
     7
370
     9
100
AcDbLine
 10
-477.1923320518957
 20
-641.1865231797502
 30
0.0
 11
-478.692116044663
 21
-641.1865231797502
 31
0.0
  0
LINE
  5
363
330
1F
100
AcDbEntity
  8
D-0
  6
Continuous
 62
     7
370
     9
100
AcDbLine
 10
-466.8444668280111
 20
-541.3029858872698
 30
0.0
 11
-466.8444668280111
 21
-539.8027035996721
 31
0.0
  0
LINE
  5
364
330
1F
100
AcDbEntity
  8
D-0
  6
Continuous
 62
     7
370
     9
100
AcDbLine
 10
-466.8444668280111
 20
-539.8027035996721
 30
0.0
 11
-465.3446828352438
 21
-539.8027035996721
 31
0.0
  0
LINE
  5
365
330
1F
100
AcDbEntity
  8
D-0
  6
Continuous
 62
     7
370
     9
100
AcDbLine
 10
-465.3446828352438
 20
-539.8027035996721
 30
0.0
 11
-465.3446828352438
 21
-541.3029858872698
 31
0.0
  0
LINE
  5
366
330
1F
100
AcDbEntity
  8
D-0
  6
Continuous
 62
     7
370
     9
100
AcDbLine
 10
-465.3446828352438
 20
-541.3029858872698
 30
0.0
 11
-466.8444668280111
 21
-541.3029858872698
 31
0.0
  0
LINE
  5
367
330
1F
100
AcDbEntity
  8
D-0
  6
Continuous
 62
     7
370
     9
100
AcDbLine
 10
-372.0642649160848
 20
-549.2017552659319
 30
0.0
 11
-372.0642649160848
 21
-547.7014729783342
 31
0.0
  0
LINE
  5
368
330
1F
100
AcDbEntity
  8
D-0
  6
Continuous
 62
     7
370
     9
100
AcDbLine
 10
-372.0642649160848
 20
-547.7014729783342
 30
0.0
 11
-370.5644785391317
 21
-547.7014729783342
 31
0.0
  0
LINE
  5
369
330
1F
100
AcDbEntity
  8
D-0
  6
Continuous
 62
     7
370
     9
100
AcDbLine
 10
-370.5644785391317
 20
-547.7014729783342
 30
0.0
 11
-370.5644785391317
 21
-549.2017552659319
 31
0.0
  0
LINE
  5
36A
330
1F
100
AcDbEntity
  8
D-0
  6
Continuous
 62
     7
370
     9
100
AcDbLine
 10
-370.5644785391317
 20
-549.2017552659319
 30
0.0
 11
-372.0642649160848
 21
-549.2017552659319
 31
0.0
  0
LINE
  5
36B
330
1F
100
AcDbEntity
  8
D-0
  6
Continuous
 62
     7
370
     9
100
AcDbLine
 10
-427.0845829473959
 20
-549.9449536607073
 30
0.0
 11
-427.0845829473959
 21
-548.4446713731096
 31
0.0
  0
LINE
  5
36C
330
1F
100
AcDbEntity
  8
D-0
  6
Continuous
 62
     7
370
     9
100
AcDbLine
 10
-427.0845829473959
 20
-548.4446713731096
 30
0.0
 11
-425.5843054281698
 21
-548.4446713731096
 31
0.0
  0
LINE
  5
36D
330
1F
100
AcDbEntity
  8
D-0
  6
Continuous
 62
     7
370
     9
100
AcDbLine
 10
-425.5843054281698
 20
-548.4446713731096
 30
0.0
 11
-425.5843054281698
 21
-549.9449536607073
 31
0.0
  0
LINE
  5
36E
330
1F
100
AcDbEntity
  8
D-0
  6
Continuous
 62
     7
370
     9
100
AcDbLine
 10
-425.5843054281698
 20
-549.9449536607073
 30
0.0
 11
-427.0845829473959
 21
-549.9449536607073
 31
0.0
  0
LINE
  5
36F
330
1F
100
AcDbEntity
  8
D-0
  6
Continuous
 62
     7
370
     9
100
AcDbLine
 10
-271.0778223501669
 20
-514.5759198472307
 30
0.0
 11
-271.0778223501669
 21
-513.075637559633
 31
0.0
  0
LINE
  5
370
330
1F
100
AcDbEntity
  8
D-0
  6
Continuous
 62
     7
370
     9
100
AcDbLine
 10
-271.0778223501669
 20
-513.075637559633
 30
0.0
 11
-269.5780359732137
 21
-513.075637559633
 31
0.0
  0
LINE
  5
371
330
1F
100
AcDbEntity
  8
D-0
  6
Continuous
 62
     7
370
     9
100
AcDbLine
 10
-269.5780359732137
 20
-513.075637559633
 30
0.0
 11
-269.5780359732137
 21
-514.5759198472307
 31
0.0
  0
LINE
  5
372
330
1F
100
AcDbEntity
  8
D-0
  6
Continuous
 62
     7
370
     9
100
AcDbLine
 10
-269.5780359732137
 20
-514.5759198472307
 30
0.0
 11
-271.0778223501669
 21
-514.5759198472307
 31
0.0
  0
LINE
  5
373
330
1F
100
AcDbEntity
  8
D-0
  6
Continuous
 62
     7
370
     9
100
AcDbLine
 10
-559.6502291189656
 20
-604.4901082322405
 30
0.0
 11
-559.6502291189656
 21
-602.9898450181291
 31
0.0
  0
LINE
  5
374
330
1F
100
AcDbEntity
  8
D-0
  6
Continuous
 62
     7
370
     9
100
AcDbLine
 10
-559.6502291189656
 20
-602.9898450181291
 30
0.0
 11
-558.1504427420125
 21
-602.9898450181291
 31
0.0
  0
LINE
  5
375
330
1F
100
AcDbEntity
  8
D-0
  6
Continuous
 62
     7
370
     9
100
AcDbLine
 10
-558.1504427420125
 20
-602.9898450181291
 30
0.0
 11
-558.1504427420125
 21
-604.4901082322405
 31
0.0
  0
LINE
  5
376
330
1F
100
AcDbEntity
  8
D-0
  6
Continuous
 62
     7
370
     9
100
AcDbLine
 10
-558.1504427420125
 20
-604.4901082322405
 30
0.0
 11
-559.6502291189656
 21
-604.4901082322405
 31
0.0
  0
LINE
  5
377
330
1F
100
AcDbEntity
  8
D-0
  6
Continuous
 62
     7
370
     9
100
AcDbLine
 10
-516.2095056997762
 20
-529.4558331773088
 30
0.0
 11
-516.2095056997762
 21
-527.9555508897112
 31
0.0
  0
LINE
  5
378
330
1F
100
AcDbEntity
  8
D-0
  6
Continuous
 62
     7
370
     9
100
AcDbLine
 10
-516.2095056997762
 20
-527.9555508897112
 30
0.0
 11
-514.7092281805501
 21
-527.9555508897112
 31
0.0
  0
LINE
  5
379
330
1F
100
AcDbEntity
  8
D-0
  6
Continuous
 62
     7
370
     9
100
AcDbLine
 10
-514.7092281805501
 20
-527.9555508897112
 30
0.0
 11
-514.7092281805501
 21
-529.4558331773088
 31
0.0
  0
LINE
  5
37A
330
1F
100
AcDbEntity
  8
D-0
  6
Continuous
 62
     7
370
     9
100
AcDbLine
 10
-514.7092281805501
 20
-529.4558331773088
 30
0.0
 11
-516.2095056997762
 21
-529.4558331773088
 31
0.0
  0
LINE
  5
37B
330
1F
100
AcDbEntity
  8
D-0
  6
Continuous
 62
     7
370
     9
100
AcDbLine
 10
-581.3705908285604
 20
-525.5064389512346
 30
0.0
 11
-581.3705908285604
 21
-524.0061757371233
 31
0.0
  0
LINE
  5
37C
330
1F
100
AcDbEntity
  8
D-0
  6
Continuous
 62
     7
370
     9
100
AcDbLine
 10
-581.3705908285604
 20
-524.0061757371233
 30
0.0
 11
-579.8708044516072
 21
-524.0061757371233
 31
0.0
  0
LINE
  5
37D
330
1F
100
AcDbEntity
  8
D-0
  6
Continuous
 62
     7
370
     9
100
AcDbLine
 10
-579.8708044516072
 20
-524.0061757371233
 30
0.0
 11
-579.8708044516072
 21
-525.5064389512346
 31
0.0
  0
LINE
  5
37E
330
1F
100
AcDbEntity
  8
D-0
  6
Continuous
 62
     7
370
     9
100
AcDbLine
 10
-579.8708044516072
 20
-525.5064389512346
 30
0.0
 11
-581.3705908285604
 21
-525.5064389512346
 31
0.0
  0
LINE
  5
37F
330
1F
100
AcDbEntity
  8
D-0
  6
Continuous
 62
     7
370
     9
100
AcDbLine
 10
-491.8403707968221
 20
-443.3745667741106
 30
0.0
 11
-491.8403707968221
 21
-441.8742940232561
 31
0.0
  0
LINE
  5
380
330
1F
100
AcDbEntity
  8
D-0
  6
Continuous
 62
     7
370
     9
100
AcDbLine
 10
-491.8403707968221
 20
-441.8742940232561
 30
0.0
 11
-490.3405868040548
 21
-441.8742940232561
 31
0.0
  0
LINE
  5
381
330
1F
100
AcDbEntity
  8
D-0
  6
Continuous
 62
     7
370
     9
100
AcDbLine
 10
-490.3405868040548
 20
-441.8742940232561
 30
0.0
 11
-490.3405868040548
 21
-443.3745667741106
 31
0.0
  0
LINE
  5
382
330
1F
100
AcDbEntity
  8
D-0
  6
Continuous
 62
     7
370
     9
100
AcDbLine
 10
-490.3405868040548
 20
-443.3745667741106
 30
0.0
 11
-491.8403707968221
 21
-443.3745667741106
 31
0.0
  0
LINE
  5
383
330
1F
100
AcDbEntity
  8
D-0
  6
Continuous
 62
     7
370
     9
100
AcDbLine
 10
-528.5293375479207
 20
-462.7191541001604
 30
0.0
 11
-528.5293375479207
 21
-461.2188813493059
 31
0.0
  0
LINE
  5
384
330
1F
100
AcDbEntity
  8
D-0
  6
Continuous
 62
     7
370
     9
100
AcDbLine
 10
-528.5293375479207
 20
-461.2188813493059
 30
0.0
 11
-527.0295559393392
 21
-461.2188813493059
 31
0.0
  0
LINE
  5
385
330
1F
100
AcDbEntity
  8
D-0
  6
Continuous
 62
     7
370
     9
100
AcDbLine
 10
-527.0295559393392
 20
-461.2188813493059
 30
0.0
 11
-527.0295559393392
 21
-462.7191541001604
 31
0.0
  0
LINE
  5
386
330
1F
100
AcDbEntity
  8
D-0
  6
Continuous
 62
     7
370
     9
100
AcDbLine
 10
-527.0295559393392
 20
-462.7191541001604
 30
0.0
 11
-528.5293375479207
 21
-462.7191541001604
 31
0.0
  0
LINE
  5
387
330
1F
100
AcDbEntity
  8
D-0
  6
Continuous
 62
     7
370
     9
100
AcDbLine
 10
-472.7682915853487
 20
-574.0505025193498
 30
0.0
 11
-472.7682915853487
 21
-572.5502202317522
 31
0.0
  0
LINE
  5
388
330
1F
100
AcDbEntity
  8
D-0
  6
Continuous
 62
     7
370
     9
100
AcDbLine
 10
-472.7682915853487
 20
-572.5502202317522
 30
0.0
 11
-471.2685076484607
 21
-572.5502202317522
 31
0.0
  0
LINE
  5
389
330
1F
100
AcDbEntity
  8
D-0
  6
Continuous
 62
     7
370
     9
100
AcDbLine
 10
-471.2685076484607
 20
-572.5502202317522
 30
0.0
 11
-471.2685076484607
 21
-574.0505025193498
 31
0.0
  0
LINE
  5
38A
330
1F
100
AcDbEntity
  8
D-0
  6
Continuous
 62
     7
370
     9
100
AcDbLine
 10
-471.2685076484607
 20
-574.0505025193498
 30
0.0
 11
-472.7682915853487
 21
-574.0505025193498
 31
0.0
  0
LINE
  5
38B
330
1F
100
AcDbEntity
  8
D-0
  6
Continuous
 62
     7
370
     9
100
AcDbLine
 10
-532.0060430990682
 20
-596.5918538377092
 30
0.0
 11
-532.0060430990682
 21
-595.0915715501116
 31
0.0
  0
LINE
  5
38C
330
1F
100
AcDbEntity
  8
D-0
  6
Continuous
 62
     7
370
     9
100
AcDbLine
 10
-532.0060430990682
 20
-595.0915715501116
 30
0.0
 11
-530.5057655798421
 21
-595.0915715501116
 31
0.0
  0
LINE
  5
38D
330
1F
100
AcDbEntity
  8
D-0
  6
Continuous
 62
     7
370
     9
100
AcDbLine
 10
-530.5057655798421
 20
-595.0915715501116
 30
0.0
 11
-530.5057655798421
 21
-596.5918538377092
 31
0.0
  0
LINE
  5
38E
330
1F
100
AcDbEntity
  8
D-0
  6
Continuous
 62
     7
370
     9
100
AcDbLine
 10
-530.5057655798421
 20
-596.5918538377092
 30
0.0
 11
-532.0060430990682
 21
-596.5918538377092
 31
0.0
  0
LINE
  5
38F
330
1F
100
AcDbEntity
  8
D-0
  6
Continuous
 62
     7
370
     9
100
AcDbLine
 10
-520.1583944784627
 20
-669.651679734926
 30
0.0
 11
-520.1583944784627
 21
-668.1513974473283
 31
0.0
  0
LINE
  5
390
330
1F
100
AcDbEntity
  8
D-0
  6
Continuous
 62
     7
370
     9
100
AcDbLine
 10
-520.1583944784627
 20
-668.1513974473283
 30
0.0
 11
-518.6586081015096
 21
-668.1513974473283
 31
0.0
  0
LINE
  5
391
330
1F
100
AcDbEntity
  8
D-0
  6
Continuous
 62
     7
370
     9
100
AcDbLine
 10
-518.6586081015096
 20
-668.1513974473283
 30
0.0
 11
-518.6586081015096
 21
-669.651679734926
 31
0.0
  0
LINE
  5
392
330
1F
100
AcDbEntity
  8
D-0
  6
Continuous
 62
     7
370
     9
100
AcDbLine
 10
-518.6586081015096
 20
-669.651679734926
 30
0.0
 11
-520.1583944784627
 21
-669.651679734926
 31
0.0
  0
LINE
  5
393
330
1F
100
AcDbEntity
  8
D-0
  6
Continuous
 62
     7
370
     9
100
AcDbLine
 10
-568.5359655844197
 20
-668.6642072007463
 30
0.0
 11
-568.5359655844197
 21
-667.1639249131487
 31
0.0
  0
LINE
  5
394
330
1F
100
AcDbEntity
  8
D-0
  6
Continuous
 62
     7
370
     9
100
AcDbLine
 10
-568.5359655844197
 20
-667.1639249131487
 30
0.0
 11
-567.0356832968221
 21
-667.1639249131487
 31
0.0
  0
LINE
  5
395
330
1F
100
AcDbEntity
  8
D-0
  6
Continuous
 62
     7
370
     9
100
AcDbLine
 10
-567.0356832968221
 20
-667.1639249131487
 30
0.0
 11
-567.0356832968221
 21
-668.6642072007463
 31
0.0
  0
LINE
  5
396
330
1F
100
AcDbEntity
  8
D-0
  6
Continuous
 62
     7
370
     9
100
AcDbLine
 10
-567.0356832968221
 20
-668.6642072007463
 30
0.0
 11
-568.5359655844197
 21
-668.6642072007463
 31
0.0
  0
LINE
  5
397
330
1F
100
AcDbEntity
  8
D-0
  6
Continuous
 62
     7
370
     9
100
AcDbLine
 10
-555.5829226004109
 20
-787.7699658677385
 30
0.0
 11
-555.5829226004109
 21
-786.2696835801408
 31
0.0
  0
LINE
  5
398
330
1F
100
AcDbEntity
  8
D-0
  6
Continuous
 62
     7
370
     9
100
AcDbLine
 10
-555.5829226004109
 20
-786.2696835801408
 30
0.0
 11
-554.0826498495564
 21
-786.2696835801408
 31
0.0
  0
LINE
  5
399
330
1F
100
AcDbEntity
  8
D-0
  6
Continuous
 62
     7
370
     9
100
AcDbLine
 10
-554.0826498495564
 20
-786.2696835801408
 30
0.0
 11
-554.0826498495564
 21
-787.7699658677385
 31
0.0
  0
LINE
  5
39A
330
1F
100
AcDbEntity
  8
D-0
  6
Continuous
 62
     7
370
     9
100
AcDbLine
 10
-554.0826498495564
 20
-787.7699658677385
 30
0.0
 11
-555.5829226004109
 21
-787.7699658677385
 31
0.0
  0
LINE
  5
39B
330
1F
100
AcDbEntity
  8
D-0
  6
Continuous
 62
     7
370
     9
100
AcDbLine
 10
-505.0569998251424
 20
-817.2776028916643
 30
0.0
 11
-505.0569998251424
 21
-815.7773206040666
 31
0.0
  0
LINE
  5
39C
330
1F
100
AcDbEntity
  8
D-0
  6
Continuous
 62
     7
370
     9
100
AcDbLine
 10
-505.0569998251424
 20
-815.7773206040666
 30
0.0
 11
-503.5572158323751
 21
-815.7773206040666
 31
0.0
  0
LINE
  5
39D
330
1F
100
AcDbEntity
  8
D-0
  6
Continuous
 62
     7
370
     9
100
AcDbLine
 10
-503.5572158323751
 20
-815.7773206040666
 30
0.0
 11
-503.5572158323751
 21
-817.2776028916643
 31
0.0
  0
LINE
  5
39E
330
1F
100
AcDbEntity
  8
D-0
  6
Continuous
 62
     7
370
     9
100
AcDbLine
 10
-503.5572158323751
 20
-817.2776028916643
 30
0.0
 11
-505.0569998251424
 21
-817.2776028916643
 31
0.0
  0
LINE
  5
39F
330
1F
100
AcDbEntity
  8
D-0
  6
Continuous
 62
     7
370
     9
100
AcDbLine
 10
-468.8189100252615
 20
-741.5481564805315
 30
0.0
 11
-468.8189100252615
 21
-740.0479123399065
 31
0.0
  0
LINE
  5
3A0
330
1F
100
AcDbEntity
  8
D-0
  6
Continuous
 62
     7
370
     9
100
AcDbLine
 10
-468.8189100252615
 20
-740.0479123399065
 30
0.0
 11
-467.3191260324941
 21
-740.0479123399065
 31
0.0
  0
LINE
  5
3A1
330
1F
100
AcDbEntity
  8
D-0
  6
Continuous
 62
     7
370
     9
100
AcDbLine
 10
-467.3191260324941
 20
-740.0479123399065
 30
0.0
 11
-467.3191260324941
 21
-741.5481564805315
 31
0.0
  0
LINE
  5
3A2
330
1F
100
AcDbEntity
  8
D-0
  6
Continuous
 62
     7
370
     9
100
AcDbLine
 10
-467.3191260324941
 20
-741.5481564805315
 30
0.0
 11
-468.8189100252615
 21
-741.5481564805315
 31
0.0
  0
LINE
  5
3A3
330
1F
100
AcDbEntity
  8
D-0
  6
Continuous
 62
     7
370
     9
100
AcDbLine
 10
-585.8516108023152
 20
-623.4848973557756
 30
0.0
 11
-585.8516108023152
 21
-621.984615068178
 31
0.0
  0
LINE
  5
3A4
330
1F
100
AcDbEntity
  8
D-0
  6
Continuous
 62
     7
370
     9
100
AcDbLine
 10
-585.8516108023152
 20
-621.984615068178
 30
0.0
 11
-584.3518244253621
 21
-621.984615068178
 31
0.0
  0
LINE
  5
3A5
330
1F
100
AcDbEntity
  8
D-0
  6
Continuous
 62
     7
370
     9
100
AcDbLine
 10
-584.3518244253621
 20
-621.984615068178
 30
0.0
 11
-584.3518244253621
 21
-623.4848973557756
 31
0.0
  0
LINE
  5
3A6
330
1F
100
AcDbEntity
  8
D-0
  6
Continuous
 62
     7
370
     9
100
AcDbLine
 10
-584.3518244253621
 20
-623.4848973557756
 30
0.0
 11
-585.8516108023152
 21
-623.4848973557756
 31
0.0
  0
LINE
  5
3A7
330
1F
100
AcDbEntity
  8
D-0
  6
Continuous
 62
     7
370
     9
100
AcDbLine
 10
-243.4420572744833
 20
-471.7550179765032
 30
0.0
 11
-243.4420572744833
 21
-470.2547452256487
 31
0.0
  0
LINE
  5
3A8
330
1F
100
AcDbEntity
  8
D-0
  6
Continuous
 62
     7
370
     9
100
AcDbLine
 10
-243.4420572744833
 20
-470.2547452256487
 30
0.0
 11
-241.9417749868856
 21
-470.2547452256487
 31
0.0
  0
LINE
  5
3A9
330
1F
100
AcDbEntity
  8
D-0
  6
Continuous
 62
     7
370
     9
100
AcDbLine
 10
-241.9417749868856
 20
-470.2547452256487
 30
0.0
 11
-241.9417749868856
 21
-471.7550179765032
 31
0.0
  0
LINE
  5
3AA
330
1F
100
AcDbEntity
  8
D-0
  6
Continuous
 62
     7
370
     9
100
AcDbLine
 10
-241.9417749868856
 20
-471.7550179765032
 30
0.0
 11
-243.4420572744833
 21
-471.7550179765032
 31
0.0
  0
LINE
  5
3AB
330
1F
100
AcDbEntity
  8
D-0
  6
Continuous
 62
     7
370
     9
100
AcDbLine
 10
-468.9298950659261
 20
-667.218932847719
 30
0.0
 11
-468.9298950659261
 21
-665.7186505601213
 31
0.0
  0
LINE
  5
3AC
330
1F
100
AcDbEntity
  8
D-0
  6
Continuous
 62
     7
370
     9
100
AcDbLine
 10
-468.9298950659261
 20
-665.7186505601213
 30
0.0
 11
-467.4301110731588
 21
-665.7186505601213
 31
0.0
  0
LINE
  5
3AD
330
1F
100
AcDbEntity
  8
D-0
  6
Continuous
 62
     7
370
     9
100
AcDbLine
 10
-467.4301110731588
 20
-665.7186505601213
 30
0.0
 11
-467.4301110731588
 21
-667.218932847719
 31
0.0
  0
LINE
  5
3AE
330
1F
100
AcDbEntity
  8
D-0
  6
Continuous
 62
     7
370
     9
100
AcDbLine
 10
-467.4301110731588
 20
-667.218932847719
 30
0.0
 11
-468.9298950659261
 21
-667.218932847719
 31
0.0
  0
LINE
  5
3AF
330
1F
100
AcDbEntity
  8
D-0
  6
Continuous
 62
     7
370
     9
100
AcDbLine
 10
-493.6602269636617
 20
-790.5649182603166
 30
0.0
 11
-493.6602269636617
 21
-789.064635972719
 31
0.0
  0
LINE
  5
3B0
330
1F
100
AcDbEntity
  8
D-0
  6
Continuous
 62
     7
370
     9
100
AcDbLine
 10
-493.6602269636617
 20
-789.064635972719
 30
0.0
 11
-492.1604429708944
 21
-789.064635972719
 31
0.0
  0
LINE
  5
3B1
330
1F
100
AcDbEntity
  8
D-0
  6
Continuous
 62
     7
370
     9
100
AcDbLine
 10
-492.1604429708944
 20
-789.064635972719
 30
0.0
 11
-492.1604429708944
 21
-790.5649182603166
 31
0.0
  0
LINE
  5
3B2
330
1F
100
AcDbEntity
  8
D-0
  6
Continuous
 62
     7
370
     9
100
AcDbLine
 10
-492.1604429708944
 20
-790.5649182603166
 30
0.0
 11
-493.6602269636617
 21
-790.5649182603166
 31
0.0
  0
LINE
  5
3B3
330
1F
100
AcDbEntity
  8
D-0
  6
Continuous
 62
     7
370
     9
100
AcDbLine
 10
-252.7256571279989
 20
-543.1946751878069
 30
0.0
 11
-252.7256571279989
 21
-541.6944119736955
 31
0.0
  0
LINE
  5
3B4
330
1F
100
AcDbEntity
  8
D-0
  6
Continuous
 62
     7
370
     9
100
AcDbLine
 10
-252.7256571279989
 20
-541.6944119736955
 30
0.0
 11
-251.2253748404012
 21
-541.6944119736955
 31
0.0
  0
LINE
  5
3B5
330
1F
100
AcDbEntity
  8
D-0
  6
Continuous
 62
     7
370
     9
100
AcDbLine
 10
-251.2253748404012
 20
-541.6944119736955
 30
0.0
 11
-251.2253748404012
 21
-543.1946751878069
 31
0.0
  0
LINE
  5
3B6
330
1F
100
AcDbEntity
  8
D-0
  6
Continuous
 62
     7
370
     9
100
AcDbLine
 10
-251.2253748404012
 20
-543.1946751878069
 30
0.0
 11
-252.7256571279989
 21
-543.1946751878069
 31
0.0
  0
LINE
  5
3B7
330
1F
100
AcDbEntity
  8
D-0
  6
Continuous
 62
     7
370
     9
100
AcDbLine
 10
-465.3456740604864
 20
-464.6936032578752
 30
0.0
 11
-465.3456740604864
 21
-463.1933209702776
 31
0.0
  0
LINE
  5
3B8
330
1F
100
AcDbEntity
  8
D-0
  6
Continuous
 62
     7
370
     9
100
AcDbLine
 10
-465.3456740604864
 20
-463.1933209702776
 30
0.0
 11
-463.8453941570745
 21
-463.1933209702776
 31
0.0
  0
LINE
  5
3B9
330
1F
100
AcDbEntity
  8
D-0
  6
Continuous
 62
     7
370
     9
100
AcDbLine
 10
-463.8453941570745
 20
-463.1933209702776
 30
0.0
 11
-463.8453941570745
 21
-464.6936032578752
 31
0.0
  0
LINE
  5
3BA
330
1F
100
AcDbEntity
  8
D-0
  6
Continuous
 62
     7
370
     9
100
AcDbLine
 10
-463.8453941570745
 20
-464.6936032578752
 30
0.0
 11
-465.3456740604864
 21
-464.6936032578752
 31
0.0
  0
LINE
  5
3BB
330
1F
100
AcDbEntity
  8
D-0
  6
Continuous
 62
     7
370
     9
100
AcDbLine
 10
-451.4324151503072
 20
-489.9907491013811
 30
0.0
 11
-451.4324151503072
 21
-488.4904668137834
 31
0.0
  0
LINE
  5
3BC
330
1F
100
AcDbEntity
  8
D-0
  6
Continuous
 62
     7
370
     9
100
AcDbLine
 10
-451.4324151503072
 20
-488.4904668137834
 30
0.0
 11
-449.9321352468954
 21
-488.4904668137834
 31
0.0
  0
LINE
  5
3BD
330
1F
100
AcDbEntity
  8
D-0
  6
Continuous
 62
     7
370
     9
100
AcDbLine
 10
-449.9321352468954
 20
-488.4904668137834
 30
0.0
 11
-449.9321352468954
 21
-489.9907491013811
 31
0.0
  0
LINE
  5
3BE
330
1F
100
AcDbEntity
  8
D-0
  6
Continuous
 62
     7
370
     9
100
AcDbLine
 10
-449.9321352468954
 20
-489.9907491013811
 30
0.0
 11
-451.4324151503072
 21
-489.9907491013811
 31
0.0
  0
LINE
  5
3BF
330
1F
100
AcDbEntity
  8
D-0
  6
Continuous
 62
     7
370
     9
100
AcDbLine
 10
-398.5133778082357
 20
-525.3127095505998
 30
0.0
 11
-398.5133778082357
 21
-523.8124463364885
 31
0.0
  0
LINE
  5
3C0
330
1F
100
AcDbEntity
  8
D-0
  6
Continuous
 62
     7
370
     9
100
AcDbLine
 10
-398.5133778082357
 20
-523.8124463364885
 30
0.0
 11
-397.0135914312826
 21
-523.8124463364885
 31
0.0
  0
LINE
  5
3C1
330
1F
100
AcDbEntity
  8
D-0
  6
Continuous
 62
     7
370
     9
100
AcDbLine
 10
-397.0135914312826
 20
-523.8124463364885
 30
0.0
 11
-397.0135914312826
 21
-525.3127095505998
 31
0.0
  0
LINE
  5
3C2
330
1F
100
AcDbEntity
  8
D-0
  6
Continuous
 62
     7
370
     9
100
AcDbLine
 10
-397.0135914312826
 20
-525.3127095505998
 30
0.0
 11
-398.5133778082357
 21
-525.3127095505998
 31
0.0
  0
LINE
  5
3C3
330
1F
100
AcDbEntity
  8
D-0
  6
Continuous
 62
     7
370
     9
100
AcDbLine
 10
-370.6700121389852
 20
-331.0186025903032
 30
0.0
 11
-370.6700121389852
 21
-329.5183226868913
 31
0.0
  0
LINE
  5
3C4
330
1F
100
AcDbEntity
  8
D-0
  6
Continuous
 62
     7
370
     9
100
AcDbLine
 10
-370.6700121389852
 20
-329.5183226868913
 30
0.0
 11
-369.1702257620321
 21
-329.5183226868913
 31
0.0
  0
LINE
  5
3C5
330
1F
100
AcDbEntity
  8
D-0
  6
Continuous
 62
     7
370
     9
100
AcDbLine
 10
-369.1702257620321
 20
-329.5183226868913
 30
0.0
 11
-369.1702257620321
 21
-331.0186025903032
 31
0.0
  0
LINE
  5
3C6
330
1F
100
AcDbEntity
  8
D-0
  6
Continuous
 62
     7
370
     9
100
AcDbLine
 10
-369.1702257620321
 20
-331.0186025903032
 30
0.0
 11
-370.6700121389852
 21
-331.0186025903032
 31
0.0
  0
LINE
  5
3C7
330
1F
100
AcDbEntity
  8
D-0
  6
Continuous
 62
     7
370
     9
100
AcDbLine
 10
-300.8658968435751
 20
-338.4303197667406
 30
0.0
 11
-300.8658968435751
 21
-336.9300398633287
 31
0.0
  0
LINE
  5
3C8
330
1F
100
AcDbEntity
  8
D-0
  6
Continuous
 62
     7
370
     9
100
AcDbLine
 10
-300.8658968435751
 20
-336.9300398633287
 30
0.0
 11
-299.3661104666219
 21
-336.9300398633287
 31
0.0
  0
LINE
  5
3C9
330
1F
100
AcDbEntity
  8
D-0
  6
Continuous
 62
     7
370
     9
100
AcDbLine
 10
-299.3661104666219
 20
-336.9300398633287
 30
0.0
 11
-299.3661104666219
 21
-338.4303197667406
 31
0.0
  0
LINE
  5
3CA
330
1F
100
AcDbEntity
  8
D-0
  6
Continuous
 62
     7
370
     9
100
AcDbLine
 10
-299.3661104666219
 20
-338.4303197667406
 30
0.0
 11
-300.8658968435751
 21
-338.4303197667406
 31
0.0
  0
LINE
  5
3CB
330
1F
100
AcDbEntity
  8
C-1
  6
Continuous
 62
     2
370
     9
100
AcDbLine
 10
-1143.6486463289
 20
858.8640532622467
 30
0.0
 11
357.3510105545456
 21
858.8640532622467
 31
0.0
  0
LINE
  5
3CC
330
1F
100
AcDbEntity
  8
C-1
  6
Continuous
 62
     2
370
     9
100
AcDbLine
 10
357.3510105545458
 20
696.8649869351776
 30
0.0
 11
-1143.6486463289
 21
696.8649869351776
 31
0.0
  0
TEXT
  5
3CD
330
1F
100
AcDbEntity
  8
C-5
  6
Continuous
 62
     7
370
     9
100
AcDbText
 10
-140.9518541387608
 20
590.4182975810285
 30
0.0
 40
22.86
  1
セラミック溶射
 41
1.142857142857143
  7
ＭＳ ゴシック
100
AcDbText
  0
TEXT
  5
3CE
330
1F
100
AcDbEntity
  8
D-5
  6
Continuous
 62
     2
370
     9
100
AcDbText
 10
465.4948971444448
 20
-682.6194835435873
 30
0.0
 40
30.48
  1
定尺：４９９
 50
0.00001337476473
 41
1.104166666666667
  7
ＭＳ ゴシック
100
AcDbText
  0
TEXT
  5
3CF
330
1F
100
AcDbEntity
  8
F-4
  6
Continuous
 62
     2
370
     9
100
AcDbText
 10
-186.181580096028
 20
-1375.567769532955
 30
0.0
 40
30.48
  1
ＳＺ－３Ｃ　１５０×５００×３＋ＳＦ０３Ｂ
 41
0.7738095238095238
  7
ＭＳ ゴシック
100
AcDbText
  0
TEXT
  5
3D0
330
1F
100
AcDbEntity
  8
D-5
  6
Continuous
 62
     2
370
     9
100
AcDbText
 10
405.7829431585367
 20
-486.0685059913428
 30
0.0
 40
30.48
  1
ステンレス製排水用蓋　ＳＺ－３Ｃ　１５０×５００×３
 41
1.120192307692307
  7
ＭＳ ゴシック
100
AcDbText
  0
ENDSEC
  0
SECTION
  2
OBJECTS
  0
DICTIONARY
  5
C
330
0
100
AcDbDictionary
281
     1
  3
ACAD_GROUP
350
D
  3
ACAD_LAYOUT
350
1A
  3
ACAD_MLEADERSTYLE
350
3D2
  3
ACAD_MLINESTYLE
350
17
  3
ACAD_PLOTSETTINGS
350
19
  3
ACAD_PLOTSTYLENAME
350
E
  3
ACAD_TABLESTYLE
350
3D1
  3
ACAD_VISUALSTYLE
350
2A
  3
AcDbVariableDictionary
350
3D3
  0
DICTIONARY
  5
D
102
{ACAD_REACTORS
330
C
102
}
330
C
100
AcDbDictionary
281
     1
  0
DICTIONARY
  5
1A
102
{ACAD_REACTORS
330
C
102
}
330
C
100
AcDbDictionary
281
     1
  3
Layout1
350
1E
  3
Layout2
350
26
  3
Model
350
22
  0
DICTIONARY
  5
3D2
102
{ACAD_REACTORS
330
C
102
}
330
C
100
AcDbDictionary
281
     1
  0
DICTIONARY
  5
17
102
{ACAD_REACTORS
330
C
102
}
330
C
100
AcDbDictionary
281
     1
  3
Standard
350
18
  0
DICTIONARY
  5
19
102
{ACAD_REACTORS
330
C
102
}
330
C
100
AcDbDictionary
281
     1
  0
ACDBDICTIONARYWDFLT
  5
E
102
{ACAD_REACTORS
330
C
102
}
330
C
100
AcDbDictionary
281
     1
  3
Normal
350
F
100
AcDbDictionaryWithDefault
340
F
  0
DICTIONARY
  5
3D1
102
{ACAD_REACTORS
330
C
102
}
330
C
100
AcDbDictionary
281
     1
  0
DICTIONARY
  5
2A
102
{ACAD_REACTORS
330
C
102
}
330
C
100
AcDbDictionary
281
     1
  3
2dWireframe
350
2F
  3
3D Hidden
350
31
  3
3dWireframe
350
30
  3
Basic
350
32
  3
Brighten
350
36
  3
ColorChange
350
3A
  3
Conceptual
350
34
  3
Dim
350
35
  3
Facepattern
350
39
  3
Flat
350
2B
  3
FlatWithEdges
350
2C
  3
Gouraud
350
2D
  3
GouraudWithEdges
350
2E
  3
Linepattern
350
38
  3
Realistic
350
33
  3
Thicken
350
37
  0
DICTIONARY
  5
3D3
102
{ACAD_REACTORS
330
C
102
}
330
C
100
AcDbDictionary
281
     1
  3
PSOLHEIGHT
350
3D5
  3
PSOLWIDTH
350
3D4
  0
LAYOUT
  5
1E
102
{ACAD_REACTORS
330
1A
102
}
102
{ACAD_XDICTIONARY
360
3D6
102
}
330
1A
100
AcDbPlotSettings
  1

  2
none_device
  4

  6

 40
0.0
 41
0.0
 42
0.0
 43
0.0
 44
0.0
 45
0.0
 46
0.0
 47
0.0
 48
0.0
 49
0.0
140
0.0
141
0.0
142
1.0
143
1.0
 70
   688
 72
     0
 73
     0
 74
     5
  7

 75
    16
147
1.0
148
0.0
149
0.0
100
AcDbLayout
  1
Layout1
 70
     1
 71
     1
 10
0.0
 20
0.0
 11
420.0
 21
297.0
 12
0.0
 22
0.0
 32
0.0
 14
1.000000000000000E+20
 24
1.000000000000000E+20
 34
1.000000000000000E+20
 15
-1.000000000000000E+20
 25
-1.000000000000000E+20
 35
-1.000000000000000E+20
146
0.0
 13
0.0
 23
0.0
 33
0.0
 16
1.0
 26
0.0
 36
0.0
 17
0.0
 27
1.0
 37
0.0
 76
     0
330
1B
  0
LAYOUT
  5
26
102
{ACAD_REACTORS
330
1A
102
}
102
{ACAD_XDICTIONARY
360
3DA
102
}
330
1A
100
AcDbPlotSettings
  1

  2
none_device
  4

  6

 40
0.0
 41
0.0
 42
0.0
 43
0.0
 44
0.0
 45
0.0
 46
0.0
 47
0.0
 48
0.0
 49
0.0
140
0.0
141
0.0
142
1.0
143
1.0
 70
   688
 72
     0
 73
     0
 74
     5
  7

 75
    16
147
1.0
148
0.0
149
0.0
100
AcDbLayout
  1
Layout2
 70
     1
 71
     2
 10
0.0
 20
0.0
 11
0.0
 21
0.0
 12
0.0
 22
0.0
 32
0.0
 14
0.0
 24
0.0
 34
0.0
 15
0.0
 25
0.0
 35
0.0
146
0.0
 13
0.0
 23
0.0
 33
0.0
 16
1.0
 26
0.0
 36
0.0
 17
0.0
 27
1.0
 37
0.0
 76
     0
330
23
  0
LAYOUT
  5
22
102
{ACAD_REACTORS
330
1A
102
}
102
{ACAD_XDICTIONARY
360
3D8
102
}
330
1A
100
AcDbPlotSettings
  1

  2
none_device
  4

  6

 40
0.0
 41
0.0
 42
0.0
 43
0.0
 44
0.0
 45
0.0
 46
0.0
 47
0.0
 48
0.0
 49
0.0
140
0.0
141
0.0
142
1.0
143
1.0
 70
  1712
 72
     0
 73
     0
 74
     0
  7

 75
     0
147
1.0
148
0.0
149
0.0
100
AcDbLayout
  1
Model
 70
     1
 71
     0
 10
-2100.0
 20
-1485.0
 11
2100.0
 21
1485.0
 12
0.0
 22
0.0
 32
0.0
 14
-2100.0
 24
-1485.0
 34
0.0
 15
2100.0
 25
1485.0
 35
0.0
146
0.0
 13
0.0
 23
0.0
 33
0.0
 16
1.0
 26
0.0
 36
0.0
 17
0.0
 27
1.0
 37
0.0
 76
     0
330
1F
331
29
  0
MLINESTYLE
  5
18
102
{ACAD_REACTORS
330
17
102
}
330
17
100
AcDbMlineStyle
  2
Standard
 70
     0
  3

 62
   256
 51
90.0
 52
90.0
 71
     2
 49
0.5
 62
   256
  6
BYLAYER
 49
-0.5
 62
   256
  6
BYLAYER
  0
ACDBPLACEHOLDER
  5
F
102
{ACAD_REACTORS
330
E
102
}
330
E
  0
VISUALSTYLE
  5
2F
102
{ACAD_REACTORS
330
2A
102
}
330
2A
100
AcDbVisualStyle
  2
2dWireframe
 70
     4
 71
     0
 72
     2
 73
     0
 90
        0
 40
-0.6
 41
-30.0
 62
     5
 63
     7
 74
     1
 91
        4
 64
     7
 65
   257
 75
     1
175
     1
 42
1.0
 92
        0
 66
   257
 43
1.0
 76
     1
 77
     6
 78
     2
 67
     7
 79
     5
170
     0
171
     0
290
     0
174
     0
 93
        1
 44
0.0
173
     0
291
     0
 45
0.0
1001
ACAD
1000
AcDbSavedByObjectVersion
1070
     0
  0
VISUALSTYLE
  5
31
102
{ACAD_REACTORS
330
2A
102
}
330
2A
100
AcDbVisualStyle
  2
3D Hidden
 70
     6
 71
     1
 72
     2
 73
     2
 90
        0
 40
-0.6
 41
-30.0
 62
     5
 63
     7
 74
     2
 91
        2
 64
     7
 65
   257
 75
     2
175
     1
 42
40.0
 92
        0
 66
   257
 43
1.0
 76
     1
 77
     6
 78
     2
 67
     7
 79
     3
170
     0
171
     0
290
     0
174
     0
 93
        1
 44
0.0
173
     0
291
     0
 45
0.0
1001
ACAD
1000
AcDbSavedByObjectVersion
1070
     0
  0
VISUALSTYLE
  5
30
102
{ACAD_REACTORS
330
2A
102
}
330
2A
100
AcDbVisualStyle
  2
3dWireframe
 70
     5
 71
     0
 72
     2
 73
     0
 90
        0
 40
-0.6
 41
-30.0
 62
     5
 63
     7
 74
     1
 91
        4
 64
     7
 65
   257
 75
     1
175
     1
 42
1.0
 92
        0
 66
   257
 43
1.0
 76
     1
 77
     6
 78
     2
 67
     7
 79
     5
170
     0
171
     0
290
     0
174
     0
 93
        1
 44
0.0
173
     0
291
     0
 45
0.0
1001
ACAD
1000
AcDbSavedByObjectVersion
1070
     0
  0
VISUALSTYLE
  5
32
102
{ACAD_REACTORS
330
2A
102
}
330
2A
100
AcDbVisualStyle
  2
Basic
 70
     7
 71
     1
 72
     0
 73
     1
 90
        0
 40
-0.6
 41
-30.0
 62
     5
 63
     7
 74
     0
 91
        4
 64
     7
 65
   257
 75
     1
175
     1
 42
1.0
 92
        8
 66
     7
 43
1.0
 76
     1
 77
     6
 78
     2
 67
     7
 79
     5
170
     0
171
     0
290
     0
174
     0
 93
        1
 44
0.0
173
     0
291
     1
 45
0.0
1001
ACAD
1000
AcDbSavedByObjectVersion
1070
     0
  0
VISUALSTYLE
  5
36
102
{ACAD_REACTORS
330
2A
102
}
330
2A
100
AcDbVisualStyle
  2
Brighten
 70
    12
 71
     2
 72
     2
 73
     0
 90
        0
 40
-0.6
 41
-30.0
 62
     5
 63
     7
 74
     1
 91
        4
 64
     7
 65
   257
 75
     1
175
     1
 42
1.0
 92
        8
 66
     7
 43
1.0
 76
     1
 77
     6
 78
     2
 67
     7
 79
     5
170
     0
171
     0
290
     0
174
     0
 93
        1
 44
50.0
173
     0
291
     1
 45
0.0
1001
ACAD
1000
AcDbSavedByObjectVersion
1070
     0
  0
VISUALSTYLE
  5
3A
102
{ACAD_REACTORS
330
2A
102
}
330
2A
100
AcDbVisualStyle
  2
ColorChange
 70
    16
 71
     2
 72
     2
 73
     3
 90
        0
 40
-0.6
 41
-30.0
 62
     5
 63
     8
 74
     1
 91
        4
 64
     7
 65
   257
 75
     1
175
     1
 42
1.0
 92
        8
 66
     8
 43
1.0
 76
     1
 77
     6
 78
     2
 67
     7
 79
     5
170
     0
171
     0
290
     0
174
     0
 93
        1
 44
0.0
173
     0
291
     1
 45
0.0
1001
ACAD
1000
AcDbSavedByObjectVersion
1070
     0
  0
VISUALSTYLE
  5
34
102
{ACAD_REACTORS
330
2A
102
}
330
2A
100
AcDbVisualStyle
  2
Conceptual
 70
     9
 71
     3
 72
     2
 73
     0
 90
        0
 40
-0.6
 41
-30.0
 62
     5
 63
     7
 74
     2
 91
        2
 64
     7
 65
   257
 75
     1
175
     1
 42
40.0
 92
        8
 66
     7
 43
1.0
 76
     1
 77
     6
 78
     2
 67
     7
 79
     3
170
     0
171
     0
290
     0
174
     0
 93
        1
 44
0.0
173
     0
291
     0
 45
0.0
1001
ACAD
1000
AcDbSavedByObjectVersion
1070
     0
  0
VISUALSTYLE
  5
35
102
{ACAD_REACTORS
330
2A
102
}
330
2A
100
AcDbVisualStyle
  2
Dim
 70
    11
 71
     2
 72
     2
 73
     0
 90
        0
 40
-0.6
 41
-30.0
 62
     5
 63
     7
 74
     1
 91
        4
 64
     7
 65
   257
 75
     1
175
     1
 42
1.0
 92
        8
 66
     7
 43
1.0
 76
     1
 77
     6
 78
     2
 67
     7
 79
     5
170
     0
171
     0
290
     0
174
     0
 93
        1
 44
-50.0
173
     0
291
     1
 45
0.0
1001
ACAD
1000
AcDbSavedByObjectVersion
1070
     0
  0
VISUALSTYLE
  5
39
102
{ACAD_REACTORS
330
2A
102
}
330
2A
100
AcDbVisualStyle
  2
Facepattern
 70
    15
 71
     2
 72
     2
 73
     0
 90
        0
 40
-0.6
 41
-30.0
 62
     5
 63
     7
 74
     1
 91
        4
 64
     7
 65
   257
 75
     1
175
     1
 42
1.0
 92
        8
 66
     7
 43
1.0
 76
     1
 77
     6
 78
     2
 67
     7
 79
     5
170
     0
171
     0
290
     0
174
     0
 93
        1
 44
0.0
173
     0
291
     1
 45
0.0
1001
ACAD
1000
AcDbSavedByObjectVersion
1070
     0
  0
VISUALSTYLE
  5
2B
102
{ACAD_REACTORS
330
2A
102
}
330
2A
100
AcDbVisualStyle
  2
Flat
 70
     0
 71
     2
 72
     1
 73
     1
 90
        2
 40
-0.6
 41
30.0
 62
     5
 63
     7
 74
     0
 91
        4
 64
     7
 65
   257
 75
     1
175
     1
 42
1.0
 92
        8
 66
     7
 43
1.0
 76
     1
 77
     6
 78
     2
 67
     7
 79
     5
170
     0
171
     0
290
     0
174
     0
 93
       13
 44
0.0
173
     0
291
     1
 45
0.0
1001
ACAD
1000
AcDbSavedByObjectVersion
1070
     0
  0
VISUALSTYLE
  5
2C
102
{ACAD_REACTORS
330
2A
102
}
330
2A
100
AcDbVisualStyle
  2
FlatWithEdges
 70
     1
 71
     2
 72
     1
 73
     1
 90
        2
 40
-0.6
 41
30.0
 62
     5
 63
     7
 74
     1
 91
        4
 64
     7
 65
   257
 75
     1
175
     1
 42
1.0
 92
        0
 66
   257
 43
1.0
 76
     1
 77
     6
 78
     2
 67
     7
 79
     5
170
     0
171
     0
290
     0
174
     0
 93
       13
 44
0.0
173
     0
291
     1
 45
0.0
1001
ACAD
1000
AcDbSavedByObjectVersion
1070
     0
  0
VISUALSTYLE
  5
2D
102
{ACAD_REACTORS
330
2A
102
}
330
2A
100
AcDbVisualStyle
  2
Gouraud
 70
     2
 71
     2
 72
     2
 73
     1
 90
        2
 40
-0.6
 41
30.0
 62
     5
 63
     7
 74
     0
 91
        4
 64
     7
 65
   257
 75
     1
175
     1
 42
1.0
 92
        0
 66
     7
 43
1.0
 76
     1
 77
     6
 78
     2
 67
     7
 79
     5
170
     0
171
     0
290
     0
174
     0
 93
       13
 44
0.0
173
     0
291
     1
 45
0.0
1001
ACAD
1000
AcDbSavedByObjectVersion
1070
     0
  0
VISUALSTYLE
  5
2E
102
{ACAD_REACTORS
330
2A
102
}
330
2A
100
AcDbVisualStyle
  2
GouraudWithEdges
 70
     3
 71
     2
 72
     2
 73
     1
 90
        2
 40
-0.6
 41
30.0
 62
     5
 63
     7
 74
     1
 91
        4
 64
     7
 65
   257
 75
     1
175
     1
 42
1.0
 92
        0
 66
   257
 43
1.0
 76
     1
 77
     6
 78
     2
 67
     7
 79
     5
170
     0
171
     0
290
     0
174
     0
 93
       13
 44
0.0
173
     0
291
     1
 45
0.0
1001
ACAD
1000
AcDbSavedByObjectVersion
1070
     0
  0
VISUALSTYLE
  5
38
102
{ACAD_REACTORS
330
2A
102
}
330
2A
100
AcDbVisualStyle
  2
Linepattern
 70
    14
 71
     2
 72
     2
 73
     0
 90
        0
 40
-0.6
 41
-30.0
 62
     5
 63
     7
 74
     1
 91
        4
 64
     7
 65
   257
 75
     7
175
     7
 42
1.0
 92
        8
 66
     7
 43
1.0
 76
     1
 77
     6
 78
     2
 67
     7
 79
     5
170
     0
171
     0
290
     0
174
     0
 93
        1
 44
0.0
173
     0
291
     1
 45
0.0
1001
ACAD
1000
AcDbSavedByObjectVersion
1070
     0
  0
VISUALSTYLE
  5
33
102
{ACAD_REACTORS
330
2A
102
}
330
2A
100
AcDbVisualStyle
  2
Realistic
 70
     8
 71
     2
 72
     2
 73
     0
 90
        0
 40
-0.6
 41
-30.0
 62
     5
 63
     7
 74
     1
 91
        0
 64
     7
 65
   257
 75
     1
175
     1
 42
1.0
 92
        8
 66
     8
 43
1.0
 76
     1
 77
     6
 78
     2
 67
     7
 79
     5
170
     0
171
     0
290
     0
174
     0
 93
       13
 44
0.0
173
     0
291
     0
 45
0.0
1001
ACAD
1000
AcDbSavedByObjectVersion
1070
     0
  0
VISUALSTYLE
  5
37
102
{ACAD_REACTORS
330
2A
102
}
330
2A
100
AcDbVisualStyle
  2
Thicken
 70
    13
 71
     2
 72
     2
 73
     0
 90
        0
 40
-0.6
 41
-30.0
 62
     5
 63
     7
 74
     1
 91
        4
 64
     7
 65
   257
 75
     1
175
     1
 42
1.0
 92
       12
 66
     7
 43
1.0
 76
     1
 77
     6
 78
     2
 67
     7
 79
     5
170
     0
171
     0
290
     0
174
     0
 93
        1
 44
0.0
173
     0
291
     1
 45
0.0
1001
ACAD
1000
AcDbSavedByObjectVersion
1070
     0
  0
DICTIONARYVAR
  5
3D5
102
{ACAD_REACTORS
330
3D3
102
}
330
3D3
100
DictionaryVariables
280
     0
  1
80.000000
  0
DICTIONARYVAR
  5
3D4
102
{ACAD_REACTORS
330
3D3
102
}
330
3D3
100
DictionaryVariables
280
     0
  1
5.000000
  0
DICTIONARY
  5
3D6
330
1E
100
AcDbDictionary
280
     1
281
     1
  3
ACAD_XREC_ROUNDTRIP
360
3D7
  0
DICTIONARY
  5
3DA
330
26
100
AcDbDictionary
280
     1
281
     1
  3
ACAD_XREC_ROUNDTRIP
360
3DB
  0
DICTIONARY
  5
3D8
330
22
100
AcDbDictionary
280
     1
281
     1
  3
ACAD_XREC_ROUNDTRIP
360
3D9
  0
XRECORD
  5
3D7
102
{ACAD_REACTORS
330
3D6
102
}
330
3D6
100
AcDbXrecord
280
     1
102
SHADEPLOT
 70
     0
102
SHADEPLOTRESLEVEL
 70
     5
102
SHADEPLOTCUSTOMDPI
 70
   300
  0
XRECORD
  5
3DB
102
{ACAD_REACTORS
330
3DA
102
}
330
3DA
100
AcDbXrecord
280
     1
102
SHADEPLOT
 70
     0
102
SHADEPLOTRESLEVEL
 70
     5
102
SHADEPLOTCUSTOMDPI
 70
   300
  0
XRECORD
  5
3D9
102
{ACAD_REACTORS
330
3D8
102
}
330
3D8
100
AcDbXrecord
280
     1
102
SHADEPLOT
 70
     0
102
SHADEPLOTRESLEVEL
 70
     5
102
SHADEPLOTCUSTOMDPI
 70
   300
  0
ENDSEC
  0
EOF
