  0
SECTION
  2
HEADER
  9
$ACADVER
  1
AC1015
  9
$ACADMAINTVER
 70
     6
  9
$DWGCODEPAGE
  3
ANSI_932
  9
$INSBASE
 10
0.0
 20
0.0
 30
0.0
  9
$EXTMIN
 10
-2100.0
 20
-1485.0
 30
0.0
  9
$EXTMAX
 10
2100.0
 20
1485.0
 30
0.0
  9
$LIMMIN
 10
-2100.0
 20
-1485.0
  9
$LIMMAX
 10
2100.0
 20
1485.0
  9
$ORTHOMODE
 70
     0
  9
$REGENMODE
 70
     1
  9
$FILLMODE
 70
     1
  9
$QTEXTMODE
 70
     0
  9
$MIRRTEXT
 70
     1
  9
$LTSCALE
 40
10.0
  9
$ATTMODE
 70
     1
  9
$TEXTSIZE
 40
2.5
  9
$TRACEWID
 40
1.0
  9
$TEXTSTYLE
  7
Standard
  9
$CLAYER
  8
0
  9
$CELTYPE
  6
ByLayer
  9
$CECOLOR
 62
   256
  9
$CELTSCALE
 40
1.0
  9
$DISPSILH
 70
     0
  9
$DIMSCALE
 40
1.0
  9
$DIMASZ
 40
2.5
  9
$DIMEXO
 40
0.625
  9
$DIMDLI
 40
3.75
  9
$DIMRND
 40
0.0
  9
$DIMDLE
 40
0.0
  9
$DIMEXE
 40
1.25
  9
$DIMTP
 40
0.0
  9
$DIMTM
 40
0.0
  9
$DIMTXT
 40
2.5
  9
$DIMCEN
 40
2.5
  9
$DIMTSZ
 40
0.0
  9
$DIMTOL
 70
     0
  9
$DIMLIM
 70
     0
  9
$DIMTIH
 70
     0
  9
$DIMTOH
 70
     0
  9
$DIMSE1
 70
     0
  9
$DIMSE2
 70
     0
  9
$DIMTAD
 70
     1
  9
$DIMZIN
 70
     8
  9
$DIMBLK
  1

  9
$DIMASO
 70
     1
  9
$DIMSHO
 70
     1
  9
$DIMPOST
  1

  9
$DIMAPOST
  1

  9
$DIMALT
 70
     0
  9
$DIMALTD
 70
     3
  9
$DIMALTF
 40
0.03937007874016
  9
$DIMLFAC
 40
1.0
  9
$DIMTOFL
 70
     1
  9
$DIMTVP
 40
0.0
  9
$DIMTIX
 70
     0
  9
$DIMSOXD
 70
     0
  9
$DIMSAH
 70
     0
  9
$DIMBLK1
  1

  9
$DIMBLK2
  1

  9
$DIMSTYLE
  2
ISO-25
  9
$DIMCLRD
 70
     0
  9
$DIMCLRE
 70
     0
  9
$DIMCLRT
 70
     0
  9
$DIMTFAC
 40
1.0
  9
$DIMGAP
 40
0.625
  9
$DIMJUST
 70
     0
  9
$DIMSD1
 70
     0
  9
$DIMSD2
 70
     0
  9
$DIMTOLJ
 70
     0
  9
$DIMTZIN
 70
     8
  9
$DIMALTZ
 70
     0
  9
$DIMALTTZ
 70
     0
  9
$DIMUPT
 70
     0
  9
$DIMDEC
 70
     2
  9
$DIMTDEC
 70
     2
  9
$DIMALTU
 70
     2
  9
$DIMALTTD
 70
     3
  9
$DIMTXSTY
  7
Standard
  9
$DIMAUNIT
 70
     0
  9
$DIMADEC
 70
     0
  9
$DIMALTRND
 40
0.0
  9
$DIMAZIN
 70
     0
  9
$DIMDSEP
 70
    44
  9
$DIMATFIT
 70
     3
  9
$DIMFRAC
 70
     0
  9
$DIMLDRBLK
  1

  9
$DIMLUNIT
 70
     2
  9
$DIMLWD
 70
    -2
  9
$DIMLWE
 70
    -2
  9
$DIMTMOVE
 70
     0
  9
$LUNITS
 70
     2
  9
$LUPREC
 70
     4
  9
$SKETCHINC
 40
1.0
  9
$FILLETRAD
 40
10.0
  9
$AUNITS
 70
     0
  9
$AUPREC
 70
     0
  9
$MENU
  1
.
  9
$ELEVATION
 40
0.0
  9
$PELEVATION
 40
0.0
  9
$THICKNESS
 40
0.0
  9
$LIMCHECK
 70
     0
  9
$CHAMFERA
 40
10.0
  9
$CHAMFERB
 40
10.0
  9
$CHAMFERC
 40
20.0
  9
$CHAMFERD
 40
0.0
  9
$SKPOLY
 70
     0
  9
$TDCREATE
 40
2456904.821642569
  9
$TDUCREATE
 40
2456904.446642569
  9
$TDUPDATE
 40
2456904.821642581
  9
$TDUUPDATE
 40
2456904.446642581
  9
$TDINDWG
 40
0.0000000116
  9
$TDUSRTIMER
 40
0.0000000116
  9
$USRTIMER
 70
     1
  9
$ANGBASE
 50
0.0
  9
$ANGDIR
 70
     0
  9
$PDMODE
 70
     0
  9
$PDSIZE
 40
0.0
  9
$PLINEWID
 40
0.0
  9
$SPLFRAME
 70
     0
  9
$SPLINETYPE
 70
     6
  9
$SPLINESEGS
 70
     8
  9
$HANDSEED
  5
3C7
  9
$SURFTAB1
 70
     6
  9
$SURFTAB2
 70
     6
  9
$SURFTYPE
 70
     6
  9
$SURFU
 70
     6
  9
$SURFV
 70
     6
  9
$UCSBASE
  2

  9
$UCSNAME
  2

  9
$UCSORG
 10
0.0
 20
0.0
 30
0.0
  9
$UCSXDIR
 10
1.0
 20
0.0
 30
0.0
  9
$UCSYDIR
 10
0.0
 20
1.0
 30
0.0
  9
$UCSORTHOREF
  2

  9
$UCSORTHOVIEW
 70
     0
  9
$UCSORGTOP
 10
0.0
 20
0.0
 30
0.0
  9
$UCSORGBOTTOM
 10
0.0
 20
0.0
 30
0.0
  9
$UCSORGLEFT
 10
0.0
 20
0.0
 30
0.0
  9
$UCSORGRIGHT
 10
0.0
 20
0.0
 30
0.0
  9
$UCSORGFRONT
 10
0.0
 20
0.0
 30
0.0
  9
$UCSORGBACK
 10
0.0
 20
0.0
 30
0.0
  9
$PUCSBASE
  2

  9
$PUCSNAME
  2

  9
$PUCSORG
 10
0.0
 20
0.0
 30
0.0
  9
$PUCSXDIR
 10
1.0
 20
0.0
 30
0.0
  9
$PUCSYDIR
 10
0.0
 20
1.0
 30
0.0
  9
$PUCSORTHOREF
  2

  9
$PUCSORTHOVIEW
 70
     0
  9
$PUCSORGTOP
 10
0.0
 20
0.0
 30
0.0
  9
$PUCSORGBOTTOM
 10
0.0
 20
0.0
 30
0.0
  9
$PUCSORGLEFT
 10
0.0
 20
0.0
 30
0.0
  9
$PUCSORGRIGHT
 10
0.0
 20
0.0
 30
0.0
  9
$PUCSORGFRONT
 10
0.0
 20
0.0
 30
0.0
  9
$PUCSORGBACK
 10
0.0
 20
0.0
 30
0.0
  9
$USERI1
 70
     0
  9
$USERI2
 70
     0
  9
$USERI3
 70
     0
  9
$USERI4
 70
     0
  9
$USERI5
 70
     0
  9
$USERR1
 40
0.0
  9
$USERR2
 40
0.0
  9
$USERR3
 40
0.0
  9
$USERR4
 40
0.0
  9
$USERR5
 40
0.0
  9
$WORLDVIEW
 70
     1
  9
$SHADEDGE
 70
     3
  9
$SHADEDIF
 70
    70
  9
$TILEMODE
 70
     1
  9
$MAXACTVP
 70
    64
  9
$PINSBASE
 10
0.0
 20
0.0
 30
0.0
  9
$PLIMCHECK
 70
     0
  9
$PEXTMIN
 10
1.000000000000000E+20
 20
1.000000000000000E+20
 30
1.000000000000000E+20
  9
$PEXTMAX
 10
-1.000000000000000E+20
 20
-1.000000000000000E+20
 30
-1.000000000000000E+20
  9
$PLIMMIN
 10
0.0
 20
0.0
  9
$PLIMMAX
 10
420.0
 20
297.0
  9
$UNITMODE
 70
     0
  9
$VISRETAIN
 70
     1
  9
$PLINEGEN
 70
     0
  9
$PSLTSCALE
 70
     1
  9
$TREEDEPTH
 70
  3020
  9
$CMLSTYLE
  2
Standard
  9
$CMLJUST
 70
     0
  9
$CMLSCALE
 40
20.0
  9
$PROXYGRAPHICS
 70
     1
  9
$MEASUREMENT
 70
     1
  9
$CELWEIGHT
370
    -1
  9
$ENDCAPS
280
     0
  9
$JOINSTYLE
280
     0
  9
$LWDISPLAY
290
     0
  9
$INSUNITS
 70
     4
  9
$HYPERLINKBASE
  1

  9
$STYLESHEET
  1

  9
$XEDIT
290
     1
  9
$CEPSNTYPE
380
     0
  9
$PSTYLEMODE
290
     1
  9
$FINGERPRINTGUID
  2
{AAE13F17-122B-4211-A718-4D89D3371896}
  9
$VERSIONGUID
  2
{FAEB1C32-E019-11D5-929B-00C0DF256EC4}
  9
$EXTNAMES
290
     1
  9
$PSVPSCALE
 40
0.0
  9
$OLESTARTUP
290
     0
  0
ENDSEC
  0
SECTION
  2
CLASSES
  0
CLASS
  1
ACDBDICTIONARYWDFLT
  2
AcDbDictionaryWithDefault
  3
ObjectDBX Classes
 90
        0
280
     0
281
     0
  0
CLASS
  1
VISUALSTYLE
  2
AcDbVisualStyle
  3
ObjectDBX Classes
 90
     4095
280
     0
281
     0
  0
CLASS
  1
DICTIONARYVAR
  2
AcDbDictionaryVar
  3
ObjectDBX Classes
 90
        0
280
     0
281
     0
  0
CLASS
  1
ACDBPLACEHOLDER
  2
AcDbPlaceHolder
  3
ObjectDBX Classes
 90
        0
280
     0
281
     0
  0
CLASS
  1
LAYOUT
  2
AcDbLayout
  3
ObjectDBX Classes
 90
        0
280
     0
281
     0
  0
ENDSEC
  0
SECTION
  2
TABLES
  0
TABLE
  2
VPORT
  5
8
330
0
100
AcDbSymbolTable
 70
     1
  0
VPORT
  5
29
330
8
100
AcDbSymbolTableRecord
100
AcDbViewportTableRecord
  2
*Active
 70
     0
 10
0.0
 20
0.0
 11
1.0
 21
1.0
 12
0.0
 22
0.0
 13
0.0
 23
0.0
 14
10.0
 24
10.0
 15
10.0
 25
10.0
 16
0.0
 26
0.0
 36
1.0
 17
0.0
 27
0.0
 37
0.0
 40
3267.0
 41
1.414141414141414
 42
50.0
 43
0.0
 44
0.0
 50
0.0
 51
0.0
 71
     0
 72
 10000
 73
     1
 74
     3
 75
     0
 76
     0
 77
     0
 78
     0
281
     0
 65
     1
110
0.0
120
0.0
130
0.0
111
1.0
121
0.0
131
0.0
112
0.0
122
1.0
132
0.0
 79
     0
146
0.0
  0
ENDTAB
  0
TABLE
  2
LTYPE
  5
5
330
0
100
AcDbSymbolTable
 70
     6
  0
LTYPE
  5
14
330
5
100
AcDbSymbolTableRecord
100
AcDbLinetypeTableRecord
  2
ByBlock
 70
     0
  3

 72
    65
 73
     0
 40
0.0
  0
LTYPE
  5
15
330
5
100
AcDbSymbolTableRecord
100
AcDbLinetypeTableRecord
  2
ByLayer
 70
     0
  3

 72
    65
 73
     0
 40
0.0
  0
LTYPE
  5
16
330
5
100
AcDbSymbolTableRecord
100
AcDbLinetypeTableRecord
  2
Continuous
 70
     0
  3
Solid line
 72
    65
 73
     0
 40
0.0
  0
LTYPE
  5
3C
330
5
100
AcDbSymbolTableRecord
100
AcDbLinetypeTableRecord
  2
JWW_DASHED3
 70
     0
  3
---  ------  ------  ------  ---
 72
    65
 73
     2
 40
3.386666666666667
 49
2.54
 74
     0
 49
-0.8466666666666667
 74
     0
  0
LTYPE
  5
3D
330
5
100
AcDbSymbolTableRecord
100
AcDbLinetypeTableRecord
  2
JWW_CENTER2
 70
     0
  3
-------------  --  -------------
 72
    65
 73
     4
 40
13.54666666666667
 49
11.00666666666667
 74
     0
 49
-0.8466666666666667
 74
     0
 49
0.8466666666666667
 74
     0
 49
-0.8466666666666667
 74
     0
  0
LTYPE
  5
3E
330
5
100
AcDbSymbolTableRecord
100
AcDbLinetypeTableRecord
  2
JWW_DASHED1
 70
     0
  3
-  --  --  --  --  --  --  --  -
 72
    65
 73
     2
 40
1.693333333333333
 49
0.8466666666666667
 74
     0
 49
-0.8466666666666667
 74
     0
  0
LTYPE
  5
3F
330
5
100
AcDbSymbolTableRecord
100
AcDbLinetypeTableRecord
  2
JWW_CENTER1
 70
     0
  3
-----  --  ----------  --  -----
 72
    65
 73
     4
 40
6.773333333333333
 49
4.233333333333333
 74
     0
 49
-0.8466666666666667
 74
     0
 49
0.8466666666666667
 74
     0
 49
-0.8466666666666667
 74
     0
  0
LTYPE
  5
40
330
5
100
AcDbSymbolTableRecord
100
AcDbLinetypeTableRecord
  2
JWW_DASHED2
 70
     0
  3
--    ----    ----    ----    --
 72
    65
 73
     2
 40
3.386666666666667
 49
1.693333333333333
 74
     0
 49
-1.693333333333333
 74
     0
  0
ENDTAB
  0
TABLE
  2
LAYER
  5
2
330
0
100
AcDbSymbolTable
 70
    18
  0
LAYER
  5
10
330
2
100
AcDbSymbolTableRecord
100
AcDbLayerTableRecord
  2
0
 70
     0
 62
     7
  6
Continuous
370
    -3
390
F
  0
LAYER
  5
41
330
2
100
AcDbSymbolTableRecord
100
AcDbLayerTableRecord
  2
D-A
 70
     0
 62
     7
  6
Continuous
370
    -3
390
F
  0
LAYER
  5
42
330
2
100
AcDbSymbolTableRecord
100
AcDbLayerTableRecord
  2
D-4
 70
     0
 62
     7
  6
Continuous
370
    -3
390
F
  0
LAYER
  5
43
330
2
100
AcDbSymbolTableRecord
100
AcDbLayerTableRecord
  2
D-5
 70
     0
 62
     7
  6
Continuous
370
    -3
390
F
  0
LAYER
  5
44
330
2
100
AcDbSymbolTableRecord
100
AcDbLayerTableRecord
  2
D-6
 70
     0
 62
     7
  6
Continuous
370
    -3
390
F
  0
LAYER
  5
45
330
2
100
AcDbSymbolTableRecord
100
AcDbLayerTableRecord
  2
D-9
 70
     0
 62
     7
  6
Continuous
370
    -3
390
F
  0
LAYER
  5
46
330
2
100
AcDbSymbolTableRecord
100
AcDbLayerTableRecord
  2
D-1
 70
     0
 62
     7
  6
Continuous
370
    -3
390
F
  0
LAYER
  5
47
330
2
100
AcDbSymbolTableRecord
100
AcDbLayerTableRecord
  2
D-2
 70
     0
 62
     7
  6
Continuous
370
    -3
390
F
  0
LAYER
  5
48
330
2
100
AcDbSymbolTableRecord
100
AcDbLayerTableRecord
  2
D-0
 70
     0
 62
     7
  6
Continuous
370
    -3
390
F
  0
LAYER
  5
49
330
2
100
AcDbSymbolTableRecord
100
AcDbLayerTableRecord
  2
C-A
 70
     0
 62
     7
  6
Continuous
370
    -3
390
F
  0
LAYER
  5
4A
330
2
100
AcDbSymbolTableRecord
100
AcDbLayerTableRecord
  2
C-1
 70
     0
 62
     7
  6
Continuous
370
    -3
390
F
  0
LAYER
  5
4B
330
2
100
AcDbSymbolTableRecord
100
AcDbLayerTableRecord
  2
C-2
 70
     0
 62
     7
  6
Continuous
370
    -3
390
F
  0
LAYER
  5
4C
330
2
100
AcDbSymbolTableRecord
100
AcDbLayerTableRecord
  2
C-4
 70
     0
 62
     7
  6
Continuous
370
    -3
390
F
  0
LAYER
  5
4D
330
2
100
AcDbSymbolTableRecord
100
AcDbLayerTableRecord
  2
C-5
 70
     0
 62
     7
  6
Continuous
370
    -3
390
F
  0
LAYER
  5
4E
330
2
100
AcDbSymbolTableRecord
100
AcDbLayerTableRecord
  2
C-9
 70
     0
 62
     7
  6
Continuous
370
    -3
390
F
  0
LAYER
  5
4F
330
2
100
AcDbSymbolTableRecord
100
AcDbLayerTableRecord
  2
C-0
 70
     0
 62
     7
  6
Continuous
370
    -3
390
F
  0
LAYER
  5
50
330
2
100
AcDbSymbolTableRecord
100
AcDbLayerTableRecord
  2
F-4
 70
     0
 62
     7
  6
Continuous
370
    -3
390
F
  0
LAYER
  5
51
330
2
100
AcDbSymbolTableRecord
100
AcDbLayerTableRecord
  2
C-B
 70
     0
 62
     7
  6
Continuous
370
    -3
390
F
  0
ENDTAB
  0
TABLE
  2
STYLE
  5
3
330
0
100
AcDbSymbolTable
 70
     2
  0
STYLE
  5
11
330
3
100
AcDbSymbolTableRecord
100
AcDbTextStyleTableRecord
  2
Standard
 70
     0
 40
0.0
 41
1.0
 50
0.0
 71
     0
 42
2.5
  3
txt
  4

1001
ACAD
1000

1071
        0
  0
STYLE
  5
3B
330
3
100
AcDbSymbolTableRecord
100
AcDbTextStyleTableRecord
  2
ＭＳ ゴシック
 70
     0
 40
1.0
 41
1.0
 50
0.0
 71
     0
 42
10.0
  3

  4

1001
ACAD
1000
MS Gothic
1071
    32817
  0
ENDTAB
  0
TABLE
  2
VIEW
  5
6
330
0
100
AcDbSymbolTable
 70
     0
  0
ENDTAB
  0
TABLE
  2
UCS
  5
7
330
0
100
AcDbSymbolTable
 70
     0
  0
ENDTAB
  0
TABLE
  2
APPID
  5
9
330
0
100
AcDbSymbolTable
 70
     1
  0
APPID
  5
12
330
9
100
AcDbSymbolTableRecord
100
AcDbRegAppTableRecord
  2
ACAD
 70
     0
  0
ENDTAB
  0
TABLE
  2
DIMSTYLE
  5
A
330
0
100
AcDbSymbolTable
 70
     1
100
AcDbDimStyleTable
  0
DIMSTYLE
105
27
330
A
100
AcDbSymbolTableRecord
100
AcDbDimStyleTableRecord
  2
ISO-25
 70
     0
 41
2.5
 42
0.625
 43
3.75
 44
1.25
 73
     0
 74
     0
 77
     1
 78
     8
140
2.5
141
2.5
143
0.03937007874016
147
0.625
171
     3
172
     1
271
     2
272
     2
274
     3
278
    44
283
     0
284
     8
340
11
  0
ENDTAB
  0
TABLE
  2
BLOCK_RECORD
  5
1
330
0
100
AcDbSymbolTable
 70
     1
  0
BLOCK_RECORD
  5
1F
330
1
100
AcDbSymbolTableRecord
100
AcDbBlockTableRecord
  2
*Model_Space
340
22
  0
BLOCK_RECORD
  5
1B
330
1
100
AcDbSymbolTableRecord
100
AcDbBlockTableRecord
  2
*Paper_Space
340
1E
  0
BLOCK_RECORD
  5
23
330
1
100
AcDbSymbolTableRecord
100
AcDbBlockTableRecord
  2
*Paper_Space0
340
26
  0
ENDTAB
  0
ENDSEC
  0
SECTION
  2
BLOCKS
  0
BLOCK
  5
20
330
1F
100
AcDbEntity
  8
0
100
AcDbBlockBegin
  2
*Model_Space
 70
     0
 10
0.0
 20
0.0
 30
0.0
  3
*Model_Space
  1

  0
ENDBLK
  5
21
330
1F
100
AcDbEntity
  8
0
100
AcDbBlockEnd
  0
BLOCK
  5
1C
330
1B
100
AcDbEntity
 67
     1
  8
0
100
AcDbBlockBegin
  2
*Paper_Space
 70
     0
 10
0.0
 20
0.0
 30
0.0
  3
*Paper_Space
  1

  0
ENDBLK
  5
1D
330
1B
100
AcDbEntity
 67
     1
  8
0
100
AcDbBlockEnd
  0
BLOCK
  5
24
330
23
100
AcDbEntity
  8
0
100
AcDbBlockBegin
  2
*Paper_Space0
 70
     0
 10
0.0
 20
0.0
 30
0.0
  3
*Paper_Space0
  1

  0
ENDBLK
  5
25
330
23
100
AcDbEntity
  8
0
100
AcDbBlockEnd
  0
ENDSEC
  0
SECTION
  2
ENTITIES
  0
LINE
  5
52
330
1F
100
AcDbEntity
  8
D-A
  6
JWW_DASHED3
 62
     3
370
     9
100
AcDbLine
 10
-440.8427199801881
 20
-411.8954302813555
 30
0.0
 11
-440.8427199801881
 21
-361.8955127612963
 31
0.0
  0
LINE
  5
53
330
1F
100
AcDbEntity
  8
D-A
  6
Continuous
 62
     3
370
     9
100
AcDbLine
 10
-415.8430086599813
 20
-386.8955952412372
 30
0.0
 11
-415.8430086599813
 21
-371.3955935916384
 31
0.0
  0
LINE
  5
54
330
1F
100
AcDbEntity
  8
D-A
  6
Continuous
 62
     3
370
     9
100
AcDbLine
 10
-440.8427199801881
 20
-361.8955127612963
 30
0.0
 11
-440.8427199801881
 21
-331.8959086650126
 31
0.0
  0
LINE
  5
55
330
1F
100
AcDbEntity
  8
D-A
  6
Continuous
 62
     3
370
     9
100
AcDbLine
 10
-290.8428437000995
 20
-450.3962006440034
 30
0.0
 11
-415.8430086599813
 21
-450.3962006440034
 31
0.0
  0
LINE
  5
56
330
1F
100
AcDbEntity
  8
D-A
  6
Continuous
 62
     3
370
     9
100
AcDbLine
 10
-418.7720775604248
 20
-433.966072701119
 30
0.0
 11
-440.8427199801881
 21
-411.8954302813555
 31
0.0
  0
LINE
  5
57
330
1F
100
AcDbEntity
  8
D-A
  6
Continuous
 62
     3
370
     9
100
AcDbLine
 10
-415.8430086599813
 20
-461.8959664009712
 30
0.0
 11
-415.8430086599813
 21
-441.0375316722973
 31
0.0
  0
LINE
  5
58
330
1F
100
AcDbEntity
  8
D-A
  6
Continuous
 62
     3
370
     9
100
AcDbLine
 10
-290.8428437000995
 20
-461.8959664009712
 30
0.0
 11
-415.8430086599813
 21
-461.8959664009712
 31
0.0
  0
LINE
  5
59
330
1F
100
AcDbEntity
  8
D-A
  6
Continuous
 62
     3
370
     9
100
AcDbLine
 10
-290.8428437000995
 20
-421.8955869932432
 30
0.0
 11
-290.8428437000995
 21
-461.8959664009712
 31
0.0
  0
LINE
  5
5A
330
1F
100
AcDbEntity
  8
D-A
  6
Continuous
 62
     3
370
     9
100
AcDbLine
 10
-380.4876933226714
 20
-411.8954302813555
 30
0.0
 11
-300.8431241318985
 21
-411.8954302813555
 31
0.0
  0
LINE
  5
5B
330
1F
100
AcDbEntity
  8
D-A
  6
Continuous
 62
     3
370
     9
100
AcDbLine
 10
-440.8427199801881
 20
-361.8955127612963
 30
0.0
 11
-398.1655365711933
 21
-404.5736859295819
 31
0.0
  0
LINE
  5
5C
330
1F
100
AcDbEntity
  8
D-A
  6
Continuous
 62
     3
370
     9
100
AcDbLine
 10
-452.3429806168014
 20
-331.8959086650126
 30
0.0
 11
-452.3429806168014
 21
-444.396032384924
 31
0.0
  0
LINE
  5
5D
330
1F
100
AcDbEntity
  8
D-A
  6
JWW_CENTER2
 62
     3
370
     9
100
AcDbLine
 10
-397.8479475588409
 20
-389.3956034892313
 30
0.0
 11
-458.2664425308639
 21
-389.3956034892313
 31
0.0
  0
LINE
  5
5E
330
1F
100
AcDbEntity
  8
D-A
  6
JWW_DASHED3
 62
     3
370
     9
100
AcDbLine
 10
-415.8430086599813
 20
-407.3953659470017
 30
0.0
 11
-415.8430086599813
 21
-386.8955952412372
 31
0.0
  0
LINE
  5
5F
330
1F
100
AcDbEntity
  8
D-A
  6
Continuous
 62
     3
370
     9
100
AcDbLine
 10
-454.5929509240227
 20
-379.3954467773438
 30
0.0
 11
-455.8426457482415
 21
-380.6458839210303
 31
0.0
  0
LINE
  5
60
330
1F
100
AcDbEntity
  8
D-A
  6
Continuous
 62
     3
370
     9
100
AcDbLine
 10
-454.5929509240227
 20
-399.3951416015625
 30
0.0
 11
-455.8426457482415
 21
-398.1458179370776
 31
0.0
  0
LINE
  5
61
330
1F
100
AcDbEntity
  8
D-A
  6
JWW_DASHED3
 62
     3
370
     9
100
AcDbLine
 10
-454.5929509240227
 20
-379.3954467773438
 30
0.0
 11
-454.5929509240227
 21
-399.3951416015625
 31
0.0
  0
LINE
  5
62
330
1F
100
AcDbEntity
  8
D-A
  6
Continuous
 62
     3
370
     9
100
AcDbLine
 10
-452.3429806168014
 20
-380.6458839210303
 30
0.0
 11
-455.8426457482415
 21
-380.6458839210303
 31
0.0
  0
LINE
  5
63
330
1F
100
AcDbEntity
  8
D-A
  6
Continuous
 62
     3
370
     9
100
AcDbLine
 10
-452.3429806168014
 20
-379.3954467773438
 30
0.0
 11
-454.5929509240227
 21
-379.3954467773438
 31
0.0
  0
LINE
  5
64
330
1F
100
AcDbEntity
  8
D-A
  6
Continuous
 62
     3
370
     9
100
AcDbLine
 10
-452.3429806168014
 20
-398.1458179370776
 30
0.0
 11
-455.8426457482415
 21
-398.1458179370776
 31
0.0
  0
LINE
  5
65
330
1F
100
AcDbEntity
  8
D-A
  6
Continuous
 62
     3
370
     9
100
AcDbLine
 10
-452.3429806168014
 20
-399.3951416015625
 30
0.0
 11
-454.5929509240227
 21
-399.3951416015625
 31
0.0
  0
LINE
  5
66
330
1F
100
AcDbEntity
  8
D-A
  6
JWW_DASHED3
 62
     3
370
     9
100
AcDbLine
 10
-415.8430086599813
 20
-399.3951416015625
 30
0.0
 11
-452.3429806168014
 21
-399.3951416015625
 31
0.0
  0
LINE
  5
67
330
1F
100
AcDbEntity
  8
D-A
  6
JWW_DASHED3
 62
     3
370
     9
100
AcDbLine
 10
-415.8430086599813
 20
-398.1458179370776
 30
0.0
 11
-452.3429806168014
 21
-398.1458179370776
 31
0.0
  0
LINE
  5
68
330
1F
100
AcDbEntity
  8
D-A
  6
JWW_DASHED3
 62
     3
370
     9
100
AcDbLine
 10
-409.3427645193563
 20
-407.3953659470017
 30
0.0
 11
-415.8430086599813
 21
-407.3953659470017
 31
0.0
  0
LINE
  5
69
330
1F
100
AcDbEntity
  8
D-A
  6
Continuous
 62
     3
370
     9
100
AcDbLine
 10
-409.3427645193563
 20
-371.3955935916384
 30
0.0
 11
-415.8430086599813
 21
-371.3955935916384
 31
0.0
  0
LINE
  5
6A
330
1F
100
AcDbEntity
  8
D-A
  6
Continuous
 62
     3
370
     9
100
AcDbLine
 10
-402.8428915384652
 20
-377.8955902924409
 30
0.0
 11
-402.8428915384652
 21
-399.8962072423985
 31
0.0
  0
LINE
  5
6B
330
1F
100
AcDbEntity
  8
D-A
  6
JWW_DASHED3
 62
     3
370
     9
100
AcDbLine
 10
-402.8428915384652
 20
-400.8957404059332
 30
0.0
 11
-402.8428915384652
 21
-399.8962072423985
 31
0.0
  0
LINE
  5
6C
330
1F
100
AcDbEntity
  8
D-A
  6
Continuous
 62
     3
370
     9
100
AcDbLine
 10
-415.8430086599813
 20
-379.3954467773438
 30
0.0
 11
-423.3432808437863
 21
-379.3954467773438
 31
0.0
  0
LINE
  5
6D
330
1F
100
AcDbEntity
  8
D-A
  6
Continuous
 62
     3
370
     9
100
AcDbLine
 10
-415.8430086599813
 20
-380.6458839210303
 30
0.0
 11
-422.0932148598334
 21
-380.6458839210303
 31
0.0
  0
LINE
  5
6E
330
1F
100
AcDbEntity
  8
D-A
  6
JWW_DASHED3
 62
     3
370
     9
100
AcDbLine
 10
-423.3432808437863
 20
-379.3954467773438
 30
0.0
 11
-452.3429806168014
 21
-379.3954467773438
 31
0.0
  0
LINE
  5
6F
330
1F
100
AcDbEntity
  8
D-A
  6
JWW_DASHED3
 62
     3
370
     9
100
AcDbLine
 10
-452.3429806168014
 20
-380.6458839210303
 30
0.0
 11
-422.0932148598334
 21
-380.6458839210303
 31
0.0
  0
LINE
  5
70
330
1F
100
AcDbEntity
  8
D-4
  6
Continuous
 62
     7
370
     9
100
AcDbLine
 10
-1163.511197631424
 20
-205.9761336043074
 30
0.0
 11
-590.843462299656
 21
-205.9761336043074
 31
0.0
  0
LINE
  5
71
330
1F
100
AcDbEntity
  8
D-4
  6
Continuous
 62
     7
370
     9
100
AcDbLine
 10
-590.843462299656
 20
-311.4399348078547
 30
0.0
 11
-590.843462299656
 21
-202.9756783150336
 31
0.0
  0
LINE
  5
72
330
1F
100
AcDbEntity
  8
D-4
  6
Continuous
 62
     7
370
     9
100
AcDbLine
 10
-590.843462299656
 20
-205.9761336043074
 30
0.0
 11
-465.8426787402178
 21
-205.9761336043074
 31
0.0
  0
LINE
  5
73
330
1F
100
AcDbEntity
  8
D-4
  6
Continuous
 62
     7
370
     9
100
AcDbLine
 10
-465.8426787402178
 20
-311.4399348078547
 30
0.0
 11
-465.8426787402178
 21
-94.22414418813332
 31
0.0
  0
LINE
  5
74
330
1F
100
AcDbEntity
  8
D-4
  6
Continuous
 62
     7
370
     9
100
AcDbLine
 10
-460.8424148044068
 20
-311.4399348078547
 30
0.0
 11
-460.8424148044068
 21
-94.22414418813332
 31
0.0
  0
LINE
  5
75
330
1F
100
AcDbEntity
  8
D-4
  6
Continuous
 62
     7
370
     9
100
AcDbLine
 10
-435.8435695235792
 20
-311.4399348078547
 30
0.0
 11
-435.8435695235792
 21
16.47226694467918
 31
0.0
  0
LINE
  5
76
330
1F
100
AcDbEntity
  8
D-5
  6
Continuous
 62
     7
370
     9
100
AcDbLine
 10
-341.3198251981993
 20
-163.9843585040117
 30
0.0
 11
-81.93670092402272
 21
-163.9843585040117
 31
0.0
  0
LINE
  5
77
330
1F
100
AcDbEntity
  8
D-4
  6
Continuous
 62
     7
370
     9
100
AcDbLine
 10
-190.8420189006907
 20
-646.7688978040541
 30
0.0
 11
-190.8420189006907
 21
-889.9786129513302
 31
0.0
  0
LINE
  5
78
330
1F
100
AcDbEntity
  8
D-4
  6
Continuous
 62
     7
370
     9
100
AcDbLine
 10
-590.8429674200107
 20
-732.5143432617188
 30
0.0
 11
-440.8427199801881
 21
-732.5143432617188
 31
0.0
  0
LINE
  5
79
330
1F
100
AcDbEntity
  8
D-4
  6
Continuous
 62
     7
370
     9
100
AcDbLine
 10
80.84195755623512
 20
-576.8957272091427
 30
0.0
 11
80.84195755623512
 21
-326.8955210092905
 31
0.0
  0
LINE
  5
7A
330
1F
100
AcDbEntity
  8
D-6
  6
Continuous
 62
     6
370
     9
100
AcDbLine
 10
-440.8427199801881
 20
-576.8957272091427
 30
0.0
 11
-440.8427199801881
 21
-826.8954385293496
 31
0.0
  0
LINE
  5
7B
330
1F
100
AcDbEntity
  8
D-6
  6
JWW_DASHED3
 62
     6
370
     9
100
AcDbLine
 10
-347.3417681616704
 20
-704.3956529771959
 30
0.0
 11
-347.3417681616704
 21
-576.8957272091427
 31
0.0
  0
LINE
  5
7C
330
1F
100
AcDbEntity
  8
D-6
  6
JWW_DASHED3
 62
     6
370
     9
100
AcDbLine
 10
-302.3416196977769
 20
-576.8957272091427
 30
0.0
 11
-302.3416196977769
 21
-704.3956529771959
 31
0.0
  0
LINE
  5
7D
330
1F
100
AcDbEntity
  8
D-6
  6
Continuous
 62
     6
370
     9
100
AcDbLine
 10
-190.8431323798925
 20
-476.8958921690245
 30
0.0
 11
-25.84196941272609
 21
-476.8958921690245
 31
0.0
  0
LINE
  5
7E
330
1F
100
AcDbEntity
  8
D-6
  6
Continuous
 62
     6
370
     9
100
AcDbLine
 10
-425.8430416519576
 20
-822.0448756862331
 30
0.0
 11
-80.69195489625656
 21
-476.8958921690245
 31
0.0
  0
LINE
  5
7F
330
1F
100
AcDbEntity
  8
D-6
  6
Continuous
 62
     6
370
     9
100
AcDbLine
 10
-425.8430416519576
 20
-814.9725506756756
 30
0.0
 11
-87.7662594253951
 21
-476.8958921690245
 31
0.0
  0
LINE
  5
80
330
1F
100
AcDbEntity
  8
D-6
  6
Continuous
 62
     6
370
     9
100
AcDbLine
 10
-425.8430416519576
 20
-807.9041847022803
 30
0.0
 11
-194.8332232397954
 21
-576.8957272091427
 31
0.0
  0
LINE
  5
81
330
1F
100
AcDbEntity
  8
D-6
  6
Continuous
 62
     6
370
     9
100
AcDbLine
 10
-190.8431323798925
 20
-476.8958921690245
 30
0.0
 11
-190.8431323798925
 21
-576.8957272091427
 31
0.0
  0
LINE
  5
82
330
1F
100
AcDbEntity
  8
D-6
  6
Continuous
 62
     6
370
     9
100
AcDbLine
 10
-190.8431323798925
 20
-572.9055126293285
 30
0.0
 11
-94.83276960012063
 21
-476.8958921690245
 31
0.0
  0
LINE
  5
83
330
1F
100
AcDbEntity
  8
D-4
  6
Continuous
 62
     7
370
     9
100
AcDbLine
 10
-135.0641340822784
 20
-576.8957272091427
 30
0.0
 11
83.84241284550853
 21
-576.8957272091427
 31
0.0
  0
LINE
  5
84
330
1F
100
AcDbEntity
  8
D-6
  6
Continuous
 62
     6
370
     9
100
AcDbLine
 10
-440.8427199801881
 20
-576.8957272091427
 30
0.0
 11
-190.8431323798925
 21
-576.8957272091427
 31
0.0
  0
LINE
  5
85
330
1F
100
AcDbEntity
  8
D-6
  6
Continuous
 62
     6
370
     9
100
AcDbLine
 10
-347.3417681616704
 20
-379.3958179370776
 30
0.0
 11
-302.3416196977769
 21
-379.3958179370776
 31
0.0
  0
LINE
  5
86
330
1F
100
AcDbEntity
  8
D-6
  6
JWW_CENTER2
 62
     6
370
     9
100
AcDbLine
 10
-324.8416939297238
 20
-375.3160301414695
 30
0.0
 11
-324.8416939297238
 21
-704.3956529771959
 31
0.0
  0
LINE
  5
87
330
1F
100
AcDbEntity
  8
D-4
  6
Continuous
 62
     7
370
     9
100
AcDbLine
 10
-435.8429509240227
 20
-517.4264113967483
 30
0.0
 11
-285.8424560443774
 21
-517.4264113967483
 31
0.0
  0
LINE
  5
88
330
1F
100
AcDbEntity
  8
D-4
  6
Continuous
 62
     7
370
     9
100
AcDbLine
 10
-435.8429509240227
 20
-464.8631410341004
 30
0.0
 11
-435.8429509240227
 21
-520.4266192461992
 31
0.0
  0
LINE
  5
89
330
1F
100
AcDbEntity
  8
D-4
  6
Continuous
 62
     7
370
     9
100
AcDbLine
 10
-290.8428437000995
 20
-464.8631410341004
 30
0.0
 11
-290.8428437000995
 21
-520.4266192461992
 31
0.0
  0
LINE
  5
8A
330
1F
100
AcDbEntity
  8
D-4
  6
Continuous
 62
     7
370
     9
100
AcDbLine
 10
-279.0167048170758
 20
-461.8959664009712
 30
0.0
 11
-199.7927833247829
 21
-461.8959664009712
 31
0.0
  0
LINE
  5
8B
330
1F
100
AcDbEntity
  8
D-4
  6
Continuous
 62
     7
370
     9
100
AcDbLine
 10
-279.0167048170758
 20
-411.8954302813555
 30
0.0
 11
-199.7927833247829
 21
-411.8954302813555
 31
0.0
  0
LINE
  5
8C
330
1F
100
AcDbEntity
  8
D-4
  6
Continuous
 62
     7
370
     9
100
AcDbLine
 10
-202.7928674543224
 20
-411.8954302813555
 30
0.0
 11
-202.7928674543224
 21
-326.8955210092905
 31
0.0
  0
LINE
  5
8D
330
1F
100
AcDbEntity
  8
D-6
  6
Continuous
 62
     6
370
     9
100
AcDbLine
 10
-347.3417681616704
 20
-576.8957272091427
 30
0.0
 11
-347.3417681616704
 21
-461.8959664009712
 31
0.0
  0
LINE
  5
8E
330
1F
100
AcDbEntity
  8
D-6
  6
Continuous
 62
     6
370
     9
100
AcDbLine
 10
-302.3416196977769
 20
-576.8957272091427
 30
0.0
 11
-302.3416196977769
 21
-461.8959664009712
 31
0.0
  0
LINE
  5
8F
330
1F
100
AcDbEntity
  8
D-6
  6
Continuous
 62
     6
370
     9
100
AcDbLine
 10
-347.3417681616704
 20
-411.8954302813555
 30
0.0
 11
-347.3417681616704
 21
-379.3958179370776
 31
0.0
  0
LINE
  5
90
330
1F
100
AcDbEntity
  8
D-6
  6
Continuous
 62
     6
370
     9
100
AcDbLine
 10
-302.3416196977769
 20
-411.8954302813555
 30
0.0
 11
-302.3416196977769
 21
-379.3958179370776
 31
0.0
  0
LINE
  5
91
330
1F
100
AcDbEntity
  8
D-4
  6
Continuous
 62
     7
370
     9
100
AcDbLine
 10
-761.325912217836
 20
-451.8958096890836
 30
0.0
 11
-761.325912217836
 21
-326.8955210092905
 31
0.0
  0
LINE
  5
92
330
1F
100
AcDbEntity
  8
D-4
  6
Continuous
 62
     7
370
     9
100
AcDbLine
 10
-463.9876223899222
 20
-451.8958096890836
 30
0.0
 11
-764.3258726274644
 21
-451.8958096890836
 31
0.0
  0
LINE
  5
93
330
1F
100
AcDbEntity
  8
D-4
  6
Continuous
 62
     7
370
     9
100
AcDbLine
 10
-463.9876223899222
 20
-326.8955210092905
 30
0.0
 11
-764.3258726274644
 21
-326.8955210092905
 31
0.0
  0
LINE
  5
94
330
1F
100
AcDbEntity
  8
D-4
  6
Continuous
 62
     7
370
     9
100
AcDbLine
 10
-1163.511197631424
 20
13.47181165540547
 30
0.0
 11
-435.8435695235792
 21
13.47181165540547
 31
0.0
  0
LINE
  5
95
330
1F
100
AcDbEntity
  8
D-4
  6
Continuous
 62
     7
370
     9
100
AcDbLine
 10
-590.8429674200107
 20
-886.9790237014358
 30
0.0
 11
-190.8420189006907
 21
-886.9790237014358
 31
0.0
  0
LINE
  5
96
330
1F
100
AcDbEntity
  8
D-4
  6
Continuous
 62
     7
370
     9
100
AcDbLine
 10
-1163.511197631424
 20
-97.22385715793905
 30
0.0
 11
-389.3058300018311
 21
-97.22385715793905
 31
0.0
  0
LINE
  5
97
330
1F
100
AcDbEntity
  8
D-4
  6
Continuous
 62
     7
370
     9
100
AcDbLine
 10
-202.7928674543224
 20
-461.8959664009712
 30
0.0
 11
-202.7928674543224
 21
-411.8954302813555
 31
0.0
  0
LINE
  5
98
330
1F
100
AcDbEntity
  8
D-4
  6
Continuous
 62
     7
370
     9
100
AcDbLine
 10
-590.8429674200107
 20
-851.8957684491131
 30
0.0
 11
-590.8429674200107
 21
-889.9786129513302
 31
0.0
  0
LINE
  5
99
330
1F
100
AcDbEntity
  8
D-5
  6
Continuous
 62
     2
370
     9
100
AcDbLine
 10
-932.8378355180894
 20
-1022.837837837838
 30
0.0
 11
-932.8378355180894
 21
-957.8382419895481
 31
0.0
  0
LINE
  5
9A
330
1F
100
AcDbEntity
  8
D-5
  6
Continuous
 62
     2
370
     9
100
AcDbLine
 10
-932.8378355180894
 20
-957.8382419895481
 30
0.0
 11
-357.8374231183849
 21
-957.8382419895481
 31
0.0
  0
LINE
  5
9B
330
1F
100
AcDbEntity
  8
D-5
  6
Continuous
 62
     2
370
     9
100
AcDbLine
 10
-357.8374231183849
 20
-957.8382419895481
 30
0.0
 11
-357.8374231183849
 21
-1022.837837837838
 31
0.0
  0
LINE
  5
9C
330
1F
100
AcDbEntity
  8
D-5
  6
Continuous
 62
     2
370
     9
100
AcDbLine
 10
-357.8374231183849
 20
-1022.837837837838
 30
0.0
 11
-932.8378355180894
 21
-1022.837837837838
 31
0.0
  0
LINE
  5
9D
330
1F
100
AcDbEntity
  8
D-A
  6
Continuous
 62
     3
370
     9
100
AcDbLine
 10
-452.3429806168014
 20
-331.8959086650126
 30
0.0
 11
-440.8427199801881
 21
-331.8959086650126
 31
0.0
  0
LINE
  5
9E
330
1F
100
AcDbEntity
  8
D-A
  6
Continuous
 62
     3
370
     9
100
AcDbLine
 10
-440.8427199801881
 20
-444.396032384924
 30
0.0
 11
-452.3429806168014
 21
-444.396032384924
 31
0.0
  0
LINE
  5
9F
330
1F
100
AcDbEntity
  8
D-A
  6
Continuous
 62
     3
370
     9
100
AcDbLine
 10
-440.8427199801881
 20
-444.396032384924
 30
0.0
 11
-440.8427199801881
 21
-411.8954302813555
 31
0.0
  0
LINE
  5
A0
330
1F
100
AcDbEntity
  8
D-5
  6
Continuous
 62
     7
370
     9
100
AcDbLine
 10
-341.3198251981993
 20
-163.9843585040117
 30
0.0
 11
-504.6214477435961
 21
-351.6094393343537
 31
0.0
  0
LINE
  5
A1
330
1F
100
AcDbEntity
  8
D-5
  6
Continuous
 62
     7
370
     9
100
AcDbLine
 10
-504.6214477435961
 20
-351.6094393343537
 30
0.0
 11
-490.8102228834821
 21
-330.7698100322001
 31
0.0
  0
LINE
  5
A2
330
1F
100
AcDbEntity
  8
D-5
  6
Continuous
 62
     7
370
     9
100
AcDbLine
 10
-504.6214477435961
 20
-351.6094393343537
 30
0.0
 11
-485.887407612156
 21
-335.0546017208615
 31
0.0
  0
LINE
  5
A3
330
1F
100
AcDbEntity
  8
D-5
  6
Continuous
 62
     7
370
     9
100
AcDbLine
 10
-341.3198251981993
 20
-218.8464685388513
 30
0.0
 11
-437.7952511246139
 21
-329.6915910050674
 31
0.0
  0
LINE
  5
A4
330
1F
100
AcDbEntity
  8
D-5
  6
Continuous
 62
     7
370
     9
100
AcDbLine
 10
-437.7952511246139
 20
-329.6915910050674
 30
0.0
 11
-423.9839025445886
 21
-308.8530751821156
 31
0.0
  0
LINE
  5
A5
330
1F
100
AcDbEntity
  8
D-5
  6
Continuous
 62
     7
370
     9
100
AcDbLine
 10
-437.7952511246139
 20
-329.6915910050674
 30
0.0
 11
-419.0609635533511
 21
-313.1376194309543
 31
0.0
  0
LINE
  5
A6
330
1F
100
AcDbEntity
  8
D-5
  6
Continuous
 62
     7
370
     9
100
AcDbLine
 10
-405.8219432830811
 20
-415.0721864442567
 30
0.0
 11
-284.7347916783511
 21
-275.9500122070312
 31
0.0
  0
LINE
  5
A7
330
1F
100
AcDbEntity
  8
D-5
  6
Continuous
 62
     7
370
     9
100
AcDbLine
 10
-405.8219432830811
 20
-415.0721864442567
 30
0.0
 11
-392.0108421428782
 21
-394.2334231814822
 31
0.0
  0
LINE
  5
A8
330
1F
100
AcDbEntity
  8
D-5
  6
Continuous
 62
     7
370
     9
100
AcDbLine
 10
-405.8219432830811
 20
-415.0721864442567
 30
0.0
 11
-387.0876557118183
 21
-398.5178437104096
 31
0.0
  0
LINE
  5
A9
330
1F
100
AcDbEntity
  8
D-5
  6
Continuous
 62
     7
370
     9
100
AcDbLine
 10
-284.7347916783511
 20
-275.9500122070312
 30
0.0
 11
101.9673798535322
 21
-275.9500122070312
 31
0.0
  0
LINE
  5
AA
330
1F
100
AcDbEntity
  8
D-6
  6
Continuous
 62
     6
370
     9
100
AcDbLine
 10
-440.8427199801881
 20
-326.8962633287583
 30
0.0
 11
-25.84196941272609
 21
-326.8962633287583
 31
0.0
  0
LINE
  5
AB
330
1F
100
AcDbEntity
  8
D-4
  6
Continuous
 62
     7
370
     9
100
AcDbLine
 10
-7.342625953055517
 20
-326.8962633287583
 30
0.0
 11
83.84241284550853
 21
-326.8962633287583
 31
0.0
  0
LINE
  5
AC
330
1F
100
AcDbEntity
  8
D-5
  6
Continuous
 62
     7
370
     9
100
AcDbLine
 10
-341.3198251981993
 20
-218.8464685388513
 30
0.0
 11
109.6474170684817
 21
-218.8464685388513
 31
0.0
  0
LINE
  5
AD
330
1F
100
AcDbEntity
  8
D-9
  6
Continuous
 62
     4
370
     9
100
AcDbLine
 10
-557.8868286029711
 20
-344.3954550253378
 30
0.0
 11
-575.3868863389298
 21
-361.8955127612963
 31
0.0
  0
LINE
  5
AE
330
1F
100
AcDbEntity
  8
D-9
  6
Continuous
 62
     4
370
     9
100
AcDbLine
 10
-529.6024773571941
 20
-344.3954550253378
 30
0.0
 11
-547.1024113732415
 21
-361.8955127612963
 31
0.0
  0
LINE
  5
AF
330
1F
100
AcDbEntity
  8
D-9
  6
Continuous
 62
     4
370
     9
100
AcDbLine
 10
-522.5311421059271
 20
-344.3954550253378
 30
0.0
 11
-540.0311998418857
 21
-361.8955127612963
 31
0.0
  0
LINE
  5
B0
330
1F
100
AcDbEntity
  8
D-9
  6
Continuous
 62
     4
370
     9
100
AcDbLine
 10
-515.460425454217
 20
-344.3954550253378
 30
0.0
 11
-532.9598645906191
 21
-361.8955127612963
 31
0.0
  0
LINE
  5
B1
330
1F
100
AcDbEntity
  8
D-9
  6
Continuous
 62
     4
370
     9
100
AcDbLine
 10
-508.3889664830386
 20
-344.3954550253378
 30
0.0
 11
-528.012181617118
 21
-364.0182989996832
 31
0.0
  0
LINE
  5
B2
330
1F
100
AcDbEntity
  8
D-9
  6
Continuous
 62
     4
370
     9
100
AcDbLine
 10
-501.3182498313284
 20
-344.3954550253378
 30
0.0
 11
-523.9716130333977
 21
-367.048818227407
 31
0.0
  0
LINE
  5
B3
330
1F
100
AcDbEntity
  8
D-9
  6
Continuous
 62
     4
370
     9
100
AcDbLine
 10
-494.2467908601503
 20
-344.3954550253378
 30
0.0
 11
-519.9310444496771
 21
-370.0790900153082
 31
0.0
  0
LINE
  5
B4
330
1F
100
AcDbEntity
  8
D-9
  6
Continuous
 62
     4
370
     9
100
AcDbLine
 10
-487.1760742084399
 20
-344.3954550253378
 30
0.0
 11
-515.8904758659569
 21
-373.109609243032
 31
0.0
  0
LINE
  5
B5
330
1F
100
AcDbEntity
  8
D-9
  6
Continuous
 62
     4
370
     9
100
AcDbLine
 10
-480.104738957173
 20
-344.3954550253378
 30
0.0
 11
-511.8492886826797
 21
-376.1402521906672
 31
0.0
  0
LINE
  5
B6
330
1F
100
AcDbEntity
  8
D-9
  6
Continuous
 62
     4
370
     9
100
AcDbLine
 10
-473.0337748656402
 20
-344.3954550253378
 30
0.0
 11
-505.5337583696519
 21
-376.8954385293496
 31
0.0
  0
LINE
  5
B7
330
1F
100
AcDbEntity
  8
D-9
  6
Continuous
 62
     4
370
     9
100
AcDbLine
 10
-465.9625633342844
 20
-344.3954550253378
 30
0.0
 11
-498.4622993984738
 21
-376.8954385293496
 31
0.0
  0
LINE
  5
B8
330
1F
100
AcDbEntity
  8
D-9
  6
Continuous
 62
     4
370
     9
100
AcDbLine
 10
-460.8429096840521
 20
-346.3465180268159
 30
0.0
 11
-491.3915827467633
 21
-376.8954385293496
 31
0.0
  0
LINE
  5
B9
330
1F
100
AcDbEntity
  8
D-9
  6
Continuous
 62
     4
370
     9
100
AcDbLine
 10
-460.8429096840521
 20
-367.5597814611485
 30
0.0
 11
-470.1780718726079
 21
-376.8954385293496
 31
0.0
  0
LINE
  5
BA
330
1F
100
AcDbEntity
  8
D-9
  6
Continuous
 62
     4
370
     9
100
AcDbLine
 10
-460.8429096840521
 20
-360.4886936497043
 30
0.0
 11
-477.2492834039636
 21
-376.8954385293496
 31
0.0
  0
LINE
  5
BB
330
1F
100
AcDbEntity
  8
D-9
  6
Continuous
 62
     4
370
     9
100
AcDbLine
 10
-460.8429096840521
 20
-353.41760583826
 30
0.0
 11
-484.3201237755852
 21
-376.8954385293496
 31
0.0
  0
LINE
  5
BC
330
1F
100
AcDbEntity
  8
D-9
  6
Continuous
 62
     4
370
     9
100
AcDbLine
 10
-572.0291279457708
 20
-344.3954550253378
 30
0.0
 11
-580.8429344280344
 21
-353.2090140677786
 31
0.0
  0
LINE
  5
BD
330
1F
100
AcDbEntity
  8
D-9
  6
Continuous
 62
     4
370
     9
100
AcDbLine
 10
-564.9581638542381
 20
-344.3954550253378
 30
0.0
 11
-580.8429344280344
 21
-360.2801018792229
 31
0.0
  0
LINE
  5
BE
330
1F
100
AcDbEntity
  8
D-9
  6
Continuous
 62
     4
370
     9
100
AcDbLine
 10
-575.8426704922238
 20
-344.3954550253378
 30
0.0
 11
-460.8429096840521
 21
-344.3954550253378
 31
0.0
  0
LINE
  5
BF
330
1F
100
AcDbEntity
  8
D-9
  6
Continuous
 62
     4
370
     9
100
AcDbLine
 10
-580.8429344280344
 20
-349.3955952412372
 30
0.0
 11
-580.8429344280344
 21
-361.8955127612963
 31
0.0
  0
LINE
  5
C0
330
1F
100
AcDbEntity
  8
D-6
  6
Continuous
 62
     6
370
     9
100
AcDbLine
 10
-590.8429674200107
 20
-381.8954550253378
 30
0.0
 11
-590.8429674200107
 21
-826.8954385293496
 31
0.0
  0
LINE
  5
C1
330
1F
100
AcDbEntity
  8
D-1
  6
Continuous
 62
     2
370
     9
100
AcDbLine
 10
-440.8424725403657
 20
-446.8952983134501
 30
0.0
 11
-455.84252202833
 21
-446.8952983134501
 31
0.0
  0
LINE
  5
C2
330
1F
100
AcDbEntity
  8
D-1
  6
Continuous
 62
     2
370
     9
100
AcDbLine
 10
-440.8424725403657
 20
-331.8955375052786
 30
0.0
 11
-455.84252202833
 21
-331.8955375052786
 31
0.0
  0
LINE
  5
C3
330
1F
100
AcDbEntity
  8
D-1
  6
Continuous
 62
     2
370
     9
100
AcDbLine
 10
-435.8424560443774
 20
-424.3953478014146
 30
0.0
 11
-440.8424725403657
 21
-424.3953478014146
 31
0.0
  0
LINE
  5
C4
330
1F
100
AcDbEntity
  8
D-1
  6
Continuous
 62
     2
370
     9
100
AcDbLine
 10
-440.8424725403657
 20
-446.8952983134501
 30
0.0
 11
-440.8424725403657
 21
-424.3953478014146
 31
0.0
  0
LINE
  5
C5
330
1F
100
AcDbEntity
  8
D-1
  6
Continuous
 62
     2
370
     9
100
AcDbLine
 10
-435.8424560443774
 20
-354.3953642974029
 30
0.0
 11
-440.8424725403657
 21
-354.3953642974029
 31
0.0
  0
LINE
  5
C6
330
1F
100
AcDbEntity
  8
D-1
  6
Continuous
 62
     2
370
     9
100
AcDbLine
 10
-440.8424725403657
 20
-354.3953642974029
 30
0.0
 11
-440.8424725403657
 21
-331.8955375052786
 31
0.0
  0
LINE
  5
C7
330
1F
100
AcDbEntity
  8
D-1
  6
Continuous
 62
     2
370
     9
100
AcDbLine
 10
-513.8424164540058
 20
-380.8953032622466
 30
0.0
 11
-532.5090292337777
 21
-366.8955292572846
 31
0.0
  0
LINE
  5
C8
330
1F
100
AcDbEntity
  8
D-1
  6
Continuous
 62
     2
370
     9
100
AcDbLine
 10
-460.8425385243183
 20
-376.8953148094383
 30
0.0
 11
-510.8424560443774
 21
-376.8953148094383
 31
0.0
  0
LINE
  5
C9
330
1F
100
AcDbEntity
  8
D-1
  6
Continuous
 62
     2
370
     9
100
AcDbLine
 10
-455.84252202833
 20
-386.8953478014146
 30
0.0
 11
-455.84252202833
 21
-446.8952983134501
 31
0.0
  0
LINE
  5
CA
330
1F
100
AcDbEntity
  8
D-1
  6
Continuous
 62
     2
370
     9
100
AcDbLine
 10
-455.84252202833
 20
-376.8953148094383
 30
0.0
 11
-455.84252202833
 21
-331.8955375052786
 31
0.0
  0
LINE
  5
CB
330
1F
100
AcDbEntity
  8
D-1
  6
Continuous
 62
     2
370
     9
100
AcDbLine
 10
-435.8424560443774
 20
-329.8952339790962
 30
0.0
 11
-435.8424560443774
 21
-354.3953642974029
 31
0.0
  0
LINE
  5
CC
330
1F
100
AcDbEntity
  8
D-1
  6
Continuous
 62
     2
370
     9
100
AcDbLine
 10
-457.8424543947784
 20
-326.8953972893792
 30
0.0
 11
-438.8424164540058
 21
-326.8953972893792
 31
0.0
  0
LINE
  5
CD
330
1F
100
AcDbEntity
  8
D-1
  6
Continuous
 62
     2
370
     9
100
AcDbLine
 10
-460.8425385243183
 20
-329.8952339790962
 30
0.0
 11
-460.8425385243183
 21
-376.8953148094383
 31
0.0
  0
LINE
  5
CE
330
1F
100
AcDbEntity
  8
D-1
  6
Continuous
 62
     2
370
     9
100
AcDbLine
 10
-435.8424560443774
 20
-448.8953543998099
 30
0.0
 11
-435.8424560443774
 21
-424.3953478014146
 31
0.0
  0
LINE
  5
CF
330
1F
100
AcDbEntity
  8
D-1
  6
Continuous
 62
     2
370
     9
100
AcDbLine
 10
-457.8424543947784
 20
-451.8953148094383
 30
0.0
 11
-438.8424164540058
 21
-451.8953148094383
 31
0.0
  0
LINE
  5
D0
330
1F
100
AcDbEntity
  8
D-1
  6
Continuous
 62
     2
370
     9
100
AcDbLine
 10
-460.8425385243183
 20
-448.8953543998099
 30
0.0
 11
-460.8425385243183
 21
-386.8953478014146
 31
0.0
  0
LINE
  5
D1
330
1F
100
AcDbEntity
  8
D-1
  6
Continuous
 62
     2
370
     9
100
AcDbLine
 10
-529.5224305745717
 20
-362.8855194916596
 30
0.0
 11
-510.8424560443774
 21
-376.8953148094383
 31
0.0
  0
LINE
  5
D2
330
1F
100
AcDbEntity
  8
D-1
  6
Continuous
 62
     2
370
     9
100
AcDbLine
 10
-585.8424560443774
 20
-381.8952075855151
 30
0.0
 11
-460.8425385243183
 21
-381.8952075855151
 31
0.0
  0
LINE
  5
D3
330
1F
100
AcDbEntity
  8
D-1
  6
Continuous
 62
     2
370
     9
100
AcDbLine
 10
-585.8424560443774
 20
-381.8952075855151
 30
0.0
 11
-585.8424560443774
 21
-366.8955292572846
 31
0.0
  0
LINE
  5
D4
330
1F
100
AcDbEntity
  8
D-1
  6
Continuous
 62
     2
370
     9
100
AcDbLine
 10
-590.8424725403656
 20
-381.8952075855151
 30
0.0
 11
-590.8424725403656
 21
-366.8955292572846
 31
0.0
  0
LINE
  5
D5
330
1F
100
AcDbEntity
  8
D-1
  6
Continuous
 62
     2
370
     9
100
AcDbLine
 10
-585.8424560443774
 20
-386.8953478014146
 30
0.0
 11
-460.8425385243183
 21
-386.8953478014146
 31
0.0
  0
LINE
  5
D6
330
1F
100
AcDbEntity
  8
D-1
  6
Continuous
 62
     2
370
     9
100
AcDbLine
 10
-572.6727189244448
 20
-362.5653323611697
 30
0.0
 11
-560.8424972843477
 21
-369.3955375052786
 31
0.0
  0
LINE
  5
D7
330
1F
100
AcDbEntity
  8
D-1
  6
Continuous
 62
     2
370
     9
100
AcDbLine
 10
-549.0122756442506
 20
-362.5653323611697
 30
0.0
 11
-560.8424972843477
 21
-369.3955375052786
 31
0.0
  0
LINE
  5
D8
330
1F
100
AcDbEntity
  8
D-1
  6
Continuous
 62
     2
370
     9
100
AcDbLine
 10
-558.3424890363538
 20
-373.7256106814822
 30
0.0
 11
-546.512391116168
 21
-366.8955292572846
 31
0.0
  0
LINE
  5
D9
330
1F
100
AcDbEntity
  8
D-1
  6
Continuous
 62
     2
370
     9
100
AcDbLine
 10
-563.342505532342
 20
-373.7256106814822
 30
0.0
 11
-575.1727271724392
 21
-366.8955292572846
 31
0.0
  0
LINE
  5
DA
330
1F
100
AcDbEntity
  8
D-1
  6
Continuous
 62
     2
370
     9
100
AcDbLine
 10
-532.4924507656613
 20
-361.8955127612963
 30
0.0
 11
-546.5122673962566
 21
-361.8955127612963
 31
0.0
  0
LINE
  5
DB
330
1F
100
AcDbEntity
  8
D-1
  6
Continuous
 62
     2
370
     9
100
AcDbLine
 10
-575.1727271724392
 20
-361.8955127612963
 30
0.0
 11
-585.8424560443774
 21
-361.8955127612963
 31
0.0
  0
LINE
  5
DC
330
1F
100
AcDbEntity
  8
D-1
  6
Continuous
 62
     2
370
     9
100
AcDbLine
 10
-532.5090292337777
 20
-366.8955292572846
 30
0.0
 11
-546.512391116168
 21
-366.8955292572846
 31
0.0
  0
LINE
  5
DD
330
1F
100
AcDbEntity
  8
D-1
  6
Continuous
 62
     2
370
     9
100
AcDbLine
 10
-575.1727271724392
 20
-366.8955292572846
 30
0.0
 11
-585.8424560443774
 21
-366.8955292572846
 31
0.0
  0
LINE
  5
DE
330
1F
100
AcDbEntity
  8
D-9
  6
Continuous
 62
     4
370
     9
100
AcDbLine
 10
-536.6734414487271
 20
-344.3954550253378
 30
0.0
 11
-561.3696678264719
 21
-369.0910628035261
 31
0.0
  0
LINE
  5
DF
330
1F
100
AcDbEntity
  8
D-9
  6
Continuous
 62
     4
370
     9
100
AcDbLine
 10
-543.7446529800826
 20
-344.3954550253378
 30
0.0
 11
-565.85228765333
 21
-366.5030896985853
 31
0.0
  0
LINE
  5
E0
330
1F
100
AcDbEntity
  8
D-9
  6
Continuous
 62
     4
370
     9
100
AcDbLine
 10
-550.8156170716156
 20
-344.3954550253378
 30
0.0
 11
-570.3352786399222
 21
-363.9148691538218
 31
0.0
  0
LINE
  5
E1
330
1F
100
AcDbEntity
  8
D-2
  6
Continuous
 62
     3
370
     9
100
AcDbLine
 10
-465.8430498999516
 20
-329.3956529771958
 30
0.0
 11
-465.8430498999516
 21
-344.3954550253378
 31
0.0
  0
LINE
  5
E2
330
1F
100
AcDbEntity
  8
D-4
  6
Continuous
 62
     7
370
     9
100
AcDbLine
 10
-947.5695365184062
 20
-291.3754107501055
 30
0.0
 11
-947.5695365184062
 21
-375.5783163534628
 31
0.0
  0
LINE
  5
E3
330
1F
100
AcDbEntity
  8
D-5
  6
Continuous
 62
     7
370
     9
100
AcDbLine
 10
-1045.658517528225
 20
-581.2409560744827
 30
0.0
 11
-805.1856105392042
 21
-581.2409560744827
 31
0.0
  0
LINE
  5
E4
330
1F
100
AcDbEntity
  8
D-2
  6
Continuous
 62
     3
370
     9
100
AcDbLine
 10
-465.8430498999516
 20
-344.3954550253378
 30
0.0
 11
-1138.51229049064
 21
-344.3954550253378
 31
0.0
  0
LINE
  5
E5
330
1F
100
AcDbEntity
  8
D-2
  6
Continuous
 62
     3
370
     9
100
AcDbLine
 10
-465.8430498999516
 20
-339.3956859691723
 30
0.0
 11
-1138.51229049064
 21
-339.3956859691723
 31
0.0
  0
LINE
  5
E6
330
1F
100
AcDbEntity
  8
D-2
  6
Continuous
 62
     3
370
     9
100
AcDbLine
 10
-465.8430498999516
 20
-334.3959169130067
 30
0.0
 11
-1138.51229049064
 21
-334.3959169130067
 31
0.0
  0
LINE
  5
E7
330
1F
100
AcDbEntity
  8
D-2
  6
Continuous
 62
     3
370
     9
100
AcDbLine
 10
-465.8430498999516
 20
-329.3956529771958
 30
0.0
 11
-1138.51229049064
 21
-329.3956529771958
 31
0.0
  0
LINE
  5
E8
330
1F
100
AcDbEntity
  8
D-5
  6
Continuous
 62
     7
370
     9
100
AcDbLine
 10
-341.3208149574896
 20
-100.6496615023227
 30
0.0
 11
351.5916012428903
 21
-100.6496615023227
 31
0.0
  0
LINE
  5
E9
330
1F
100
AcDbEntity
  8
D-5
  6
Continuous
 62
     7
370
     9
100
AcDbLine
 10
-341.3208149574896
 20
-100.6496615023227
 30
0.0
 11
-538.8334673804204
 21
-329.3956529771958
 31
0.0
  0
LINE
  5
EA
330
1F
100
AcDbEntity
  8
D-5
  6
Continuous
 62
     7
370
     9
100
AcDbLine
 10
-538.8334673804204
 20
-329.3956529771958
 30
0.0
 11
-525.1051348608892
 21
-308.5027003932643
 31
0.0
  0
LINE
  5
EB
330
1F
100
AcDbEntity
  8
D-5
  6
Continuous
 62
     7
370
     9
100
AcDbLine
 10
-538.8334673804204
 20
-329.3956529771958
 30
0.0
 11
-520.1652462418014
 21
-312.7676968961148
 31
0.0
  0
LINE
  5
EC
330
1F
100
AcDbEntity
  8
D-5
  6
Continuous
 62
     2
370
     9
100
AcDbLine
 10
533.828556215441
 20
-376.8958096890836
 30
0.0
 11
308.8292985349091
 21
-376.8958096890836
 31
0.0
  0
LINE
  5
ED
330
1F
100
AcDbEntity
  8
D-5
  6
Continuous
 62
     2
370
     9
100
AcDbLine
 10
533.828556215441
 20
-326.8955210092905
 30
0.0
 11
533.828556215441
 21
-376.8958096890836
 31
0.0
  0
LINE
  5
EE
330
1F
100
AcDbEntity
  8
D-5
  6
Continuous
 62
     2
370
     9
100
AcDbLine
 10
308.8292985349091
 20
-326.8955210092905
 30
0.0
 11
533.828556215441
 21
-326.8955210092905
 31
0.0
  0
LINE
  5
EF
330
1F
100
AcDbEntity
  8
D-5
  6
Continuous
 62
     2
370
     9
100
AcDbLine
 10
308.8292985349091
 20
-376.8958096890836
 30
0.0
 11
308.8292985349091
 21
-326.8955210092905
 31
0.0
  0
LINE
  5
F0
330
1F
100
AcDbEntity
  8
D-5
  6
Continuous
 62
     7
370
     9
100
AcDbLine
 10
-805.1856105392042
 20
-581.2409560744827
 30
0.0
 11
-653.5810870093267
 21
-405.6626685889991
 31
0.0
  0
LINE
  5
F1
330
1F
100
AcDbEntity
  8
D-5
  6
Continuous
 62
     7
370
     9
100
AcDbLine
 10
-653.5810870093267
 20
-405.6626685889991
 30
0.0
 11
-667.3100381284146
 21
-426.5556211729307
 31
0.0
  0
LINE
  5
F2
330
1F
100
AcDbEntity
  8
D-5
  6
Continuous
 62
     7
370
     9
100
AcDbLine
 10
-653.5810870093267
 20
-405.6626685889991
 30
0.0
 11
-672.2499267475024
 21
-422.2903772302575
 31
0.0
  0
LINE
  5
F3
330
1F
100
AcDbEntity
  8
D-2
  6
Continuous
 62
     3
370
     9
100
AcDbLine
 10
-1138.51229049064
 20
-548.2554337785051
 30
0.0
 11
-1138.51229049064
 21
-260.696460620777
 31
0.0
  0
LINE
  5
F4
330
1F
100
AcDbEntity
  8
D-5
  6
Continuous
 62
     7
370
     9
100
AcDbLine
 10
-1049.846683966147
 20
-420.361707532728
 30
0.0
 11
-1053.863622046806
 21
-445.036901525549
 31
0.0
  0
LINE
  5
F5
330
1F
100
AcDbEntity
  8
D-5
  6
Continuous
 62
     7
370
     9
100
AcDbLine
 10
-1049.846683966147
 20
-420.361707532728
 30
0.0
 11
-1060.11308592719
 21
-443.1564825934332
 31
0.0
  0
LINE
  5
F6
330
1F
100
AcDbEntity
  8
D-0
  6
Continuous
 62
     3
370
     9
100
AcDbLine
 10
-628.6433593646899
 20
-354.3956117372254
 30
0.0
 11
-628.6433593646899
 21
-359.395380793391
 31
0.0
  0
LINE
  5
F7
330
1F
100
AcDbEntity
  8
D-0
  6
Continuous
 62
     3
370
     9
100
AcDbLine
 10
-609.2231686050826
 20
-359.395380793391
 30
0.0
 11
-628.6433593646899
 21
-359.395380793391
 31
0.0
  0
LINE
  5
F8
330
1F
100
AcDbEntity
  8
D-0
  6
Continuous
 62
     3
370
     9
100
AcDbLine
 10
-609.2235397648165
 20
-354.3956117372254
 30
0.0
 11
-628.6433593646899
 21
-354.3956117372254
 31
0.0
  0
LINE
  5
F9
330
1F
100
AcDbEntity
  8
D-0
  6
Continuous
 62
     3
370
     9
100
AcDbLine
 10
-713.6431449168435
 20
-444.395290065456
 30
0.0
 11
-661.1433428687017
 21
-444.395290065456
 31
0.0
  0
LINE
  5
FA
330
1F
100
AcDbEntity
  8
D-0
  6
Continuous
 62
     3
370
     9
100
AcDbLine
 10
-646.1432933807373
 20
-444.395290065456
 30
0.0
 11
-617.8000514571729
 21
-444.395290065456
 31
0.0
  0
LINE
  5
FB
330
1F
100
AcDbEntity
  8
D-0
  6
Continuous
 62
     3
370
     9
100
AcDbLine
 10
-617.8000514571729
 20
-439.3955210092905
 30
0.0
 11
-654.0721313373461
 21
-439.3955210092905
 31
0.0
  0
LINE
  5
FC
330
1F
100
AcDbEntity
  8
D-0
  6
Continuous
 62
     3
370
     9
100
AcDbLine
 10
-728.6431944048081
 20
-429.3957354571367
 30
0.0
 11
-728.6431944048081
 21
-344.3954550253378
 31
0.0
  0
LINE
  5
FD
330
1F
100
AcDbEntity
  8
D-0
  6
Continuous
 62
     3
370
     9
100
AcDbLine
 10
-591.8947103861215
 20
-393.5571701462204
 30
0.0
 11
-602.0397431141621
 21
-359.7404356260557
 31
0.0
  0
LINE
  5
FE
330
1F
100
AcDbEntity
  8
D-0
  6
Continuous
 62
     3
370
     9
100
AcDbLine
 10
-594.6404263779923
 20
-413.9908744193411
 30
0.0
 11
-611.4401056959821
 21
-440.8705097920185
 31
0.0
  0
LINE
  5
FF
330
1F
100
AcDbEntity
  8
D-0
  6
Continuous
 62
     3
370
     9
100
AcDbLine
 10
-598.8804314587566
 20
-411.3406701990075
 30
0.0
 11
-615.6801107767465
 21
-438.2204292915962
 31
0.0
  0
LINE
  5
100
330
1F
100
AcDbEntity
  8
D-0
  6
Continuous
 62
     3
370
     9
100
AcDbLine
 10
-606.8288171613538
 20
-361.176947516364
 30
0.0
 11
-596.6837844333131
 21
-394.994176916174
 31
0.0
  0
LINE
  5
101
330
1F
100
AcDbEntity
  8
D-0
  6
JWW_DASHED1
 62
     3
370
     9
100
AcDbLine
 10
-688.6430624369027
 20
-349.3955952412372
 30
0.0
 11
-728.6431944048081
 21
-349.3955952412372
 31
0.0
  0
LINE
  5
102
330
1F
100
AcDbEntity
  8
D-0
  6
Continuous
 62
     3
370
     9
100
AcDbLine
 10
-688.6430624369027
 20
-349.3955952412372
 30
0.0
 11
-656.1432026528021
 21
-349.3955952412372
 31
0.0
  0
LINE
  5
103
330
1F
100
AcDbEntity
  8
D-0
  6
Continuous
 62
     3
370
     9
100
AcDbLine
 10
-688.6430624369027
 20
-391.8956117372254
 30
0.0
 11
-688.6430624369027
 21
-344.3954550253378
 31
0.0
  0
LINE
  5
104
330
1F
100
AcDbEntity
  8
D-0
  6
Continuous
 62
     3
370
     9
100
AcDbLine
 10
-686.1430541889086
 20
-394.3957437051308
 30
0.0
 11
-648.6430541889086
 21
-394.3957437051308
 31
0.0
  0
LINE
  5
105
330
1F
100
AcDbEntity
  8
D-0
  6
JWW_DASHED1
 62
     3
370
     9
100
AcDbLine
 10
-653.6431944048081
 20
-436.8951416015625
 30
0.0
 11
-653.6431944048081
 21
-394.3957437051308
 31
0.0
  0
LINE
  5
106
330
1F
100
AcDbEntity
  8
D-0
  6
Continuous
 62
     3
370
     9
100
AcDbLine
 10
-653.6431944048081
 20
-394.3957437051308
 30
0.0
 11
-653.6431944048081
 21
-351.8952323294974
 31
0.0
  0
LINE
  5
107
330
1F
100
AcDbEntity
  8
D-0
  6
Continuous
 62
     3
370
     9
100
AcDbLine
 10
-656.1432026528021
 20
-344.3954550253378
 30
0.0
 11
-728.6431944048081
 21
-344.3954550253378
 31
0.0
  0
LINE
  5
108
330
1F
100
AcDbEntity
  8
D-0
  6
Continuous
 62
     3
370
     9
100
AcDbLine
 10
-648.6430541889086
 20
-351.8952323294974
 30
0.0
 11
-648.6430541889086
 21
-436.8951416015625
 31
0.0
  0
ARC
  5
109
330
1F
100
AcDbEntity
  8
D-A
  6
Continuous
 62
     3
370
     9
100
AcDbCircle
 10
-425.8430416519576
 20
-441.0375316722973
 30
0.0
 40
10.00000012887491
100
AcDbArc
 50
7.016464233398438
 51
45.0
  0
ARC
  5
10A
330
1F
100
AcDbEntity
  8
D-A
  6
Continuous
 62
     3
370
     9
100
AcDbCircle
 10
-300.8431241318985
 20
-421.8955869932432
 30
0.0
 40
10.00000012887491
100
AcDbArc
 50
7.016464233398438
 51
90.0
  0
ARC
  5
10B
330
1F
100
AcDbEntity
  8
D-A
  6
Continuous
 62
     3
370
     9
100
AcDbCircle
 10
-380.4876933226714
 20
-386.8955952412372
 30
0.0
 40
25.00000128874908
100
AcDbArc
 50
225.0
 51
270.0
  0
ARC
  5
10C
330
1F
100
AcDbEntity
  8
D-A
  6
JWW_DASHED3
 62
     3
370
     9
100
AcDbCircle
 10
-409.3427645193563
 20
-400.8957404059332
 30
0.0
 40
6.50000008376869
100
AcDbArc
 50
270.0
 51
0.0
  0
ARC
  5
10D
330
1F
100
AcDbEntity
  8
D-A
  6
Continuous
 62
     3
370
     9
100
AcDbCircle
 10
-409.3427645193563
 20
-377.8955902924409
 30
0.0
 40
6.50000008376869
100
AcDbArc
 50
0.0
 51
90.0
  0
ARC
  5
10E
330
1F
100
AcDbEntity
  8
D-9
  6
Continuous
 62
     4
370
     9
100
AcDbCircle
 10
-575.8426704922238
 20
-349.3955952412372
 30
0.0
 40
5.000000064437454
100
AcDbArc
 50
90.0
 51
180.0
  0
ARC
  5
10F
330
1F
100
AcDbEntity
  8
D-1
  6
Continuous
 62
     2
370
     9
100
AcDbCircle
 10
-510.8424560443774
 20
-376.8953148094383
 30
0.0
 40
5.000000064437454
100
AcDbArc
 50
233.1302490234375
 51
270.0000000000001
  0
ARC
  5
110
330
1F
100
AcDbEntity
  8
D-1
  6
Continuous
 62
     2
370
     9
100
AcDbCircle
 10
-585.8424560443774
 20
-366.8955292572846
 30
0.0
 40
5.000000064437454
100
AcDbArc
 50
90.0
 51
180.0
  0
ARC
  5
111
330
1F
100
AcDbEntity
  8
D-1
  6
Continuous
 62
     2
370
     9
100
AcDbCircle
 10
-460.8425385243183
 20
-386.8953478014146
 30
0.0
 40
5.000000064437454
100
AcDbArc
 50
0.0
 51
90.0
  0
ARC
  5
112
330
1F
100
AcDbEntity
  8
D-1
  6
Continuous
 62
     2
370
     9
100
AcDbCircle
 10
-460.8425385243183
 20
-376.8953148094383
 30
0.0
 40
5.000000064437454
100
AcDbArc
 50
270.0
 51
0.0
  0
ARC
  5
113
330
1F
100
AcDbEntity
  8
D-1
  6
Continuous
 62
     2
370
     9
100
AcDbCircle
 10
-438.8424164540058
 20
-329.8952339790962
 30
0.0
 40
3.000000038662472
100
AcDbArc
 50
0.0
 51
90.0
  0
ARC
  5
114
330
1F
100
AcDbEntity
  8
D-1
  6
Continuous
 62
     2
370
     9
100
AcDbCircle
 10
-457.8424543947784
 20
-329.8952339790962
 30
0.0
 40
3.000000038662472
100
AcDbArc
 50
90.0
 51
180.0
  0
ARC
  5
115
330
1F
100
AcDbEntity
  8
D-1
  6
Continuous
 62
     2
370
     9
100
AcDbCircle
 10
-438.8424164540058
 20
-448.8953543998099
 30
0.0
 40
3.000000038662472
100
AcDbArc
 50
270.0
 51
0.0
  0
ARC
  5
116
330
1F
100
AcDbEntity
  8
D-1
  6
Continuous
 62
     2
370
     9
100
AcDbCircle
 10
-457.8424543947784
 20
-448.8953543998099
 30
0.0
 40
3.000000038662472
100
AcDbArc
 50
180.0
 51
270.0
  0
ARC
  5
117
330
1F
100
AcDbEntity
  8
D-1
  6
Continuous
 62
     2
370
     9
100
AcDbCircle
 10
-532.4928219253951
 20
-366.8454226932009
 30
0.0
 40
4.950000305433531
100
AcDbArc
 50
53.12966918945312
 51
90.0
  0
ARC
  5
118
330
1F
100
AcDbEntity
  8
D-1
  6
Continuous
 62
     2
370
     9
100
AcDbCircle
 10
-585.8424560443774
 20
-381.8952075855151
 30
0.0
 40
5.000000064437454
100
AcDbArc
 50
180.0
 51
270.0
  0
ARC
  5
119
330
1F
100
AcDbEntity
  8
D-1
  6
Continuous
 62
     2
370
     9
100
AcDbCircle
 10
-575.1727271724392
 20
-366.8955292572846
 30
0.0
 40
5.000000064437454
100
AcDbArc
 50
59.99996948242189
 51
90.00000000000001
  0
ARC
  5
11A
330
1F
100
AcDbEntity
  8
D-1
  6
Continuous
 62
     2
370
     9
100
AcDbCircle
 10
-546.5122673962566
 20
-366.8955292572846
 30
0.0
 40
5.000000064437454
100
AcDbArc
 50
90.0
 51
120.0000305175781
  0
ARC
  5
11B
330
1F
100
AcDbEntity
  8
D-1
  6
Continuous
 62
     2
370
     9
100
AcDbCircle
 10
-560.8424972843477
 20
-369.3955375052786
 30
0.0
 40
5.000000064437454
100
AcDbArc
 50
239.9999694824219
 51
300.0000305175781
  0
ARC
  5
11C
330
1F
100
AcDbEntity
  8
D-0
  6
Continuous
 62
     3
370
     9
100
AcDbCircle
 10
-656.1432026528021
 20
-351.8952323294974
 30
0.0
 40
2.500000032218727
100
AcDbArc
 50
0.0
 51
90.0
  0
ARC
  5
11D
330
1F
100
AcDbEntity
  8
D-0
  6
Continuous
 62
     3
370
     9
100
AcDbCircle
 10
-646.1432933807373
 20
-436.8951416015625
 30
0.0
 40
2.500000032218727
100
AcDbArc
 50
180.0
 51
270.0
  0
ARC
  5
11E
330
1F
100
AcDbEntity
  8
D-0
  6
Continuous
 62
     3
370
     9
100
AcDbCircle
 10
-617.8000514571729
 20
-436.8951416015625
 30
0.0
 40
2.500000032218727
100
AcDbArc
 50
270.0
 51
327.9938659667969
  0
ARC
  5
11F
330
1F
100
AcDbEntity
  8
D-0
  6
Continuous
 62
     3
370
     9
100
AcDbCircle
 10
-609.2231686050826
 20
-361.8951416015625
 30
0.0
 40
2.500000032218727
100
AcDbArc
 50
16.69964599609375
 51
90.0
  0
ARC
  5
120
330
1F
100
AcDbEntity
  8
D-0
  6
Continuous
 62
     3
370
     9
100
AcDbCircle
 10
-656.1432026528021
 20
-351.8952323294974
 30
0.0
 40
7.500000096656181
100
AcDbArc
 50
0.0
 51
90.0
  0
ARC
  5
121
330
1F
100
AcDbEntity
  8
D-0
  6
Continuous
 62
     3
370
     9
100
AcDbCircle
 10
-617.8000514571729
 20
-436.8951416015625
 30
0.0
 40
7.500000096656181
100
AcDbArc
 50
270.0
 51
327.9946594238281
  0
ARC
  5
122
330
1F
100
AcDbEntity
  8
D-0
  6
Continuous
 62
     3
370
     9
100
AcDbCircle
 10
-609.2235397648165
 20
-361.8951416015625
 30
0.0
 40
7.500000096656181
100
AcDbArc
 50
16.69938659667969
 51
90.0
  0
ARC
  5
123
330
1F
100
AcDbEntity
  8
D-0
  6
Continuous
 62
     3
370
     9
100
AcDbCircle
 10
-713.6431449168435
 20
-429.3957354571367
 30
0.0
 40
15.00000019331236
100
AcDbArc
 50
180.0
 51
270.0
  0
ARC
  5
124
330
1F
100
AcDbEntity
  8
D-0
  6
Continuous
 62
     3
370
     9
100
AcDbCircle
 10
-661.1433428687017
 20
-436.8951416015625
 30
0.0
 40
7.500000096656181
100
AcDbArc
 50
270.0
 51
340.5287780761719
  0
ARC
  5
125
330
1F
100
AcDbEntity
  8
D-0
  6
Continuous
 62
     3
370
     9
100
AcDbCircle
 10
-646.1432933807373
 20
-436.8951416015625
 30
0.0
 40
7.500000096656181
100
AcDbArc
 50
199.4712219238282
 51
270.0
  0
ARC
  5
126
330
1F
100
AcDbEntity
  8
D-0
  6
JWW_DASHED1
 62
     3
370
     9
100
AcDbCircle
 10
-646.1432933807373
 20
-436.8951416015625
 30
0.0
 40
7.500024743982264
100
AcDbArc
 50
180.0
 51
199.4712219238281
  0
ARC
  5
127
330
1F
100
AcDbEntity
  8
D-0
  6
Continuous
 62
     3
370
     9
100
AcDbCircle
 10
-615.8403280619027
 20
-400.740966796875
 30
0.0
 40
25.00000128874908
100
AcDbArc
 50
327.9944305419922
 51
16.69921874999999
  0
ARC
  5
128
330
1F
100
AcDbEntity
  8
D-0
  6
Continuous
 62
     3
370
     9
100
AcDbCircle
 10
-615.8403280619027
 20
-400.740966796875
 30
0.0
 40
20.00000025774982
100
AcDbArc
 50
327.9944305419922
 51
16.69921874999999
  0
ARC
  5
129
330
1F
100
AcDbEntity
  8
D-0
  6
Continuous
 62
     3
370
     9
100
AcDbCircle
 10
-686.1430541889086
 20
-391.8956117372254
 30
0.0
 40
2.500000032218727
100
AcDbArc
 50
180.0
 51
270.0
  0
TEXT
  5
12A
330
1F
100
AcDbEntity
  8
D-4
  6
Continuous
 62
     2
370
     9
100
AcDbText
 10
-498.7884539526862
 20
-86.58458298141873
 30
0.0
 40
30.48
  1
1
 41
0.9999999999999998
  7
ＭＳ ゴシック
100
AcDbText
  0
TEXT
  5
12B
330
1F
100
AcDbEntity
  8
D-4
  6
Continuous
 62
     2
370
     9
100
AcDbText
 10
-549.5927612201586
 20
-195.3358696684966
 30
0.0
 40
30.48
  1
25
 41
1.0625
  7
ＭＳ ゴシック
100
AcDbText
  0
TEXT
  5
12C
330
1F
100
AcDbEntity
  8
D-5
  6
Continuous
 62
     7
370
     9
100
AcDbText
 10
-340.4869180112271
 20
-156.2325475084458
 30
0.0
 40
22.86
  1
塩ビクッション
 41
1.142857142857143
  7
ＭＳ ゴシック
100
AcDbText
  0
TEXT
  5
12D
330
1F
100
AcDbEntity
  8
D-4
  6
Continuous
 62
     2
370
     9
100
AcDbText
 10
-581.2391763120082
 20
-721.8745742055531
 30
0.0
 40
30.48
  1
25～30
 41
1.104166666666667
  7
ＭＳ ゴシック
100
AcDbText
  0
TEXT
  5
12E
330
1F
100
AcDbEntity
  8
D-4
  6
Continuous
 62
     2
370
     9
100
AcDbText
 10
-458.7114300598968
 20
-876.338759765625
 30
0.0
 40
30.48
  1
75～80
 41
1.104166666666667
  7
ＭＳ ゴシック
100
AcDbText
  0
TEXT
  5
12F
330
1F
100
AcDbEntity
  8
D-4
  6
Continuous
 62
     2
370
     9
100
AcDbText
 10
70.20219139594907
 20
-522.4087031999738
 30
0.0
 40
30.48
  1
40～50
 50
90.00000250447816
 41
1.104166666666666
  7
ＭＳ ゴシック
100
AcDbText
  0
TEXT
  5
130
330
1F
100
AcDbEntity
  8
D-4
  6
Continuous
 62
     2
370
     9
100
AcDbText
 10
-407.2046035509362
 20
-506.7871372209261
 30
0.0
 40
30.48
  1
29
 50
0.0010007471525833
 41
1.0625
  7
ＭＳ ゴシック
100
AcDbText
  0
TEXT
  5
131
330
1F
100
AcDbEntity
  8
D-4
  6
Continuous
 62
     2
370
     9
100
AcDbText
 10
-213.4331304612663
 20
-458.1455130078286
 30
0.0
 40
30.48
  1
10
 50
90.00000250447816
 41
1.062499999999999
  7
ＭＳ ゴシック
100
AcDbText
  0
TEXT
  5
132
330
1F
100
AcDbEntity
  8
D-4
  6
Continuous
 62
     2
370
     9
100
AcDbText
 10
-213.4331304612663
 20
-390.6452903119883
 30
0.0
 40
30.48
  1
17
 50
90.00000250447816
 41
1.062499999999999
  7
ＭＳ ゴシック
100
AcDbText
  0
TEXT
  5
133
330
1F
100
AcDbEntity
  8
D-4
  6
Continuous
 62
     2
370
     9
100
AcDbText
 10
-771.9656803451345
 20
-420.064771744104
 30
0.0
 40
30.48
  1
25
 50
90.00000250447816
 41
1.062499999999999
  7
ＭＳ ゴシック
100
AcDbText
  0
TEXT
  5
134
330
1F
100
AcDbEntity
  8
D-4
  6
Continuous
 62
     2
370
     9
100
AcDbText
 10
-424.7311996769259
 20
-86.58458298141873
 30
0.0
 40
30.48
  1
5
 41
0.9999999999999998
  7
ＭＳ ゴシック
100
AcDbText
  0
TEXT
  5
135
330
1F
100
AcDbEntity
  8
D-5
  6
Continuous
 62
     2
370
     9
100
AcDbText
 10
-890.3375660342324
 20
-1004.697920317783
 30
0.0
 40
30.48
  1
断面詳細図　Ｓ＝１：２
 50
359.9999855334116
 41
1.113636363636364
  7
ＭＳ ゴシック
100
AcDbText
  0
TEXT
  5
136
330
1F
100
AcDbEntity
  8
D-5
  6
Continuous
 62
     7
370
     9
100
AcDbText
 10
-284.2928559071308
 20
-305.4798355679898
 30
0.0
 40
22.86
  1
ｔ＝２．３（ＳＰＨＣ）
 41
1.151515151515152
  7
ＭＳ ゴシック
100
AcDbText
  0
TEXT
  5
137
330
1F
100
AcDbEntity
  8
D-5
  6
Continuous
 62
     2
370
     9
100
AcDbText
 10
470.6309326274977
 20
-833.9387089579814
 30
0.0
 40
30.48
  1
材質：冷間圧延ステンレス鋼板（ＳＵＳ３０４－２Ｂ）
 41
1.12
  7
ＭＳ ゴシック
100
AcDbText
  0
TEXT
  5
138
330
1F
100
AcDbEntity
  8
D-5
  6
Continuous
 62
     7
370
     9
100
AcDbText
 10
-341.6802831598228
 20
-209.8579533097549
 30
0.0
 40
22.86
  1
ステンレス製受枠ＳＦ０３Ｂ
 41
1.153846153846154
  7
ＭＳ ゴシック
100
AcDbText
  0
TEXT
  5
139
330
1F
100
AcDbEntity
  8
D-5
  6
Continuous
 62
     7
370
     9
100
AcDbText
 10
-1043.599793459918
 20
-614.1983777185387
 30
0.0
 40
22.86
  1
（４ケ／１枚）
 41
1.142857142857143
  7
ＭＳ ゴシック
100
AcDbText
  0
TEXT
  5
13A
330
1F
100
AcDbEntity
  8
D-5
  6
Continuous
 62
     7
370
     9
100
AcDbText
 10
-1030.997492312814
 20
-568.7786950353565
 30
0.0
 40
22.86
  1
　クリップ　
 50
359.9999827106554
 41
1.138888888888889
  7
ＭＳ ゴシック
100
AcDbText
  0
TEXT
  5
13B
330
1F
100
AcDbEntity
  8
D-4
  6
Continuous
 62
     2
370
     9
100
AcDbText
 10
-958.2093051374577
 20
-310.7734847600985
 30
0.0
 40
30.48
  1
3
 50
90.00000250447816
 41
0.9999999999999989
  7
ＭＳ ゴシック
100
AcDbText
  0
TEXT
  5
13C
330
1F
100
AcDbEntity
  8
D-5
  6
Continuous
 62
     7
370
     9
100
AcDbText
 10
-337.3783232714678
 20
-91.42583100190025
 30
0.0
 40
22.86
  1
ステンレス製排水用蓋ＳＺ－３Ｃ（ｔ＝３）
 41
1.158333333333333
  7
ＭＳ ゴシック
100
AcDbText
  0
TEXT
  5
13D
330
1F
100
AcDbEntity
  8
D-5
  6
Continuous
 62
     7
370
     9
100
AcDbText
 10
-336.1735181550719
 20
-56.7984836227828
 30
0.0
 40
22.86
  1
ノンスリップタイプ　クリップ付
 41
1.155555555555555
  7
ＭＳ ゴシック
100
AcDbText
  0
TEXT
  5
13E
330
1F
100
AcDbEntity
  8
D-5
  6
Continuous
 62
     2
370
     9
100
AcDbText
 10
356.3288036552638
 20
-366.2554220333615
 30
0.0
 40
30.48
  1
仕　様
 41
1.083333333333333
  7
ＭＳ ゴシック
100
AcDbText
  0
TEXT
  5
13F
330
1F
100
AcDbEntity
  8
D-5
  6
Continuous
 62
     2
370
     9
100
AcDbText
 10
410.9192247648498
 20
-429.1760284918707
 30
0.0
 40
30.48
  1
ノンスリップタイプ跳び出し防止機構付
 41
1.118055555555555
  7
ＭＳ ゴシック
100
AcDbText
  0
TEXT
  5
140
330
1F
100
AcDbEntity
  8
D-5
  6
Continuous
 62
     2
370
     9
100
AcDbText
 10
470.6311800673204
 20
-559.176148087785
 30
0.0
 40
30.48
  1
材質：冷間圧延ステンレス鋼板（ＳＵＳ３０４－２Ｂ）
 41
1.12
  7
ＭＳ ゴシック
100
AcDbText
  0
TEXT
  5
141
330
1F
100
AcDbEntity
  8
D-5
  6
Continuous
 62
     2
370
     9
100
AcDbText
 10
470.6311563061302
 20
-624.1761769557586
 30
0.0
 40
30.48
  1
処理：ヘアライン
 50
359.999990016014
 41
1.109375
  7
ＭＳ ゴシック
100
AcDbText
  0
TEXT
  5
142
330
1F
100
AcDbEntity
  8
D-4
  6
Continuous
 62
     2
370
     9
100
AcDbText
 10
-1165.415436770465
 20
25.53757640941718
 30
0.0
 40
30.48
  1
□412
 41
1.1
  7
ＭＳ ゴシック
100
AcDbText
  0
TEXT
  5
143
330
1F
100
AcDbEntity
  8
D-4
  6
Continuous
 62
     2
370
     9
100
AcDbText
 10
-1165.415436770465
 20
-82.86086109058282
 30
0.0
 40
30.48
  1
□400
 41
1.1
  7
ＭＳ ゴシック
100
AcDbText
  0
TEXT
  5
144
330
1F
100
AcDbEntity
  8
D-4
  6
Continuous
 62
     2
370
     9
100
AcDbText
 10
-1165.415436770465
 20
-192.5651622545396
 30
0.0
 40
30.48
  1
□350
 41
1.1
  7
ＭＳ ゴシック
100
AcDbText
  0
TEXT
  5
145
330
1F
100
AcDbEntity
  8
D-5
  6
Continuous
 62
     2
370
     9
100
AcDbText
 10
410.9192989967967
 20
-768.9389893897803
 30
0.0
 40
30.48
  1
ステンレス製受枠　ＳＦ０３Ｂ（四方枠）
 41
1.118421052631579
  7
ＭＳ ゴシック
100
AcDbText
  0
TEXT
  5
146
330
1F
100
AcDbEntity
  8
D-5
  6
Continuous
 62
     7
370
     9
100
AcDbText
 10
-283.9026268108469
 20
-268.9113227802997
 30
0.0
 40
22.86
  1
溶接用アンカ－
 41
1.142857142857143
  7
ＭＳ ゴシック
100
AcDbText
  0
LWPOLYLINE
  5
147
330
1F
100
AcDbEntity
  8
D-4
  6
Continuous
 62
     7
370
     9
100
AcDbPolyline
 90
        4
 70
     1
 43
1.0
 10
-435.3435695235793
 20
13.47181165540547
 42
0.4142135623731
 10
-435.8435695235792
 20
13.97181165540547
 42
0.4142135623731
 10
-436.3435695235792
 20
13.47181165540547
 42
0.4142135623731
 10
-435.8435695235792
 20
12.97181165540547
 42
0.4142135623731
  0
LWPOLYLINE
  5
148
330
1F
100
AcDbEntity
  8
D-4
  6
Continuous
 62
     7
370
     9
100
AcDbPolyline
 90
        4
 70
     1
 43
1.0
 10
-465.3426787402178
 20
-97.22385715793905
 42
0.4142135623731
 10
-465.8426787402178
 20
-96.72385715793905
 42
0.4142135623731
 10
-466.3426787402177
 20
-97.22385715793905
 42
0.4142135623731
 10
-465.8426787402178
 20
-97.72385715793905
 42
0.4142135623731
  0
LWPOLYLINE
  5
149
330
1F
100
AcDbEntity
  8
D-4
  6
Continuous
 62
     7
370
     9
100
AcDbPolyline
 90
        4
 70
     1
 43
1.0
 10
-460.3424148044069
 20
-97.22385715793905
 42
0.4142135623731
 10
-460.8424148044068
 20
-96.72385715793905
 42
0.4142135623731
 10
-461.3424148044068
 20
-97.22385715793905
 42
0.4142135623731
 10
-460.8424148044068
 20
-97.72385715793905
 42
0.4142135623731
  0
LWPOLYLINE
  5
14A
330
1F
100
AcDbEntity
  8
D-4
  6
Continuous
 62
     7
370
     9
100
AcDbPolyline
 90
        4
 70
     1
 43
1.0
 10
-435.3435695235793
 20
-97.22385715793905
 42
0.4142135623731
 10
-435.8435695235792
 20
-96.72385715793905
 42
0.4142135623731
 10
-436.3435695235792
 20
-97.22385715793905
 42
0.4142135623731
 10
-435.8435695235792
 20
-97.72385715793905
 42
0.4142135623731
  0
LWPOLYLINE
  5
14B
330
1F
100
AcDbEntity
  8
D-4
  6
Continuous
 62
     7
370
     9
100
AcDbPolyline
 90
        4
 70
     1
 43
1.0
 10
-590.343462299656
 20
-205.9761336043074
 42
0.4142135623731
 10
-590.843462299656
 20
-205.4761336043074
 42
0.4142135623731
 10
-591.343462299656
 20
-205.9761336043074
 42
0.4142135623731
 10
-590.843462299656
 20
-206.4761336043074
 42
0.4142135623731
  0
LWPOLYLINE
  5
14C
330
1F
100
AcDbEntity
  8
D-4
  6
Continuous
 62
     7
370
     9
100
AcDbPolyline
 90
        4
 70
     1
 43
1.0
 10
-465.3426787402178
 20
-205.9761336043074
 42
0.4142135623731
 10
-465.8426787402178
 20
-205.4761336043074
 42
0.4142135623731
 10
-466.3426787402177
 20
-205.9761336043074
 42
0.4142135623731
 10
-465.8426787402178
 20
-206.4761336043074
 42
0.4142135623731
  0
LWPOLYLINE
  5
14D
330
1F
100
AcDbEntity
  8
D-4
  6
Continuous
 62
     7
370
     9
100
AcDbPolyline
 90
        4
 70
     1
 43
1.0
 10
-760.825912217836
 20
-326.8955210092905
 42
0.4142135623731
 10
-761.325912217836
 20
-326.3955210092905
 42
0.4142135623731
 10
-761.8259122178359
 20
-326.8955210092905
 42
0.4142135623731
 10
-761.325912217836
 20
-327.3955210092905
 42
0.4142135623731
  0
LWPOLYLINE
  5
14E
330
1F
100
AcDbEntity
  8
D-4
  6
Continuous
 62
     7
370
     9
100
AcDbPolyline
 90
        4
 70
     1
 43
1.0
 10
-760.825912217836
 20
-451.8958096890836
 42
0.4142135623731
 10
-761.325912217836
 20
-451.3958096890836
 42
0.4142135623731
 10
-761.8259122178359
 20
-451.8958096890836
 42
0.4142135623731
 10
-761.325912217836
 20
-452.3958096890835
 42
0.4142135623731
  0
LWPOLYLINE
  5
14F
330
1F
100
AcDbEntity
  8
D-4
  6
Continuous
 62
     7
370
     9
100
AcDbPolyline
 90
        4
 70
     1
 43
1.0
 10
81.34195755623512
 20
-326.8955210092905
 42
0.4142135623731
 10
80.84195755623512
 20
-326.3955210092905
 42
0.4142135623731
 10
80.34195755623512
 20
-326.8955210092905
 42
0.4142135623731
 10
80.84195755623512
 20
-327.3955210092905
 42
0.4142135623731
  0
LWPOLYLINE
  5
150
330
1F
100
AcDbEntity
  8
D-4
  6
Continuous
 62
     7
370
     9
100
AcDbPolyline
 90
        4
 70
     1
 43
1.0
 10
81.34195755623512
 20
-576.8957272091427
 42
0.4142135623731
 10
80.84195755623512
 20
-576.3957272091427
 42
0.4142135623731
 10
80.34195755623512
 20
-576.8957272091427
 42
0.4142135623731
 10
80.84195755623512
 20
-577.3957272091427
 42
0.4142135623731
  0
LWPOLYLINE
  5
151
330
1F
100
AcDbEntity
  8
D-4
  6
Continuous
 62
     7
370
     9
100
AcDbPolyline
 90
        4
 70
     1
 43
1.0
 10
-202.2928674543224
 20
-326.8955210092905
 42
0.4142135623731
 10
-202.7928674543224
 20
-326.3955210092905
 42
0.4142135623731
 10
-203.2928674543224
 20
-326.8955210092905
 42
0.4142135623731
 10
-202.7928674543224
 20
-327.3955210092905
 42
0.4142135623731
  0
LWPOLYLINE
  5
152
330
1F
100
AcDbEntity
  8
D-4
  6
Continuous
 62
     7
370
     9
100
AcDbPolyline
 90
        4
 70
     1
 43
1.0
 10
-202.2928674543224
 20
-411.8954302813555
 42
0.4142135623731
 10
-202.7928674543224
 20
-411.3954302813555
 42
0.4142135623731
 10
-203.2928674543224
 20
-411.8954302813555
 42
0.4142135623731
 10
-202.7928674543224
 20
-412.3954302813554
 42
0.4142135623731
  0
LWPOLYLINE
  5
153
330
1F
100
AcDbEntity
  8
D-4
  6
Continuous
 62
     7
370
     9
100
AcDbPolyline
 90
        4
 70
     1
 43
1.0
 10
-202.2928674543224
 20
-461.8959664009712
 42
0.4142135623731
 10
-202.7928674543224
 20
-461.3959664009712
 42
0.4142135623731
 10
-203.2928674543224
 20
-461.8959664009712
 42
0.4142135623731
 10
-202.7928674543224
 20
-462.3959664009712
 42
0.4142135623731
  0
LWPOLYLINE
  5
154
330
1F
100
AcDbEntity
  8
D-4
  6
Continuous
 62
     7
370
     9
100
AcDbPolyline
 90
        4
 70
     1
 43
1.0
 10
-435.3429509240227
 20
-517.4264113967483
 42
0.4142135623731
 10
-435.8429509240227
 20
-516.9264113967483
 42
0.4142135623731
 10
-436.3429509240227
 20
-517.4264113967483
 42
0.4142135623731
 10
-435.8429509240227
 20
-517.9264113967483
 42
0.4142135623731
  0
LWPOLYLINE
  5
155
330
1F
100
AcDbEntity
  8
D-4
  6
Continuous
 62
     7
370
     9
100
AcDbPolyline
 90
        4
 70
     1
 43
1.0
 10
-290.3428437000995
 20
-517.4264113967483
 42
0.4142135623731
 10
-290.8428437000995
 20
-516.9264113967483
 42
0.4142135623731
 10
-291.3428437000995
 20
-517.4264113967483
 42
0.4142135623731
 10
-290.8428437000995
 20
-517.9264113967483
 42
0.4142135623731
  0
LWPOLYLINE
  5
156
330
1F
100
AcDbEntity
  8
D-4
  6
Continuous
 62
     7
370
     9
100
AcDbPolyline
 90
        4
 70
     1
 43
1.0
 10
-590.3429674200107
 20
-732.5143432617188
 42
0.4142135623731
 10
-590.8429674200107
 20
-732.0143432617188
 42
0.4142135623731
 10
-591.3429674200107
 20
-732.5143432617188
 42
0.4142135623731
 10
-590.8429674200107
 20
-733.0143432617188
 42
0.4142135623731
  0
LWPOLYLINE
  5
157
330
1F
100
AcDbEntity
  8
D-4
  6
Continuous
 62
     7
370
     9
100
AcDbPolyline
 90
        4
 70
     1
 43
1.0
 10
-440.3427199801881
 20
-732.5143432617188
 42
0.4142135623731
 10
-440.8427199801881
 20
-732.0143432617188
 42
0.4142135623731
 10
-441.342719980188
 20
-732.5143432617188
 42
0.4142135623731
 10
-440.8427199801881
 20
-733.0143432617188
 42
0.4142135623731
  0
LWPOLYLINE
  5
158
330
1F
100
AcDbEntity
  8
D-4
  6
Continuous
 62
     7
370
     9
100
AcDbPolyline
 90
        4
 70
     1
 43
1.0
 10
-590.3429674200107
 20
-886.9790237014358
 42
0.4142135623731
 10
-590.8429674200107
 20
-886.4790237014358
 42
0.4142135623731
 10
-591.3429674200107
 20
-886.9790237014358
 42
0.4142135623731
 10
-590.8429674200107
 20
-887.4790237014358
 42
0.4142135623731
  0
LWPOLYLINE
  5
159
330
1F
100
AcDbEntity
  8
D-4
  6
Continuous
 62
     7
370
     9
100
AcDbPolyline
 90
        4
 70
     1
 43
1.0
 10
-190.3420189006907
 20
-886.9790237014358
 42
0.4142135623731
 10
-190.8420189006907
 20
-886.4790237014358
 42
0.4142135623731
 10
-191.3420189006907
 20
-886.9790237014358
 42
0.4142135623731
 10
-190.8420189006907
 20
-887.4790237014358
 42
0.4142135623731
  0
LWPOLYLINE
  5
15A
330
1F
100
AcDbEntity
  8
D-4
  6
Continuous
 62
     7
370
     9
100
AcDbPolyline
 90
        4
 70
     1
 43
1.0
 10
-947.0695365184063
 20
-329.3956529771958
 42
0.4142135623731
 10
-947.5695365184062
 20
-328.8956529771958
 42
0.4142135623731
 10
-948.0695365184062
 20
-329.3956529771958
 42
0.4142135623731
 10
-947.5695365184062
 20
-329.8956529771958
 42
0.4142135623731
  0
LWPOLYLINE
  5
15B
330
1F
100
AcDbEntity
  8
D-4
  6
Continuous
 62
     7
370
     9
100
AcDbPolyline
 90
        4
 70
     1
 43
1.0
 10
-947.0695365184063
 20
-344.3954550253378
 42
0.4142135623731
 10
-947.5695365184062
 20
-343.8954550253378
 42
0.4142135623731
 10
-948.0695365184062
 20
-344.3954550253378
 42
0.4142135623731
 10
-947.5695365184062
 20
-344.8954550253377
 42
0.4142135623731
  0
LINE
  5
15C
330
1F
100
AcDbEntity
  8
C-A
  6
Continuous
 62
     3
370
     9
100
AcDbLine
 10
-126.5890966978893
 20
961.5674323004646
 30
0.0
 11
273.410738342229
 21
961.5674323004646
 31
0.0
  0
LINE
  5
15D
330
1F
100
AcDbEntity
  8
C-A
  6
Continuous
 62
     3
370
     9
100
AcDbLine
 10
-126.5890966978893
 20
939.5670627903294
 30
0.0
 11
273.410738342229
 21
939.5670627903294
 31
0.0
  0
LINE
  5
15E
330
1F
100
AcDbEntity
  8
C-A
  6
Continuous
 62
     3
370
     9
100
AcDbLine
 10
-126.5890966978893
 20
911.5670199007602
 30
0.0
 11
273.410738342229
 21
911.5670199007602
 31
0.0
  0
LINE
  5
15F
330
1F
100
AcDbEntity
  8
C-A
  6
Continuous
 62
     3
370
     9
100
AcDbLine
 10
-126.5890966978893
 20
889.5668978304477
 30
0.0
 11
273.410738342229
 21
889.5668978304477
 31
0.0
  0
LINE
  5
160
330
1F
100
AcDbEntity
  8
C-A
  6
Continuous
 62
     3
370
     9
100
AcDbLine
 10
-126.5890966978893
 20
861.5668549408783
 30
0.0
 11
273.410738342229
 21
861.5668549408783
 31
0.0
  0
LINE
  5
161
330
1F
100
AcDbEntity
  8
C-A
  6
Continuous
 62
     3
370
     9
100
AcDbLine
 10
-126.5890966978893
 20
839.5669803103885
 30
0.0
 11
273.410738342229
 21
839.5669803103885
 31
0.0
  0
LINE
  5
162
330
1F
100
AcDbEntity
  8
C-A
  6
Continuous
 62
     3
370
     9
100
AcDbLine
 10
-126.5890966978893
 20
811.5671848606419
 30
0.0
 11
273.410738342229
 21
811.5671848606419
 31
0.0
  0
LINE
  5
163
330
1F
100
AcDbEntity
  8
C-A
  6
Continuous
 62
     3
370
     9
100
AcDbLine
 10
-126.5890966978893
 20
789.5673102301521
 30
0.0
 11
273.410738342229
 21
789.5673102301521
 31
0.0
  0
LINE
  5
164
330
1F
100
AcDbEntity
  8
C-A
  6
Continuous
 62
     3
370
     9
100
AcDbLine
 10
-126.5890966978893
 20
957.167209934544
 30
0.0
 11
273.410738342229
 21
957.167209934544
 31
0.0
  0
LINE
  5
165
330
1F
100
AcDbEntity
  8
C-A
  6
Continuous
 62
     3
370
     9
100
AcDbLine
 10
-126.5890966978893
 20
952.7667401288008
 30
0.0
 11
273.410738342229
 21
952.7667401288008
 31
0.0
  0
LINE
  5
166
330
1F
100
AcDbEntity
  8
C-A
  6
Continuous
 62
     3
370
     9
100
AcDbLine
 10
-126.5890966978893
 20
948.3670126425255
 30
0.0
 11
273.410738342229
 21
948.3670126425255
 31
0.0
  0
LINE
  5
167
330
1F
100
AcDbEntity
  8
C-A
  6
Continuous
 62
     3
370
     9
100
AcDbLine
 10
-126.5890966978893
 20
943.96728515625
 30
0.0
 11
273.410738342229
 21
943.96728515625
 31
0.0
  0
LINE
  5
168
330
1F
100
AcDbEntity
  8
C-A
  6
Continuous
 62
     3
370
     9
100
AcDbLine
 10
-126.5890966978893
 20
907.1670449746623
 30
0.0
 11
273.410738342229
 21
907.1670449746623
 31
0.0
  0
LINE
  5
169
330
1F
100
AcDbEntity
  8
C-A
  6
Continuous
 62
     3
370
     9
100
AcDbLine
 10
-126.5890966978893
 20
902.7670700485644
 30
0.0
 11
273.410738342229
 21
902.7670700485644
 31
0.0
  0
LINE
  5
16A
330
1F
100
AcDbEntity
  8
C-A
  6
Continuous
 62
     3
370
     9
100
AcDbLine
 10
-126.5890966978893
 20
898.3673425622891
 30
0.0
 11
273.410738342229
 21
898.3673425622891
 31
0.0
  0
LINE
  5
16B
330
1F
100
AcDbEntity
  8
C-A
  6
Continuous
 62
     3
370
     9
100
AcDbLine
 10
-126.5890966978893
 20
893.9671201963686
 30
0.0
 11
273.410738342229
 21
893.9671201963686
 31
0.0
  0
LINE
  5
16C
330
1F
100
AcDbEntity
  8
C-A
  6
Continuous
 62
     3
370
     9
100
AcDbLine
 10
-126.5890966978893
 20
857.1671274546031
 30
0.0
 11
273.410738342229
 21
857.1671274546031
 31
0.0
  0
LINE
  5
16D
330
1F
100
AcDbEntity
  8
C-A
  6
Continuous
 62
     3
370
     9
100
AcDbLine
 10
-126.5890966978893
 20
852.7673999683279
 30
0.0
 11
273.410738342229
 21
852.7673999683279
 31
0.0
  0
LINE
  5
16E
330
1F
100
AcDbEntity
  8
C-A
  6
Continuous
 62
     3
370
     9
100
AcDbLine
 10
-126.5890966978893
 20
848.3671776024073
 30
0.0
 11
273.410738342229
 21
848.3671776024073
 31
0.0
  0
LINE
  5
16F
330
1F
100
AcDbEntity
  8
C-A
  6
Continuous
 62
     3
370
     9
100
AcDbLine
 10
-126.5890966978893
 20
843.9674501161318
 30
0.0
 11
273.410738342229
 21
843.9674501161318
 31
0.0
  0
LINE
  5
170
330
1F
100
AcDbEntity
  8
C-A
  6
Continuous
 62
     3
370
     9
100
AcDbLine
 10
-126.5890966978893
 20
807.1674573743667
 30
0.0
 11
273.410738342229
 21
807.1674573743667
 31
0.0
  0
LINE
  5
171
330
1F
100
AcDbEntity
  8
C-A
  6
Continuous
 62
     3
370
     9
100
AcDbLine
 10
-126.5890966978893
 20
802.767235008446
 30
0.0
 11
273.410738342229
 21
802.767235008446
 31
0.0
  0
LINE
  5
172
330
1F
100
AcDbEntity
  8
C-A
  6
Continuous
 62
     3
370
     9
100
AcDbLine
 10
-126.5890966978893
 20
798.3670126425255
 30
0.0
 11
273.410738342229
 21
798.3670126425255
 31
0.0
  0
LINE
  5
173
330
1F
100
AcDbEntity
  8
C-A
  6
Continuous
 62
     3
370
     9
100
AcDbLine
 10
-126.5890966978893
 20
793.9670377164276
 30
0.0
 11
273.410738342229
 21
793.9670377164276
 31
0.0
  0
LINE
  5
174
330
1F
100
AcDbEntity
  8
C-A
  6
Continuous
 62
     3
370
     9
100
AcDbLine
 10
-63.58930949613679
 20
928.5666305954394
 30
0.0
 11
-29.58922206739942
 21
928.5666305954394
 31
0.0
  0
LINE
  5
175
330
1F
100
AcDbEntity
  8
C-A
  6
Continuous
 62
     3
370
     9
100
AcDbLine
 10
-63.58930949613679
 20
922.5674520956505
 30
0.0
 11
-29.58922206739942
 21
922.5674520956505
 31
0.0
  0
LINE
  5
176
330
1F
100
AcDbEntity
  8
C-A
  6
Continuous
 62
     3
370
     9
100
AcDbLine
 10
16.41058327994003
 20
928.5666305954394
 30
0.0
 11
50.4106707086774
 21
928.5666305954394
 31
0.0
  0
LINE
  5
177
330
1F
100
AcDbEntity
  8
C-A
  6
Continuous
 62
     3
370
     9
100
AcDbLine
 10
16.41058327994003
 20
922.5674520956505
 30
0.0
 11
50.4106707086774
 21
922.5674520956505
 31
0.0
  0
LINE
  5
178
330
1F
100
AcDbEntity
  8
C-A
  6
Continuous
 62
     3
370
     9
100
AcDbLine
 10
96.41097093566216
 20
928.5666305954394
 30
0.0
 11
130.4110583643995
 21
928.5666305954394
 31
0.0
  0
LINE
  5
179
330
1F
100
AcDbEntity
  8
C-A
  6
Continuous
 62
     3
370
     9
100
AcDbLine
 10
96.41097093566216
 20
922.5674520956505
 30
0.0
 11
130.4110583643995
 21
922.5674520956505
 31
0.0
  0
LINE
  5
17A
330
1F
100
AcDbEntity
  8
C-A
  6
Continuous
 62
     3
370
     9
100
AcDbLine
 10
176.4108637117391
 20
928.5666305954394
 30
0.0
 11
210.4109511404764
 21
928.5666305954394
 31
0.0
  0
LINE
  5
17B
330
1F
100
AcDbEntity
  8
C-A
  6
Continuous
 62
     3
370
     9
100
AcDbLine
 10
176.4108637117391
 20
922.5674520956505
 30
0.0
 11
210.4109511404764
 21
922.5674520956505
 31
0.0
  0
LINE
  5
17C
330
1F
100
AcDbEntity
  8
C-A
  6
Continuous
 62
     3
370
     9
100
AcDbLine
 10
176.4108637117391
 20
878.5664656355575
 30
0.0
 11
210.4109511404764
 21
878.5664656355575
 31
0.0
  0
LINE
  5
17D
330
1F
100
AcDbEntity
  8
C-A
  6
Continuous
 62
     3
370
     9
100
AcDbLine
 10
176.4108637117391
 20
872.5677820154141
 30
0.0
 11
210.4109511404764
 21
872.5677820154141
 31
0.0
  0
LINE
  5
17E
330
1F
100
AcDbEntity
  8
C-A
  6
Continuous
 62
     3
370
     9
100
AcDbLine
 10
96.41097093566216
 20
878.5664656355575
 30
0.0
 11
130.4110583643995
 21
878.5664656355575
 31
0.0
  0
LINE
  5
17F
330
1F
100
AcDbEntity
  8
C-A
  6
Continuous
 62
     3
370
     9
100
AcDbLine
 10
96.41097093566216
 20
872.5677820154141
 30
0.0
 11
130.4110583643995
 21
872.5677820154141
 31
0.0
  0
LINE
  5
180
330
1F
100
AcDbEntity
  8
C-A
  6
Continuous
 62
     3
370
     9
100
AcDbLine
 10
16.41058327994003
 20
878.5664656355575
 30
0.0
 11
50.4106707086774
 21
878.5664656355575
 31
0.0
  0
LINE
  5
181
330
1F
100
AcDbEntity
  8
C-A
  6
Continuous
 62
     3
370
     9
100
AcDbLine
 10
16.41058327994003
 20
872.5677820154141
 30
0.0
 11
50.4106707086774
 21
872.5677820154141
 31
0.0
  0
LINE
  5
182
330
1F
100
AcDbEntity
  8
C-A
  6
Continuous
 62
     3
370
     9
100
AcDbLine
 10
-63.58930949613679
 20
878.5664656355575
 30
0.0
 11
-29.58922206739942
 21
878.5664656355575
 31
0.0
  0
LINE
  5
183
330
1F
100
AcDbEntity
  8
C-A
  6
Continuous
 62
     3
370
     9
100
AcDbLine
 10
-63.58930949613679
 20
872.5677820154141
 30
0.0
 11
-29.58922206739942
 21
872.5677820154141
 31
0.0
  0
LINE
  5
184
330
1F
100
AcDbEntity
  8
C-A
  6
Continuous
 62
     3
370
     9
100
AcDbLine
 10
-63.58930949613679
 20
828.566795555321
 30
0.0
 11
-29.58922206739942
 21
828.566795555321
 31
0.0
  0
LINE
  5
185
330
1F
100
AcDbEntity
  8
C-A
  6
Continuous
 62
     3
370
     9
100
AcDbLine
 10
-63.58930949613679
 20
822.5676170555323
 30
0.0
 11
-29.58922206739942
 21
822.5676170555323
 31
0.0
  0
LINE
  5
186
330
1F
100
AcDbEntity
  8
C-A
  6
Continuous
 62
     3
370
     9
100
AcDbLine
 10
16.41058327994003
 20
828.566795555321
 30
0.0
 11
50.4106707086774
 21
828.566795555321
 31
0.0
  0
LINE
  5
187
330
1F
100
AcDbEntity
  8
C-A
  6
Continuous
 62
     3
370
     9
100
AcDbLine
 10
16.41058327994003
 20
822.5676170555323
 30
0.0
 11
50.4106707086774
 21
822.5676170555323
 31
0.0
  0
LINE
  5
188
330
1F
100
AcDbEntity
  8
C-A
  6
Continuous
 62
     3
370
     9
100
AcDbLine
 10
96.41097093566216
 20
828.566795555321
 30
0.0
 11
130.4110583643995
 21
828.566795555321
 31
0.0
  0
LINE
  5
189
330
1F
100
AcDbEntity
  8
C-A
  6
Continuous
 62
     3
370
     9
100
AcDbLine
 10
96.41097093566216
 20
822.5676170555323
 30
0.0
 11
130.4110583643995
 21
822.5676170555323
 31
0.0
  0
LINE
  5
18A
330
1F
100
AcDbEntity
  8
C-A
  6
Continuous
 62
     3
370
     9
100
AcDbLine
 10
176.4108637117391
 20
828.566795555321
 30
0.0
 11
210.4109511404764
 21
828.566795555321
 31
0.0
  0
LINE
  5
18B
330
1F
100
AcDbEntity
  8
C-A
  6
Continuous
 62
     3
370
     9
100
AcDbLine
 10
176.4108637117391
 20
822.5676170555323
 30
0.0
 11
210.4109511404764
 21
822.5676170555323
 31
0.0
  0
LINE
  5
18C
330
1F
100
AcDbEntity
  8
C-A
  6
Continuous
 62
     3
370
     9
100
AcDbLine
 10
176.4108637117391
 20
778.5671254750846
 30
0.0
 11
210.4109511404764
 21
778.5671254750846
 31
0.0
  0
LINE
  5
18D
330
1F
100
AcDbEntity
  8
C-A
  6
Continuous
 62
     3
370
     9
100
AcDbLine
 10
176.4108637117391
 20
772.5679469752959
 30
0.0
 11
210.4109511404764
 21
772.5679469752959
 31
0.0
  0
LINE
  5
18E
330
1F
100
AcDbEntity
  8
C-A
  6
Continuous
 62
     3
370
     9
100
AcDbLine
 10
96.41097093566216
 20
778.5671254750846
 30
0.0
 11
130.4110583643995
 21
778.5671254750846
 31
0.0
  0
LINE
  5
18F
330
1F
100
AcDbEntity
  8
C-A
  6
Continuous
 62
     3
370
     9
100
AcDbLine
 10
96.41097093566216
 20
772.5679469752959
 30
0.0
 11
130.4110583643995
 21
772.5679469752959
 31
0.0
  0
LINE
  5
190
330
1F
100
AcDbEntity
  8
C-A
  6
Continuous
 62
     3
370
     9
100
AcDbLine
 10
16.41058327994003
 20
778.5671254750846
 30
0.0
 11
50.4106707086774
 21
778.5671254750846
 31
0.0
  0
LINE
  5
191
330
1F
100
AcDbEntity
  8
C-A
  6
Continuous
 62
     3
370
     9
100
AcDbLine
 10
16.41058327994003
 20
772.5679469752959
 30
0.0
 11
50.4106707086774
 21
772.5679469752959
 31
0.0
  0
LINE
  5
192
330
1F
100
AcDbEntity
  8
C-A
  6
Continuous
 62
     3
370
     9
100
AcDbLine
 10
-63.58930949613679
 20
778.5671254750846
 30
0.0
 11
-29.58922206739942
 21
778.5671254750846
 31
0.0
  0
LINE
  5
193
330
1F
100
AcDbEntity
  8
C-A
  6
Continuous
 62
     3
370
     9
100
AcDbLine
 10
-63.58930949613679
 20
772.5679469752959
 30
0.0
 11
-29.58922206739942
 21
772.5679469752959
 31
0.0
  0
LINE
  5
194
330
1F
100
AcDbEntity
  8
C-A
  6
Continuous
 62
     3
370
     9
100
AcDbLine
 10
-63.58930949613679
 20
728.5667130753802
 30
0.0
 11
-29.58922206739942
 21
728.5667130753802
 31
0.0
  0
LINE
  5
195
330
1F
100
AcDbEntity
  8
C-A
  6
Continuous
 62
     3
370
     9
100
AcDbLine
 10
-63.58930949613679
 20
722.5675345755915
 30
0.0
 11
-29.58922206739942
 21
722.5675345755915
 31
0.0
  0
LINE
  5
196
330
1F
100
AcDbEntity
  8
C-A
  6
Continuous
 62
     3
370
     9
100
AcDbLine
 10
16.41058327994003
 20
728.5667130753802
 30
0.0
 11
50.4106707086774
 21
728.5667130753802
 31
0.0
  0
LINE
  5
197
330
1F
100
AcDbEntity
  8
C-A
  6
Continuous
 62
     3
370
     9
100
AcDbLine
 10
16.41058327994003
 20
722.5675345755915
 30
0.0
 11
50.4106707086774
 21
722.5675345755915
 31
0.0
  0
LINE
  5
198
330
1F
100
AcDbEntity
  8
C-A
  6
Continuous
 62
     3
370
     9
100
AcDbLine
 10
96.41097093566216
 20
728.5667130753802
 30
0.0
 11
130.4110583643995
 21
728.5667130753802
 31
0.0
  0
LINE
  5
199
330
1F
100
AcDbEntity
  8
C-A
  6
Continuous
 62
     3
370
     9
100
AcDbLine
 10
96.41097093566216
 20
722.5675345755915
 30
0.0
 11
130.4110583643995
 21
722.5675345755915
 31
0.0
  0
LINE
  5
19A
330
1F
100
AcDbEntity
  8
C-A
  6
Continuous
 62
     3
370
     9
100
AcDbLine
 10
176.4108637117391
 20
728.5667130753802
 30
0.0
 11
210.4109511404764
 21
728.5667130753802
 31
0.0
  0
LINE
  5
19B
330
1F
100
AcDbEntity
  8
C-A
  6
Continuous
 62
     3
370
     9
100
AcDbLine
 10
176.4108637117391
 20
722.5675345755915
 30
0.0
 11
210.4109511404764
 21
722.5675345755915
 31
0.0
  0
LINE
  5
19C
330
1F
100
AcDbEntity
  8
C-A
  6
Continuous
 62
     3
370
     9
100
AcDbLine
 10
96.41097093566216
 20
678.5670429951438
 30
0.0
 11
130.4110583643995
 21
678.5670429951438
 31
0.0
  0
LINE
  5
19D
330
1F
100
AcDbEntity
  8
C-A
  6
Continuous
 62
     3
370
     9
100
AcDbLine
 10
96.41097093566216
 20
672.5673696157096
 30
0.0
 11
130.4110583643995
 21
672.5673696157096
 31
0.0
  0
LINE
  5
19E
330
1F
100
AcDbEntity
  8
C-A
  6
Continuous
 62
     3
370
     9
100
AcDbLine
 10
16.41058327994003
 20
678.5670429951438
 30
0.0
 11
50.4106707086774
 21
678.5670429951438
 31
0.0
  0
LINE
  5
19F
330
1F
100
AcDbEntity
  8
C-A
  6
Continuous
 62
     3
370
     9
100
AcDbLine
 10
16.41058327994003
 20
672.5673696157096
 30
0.0
 11
50.4106707086774
 21
672.5673696157096
 31
0.0
  0
LINE
  5
1A0
330
1F
100
AcDbEntity
  8
C-A
  6
Continuous
 62
     3
370
     9
100
AcDbLine
 10
-63.58930949613679
 20
678.5670429951438
 30
0.0
 11
-29.58922206739942
 21
678.5670429951438
 31
0.0
  0
LINE
  5
1A1
330
1F
100
AcDbEntity
  8
C-A
  6
Continuous
 62
     3
370
     9
100
AcDbLine
 10
-63.58930949613679
 20
672.5673696157096
 30
0.0
 11
-29.58922206739942
 21
672.5673696157096
 31
0.0
  0
LINE
  5
1A2
330
1F
100
AcDbEntity
  8
C-A
  6
Continuous
 62
     3
370
     9
100
AcDbLine
 10
-63.58930949613679
 20
628.566878035262
 30
0.0
 11
-29.58922206739942
 21
628.566878035262
 31
0.0
  0
LINE
  5
1A3
330
1F
100
AcDbEntity
  8
C-A
  6
Continuous
 62
     3
370
     9
100
AcDbLine
 10
-63.58930949613679
 20
622.5676995354731
 30
0.0
 11
-29.58922206739942
 21
622.5676995354731
 31
0.0
  0
LINE
  5
1A4
330
1F
100
AcDbEntity
  8
C-A
  6
Continuous
 62
     3
370
     9
100
AcDbLine
 10
16.41058327994003
 20
628.566878035262
 30
0.0
 11
50.4106707086774
 21
628.566878035262
 31
0.0
  0
LINE
  5
1A5
330
1F
100
AcDbEntity
  8
C-A
  6
Continuous
 62
     3
370
     9
100
AcDbLine
 10
16.41058327994003
 20
622.5676995354731
 30
0.0
 11
50.4106707086774
 21
622.5676995354731
 31
0.0
  0
LINE
  5
1A6
330
1F
100
AcDbEntity
  8
C-1
  6
JWW_DASHED3
 62
     2
370
     9
100
AcDbLine
 10
248.4109033021107
 20
600.567330025338
 30
0.0
 11
-101.589261657771
 21
600.567330025338
 31
0.0
  0
LINE
  5
1A7
330
1F
100
AcDbEntity
  8
C-1
  6
JWW_DASHED3
 62
     2
370
     9
100
AcDbLine
 10
-101.589261657771
 20
600.567330025338
 30
0.0
 11
-101.589261657771
 21
950.5670001055745
 31
0.0
  0
LINE
  5
1A8
330
1F
100
AcDbEntity
  8
C-1
  6
JWW_DASHED3
 62
     2
370
     9
100
AcDbLine
 10
-101.589261657771
 20
950.5670001055745
 30
0.0
 11
248.4109033021107
 21
950.5670001055745
 31
0.0
  0
LINE
  5
1A9
330
1F
100
AcDbEntity
  8
C-1
  6
JWW_DASHED3
 62
     2
370
     9
100
AcDbLine
 10
248.4109033021107
 20
950.5670001055745
 30
0.0
 11
248.4109033021107
 21
600.567330025338
 31
0.0
  0
LINE
  5
1AA
330
1F
100
AcDbEntity
  8
C-2
  6
Continuous
 62
     3
370
     9
100
AcDbLine
 10
-126.5890966978893
 20
575.5674949852198
 30
0.0
 11
-126.5890966978893
 21
975.567330025338
 31
0.0
  0
LINE
  5
1AB
330
1F
100
AcDbEntity
  8
C-2
  6
Continuous
 62
     3
370
     9
100
AcDbLine
 10
273.410738342229
 20
975.567330025338
 30
0.0
 11
-126.5890966978893
 21
975.567330025338
 31
0.0
  0
LINE
  5
1AC
330
1F
100
AcDbEntity
  8
C-1
  6
Continuous
 62
     2
370
     9
100
AcDbLine
 10
274.4106426654974
 20
976.5672343486065
 30
0.0
 11
-127.5889391612023
 21
976.5672343486065
 31
0.0
  0
LINE
  5
1AD
330
1F
100
AcDbEntity
  8
C-1
  6
Continuous
 62
     2
370
     9
100
AcDbLine
 10
-127.5889391612023
 20
574.5670957823057
 30
0.0
 11
-127.5889391612023
 21
976.5672343486065
 31
0.0
  0
LINE
  5
1AE
330
1F
100
AcDbEntity
  8
C-1
  6
Continuous
 62
     2
370
     9
100
AcDbLine
 10
281.4105915279342
 20
983.5670594911318
 30
0.0
 11
-134.5894447632398
 21
983.5670594911318
 31
0.0
  0
LINE
  5
1AF
330
1F
100
AcDbEntity
  8
C-1
  6
Continuous
 62
     2
370
     9
100
AcDbLine
 10
-134.5894447632398
 20
567.5671469198693
 30
0.0
 11
-134.5894447632398
 21
983.5670594911318
 31
0.0
  0
LINE
  5
1B0
330
1F
100
AcDbEntity
  8
C-2
  6
Continuous
 62
     3
370
     9
100
AcDbLine
 10
273.410738342229
 20
975.567330025338
 30
0.0
 11
273.410738342229
 21
575.5674949852198
 31
0.0
  0
LINE
  5
1B1
330
1F
100
AcDbEntity
  8
C-2
  6
Continuous
 62
     3
370
     9
100
AcDbLine
 10
-126.5890966978893
 20
575.5674949852198
 30
0.0
 11
273.410738342229
 21
575.5674949852198
 31
0.0
  0
LINE
  5
1B2
330
1F
100
AcDbEntity
  8
C-1
  6
Continuous
 62
     2
370
     9
100
AcDbLine
 10
274.4106426654974
 20
976.5672343486065
 30
0.0
 11
274.4106426654974
 21
574.5670957823057
 31
0.0
  0
LINE
  5
1B3
330
1F
100
AcDbEntity
  8
C-1
  6
Continuous
 62
     2
370
     9
100
AcDbLine
 10
-127.5889391612023
 20
574.5670957823057
 30
0.0
 11
274.4106426654974
 21
574.5670957823057
 31
0.0
  0
LINE
  5
1B4
330
1F
100
AcDbEntity
  8
C-1
  6
Continuous
 62
     2
370
     9
100
AcDbLine
 10
281.4105915279342
 20
983.5670594911318
 30
0.0
 11
281.4105915279342
 21
567.5671469198693
 31
0.0
  0
LINE
  5
1B5
330
1F
100
AcDbEntity
  8
C-1
  6
Continuous
 62
     2
370
     9
100
AcDbLine
 10
-134.5894447632398
 20
567.5671469198693
 30
0.0
 11
281.4105915279342
 21
567.5671469198693
 31
0.0
  0
LINE
  5
1B6
330
1F
100
AcDbEntity
  8
C-4
  6
Continuous
 62
     7
370
     9
100
AcDbLine
 10
-175.9060803074755
 20
1110.566785657728
 30
0.0
 11
326.1618155302568
 21
1110.566785657728
 31
0.0
  0
LINE
  5
1B7
330
1F
100
AcDbEntity
  8
C-4
  6
Continuous
 62
     7
370
     9
100
AcDbLine
 10
-126.5890966978893
 20
995.5673960092906
 30
0.0
 11
-126.5890966978893
 21
1113.567240947002
 31
0.0
  0
LINE
  5
1B8
330
1F
100
AcDbEntity
  8
C-4
  6
Continuous
 62
     7
370
     9
100
AcDbLine
 10
273.410738342229
 20
995.5673960092906
 30
0.0
 11
273.410738342229
 21
1113.567240947002
 31
0.0
  0
LINE
  5
1B9
330
1F
100
AcDbEntity
  8
C-4
  6
Continuous
 62
     7
370
     9
100
AcDbLine
 10
-134.5894447632398
 20
1165.566719673775
 30
0.0
 11
281.4105915279342
 21
1165.566719673775
 31
0.0
  0
LINE
  5
1BA
330
1F
100
AcDbEntity
  8
C-4
  6
Continuous
 62
     7
370
     9
100
AcDbLine
 10
281.4105915279342
 20
995.5673960092906
 30
0.0
 11
281.4105915279342
 21
1168.567422402872
 31
0.0
  0
LINE
  5
1BB
330
1F
100
AcDbEntity
  8
C-4
  6
Continuous
 62
     7
370
     9
100
AcDbLine
 10
-126.5890966978893
 20
1055.567099081503
 30
0.0
 11
273.4102434625837
 21
1055.567099081503
 31
0.0
  0
LINE
  5
1BC
330
1F
100
AcDbEntity
  8
C-4
  6
Continuous
 62
     7
370
     9
100
AcDbLine
 10
-101.5887667781259
 20
995.5673960092906
 30
0.0
 11
-101.5887667781259
 21
1058.567306930954
 31
0.0
  0
LINE
  5
1BD
330
1F
100
AcDbEntity
  8
C-4
  6
Continuous
 62
     7
370
     9
100
AcDbLine
 10
248.4109033021107
 20
995.5673960092906
 30
0.0
 11
248.4109033021107
 21
1058.567306930954
 31
0.0
  0
LINE
  5
1BE
330
1F
100
AcDbEntity
  8
C-4
  6
Continuous
 62
     7
370
     9
100
AcDbLine
 10
-127.5889391612023
 20
995.5673960092906
 30
0.0
 11
-127.5889391612023
 21
1113.567240947002
 31
0.0
  0
LINE
  5
1BF
330
1F
100
AcDbEntity
  8
C-4
  6
Continuous
 62
     7
370
     9
100
AcDbLine
 10
-134.5894447632398
 20
995.5673960092906
 30
0.0
 11
-134.5894447632398
 21
1168.567422402872
 31
0.0
  0
LINE
  5
1C0
330
1F
100
AcDbEntity
  8
C-4
  6
Continuous
 62
     7
370
     9
100
AcDbLine
 10
274.4106426654974
 20
995.5673960092906
 30
0.0
 11
274.4106426654974
 21
1113.567240947002
 31
0.0
  0
LINE
  5
1C1
330
1F
100
AcDbEntity
  8
C-4
  6
Continuous
 62
     7
370
     9
100
AcDbLine
 10
-191.5891874258243
 20
675.5668351456927
 30
0.0
 11
-191.5891874258243
 21
625.5671650654563
 31
0.0
  0
LINE
  5
1C2
330
1F
100
AcDbEntity
  8
C-4
  6
Continuous
 62
     7
370
     9
100
AcDbLine
 10
-46.58920392181244
 20
502.5675510715794
 30
0.0
 11
33.41068885426438
 21
502.5675510715794
 31
0.0
  0
LINE
  5
1C3
330
1F
100
AcDbEntity
  8
C-2
  6
JWW_CENTER1
 62
     3
370
     9
100
AcDbLine
 10
527.7397805191714
 20
800.5672475453971
 30
0.0
 11
761.3517998260761
 21
800.5672475453971
 31
0.0
  0
LINE
  5
1C4
330
1F
100
AcDbEntity
  8
C-2
  6
Continuous
 62
     3
370
     9
100
AcDbLine
 10
733.0516124316503
 20
815.5670495935391
 30
0.0
 11
563.0512990078751
 21
815.5670495935391
 31
0.0
  0
LINE
  5
1C5
330
1F
100
AcDbEntity
  8
C-2
  6
Continuous
 62
     3
370
     9
100
AcDbLine
 10
563.0512990078751
 20
785.5669506176099
 30
0.0
 11
733.0516124316503
 21
785.5669506176099
 31
0.0
  0
LINE
  5
1C6
330
1F
100
AcDbEntity
  8
C-2
  6
JWW_CENTER1
 62
     3
370
     9
100
AcDbLine
 10
648.0520743193193
 20
830.1481834617823
 30
0.0
 11
648.0520743193193
 21
767.5040910050677
 31
0.0
  0
LINE
  5
1C7
330
1F
100
AcDbEntity
  8
C-4
  6
Continuous
 62
     7
370
     9
100
AcDbLine
 10
548.0514969597332
 20
892.7863373627533
 30
0.0
 11
748.0514144797922
 21
892.7863373627533
 31
0.0
  0
LINE
  5
1C8
330
1F
100
AcDbEntity
  8
C-4
  6
Continuous
 62
     7
370
     9
100
AcDbLine
 10
748.0514144797922
 20
836.7533420872044
 30
0.0
 11
748.0514144797922
 21
895.7860503325592
 31
0.0
  0
LINE
  5
1C9
330
1F
100
AcDbEntity
  8
C-4
  6
Continuous
 62
     7
370
     9
100
AcDbLine
 10
548.0514969597332
 20
836.7533420872044
 30
0.0
 11
548.0514969597332
 21
895.7860503325592
 31
0.0
  0
LINE
  5
1CA
330
1F
100
AcDbEntity
  8
C-4
  6
Continuous
 62
     7
370
     9
100
AcDbLine
 10
767.9435967010761
 20
785.5669506176099
 30
0.0
 11
830.8863490237113
 21
785.5669506176099
 31
0.0
  0
LINE
  5
1CB
330
1F
100
AcDbEntity
  8
C-4
  6
Continuous
 62
     7
370
     9
100
AcDbLine
 10
827.8863886140829
 20
785.5669506176099
 30
0.0
 11
827.8863886140829
 21
815.5670495935391
 31
0.0
  0
LINE
  5
1CC
330
1F
100
AcDbEntity
  8
C-4
  6
Continuous
 62
     7
370
     9
100
AcDbLine
 10
830.8863490237113
 20
815.5670495935391
 30
0.0
 11
767.9435967010761
 21
815.5670495935391
 31
0.0
  0
LINE
  5
1CD
330
1F
100
AcDbEntity
  8
C-5
  6
Continuous
 62
     7
370
     9
100
AcDbLine
 10
367.9581131706706
 20
659.530012800887
 30
0.0
 11
367.9581131706706
 21
724.5292374894427
 31
0.0
  0
LINE
  5
1CE
330
1F
100
AcDbEntity
  8
C-5
  6
Continuous
 62
     7
370
     9
100
AcDbLine
 10
367.9581131706706
 20
724.5292374894427
 30
0.0
 11
942.9585255703751
 21
724.5292374894427
 31
0.0
  0
LINE
  5
1CF
330
1F
100
AcDbEntity
  8
C-5
  6
Continuous
 62
     7
370
     9
100
AcDbLine
 10
942.9585255703751
 20
724.5292374894427
 30
0.0
 11
942.9585255703751
 21
659.530012800887
 31
0.0
  0
LINE
  5
1D0
330
1F
100
AcDbEntity
  8
C-5
  6
Continuous
 62
     7
370
     9
100
AcDbLine
 10
942.9585255703751
 20
659.530012800887
 30
0.0
 11
367.9581131706706
 21
659.530012800887
 31
0.0
  0
LINE
  5
1D1
330
1F
100
AcDbEntity
  8
C-5
  6
Continuous
 62
     7
370
     9
100
AcDbLine
 10
360.9110270220219
 20
347.5671634158573
 30
0.0
 11
360.9110270220219
 21
282.5675675675677
 31
0.0
  0
LINE
  5
1D2
330
1F
100
AcDbEntity
  8
C-5
  6
Continuous
 62
     7
370
     9
100
AcDbLine
 10
360.9110270220219
 20
282.5675675675677
 30
0.0
 11
-214.0893853776824
 21
282.5675675675677
 31
0.0
  0
LINE
  5
1D3
330
1F
100
AcDbEntity
  8
C-5
  6
Continuous
 62
     7
370
     9
100
AcDbLine
 10
-214.0893853776824
 20
347.5671634158573
 30
0.0
 11
360.9110270220219
 21
347.5671634158573
 31
0.0
  0
LINE
  5
1D4
330
1F
100
AcDbEntity
  8
C-5
  6
Continuous
 62
     7
370
     9
100
AcDbLine
 10
-214.0893853776824
 20
282.5675675675677
 30
0.0
 11
-214.0893853776824
 21
347.5671634158573
 31
0.0
  0
LINE
  5
1D5
330
1F
100
AcDbEntity
  8
C-A
  6
Continuous
 62
     3
370
     9
100
AcDbLine
 10
273.410738342229
 20
775.567412505279
 30
0.0
 11
72.90987890124498
 21
575.0670479439401
 31
0.0
  0
LINE
  5
1D6
330
1F
100
AcDbEntity
  8
C-A
  6
Continuous
 62
     3
370
     9
100
AcDbLine
 10
96.41097093566216
 20
622.5676995354731
 30
0.0
 11
120.4105304927779
 21
622.5676995354731
 31
0.0
  0
LINE
  5
1D7
330
1F
100
AcDbEntity
  8
C-A
  6
Continuous
 62
     3
370
     9
100
AcDbLine
 10
96.41097093566216
 20
628.566878035262
 30
0.0
 11
126.4095852726554
 21
628.566878035262
 31
0.0
  0
LINE
  5
1D8
330
1F
100
AcDbEntity
  8
C-A
  6
Continuous
 62
     3
370
     9
100
AcDbLine
 10
-126.5890966978893
 20
761.5675147804054
 30
0.0
 11
259.410222017799
 21
761.5675147804054
 31
0.0
  0
LINE
  5
1D9
330
1F
100
AcDbEntity
  8
C-A
  6
Continuous
 62
     3
370
     9
100
AcDbLine
 10
-126.5890966978893
 20
739.5671452702703
 30
0.0
 11
237.4104711072204
 21
739.5671452702703
 31
0.0
  0
LINE
  5
1DA
330
1F
100
AcDbEntity
  8
C-A
  6
Continuous
 62
     3
370
     9
100
AcDbLine
 10
-126.5890966978893
 20
757.1672924144849
 30
0.0
 11
255.0104945315238
 21
757.1672924144849
 31
0.0
  0
LINE
  5
1DB
330
1F
100
AcDbEntity
  8
C-A
  6
Continuous
 62
     3
370
     9
100
AcDbLine
 10
-126.5890966978893
 20
752.7668226087417
 30
0.0
 11
250.6102721656032
 21
752.7668226087417
 31
0.0
  0
LINE
  5
1DC
330
1F
100
AcDbEntity
  8
C-A
  6
Continuous
 62
     3
370
     9
100
AcDbLine
 10
-126.5890966978893
 20
748.3670951224665
 30
0.0
 11
246.2100497996826
 21
748.3670951224665
 31
0.0
  0
LINE
  5
1DD
330
1F
100
AcDbEntity
  8
C-A
  6
Continuous
 62
     3
370
     9
100
AcDbLine
 10
-126.5890966978893
 20
743.9673676361908
 30
0.0
 11
241.8103223134071
 21
743.9673676361908
 31
0.0
  0
LINE
  5
1DE
330
1F
100
AcDbEntity
  8
C-A
  6
Continuous
 62
     3
370
     9
100
AcDbLine
 10
-126.5890966978893
 20
711.5673498205238
 30
0.0
 11
209.4105519375626
 21
711.5673498205238
 31
0.0
  0
LINE
  5
1DF
330
1F
100
AcDbEntity
  8
C-A
  6
Continuous
 62
     3
370
     9
100
AcDbLine
 10
-126.5890966978893
 20
707.1668800147804
 30
0.0
 11
205.010329571642
 21
707.1668800147804
 31
0.0
  0
LINE
  5
1E0
330
1F
100
AcDbEntity
  8
C-A
  6
Continuous
 62
     3
370
     9
100
AcDbLine
 10
-126.5890966978893
 20
702.7671525285052
 30
0.0
 11
200.6101072057213
 21
702.7671525285052
 31
0.0
  0
LINE
  5
1E1
330
1F
100
AcDbEntity
  8
C-A
  6
Continuous
 62
     3
370
     9
100
AcDbLine
 10
-126.5890966978893
 20
698.36742504223
 30
0.0
 11
196.2102559995347
 21
698.36742504223
 31
0.0
  0
LINE
  5
1E2
330
1F
100
AcDbEntity
  8
C-A
  6
Continuous
 62
     3
370
     9
100
AcDbLine
 10
-126.5890966978893
 20
693.9672026763092
 30
0.0
 11
191.8105285132593
 21
693.9672026763092
 31
0.0
  0
LINE
  5
1E3
330
1F
100
AcDbEntity
  8
C-A
  6
Continuous
 62
     3
370
     9
100
AcDbLine
 10
-126.5890966978893
 20
689.5669803103885
 30
0.0
 11
187.4103061473387
 21
689.5669803103885
 31
0.0
  0
LINE
  5
1E4
330
1F
100
AcDbEntity
  8
C-A
  6
Continuous
 62
     3
370
     9
100
AcDbLine
 10
-126.5890966978893
 20
661.5669374208193
 30
0.0
 11
159.4103869776808
 21
661.5669374208193
 31
0.0
  0
LINE
  5
1E5
330
1F
100
AcDbEntity
  8
C-A
  6
Continuous
 62
     3
370
     9
100
AcDbLine
 10
-126.5890966978893
 20
657.167209934544
 30
0.0
 11
155.0100408918489
 21
657.167209934544
 31
0.0
  0
LINE
  5
1E6
330
1F
100
AcDbEntity
  8
C-A
  6
Continuous
 62
     3
370
     9
100
AcDbLine
 10
-126.5890966978893
 20
639.5673102301521
 30
0.0
 11
137.4100174675456
 21
639.5673102301521
 31
0.0
  0
LINE
  5
1E7
330
1F
100
AcDbEntity
  8
C-A
  6
Continuous
 62
     3
370
     9
100
AcDbLine
 10
-126.5890966978893
 20
643.9670377164273
 30
0.0
 11
141.8102398334662
 21
643.9670377164273
 31
0.0
  0
LINE
  5
1E8
330
1F
100
AcDbEntity
  8
C-A
  6
Continuous
 62
     3
370
     9
100
AcDbLine
 10
-126.5890966978893
 20
652.7674824482688
 30
0.0
 11
150.6103134055735
 21
652.7674824482688
 31
0.0
  0
LINE
  5
1E9
330
1F
100
AcDbEntity
  8
C-A
  6
Continuous
 62
     3
370
     9
100
AcDbLine
 10
-126.5890966978893
 20
648.3672600823481
 30
0.0
 11
146.2105859192982
 21
648.3672600823481
 31
0.0
  0
LINE
  5
1EA
330
1F
100
AcDbEntity
  8
C-A
  6
Continuous
 62
     3
370
     9
100
AcDbLine
 10
-126.5890966978893
 20
589.5673927100929
 30
0.0
 11
87.41034738730917
 21
589.5673927100929
 31
0.0
  0
LINE
  5
1EB
330
1F
100
AcDbEntity
  8
C-A
  6
Continuous
 62
     3
370
     9
100
AcDbLine
 10
-126.5890966978893
 20
593.9671201963682
 30
0.0
 11
91.81007487358457
 21
593.9671201963682
 31
0.0
  0
LINE
  5
1EC
330
1F
100
AcDbEntity
  8
C-A
  6
Continuous
 62
     3
370
     9
100
AcDbLine
 10
-126.5890966978893
 20
598.3670951224665
 30
0.0
 11
96.20980235985982
 21
598.3670951224665
 31
0.0
  0
LINE
  5
1ED
330
1F
100
AcDbEntity
  8
C-A
  6
Continuous
 62
     3
370
     9
100
AcDbLine
 10
-126.5890966978893
 20
602.7668226087417
 30
0.0
 11
100.6100247257804
 21
602.7668226087417
 31
0.0
  0
LINE
  5
1EE
330
1F
100
AcDbEntity
  8
C-A
  6
Continuous
 62
     3
370
     9
100
AcDbLine
 10
-126.5890966978893
 20
607.1670449746623
 30
0.0
 11
105.0103708116124
 21
607.1670449746623
 31
0.0
  0
LINE
  5
1EF
330
1F
100
AcDbEntity
  8
C-A
  6
Continuous
 62
     3
370
     9
100
AcDbLine
 10
-126.5890966978893
 20
611.5672673405828
 30
0.0
 11
109.4100982978877
 21
611.5672673405828
 31
0.0
  0
LINE
  5
1F0
330
1F
100
AcDbEntity
  8
C-4
  6
Continuous
 62
     7
370
     9
100
AcDbLine
 10
-46.58920392181244
 20
625.2197595544766
 30
0.0
 11
-46.58920392181244
 21
499.567590661951
 31
0.0
  0
LINE
  5
1F1
330
1F
100
AcDbEntity
  8
C-4
  6
Continuous
 62
     7
370
     9
100
AcDbLine
 10
33.41068885426438
 20
625.2197595544766
 30
0.0
 11
33.41068885426438
 21
499.567590661951
 31
0.0
  0
LINE
  5
1F2
330
1F
100
AcDbEntity
  8
C-4
  6
Continuous
 62
     7
370
     9
100
AcDbLine
 10
-59.00375470306244
 20
625.5671650654563
 30
0.0
 11
-194.5892096954083
 21
625.5671650654563
 31
0.0
  0
LINE
  5
1F3
330
1F
100
AcDbEntity
  8
C-4
  6
Continuous
 62
     7
370
     9
100
AcDbLine
 10
-59.00375470306244
 20
675.5668351456927
 30
0.0
 11
-194.5892096954083
 21
675.5668351456927
 31
0.0
  0
LINE
  5
1F4
330
1F
100
AcDbEntity
  8
C-5
  6
Continuous
 62
     7
370
     9
100
AcDbLine
 10
66.1577410211774
 20
595.8568181218328
 30
0.0
 11
81.37702219199667
 21
576.0232791385135
 31
0.0
  0
LINE
  5
1F5
330
1F
100
AcDbEntity
  8
C-5
  6
Continuous
 62
     7
370
     9
100
AcDbLine
 10
66.1577410211774
 20
595.8568181218328
 30
0.0
 11
75.72463060363091
 21
572.7601664775127
 31
0.0
  0
LINE
  5
1F6
330
1F
100
AcDbEntity
  8
C-5
  6
Continuous
 62
     7
370
     9
100
AcDbLine
 10
162.6367548250204
 20
428.7501897038641
 30
0.0
 11
638.0505566884071
 21
428.7501897038641
 31
0.0
  0
LINE
  5
1F7
330
1F
100
AcDbEntity
  8
C-5
  6
Continuous
 62
     7
370
     9
100
AcDbLine
 10
228.3592461151386
 20
605.4287802206505
 30
0.0
 11
282.2786104257383
 21
512.0374442435602
 31
0.0
  0
LINE
  5
1F8
330
1F
100
AcDbEntity
  8
C-5
  6
Continuous
 62
     7
370
     9
100
AcDbLine
 10
228.3592461151386
 20
605.4287802206505
 30
0.0
 11
243.5780324063126
 21
585.5952412373313
 31
0.0
  0
LINE
  5
1F9
330
1F
100
AcDbEntity
  8
C-5
  6
Continuous
 62
     7
370
     9
100
AcDbLine
 10
228.3592461151386
 20
605.4287802206505
 30
0.0
 11
237.9262594175034
 21
582.3321285763304
 31
0.0
  0
LINE
  5
1FA
330
1F
100
AcDbEntity
  8
C-5
  6
Continuous
 62
     7
370
     9
100
AcDbLine
 10
282.2786104257383
 20
512.0374442435602
 30
0.0
 11
555.2507585993023
 21
512.0374442435602
 31
0.0
  0
LINE
  5
1FB
330
1F
100
AcDbEntity
  8
C-5
  6
Continuous
 62
     7
370
     9
100
AcDbLine
 10
162.6367548250204
 20
428.7501897038641
 30
0.0
 11
66.1577410211774
 21
595.8568181218328
 31
0.0
  0
LINE
  5
1FC
330
1F
100
AcDbEntity
  8
C-9
  6
JWW_DASHED2
 62
     4
370
     9
100
AcDbLine
 10
-92.58876182932937
 20
937.0671782622469
 30
0.0
 11
-92.58876182932937
 21
922.5672046558279
 31
0.0
  0
LINE
  5
1FD
330
1F
100
AcDbEntity
  8
C-9
  6
JWW_DASHED2
 62
     4
370
     9
100
AcDbLine
 10
-70.58913463866219
 20
922.5672046558279
 30
0.0
 11
-92.58876182932937
 21
922.5672046558279
 31
0.0
  0
LINE
  5
1FE
330
1F
100
AcDbEntity
  8
C-9
  6
JWW_DASHED2
 62
     4
370
     9
100
AcDbLine
 10
-70.58913463866219
 20
937.0671782622469
 30
0.0
 11
-70.58913463866219
 21
922.5672046558279
 31
0.0
  0
LINE
  5
1FF
330
1F
100
AcDbEntity
  8
C-9
  6
JWW_DASHED2
 62
     4
370
     9
100
AcDbLine
 10
-91.5891049458834
 20
938.4810494087839
 30
0.0
 11
-91.5891049458834
 21
950.5670001055745
 31
0.0
  0
LINE
  5
200
330
1F
100
AcDbEntity
  8
C-9
  6
JWW_DASHED2
 62
     4
370
     9
100
AcDbLine
 10
-71.58903896193067
 20
938.4810494087839
 30
0.0
 11
-71.58903896193067
 21
950.5670001055745
 31
0.0
  0
LINE
  5
201
330
1F
100
AcDbEntity
  8
C-9
  6
JWW_DASHED2
 62
     4
370
     9
100
AcDbLine
 10
-91.0892765041605
 20
938.567158467061
 30
0.0
 11
-72.08886740365372
 21
938.567158467061
 31
0.0
  0
LINE
  5
202
330
1F
100
AcDbEntity
  8
C-9
  6
JWW_DASHED2
 62
     4
370
     9
100
AcDbLine
 10
-91.5891049458834
 20
950.5670001055745
 30
0.0
 11
-71.58903896193067
 21
950.5670001055745
 31
0.0
  0
LINE
  5
203
330
1F
100
AcDbEntity
  8
C-9
  6
JWW_DASHED2
 62
     4
370
     9
100
AcDbLine
 10
217.4105288431792
 20
937.0671782622469
 30
0.0
 11
217.4105288431792
 21
922.5672046558279
 31
0.0
  0
LINE
  5
204
330
1F
100
AcDbEntity
  8
C-9
  6
JWW_DASHED2
 62
     4
370
     9
100
AcDbLine
 10
239.4104034736691
 20
922.5672046558279
 30
0.0
 11
217.4105288431792
 21
922.5672046558279
 31
0.0
  0
LINE
  5
205
330
1F
100
AcDbEntity
  8
C-9
  6
JWW_DASHED2
 62
     4
370
     9
100
AcDbLine
 10
239.4104034736691
 20
937.0671782622469
 30
0.0
 11
239.4104034736691
 21
922.5672046558279
 31
0.0
  0
LINE
  5
206
330
1F
100
AcDbEntity
  8
C-9
  6
JWW_DASHED2
 62
     4
370
     9
100
AcDbLine
 10
218.4106806062704
 20
938.4810494087839
 30
0.0
 11
218.4106806062704
 21
950.5670001055745
 31
0.0
  0
LINE
  5
207
330
1F
100
AcDbEntity
  8
C-9
  6
JWW_DASHED2
 62
     4
370
     9
100
AcDbLine
 10
238.410746590223
 20
938.4810494087839
 30
0.0
 11
238.410746590223
 21
950.5670001055745
 31
0.0
  0
LINE
  5
208
330
1F
100
AcDbEntity
  8
C-9
  6
JWW_DASHED2
 62
     4
370
     9
100
AcDbLine
 10
218.9105090479933
 20
938.567158467061
 30
0.0
 11
237.9106707086774
 21
938.567158467061
 31
0.0
  0
LINE
  5
209
330
1F
100
AcDbEntity
  8
C-9
  6
JWW_DASHED2
 62
     4
370
     9
100
AcDbLine
 10
218.4106806062704
 20
950.5670001055745
 30
0.0
 11
238.410746590223
 21
950.5670001055745
 31
0.0
  0
LINE
  5
20A
330
1F
100
AcDbEntity
  8
C-9
  6
JWW_DASHED2
 62
     4
370
     9
100
AcDbLine
 10
-92.58876182932937
 20
614.0671518686656
 30
0.0
 11
-92.58876182932937
 21
628.5671254750846
 31
0.0
  0
LINE
  5
20B
330
1F
100
AcDbEntity
  8
C-9
  6
JWW_DASHED2
 62
     4
370
     9
100
AcDbLine
 10
-70.58913463866219
 20
628.5671254750846
 30
0.0
 11
-92.58876182932937
 21
628.5671254750846
 31
0.0
  0
LINE
  5
20C
330
1F
100
AcDbEntity
  8
C-9
  6
JWW_DASHED2
 62
     4
370
     9
100
AcDbLine
 10
-70.58913463866219
 20
614.0671518686656
 30
0.0
 11
-70.58913463866219
 21
628.5671254750846
 31
0.0
  0
LINE
  5
20D
330
1F
100
AcDbEntity
  8
C-9
  6
JWW_DASHED2
 62
     4
370
     9
100
AcDbLine
 10
-91.5891049458834
 20
612.6532807221283
 30
0.0
 11
-91.5891049458834
 21
600.567330025338
 31
0.0
  0
LINE
  5
20E
330
1F
100
AcDbEntity
  8
C-9
  6
JWW_DASHED2
 62
     4
370
     9
100
AcDbLine
 10
-71.58903896193067
 20
612.6532807221283
 30
0.0
 11
-71.58903896193067
 21
600.567330025338
 31
0.0
  0
LINE
  5
20F
330
1F
100
AcDbEntity
  8
C-9
  6
JWW_DASHED2
 62
     4
370
     9
100
AcDbLine
 10
-91.0892765041605
 20
612.5671716638516
 30
0.0
 11
-72.08886740365372
 21
612.5671716638516
 31
0.0
  0
LINE
  5
210
330
1F
100
AcDbEntity
  8
C-9
  6
JWW_DASHED2
 62
     4
370
     9
100
AcDbLine
 10
-91.5891049458834
 20
600.567330025338
 30
0.0
 11
-71.58903896193067
 21
600.567330025338
 31
0.0
  0
LINE
  5
211
330
1F
100
AcDbEntity
  8
C-9
  6
JWW_DASHED2
 62
     4
370
     9
100
AcDbLine
 10
217.4105288431792
 20
614.0671518686656
 30
0.0
 11
217.4105288431792
 21
628.5671254750846
 31
0.0
  0
LINE
  5
212
330
1F
100
AcDbEntity
  8
C-9
  6
JWW_DASHED2
 62
     4
370
     9
100
AcDbLine
 10
239.4104034736691
 20
628.5671254750846
 30
0.0
 11
217.4105288431792
 21
628.5671254750846
 31
0.0
  0
LINE
  5
213
330
1F
100
AcDbEntity
  8
C-9
  6
JWW_DASHED2
 62
     4
370
     9
100
AcDbLine
 10
239.4104034736691
 20
614.0671518686656
 30
0.0
 11
239.4104034736691
 21
628.5671254750846
 31
0.0
  0
LINE
  5
214
330
1F
100
AcDbEntity
  8
C-9
  6
JWW_DASHED2
 62
     4
370
     9
100
AcDbLine
 10
218.4106806062704
 20
612.6532807221283
 30
0.0
 11
218.4106806062704
 21
600.567330025338
 31
0.0
  0
LINE
  5
215
330
1F
100
AcDbEntity
  8
C-9
  6
JWW_DASHED2
 62
     4
370
     9
100
AcDbLine
 10
238.410746590223
 20
612.6532807221283
 30
0.0
 11
238.410746590223
 21
600.567330025338
 31
0.0
  0
LINE
  5
216
330
1F
100
AcDbEntity
  8
C-9
  6
JWW_DASHED2
 62
     4
370
     9
100
AcDbLine
 10
218.9105090479933
 20
612.5671716638516
 30
0.0
 11
237.9106707086774
 21
612.5671716638516
 31
0.0
  0
LINE
  5
217
330
1F
100
AcDbEntity
  8
C-9
  6
JWW_DASHED2
 62
     4
370
     9
100
AcDbLine
 10
218.4106806062704
 20
600.567330025338
 30
0.0
 11
238.410746590223
 21
600.567330025338
 31
0.0
  0
ARC
  5
218
330
1F
100
AcDbEntity
  8
C-A
  6
Continuous
 62
     3
370
     9
100
AcDbCircle
 10
-63.58930949613679
 20
925.5671650654563
 30
0.0
 40
2.999960167987927
100
AcDbArc
 50
90.0
 51
270.0
  0
ARC
  5
219
330
1F
100
AcDbEntity
  8
C-A
  6
Continuous
 62
     3
370
     9
100
AcDbCircle
 10
-29.58922206739942
 20
925.5671650654563
 30
0.0
 40
2.999960167987927
100
AcDbArc
 50
270.0
 51
90.0
  0
ARC
  5
21A
330
1F
100
AcDbEntity
  8
C-A
  6
Continuous
 62
     3
370
     9
100
AcDbCircle
 10
16.41058327994003
 20
925.5671650654563
 30
0.0
 40
2.999960167987927
100
AcDbArc
 50
90.0
 51
270.0
  0
ARC
  5
21B
330
1F
100
AcDbEntity
  8
C-A
  6
Continuous
 62
     3
370
     9
100
AcDbCircle
 10
50.4106707086774
 20
925.5671650654563
 30
0.0
 40
2.999960167987927
100
AcDbArc
 50
270.0
 51
90.0
  0
ARC
  5
21C
330
1F
100
AcDbEntity
  8
C-A
  6
Continuous
 62
     3
370
     9
100
AcDbCircle
 10
96.41097093566216
 20
925.5671650654563
 30
0.0
 40
2.999960167987927
100
AcDbArc
 50
90.0
 51
270.0
  0
ARC
  5
21D
330
1F
100
AcDbEntity
  8
C-A
  6
Continuous
 62
     3
370
     9
100
AcDbCircle
 10
130.4110583643995
 20
925.5671650654563
 30
0.0
 40
2.999960167987927
100
AcDbArc
 50
270.0
 51
90.0
  0
ARC
  5
21E
330
1F
100
AcDbEntity
  8
C-A
  6
Continuous
 62
     3
370
     9
100
AcDbCircle
 10
176.4108637117391
 20
925.5671650654563
 30
0.0
 40
2.999960167987927
100
AcDbArc
 50
90.0
 51
270.0
  0
ARC
  5
21F
330
1F
100
AcDbEntity
  8
C-A
  6
Continuous
 62
     3
370
     9
100
AcDbCircle
 10
210.4109511404764
 20
925.5671650654563
 30
0.0
 40
2.999960167987927
100
AcDbArc
 50
270.0
 51
90.0
  0
ARC
  5
220
330
1F
100
AcDbEntity
  8
C-A
  6
Continuous
 62
     3
370
     9
100
AcDbCircle
 10
176.4108637117391
 20
875.5670001055745
 30
0.0
 40
2.999960167987927
100
AcDbArc
 50
90.0
 51
270.0
  0
ARC
  5
221
330
1F
100
AcDbEntity
  8
C-A
  6
Continuous
 62
     3
370
     9
100
AcDbCircle
 10
210.4109511404764
 20
875.5670001055745
 30
0.0
 40
2.999960167987927
100
AcDbArc
 50
270.0
 51
90.0
  0
ARC
  5
222
330
1F
100
AcDbEntity
  8
C-A
  6
Continuous
 62
     3
370
     9
100
AcDbCircle
 10
96.41097093566216
 20
875.5670001055745
 30
0.0
 40
2.999960167987927
100
AcDbArc
 50
90.0
 51
270.0
  0
ARC
  5
223
330
1F
100
AcDbEntity
  8
C-A
  6
Continuous
 62
     3
370
     9
100
AcDbCircle
 10
130.4110583643995
 20
875.5670001055745
 30
0.0
 40
2.999960167987927
100
AcDbArc
 50
270.0
 51
90.0
  0
ARC
  5
224
330
1F
100
AcDbEntity
  8
C-A
  6
Continuous
 62
     3
370
     9
100
AcDbCircle
 10
16.41058327994003
 20
875.5670001055745
 30
0.0
 40
2.999960167987927
100
AcDbArc
 50
90.0
 51
270.0
  0
ARC
  5
225
330
1F
100
AcDbEntity
  8
C-A
  6
Continuous
 62
     3
370
     9
100
AcDbCircle
 10
50.4106707086774
 20
875.5670001055745
 30
0.0
 40
2.999960167987927
100
AcDbArc
 50
270.0
 51
90.0
  0
ARC
  5
226
330
1F
100
AcDbEntity
  8
C-A
  6
Continuous
 62
     3
370
     9
100
AcDbCircle
 10
-63.58930949613679
 20
875.5670001055745
 30
0.0
 40
2.999960167987927
100
AcDbArc
 50
90.0
 51
270.0
  0
ARC
  5
227
330
1F
100
AcDbEntity
  8
C-A
  6
Continuous
 62
     3
370
     9
100
AcDbCircle
 10
-29.58922206739942
 20
875.5670001055745
 30
0.0
 40
2.999960167987927
100
AcDbArc
 50
270.0
 51
90.0
  0
ARC
  5
228
330
1F
100
AcDbEntity
  8
C-A
  6
Continuous
 62
     3
370
     9
100
AcDbCircle
 10
-63.58930949613679
 20
825.567330025338
 30
0.0
 40
2.999960167987927
100
AcDbArc
 50
90.0
 51
270.0
  0
ARC
  5
229
330
1F
100
AcDbEntity
  8
C-A
  6
Continuous
 62
     3
370
     9
100
AcDbCircle
 10
-29.58922206739942
 20
825.567330025338
 30
0.0
 40
2.999960167987927
100
AcDbArc
 50
270.0
 51
90.0
  0
ARC
  5
22A
330
1F
100
AcDbEntity
  8
C-A
  6
Continuous
 62
     3
370
     9
100
AcDbCircle
 10
16.41058327994003
 20
825.567330025338
 30
0.0
 40
2.999960167987927
100
AcDbArc
 50
90.0
 51
270.0
  0
ARC
  5
22B
330
1F
100
AcDbEntity
  8
C-A
  6
Continuous
 62
     3
370
     9
100
AcDbCircle
 10
50.4106707086774
 20
825.567330025338
 30
0.0
 40
2.999960167987927
100
AcDbArc
 50
270.0
 51
90.0
  0
ARC
  5
22C
330
1F
100
AcDbEntity
  8
C-A
  6
Continuous
 62
     3
370
     9
100
AcDbCircle
 10
96.41097093566216
 20
825.567330025338
 30
0.0
 40
2.999960167987927
100
AcDbArc
 50
90.0
 51
270.0
  0
ARC
  5
22D
330
1F
100
AcDbEntity
  8
C-A
  6
Continuous
 62
     3
370
     9
100
AcDbCircle
 10
130.4110583643995
 20
825.567330025338
 30
0.0
 40
2.999960167987927
100
AcDbArc
 50
270.0
 51
90.0
  0
ARC
  5
22E
330
1F
100
AcDbEntity
  8
C-A
  6
Continuous
 62
     3
370
     9
100
AcDbCircle
 10
176.4108637117391
 20
825.567330025338
 30
0.0
 40
2.999960167987927
100
AcDbArc
 50
90.0
 51
270.0
  0
ARC
  5
22F
330
1F
100
AcDbEntity
  8
C-A
  6
Continuous
 62
     3
370
     9
100
AcDbCircle
 10
210.4109511404764
 20
825.567330025338
 30
0.0
 40
2.999960167987927
100
AcDbArc
 50
270.0
 51
90.0
  0
ARC
  5
230
330
1F
100
AcDbEntity
  8
C-A
  6
Continuous
 62
     3
370
     9
100
AcDbCircle
 10
176.4108637117391
 20
775.567412505279
 30
0.0
 40
2.999960167987927
100
AcDbArc
 50
90.0
 51
270.0
  0
ARC
  5
231
330
1F
100
AcDbEntity
  8
C-A
  6
Continuous
 62
     3
370
     9
100
AcDbCircle
 10
210.4109511404764
 20
775.567412505279
 30
0.0
 40
2.999960167987927
100
AcDbArc
 50
270.0
 51
90.0
  0
ARC
  5
232
330
1F
100
AcDbEntity
  8
C-A
  6
Continuous
 62
     3
370
     9
100
AcDbCircle
 10
96.41097093566216
 20
775.567412505279
 30
0.0
 40
2.999960167987927
100
AcDbArc
 50
90.0
 51
270.0
  0
ARC
  5
233
330
1F
100
AcDbEntity
  8
C-A
  6
Continuous
 62
     3
370
     9
100
AcDbCircle
 10
130.4110583643995
 20
775.567412505279
 30
0.0
 40
2.999960167987927
100
AcDbArc
 50
270.0
 51
90.0
  0
ARC
  5
234
330
1F
100
AcDbEntity
  8
C-A
  6
Continuous
 62
     3
370
     9
100
AcDbCircle
 10
16.41058327994003
 20
775.567412505279
 30
0.0
 40
2.999960167987927
100
AcDbArc
 50
90.0
 51
270.0
  0
ARC
  5
235
330
1F
100
AcDbEntity
  8
C-A
  6
Continuous
 62
     3
370
     9
100
AcDbCircle
 10
50.4106707086774
 20
775.567412505279
 30
0.0
 40
2.999960167987927
100
AcDbArc
 50
270.0
 51
90.0
  0
ARC
  5
236
330
1F
100
AcDbEntity
  8
C-A
  6
Continuous
 62
     3
370
     9
100
AcDbCircle
 10
-63.58930949613679
 20
775.567412505279
 30
0.0
 40
2.999960167987927
100
AcDbArc
 50
90.0
 51
270.0
  0
ARC
  5
237
330
1F
100
AcDbEntity
  8
C-A
  6
Continuous
 62
     3
370
     9
100
AcDbCircle
 10
-29.58922206739942
 20
775.567412505279
 30
0.0
 40
2.999960167987927
100
AcDbArc
 50
270.0
 51
90.0
  0
ARC
  5
238
330
1F
100
AcDbEntity
  8
C-A
  6
Continuous
 62
     3
370
     9
100
AcDbCircle
 10
-63.58930949613679
 20
725.5672475453971
 30
0.0
 40
2.999960167987927
100
AcDbArc
 50
90.0
 51
270.0
  0
ARC
  5
239
330
1F
100
AcDbEntity
  8
C-A
  6
Continuous
 62
     3
370
     9
100
AcDbCircle
 10
-29.58922206739942
 20
725.5672475453971
 30
0.0
 40
2.999960167987927
100
AcDbArc
 50
270.0
 51
90.0
  0
ARC
  5
23A
330
1F
100
AcDbEntity
  8
C-A
  6
Continuous
 62
     3
370
     9
100
AcDbCircle
 10
16.41058327994003
 20
725.5672475453971
 30
0.0
 40
2.999960167987927
100
AcDbArc
 50
90.0
 51
270.0
  0
ARC
  5
23B
330
1F
100
AcDbEntity
  8
C-A
  6
Continuous
 62
     3
370
     9
100
AcDbCircle
 10
50.4106707086774
 20
725.5672475453971
 30
0.0
 40
2.999960167987927
100
AcDbArc
 50
270.0
 51
90.0
  0
ARC
  5
23C
330
1F
100
AcDbEntity
  8
C-A
  6
Continuous
 62
     3
370
     9
100
AcDbCircle
 10
96.41097093566216
 20
725.5672475453971
 30
0.0
 40
2.999960167987927
100
AcDbArc
 50
90.0
 51
270.0
  0
ARC
  5
23D
330
1F
100
AcDbEntity
  8
C-A
  6
Continuous
 62
     3
370
     9
100
AcDbCircle
 10
130.4110583643995
 20
725.5672475453971
 30
0.0
 40
2.999960167987927
100
AcDbArc
 50
270.0
 51
90.0
  0
ARC
  5
23E
330
1F
100
AcDbEntity
  8
C-A
  6
Continuous
 62
     3
370
     9
100
AcDbCircle
 10
176.4108637117391
 20
725.5672475453971
 30
0.0
 40
2.999960167987927
100
AcDbArc
 50
90.0
 51
270.0
  0
ARC
  5
23F
330
1F
100
AcDbEntity
  8
C-A
  6
Continuous
 62
     3
370
     9
100
AcDbCircle
 10
210.4109511404764
 20
725.5672475453971
 30
0.0
 40
2.999960167987927
100
AcDbArc
 50
270.0
 51
90.0
  0
ARC
  5
240
330
1F
100
AcDbEntity
  8
C-A
  6
Continuous
 62
     3
370
     9
100
AcDbCircle
 10
96.41097093566216
 20
675.5668351456927
 30
0.0
 40
2.999960167987927
100
AcDbArc
 50
90.0
 51
270.0
  0
ARC
  5
241
330
1F
100
AcDbEntity
  8
C-A
  6
Continuous
 62
     3
370
     9
100
AcDbCircle
 10
130.4110583643995
 20
675.5668351456927
 30
0.0
 40
2.999960167987927
100
AcDbArc
 50
270.0
 51
90.0
  0
ARC
  5
242
330
1F
100
AcDbEntity
  8
C-A
  6
Continuous
 62
     3
370
     9
100
AcDbCircle
 10
16.41058327994003
 20
675.5668351456927
 30
0.0
 40
2.999960167987927
100
AcDbArc
 50
90.0
 51
270.0
  0
ARC
  5
243
330
1F
100
AcDbEntity
  8
C-A
  6
Continuous
 62
     3
370
     9
100
AcDbCircle
 10
50.4106707086774
 20
675.5668351456927
 30
0.0
 40
2.999960167987927
100
AcDbArc
 50
270.0
 51
90.0
  0
ARC
  5
244
330
1F
100
AcDbEntity
  8
C-A
  6
Continuous
 62
     3
370
     9
100
AcDbCircle
 10
-63.58930949613679
 20
675.5668351456927
 30
0.0
 40
2.999960167987927
100
AcDbArc
 50
90.0
 51
270.0
  0
ARC
  5
245
330
1F
100
AcDbEntity
  8
C-A
  6
Continuous
 62
     3
370
     9
100
AcDbCircle
 10
-29.58922206739942
 20
675.5668351456927
 30
0.0
 40
2.999960167987927
100
AcDbArc
 50
270.0
 51
90.0
  0
ARC
  5
246
330
1F
100
AcDbEntity
  8
C-A
  6
Continuous
 62
     3
370
     9
100
AcDbCircle
 10
-63.58930949613679
 20
625.5671650654563
 30
0.0
 40
2.999960167987927
100
AcDbArc
 50
90.0
 51
270.0
  0
ARC
  5
247
330
1F
100
AcDbEntity
  8
C-A
  6
Continuous
 62
     3
370
     9
100
AcDbCircle
 10
-29.58922206739942
 20
625.5671650654563
 30
0.0
 40
2.999960167987927
100
AcDbArc
 50
270.0
 51
90.0
  0
ARC
  5
248
330
1F
100
AcDbEntity
  8
C-A
  6
Continuous
 62
     3
370
     9
100
AcDbCircle
 10
16.41058327994003
 20
625.5671650654563
 30
0.0
 40
2.999960167987927
100
AcDbArc
 50
90.0
 51
270.0
  0
ARC
  5
249
330
1F
100
AcDbEntity
  8
C-A
  6
Continuous
 62
     3
370
     9
100
AcDbCircle
 10
50.4106707086774
 20
625.5671650654563
 30
0.0
 40
2.999960167987927
100
AcDbArc
 50
270.0
 51
90.0
  0
ARC
  5
24A
330
1F
100
AcDbEntity
  8
C-A
  6
Continuous
 62
     3
370
     9
100
AcDbCircle
 10
96.41097093566216
 20
625.5671650654563
 30
0.0
 40
2.999960167987927
100
AcDbArc
 50
90.0
 51
270.0
  0
ARC
  5
24B
330
1F
100
AcDbEntity
  8
C-2
  6
Continuous
 62
     3
370
     9
100
AcDbCircle
 10
733.05062267236
 20
800.5672475453971
 30
0.0
 40
14.99999922675056
100
AcDbArc
 50
1.165664672851562
 51
89.9994354248047
  0
ARC
  5
24C
330
1F
100
AcDbEntity
  8
C-2
  6
Continuous
 62
     3
370
     9
100
AcDbCircle
 10
733.0516124316503
 20
800.5672475453971
 30
0.0
 40
14.99999922675056
100
AcDbArc
 50
270.0
 51
0.0012359619140554
  0
ARC
  5
24D
330
1F
100
AcDbEntity
  8
C-2
  6
Continuous
 62
     3
370
     9
100
AcDbCircle
 10
563.0512990078751
 20
800.5672475453971
 30
0.0
 40
14.99999922675056
100
AcDbArc
 50
179.9994049072266
 51
270.0
  0
ARC
  5
24E
330
1F
100
AcDbEntity
  8
C-2
  6
Continuous
 62
     3
370
     9
100
AcDbCircle
 10
563.0512990078751
 20
800.5672475453971
 30
0.0
 40
14.99999922675056
100
AcDbArc
 50
89.99996948242188
 51
179.9988098144531
  0
ARC
  5
24F
330
1F
100
AcDbEntity
  8
C-A
  6
Continuous
 62
     3
370
     9
100
AcDbCircle
 10
176.4108637117391
 20
675.5668351456927
 30
0.0
 40
2.999960167987927
100
AcDbArc
 50
90.0
 51
179.9905395507812
  0
ARC
  5
250
330
1F
100
AcDbEntity
  8
C-9
  6
JWW_DASHED2
 62
     4
370
     9
100
AcDbCircle
 10
-91.0892765041605
 20
937.0671782622469
 30
0.0
 40
1.500000019331236
100
AcDbArc
 50
90.0
 51
180.0
  0
ARC
  5
251
330
1F
100
AcDbEntity
  8
C-9
  6
JWW_DASHED2
 62
     4
370
     9
100
AcDbCircle
 10
-72.08886740365372
 20
937.0671782622469
 30
0.0
 40
1.500000019331236
100
AcDbArc
 50
0.0
 51
90.0
  0
ARC
  5
252
330
1F
100
AcDbEntity
  8
C-9
  6
JWW_DASHED2
 62
     4
370
     9
100
AcDbCircle
 10
218.9105090479933
 20
937.0671782622469
 30
0.0
 40
1.500000019331236
100
AcDbArc
 50
90.0
 51
180.0
  0
ARC
  5
253
330
1F
100
AcDbEntity
  8
C-9
  6
JWW_DASHED2
 62
     4
370
     9
100
AcDbCircle
 10
237.9106707086774
 20
937.0671782622469
 30
0.0
 40
1.500000019331236
100
AcDbArc
 50
0.0
 51
90.0
  0
ARC
  5
254
330
1F
100
AcDbEntity
  8
C-9
  6
JWW_DASHED2
 62
     4
370
     9
100
AcDbCircle
 10
-91.0892765041605
 20
614.0671518686656
 30
0.0
 40
1.500000019331236
100
AcDbArc
 50
180.0
 51
270.0
  0
ARC
  5
255
330
1F
100
AcDbEntity
  8
C-9
  6
JWW_DASHED2
 62
     4
370
     9
100
AcDbCircle
 10
-72.08886740365372
 20
614.0671518686656
 30
0.0
 40
1.500000019331236
100
AcDbArc
 50
270.0
 51
0.0
  0
ARC
  5
256
330
1F
100
AcDbEntity
  8
C-9
  6
JWW_DASHED2
 62
     4
370
     9
100
AcDbCircle
 10
218.9105090479933
 20
614.0671518686656
 30
0.0
 40
1.500000019331236
100
AcDbArc
 50
180.0
 51
270.0
  0
ARC
  5
257
330
1F
100
AcDbEntity
  8
C-9
  6
JWW_DASHED2
 62
     4
370
     9
100
AcDbCircle
 10
237.9106707086774
 20
614.0671518686656
 30
0.0
 40
1.500000019331236
100
AcDbArc
 50
270.0
 51
0.0
  0
TEXT
  5
258
330
1F
100
AcDbEntity
  8
C-4
  6
Continuous
 62
     2
370
     9
100
AcDbText
 10
-100.7217003680097
 20
1066.206868137621
 30
0.0
 40
30.48
  1
25
 50
0.0003335824015645
 41
1.062499999999999
  7
ＭＳ ゴシック
100
AcDbText
  0
TEXT
  5
259
330
1F
100
AcDbEntity
  8
C-4
  6
Continuous
 62
     2
370
     9
100
AcDbText
 10
201.0302354362027
 20
1066.206868137621
 30
0.0
 40
30.48
  1
25
 50
0.0003335824015645
 41
1.062499999999999
  7
ＭＳ ゴシック
100
AcDbText
  0
TEXT
  5
25A
330
1F
100
AcDbEntity
  8
C-4
  6
Continuous
 62
     2
370
     9
100
AcDbText
 10
-117.2187959925208
 20
1121.207049593539
 30
0.0
 40
30.48
  1
1
 41
0.9999999999999998
  7
ＭＳ ゴシック
100
AcDbText
  0
TEXT
  5
25B
330
1F
100
AcDbEntity
  8
C-4
  6
Continuous
 62
     2
370
     9
100
AcDbText
 10
239.5022984997986
 20
1121.207049593539
 30
0.0
 40
30.48
  1
1
 41
0.9999999999999998
  7
ＭＳ ゴシック
100
AcDbText
  0
TEXT
  5
25C
330
1F
100
AcDbEntity
  8
C-4
  6
Continuous
 62
     2
370
     9
100
AcDbText
 10
40.91104679205354
 20
1066.206868137563
 30
0.0
 40
30.48
  1
350
 50
0.0002181117696755
 41
1.083333333333334
  7
ＭＳ ゴシック
100
AcDbText
  0
TEXT
  5
25D
330
1F
100
AcDbEntity
  8
C-4
  6
Continuous
 62
     2
370
     9
100
AcDbText
 10
40.91106826199251
 20
1121.207049593539
 30
0.0
 40
30.48
  1
400
 41
1.083333333333333
  7
ＭＳ ゴシック
100
AcDbText
  0
TEXT
  5
25E
330
1F
100
AcDbEntity
  8
C-4
  6
Continuous
 62
     2
370
     9
100
AcDbText
 10
-202.2289555531227
 20
629.3168761391308
 30
0.0
 40
30.48
  1
50
 50
90.00000250447816
 41
1.062500000000001
  7
ＭＳ ゴシック
100
AcDbText
  0
TEXT
  5
25F
330
1F
100
AcDbEntity
  8
C-4
  6
Continuous
 62
     2
370
     9
100
AcDbText
 10
-27.83912999896316
 20
513.2073201272675
 30
0.0
 40
30.48
  1
80
 50
359.9993328351969
 41
1.0625
  7
ＭＳ ゴシック
100
AcDbText
  0
TEXT
  5
260
330
1F
100
AcDbEntity
  8
C-4
  6
Continuous
 62
     2
370
     9
100
AcDbText
 10
626.8014557197627
 20
903.4270961782096
 30
0.0
 40
30.48
  1
40
 41
1.0625
  7
ＭＳ ゴシック
100
AcDbText
  0
TEXT
  5
261
330
1F
100
AcDbEntity
  8
C-4
  6
Continuous
 62
     2
370
     9
100
AcDbText
 10
817.2461251153859
 20
790.5672472988648
 30
0.0
 40
30.48
  1
6
 50
90.00000250447816
 41
1.000000000000001
  7
ＭＳ ゴシック
100
AcDbText
  0
TEXT
  5
262
330
1F
100
AcDbEntity
  8
C-5
  6
Continuous
 62
     2
370
     9
100
AcDbText
 10
410.4583755344381
 20
677.6694354413136
 30
0.0
 40
30.48
  1
排水穴詳細　Ｓ＝１：２
 50
0.0000578663535761
 41
1.113636363636364
  7
ＭＳ ゴシック
100
AcDbText
  0
TEXT
  5
263
330
1F
100
AcDbEntity
  8
C-5
  6
Continuous
 62
     2
370
     9
100
AcDbText
 10
-194.0893028977416
 20
300.7072376478042
 30
0.0
 40
30.48
  1
平面詳細図　Ｓ＝１：１０
 41
1.114583333333333
  7
ＭＳ ゴシック
100
AcDbText
  0
TEXT
  5
264
330
1F
100
AcDbEntity
  8
C-5
  6
Continuous
 62
     7
370
     9
100
AcDbText
 10
164.2698535304152
 20
390.0049650285052
 30
0.0
 40
22.86
  1
被膜厚さ７５μ（色：グレ－）
 41
1.154761904761905
  7
ＭＳ ゴシック
100
AcDbText
  0
TEXT
  5
265
330
1F
100
AcDbEntity
  8
C-5
  6
Continuous
 62
     7
370
     9
100
AcDbText
 10
294.2611499936296
 20
520.1370319098502
 30
0.0
 40
22.86
  1
クリップ（裏面）
 50
0.0000257768272981
 41
1.145833333333333
  7
ＭＳ ゴシック
100
AcDbText
  0
TEXT
  5
266
330
1F
100
AcDbEntity
  8
C-0
  6
Continuous
 62
     2
370
     9
100
AcDbText
 10
40.91106826199251
 20
1173.306246568834
 30
0.0
 40
30.48
  1
412
 41
1.083333333333333
  7
ＭＳ ゴシック
100
AcDbText
  0
TEXT
  5
267
330
1F
100
AcDbEntity
  8
C-0
  6
Continuous
 62
     2
370
     9
100
AcDbText
 10
297.128435073384
 20
1121.207049593539
 30
0.0
 40
30.48
  1
5
 41
0.9999999999999998
  7
ＭＳ ゴシック
100
AcDbText
  0
TEXT
  5
268
330
1F
100
AcDbEntity
  8
C-0
  6
Continuous
 62
     2
370
     9
100
AcDbText
 10
-167.757328146501
 20
1121.207049593539
 30
0.0
 40
30.48
  1
5
 41
0.9999999999999998
  7
ＭＳ ゴシック
100
AcDbText
  0
LWPOLYLINE
  5
269
330
1F
100
AcDbEntity
  8
C-4
  6
Continuous
 62
     7
370
     9
100
AcDbPolyline
 90
        4
 70
     1
 43
1.0
 10
-126.0890966978893
 20
1110.566785657728
 42
0.4142135623731
 10
-126.5890966978893
 20
1111.066785657728
 42
0.4142135623731
 10
-127.0890966978893
 20
1110.566785657728
 42
0.4142135623731
 10
-126.5890966978893
 20
1110.066785657728
 42
0.4142135623731
  0
LWPOLYLINE
  5
26A
330
1F
100
AcDbEntity
  8
C-4
  6
Continuous
 62
     7
370
     9
100
AcDbPolyline
 90
        4
 70
     1
 43
1.0
 10
273.910738342229
 20
1110.566785657728
 42
0.4142135623731
 10
273.410738342229
 20
1111.066785657728
 42
0.4142135623731
 10
272.910738342229
 20
1110.566785657728
 42
0.4142135623731
 10
273.410738342229
 20
1110.066785657728
 42
0.4142135623731
  0
LWPOLYLINE
  5
26B
330
1F
100
AcDbEntity
  8
C-4
  6
Continuous
 62
     7
370
     9
100
AcDbPolyline
 90
        4
 70
     1
 43
1.0
 10
-134.0894447632398
 20
1165.566719673775
 42
0.4142135623731
 10
-134.5894447632398
 20
1166.066719673775
 42
0.4142135623731
 10
-135.0894447632398
 20
1165.566719673775
 42
0.4142135623731
 10
-134.5894447632398
 20
1165.066719673776
 42
0.4142135623731
  0
LWPOLYLINE
  5
26C
330
1F
100
AcDbEntity
  8
C-4
  6
Continuous
 62
     7
370
     9
100
AcDbPolyline
 90
        4
 70
     1
 43
1.0
 10
281.9105915279342
 20
1165.566719673775
 42
0.4142135623731
 10
281.4105915279342
 20
1166.066719673775
 42
0.4142135623731
 10
280.9105915279342
 20
1165.566719673775
 42
0.4142135623731
 10
281.4105915279342
 20
1165.066719673776
 42
0.4142135623731
  0
LWPOLYLINE
  5
26D
330
1F
100
AcDbEntity
  8
C-4
  6
Continuous
 62
     7
370
     9
100
AcDbPolyline
 90
        4
 70
     1
 43
1.0
 10
-101.0887667781259
 20
1055.567099081503
 42
0.4142135623731
 10
-101.5887667781259
 20
1056.067099081503
 42
0.4142135623731
 10
-102.0887667781259
 20
1055.567099081503
 42
0.4142135623731
 10
-101.5887667781259
 20
1055.067099081503
 42
0.4142135623731
  0
LWPOLYLINE
  5
26E
330
1F
100
AcDbEntity
  8
C-4
  6
Continuous
 62
     7
370
     9
100
AcDbPolyline
 90
        4
 70
     1
 43
1.0
 10
248.9109033021107
 20
1055.567099081503
 42
0.4142135623731
 10
248.4109033021107
 20
1056.067099081503
 42
0.4142135623731
 10
247.9109033021107
 20
1055.567099081503
 42
0.4142135623731
 10
248.4109033021107
 20
1055.067099081503
 42
0.4142135623731
  0
LWPOLYLINE
  5
26F
330
1F
100
AcDbEntity
  8
C-4
  6
Continuous
 62
     7
370
     9
100
AcDbPolyline
 90
        4
 70
     1
 43
1.0
 10
-126.0890966978893
 20
1055.567099081503
 42
0.4142135623731
 10
-126.5890966978893
 20
1056.067099081503
 42
0.4142135623731
 10
-127.0890966978893
 20
1055.567099081503
 42
0.4142135623731
 10
-126.5890966978893
 20
1055.067099081503
 42
0.4142135623731
  0
LWPOLYLINE
  5
270
330
1F
100
AcDbEntity
  8
C-4
  6
Continuous
 62
     7
370
     9
100
AcDbPolyline
 90
        4
 70
     1
 43
1.0
 10
273.9102434625837
 20
1055.567099081503
 42
0.4142135623731
 10
273.4102434625837
 20
1056.067099081503
 42
0.4142135623731
 10
272.9102434625837
 20
1055.567099081503
 42
0.4142135623731
 10
273.4102434625837
 20
1055.067099081503
 42
0.4142135623731
  0
LWPOLYLINE
  5
271
330
1F
100
AcDbEntity
  8
C-4
  6
Continuous
 62
     7
370
     9
100
AcDbPolyline
 90
        4
 70
     1
 43
1.0
 10
-127.0889391612023
 20
1110.566785657728
 42
0.4142135623731
 10
-127.5889391612023
 20
1111.066785657728
 42
0.4142135623731
 10
-128.0889391612023
 20
1110.566785657728
 42
0.4142135623731
 10
-127.5889391612023
 20
1110.066785657728
 42
0.4142135623731
  0
LWPOLYLINE
  5
272
330
1F
100
AcDbEntity
  8
C-4
  6
Continuous
 62
     7
370
     9
100
AcDbPolyline
 90
        4
 70
     1
 43
1.0
 10
-134.0894447632398
 20
1110.566785657728
 42
0.4142135623731
 10
-134.5894447632398
 20
1111.066785657728
 42
0.4142135623731
 10
-135.0894447632398
 20
1110.566785657728
 42
0.4142135623731
 10
-134.5894447632398
 20
1110.066785657728
 42
0.4142135623731
  0
LWPOLYLINE
  5
273
330
1F
100
AcDbEntity
  8
C-4
  6
Continuous
 62
     7
370
     9
100
AcDbPolyline
 90
        4
 70
     1
 43
1.0
 10
274.9106426654974
 20
1110.566785657728
 42
0.4142135623731
 10
274.4106426654974
 20
1111.066785657728
 42
0.4142135623731
 10
273.9106426654974
 20
1110.566785657728
 42
0.4142135623731
 10
274.4106426654974
 20
1110.066785657728
 42
0.4142135623731
  0
LWPOLYLINE
  5
274
330
1F
100
AcDbEntity
  8
C-4
  6
Continuous
 62
     7
370
     9
100
AcDbPolyline
 90
        4
 70
     1
 43
1.0
 10
281.9105915279342
 20
1110.566785657728
 42
0.4142135623731
 10
281.4105915279342
 20
1111.066785657728
 42
0.4142135623731
 10
280.9105915279342
 20
1110.566785657728
 42
0.4142135623731
 10
281.4105915279342
 20
1110.066785657728
 42
0.4142135623731
  0
LWPOLYLINE
  5
275
330
1F
100
AcDbEntity
  8
C-4
  6
Continuous
 62
     7
370
     9
100
AcDbPolyline
 90
        4
 70
     1
 43
1.0
 10
-191.0891874258243
 20
675.5668351456927
 42
0.4142135623731
 10
-191.5891874258243
 20
676.0668351456927
 42
0.4142135623731
 10
-192.0891874258243
 20
675.5668351456927
 42
0.4142135623731
 10
-191.5891874258243
 20
675.0668351456927
 42
0.4142135623731
  0
LWPOLYLINE
  5
276
330
1F
100
AcDbEntity
  8
C-4
  6
Continuous
 62
     7
370
     9
100
AcDbPolyline
 90
        4
 70
     1
 43
1.0
 10
-191.0891874258243
 20
625.5671650654563
 42
0.4142135623731
 10
-191.5891874258243
 20
626.0671650654563
 42
0.4142135623731
 10
-192.0891874258243
 20
625.5671650654563
 42
0.4142135623731
 10
-191.5891874258243
 20
625.0671650654563
 42
0.4142135623731
  0
LWPOLYLINE
  5
277
330
1F
100
AcDbEntity
  8
C-4
  6
Continuous
 62
     7
370
     9
100
AcDbPolyline
 90
        4
 70
     1
 43
1.0
 10
-46.08920392181244
 20
502.5675510715794
 42
0.4142135623731
 10
-46.58920392181244
 20
503.0675510715794
 42
0.4142135623731
 10
-47.08920392181244
 20
502.5675510715794
 42
0.4142135623731
 10
-46.58920392181244
 20
502.0675510715795
 42
0.4142135623731
  0
LWPOLYLINE
  5
278
330
1F
100
AcDbEntity
  8
C-4
  6
Continuous
 62
     7
370
     9
100
AcDbPolyline
 90
        4
 70
     1
 43
1.0
 10
33.91068885426438
 20
502.5675510715794
 42
0.4142135623731
 10
33.41068885426438
 20
503.0675510715794
 42
0.4142135623731
 10
32.91068885426438
 20
502.5675510715794
 42
0.4142135623731
 10
33.41068885426438
 20
502.0675510715795
 42
0.4142135623731
  0
LWPOLYLINE
  5
279
330
1F
100
AcDbEntity
  8
C-4
  6
Continuous
 62
     7
370
     9
100
AcDbPolyline
 90
        4
 70
     1
 43
1.0
 10
548.5514969597331
 20
892.7863373627533
 42
0.4142135623731
 10
548.0514969597332
 20
893.2863373627533
 42
0.4142135623731
 10
547.5514969597332
 20
892.7863373627533
 42
0.4142135623731
 10
548.0514969597332
 20
892.2863373627534
 42
0.4142135623731
  0
LWPOLYLINE
  5
27A
330
1F
100
AcDbEntity
  8
C-4
  6
Continuous
 62
     7
370
     9
100
AcDbPolyline
 90
        4
 70
     1
 43
1.0
 10
748.5514144797922
 20
892.7863373627533
 42
0.4142135623731
 10
748.0514144797922
 20
893.2863373627533
 42
0.4142135623731
 10
747.5514144797922
 20
892.7863373627533
 42
0.4142135623731
 10
748.0514144797922
 20
892.2863373627534
 42
0.4142135623731
  0
LWPOLYLINE
  5
27B
330
1F
100
AcDbEntity
  8
C-4
  6
Continuous
 62
     7
370
     9
100
AcDbPolyline
 90
        4
 70
     1
 43
1.0
 10
828.3863886140829
 20
785.5669506176099
 42
0.4142135623731
 10
827.8863886140829
 20
786.0669506176099
 42
0.4142135623731
 10
827.3863886140829
 20
785.5669506176099
 42
0.4142135623731
 10
827.8863886140829
 20
785.0669506176099
 42
0.4142135623731
  0
LWPOLYLINE
  5
27C
330
1F
100
AcDbEntity
  8
C-4
  6
Continuous
 62
     7
370
     9
100
AcDbPolyline
 90
        4
 70
     1
 43
1.0
 10
828.3863886140829
 20
815.5670495935391
 42
0.4142135623731
 10
827.8863886140829
 20
816.0670495935391
 42
0.4142135623731
 10
827.3863886140829
 20
815.5670495935391
 42
0.4142135623731
 10
827.8863886140829
 20
815.0670495935391
 42
0.4142135623731
  0
TEXT
  5
27D
330
1F
100
AcDbEntity
  8
D-5
  6
Continuous
 62
     7
370
     9
100
AcDbText
 10
-1645.17079450808
 20
-604.8275197127412
 30
0.0
 40
22.86
  1
補強材：ＦＢ４×２５～２本／枚
 41
1.155555555555555
  7
ＭＳ ゴシック
100
AcDbText
  0
TEXT
  5
27E
330
1F
100
AcDbEntity
  8
D-5
  6
Continuous
 62
     7
370
     9
100
AcDbText
 10
-1530.013371903981
 20
-654.9479748784614
 30
0.0
 40
22.86
  1
（ＳＵＳ３０４）
 41
1.145833333333333
  7
ＭＳ ゴシック
100
AcDbText
  0
LINE
  5
27F
330
1F
100
AcDbEntity
  8
D-5
  6
Continuous
 62
     7
370
     9
100
AcDbLine
 10
-1649.162919841058
 20
-618.5435309252308
 30
0.0
 11
-1109.478071963223
 21
-618.5435309252308
 31
0.0
  0
LINE
  5
280
330
1F
100
AcDbEntity
  8
D-5
  6
Continuous
 62
     7
370
     9
100
AcDbLine
 10
-1109.478071963223
 20
-618.5435309252308
 30
0.0
 11
-1049.846683966147
 21
-420.361707532728
 31
0.0
  0
LINE
  5
281
330
1F
100
AcDbEntity
  8
D-2
  6
Continuous
 62
     6
370
     9
100
AcDbLine
 10
-640.8430086599813
 20
-469.3954344053526
 30
0.0
 11
-1138.51229049064
 21
-469.3954344053526
 31
0.0
  0
LINE
  5
282
330
1F
100
AcDbEntity
  8
D-2
  6
Continuous
 62
     6
370
     9
100
AcDbLine
 10
-640.8430086599813
 20
-444.395290065456
 30
0.0
 11
-640.8430086599813
 21
-469.3954344053526
 31
0.0
  0
LINE
  5
283
330
1F
100
AcDbEntity
  8
D-2
  6
Continuous
 62
     6
370
     9
100
AcDbLine
 10
-640.8430086599813
 20
-344.3954550253378
 30
0.0
 11
-640.8430086599813
 21
-439.3955210092905
 31
0.0
  0
TEXT
  5
284
330
1F
100
AcDbEntity
  8
F-4
  6
Continuous
 62
     2
370
     9
100
AcDbText
 10
-765.923531541256
 20
-1324.619796904938
 30
0.0
 40
30.48
  1
ステンレス製　ノンスリップタイプ（セラミック溶射）排水ピット蓋　クリップ付
 41
0.7743243243243242
  7
ＭＳ ゴシック
100
AcDbText
  0
LINE
  5
285
330
1F
100
AcDbEntity
  8
D-0
  6
Continuous
 62
     7
370
     9
100
AcDbLine
 10
-163.9972679035083
 20
-347.8449795697186
 30
0.0
 11
-163.9972679035083
 21
-346.3446996663067
 31
0.0
  0
LINE
  5
286
330
1F
100
AcDbEntity
  8
D-0
  6
Continuous
 62
     7
370
     9
100
AcDbLine
 10
-163.9972679035083
 20
-346.3446996663067
 30
0.0
 11
-162.4974815265551
 21
-346.3446996663067
 31
0.0
  0
LINE
  5
287
330
1F
100
AcDbEntity
  8
D-0
  6
Continuous
 62
     7
370
     9
100
AcDbLine
 10
-162.4974815265551
 20
-346.3446996663067
 30
0.0
 11
-162.4974815265551
 21
-347.8449795697186
 31
0.0
  0
LINE
  5
288
330
1F
100
AcDbEntity
  8
D-0
  6
Continuous
 62
     7
370
     9
100
AcDbLine
 10
-162.4974815265551
 20
-347.8449795697186
 30
0.0
 11
-163.9972679035083
 21
-347.8449795697186
 31
0.0
  0
LINE
  5
289
330
1F
100
AcDbEntity
  8
D-0
  6
Continuous
 62
     7
370
     9
100
AcDbLine
 10
-113.2414428607836
 20
-350.552220151231
 30
0.0
 11
-113.2414428607836
 21
-349.0519402478192
 31
0.0
  0
LINE
  5
28A
330
1F
100
AcDbEntity
  8
D-0
  6
Continuous
 62
     7
370
     9
100
AcDbLine
 10
-113.2414428607836
 20
-349.0519402478192
 30
0.0
 11
-111.7414276019946
 21
-349.0519402478192
 31
0.0
  0
LINE
  5
28B
330
1F
100
AcDbEntity
  8
D-0
  6
Continuous
 62
     7
370
     9
100
AcDbLine
 10
-111.7414276019946
 20
-349.0519402478192
 30
0.0
 11
-111.7414276019946
 21
-350.552220151231
 31
0.0
  0
LINE
  5
28C
330
1F
100
AcDbEntity
  8
D-0
  6
Continuous
 62
     7
370
     9
100
AcDbLine
 10
-111.7414276019946
 20
-350.552220151231
 30
0.0
 11
-113.2414428607836
 21
-350.552220151231
 31
0.0
  0
LINE
  5
28D
330
1F
100
AcDbEntity
  8
D-0
  6
Continuous
 62
     7
370
     9
100
AcDbLine
 10
-48.27360075873287
 20
-348.5217903111431
 30
0.0
 11
-48.27360075873287
 21
-347.0215104077313
 31
0.0
  0
LINE
  5
28E
330
1F
100
AcDbEntity
  8
D-0
  6
Continuous
 62
     7
370
     9
100
AcDbLine
 10
-48.27360075873287
 20
-347.0215104077313
 30
0.0
 11
-46.77381438178003
 21
-347.0215104077313
 31
0.0
  0
LINE
  5
28F
330
1F
100
AcDbEntity
  8
D-0
  6
Continuous
 62
     7
370
     9
100
AcDbLine
 10
-46.77381438178003
 20
-347.0215104077313
 30
0.0
 11
-46.77381438178003
 21
-348.5217903111431
 31
0.0
  0
LINE
  5
290
330
1F
100
AcDbEntity
  8
D-0
  6
Continuous
 62
     7
370
     9
100
AcDbLine
 10
-46.77381438178003
 20
-348.5217903111431
 30
0.0
 11
-48.27360075873287
 21
-348.5217903111431
 31
0.0
  0
LINE
  5
291
330
1F
100
AcDbEntity
  8
D-0
  6
Continuous
 62
     7
370
     9
100
AcDbLine
 10
-72.63681334418209
 20
-381.0057137463543
 30
0.0
 11
-72.63681334418209
 21
-379.5054314587567
 31
0.0
  0
LINE
  5
292
330
1F
100
AcDbEntity
  8
D-0
  6
Continuous
 62
     7
370
     9
100
AcDbLine
 10
-72.63681334418209
 20
-379.5054314587567
 30
0.0
 11
-71.13653105658443
 21
-379.5054314587567
 31
0.0
  0
LINE
  5
293
330
1F
100
AcDbEntity
  8
D-0
  6
Continuous
 62
     7
370
     9
100
AcDbLine
 10
-71.13653105658443
 20
-379.5054314587567
 30
0.0
 11
-71.13653105658443
 21
-381.0057137463543
 31
0.0
  0
LINE
  5
294
330
1F
100
AcDbEntity
  8
D-0
  6
Continuous
 62
     7
370
     9
100
AcDbLine
 10
-71.13653105658443
 20
-381.0057137463543
 30
0.0
 11
-72.63681334418209
 21
-381.0057137463543
 31
0.0
  0
LINE
  5
295
330
1F
100
AcDbEntity
  8
D-0
  6
Continuous
 62
     7
370
     9
100
AcDbLine
 10
-123.2018463031665
 20
-384.9367640469525
 30
0.0
 11
-123.2018463031665
 21
-383.4364817593548
 31
0.0
  0
LINE
  5
296
330
1F
100
AcDbEntity
  8
D-0
  6
Continuous
 62
     7
370
     9
100
AcDbLine
 10
-123.2018463031665
 20
-383.4364817593548
 30
0.0
 11
-121.7018310443774
 21
-383.4364817593548
 31
0.0
  0
LINE
  5
297
330
1F
100
AcDbEntity
  8
D-0
  6
Continuous
 62
     7
370
     9
100
AcDbLine
 10
-121.7018310443774
 20
-383.4364817593548
 30
0.0
 11
-121.7018310443774
 21
-384.9367640469525
 31
0.0
  0
LINE
  5
298
330
1F
100
AcDbEntity
  8
D-0
  6
Continuous
 62
     7
370
     9
100
AcDbLine
 10
-121.7018310443774
 20
-384.9367640469525
 30
0.0
 11
-123.2018463031665
 21
-384.9367640469525
 31
0.0
  0
LINE
  5
299
330
1F
100
AcDbEntity
  8
D-0
  6
Continuous
 62
     7
370
     9
100
AcDbLine
 10
-140.3113738910571
 20
-418.9036248181317
 30
0.0
 11
-140.3113738910571
 21
-417.403342530534
 31
0.0
  0
LINE
  5
29A
330
1F
100
AcDbEntity
  8
D-0
  6
Continuous
 62
     7
370
     9
100
AcDbLine
 10
-140.3113738910571
 20
-417.403342530534
 30
0.0
 11
-138.8110916034594
 21
-417.403342530534
 31
0.0
  0
LINE
  5
29B
330
1F
100
AcDbEntity
  8
D-0
  6
Continuous
 62
     7
370
     9
100
AcDbLine
 10
-138.8110916034594
 20
-417.403342530534
 30
0.0
 11
-138.8110916034594
 21
-418.9036248181317
 31
0.0
  0
LINE
  5
29C
330
1F
100
AcDbEntity
  8
D-0
  6
Continuous
 62
     7
370
     9
100
AcDbLine
 10
-138.8110916034594
 20
-418.9036248181317
 30
0.0
 11
-140.3113738910571
 21
-418.9036248181317
 31
0.0
  0
LINE
  5
29D
330
1F
100
AcDbEntity
  8
D-0
  6
Continuous
 62
     7
370
     9
100
AcDbLine
 10
-171.6676322833911
 20
-404.3318865750286
 30
0.0
 11
-171.6676322833911
 21
-402.8316090558026
 31
0.0
  0
LINE
  5
29E
330
1F
100
AcDbEntity
  8
D-0
  6
Continuous
 62
     7
370
     9
100
AcDbLine
 10
-171.6676322833911
 20
-402.8316090558026
 30
0.0
 11
-170.1678459064379
 21
-402.8316090558026
 31
0.0
  0
LINE
  5
29F
330
1F
100
AcDbEntity
  8
D-0
  6
Continuous
 62
     7
370
     9
100
AcDbLine
 10
-170.1678459064379
 20
-402.8316090558026
 30
0.0
 11
-170.1678459064379
 21
-404.3318865750286
 31
0.0
  0
LINE
  5
2A0
330
1F
100
AcDbEntity
  8
D-0
  6
Continuous
 62
     7
370
     9
100
AcDbLine
 10
-170.1678459064379
 20
-404.3318865750286
 30
0.0
 11
-171.6676322833911
 21
-404.3318865750286
 31
0.0
  0
LINE
  5
2A1
330
1F
100
AcDbEntity
  8
D-0
  6
Continuous
 62
     7
370
     9
100
AcDbLine
 10
-182.3920432941333
 20
-445.5519173596356
 30
0.0
 11
-182.3920432941333
 21
-444.0516350720379
 31
0.0
  0
LINE
  5
2A2
330
1F
100
AcDbEntity
  8
D-0
  6
Continuous
 62
     7
370
     9
100
AcDbLine
 10
-182.3920432941333
 20
-444.0516350720379
 30
0.0
 11
-180.8917610065356
 21
-444.0516350720379
 31
0.0
  0
LINE
  5
2A3
330
1F
100
AcDbEntity
  8
D-0
  6
Continuous
 62
     7
370
     9
100
AcDbLine
 10
-180.8917610065356
 20
-444.0516350720379
 30
0.0
 11
-180.8917610065356
 21
-445.5519173596356
 31
0.0
  0
LINE
  5
2A4
330
1F
100
AcDbEntity
  8
D-0
  6
Continuous
 62
     7
370
     9
100
AcDbLine
 10
-180.8917610065356
 20
-445.5519173596356
 30
0.0
 11
-182.3920432941333
 21
-445.5519173596356
 31
0.0
  0
LINE
  5
2A5
330
1F
100
AcDbEntity
  8
D-0
  6
Continuous
 62
     7
370
     9
100
AcDbLine
 10
-145.0485793964282
 20
-454.0942929242108
 30
0.0
 11
-145.0485793964282
 21
-452.5940106366131
 31
0.0
  0
LINE
  5
2A6
330
1F
100
AcDbEntity
  8
D-0
  6
Continuous
 62
     7
370
     9
100
AcDbLine
 10
-145.0485793964282
 20
-452.5940106366131
 30
0.0
 11
-143.5482971088305
 21
-452.5940106366131
 31
0.0
  0
LINE
  5
2A7
330
1F
100
AcDbEntity
  8
D-0
  6
Continuous
 62
     7
370
     9
100
AcDbLine
 10
-143.5482971088305
 20
-452.5940106366131
 30
0.0
 11
-143.5482971088305
 21
-454.0942929242108
 31
0.0
  0
LINE
  5
2A8
330
1F
100
AcDbEntity
  8
D-0
  6
Continuous
 62
     7
370
     9
100
AcDbLine
 10
-143.5482971088305
 20
-454.0942929242108
 30
0.0
 11
-145.0485793964282
 21
-454.0942929242108
 31
0.0
  0
LINE
  5
2A9
330
1F
100
AcDbEntity
  8
D-0
  6
Continuous
 62
     7
370
     9
100
AcDbLine
 10
-92.84376067084224
 20
-458.8190815899823
 30
0.0
 11
-92.84376067084224
 21
-457.3188088391278
 31
0.0
  0
LINE
  5
2AA
330
1F
100
AcDbEntity
  8
D-0
  6
Continuous
 62
     7
370
     9
100
AcDbLine
 10
-92.84376067084224
 20
-457.3188088391278
 30
0.0
 11
-91.34370726508052
 21
-457.3188088391278
 31
0.0
  0
LINE
  5
2AB
330
1F
100
AcDbEntity
  8
D-0
  6
Continuous
 62
     7
370
     9
100
AcDbLine
 10
-91.34370726508052
 20
-457.3188088391278
 30
0.0
 11
-91.34370726508052
 21
-458.8190815899823
 31
0.0
  0
LINE
  5
2AC
330
1F
100
AcDbEntity
  8
D-0
  6
Continuous
 62
     7
370
     9
100
AcDbLine
 10
-91.34370726508052
 20
-458.8190815899823
 30
0.0
 11
-92.84376067084224
 21
-458.8190815899823
 31
0.0
  0
LINE
  5
2AD
330
1F
100
AcDbEntity
  8
D-0
  6
Continuous
 62
     7
370
     9
100
AcDbLine
 10
-38.12269133490503
 20
-452.0638630841229
 30
0.0
 11
-38.12269133490503
 21
-450.5635807965252
 31
0.0
  0
LINE
  5
2AE
330
1F
100
AcDbEntity
  8
D-0
  6
Continuous
 62
     7
370
     9
100
AcDbLine
 10
-38.12269133490503
 20
-450.5635807965252
 30
0.0
 11
-36.62263792914331
 21
-450.5635807965252
 31
0.0
  0
LINE
  5
2AF
330
1F
100
AcDbEntity
  8
D-0
  6
Continuous
 62
     7
370
     9
100
AcDbLine
 10
-36.62263792914331
 20
-450.5635807965252
 30
0.0
 11
-36.62263792914331
 21
-452.0638630841229
 31
0.0
  0
LINE
  5
2B0
330
1F
100
AcDbEntity
  8
D-0
  6
Continuous
 62
     7
370
     9
100
AcDbLine
 10
-36.62263792914331
 20
-452.0638630841229
 30
0.0
 11
-38.12269133490503
 21
-452.0638630841229
 31
0.0
  0
LINE
  5
2B1
330
1F
100
AcDbEntity
  8
D-0
  6
Continuous
 62
     7
370
     9
100
AcDbLine
 10
-50.30404967230709
 20
-412.1360180829022
 30
0.0
 11
-50.30404967230709
 21
-410.6357357953045
 31
0.0
  0
LINE
  5
2B2
330
1F
100
AcDbEntity
  8
D-0
  6
Continuous
 62
     7
370
     9
100
AcDbLine
 10
-50.30404967230709
 20
-410.6357357953045
 30
0.0
 11
-48.80399626654537
 21
-410.6357357953045
 31
0.0
  0
LINE
  5
2B3
330
1F
100
AcDbEntity
  8
D-0
  6
Continuous
 62
     7
370
     9
100
AcDbLine
 10
-48.80399626654537
 20
-410.6357357953045
 30
0.0
 11
-48.80399626654537
 21
-412.1360180829022
 31
0.0
  0
LINE
  5
2B4
330
1F
100
AcDbEntity
  8
D-0
  6
Continuous
 62
     7
370
     9
100
AcDbLine
 10
-48.80399626654537
 20
-412.1360180829022
 30
0.0
 11
-50.30404967230709
 21
-412.1360180829022
 31
0.0
  0
LINE
  5
2B5
330
1F
100
AcDbEntity
  8
D-0
  6
Continuous
 62
     7
370
     9
100
AcDbLine
 10
-410.714959325017
 20
-341.4266763184521
 30
0.0
 11
-410.714959325017
 21
-339.9263964150402
 31
0.0
  0
LINE
  5
2B6
330
1F
100
AcDbEntity
  8
D-0
  6
Continuous
 62
     7
370
     9
100
AcDbLine
 10
-410.714959325017
 20
-339.9263964150402
 30
0.0
 11
-409.2151777164355
 21
-339.9263964150402
 31
0.0
  0
LINE
  5
2B7
330
1F
100
AcDbEntity
  8
D-0
  6
Continuous
 62
     7
370
     9
100
AcDbLine
 10
-409.2151777164355
 20
-339.9263964150402
 30
0.0
 11
-409.2151777164355
 21
-341.4266763184521
 31
0.0
  0
LINE
  5
2B8
330
1F
100
AcDbEntity
  8
D-0
  6
Continuous
 62
     7
370
     9
100
AcDbLine
 10
-409.2151777164355
 20
-341.4266763184521
 30
0.0
 11
-410.714959325017
 21
-341.4266763184521
 31
0.0
  0
LINE
  5
2B9
330
1F
100
AcDbEntity
  8
D-0
  6
Continuous
 62
     7
370
     9
100
AcDbLine
 10
-383.9101020709887
 20
-359.0787432644818
 30
0.0
 11
-383.9101020709887
 21
-357.5784633610699
 31
0.0
  0
LINE
  5
2BA
330
1F
100
AcDbEntity
  8
D-0
  6
Continuous
 62
     7
370
     9
100
AcDbLine
 10
-383.9101020709887
 20
-357.5784633610699
 30
0.0
 11
-382.4103156940356
 21
-357.5784633610699
 31
0.0
  0
LINE
  5
2BB
330
1F
100
AcDbEntity
  8
D-0
  6
Continuous
 62
     7
370
     9
100
AcDbLine
 10
-382.4103156940356
 20
-357.5784633610699
 30
0.0
 11
-382.4103156940356
 21
-359.0787432644818
 31
0.0
  0
LINE
  5
2BC
330
1F
100
AcDbEntity
  8
D-0
  6
Continuous
 62
     7
370
     9
100
AcDbLine
 10
-382.4103156940356
 20
-359.0787432644818
 30
0.0
 11
-383.9101020709887
 21
-359.0787432644818
 31
0.0
  0
LINE
  5
2BD
330
1F
100
AcDbEntity
  8
D-0
  6
Continuous
 62
     7
370
     9
100
AcDbLine
 10
-365.604514302434
 20
-394.1054127667401
 30
0.0
 11
-365.604514302434
 21
-392.6051304791424
 31
0.0
  0
LINE
  5
2BE
330
1F
100
AcDbEntity
  8
D-0
  6
Continuous
 62
     7
370
     9
100
AcDbLine
 10
-365.604514302434
 20
-392.6051304791424
 30
0.0
 11
-364.1042320148364
 21
-392.6051304791424
 31
0.0
  0
LINE
  5
2BF
330
1F
100
AcDbEntity
  8
D-0
  6
Continuous
 62
     7
370
     9
100
AcDbLine
 10
-364.1042320148364
 20
-392.6051304791424
 30
0.0
 11
-364.1042320148364
 21
-394.1054127667401
 31
0.0
  0
LINE
  5
2C0
330
1F
100
AcDbEntity
  8
D-0
  6
Continuous
 62
     7
370
     9
100
AcDbLine
 10
-364.1042320148364
 20
-394.1054127667401
 30
0.0
 11
-365.604514302434
 21
-394.1054127667401
 31
0.0
  0
LINE
  5
2C1
330
1F
100
AcDbEntity
  8
D-0
  6
Continuous
 62
     7
370
     9
100
AcDbLine
 10
-331.475629033269
 20
-353.8114140484784
 30
0.0
 11
-331.475629033269
 21
-352.3111341450665
 31
0.0
  0
LINE
  5
2C2
330
1F
100
AcDbEntity
  8
D-0
  6
Continuous
 62
     7
370
     9
100
AcDbLine
 10
-331.475629033269
 20
-352.3111341450665
 30
0.0
 11
-329.9753467456713
 21
-352.3111341450665
 31
0.0
  0
LINE
  5
2C3
330
1F
100
AcDbEntity
  8
D-0
  6
Continuous
 62
     7
370
     9
100
AcDbLine
 10
-329.9753467456713
 20
-352.3111341450665
 30
0.0
 11
-329.9753467456713
 21
-353.8114140484784
 31
0.0
  0
LINE
  5
2C4
330
1F
100
AcDbEntity
  8
D-0
  6
Continuous
 62
     7
370
     9
100
AcDbLine
 10
-329.9753467456713
 20
-353.8114140484784
 30
0.0
 11
-331.475629033269
 21
-353.8114140484784
 31
0.0
  0
LINE
  5
2C5
330
1F
100
AcDbEntity
  8
D-0
  6
Continuous
 62
     7
370
     9
100
AcDbLine
 10
-260.9996597186938
 20
-351.2334893200848
 30
0.0
 11
-260.9996597186938
 21
-349.7332094166729
 31
0.0
  0
LINE
  5
2C6
330
1F
100
AcDbEntity
  8
D-0
  6
Continuous
 62
     7
370
     9
100
AcDbLine
 10
-260.9996597186938
 20
-349.7332094166729
 30
0.0
 11
-259.4998733417407
 21
-349.7332094166729
 31
0.0
  0
LINE
  5
2C7
330
1F
100
AcDbEntity
  8
D-0
  6
Continuous
 62
     7
370
     9
100
AcDbLine
 10
-259.4998733417407
 20
-349.7332094166729
 30
0.0
 11
-259.4998733417407
 21
-351.2334893200848
 31
0.0
  0
LINE
  5
2C8
330
1F
100
AcDbEntity
  8
D-0
  6
Continuous
 62
     7
370
     9
100
AcDbLine
 10
-259.4998733417407
 20
-351.2334893200848
 30
0.0
 11
-260.9996597186938
 21
-351.2334893200848
 31
0.0
  0
LINE
  5
2C9
330
1F
100
AcDbEntity
  8
D-0
  6
Continuous
 62
     7
370
     9
100
AcDbLine
 10
-280.613288106145
 20
-372.8081820462201
 30
0.0
 11
-280.613288106145
 21
-371.307904526994
 31
0.0
  0
LINE
  5
2CA
330
1F
100
AcDbEntity
  8
D-0
  6
Continuous
 62
     7
370
     9
100
AcDbLine
 10
-280.613288106145
 20
-371.307904526994
 30
0.0
 11
-279.1130058185473
 21
-371.307904526994
 31
0.0
  0
LINE
  5
2CB
330
1F
100
AcDbEntity
  8
D-0
  6
Continuous
 62
     7
370
     9
100
AcDbLine
 10
-279.1130058185473
 20
-371.307904526994
 30
0.0
 11
-279.1130058185473
 21
-372.8081820462201
 31
0.0
  0
LINE
  5
2CC
330
1F
100
AcDbEntity
  8
D-0
  6
Continuous
 62
     7
370
     9
100
AcDbLine
 10
-279.1130058185473
 20
-372.8081820462201
 30
0.0
 11
-280.613288106145
 21
-372.8081820462201
 31
0.0
  0
LINE
  5
2CD
330
1F
100
AcDbEntity
  8
D-0
  6
Continuous
 62
     7
370
     9
100
AcDbLine
 10
-267.5378600971118
 20
-397.6519797299359
 30
0.0
 11
-267.5378600971118
 21
-396.1516974423382
 31
0.0
  0
LINE
  5
2CE
330
1F
100
AcDbEntity
  8
D-0
  6
Continuous
 62
     7
370
     9
100
AcDbLine
 10
-267.5378600971118
 20
-396.1516974423382
 30
0.0
 11
-266.0375778095141
 21
-396.1516974423382
 31
0.0
  0
LINE
  5
2CF
330
1F
100
AcDbEntity
  8
D-0
  6
Continuous
 62
     7
370
     9
100
AcDbLine
 10
-266.0375778095141
 20
-396.1516974423382
 30
0.0
 11
-266.0375778095141
 21
-397.6519797299359
 31
0.0
  0
LINE
  5
2D0
330
1F
100
AcDbEntity
  8
D-0
  6
Continuous
 62
     7
370
     9
100
AcDbLine
 10
-266.0375778095141
 20
-397.6519797299359
 30
0.0
 11
-267.5378600971118
 21
-397.6519797299359
 31
0.0
  0
LINE
  5
2D1
330
1F
100
AcDbEntity
  8
D-0
  6
Continuous
 62
     7
370
     9
100
AcDbLine
 10
-263.6147491351977
 20
-436.2247155163739
 30
0.0
 11
-263.6147491351977
 21
-434.7244332287762
 31
0.0
  0
LINE
  5
2D2
330
1F
100
AcDbEntity
  8
D-0
  6
Continuous
 62
     7
370
     9
100
AcDbLine
 10
-263.6147491351977
 20
-434.7244332287762
 30
0.0
 11
-262.1149627582446
 21
-434.7244332287762
 31
0.0
  0
LINE
  5
2D3
330
1F
100
AcDbEntity
  8
D-0
  6
Continuous
 62
     7
370
     9
100
AcDbLine
 10
-262.1149627582446
 20
-434.7244332287762
 30
0.0
 11
-262.1149627582446
 21
-436.2247155163739
 31
0.0
  0
LINE
  5
2D4
330
1F
100
AcDbEntity
  8
D-0
  6
Continuous
 62
     7
370
     9
100
AcDbLine
 10
-262.1149627582446
 20
-436.2247155163739
 30
0.0
 11
-263.6147491351977
 21
-436.2247155163739
 31
0.0
  0
LINE
  5
2D5
330
1F
100
AcDbEntity
  8
D-0
  6
Continuous
 62
     7
370
     9
100
AcDbLine
 10
-91.33306425970943
 20
-421.2536309216473
 30
0.0
 11
-91.33306425970943
 21
-419.7533486340496
 31
0.0
  0
LINE
  5
2D6
330
1F
100
AcDbEntity
  8
D-0
  6
Continuous
 62
     7
370
     9
100
AcDbLine
 10
-91.33306425970943
 20
-419.7533486340496
 30
0.0
 11
-89.83304900092037
 21
-419.7533486340496
 31
0.0
  0
LINE
  5
2D7
330
1F
100
AcDbEntity
  8
D-0
  6
Continuous
 62
     7
370
     9
100
AcDbLine
 10
-89.83304900092037
 20
-419.7533486340496
 30
0.0
 11
-89.83304900092037
 21
-421.2536309216473
 31
0.0
  0
LINE
  5
2D8
330
1F
100
AcDbEntity
  8
D-0
  6
Continuous
 62
     7
370
     9
100
AcDbLine
 10
-89.83304900092037
 20
-421.2536309216473
 30
0.0
 11
-91.33306425970943
 21
-421.2536309216473
 31
0.0
  0
LINE
  5
2D9
330
1F
100
AcDbEntity
  8
D-0
  6
Continuous
 62
     7
370
     9
100
AcDbLine
 10
-30.84798735541284
 20
-381.7652676556561
 30
0.0
 11
-30.84798735541284
 21
-380.2649853680584
 31
0.0
  0
LINE
  5
2DA
330
1F
100
AcDbEntity
  8
D-0
  6
Continuous
 62
     7
370
     9
100
AcDbLine
 10
-30.84798735541284
 20
-380.2649853680584
 30
0.0
 11
-29.34770506781518
 21
-380.2649853680584
 31
0.0
  0
LINE
  5
2DB
330
1F
100
AcDbEntity
  8
D-0
  6
Continuous
 62
     7
370
     9
100
AcDbLine
 10
-29.34770506781518
 20
-380.2649853680584
 30
0.0
 11
-29.34770506781518
 21
-381.7652676556561
 31
0.0
  0
LINE
  5
2DC
330
1F
100
AcDbEntity
  8
D-0
  6
Continuous
 62
     7
370
     9
100
AcDbLine
 10
-29.34770506781518
 20
-381.7652676556561
 30
0.0
 11
-30.84798735541284
 21
-381.7652676556561
 31
0.0
  0
LINE
  5
2DD
330
1F
100
AcDbEntity
  8
D-0
  6
Continuous
 62
     7
370
     9
100
AcDbLine
 10
-184.8485748187915
 20
-370.8723853085492
 30
0.0
 11
-184.8485748187915
 21
-369.3721077893231
 31
0.0
  0
LINE
  5
2DE
330
1F
100
AcDbEntity
  8
D-0
  6
Continuous
 62
     7
370
     9
100
AcDbLine
 10
-184.8485748187915
 20
-369.3721077893231
 30
0.0
 11
-183.3483116046801
 21
-369.3721077893231
 31
0.0
  0
LINE
  5
2DF
330
1F
100
AcDbEntity
  8
D-0
  6
Continuous
 62
     7
370
     9
100
AcDbLine
 10
-183.3483116046801
 20
-369.3721077893231
 30
0.0
 11
-183.3483116046801
 21
-370.8723853085492
 31
0.0
  0
LINE
  5
2E0
330
1F
100
AcDbEntity
  8
D-0
  6
Continuous
 62
     7
370
     9
100
AcDbLine
 10
-183.3483116046801
 20
-370.8723853085492
 30
0.0
 11
-184.8485748187915
 21
-370.8723853085492
 31
0.0
  0
LINE
  5
2E1
330
1F
100
AcDbEntity
  8
D-0
  6
Continuous
 62
     7
370
     9
100
AcDbLine
 10
-263.9670173541919
 20
-493.0648873303387
 30
0.0
 11
-263.9670173541919
 21
-491.5646241162274
 31
0.0
  0
LINE
  5
2E2
330
1F
100
AcDbEntity
  8
D-0
  6
Continuous
 62
     7
370
     9
100
AcDbLine
 10
-263.9670173541919
 20
-491.5646241162274
 30
0.0
 11
-262.4667350665942
 21
-491.5646241162274
 31
0.0
  0
LINE
  5
2E3
330
1F
100
AcDbEntity
  8
D-0
  6
Continuous
 62
     7
370
     9
100
AcDbLine
 10
-262.4667350665942
 20
-491.5646241162274
 30
0.0
 11
-262.4667350665942
 21
-493.0648873303387
 31
0.0
  0
LINE
  5
2E4
330
1F
100
AcDbEntity
  8
D-0
  6
Continuous
 62
     7
370
     9
100
AcDbLine
 10
-262.4667350665942
 20
-493.0648873303387
 30
0.0
 11
-263.9670173541919
 21
-493.0648873303387
 31
0.0
  0
LINE
  5
2E5
330
1F
100
AcDbEntity
  8
D-0
  6
Continuous
 62
     7
370
     9
100
AcDbLine
 10
-218.8337699787036
 20
-502.0209954236004
 30
0.0
 11
-218.8337699787036
 21
-500.5207131360028
 31
0.0
  0
LINE
  5
2E6
330
1F
100
AcDbEntity
  8
D-0
  6
Continuous
 62
     7
370
     9
100
AcDbLine
 10
-218.8337699787036
 20
-500.5207131360028
 30
0.0
 11
-217.3334876911059
 21
-500.5207131360028
 31
0.0
  0
LINE
  5
2E7
330
1F
100
AcDbEntity
  8
D-0
  6
Continuous
 62
     7
370
     9
100
AcDbLine
 10
-217.3334876911059
 20
-500.5207131360028
 30
0.0
 11
-217.3334876911059
 21
-502.0209954236004
 31
0.0
  0
LINE
  5
2E8
330
1F
100
AcDbEntity
  8
D-0
  6
Continuous
 62
     7
370
     9
100
AcDbLine
 10
-217.3334876911059
 20
-502.0209954236004
 30
0.0
 11
-218.8337699787036
 21
-502.0209954236004
 31
0.0
  0
LINE
  5
2E9
330
1F
100
AcDbEntity
  8
D-0
  6
Continuous
 62
     7
370
     9
100
AcDbLine
 10
-235.7148925678149
 20
-522.6017640088055
 30
0.0
 11
-235.7148925678149
 21
-521.1015007946942
 31
0.0
  0
LINE
  5
2EA
330
1F
100
AcDbEntity
  8
D-0
  6
Continuous
 62
     7
370
     9
100
AcDbLine
 10
-235.7148925678149
 20
-521.1015007946942
 30
0.0
 11
-234.2151061908618
 21
-521.1015007946942
 31
0.0
  0
LINE
  5
2EB
330
1F
100
AcDbEntity
  8
D-0
  6
Continuous
 62
     7
370
     9
100
AcDbLine
 10
-234.2151061908618
 20
-521.1015007946942
 30
0.0
 11
-234.2151061908618
 21
-522.6017640088055
 31
0.0
  0
LINE
  5
2EC
330
1F
100
AcDbEntity
  8
D-0
  6
Continuous
 62
     7
370
     9
100
AcDbLine
 10
-234.2151061908618
 20
-522.6017640088055
 30
0.0
 11
-235.7148925678149
 21
-522.6017640088055
 31
0.0
  0
LINE
  5
2ED
330
1F
100
AcDbEntity
  8
D-0
  6
Continuous
 62
     7
370
     9
100
AcDbLine
 10
-283.9948646442309
 20
-557.3098633740399
 30
0.0
 11
-283.9948646442309
 21
-555.8095810864422
 31
0.0
  0
LINE
  5
2EE
330
1F
100
AcDbEntity
  8
D-0
  6
Continuous
 62
     7
370
     9
100
AcDbLine
 10
-283.9948646442309
 20
-555.8095810864422
 30
0.0
 11
-282.4950782672778
 21
-555.8095810864422
 31
0.0
  0
LINE
  5
2EF
330
1F
100
AcDbEntity
  8
D-0
  6
Continuous
 62
     7
370
     9
100
AcDbLine
 10
-282.4950782672778
 20
-555.8095810864422
 30
0.0
 11
-282.4950782672778
 21
-557.3098633740399
 31
0.0
  0
LINE
  5
2F0
330
1F
100
AcDbEntity
  8
D-0
  6
Continuous
 62
     7
370
     9
100
AcDbLine
 10
-282.4950782672778
 20
-557.3098633740399
 30
0.0
 11
-283.9948646442309
 21
-557.3098633740399
 31
0.0
  0
LINE
  5
2F1
330
1F
100
AcDbEntity
  8
D-0
  6
Continuous
 62
     7
370
     9
100
AcDbLine
 10
-212.9099456684008
 20
-555.3349183056805
 30
0.0
 11
-212.9099456684008
 21
-553.8346360180828
 31
0.0
  0
LINE
  5
2F2
330
1F
100
AcDbEntity
  8
D-0
  6
Continuous
 62
     7
370
     9
100
AcDbLine
 10
-212.9099456684008
 20
-553.8346360180828
 30
0.0
 11
-211.4096633808032
 21
-553.8346360180828
 31
0.0
  0
LINE
  5
2F3
330
1F
100
AcDbEntity
  8
D-0
  6
Continuous
 62
     7
370
     9
100
AcDbLine
 10
-211.4096633808032
 20
-553.8346360180828
 30
0.0
 11
-211.4096633808032
 21
-555.3349183056805
 31
0.0
  0
LINE
  5
2F4
330
1F
100
AcDbEntity
  8
D-0
  6
Continuous
 62
     7
370
     9
100
AcDbLine
 10
-211.4096633808032
 20
-555.3349183056805
 30
0.0
 11
-212.9099456684008
 21
-555.3349183056805
 31
0.0
  0
LINE
  5
2F5
330
1F
100
AcDbEntity
  8
D-0
  6
Continuous
 62
     7
370
     9
100
AcDbLine
 10
-556.3971511737719
 20
-449.3536446545575
 30
0.0
 11
-556.3971511737719
 21
-447.853371903703
 31
0.0
  0
LINE
  5
2F6
330
1F
100
AcDbEntity
  8
D-0
  6
Continuous
 62
     7
370
     9
100
AcDbLine
 10
-556.3971511737719
 20
-447.853371903703
 30
0.0
 11
-554.8973647968188
 21
-447.853371903703
 31
0.0
  0
LINE
  5
2F7
330
1F
100
AcDbEntity
  8
D-0
  6
Continuous
 62
     7
370
     9
100
AcDbLine
 10
-554.8973647968188
 20
-447.853371903703
 30
0.0
 11
-554.8973647968188
 21
-449.3536446545575
 31
0.0
  0
LINE
  5
2F8
330
1F
100
AcDbEntity
  8
D-0
  6
Continuous
 62
     7
370
     9
100
AcDbLine
 10
-554.8973647968188
 20
-449.3536446545575
 30
0.0
 11
-556.3971511737719
 21
-449.3536446545575
 31
0.0
  0
LINE
  5
2F9
330
1F
100
AcDbEntity
  8
D-0
  6
Continuous
 62
     7
370
     9
100
AcDbLine
 10
-568.3359615222827
 20
-476.3512490246746
 30
0.0
 11
-568.3359615222827
 21
-474.850966737077
 31
0.0
  0
LINE
  5
2FA
330
1F
100
AcDbEntity
  8
D-0
  6
Continuous
 62
     7
370
     9
100
AcDbLine
 10
-568.3359615222827
 20
-474.850966737077
 30
0.0
 11
-566.8361846820727
 21
-474.850966737077
 31
0.0
  0
LINE
  5
2FB
330
1F
100
AcDbEntity
  8
D-0
  6
Continuous
 62
     7
370
     9
100
AcDbLine
 10
-566.8361846820727
 20
-474.850966737077
 30
0.0
 11
-566.8361846820727
 21
-476.3512490246746
 31
0.0
  0
LINE
  5
2FC
330
1F
100
AcDbEntity
  8
D-0
  6
Continuous
 62
     7
370
     9
100
AcDbLine
 10
-566.8361846820727
 20
-476.3512490246746
 30
0.0
 11
-568.3359615222827
 21
-476.3512490246746
 31
0.0
  0
LINE
  5
2FD
330
1F
100
AcDbEntity
  8
D-0
  6
Continuous
 62
     7
370
     9
100
AcDbLine
 10
-493.3006874935046
 20
-491.1603043530438
 30
0.0
 11
-493.3006874935046
 21
-489.6600411389325
 31
0.0
  0
LINE
  5
2FE
330
1F
100
AcDbEntity
  8
D-0
  6
Continuous
 62
     7
370
     9
100
AcDbLine
 10
-493.3006874935046
 20
-489.6600411389325
 30
0.0
 11
-491.8009035007373
 21
-489.6600411389325
 31
0.0
  0
LINE
  5
2FF
330
1F
100
AcDbEntity
  8
D-0
  6
Continuous
 62
     7
370
     9
100
AcDbLine
 10
-491.8009035007373
 20
-489.6600411389325
 30
0.0
 11
-491.8009035007373
 21
-491.1603043530438
 31
0.0
  0
LINE
  5
300
330
1F
100
AcDbEntity
  8
D-0
  6
Continuous
 62
     7
370
     9
100
AcDbLine
 10
-491.8009035007373
 20
-491.1603043530438
 30
0.0
 11
-493.3006874935046
 21
-491.1603043530438
 31
0.0
  0
LINE
  5
301
330
1F
100
AcDbEntity
  8
D-0
  6
Continuous
 62
     7
370
     9
100
AcDbLine
 10
-479.479585112752
 20
-519.7924683545086
 30
0.0
 11
-479.479585112752
 21
-518.292186066911
 31
0.0
  0
LINE
  5
302
330
1F
100
AcDbEntity
  8
D-0
  6
Continuous
 62
     7
370
     9
100
AcDbLine
 10
-479.479585112752
 20
-518.292186066911
 30
0.0
 11
-477.9793052093402
 21
-518.292186066911
 31
0.0
  0
LINE
  5
303
330
1F
100
AcDbEntity
  8
D-0
  6
Continuous
 62
     7
370
     9
100
AcDbLine
 10
-477.9793052093402
 20
-518.292186066911
 30
0.0
 11
-477.9793052093402
 21
-519.7924683545086
 31
0.0
  0
LINE
  5
304
330
1F
100
AcDbEntity
  8
D-0
  6
Continuous
 62
     7
370
     9
100
AcDbLine
 10
-477.9793052093402
 20
-519.7924683545086
 30
0.0
 11
-479.479585112752
 21
-519.7924683545086
 31
0.0
  0
LINE
  5
305
330
1F
100
AcDbEntity
  8
D-0
  6
Continuous
 62
     7
370
     9
100
AcDbLine
 10
-509.0982143298999
 20
-581.0046647046063
 30
0.0
 11
-509.0982143298999
 21
-579.5043824170086
 31
0.0
  0
LINE
  5
306
330
1F
100
AcDbEntity
  8
D-0
  6
Continuous
 62
     7
370
     9
100
AcDbLine
 10
-509.0982143298999
 20
-579.5043824170086
 30
0.0
 11
-507.5984279529467
 21
-579.5043824170086
 31
0.0
  0
LINE
  5
307
330
1F
100
AcDbEntity
  8
D-0
  6
Continuous
 62
     7
370
     9
100
AcDbLine
 10
-507.5984279529467
 20
-579.5043824170086
 30
0.0
 11
-507.5984279529467
 21
-581.0046647046063
 31
0.0
  0
LINE
  5
308
330
1F
100
AcDbEntity
  8
D-0
  6
Continuous
 62
     7
370
     9
100
AcDbLine
 10
-507.5984279529467
 20
-581.0046647046063
 30
0.0
 11
-509.0982143298999
 21
-581.0046647046063
 31
0.0
  0
LINE
  5
309
330
1F
100
AcDbEntity
  8
D-0
  6
Continuous
 62
     7
370
     9
100
AcDbLine
 10
-522.9208032504931
 20
-640.2424118969891
 30
0.0
 11
-522.9208032504931
 21
-638.7421296093914
 31
0.0
  0
LINE
  5
30A
330
1F
100
AcDbEntity
  8
D-0
  6
Continuous
 62
     7
370
     9
100
AcDbLine
 10
-522.9208032504931
 20
-638.7421296093914
 30
0.0
 11
-521.4205209628955
 21
-638.7421296093914
 31
0.0
  0
LINE
  5
30B
330
1F
100
AcDbEntity
  8
D-0
  6
Continuous
 62
     7
370
     9
100
AcDbLine
 10
-521.4205209628955
 20
-638.7421296093914
 30
0.0
 11
-521.4205209628955
 21
-640.2424118969891
 31
0.0
  0
LINE
  5
30C
330
1F
100
AcDbEntity
  8
D-0
  6
Continuous
 62
     7
370
     9
100
AcDbLine
 10
-521.4205209628955
 20
-640.2424118969891
 30
0.0
 11
-522.9208032504931
 21
-640.2424118969891
 31
0.0
  0
LINE
  5
30D
330
1F
100
AcDbEntity
  8
D-0
  6
Continuous
 62
     7
370
     9
100
AcDbLine
 10
-553.5268966571704
 20
-651.1026070569012
 30
0.0
 11
-553.5268966571704
 21
-649.6023247693036
 31
0.0
  0
LINE
  5
30E
330
1F
100
AcDbEntity
  8
D-0
  6
Continuous
 62
     7
370
     9
100
AcDbLine
 10
-553.5268966571704
 20
-649.6023247693036
 30
0.0
 11
-552.0266143695727
 21
-649.6023247693036
 31
0.0
  0
LINE
  5
30F
330
1F
100
AcDbEntity
  8
D-0
  6
Continuous
 62
     7
370
     9
100
AcDbLine
 10
-552.0266143695727
 20
-649.6023247693036
 30
0.0
 11
-552.0266143695727
 21
-651.1026070569012
 31
0.0
  0
LINE
  5
310
330
1F
100
AcDbEntity
  8
D-0
  6
Continuous
 62
     7
370
     9
100
AcDbLine
 10
-552.0266143695727
 20
-651.1026070569012
 30
0.0
 11
-553.5268966571704
 21
-651.1026070569012
 31
0.0
  0
LINE
  5
311
330
1F
100
AcDbEntity
  8
D-0
  6
Continuous
 62
     7
370
     9
100
AcDbLine
 10
-576.3803951160327
 20
-584.9540398571942
 30
0.0
 11
-576.3803951160327
 21
-583.4537575695965
 31
0.0
  0
LINE
  5
312
330
1F
100
AcDbEntity
  8
D-0
  6
Continuous
 62
     7
370
     9
100
AcDbLine
 10
-576.3803951160327
 20
-583.4537575695965
 30
0.0
 11
-574.880112828435
 21
-583.4537575695965
 31
0.0
  0
LINE
  5
313
330
1F
100
AcDbEntity
  8
D-0
  6
Continuous
 62
     7
370
     9
100
AcDbLine
 10
-574.880112828435
 20
-583.4537575695965
 30
0.0
 11
-574.880112828435
 21
-584.9540398571942
 31
0.0
  0
LINE
  5
314
330
1F
100
AcDbEntity
  8
D-0
  6
Continuous
 62
     7
370
     9
100
AcDbLine
 10
-574.880112828435
 20
-584.9540398571942
 30
0.0
 11
-576.3803951160327
 21
-584.9540398571942
 31
0.0
  0
LINE
  5
315
330
1F
100
AcDbEntity
  8
D-0
  6
Continuous
 62
     7
370
     9
100
AcDbLine
 10
-542.6662246601
 20
-503.9954255078289
 30
0.0
 11
-542.6662246601
 21
-502.4951432202313
 31
0.0
  0
LINE
  5
316
330
1F
100
AcDbEntity
  8
D-0
  6
Continuous
 62
     7
370
     9
100
AcDbLine
 10
-542.6662246601
 20
-502.4951432202313
 30
0.0
 11
-541.1664382831469
 21
-502.4951432202313
 31
0.0
  0
LINE
  5
317
330
1F
100
AcDbEntity
  8
D-0
  6
Continuous
 62
     7
370
     9
100
AcDbLine
 10
-541.1664382831469
 20
-502.4951432202313
 30
0.0
 11
-541.1664382831469
 21
-503.9954255078289
 31
0.0
  0
LINE
  5
318
330
1F
100
AcDbEntity
  8
D-0
  6
Continuous
 62
     7
370
     9
100
AcDbLine
 10
-541.1664382831469
 20
-503.9954255078289
 30
0.0
 11
-542.6662246601
 21
-503.9954255078289
 31
0.0
  0
LINE
  5
319
330
1F
100
AcDbEntity
  8
D-0
  6
Continuous
 62
     7
370
     9
100
AcDbLine
 10
-550.564984502019
 20
-563.2336876843426
 30
0.0
 11
-550.564984502019
 21
-561.733405396745
 31
0.0
  0
LINE
  5
31A
330
1F
100
AcDbEntity
  8
D-0
  6
Continuous
 62
     7
370
     9
100
AcDbLine
 10
-550.564984502019
 20
-561.733405396745
 30
0.0
 11
-549.0647022144213
 21
-561.733405396745
 31
0.0
  0
LINE
  5
31B
330
1F
100
AcDbEntity
  8
D-0
  6
Continuous
 62
     7
370
     9
100
AcDbLine
 10
-549.0647022144213
 20
-561.733405396745
 30
0.0
 11
-549.0647022144213
 21
-563.2336876843426
 31
0.0
  0
LINE
  5
31C
330
1F
100
AcDbEntity
  8
D-0
  6
Continuous
 62
     7
370
     9
100
AcDbLine
 10
-549.0647022144213
 20
-563.2336876843426
 30
0.0
 11
-550.564984502019
 21
-563.2336876843426
 31
0.0
  0
LINE
  5
31D
330
1F
100
AcDbEntity
  8
D-0
  6
Continuous
 62
     7
370
     9
100
AcDbLine
 10
-487.3778526203051
 20
-615.7266114209149
 30
0.0
 11
-487.3778526203051
 21
-614.2263291333172
 31
0.0
  0
LINE
  5
31E
330
1F
100
AcDbEntity
  8
D-0
  6
Continuous
 62
     7
370
     9
100
AcDbLine
 10
-487.3778526203051
 20
-614.2263291333172
 30
0.0
 11
-485.8775727168933
 21
-614.2263291333172
 31
0.0
  0
LINE
  5
31F
330
1F
100
AcDbEntity
  8
D-0
  6
Continuous
 62
     7
370
     9
100
AcDbLine
 10
-485.8775727168933
 20
-614.2263291333172
 30
0.0
 11
-485.8775727168933
 21
-615.7266114209149
 31
0.0
  0
LINE
  5
320
330
1F
100
AcDbEntity
  8
D-0
  6
Continuous
 62
     7
370
     9
100
AcDbLine
 10
-485.8775727168933
 20
-615.7266114209149
 30
0.0
 11
-487.3778526203051
 21
-615.7266114209149
 31
0.0
  0
LINE
  5
321
330
1F
100
AcDbEntity
  8
D-0
  6
Continuous
 62
     7
370
     9
100
AcDbLine
 10
-564.3870822803393
 20
-753.6056588147137
 30
0.0
 11
-564.3870822803393
 21
-752.105376527116
 31
0.0
  0
LINE
  5
322
330
1F
100
AcDbEntity
  8
D-0
  6
Continuous
 62
     7
370
     9
100
AcDbLine
 10
-564.3870822803393
 20
-752.105376527116
 30
0.0
 11
-562.8867999927417
 21
-752.105376527116
 31
0.0
  0
LINE
  5
323
330
1F
100
AcDbEntity
  8
D-0
  6
Continuous
 62
     7
370
     9
100
AcDbLine
 10
-562.8867999927417
 20
-752.105376527116
 30
0.0
 11
-562.8867999927417
 21
-753.6056588147137
 31
0.0
  0
LINE
  5
324
330
1F
100
AcDbEntity
  8
D-0
  6
Continuous
 62
     7
370
     9
100
AcDbLine
 10
-562.8867999927417
 20
-753.6056588147137
 30
0.0
 11
-564.3870822803393
 21
-753.6056588147137
 31
0.0
  0
LINE
  5
325
330
1F
100
AcDbEntity
  8
D-0
  6
Continuous
 62
     7
370
     9
100
AcDbLine
 10
-493.9968196765795
 20
-757.3177025769207
 30
0.0
 11
-493.9968196765795
 21
-755.8174202893231
 31
0.0
  0
LINE
  5
326
330
1F
100
AcDbEntity
  8
D-0
  6
Continuous
 62
     7
370
     9
100
AcDbLine
 10
-493.9968196765795
 20
-755.8174202893231
 30
0.0
 11
-492.4965397731677
 21
-755.8174202893231
 31
0.0
  0
LINE
  5
327
330
1F
100
AcDbEntity
  8
D-0
  6
Continuous
 62
     7
370
     9
100
AcDbLine
 10
-492.4965397731677
 20
-755.8174202893231
 30
0.0
 11
-492.4965397731677
 21
-757.3177025769207
 31
0.0
  0
LINE
  5
328
330
1F
100
AcDbEntity
  8
D-0
  6
Continuous
 62
     7
370
     9
100
AcDbLine
 10
-492.4965397731677
 20
-757.3177025769207
 30
0.0
 11
-493.9968196765795
 21
-757.3177025769207
 31
0.0
  0
LINE
  5
329
330
1F
100
AcDbEntity
  8
D-0
  6
Continuous
 62
     7
370
     9
100
AcDbLine
 10
-469.6063787953273
 20
-783.2243035290692
 30
0.0
 11
-469.6063787953273
 21
-781.7240212414715
 31
0.0
  0
LINE
  5
32A
330
1F
100
AcDbEntity
  8
D-0
  6
Continuous
 62
     7
370
     9
100
AcDbLine
 10
-469.6063787953273
 20
-781.7240212414715
 30
0.0
 11
-468.1065949515715
 21
-781.7240212414715
 31
0.0
  0
LINE
  5
32B
330
1F
100
AcDbEntity
  8
D-0
  6
Continuous
 62
     7
370
     9
100
AcDbLine
 10
-468.1065949515715
 20
-781.7240212414715
 30
0.0
 11
-468.1065949515715
 21
-783.2243035290692
 31
0.0
  0
LINE
  5
32C
330
1F
100
AcDbEntity
  8
D-0
  6
Continuous
 62
     7
370
     9
100
AcDbLine
 10
-468.1065949515715
 20
-783.2243035290692
 30
0.0
 11
-469.6063787953273
 21
-783.2243035290692
 31
0.0
  0
LINE
  5
32D
330
1F
100
AcDbEntity
  8
D-0
  6
Continuous
 62
     7
370
     9
100
AcDbLine
 10
-463.3277986661807
 20
-821.4363167736981
 30
0.0
 11
-463.3277986661807
 21
-819.9360344861004
 31
0.0
  0
LINE
  5
32E
330
1F
100
AcDbEntity
  8
D-0
  6
Continuous
 62
     7
370
     9
100
AcDbLine
 10
-463.3277986661807
 20
-819.9360344861004
 30
0.0
 11
-461.827519060792
 21
-819.9360344861004
 31
0.0
  0
LINE
  5
32F
330
1F
100
AcDbEntity
  8
D-0
  6
Continuous
 62
     7
370
     9
100
AcDbLine
 10
-461.827519060792
 20
-819.9360344861004
 30
0.0
 11
-461.827519060792
 21
-821.4363167736981
 31
0.0
  0
LINE
  5
330
330
1F
100
AcDbEntity
  8
D-0
  6
Continuous
 62
     7
370
     9
100
AcDbLine
 10
-461.827519060792
 20
-821.4363167736981
 30
0.0
 11
-463.3277986661807
 21
-821.4363167736981
 31
0.0
  0
LINE
  5
331
330
1F
100
AcDbEntity
  8
D-0
  6
Continuous
 62
     7
370
     9
100
AcDbLine
 10
-537.5559560672656
 20
-826.8949196789715
 30
0.0
 11
-537.5559560672656
 21
-825.3946373913739
 31
0.0
  0
LINE
  5
332
330
1F
100
AcDbEntity
  8
D-0
  6
Continuous
 62
     7
370
     9
100
AcDbLine
 10
-537.5559560672656
 20
-825.3946373913739
 30
0.0
 11
-536.056174458684
 21
-825.3946373913739
 31
0.0
  0
LINE
  5
333
330
1F
100
AcDbEntity
  8
D-0
  6
Continuous
 62
     7
370
     9
100
AcDbLine
 10
-536.056174458684
 20
-825.3946373913739
 30
0.0
 11
-536.056174458684
 21
-826.8949196789715
 31
0.0
  0
LINE
  5
334
330
1F
100
AcDbEntity
  8
D-0
  6
Continuous
 62
     7
370
     9
100
AcDbLine
 10
-536.056174458684
 20
-826.8949196789715
 30
0.0
 11
-537.5559560672656
 21
-826.8949196789715
 31
0.0
  0
LINE
  5
335
330
1F
100
AcDbEntity
  8
D-0
  6
Continuous
 62
     7
370
     9
100
AcDbLine
 10
-572.2853462116137
 20
-817.5984261486981
 30
0.0
 11
-572.2853462116137
 21
-816.0981438611004
 31
0.0
  0
LINE
  5
336
330
1F
100
AcDbEntity
  8
D-0
  6
Continuous
 62
     7
370
     9
100
AcDbLine
 10
-572.2853462116137
 20
-816.0981438611004
 30
0.0
 11
-570.7850639240161
 21
-816.0981438611004
 31
0.0
  0
LINE
  5
337
330
1F
100
AcDbEntity
  8
D-0
  6
Continuous
 62
     7
370
     9
100
AcDbLine
 10
-570.7850639240161
 20
-816.0981438611004
 30
0.0
 11
-570.7850639240161
 21
-817.5984261486981
 31
0.0
  0
LINE
  5
338
330
1F
100
AcDbEntity
  8
D-0
  6
Continuous
 62
     7
370
     9
100
AcDbLine
 10
-570.7850639240161
 20
-817.5984261486981
 30
0.0
 11
-572.2853462116137
 21
-817.5984261486981
 31
0.0
  0
LINE
  5
339
330
1F
100
AcDbEntity
  8
D-0
  6
Continuous
 62
     7
370
     9
100
AcDbLine
 10
-574.4966213123217
 20
-777.3004601452801
 30
0.0
 11
-574.4966213123217
 21
-775.8001778576825
 31
0.0
  0
LINE
  5
33A
330
1F
100
AcDbEntity
  8
D-0
  6
Continuous
 62
     7
370
     9
100
AcDbLine
 10
-574.4966213123217
 20
-775.8001778576825
 30
0.0
 11
-572.9968349353686
 21
-775.8001778576825
 31
0.0
  0
LINE
  5
33B
330
1F
100
AcDbEntity
  8
D-0
  6
Continuous
 62
     7
370
     9
100
AcDbLine
 10
-572.9968349353686
 20
-775.8001778576825
 30
0.0
 11
-572.9968349353686
 21
-777.3004601452801
 31
0.0
  0
LINE
  5
33C
330
1F
100
AcDbEntity
  8
D-0
  6
Continuous
 62
     7
370
     9
100
AcDbLine
 10
-572.9968349353686
 20
-777.3004601452801
 30
0.0
 11
-574.4966213123217
 21
-777.3004601452801
 31
0.0
  0
LINE
  5
33D
330
1F
100
AcDbEntity
  8
D-0
  6
Continuous
 62
     7
370
     9
100
AcDbLine
 10
-516.9969741718188
 20
-797.0464013073895
 30
0.0
 11
-516.9969741718188
 21
-795.5461190197918
 31
0.0
  0
LINE
  5
33E
330
1F
100
AcDbEntity
  8
D-0
  6
Continuous
 62
     7
370
     9
100
AcDbLine
 10
-516.9969741718188
 20
-795.5461190197918
 30
0.0
 11
-515.4966966525927
 21
-795.5461190197918
 31
0.0
  0
LINE
  5
33F
330
1F
100
AcDbEntity
  8
D-0
  6
Continuous
 62
     7
370
     9
100
AcDbLine
 10
-515.4966966525927
 20
-795.5461190197918
 30
0.0
 11
-515.4966966525927
 21
-797.0464013073895
 31
0.0
  0
LINE
  5
340
330
1F
100
AcDbEntity
  8
D-0
  6
Continuous
 62
     7
370
     9
100
AcDbLine
 10
-515.4966966525927
 20
-797.0464013073895
 30
0.0
 11
-516.9969741718188
 21
-797.0464013073895
 31
0.0
  0
LINE
  5
341
330
1F
100
AcDbEntity
  8
D-0
  6
Continuous
 62
     7
370
     9
100
AcDbLine
 10
-528.8441316501513
 20
-763.4783623669598
 30
0.0
 11
-528.8441316501513
 21
-761.9780800793621
 31
0.0
  0
LINE
  5
342
330
1F
100
AcDbEntity
  8
D-0
  6
Continuous
 62
     7
370
     9
100
AcDbLine
 10
-528.8441316501513
 20
-761.9780800793621
 30
0.0
 11
-527.3443452731982
 21
-761.9780800793621
 31
0.0
  0
LINE
  5
343
330
1F
100
AcDbEntity
  8
D-0
  6
Continuous
 62
     7
370
     9
100
AcDbLine
 10
-527.3443452731982
 20
-761.9780800793621
 30
0.0
 11
-527.3443452731982
 21
-763.4783623669598
 31
0.0
  0
LINE
  5
344
330
1F
100
AcDbEntity
  8
D-0
  6
Continuous
 62
     7
370
     9
100
AcDbLine
 10
-527.3443452731982
 20
-763.4783623669598
 30
0.0
 11
-528.8441316501513
 21
-763.4783623669598
 31
0.0
  0
LINE
  5
345
330
1F
100
AcDbEntity
  8
D-0
  6
Continuous
 62
     7
370
     9
100
AcDbLine
 10
-473.5557602064029
 20
-649.2946312878582
 30
0.0
 11
-473.5557602064029
 21
-647.7943490002606
 31
0.0
  0
LINE
  5
346
330
1F
100
AcDbEntity
  8
D-0
  6
Continuous
 62
     7
370
     9
100
AcDbLine
 10
-473.5557602064029
 20
-647.7943490002606
 30
0.0
 11
-472.0559762136355
 21
-647.7943490002606
 31
0.0
  0
LINE
  5
347
330
1F
100
AcDbEntity
  8
D-0
  6
Continuous
 62
     7
370
     9
100
AcDbLine
 10
-472.0559762136355
 20
-647.7943490002606
 30
0.0
 11
-472.0559762136355
 21
-649.2946312878582
 31
0.0
  0
LINE
  5
348
330
1F
100
AcDbEntity
  8
D-0
  6
Continuous
 62
     7
370
     9
100
AcDbLine
 10
-472.0559762136355
 20
-649.2946312878582
 30
0.0
 11
-473.5557602064029
 21
-649.2946312878582
 31
0.0
  0
LINE
  5
349
330
1F
100
AcDbEntity
  8
D-0
  6
Continuous
 62
     7
370
     9
100
AcDbLine
 10
-461.7081109897509
 20
-549.4110939953778
 30
0.0
 11
-461.7081109897509
 21
-547.9108117077801
 31
0.0
  0
LINE
  5
34A
330
1F
100
AcDbEntity
  8
D-0
  6
Continuous
 62
     7
370
     9
100
AcDbLine
 10
-461.7081109897509
 20
-547.9108117077801
 30
0.0
 11
-460.2083269969836
 21
-547.9108117077801
 31
0.0
  0
LINE
  5
34B
330
1F
100
AcDbEntity
  8
D-0
  6
Continuous
 62
     7
370
     9
100
AcDbLine
 10
-460.2083269969836
 20
-547.9108117077801
 30
0.0
 11
-460.2083269969836
 21
-549.4110939953778
 31
0.0
  0
LINE
  5
34C
330
1F
100
AcDbEntity
  8
D-0
  6
Continuous
 62
     7
370
     9
100
AcDbLine
 10
-460.2083269969836
 20
-549.4110939953778
 30
0.0
 11
-461.7081109897509
 21
-549.4110939953778
 31
0.0
  0
LINE
  5
34D
330
1F
100
AcDbEntity
  8
D-0
  6
Continuous
 62
     7
370
     9
100
AcDbLine
 10
-366.9279090778247
 20
-557.3098633740399
 30
0.0
 11
-366.9279090778247
 21
-555.8095810864422
 31
0.0
  0
LINE
  5
34E
330
1F
100
AcDbEntity
  8
D-0
  6
Continuous
 62
     7
370
     9
100
AcDbLine
 10
-366.9279090778247
 20
-555.8095810864422
 30
0.0
 11
-365.4281227008715
 21
-555.8095810864422
 31
0.0
  0
LINE
  5
34F
330
1F
100
AcDbEntity
  8
D-0
  6
Continuous
 62
     7
370
     9
100
AcDbLine
 10
-365.4281227008715
 20
-555.8095810864422
 30
0.0
 11
-365.4281227008715
 21
-557.3098633740399
 31
0.0
  0
LINE
  5
350
330
1F
100
AcDbEntity
  8
D-0
  6
Continuous
 62
     7
370
     9
100
AcDbLine
 10
-365.4281227008715
 20
-557.3098633740399
 30
0.0
 11
-366.9279090778247
 21
-557.3098633740399
 31
0.0
  0
LINE
  5
351
330
1F
100
AcDbEntity
  8
D-0
  6
Continuous
 62
     7
370
     9
100
AcDbLine
 10
-421.9482271091357
 20
-558.0530617688153
 30
0.0
 11
-421.9482271091357
 21
-556.5527794812176
 31
0.0
  0
LINE
  5
352
330
1F
100
AcDbEntity
  8
D-0
  6
Continuous
 62
     7
370
     9
100
AcDbLine
 10
-421.9482271091357
 20
-556.5527794812176
 30
0.0
 11
-420.4479495899096
 21
-556.5527794812176
 31
0.0
  0
LINE
  5
353
330
1F
100
AcDbEntity
  8
D-0
  6
Continuous
 62
     7
370
     9
100
AcDbLine
 10
-420.4479495899096
 20
-556.5527794812176
 30
0.0
 11
-420.4479495899096
 21
-558.0530617688153
 31
0.0
  0
LINE
  5
354
330
1F
100
AcDbEntity
  8
D-0
  6
Continuous
 62
     7
370
     9
100
AcDbLine
 10
-420.4479495899096
 20
-558.0530617688153
 30
0.0
 11
-421.9482271091357
 21
-558.0530617688153
 31
0.0
  0
LINE
  5
355
330
1F
100
AcDbEntity
  8
D-0
  6
Continuous
 62
     7
370
     9
100
AcDbLine
 10
-265.9414665119067
 20
-522.6840279553387
 30
0.0
 11
-265.9414665119067
 21
-521.183745667741
 31
0.0
  0
LINE
  5
356
330
1F
100
AcDbEntity
  8
D-0
  6
Continuous
 62
     7
370
     9
100
AcDbLine
 10
-265.9414665119067
 20
-521.183745667741
 30
0.0
 11
-264.4416801349536
 21
-521.183745667741
 31
0.0
  0
LINE
  5
357
330
1F
100
AcDbEntity
  8
D-0
  6
Continuous
 62
     7
370
     9
100
AcDbLine
 10
-264.4416801349536
 20
-521.183745667741
 30
0.0
 11
-264.4416801349536
 21
-522.6840279553387
 31
0.0
  0
LINE
  5
358
330
1F
100
AcDbEntity
  8
D-0
  6
Continuous
 62
     7
370
     9
100
AcDbLine
 10
-264.4416801349536
 20
-522.6840279553387
 30
0.0
 11
-265.9414665119067
 21
-522.6840279553387
 31
0.0
  0
LINE
  5
359
330
1F
100
AcDbEntity
  8
D-0
  6
Continuous
 62
     7
370
     9
100
AcDbLine
 10
-554.5138732807055
 20
-612.5982163403485
 30
0.0
 11
-554.5138732807055
 21
-611.0979531262371
 31
0.0
  0
LINE
  5
35A
330
1F
100
AcDbEntity
  8
D-0
  6
Continuous
 62
     7
370
     9
100
AcDbLine
 10
-554.5138732807055
 20
-611.0979531262371
 30
0.0
 11
-553.0140869037524
 21
-611.0979531262371
 31
0.0
  0
LINE
  5
35B
330
1F
100
AcDbEntity
  8
D-0
  6
Continuous
 62
     7
370
     9
100
AcDbLine
 10
-553.0140869037524
 20
-611.0979531262371
 30
0.0
 11
-553.0140869037524
 21
-612.5982163403485
 31
0.0
  0
LINE
  5
35C
330
1F
100
AcDbEntity
  8
D-0
  6
Continuous
 62
     7
370
     9
100
AcDbLine
 10
-553.0140869037524
 20
-612.5982163403485
 30
0.0
 11
-554.5138732807055
 21
-612.5982163403485
 31
0.0
  0
LINE
  5
35D
330
1F
100
AcDbEntity
  8
D-0
  6
Continuous
 62
     7
370
     9
100
AcDbLine
 10
-511.0731498615161
 20
-537.5639412854168
 30
0.0
 11
-511.0731498615161
 21
-536.0636589978192
 31
0.0
  0
LINE
  5
35E
330
1F
100
AcDbEntity
  8
D-0
  6
Continuous
 62
     7
370
     9
100
AcDbLine
 10
-511.0731498615161
 20
-536.0636589978192
 30
0.0
 11
-509.57287234229
 21
-536.0636589978192
 31
0.0
  0
LINE
  5
35F
330
1F
100
AcDbEntity
  8
D-0
  6
Continuous
 62
     7
370
     9
100
AcDbLine
 10
-509.57287234229
 20
-536.0636589978192
 30
0.0
 11
-509.57287234229
 21
-537.5639412854168
 31
0.0
  0
LINE
  5
360
330
1F
100
AcDbEntity
  8
D-0
  6
Continuous
 62
     7
370
     9
100
AcDbLine
 10
-509.57287234229
 20
-537.5639412854168
 30
0.0
 11
-511.0731498615161
 21
-537.5639412854168
 31
0.0
  0
LINE
  5
361
330
1F
100
AcDbEntity
  8
D-0
  6
Continuous
 62
     7
370
     9
100
AcDbLine
 10
-576.2342349903003
 20
-533.6145470593426
 30
0.0
 11
-576.2342349903003
 21
-532.1142838452313
 31
0.0
  0
LINE
  5
362
330
1F
100
AcDbEntity
  8
D-0
  6
Continuous
 62
     7
370
     9
100
AcDbLine
 10
-576.2342349903003
 20
-532.1142838452313
 30
0.0
 11
-574.7344486133471
 21
-532.1142838452313
 31
0.0
  0
LINE
  5
363
330
1F
100
AcDbEntity
  8
D-0
  6
Continuous
 62
     7
370
     9
100
AcDbLine
 10
-574.7344486133471
 20
-532.1142838452313
 30
0.0
 11
-574.7344486133471
 21
-533.6145470593426
 31
0.0
  0
LINE
  5
364
330
1F
100
AcDbEntity
  8
D-0
  6
Continuous
 62
     7
370
     9
100
AcDbLine
 10
-574.7344486133471
 20
-533.6145470593426
 30
0.0
 11
-576.2342349903003
 21
-533.6145470593426
 31
0.0
  0
LINE
  5
365
330
1F
100
AcDbEntity
  8
D-0
  6
Continuous
 62
     7
370
     9
100
AcDbLine
 10
-486.704014958562
 20
-451.4826748822186
 30
0.0
 11
-486.704014958562
 21
-449.9824021313641
 31
0.0
  0
LINE
  5
366
330
1F
100
AcDbEntity
  8
D-0
  6
Continuous
 62
     7
370
     9
100
AcDbLine
 10
-486.704014958562
 20
-449.9824021313641
 30
0.0
 11
-485.2042309657946
 21
-449.9824021313641
 31
0.0
  0
LINE
  5
367
330
1F
100
AcDbEntity
  8
D-0
  6
Continuous
 62
     7
370
     9
100
AcDbLine
 10
-485.2042309657946
 20
-449.9824021313641
 30
0.0
 11
-485.2042309657946
 21
-451.4826748822186
 31
0.0
  0
LINE
  5
368
330
1F
100
AcDbEntity
  8
D-0
  6
Continuous
 62
     7
370
     9
100
AcDbLine
 10
-485.2042309657946
 20
-451.4826748822186
 30
0.0
 11
-486.704014958562
 21
-451.4826748822186
 31
0.0
  0
LINE
  5
369
330
1F
100
AcDbEntity
  8
D-0
  6
Continuous
 62
     7
370
     9
100
AcDbLine
 10
-523.3929817096606
 20
-470.8272622082684
 30
0.0
 11
-523.3929817096606
 21
-469.3269894574139
 31
0.0
  0
LINE
  5
36A
330
1F
100
AcDbEntity
  8
D-0
  6
Continuous
 62
     7
370
     9
100
AcDbLine
 10
-523.3929817096606
 20
-469.3269894574139
 30
0.0
 11
-521.8932001010791
 21
-469.3269894574139
 31
0.0
  0
LINE
  5
36B
330
1F
100
AcDbEntity
  8
D-0
  6
Continuous
 62
     7
370
     9
100
AcDbLine
 10
-521.8932001010791
 20
-469.3269894574139
 30
0.0
 11
-521.8932001010791
 21
-470.8272622082684
 31
0.0
  0
LINE
  5
36C
330
1F
100
AcDbEntity
  8
D-0
  6
Continuous
 62
     7
370
     9
100
AcDbLine
 10
-521.8932001010791
 20
-470.8272622082684
 30
0.0
 11
-523.3929817096606
 21
-470.8272622082684
 31
0.0
  0
LINE
  5
36D
330
1F
100
AcDbEntity
  8
D-0
  6
Continuous
 62
     7
370
     9
100
AcDbLine
 10
-467.6319357470885
 20
-582.1586106274578
 30
0.0
 11
-467.6319357470885
 21
-580.6583283398602
 31
0.0
  0
LINE
  5
36E
330
1F
100
AcDbEntity
  8
D-0
  6
Continuous
 62
     7
370
     9
100
AcDbLine
 10
-467.6319357470885
 20
-580.6583283398602
 30
0.0
 11
-466.1321518102005
 21
-580.6583283398602
 31
0.0
  0
LINE
  5
36F
330
1F
100
AcDbEntity
  8
D-0
  6
Continuous
 62
     7
370
     9
100
AcDbLine
 10
-466.1321518102005
 20
-580.6583283398602
 30
0.0
 11
-466.1321518102005
 21
-582.1586106274578
 31
0.0
  0
LINE
  5
370
330
1F
100
AcDbEntity
  8
D-0
  6
Continuous
 62
     7
370
     9
100
AcDbLine
 10
-466.1321518102005
 20
-582.1586106274578
 30
0.0
 11
-467.6319357470885
 21
-582.1586106274578
 31
0.0
  0
LINE
  5
371
330
1F
100
AcDbEntity
  8
D-0
  6
Continuous
 62
     7
370
     9
100
AcDbLine
 10
-526.8696872608081
 20
-604.6999619458172
 30
0.0
 11
-526.8696872608081
 21
-603.1996796582196
 31
0.0
  0
LINE
  5
372
330
1F
100
AcDbEntity
  8
D-0
  6
Continuous
 62
     7
370
     9
100
AcDbLine
 10
-526.8696872608081
 20
-603.1996796582196
 30
0.0
 11
-525.369409741582
 21
-603.1996796582196
 31
0.0
  0
LINE
  5
373
330
1F
100
AcDbEntity
  8
D-0
  6
Continuous
 62
     7
370
     9
100
AcDbLine
 10
-525.369409741582
 20
-603.1996796582196
 30
0.0
 11
-525.369409741582
 21
-604.6999619458172
 31
0.0
  0
LINE
  5
374
330
1F
100
AcDbEntity
  8
D-0
  6
Continuous
 62
     7
370
     9
100
AcDbLine
 10
-525.369409741582
 20
-604.6999619458172
 30
0.0
 11
-526.8696872608081
 21
-604.6999619458172
 31
0.0
  0
LINE
  5
375
330
1F
100
AcDbEntity
  8
D-0
  6
Continuous
 62
     7
370
     9
100
AcDbLine
 10
-515.0220386402026
 20
-677.759787843034
 30
0.0
 11
-515.0220386402026
 21
-676.2595055554364
 31
0.0
  0
LINE
  5
376
330
1F
100
AcDbEntity
  8
D-0
  6
Continuous
 62
     7
370
     9
100
AcDbLine
 10
-515.0220386402026
 20
-676.2595055554364
 30
0.0
 11
-513.5222522632495
 21
-676.2595055554364
 31
0.0
  0
LINE
  5
377
330
1F
100
AcDbEntity
  8
D-0
  6
Continuous
 62
     7
370
     9
100
AcDbLine
 10
-513.5222522632495
 20
-676.2595055554364
 30
0.0
 11
-513.5222522632495
 21
-677.759787843034
 31
0.0
  0
LINE
  5
378
330
1F
100
AcDbEntity
  8
D-0
  6
Continuous
 62
     7
370
     9
100
AcDbLine
 10
-513.5222522632495
 20
-677.759787843034
 30
0.0
 11
-515.0220386402026
 21
-677.759787843034
 31
0.0
  0
LINE
  5
379
330
1F
100
AcDbEntity
  8
D-0
  6
Continuous
 62
     7
370
     9
100
AcDbLine
 10
-563.3996097461596
 20
-676.7723153088543
 30
0.0
 11
-563.3996097461596
 21
-675.2720330212567
 31
0.0
  0
LINE
  5
37A
330
1F
100
AcDbEntity
  8
D-0
  6
Continuous
 62
     7
370
     9
100
AcDbLine
 10
-563.3996097461596
 20
-675.2720330212567
 30
0.0
 11
-561.899327458562
 21
-675.2720330212567
 31
0.0
  0
LINE
  5
37B
330
1F
100
AcDbEntity
  8
D-0
  6
Continuous
 62
     7
370
     9
100
AcDbLine
 10
-561.899327458562
 20
-675.2720330212567
 30
0.0
 11
-561.899327458562
 21
-676.7723153088543
 31
0.0
  0
LINE
  5
37C
330
1F
100
AcDbEntity
  8
D-0
  6
Continuous
 62
     7
370
     9
100
AcDbLine
 10
-561.899327458562
 20
-676.7723153088543
 30
0.0
 11
-563.3996097461596
 21
-676.7723153088543
 31
0.0
  0
LINE
  5
37D
330
1F
100
AcDbEntity
  8
D-0
  6
Continuous
 62
     7
370
     9
100
AcDbLine
 10
-550.4465667621508
 20
-795.8780739758465
 30
0.0
 11
-550.4465667621508
 21
-794.3777916882489
 31
0.0
  0
LINE
  5
37E
330
1F
100
AcDbEntity
  8
D-0
  6
Continuous
 62
     7
370
     9
100
AcDbLine
 10
-550.4465667621508
 20
-794.3777916882489
 30
0.0
 11
-548.9462940112963
 21
-794.3777916882489
 31
0.0
  0
LINE
  5
37F
330
1F
100
AcDbEntity
  8
D-0
  6
Continuous
 62
     7
370
     9
100
AcDbLine
 10
-548.9462940112963
 20
-794.3777916882489
 30
0.0
 11
-548.9462940112963
 21
-795.8780739758465
 31
0.0
  0
LINE
  5
380
330
1F
100
AcDbEntity
  8
D-0
  6
Continuous
 62
     7
370
     9
100
AcDbLine
 10
-548.9462940112963
 20
-795.8780739758465
 30
0.0
 11
-550.4465667621508
 21
-795.8780739758465
 31
0.0
  0
LINE
  5
381
330
1F
100
AcDbEntity
  8
D-0
  6
Continuous
 62
     7
370
     9
100
AcDbLine
 10
-499.9206439868823
 20
-825.3857109997723
 30
0.0
 11
-499.9206439868823
 21
-823.8854287121746
 31
0.0
  0
LINE
  5
382
330
1F
100
AcDbEntity
  8
D-0
  6
Continuous
 62
     7
370
     9
100
AcDbLine
 10
-499.9206439868823
 20
-823.8854287121746
 30
0.0
 11
-498.4208599941149
 21
-823.8854287121746
 31
0.0
  0
LINE
  5
383
330
1F
100
AcDbEntity
  8
D-0
  6
Continuous
 62
     7
370
     9
100
AcDbLine
 10
-498.4208599941149
 20
-823.8854287121746
 30
0.0
 11
-498.4208599941149
 21
-825.3857109997723
 31
0.0
  0
LINE
  5
384
330
1F
100
AcDbEntity
  8
D-0
  6
Continuous
 62
     7
370
     9
100
AcDbLine
 10
-498.4208599941149
 20
-825.3857109997723
 30
0.0
 11
-499.9206439868823
 21
-825.3857109997723
 31
0.0
  0
LINE
  5
385
330
1F
100
AcDbEntity
  8
D-0
  6
Continuous
 62
     7
370
     9
100
AcDbLine
 10
-463.6825541870013
 20
-749.6562645886395
 30
0.0
 11
-463.6825541870013
 21
-748.1560204480145
 31
0.0
  0
LINE
  5
386
330
1F
100
AcDbEntity
  8
D-0
  6
Continuous
 62
     7
370
     9
100
AcDbLine
 10
-463.6825541870013
 20
-748.1560204480145
 30
0.0
 11
-462.182770194234
 21
-748.1560204480145
 31
0.0
  0
LINE
  5
387
330
1F
100
AcDbEntity
  8
D-0
  6
Continuous
 62
     7
370
     9
100
AcDbLine
 10
-462.182770194234
 20
-748.1560204480145
 30
0.0
 11
-462.182770194234
 21
-749.6562645886395
 31
0.0
  0
LINE
  5
388
330
1F
100
AcDbEntity
  8
D-0
  6
Continuous
 62
     7
370
     9
100
AcDbLine
 10
-462.182770194234
 20
-749.6562645886395
 30
0.0
 11
-463.6825541870013
 21
-749.6562645886395
 31
0.0
  0
LINE
  5
389
330
1F
100
AcDbEntity
  8
D-0
  6
Continuous
 62
     7
370
     9
100
AcDbLine
 10
-580.7152549640551
 20
-631.5930054638836
 30
0.0
 11
-580.7152549640551
 21
-630.092723176286
 31
0.0
  0
LINE
  5
38A
330
1F
100
AcDbEntity
  8
D-0
  6
Continuous
 62
     7
370
     9
100
AcDbLine
 10
-580.7152549640551
 20
-630.092723176286
 30
0.0
 11
-579.215468587102
 21
-630.092723176286
 31
0.0
  0
LINE
  5
38B
330
1F
100
AcDbEntity
  8
D-0
  6
Continuous
 62
     7
370
     9
100
AcDbLine
 10
-579.215468587102
 20
-630.092723176286
 30
0.0
 11
-579.215468587102
 21
-631.5930054638836
 31
0.0
  0
LINE
  5
38C
330
1F
100
AcDbEntity
  8
D-0
  6
Continuous
 62
     7
370
     9
100
AcDbLine
 10
-579.215468587102
 20
-631.5930054638836
 30
0.0
 11
-580.7152549640551
 21
-631.5930054638836
 31
0.0
  0
LINE
  5
38D
330
1F
100
AcDbEntity
  8
D-0
  6
Continuous
 62
     7
370
     9
100
AcDbLine
 10
-238.3057014362231
 20
-479.8631260846112
 30
0.0
 11
-238.3057014362231
 21
-478.3628533337567
 31
0.0
  0
LINE
  5
38E
330
1F
100
AcDbEntity
  8
D-0
  6
Continuous
 62
     7
370
     9
100
AcDbLine
 10
-238.3057014362231
 20
-478.3628533337567
 30
0.0
 11
-236.8054191486254
 21
-478.3628533337567
 31
0.0
  0
LINE
  5
38F
330
1F
100
AcDbEntity
  8
D-0
  6
Continuous
 62
     7
370
     9
100
AcDbLine
 10
-236.8054191486254
 20
-478.3628533337567
 30
0.0
 11
-236.8054191486254
 21
-479.8631260846112
 31
0.0
  0
LINE
  5
390
330
1F
100
AcDbEntity
  8
D-0
  6
Continuous
 62
     7
370
     9
100
AcDbLine
 10
-236.8054191486254
 20
-479.8631260846112
 30
0.0
 11
-238.3057014362231
 21
-479.8631260846112
 31
0.0
  0
LINE
  5
391
330
1F
100
AcDbEntity
  8
D-0
  6
Continuous
 62
     7
370
     9
100
AcDbLine
 10
-463.793539227666
 20
-675.327040955827
 30
0.0
 11
-463.793539227666
 21
-673.8267586682293
 31
0.0
  0
LINE
  5
392
330
1F
100
AcDbEntity
  8
D-0
  6
Continuous
 62
     7
370
     9
100
AcDbLine
 10
-463.793539227666
 20
-673.8267586682293
 30
0.0
 11
-462.2937552348986
 21
-673.8267586682293
 31
0.0
  0
LINE
  5
393
330
1F
100
AcDbEntity
  8
D-0
  6
Continuous
 62
     7
370
     9
100
AcDbLine
 10
-462.2937552348986
 20
-673.8267586682293
 30
0.0
 11
-462.2937552348986
 21
-675.327040955827
 31
0.0
  0
LINE
  5
394
330
1F
100
AcDbEntity
  8
D-0
  6
Continuous
 62
     7
370
     9
100
AcDbLine
 10
-462.2937552348986
 20
-675.327040955827
 30
0.0
 11
-463.793539227666
 21
-675.327040955827
 31
0.0
  0
LINE
  5
395
330
1F
100
AcDbEntity
  8
D-0
  6
Continuous
 62
     7
370
     9
100
AcDbLine
 10
-488.5238711254016
 20
-798.6730263684246
 30
0.0
 11
-488.5238711254016
 21
-797.172744080827
 31
0.0
  0
LINE
  5
396
330
1F
100
AcDbEntity
  8
D-0
  6
Continuous
 62
     7
370
     9
100
AcDbLine
 10
-488.5238711254016
 20
-797.172744080827
 30
0.0
 11
-487.0240871326342
 21
-797.172744080827
 31
0.0
  0
LINE
  5
397
330
1F
100
AcDbEntity
  8
D-0
  6
Continuous
 62
     7
370
     9
100
AcDbLine
 10
-487.0240871326342
 20
-797.172744080827
 30
0.0
 11
-487.0240871326342
 21
-798.6730263684246
 31
0.0
  0
LINE
  5
398
330
1F
100
AcDbEntity
  8
D-0
  6
Continuous
 62
     7
370
     9
100
AcDbLine
 10
-487.0240871326342
 20
-798.6730263684246
 30
0.0
 11
-488.5238711254016
 21
-798.6730263684246
 31
0.0
  0
LINE
  5
399
330
1F
100
AcDbEntity
  8
D-0
  6
Continuous
 62
     7
370
     9
100
AcDbLine
 10
-247.5893012897387
 20
-551.3027832959149
 30
0.0
 11
-247.5893012897387
 21
-549.8025200818036
 31
0.0
  0
LINE
  5
39A
330
1F
100
AcDbEntity
  8
D-0
  6
Continuous
 62
     7
370
     9
100
AcDbLine
 10
-247.5893012897387
 20
-549.8025200818036
 30
0.0
 11
-246.0890190021411
 21
-549.8025200818036
 31
0.0
  0
LINE
  5
39B
330
1F
100
AcDbEntity
  8
D-0
  6
Continuous
 62
     7
370
     9
100
AcDbLine
 10
-246.0890190021411
 20
-549.8025200818036
 30
0.0
 11
-246.0890190021411
 21
-551.3027832959149
 31
0.0
  0
LINE
  5
39C
330
1F
100
AcDbEntity
  8
D-0
  6
Continuous
 62
     7
370
     9
100
AcDbLine
 10
-246.0890190021411
 20
-551.3027832959149
 30
0.0
 11
-247.5893012897387
 21
-551.3027832959149
 31
0.0
  0
LINE
  5
39D
330
1F
100
AcDbEntity
  8
D-0
  6
Continuous
 62
     7
370
     9
100
AcDbLine
 10
-460.2093182222262
 20
-472.8017113659832
 30
0.0
 11
-460.2093182222262
 21
-471.3014290783856
 31
0.0
  0
LINE
  5
39E
330
1F
100
AcDbEntity
  8
D-0
  6
Continuous
 62
     7
370
     9
100
AcDbLine
 10
-460.2093182222262
 20
-471.3014290783856
 30
0.0
 11
-458.7090383188144
 21
-471.3014290783856
 31
0.0
  0
LINE
  5
39F
330
1F
100
AcDbEntity
  8
D-0
  6
Continuous
 62
     7
370
     9
100
AcDbLine
 10
-458.7090383188144
 20
-471.3014290783856
 30
0.0
 11
-458.7090383188144
 21
-472.8017113659832
 31
0.0
  0
LINE
  5
3A0
330
1F
100
AcDbEntity
  8
D-0
  6
Continuous
 62
     7
370
     9
100
AcDbLine
 10
-458.7090383188144
 20
-472.8017113659832
 30
0.0
 11
-460.2093182222262
 21
-472.8017113659832
 31
0.0
  0
LINE
  5
3A1
330
1F
100
AcDbEntity
  8
D-0
  6
Continuous
 62
     7
370
     9
100
AcDbLine
 10
-446.2960593120471
 20
-498.0988572094891
 30
0.0
 11
-446.2960593120471
 21
-496.5985749218914
 31
0.0
  0
LINE
  5
3A2
330
1F
100
AcDbEntity
  8
D-0
  6
Continuous
 62
     7
370
     9
100
AcDbLine
 10
-446.2960593120471
 20
-496.5985749218914
 30
0.0
 11
-444.7957794086352
 21
-496.5985749218914
 31
0.0
  0
LINE
  5
3A3
330
1F
100
AcDbEntity
  8
D-0
  6
Continuous
 62
     7
370
     9
100
AcDbLine
 10
-444.7957794086352
 20
-496.5985749218914
 30
0.0
 11
-444.7957794086352
 21
-498.0988572094891
 31
0.0
  0
LINE
  5
3A4
330
1F
100
AcDbEntity
  8
D-0
  6
Continuous
 62
     7
370
     9
100
AcDbLine
 10
-444.7957794086352
 20
-498.0988572094891
 30
0.0
 11
-446.2960593120471
 21
-498.0988572094891
 31
0.0
  0
LINE
  5
3A5
330
1F
100
AcDbEntity
  8
D-0
  6
Continuous
 62
     7
370
     9
100
AcDbLine
 10
-393.3770219699755
 20
-533.4208176587078
 30
0.0
 11
-393.3770219699755
 21
-531.9205544445965
 31
0.0
  0
LINE
  5
3A6
330
1F
100
AcDbEntity
  8
D-0
  6
Continuous
 62
     7
370
     9
100
AcDbLine
 10
-393.3770219699755
 20
-531.9205544445965
 30
0.0
 11
-391.8772355930224
 21
-531.9205544445965
 31
0.0
  0
LINE
  5
3A7
330
1F
100
AcDbEntity
  8
D-0
  6
Continuous
 62
     7
370
     9
100
AcDbLine
 10
-391.8772355930224
 20
-531.9205544445965
 30
0.0
 11
-391.8772355930224
 21
-533.4208176587078
 31
0.0
  0
LINE
  5
3A8
330
1F
100
AcDbEntity
  8
D-0
  6
Continuous
 62
     7
370
     9
100
AcDbLine
 10
-391.8772355930224
 20
-533.4208176587078
 30
0.0
 11
-393.3770219699755
 21
-533.4208176587078
 31
0.0
  0
LINE
  5
3A9
330
1F
100
AcDbEntity
  8
D-0
  6
Continuous
 62
     7
370
     9
100
AcDbLine
 10
-365.5336563007251
 20
-339.1267106984112
 30
0.0
 11
-365.5336563007251
 21
-337.6264307949994
 31
0.0
  0
LINE
  5
3AA
330
1F
100
AcDbEntity
  8
D-0
  6
Continuous
 62
     7
370
     9
100
AcDbLine
 10
-365.5336563007251
 20
-337.6264307949994
 30
0.0
 11
-364.0338699237719
 21
-337.6264307949994
 31
0.0
  0
LINE
  5
3AB
330
1F
100
AcDbEntity
  8
D-0
  6
Continuous
 62
     7
370
     9
100
AcDbLine
 10
-364.0338699237719
 20
-337.6264307949994
 30
0.0
 11
-364.0338699237719
 21
-339.1267106984112
 31
0.0
  0
LINE
  5
3AC
330
1F
100
AcDbEntity
  8
D-0
  6
Continuous
 62
     7
370
     9
100
AcDbLine
 10
-364.0338699237719
 20
-339.1267106984112
 30
0.0
 11
-365.5336563007251
 21
-339.1267106984112
 31
0.0
  0
LINE
  5
3AD
330
1F
100
AcDbEntity
  8
D-0
  6
Continuous
 62
     7
370
     9
100
AcDbLine
 10
-295.7295410053149
 20
-346.5384278748486
 30
0.0
 11
-295.7295410053149
 21
-345.0381479714367
 31
0.0
  0
LINE
  5
3AE
330
1F
100
AcDbEntity
  8
D-0
  6
Continuous
 62
     7
370
     9
100
AcDbLine
 10
-295.7295410053149
 20
-345.0381479714367
 30
0.0
 11
-294.2297546283618
 21
-345.0381479714367
 31
0.0
  0
LINE
  5
3AF
330
1F
100
AcDbEntity
  8
D-0
  6
Continuous
 62
     7
370
     9
100
AcDbLine
 10
-294.2297546283618
 20
-345.0381479714367
 30
0.0
 11
-294.2297546283618
 21
-346.5384278748486
 31
0.0
  0
LINE
  5
3B0
330
1F
100
AcDbEntity
  8
D-0
  6
Continuous
 62
     7
370
     9
100
AcDbLine
 10
-294.2297546283618
 20
-346.5384278748486
 30
0.0
 11
-295.7295410053149
 21
-346.5384278748486
 31
0.0
  0
LINE
  5
3B1
330
1F
100
AcDbEntity
  8
C-B
  6
JWW_DASHED3
 62
     6
370
     9
100
AcDbLine
 10
-8.589215881403831
 20
940.5674883868244
 30
0.0
 11
-4.589215881403845
 21
940.5674883868244
 31
0.0
  0
LINE
  5
3B2
330
1F
100
AcDbEntity
  8
C-B
  6
JWW_DASHED3
 62
     6
370
     9
100
AcDbLine
 10
-8.589215881403831
 20
940.5674883868244
 30
0.0
 11
-8.589215881403831
 21
610.5672747637772
 31
0.0
  0
LINE
  5
3B3
330
1F
100
AcDbEntity
  8
C-B
  6
JWW_DASHED3
 62
     6
370
     9
100
AcDbLine
 10
-4.589215881403845
 20
940.5674883868244
 30
0.0
 11
-4.589215881403845
 21
610.5672747637772
 31
0.0
  0
LINE
  5
3B4
330
1F
100
AcDbEntity
  8
C-B
  6
JWW_DASHED3
 62
     6
370
     9
100
AcDbLine
 10
-8.589215881403831
 20
610.5672747637772
 30
0.0
 11
-4.589215881403845
 21
610.5672747637772
 31
0.0
  0
LINE
  5
3B5
330
1F
100
AcDbEntity
  8
C-B
  6
JWW_DASHED3
 62
     6
370
     9
100
AcDbLine
 10
151.4109672240649
 20
940.5674883868244
 30
0.0
 11
155.4109672240649
 21
940.5674883868244
 31
0.0
  0
LINE
  5
3B6
330
1F
100
AcDbEntity
  8
C-B
  6
JWW_DASHED3
 62
     6
370
     9
100
AcDbLine
 10
155.4109672240649
 20
940.5674883868244
 30
0.0
 11
155.4109672240649
 21
610.5672747637772
 31
0.0
  0
LINE
  5
3B7
330
1F
100
AcDbEntity
  8
C-B
  6
JWW_DASHED3
 62
     6
370
     9
100
AcDbLine
 10
151.4109672240649
 20
940.5674883868244
 30
0.0
 11
151.4109672240649
 21
610.5672747637772
 31
0.0
  0
LINE
  5
3B8
330
1F
100
AcDbEntity
  8
C-B
  6
JWW_DASHED3
 62
     6
370
     9
100
AcDbLine
 10
151.4109672240649
 20
610.5672747637772
 30
0.0
 11
155.4109672240649
 21
610.5672747637772
 31
0.0
  0
TEXT
  5
3B9
330
1F
100
AcDbEntity
  8
C-5
  6
Continuous
 62
     7
370
     9
100
AcDbText
 10
273.6774652742391
 20
442.979670905036
 30
0.0
 40
22.86
  1
セラミック溶射
 41
1.142857142857143
  7
ＭＳ ゴシック
100
AcDbText
  0
TEXT
  5
3BA
330
1F
100
AcDbEntity
  8
F-4
  6
Continuous
 62
     2
370
     9
100
AcDbText
 10
-187.9818396706489
 20
-1378.111025752946
 30
0.0
 40
30.48
  1
ＳＺ－３Ｃ　４００×４００×３＋ＳＦ０３Ｂ
 41
0.7738095238095238
  7
ＭＳ ゴシック
100
AcDbText
  0
TEXT
  5
3BB
330
1F
100
AcDbEntity
  8
D-5
  6
Continuous
 62
     2
370
     9
100
AcDbText
 10
410.9192989967966
 20
-494.1766140994509
 30
0.0
 40
30.48
  1
ステンレス製排水用蓋　ＳＺ－３Ｃ　４００×４００×３
 41
1.120192307692307
  7
ＭＳ ゴシック
100
AcDbText
  0
ENDSEC
  0
SECTION
  2
OBJECTS
  0
DICTIONARY
  5
C
330
0
100
AcDbDictionary
281
     1
  3
ACAD_GROUP
350
D
  3
ACAD_LAYOUT
350
1A
  3
ACAD_MLEADERSTYLE
350
3BD
  3
ACAD_MLINESTYLE
350
17
  3
ACAD_PLOTSETTINGS
350
19
  3
ACAD_PLOTSTYLENAME
350
E
  3
ACAD_TABLESTYLE
350
3BC
  3
ACAD_VISUALSTYLE
350
2A
  3
AcDbVariableDictionary
350
3BE
  0
DICTIONARY
  5
D
102
{ACAD_REACTORS
330
C
102
}
330
C
100
AcDbDictionary
281
     1
  0
DICTIONARY
  5
1A
102
{ACAD_REACTORS
330
C
102
}
330
C
100
AcDbDictionary
281
     1
  3
Layout1
350
1E
  3
Layout2
350
26
  3
Model
350
22
  0
DICTIONARY
  5
3BD
102
{ACAD_REACTORS
330
C
102
}
330
C
100
AcDbDictionary
281
     1
  0
DICTIONARY
  5
17
102
{ACAD_REACTORS
330
C
102
}
330
C
100
AcDbDictionary
281
     1
  3
Standard
350
18
  0
DICTIONARY
  5
19
102
{ACAD_REACTORS
330
C
102
}
330
C
100
AcDbDictionary
281
     1
  0
ACDBDICTIONARYWDFLT
  5
E
102
{ACAD_REACTORS
330
C
102
}
330
C
100
AcDbDictionary
281
     1
  3
Normal
350
F
100
AcDbDictionaryWithDefault
340
F
  0
DICTIONARY
  5
3BC
102
{ACAD_REACTORS
330
C
102
}
330
C
100
AcDbDictionary
281
     1
  0
DICTIONARY
  5
2A
102
{ACAD_REACTORS
330
C
102
}
330
C
100
AcDbDictionary
281
     1
  3
2dWireframe
350
2F
  3
3D Hidden
350
31
  3
3dWireframe
350
30
  3
Basic
350
32
  3
Brighten
350
36
  3
ColorChange
350
3A
  3
Conceptual
350
34
  3
Dim
350
35
  3
Facepattern
350
39
  3
Flat
350
2B
  3
FlatWithEdges
350
2C
  3
Gouraud
350
2D
  3
GouraudWithEdges
350
2E
  3
Linepattern
350
38
  3
Realistic
350
33
  3
Thicken
350
37
  0
DICTIONARY
  5
3BE
102
{ACAD_REACTORS
330
C
102
}
330
C
100
AcDbDictionary
281
     1
  3
PSOLHEIGHT
350
3C0
  3
PSOLWIDTH
350
3BF
  0
LAYOUT
  5
1E
102
{ACAD_REACTORS
330
1A
102
}
102
{ACAD_XDICTIONARY
360
3C1
102
}
330
1A
100
AcDbPlotSettings
  1

  2
none_device
  4

  6

 40
0.0
 41
0.0
 42
0.0
 43
0.0
 44
0.0
 45
0.0
 46
0.0
 47
0.0
 48
0.0
 49
0.0
140
0.0
141
0.0
142
1.0
143
1.0
 70
   688
 72
     0
 73
     0
 74
     5
  7

 75
    16
147
1.0
148
0.0
149
0.0
100
AcDbLayout
  1
Layout1
 70
     1
 71
     1
 10
0.0
 20
0.0
 11
420.0
 21
297.0
 12
0.0
 22
0.0
 32
0.0
 14
1.000000000000000E+20
 24
1.000000000000000E+20
 34
1.000000000000000E+20
 15
-1.000000000000000E+20
 25
-1.000000000000000E+20
 35
-1.000000000000000E+20
146
0.0
 13
0.0
 23
0.0
 33
0.0
 16
1.0
 26
0.0
 36
0.0
 17
0.0
 27
1.0
 37
0.0
 76
     0
330
1B
  0
LAYOUT
  5
26
102
{ACAD_REACTORS
330
1A
102
}
102
{ACAD_XDICTIONARY
360
3C5
102
}
330
1A
100
AcDbPlotSettings
  1

  2
none_device
  4

  6

 40
0.0
 41
0.0
 42
0.0
 43
0.0
 44
0.0
 45
0.0
 46
0.0
 47
0.0
 48
0.0
 49
0.0
140
0.0
141
0.0
142
1.0
143
1.0
 70
   688
 72
     0
 73
     0
 74
     5
  7

 75
    16
147
1.0
148
0.0
149
0.0
100
AcDbLayout
  1
Layout2
 70
     1
 71
     2
 10
0.0
 20
0.0
 11
0.0
 21
0.0
 12
0.0
 22
0.0
 32
0.0
 14
0.0
 24
0.0
 34
0.0
 15
0.0
 25
0.0
 35
0.0
146
0.0
 13
0.0
 23
0.0
 33
0.0
 16
1.0
 26
0.0
 36
0.0
 17
0.0
 27
1.0
 37
0.0
 76
     0
330
23
  0
LAYOUT
  5
22
102
{ACAD_REACTORS
330
1A
102
}
102
{ACAD_XDICTIONARY
360
3C3
102
}
330
1A
100
AcDbPlotSettings
  1

  2
none_device
  4

  6

 40
0.0
 41
0.0
 42
0.0
 43
0.0
 44
0.0
 45
0.0
 46
0.0
 47
0.0
 48
0.0
 49
0.0
140
0.0
141
0.0
142
1.0
143
1.0
 70
  1712
 72
     0
 73
     0
 74
     0
  7

 75
     0
147
1.0
148
0.0
149
0.0
100
AcDbLayout
  1
Model
 70
     1
 71
     0
 10
-2100.0
 20
-1485.0
 11
2100.0
 21
1485.0
 12
0.0
 22
0.0
 32
0.0
 14
-2100.0
 24
-1485.0
 34
0.0
 15
2100.0
 25
1485.0
 35
0.0
146
0.0
 13
0.0
 23
0.0
 33
0.0
 16
1.0
 26
0.0
 36
0.0
 17
0.0
 27
1.0
 37
0.0
 76
     0
330
1F
331
29
  0
MLINESTYLE
  5
18
102
{ACAD_REACTORS
330
17
102
}
330
17
100
AcDbMlineStyle
  2
Standard
 70
     0
  3

 62
   256
 51
90.0
 52
90.0
 71
     2
 49
0.5
 62
   256
  6
BYLAYER
 49
-0.5
 62
   256
  6
BYLAYER
  0
ACDBPLACEHOLDER
  5
F
102
{ACAD_REACTORS
330
E
102
}
330
E
  0
VISUALSTYLE
  5
2F
102
{ACAD_REACTORS
330
2A
102
}
330
2A
100
AcDbVisualStyle
  2
2dWireframe
 70
     4
 71
     0
 72
     2
 73
     0
 90
        0
 40
-0.6
 41
-30.0
 62
     5
 63
     7
 74
     1
 91
        4
 64
     7
 65
   257
 75
     1
175
     1
 42
1.0
 92
        0
 66
   257
 43
1.0
 76
     1
 77
     6
 78
     2
 67
     7
 79
     5
170
     0
171
     0
290
     0
174
     0
 93
        1
 44
0.0
173
     0
291
     0
 45
0.0
1001
ACAD
1000
AcDbSavedByObjectVersion
1070
     0
  0
VISUALSTYLE
  5
31
102
{ACAD_REACTORS
330
2A
102
}
330
2A
100
AcDbVisualStyle
  2
3D Hidden
 70
     6
 71
     1
 72
     2
 73
     2
 90
        0
 40
-0.6
 41
-30.0
 62
     5
 63
     7
 74
     2
 91
        2
 64
     7
 65
   257
 75
     2
175
     1
 42
40.0
 92
        0
 66
   257
 43
1.0
 76
     1
 77
     6
 78
     2
 67
     7
 79
     3
170
     0
171
     0
290
     0
174
     0
 93
        1
 44
0.0
173
     0
291
     0
 45
0.0
1001
ACAD
1000
AcDbSavedByObjectVersion
1070
     0
  0
VISUALSTYLE
  5
30
102
{ACAD_REACTORS
330
2A
102
}
330
2A
100
AcDbVisualStyle
  2
3dWireframe
 70
     5
 71
     0
 72
     2
 73
     0
 90
        0
 40
-0.6
 41
-30.0
 62
     5
 63
     7
 74
     1
 91
        4
 64
     7
 65
   257
 75
     1
175
     1
 42
1.0
 92
        0
 66
   257
 43
1.0
 76
     1
 77
     6
 78
     2
 67
     7
 79
     5
170
     0
171
     0
290
     0
174
     0
 93
        1
 44
0.0
173
     0
291
     0
 45
0.0
1001
ACAD
1000
AcDbSavedByObjectVersion
1070
     0
  0
VISUALSTYLE
  5
32
102
{ACAD_REACTORS
330
2A
102
}
330
2A
100
AcDbVisualStyle
  2
Basic
 70
     7
 71
     1
 72
     0
 73
     1
 90
        0
 40
-0.6
 41
-30.0
 62
     5
 63
     7
 74
     0
 91
        4
 64
     7
 65
   257
 75
     1
175
     1
 42
1.0
 92
        8
 66
     7
 43
1.0
 76
     1
 77
     6
 78
     2
 67
     7
 79
     5
170
     0
171
     0
290
     0
174
     0
 93
        1
 44
0.0
173
     0
291
     1
 45
0.0
1001
ACAD
1000
AcDbSavedByObjectVersion
1070
     0
  0
VISUALSTYLE
  5
36
102
{ACAD_REACTORS
330
2A
102
}
330
2A
100
AcDbVisualStyle
  2
Brighten
 70
    12
 71
     2
 72
     2
 73
     0
 90
        0
 40
-0.6
 41
-30.0
 62
     5
 63
     7
 74
     1
 91
        4
 64
     7
 65
   257
 75
     1
175
     1
 42
1.0
 92
        8
 66
     7
 43
1.0
 76
     1
 77
     6
 78
     2
 67
     7
 79
     5
170
     0
171
     0
290
     0
174
     0
 93
        1
 44
50.0
173
     0
291
     1
 45
0.0
1001
ACAD
1000
AcDbSavedByObjectVersion
1070
     0
  0
VISUALSTYLE
  5
3A
102
{ACAD_REACTORS
330
2A
102
}
330
2A
100
AcDbVisualStyle
  2
ColorChange
 70
    16
 71
     2
 72
     2
 73
     3
 90
        0
 40
-0.6
 41
-30.0
 62
     5
 63
     8
 74
     1
 91
        4
 64
     7
 65
   257
 75
     1
175
     1
 42
1.0
 92
        8
 66
     8
 43
1.0
 76
     1
 77
     6
 78
     2
 67
     7
 79
     5
170
     0
171
     0
290
     0
174
     0
 93
        1
 44
0.0
173
     0
291
     1
 45
0.0
1001
ACAD
1000
AcDbSavedByObjectVersion
1070
     0
  0
VISUALSTYLE
  5
34
102
{ACAD_REACTORS
330
2A
102
}
330
2A
100
AcDbVisualStyle
  2
Conceptual
 70
     9
 71
     3
 72
     2
 73
     0
 90
        0
 40
-0.6
 41
-30.0
 62
     5
 63
     7
 74
     2
 91
        2
 64
     7
 65
   257
 75
     1
175
     1
 42
40.0
 92
        8
 66
     7
 43
1.0
 76
     1
 77
     6
 78
     2
 67
     7
 79
     3
170
     0
171
     0
290
     0
174
     0
 93
        1
 44
0.0
173
     0
291
     0
 45
0.0
1001
ACAD
1000
AcDbSavedByObjectVersion
1070
     0
  0
VISUALSTYLE
  5
35
102
{ACAD_REACTORS
330
2A
102
}
330
2A
100
AcDbVisualStyle
  2
Dim
 70
    11
 71
     2
 72
     2
 73
     0
 90
        0
 40
-0.6
 41
-30.0
 62
     5
 63
     7
 74
     1
 91
        4
 64
     7
 65
   257
 75
     1
175
     1
 42
1.0
 92
        8
 66
     7
 43
1.0
 76
     1
 77
     6
 78
     2
 67
     7
 79
     5
170
     0
171
     0
290
     0
174
     0
 93
        1
 44
-50.0
173
     0
291
     1
 45
0.0
1001
ACAD
1000
AcDbSavedByObjectVersion
1070
     0
  0
VISUALSTYLE
  5
39
102
{ACAD_REACTORS
330
2A
102
}
330
2A
100
AcDbVisualStyle
  2
Facepattern
 70
    15
 71
     2
 72
     2
 73
     0
 90
        0
 40
-0.6
 41
-30.0
 62
     5
 63
     7
 74
     1
 91
        4
 64
     7
 65
   257
 75
     1
175
     1
 42
1.0
 92
        8
 66
     7
 43
1.0
 76
     1
 77
     6
 78
     2
 67
     7
 79
     5
170
     0
171
     0
290
     0
174
     0
 93
        1
 44
0.0
173
     0
291
     1
 45
0.0
1001
ACAD
1000
AcDbSavedByObjectVersion
1070
     0
  0
VISUALSTYLE
  5
2B
102
{ACAD_REACTORS
330
2A
102
}
330
2A
100
AcDbVisualStyle
  2
Flat
 70
     0
 71
     2
 72
     1
 73
     1
 90
        2
 40
-0.6
 41
30.0
 62
     5
 63
     7
 74
     0
 91
        4
 64
     7
 65
   257
 75
     1
175
     1
 42
1.0
 92
        8
 66
     7
 43
1.0
 76
     1
 77
     6
 78
     2
 67
     7
 79
     5
170
     0
171
     0
290
     0
174
     0
 93
       13
 44
0.0
173
     0
291
     1
 45
0.0
1001
ACAD
1000
AcDbSavedByObjectVersion
1070
     0
  0
VISUALSTYLE
  5
2C
102
{ACAD_REACTORS
330
2A
102
}
330
2A
100
AcDbVisualStyle
  2
FlatWithEdges
 70
     1
 71
     2
 72
     1
 73
     1
 90
        2
 40
-0.6
 41
30.0
 62
     5
 63
     7
 74
     1
 91
        4
 64
     7
 65
   257
 75
     1
175
     1
 42
1.0
 92
        0
 66
   257
 43
1.0
 76
     1
 77
     6
 78
     2
 67
     7
 79
     5
170
     0
171
     0
290
     0
174
     0
 93
       13
 44
0.0
173
     0
291
     1
 45
0.0
1001
ACAD
1000
AcDbSavedByObjectVersion
1070
     0
  0
VISUALSTYLE
  5
2D
102
{ACAD_REACTORS
330
2A
102
}
330
2A
100
AcDbVisualStyle
  2
Gouraud
 70
     2
 71
     2
 72
     2
 73
     1
 90
        2
 40
-0.6
 41
30.0
 62
     5
 63
     7
 74
     0
 91
        4
 64
     7
 65
   257
 75
     1
175
     1
 42
1.0
 92
        0
 66
     7
 43
1.0
 76
     1
 77
     6
 78
     2
 67
     7
 79
     5
170
     0
171
     0
290
     0
174
     0
 93
       13
 44
0.0
173
     0
291
     1
 45
0.0
1001
ACAD
1000
AcDbSavedByObjectVersion
1070
     0
  0
VISUALSTYLE
  5
2E
102
{ACAD_REACTORS
330
2A
102
}
330
2A
100
AcDbVisualStyle
  2
GouraudWithEdges
 70
     3
 71
     2
 72
     2
 73
     1
 90
        2
 40
-0.6
 41
30.0
 62
     5
 63
     7
 74
     1
 91
        4
 64
     7
 65
   257
 75
     1
175
     1
 42
1.0
 92
        0
 66
   257
 43
1.0
 76
     1
 77
     6
 78
     2
 67
     7
 79
     5
170
     0
171
     0
290
     0
174
     0
 93
       13
 44
0.0
173
     0
291
     1
 45
0.0
1001
ACAD
1000
AcDbSavedByObjectVersion
1070
     0
  0
VISUALSTYLE
  5
38
102
{ACAD_REACTORS
330
2A
102
}
330
2A
100
AcDbVisualStyle
  2
Linepattern
 70
    14
 71
     2
 72
     2
 73
     0
 90
        0
 40
-0.6
 41
-30.0
 62
     5
 63
     7
 74
     1
 91
        4
 64
     7
 65
   257
 75
     7
175
     7
 42
1.0
 92
        8
 66
     7
 43
1.0
 76
     1
 77
     6
 78
     2
 67
     7
 79
     5
170
     0
171
     0
290
     0
174
     0
 93
        1
 44
0.0
173
     0
291
     1
 45
0.0
1001
ACAD
1000
AcDbSavedByObjectVersion
1070
     0
  0
VISUALSTYLE
  5
33
102
{ACAD_REACTORS
330
2A
102
}
330
2A
100
AcDbVisualStyle
  2
Realistic
 70
     8
 71
     2
 72
     2
 73
     0
 90
        0
 40
-0.6
 41
-30.0
 62
     5
 63
     7
 74
     1
 91
        0
 64
     7
 65
   257
 75
     1
175
     1
 42
1.0
 92
        8
 66
     8
 43
1.0
 76
     1
 77
     6
 78
     2
 67
     7
 79
     5
170
     0
171
     0
290
     0
174
     0
 93
       13
 44
0.0
173
     0
291
     0
 45
0.0
1001
ACAD
1000
AcDbSavedByObjectVersion
1070
     0
  0
VISUALSTYLE
  5
37
102
{ACAD_REACTORS
330
2A
102
}
330
2A
100
AcDbVisualStyle
  2
Thicken
 70
    13
 71
     2
 72
     2
 73
     0
 90
        0
 40
-0.6
 41
-30.0
 62
     5
 63
     7
 74
     1
 91
        4
 64
     7
 65
   257
 75
     1
175
     1
 42
1.0
 92
       12
 66
     7
 43
1.0
 76
     1
 77
     6
 78
     2
 67
     7
 79
     5
170
     0
171
     0
290
     0
174
     0
 93
        1
 44
0.0
173
     0
291
     1
 45
0.0
1001
ACAD
1000
AcDbSavedByObjectVersion
1070
     0
  0
DICTIONARYVAR
  5
3C0
102
{ACAD_REACTORS
330
3BE
102
}
330
3BE
100
DictionaryVariables
280
     0
  1
80.000000
  0
DICTIONARYVAR
  5
3BF
102
{ACAD_REACTORS
330
3BE
102
}
330
3BE
100
DictionaryVariables
280
     0
  1
5.000000
  0
DICTIONARY
  5
3C1
330
1E
100
AcDbDictionary
280
     1
281
     1
  3
ACAD_XREC_ROUNDTRIP
360
3C2
  0
DICTIONARY
  5
3C5
330
26
100
AcDbDictionary
280
     1
281
     1
  3
ACAD_XREC_ROUNDTRIP
360
3C6
  0
DICTIONARY
  5
3C3
330
22
100
AcDbDictionary
280
     1
281
     1
  3
ACAD_XREC_ROUNDTRIP
360
3C4
  0
XRECORD
  5
3C2
102
{ACAD_REACTORS
330
3C1
102
}
330
3C1
100
AcDbXrecord
280
     1
102
SHADEPLOT
 70
     0
102
SHADEPLOTRESLEVEL
 70
     5
102
SHADEPLOTCUSTOMDPI
 70
   300
  0
XRECORD
  5
3C6
102
{ACAD_REACTORS
330
3C5
102
}
330
3C5
100
AcDbXrecord
280
     1
102
SHADEPLOT
 70
     0
102
SHADEPLOTRESLEVEL
 70
     5
102
SHADEPLOTCUSTOMDPI
 70
   300
  0
XRECORD
  5
3C4
102
{ACAD_REACTORS
330
3C3
102
}
330
3C3
100
AcDbXrecord
280
     1
102
SHADEPLOT
 70
     0
102
SHADEPLOTRESLEVEL
 70
     5
102
SHADEPLOTCUSTOMDPI
 70
   300
  0
ENDSEC
  0
EOF
