  0
SECTION
  2
HEADER
  9
$ACADVER
  1
AC1015
  9
$ACADMAINTVER
 70
     6
  9
$DWGCODEPAGE
  3
ANSI_932
  9
$INSBASE
 10
0.0
 20
0.0
 30
0.0
  9
$EXTMIN
 10
-2100.0
 20
-1485.0
 30
0.0
  9
$EXTMAX
 10
2100.0
 20
1485.0
 30
0.0
  9
$LIMMIN
 10
-2100.0
 20
-1485.0
  9
$LIMMAX
 10
2100.0
 20
1485.0
  9
$ORTHOMODE
 70
     0
  9
$REGENMODE
 70
     1
  9
$FILLMODE
 70
     1
  9
$QTEXTMODE
 70
     0
  9
$MIRRTEXT
 70
     1
  9
$LTSCALE
 40
10.0
  9
$ATTMODE
 70
     1
  9
$TEXTSIZE
 40
2.5
  9
$TRACEWID
 40
1.0
  9
$TEXTSTYLE
  7
Standard
  9
$CLAYER
  8
0
  9
$CELTYPE
  6
ByLayer
  9
$CECOLOR
 62
   256
  9
$CELTSCALE
 40
1.0
  9
$DISPSILH
 70
     0
  9
$DIMSCALE
 40
1.0
  9
$DIMASZ
 40
2.5
  9
$DIMEXO
 40
0.625
  9
$DIMDLI
 40
3.75
  9
$DIMRND
 40
0.0
  9
$DIMDLE
 40
0.0
  9
$DIMEXE
 40
1.25
  9
$DIMTP
 40
0.0
  9
$DIMTM
 40
0.0
  9
$DIMTXT
 40
2.5
  9
$DIMCEN
 40
2.5
  9
$DIMTSZ
 40
0.0
  9
$DIMTOL
 70
     0
  9
$DIMLIM
 70
     0
  9
$DIMTIH
 70
     0
  9
$DIMTOH
 70
     0
  9
$DIMSE1
 70
     0
  9
$DIMSE2
 70
     0
  9
$DIMTAD
 70
     1
  9
$DIMZIN
 70
     8
  9
$DIMBLK
  1

  9
$DIMASO
 70
     1
  9
$DIMSHO
 70
     1
  9
$DIMPOST
  1

  9
$DIMAPOST
  1

  9
$DIMALT
 70
     0
  9
$DIMALTD
 70
     3
  9
$DIMALTF
 40
0.03937007874016
  9
$DIMLFAC
 40
1.0
  9
$DIMTOFL
 70
     1
  9
$DIMTVP
 40
0.0
  9
$DIMTIX
 70
     0
  9
$DIMSOXD
 70
     0
  9
$DIMSAH
 70
     0
  9
$DIMBLK1
  1

  9
$DIMBLK2
  1

  9
$DIMSTYLE
  2
ISO-25
  9
$DIMCLRD
 70
     0
  9
$DIMCLRE
 70
     0
  9
$DIMCLRT
 70
     0
  9
$DIMTFAC
 40
1.0
  9
$DIMGAP
 40
0.625
  9
$DIMJUST
 70
     0
  9
$DIMSD1
 70
     0
  9
$DIMSD2
 70
     0
  9
$DIMTOLJ
 70
     0
  9
$DIMTZIN
 70
     8
  9
$DIMALTZ
 70
     0
  9
$DIMALTTZ
 70
     0
  9
$DIMUPT
 70
     0
  9
$DIMDEC
 70
     2
  9
$DIMTDEC
 70
     2
  9
$DIMALTU
 70
     2
  9
$DIMALTTD
 70
     3
  9
$DIMTXSTY
  7
Standard
  9
$DIMAUNIT
 70
     0
  9
$DIMADEC
 70
     0
  9
$DIMALTRND
 40
0.0
  9
$DIMAZIN
 70
     0
  9
$DIMDSEP
 70
    44
  9
$DIMATFIT
 70
     3
  9
$DIMFRAC
 70
     0
  9
$DIMLDRBLK
  1

  9
$DIMLUNIT
 70
     2
  9
$DIMLWD
 70
    -2
  9
$DIMLWE
 70
    -2
  9
$DIMTMOVE
 70
     0
  9
$LUNITS
 70
     2
  9
$LUPREC
 70
     4
  9
$SKETCHINC
 40
1.0
  9
$FILLETRAD
 40
10.0
  9
$AUNITS
 70
     0
  9
$AUPREC
 70
     0
  9
$MENU
  1
.
  9
$ELEVATION
 40
0.0
  9
$PELEVATION
 40
0.0
  9
$THICKNESS
 40
0.0
  9
$LIMCHECK
 70
     0
  9
$CHAMFERA
 40
10.0
  9
$CHAMFERB
 40
10.0
  9
$CHAMFERC
 40
20.0
  9
$CHAMFERD
 40
0.0
  9
$SKPOLY
 70
     0
  9
$TDCREATE
 40
2456911.473707928
  9
$TDUCREATE
 40
2456911.098707928
  9
$TDUPDATE
 40
2456911.47370794
  9
$TDUUPDATE
 40
2456911.09870794
  9
$TDINDWG
 40
0.0000000116
  9
$TDUSRTIMER
 40
0.0000000116
  9
$USRTIMER
 70
     1
  9
$ANGBASE
 50
0.0
  9
$ANGDIR
 70
     0
  9
$PDMODE
 70
     0
  9
$PDSIZE
 40
0.0
  9
$PLINEWID
 40
0.0
  9
$SPLFRAME
 70
     0
  9
$SPLINETYPE
 70
     6
  9
$SPLINESEGS
 70
     8
  9
$HANDSEED
  5
CF
  9
$SURFTAB1
 70
     6
  9
$SURFTAB2
 70
     6
  9
$SURFTYPE
 70
     6
  9
$SURFU
 70
     6
  9
$SURFV
 70
     6
  9
$UCSBASE
  2

  9
$UCSNAME
  2

  9
$UCSORG
 10
0.0
 20
0.0
 30
0.0
  9
$UCSXDIR
 10
1.0
 20
0.0
 30
0.0
  9
$UCSYDIR
 10
0.0
 20
1.0
 30
0.0
  9
$UCSORTHOREF
  2

  9
$UCSORTHOVIEW
 70
     0
  9
$UCSORGTOP
 10
0.0
 20
0.0
 30
0.0
  9
$UCSORGBOTTOM
 10
0.0
 20
0.0
 30
0.0
  9
$UCSORGLEFT
 10
0.0
 20
0.0
 30
0.0
  9
$UCSORGRIGHT
 10
0.0
 20
0.0
 30
0.0
  9
$UCSORGFRONT
 10
0.0
 20
0.0
 30
0.0
  9
$UCSORGBACK
 10
0.0
 20
0.0
 30
0.0
  9
$PUCSBASE
  2

  9
$PUCSNAME
  2

  9
$PUCSORG
 10
0.0
 20
0.0
 30
0.0
  9
$PUCSXDIR
 10
1.0
 20
0.0
 30
0.0
  9
$PUCSYDIR
 10
0.0
 20
1.0
 30
0.0
  9
$PUCSORTHOREF
  2

  9
$PUCSORTHOVIEW
 70
     0
  9
$PUCSORGTOP
 10
0.0
 20
0.0
 30
0.0
  9
$PUCSORGBOTTOM
 10
0.0
 20
0.0
 30
0.0
  9
$PUCSORGLEFT
 10
0.0
 20
0.0
 30
0.0
  9
$PUCSORGRIGHT
 10
0.0
 20
0.0
 30
0.0
  9
$PUCSORGFRONT
 10
0.0
 20
0.0
 30
0.0
  9
$PUCSORGBACK
 10
0.0
 20
0.0
 30
0.0
  9
$USERI1
 70
     0
  9
$USERI2
 70
     0
  9
$USERI3
 70
     0
  9
$USERI4
 70
     0
  9
$USERI5
 70
     0
  9
$USERR1
 40
0.0
  9
$USERR2
 40
0.0
  9
$USERR3
 40
0.0
  9
$USERR4
 40
0.0
  9
$USERR5
 40
0.0
  9
$WORLDVIEW
 70
     1
  9
$SHADEDGE
 70
     3
  9
$SHADEDIF
 70
    70
  9
$TILEMODE
 70
     1
  9
$MAXACTVP
 70
    64
  9
$PINSBASE
 10
0.0
 20
0.0
 30
0.0
  9
$PLIMCHECK
 70
     0
  9
$PEXTMIN
 10
1.000000000000000E+20
 20
1.000000000000000E+20
 30
1.000000000000000E+20
  9
$PEXTMAX
 10
-1.000000000000000E+20
 20
-1.000000000000000E+20
 30
-1.000000000000000E+20
  9
$PLIMMIN
 10
0.0
 20
0.0
  9
$PLIMMAX
 10
420.0
 20
297.0
  9
$UNITMODE
 70
     0
  9
$VISRETAIN
 70
     1
  9
$PLINEGEN
 70
     0
  9
$PSLTSCALE
 70
     1
  9
$TREEDEPTH
 70
  3020
  9
$CMLSTYLE
  2
Standard
  9
$CMLJUST
 70
     0
  9
$CMLSCALE
 40
20.0
  9
$PROXYGRAPHICS
 70
     1
  9
$MEASUREMENT
 70
     1
  9
$CELWEIGHT
370
    -1
  9
$ENDCAPS
280
     0
  9
$JOINSTYLE
280
     0
  9
$LWDISPLAY
290
     0
  9
$INSUNITS
 70
     4
  9
$HYPERLINKBASE
  1

  9
$STYLESHEET
  1

  9
$XEDIT
290
     1
  9
$CEPSNTYPE
380
     0
  9
$PSTYLEMODE
290
     1
  9
$FINGERPRINTGUID
  2
{5628EF18-179B-47D7-9C39-BDC2490BF28D}
  9
$VERSIONGUID
  2
{FAEB1C32-E019-11D5-929B-00C0DF256EC4}
  9
$EXTNAMES
290
     1
  9
$PSVPSCALE
 40
0.0
  9
$OLESTARTUP
290
     0
  0
ENDSEC
  0
SECTION
  2
CLASSES
  0
CLASS
  1
ACDBDICTIONARYWDFLT
  2
AcDbDictionaryWithDefault
  3
ObjectDBX Classes
 90
        0
280
     0
281
     0
  0
CLASS
  1
VISUALSTYLE
  2
AcDbVisualStyle
  3
ObjectDBX Classes
 90
     4095
280
     0
281
     0
  0
CLASS
  1
DICTIONARYVAR
  2
AcDbDictionaryVar
  3
ObjectDBX Classes
 90
        0
280
     0
281
     0
  0
CLASS
  1
ACDBPLACEHOLDER
  2
AcDbPlaceHolder
  3
ObjectDBX Classes
 90
        0
280
     0
281
     0
  0
CLASS
  1
LAYOUT
  2
AcDbLayout
  3
ObjectDBX Classes
 90
        0
280
     0
281
     0
  0
ENDSEC
  0
SECTION
  2
TABLES
  0
TABLE
  2
VPORT
  5
8
330
0
100
AcDbSymbolTable
 70
     1
  0
VPORT
  5
29
330
8
100
AcDbSymbolTableRecord
100
AcDbViewportTableRecord
  2
*Active
 70
     0
 10
0.0
 20
0.0
 11
1.0
 21
1.0
 12
0.0
 22
0.0
 13
0.0
 23
0.0
 14
10.0
 24
10.0
 15
10.0
 25
10.0
 16
0.0
 26
0.0
 36
1.0
 17
0.0
 27
0.0
 37
0.0
 40
3267.0
 41
1.414141414141414
 42
50.0
 43
0.0
 44
0.0
 50
0.0
 51
0.0
 71
     0
 72
 10000
 73
     1
 74
     3
 75
     0
 76
     0
 77
     0
 78
     0
281
     0
 65
     1
110
0.0
120
0.0
130
0.0
111
1.0
121
0.0
131
0.0
112
0.0
122
1.0
132
0.0
 79
     0
146
0.0
  0
ENDTAB
  0
TABLE
  2
LTYPE
  5
5
330
0
100
AcDbSymbolTable
 70
     3
  0
LTYPE
  5
14
330
5
100
AcDbSymbolTableRecord
100
AcDbLinetypeTableRecord
  2
ByBlock
 70
     0
  3

 72
    65
 73
     0
 40
0.0
  0
LTYPE
  5
15
330
5
100
AcDbSymbolTableRecord
100
AcDbLinetypeTableRecord
  2
ByLayer
 70
     0
  3

 72
    65
 73
     0
 40
0.0
  0
LTYPE
  5
16
330
5
100
AcDbSymbolTableRecord
100
AcDbLinetypeTableRecord
  2
Continuous
 70
     0
  3
Solid line
 72
    65
 73
     0
 40
0.0
  0
LTYPE
  5
3C
330
5
100
AcDbSymbolTableRecord
100
AcDbLinetypeTableRecord
  2
JWW_CENTER1
 70
     0
  3
-----  --  ----------  --  -----
 72
    65
 73
     4
 40
6.773333333333333
 49
4.233333333333333
 74
     0
 49
-0.8466666666666667
 74
     0
 49
0.8466666666666667
 74
     0
 49
-0.8466666666666667
 74
     0
  0
LTYPE
  5
3D
330
5
100
AcDbSymbolTableRecord
100
AcDbLinetypeTableRecord
  2
JWW_DASHED1
 70
     0
  3
-  --  --  --  --  --  --  --  -
 72
    65
 73
     2
 40
1.693333333333333
 49
0.8466666666666667
 74
     0
 49
-0.8466666666666667
 74
     0
  0
ENDTAB
  0
TABLE
  2
LAYER
  5
2
330
0
100
AcDbSymbolTable
 70
     4
  0
LAYER
  5
10
330
2
100
AcDbSymbolTableRecord
100
AcDbLayerTableRecord
  2
0
 70
     0
 62
     7
  6
Continuous
370
    -3
390
F
  0
LAYER
  5
3E
330
2
100
AcDbSymbolTableRecord
100
AcDbLayerTableRecord
  2
1-0
 70
     0
 62
     7
  6
Continuous
370
    -3
390
F
  0
LAYER
  5
3F
330
2
100
AcDbSymbolTableRecord
100
AcDbLayerTableRecord
  2
1-4
 70
     0
 62
     7
  6
Continuous
370
    -3
390
F
  0
LAYER
  5
40
330
2
100
AcDbSymbolTableRecord
100
AcDbLayerTableRecord
  2
F-5
 70
     0
 62
     7
  6
Continuous
370
    -3
390
F
  0
ENDTAB
  0
TABLE
  2
STYLE
  5
3
330
0
100
AcDbSymbolTable
 70
     2
  0
STYLE
  5
11
330
3
100
AcDbSymbolTableRecord
100
AcDbTextStyleTableRecord
  2
Standard
 70
     0
 40
0.0
 41
1.0
 50
0.0
 71
     0
 42
2.5
  3
txt
  4

1001
ACAD
1000

1071
        0
  0
STYLE
  5
3B
330
3
100
AcDbSymbolTableRecord
100
AcDbTextStyleTableRecord
  2
ＭＳ ゴシック
 70
     0
 40
1.0
 41
1.0
 50
0.0
 71
     0
 42
10.0
  3

  4

1001
ACAD
1000
MS Gothic
1071
    32817
  0
ENDTAB
  0
TABLE
  2
VIEW
  5
6
330
0
100
AcDbSymbolTable
 70
     0
  0
ENDTAB
  0
TABLE
  2
UCS
  5
7
330
0
100
AcDbSymbolTable
 70
     0
  0
ENDTAB
  0
TABLE
  2
APPID
  5
9
330
0
100
AcDbSymbolTable
 70
     1
  0
APPID
  5
12
330
9
100
AcDbSymbolTableRecord
100
AcDbRegAppTableRecord
  2
ACAD
 70
     0
  0
ENDTAB
  0
TABLE
  2
DIMSTYLE
  5
A
330
0
100
AcDbSymbolTable
 70
     1
100
AcDbDimStyleTable
  0
DIMSTYLE
105
27
330
A
100
AcDbSymbolTableRecord
100
AcDbDimStyleTableRecord
  2
ISO-25
 70
     0
 41
2.5
 42
0.625
 43
3.75
 44
1.25
 73
     0
 74
     0
 77
     1
 78
     8
140
2.5
141
2.5
143
0.03937007874016
147
0.625
171
     3
172
     1
271
     2
272
     2
274
     3
278
    44
283
     0
284
     8
340
11
  0
ENDTAB
  0
TABLE
  2
BLOCK_RECORD
  5
1
330
0
100
AcDbSymbolTable
 70
     1
  0
BLOCK_RECORD
  5
1F
330
1
100
AcDbSymbolTableRecord
100
AcDbBlockTableRecord
  2
*Model_Space
340
22
  0
BLOCK_RECORD
  5
1B
330
1
100
AcDbSymbolTableRecord
100
AcDbBlockTableRecord
  2
*Paper_Space
340
1E
  0
BLOCK_RECORD
  5
23
330
1
100
AcDbSymbolTableRecord
100
AcDbBlockTableRecord
  2
*Paper_Space0
340
26
  0
ENDTAB
  0
ENDSEC
  0
SECTION
  2
BLOCKS
  0
BLOCK
  5
20
330
1F
100
AcDbEntity
  8
0
100
AcDbBlockBegin
  2
*Model_Space
 70
     0
 10
0.0
 20
0.0
 30
0.0
  3
*Model_Space
  1

  0
ENDBLK
  5
21
330
1F
100
AcDbEntity
  8
0
100
AcDbBlockEnd
  0
BLOCK
  5
1C
330
1B
100
AcDbEntity
 67
     1
  8
0
100
AcDbBlockBegin
  2
*Paper_Space
 70
     0
 10
0.0
 20
0.0
 30
0.0
  3
*Paper_Space
  1

  0
ENDBLK
  5
1D
330
1B
100
AcDbEntity
 67
     1
  8
0
100
AcDbBlockEnd
  0
BLOCK
  5
24
330
23
100
AcDbEntity
  8
0
100
AcDbBlockBegin
  2
*Paper_Space0
 70
     0
 10
0.0
 20
0.0
 30
0.0
  3
*Paper_Space0
  1

  0
ENDBLK
  5
25
330
23
100
AcDbEntity
  8
0
100
AcDbBlockEnd
  0
ENDSEC
  0
SECTION
  2
ENTITIES
  0
LINE
  5
41
330
1F
100
AcDbEntity
  8
1-0
  6
Continuous
 62
     2
370
     9
100
AcDbLine
 10
-1565.765545819257
 20
424.9102948163008
 30
0.0
 11
-1565.765545819257
 21
858.2432432432436
 31
0.0
  0
LINE
  5
42
330
1F
100
AcDbEntity
  8
1-0
  6
Continuous
 62
     2
370
     9
100
AcDbLine
 10
-1565.765545819257
 20
858.2432432432436
 30
0.0
 11
267.5675675675677
 21
858.2432432432436
 31
0.0
  0
LINE
  5
43
330
1F
100
AcDbEntity
  8
1-0
  6
Continuous
 62
     2
370
     9
100
AcDbLine
 10
267.5675675675677
 20
858.2432432432436
 30
0.0
 11
267.5675675675677
 21
424.9102948163008
 31
0.0
  0
LINE
  5
44
330
1F
100
AcDbEntity
  8
1-0
  6
Continuous
 62
     2
370
     9
100
AcDbLine
 10
267.5675675675677
 20
424.9102948163008
 30
0.0
 11
-1565.765545819257
 21
424.9102948163008
 31
0.0
  0
LINE
  5
45
330
1F
100
AcDbEntity
  8
1-0
  6
Continuous
 62
     2
370
     9
100
AcDbLine
 10
-1565.765545819257
 20
624.9099648965373
 30
0.0
 11
267.5675675675677
 21
624.9099648965373
 31
0.0
  0
LINE
  5
46
330
1F
100
AcDbEntity
  8
1-0
  6
Continuous
 62
     2
370
     9
100
AcDbLine
 10
-1565.765545819257
 20
503.2435566670188
 30
0.0
 11
267.5675675675677
 21
503.2435566670188
 31
0.0
  0
LINE
  5
47
330
1F
100
AcDbEntity
  8
1-0
  6
JWW_CENTER1
 62
     2
370
     9
100
AcDbLine
 10
-649.0989891258446
 20
932.1696018528294
 30
0.0
 11
-649.0989891258446
 21
363.9760115339951
 31
0.0
  0
LINE
  5
48
330
1F
100
AcDbEntity
  8
1-0
  6
JWW_CENTER1
 62
     2
370
     9
100
AcDbLine
 10
-1233.154090675148
 20
724.9100473764781
 30
0.0
 11
-1057.530707281989
 21
724.9100473764781
 31
0.0
  0
LINE
  5
49
330
1F
100
AcDbEntity
  8
1-0
  6
JWW_CENTER1
 62
     2
370
     9
100
AcDbLine
 10
-251.7285733609586
 20
724.9100473764781
 30
0.0
 11
-45.11260986328125
 21
724.9100473764781
 31
0.0
  0
LINE
  5
4A
330
1F
100
AcDbEntity
  8
1-0
  6
JWW_CENTER1
 62
     2
370
     9
100
AcDbLine
 10
-149.0989478858739
 20
834.0272975612334
 30
0.0
 11
-149.0989478858739
 21
601.5843076963682
 31
0.0
  0
LINE
  5
4B
330
1F
100
AcDbEntity
  8
1-0
  6
JWW_CENTER1
 62
     2
370
     9
100
AcDbLine
 10
-1149.098906645904
 20
834.0272975612334
 30
0.0
 11
-1149.098906645904
 21
601.5843076963682
 31
0.0
  0
LINE
  5
4C
330
1F
100
AcDbEntity
  8
1-0
  6
Continuous
 62
     2
370
     9
100
AcDbLine
 10
1098.82903227935
 20
858.2432432432436
 30
0.0
 11
1348.829114759291
 21
858.2432432432436
 31
0.0
  0
LINE
  5
4D
330
1F
100
AcDbEntity
  8
1-0
  6
Continuous
 62
     2
370
     9
100
AcDbLine
 10
1348.829114759291
 20
858.2432432432436
 30
0.0
 11
1348.829114759291
 21
424.9102948163008
 31
0.0
  0
LINE
  5
4E
330
1F
100
AcDbEntity
  8
1-0
  6
JWW_DASHED1
 62
     2
370
     9
100
AcDbLine
 10
1165.495753932644
 20
658.2435731630068
 30
0.0
 11
1165.495753932644
 21
791.5767690297721
 31
0.0
  0
LINE
  5
4F
330
1F
100
AcDbEntity
  8
1-0
  6
JWW_DASHED1
 62
     2
370
     9
100
AcDbLine
 10
1065.495671452702
 20
658.2435731630068
 30
0.0
 11
1165.495753932644
 21
658.2435731630068
 31
0.0
  0
LINE
  5
50
330
1F
100
AcDbEntity
  8
1-0
  6
JWW_DASHED1
 62
     2
370
     9
100
AcDbLine
 10
1065.495671452702
 20
791.5767690297721
 30
0.0
 11
1165.495753932644
 21
791.5767690297721
 31
0.0
  0
LINE
  5
51
330
1F
100
AcDbEntity
  8
1-0
  6
JWW_DASHED1
 62
     2
370
     9
100
AcDbLine
 10
1165.495753932644
 20
694.9101958403717
 30
0.0
 11
1348.829114759291
 21
694.9101958403717
 31
0.0
  0
LINE
  5
52
330
1F
100
AcDbEntity
  8
1-0
  6
JWW_DASHED1
 62
     2
370
     9
100
AcDbLine
 10
1165.495753932644
 20
754.9101463524073
 30
0.0
 11
1348.829114759291
 21
754.9101463524073
 31
0.0
  0
LINE
  5
53
330
1F
100
AcDbEntity
  8
1-0
  6
JWW_CENTER1
 62
     2
370
     9
100
AcDbLine
 10
1012.560375316723
 20
724.9100473764781
 30
0.0
 11
1401.404880832982
 21
724.9100473764781
 31
0.0
  0
LINE
  5
54
330
1F
100
AcDbEntity
  8
1-0
  6
JWW_CENTER1
 62
     2
370
     9
100
AcDbLine
 10
-649.0989891258446
 20
-90.40540540540519
 30
0.0
 11
-649.0989891258446
 21
-487.7027027027026
 31
0.0
  0
LINE
  5
55
330
1F
100
AcDbEntity
  8
1-0
  6
Continuous
 62
     2
370
     9
100
AcDbLine
 10
234.2342067409209
 20
-155.2702702702703
 30
0.0
 11
-1532.43218499261
 21
-155.2702702702703
 31
0.0
  0
LINE
  5
56
330
1F
100
AcDbEntity
  8
1-0
  6
Continuous
 62
     2
370
     9
100
AcDbLine
 10
-1565.765545819257
 20
-188.6036310969172
 30
0.0
 11
-1565.765545819257
 21
-438.6035898569468
 31
0.0
  0
LINE
  5
57
330
1F
100
AcDbEntity
  8
1-0
  6
Continuous
 62
     2
370
     9
100
AcDbLine
 10
267.5675675675677
 20
-188.6036310969172
 30
0.0
 11
267.5675675675677
 21
-438.6035898569468
 31
0.0
  0
LINE
  5
58
330
1F
100
AcDbEntity
  8
1-0
  6
Continuous
 62
     2
370
     9
100
AcDbLine
 10
-1565.765545819257
 20
-438.6035898569468
 30
0.0
 11
267.5675675675677
 21
-438.6035898569468
 31
0.0
  0
LINE
  5
59
330
1F
100
AcDbEntity
  8
1-0
  6
Continuous
 62
     2
370
     9
100
AcDbLine
 10
-1565.765545819257
 20
-405.2702290302997
 30
0.0
 11
267.5675675675677
 21
-405.2702290302997
 31
0.0
  0
LINE
  5
5A
330
1F
100
AcDbEntity
  8
1-0
  6
Continuous
 62
     2
370
     9
100
AcDbLine
 10
267.5675675675677
 20
-255.2702290302997
 30
0.0
 11
-1565.765545819257
 21
-255.2702290302997
 31
0.0
  0
LINE
  5
5B
330
1F
100
AcDbEntity
  8
1-0
  6
JWW_DASHED1
 62
     2
370
     9
100
AcDbLine
 10
-215.7655458192568
 20
-255.2703527502111
 30
0.0
 11
-82.4322262325802
 21
-255.2703527502111
 31
0.0
  0
LINE
  5
5C
330
1F
100
AcDbEntity
  8
1-0
  6
JWW_DASHED1
 62
     2
370
     9
100
AcDbLine
 10
-215.7655458192568
 20
-155.2702702702703
 30
0.0
 11
-215.7655458192568
 21
-255.2703527502111
 31
0.0
  0
LINE
  5
5D
330
1F
100
AcDbEntity
  8
1-0
  6
JWW_DASHED1
 62
     2
370
     9
100
AcDbLine
 10
-82.4322262325802
 20
-155.2702702702703
 30
0.0
 11
-82.4322262325802
 21
-255.2703527502111
 31
0.0
  0
LINE
  5
5E
330
1F
100
AcDbEntity
  8
1-0
  6
JWW_DASHED1
 62
     2
370
     9
100
AcDbLine
 10
-179.0989231418916
 20
-255.2703527502111
 30
0.0
 11
-179.0989231418916
 21
-438.6037135768581
 31
0.0
  0
LINE
  5
5F
330
1F
100
AcDbEntity
  8
1-0
  6
JWW_DASHED1
 62
     2
370
     9
100
AcDbLine
 10
-119.098848909945
 20
-255.2703527502111
 30
0.0
 11
-119.098848909945
 21
-438.6037135768581
 31
0.0
  0
LINE
  5
60
330
1F
100
AcDbEntity
  8
1-0
  6
JWW_CENTER1
 62
     2
370
     9
100
AcDbLine
 10
-149.0989478858739
 20
-102.3349741342903
 30
0.0
 11
-149.0989478858739
 21
-491.179479650549
 31
0.0
  0
LINE
  5
61
330
1F
100
AcDbEntity
  8
1-0
  6
JWW_DASHED1
 62
     2
370
     9
100
AcDbLine
 10
-1082.432308712521
 20
-255.2703527502111
 30
0.0
 11
-1215.765628299197
 21
-255.2703527502111
 31
0.0
  0
LINE
  5
62
330
1F
100
AcDbEntity
  8
1-0
  6
JWW_DASHED1
 62
     2
370
     9
100
AcDbLine
 10
-1082.432308712521
 20
-155.2702702702703
 30
0.0
 11
-1082.432308712521
 21
-255.2703527502111
 31
0.0
  0
LINE
  5
63
330
1F
100
AcDbEntity
  8
1-0
  6
JWW_DASHED1
 62
     2
370
     9
100
AcDbLine
 10
-1215.765628299197
 20
-155.2702702702703
 30
0.0
 11
-1215.765628299197
 21
-255.2703527502111
 31
0.0
  0
LINE
  5
64
330
1F
100
AcDbEntity
  8
1-0
  6
JWW_DASHED1
 62
     2
370
     9
100
AcDbLine
 10
-1119.098931389886
 20
-255.2703527502111
 30
0.0
 11
-1119.098931389886
 21
-438.6037135768581
 31
0.0
  0
LINE
  5
65
330
1F
100
AcDbEntity
  8
1-0
  6
JWW_DASHED1
 62
     2
370
     9
100
AcDbLine
 10
-1179.099005621833
 20
-255.2703527502111
 30
0.0
 11
-1179.099005621833
 21
-438.6037135768581
 31
0.0
  0
LINE
  5
66
330
1F
100
AcDbEntity
  8
1-0
  6
JWW_CENTER1
 62
     2
370
     9
100
AcDbLine
 10
-1149.098906645904
 20
-102.3349741342903
 30
0.0
 11
-1149.098906645904
 21
-491.179479650549
 31
0.0
  0
LINE
  5
67
330
1F
100
AcDbEntity
  8
1-4
  6
Continuous
 62
     7
370
     9
100
AcDbLine
 10
-1565.765545819257
 20
84.1381506017737
 30
0.0
 11
267.5675675675677
 21
84.1381506017737
 31
0.0
  0
LINE
  5
68
330
1F
100
AcDbEntity
  8
1-4
  6
Continuous
 62
     7
370
     9
100
AcDbLine
 10
-1565.765545819257
 20
-173.6035816089526
 30
0.0
 11
-1565.765545819257
 21
87.13811101140209
 31
0.0
  0
LINE
  5
69
330
1F
100
AcDbEntity
  8
1-4
  6
Continuous
 62
     7
370
     9
100
AcDbLine
 10
267.5675675675677
 20
-173.6035816089526
 30
0.0
 11
267.5675675675677
 21
87.13811101140209
 31
0.0
  0
LINE
  5
6A
330
1F
100
AcDbEntity
  8
1-4
  6
Continuous
 62
     7
370
     9
100
AcDbLine
 10
-1565.765545819257
 20
-618.3558778505068
 30
0.0
 11
-1155.765554067251
 21
-618.3558778505068
 31
0.0
  0
LINE
  5
6B
330
1F
100
AcDbEntity
  8
1-4
  6
Continuous
 62
     7
370
     9
100
AcDbLine
 10
-1565.765545819257
 20
-453.603515625
 30
0.0
 11
-1565.765545819257
 21
-621.3558382601352
 31
0.0
  0
LINE
  5
6C
330
1F
100
AcDbEntity
  8
1-4
  6
Continuous
 62
     7
370
     9
100
AcDbLine
 10
-1149.098906645904
 20
-506.1795291385134
 30
0.0
 11
-1149.098906645904
 21
-621.3558382601352
 31
0.0
  0
LINE
  5
6D
330
1F
100
AcDbEntity
  8
1-4
  6
Continuous
 62
     7
370
     9
100
AcDbLine
 10
-1155.765554067251
 20
-618.3558778505068
 30
0.0
 11
-142.4323004645268
 21
-618.3558778505068
 31
0.0
  0
LINE
  5
6E
330
1F
100
AcDbEntity
  8
1-4
  6
Continuous
 62
     7
370
     9
100
AcDbLine
 10
-149.0989478858739
 20
-506.1795291385134
 30
0.0
 11
-149.0989478858739
 21
-621.3558382601352
 31
0.0
  0
LINE
  5
6F
330
1F
100
AcDbEntity
  8
1-4
  6
Continuous
 62
     7
370
     9
100
AcDbLine
 10
-142.4323004645268
 20
-618.3558778505068
 30
0.0
 11
267.5675675675677
 21
-618.3558778505068
 31
0.0
  0
LINE
  5
70
330
1F
100
AcDbEntity
  8
1-4
  6
Continuous
 62
     7
370
     9
100
AcDbLine
 10
267.5675675675677
 20
-453.603515625
 30
0.0
 11
267.5675675675677
 21
-621.3558382601352
 31
0.0
  0
LINE
  5
71
330
1F
100
AcDbEntity
  8
1-4
  6
Continuous
 62
     7
370
     9
100
AcDbLine
 10
1314.277855125634
 20
424.9102948163008
 30
0.0
 11
907.9287142366979
 21
424.9102948163008
 31
0.0
  0
LINE
  5
72
330
1F
100
AcDbEntity
  8
1-4
  6
Continuous
 62
     7
370
     9
100
AcDbLine
 10
1150.495704444679
 20
503.2433092271961
 30
0.0
 11
907.9287142366979
 21
503.2433092271961
 31
0.0
  0
LINE
  5
73
330
1F
100
AcDbEntity
  8
1-4
  6
Continuous
 62
     7
370
     9
100
AcDbLine
 10
910.928674646326
 20
503.2433092271961
 30
0.0
 11
910.928674646326
 21
624.9099648965373
 31
0.0
  0
LINE
  5
74
330
1F
100
AcDbEntity
  8
1-4
  6
Continuous
 62
     7
370
     9
100
AcDbLine
 10
1050.495621964739
 20
624.9099648965373
 30
0.0
 11
907.9287142366979
 21
624.9099648965373
 31
0.0
  0
LINE
  5
75
330
1F
100
AcDbEntity
  8
1-4
  6
Continuous
 62
     7
370
     9
100
AcDbLine
 10
910.928674646326
 20
624.9099648965373
 30
0.0
 11
910.928674646326
 21
858.2432432432436
 31
0.0
  0
LINE
  5
76
330
1F
100
AcDbEntity
  8
1-4
  6
Continuous
 62
     7
370
     9
100
AcDbLine
 10
1083.828982791385
 20
858.2432432432436
 30
0.0
 11
907.9287142366979
 21
858.2432432432436
 31
0.0
  0
LINE
  5
77
330
1F
100
AcDbEntity
  8
1-4
  6
Continuous
 62
     7
370
     9
100
AcDbLine
 10
812.2853047138938
 20
424.9102948163008
 30
0.0
 11
812.2853047138938
 21
858.2432432432436
 31
0.0
  0
LINE
  5
78
330
1F
100
AcDbEntity
  8
1-4
  6
Continuous
 62
     7
370
     9
100
AcDbLine
 10
1299.277805637669
 20
424.9102948163008
 30
0.0
 11
809.2853443042651
 21
424.9102948163008
 31
0.0
  0
LINE
  5
79
330
1F
100
AcDbEntity
  8
1-4
  6
Continuous
 62
     7
370
     9
100
AcDbLine
 10
1083.828982791385
 20
858.2432432432436
 30
0.0
 11
809.2853443042651
 21
858.2432432432436
 31
0.0
  0
LINE
  5
7A
330
1F
100
AcDbEntity
  8
1-4
  6
Continuous
 62
     7
370
     9
100
AcDbLine
 10
1065.495671452702
 20
981.7825234902873
 30
0.0
 11
1165.495753932644
 21
981.7825234902873
 31
0.0
  0
LINE
  5
7B
330
1F
100
AcDbEntity
  8
1-4
  6
Continuous
 62
     7
370
     9
100
AcDbLine
 10
1065.495671452702
 20
839.909931904561
 30
0.0
 11
1065.495671452702
 21
984.7824838999156
 31
0.0
  0
LINE
  5
7C
330
1F
100
AcDbEntity
  8
1-4
  6
Continuous
 62
     7
370
     9
100
AcDbLine
 10
1165.495753932644
 20
806.5768185177367
 30
0.0
 11
1165.495753932644
 21
984.7824838999156
 31
0.0
  0
LINE
  5
7D
330
1F
100
AcDbEntity
  8
1-4
  6
Continuous
 62
     7
370
     9
100
AcDbLine
 10
1065.495671452702
 20
1047.904135214316
 30
0.0
 11
1348.829114759291
 21
1047.904135214316
 31
0.0
  0
LINE
  5
7E
330
1F
100
AcDbEntity
  8
1-4
  6
Continuous
 62
     7
370
     9
100
AcDbLine
 10
1065.495671452702
 20
839.909931904561
 30
0.0
 11
1065.495671452702
 21
1050.904095623944
 31
0.0
  0
LINE
  5
7F
330
1F
100
AcDbEntity
  8
1-4
  6
Continuous
 62
     7
370
     9
100
AcDbLine
 10
1348.829114759291
 20
873.2432927312078
 30
0.0
 11
1348.829114759291
 21
1050.904095623944
 31
0.0
  0
LINE
  5
80
330
1F
100
AcDbEntity
  8
1-4
  6
Continuous
 62
     7
370
     9
100
AcDbLine
 10
1559.990300358953
 20
424.9102948163008
 30
0.0
 11
1559.990300358953
 21
724.9100473764781
 31
0.0
  0
LINE
  5
81
330
1F
100
AcDbEntity
  8
1-4
  6
Continuous
 62
     7
370
     9
100
AcDbLine
 10
1363.829164247255
 20
424.9102948163008
 30
0.0
 11
1562.990260768581
 21
424.9102948163008
 31
0.0
  0
LINE
  5
82
330
1F
100
AcDbEntity
  8
1-4
  6
Continuous
 62
     7
370
     9
100
AcDbLine
 10
1559.990300358953
 20
724.9100473764781
 30
0.0
 11
1559.990300358953
 21
858.2432432432436
 31
0.0
  0
LINE
  5
83
330
1F
100
AcDbEntity
  8
1-4
  6
Continuous
 62
     7
370
     9
100
AcDbLine
 10
1363.829164247255
 20
858.2432432432436
 30
0.0
 11
1562.990260768581
 21
858.2432432432436
 31
0.0
  0
LINE
  5
84
330
1F
100
AcDbEntity
  8
1-4
  6
Continuous
 62
     7
370
     9
100
AcDbLine
 10
985.8111407305745
 20
658.2435731630068
 30
0.0
 11
985.8111407305745
 21
791.5767690297721
 31
0.0
  0
LINE
  5
85
330
1F
100
AcDbEntity
  8
1-4
  6
Continuous
 62
     7
370
     9
100
AcDbLine
 10
1050.495621964739
 20
658.2435731630068
 30
0.0
 11
982.8111803209464
 21
658.2435731630068
 31
0.0
  0
LINE
  5
86
330
1F
100
AcDbEntity
  8
1-4
  6
Continuous
 62
     7
370
     9
100
AcDbLine
 10
1050.495621964739
 20
791.5767690297721
 30
0.0
 11
982.8111803209464
 21
791.5767690297721
 31
0.0
  0
LINE
  5
87
330
1F
100
AcDbEntity
  8
1-4
  6
Continuous
 62
     7
370
     9
100
AcDbLine
 10
1363.829164247255
 20
694.9101958403717
 30
0.0
 11
1473.106260557433
 21
694.9101958403717
 31
0.0
  0
LINE
  5
88
330
1F
100
AcDbEntity
  8
1-4
  6
Continuous
 62
     7
370
     9
100
AcDbLine
 10
1363.829164247255
 20
754.9101463524073
 30
0.0
 11
1473.106260557433
 21
754.9101463524073
 31
0.0
  0
LINE
  5
89
330
1F
100
AcDbEntity
  8
1-4
  6
Continuous
 62
     7
370
     9
100
AcDbLine
 10
1488.465592667864
 20
724.9100473764781
 30
0.0
 11
1562.990260768581
 21
724.9100473764781
 31
0.0
  0
LINE
  5
8A
330
1F
100
AcDbEntity
  8
1-4
  6
Continuous
 62
     7
370
     9
100
AcDbLine
 10
1470.106300147804
 20
596.1933362806167
 30
0.0
 11
1470.106300147804
 21
754.9101463524073
 31
0.0
  0
LINE
  5
8B
330
1F
100
AcDbEntity
  8
1-4
  6
Continuous
 62
     7
370
     9
100
AcDbLine
 10
145.9459459459461
 20
-155.2702702702703
 30
0.0
 11
324.3243243243245
 21
-25.54054054054035
 31
0.0
  0
LINE
  5
8C
330
1F
100
AcDbEntity
  8
1-4
  6
Continuous
 62
     7
370
     9
100
AcDbLine
 10
145.9459459459461
 20
-155.2702702702703
 30
0.0
 11
164.0721501530828
 21
-138.0527888117609
 31
0.0
  0
LINE
  5
8D
330
1F
100
AcDbEntity
  8
1-4
  6
Continuous
 62
     7
370
     9
100
AcDbLine
 10
145.9459459459461
 20
-155.2702702702703
 30
0.0
 11
167.9106841216216
 21
-143.3308039484797
 31
0.0
  0
LINE
  5
8E
330
1F
100
AcDbEntity
  8
1-4
  6
Continuous
 62
     7
370
     9
100
AcDbLine
 10
324.3243243243245
 20
-25.54054054054035
 30
0.0
 11
991.6190482474661
 21
-25.54054054054035
 31
0.0
  0
LINE
  5
8F
330
1F
100
AcDbEntity
  8
1-0
  6
Continuous
 62
     2
370
     9
100
AcDbLine
 10
1288.955853436444
 20
435.3435949377112
 30
0.0
 11
1178.688255516259
 21
496.4121143237966
 31
0.0
  0
LINE
  5
90
330
1F
100
AcDbEntity
  8
1-0
  6
Continuous
 62
     2
370
     9
100
AcDbLine
 10
1335.996390677788
 20
424.9102948163008
 30
0.0
 11
1348.829114759291
 21
424.9102948163008
 31
0.0
  0
LINE
  5
91
330
1F
100
AcDbEntity
  8
1-0
  6
Continuous
 62
     2
370
     9
100
AcDbLine
 10
1065.495671452702
 20
654.7615999788852
 30
0.0
 11
1065.495671452702
 21
824.9098824165964
 31
0.0
  0
LINE
  5
92
330
1F
100
AcDbEntity
  8
1-0
  6
Continuous
 62
     2
370
     9
100
AcDbLine
 10
1084.450799065667
 20
601.8478311074748
 30
0.0
 11
1154.683376002956
 21
516.3983236776818
 31
0.0
  0
CIRCLE
  5
93
330
1F
100
AcDbEntity
  8
1-0
  6
Continuous
 62
     2
370
     9
100
AcDbCircle
 10
-149.0989478858739
 20
724.9100473764781
 30
0.0
 40
29.99999652037749
  0
CIRCLE
  5
94
330
1F
100
AcDbEntity
  8
1-0
  6
Continuous
 62
     2
370
     9
100
AcDbCircle
 10
-149.0989478858739
 20
724.9100473764781
 30
0.0
 40
66.66665979333827
  0
CIRCLE
  5
95
330
1F
100
AcDbEntity
  8
1-0
  6
Continuous
 62
     2
370
     9
100
AcDbCircle
 10
-1149.098906645904
 20
724.9100473764781
 30
0.0
 40
66.66665979333827
  0
CIRCLE
  5
96
330
1F
100
AcDbEntity
  8
1-0
  6
Continuous
 62
     2
370
     9
100
AcDbCircle
 10
-1149.098906645904
 20
724.9100473764781
 30
0.0
 40
29.99999652037749
  0
ARC
  5
97
330
1F
100
AcDbEntity
  8
1-0
  6
Continuous
 62
     2
370
     9
100
AcDbCircle
 10
1098.82903227935
 20
824.9098824165964
 30
0.0
 40
33.33333376291636
100
AcDbArc
 50
90.0
 51
180.0
  0
ARC
  5
98
330
1F
100
AcDbEntity
  8
1-0
  6
Continuous
 62
     2
370
     9
100
AcDbCircle
 10
-1532.43218499261
 20
-188.6036310969172
 30
0.0
 40
33.33333376291636
100
AcDbArc
 50
90.0
 51
180.0
  0
ARC
  5
99
330
1F
100
AcDbEntity
  8
1-0
  6
Continuous
 62
     2
370
     9
100
AcDbCircle
 10
234.2342067409209
 20
-188.6036310969172
 30
0.0
 40
33.33333376291636
100
AcDbArc
 50
0.0
 51
90.0
  0
ARC
  5
9A
330
1F
100
AcDbEntity
  8
1-0
  6
Continuous
 62
     2
370
     9
100
AcDbCircle
 10
1219.06177417652
 20
569.3122162690033
 30
0.0
 40
83.33333247416729
100
AcDbArc
 50
219.417465209961
 51
241.0214538574218
  0
ARC
  5
9B
330
1F
100
AcDbEntity
  8
1-0
  6
Continuous
 62
     2
370
     9
100
AcDbCircle
 10
1329.329619536529
 20
508.2435731630068
 30
0.0
 40
83.33333247416729
100
AcDbArc
 50
241.0212554931641
 51
270.0000000000001
  0
ARC
  5
9C
330
1F
100
AcDbEntity
  8
1-0
  6
Continuous
 62
     2
370
     9
100
AcDbCircle
 10
1148.828949799409
 20
654.7615999788852
 30
0.0
 40
83.33333247416729
100
AcDbArc
 50
180.0
 51
219.4175109863282
  0
TEXT
  5
9D
330
1F
100
AcDbEntity
  8
1-4
  6
Continuous
 62
     2
370
     9
100
AcDbText
 10
899.2887538270693
 20
720.3264803499791
 30
0.0
 40
30.48
  1
70
 50
90.0
 41
1.0625
  7
ＭＳ ゴシック
100
AcDbText
  0
TEXT
  5
9E
330
1F
100
AcDbEntity
  8
1-4
  6
Continuous
 62
     2
370
     9
100
AcDbText
 10
800.645383894637
 20
609.076769029772
 30
0.0
 40
30.48
  1
130
 50
90.0
 41
1.083333333333333
  7
ＭＳ ゴシック
100
AcDbText
  0
TEXT
  5
9F
330
1F
100
AcDbEntity
  8
1-4
  6
Continuous
 62
     2
370
     9
100
AcDbText
 10
1094.245712692673
 20
993.422444309544
 30
0.0
 40
30.48
  1
30
 41
1.0625
  7
ＭＳ ゴシック
100
AcDbText
  0
TEXT
  5
A0
330
1F
100
AcDbEntity
  8
1-4
  6
Continuous
 62
     2
370
     9
100
AcDbText
 10
1548.350379539696
 20
553.6601710963895
 30
0.0
 40
30.48
  1
90
 50
90.0
 41
1.0625
  7
ＭＳ ゴシック
100
AcDbText
  0
TEXT
  5
A1
330
1F
100
AcDbEntity
  8
1-4
  6
Continuous
 62
     2
370
     9
100
AcDbText
 10
1548.350379539696
 20
770.3266453098609
 30
0.0
 40
30.48
  1
40
 50
90.0
 41
1.0625
  7
ＭＳ ゴシック
100
AcDbText
  0
TEXT
  5
A2
330
1F
100
AcDbEntity
  8
1-4
  6
Continuous
 62
     2
370
     9
100
AcDbText
 10
974.1712199113177
 20
681.1604185362121
 30
0.0
 40
30.48
  1
φ40
 50
90.0
 41
1.09375
  7
ＭＳ ゴシック
100
AcDbText
  0
TEXT
  5
A3
330
1F
100
AcDbEntity
  8
1-4
  6
Continuous
 62
     2
370
     9
100
AcDbText
 10
1459.806760847762
 20
601.699573413746
 30
0.0
 40
30.48
  1
φ18
 50
90.0
 41
1.09375
  7
ＭＳ ゴシック
100
AcDbText
  0
TEXT
  5
A4
330
1F
100
AcDbEntity
  8
1-4
  6
Continuous
 62
     2
370
     9
100
AcDbText
 10
323.1853258287586
 20
-8.685330579602848
 30
0.0
 40
30.48
  1
本体：リサイクルゴムチップ
 41
1.115384615384615
  7
ＭＳ ゴシック
100
AcDbText
  0
TEXT
  5
A5
330
1F
100
AcDbEntity
  8
1-4
  6
Continuous
 62
     2
370
     9
100
AcDbText
 10
323.1853505727409
 20
-75.03730877850494
 30
0.0
 40
30.48
  1
表面処理：ウレタンコ－ティング
 41
1.116666666666666
  7
ＭＳ ゴシック
100
AcDbText
  0
TEXT
  5
A6
330
1F
100
AcDbEntity
  8
1-4
  6
Continuous
 62
     2
370
     9
100
AcDbText
 10
1185.912516825908
 20
1059.544056033573
 30
0.0
 40
30.48
  1
85
 41
1.0625
  7
ＭＳ ゴシック
100
AcDbText
  0
TEXT
  5
A7
330
1F
100
AcDbEntity
  8
1-4
  6
Continuous
 62
     2
370
     9
100
AcDbText
 10
323.1853753167232
 20
-138.9317146589948
 30
0.0
 40
30.48
  1
カラ－：グレ－
 41
1.107142857142857
  7
ＭＳ ゴシック
100
AcDbText
  0
TEXT
  5
A8
330
1F
100
AcDbEntity
  8
F-5
  6
Continuous
 62
     7
370
     9
100
AcDbText
 10
-846.4051117768157
 20
-1350.852401584935
 30
0.0
 40
22.86
  1
リサイクルゴムチップタイヤ止めＴＳＰ－Ｇ　呼称５５８５Ｈ（グレー）
 41
1.161616161616162
  7
ＭＳ ゴシック
100
AcDbText
  0
TEXT
  5
A9
330
1F
100
AcDbEntity
  8
1-4
  6
Continuous
 62
     2
370
     9
100
AcDbText
 10
-1389.932195302603
 20
-606.7158951712943
 30
0.0
 40
30.48
  1
125
 41
1.083333333333333
  7
ＭＳ ゴシック
100
AcDbText
  0
TEXT
  5
AA
330
1F
100
AcDbEntity
  8
1-4
  6
Continuous
 62
     2
370
     9
100
AcDbText
 10
-681.5989891258446
 20
95.77819514094195
 30
0.0
 40
30.48
  1
550
 41
1.083333333333333
  7
ＭＳ ゴシック
100
AcDbText
  0
TEXT
  5
AB
330
1F
100
AcDbEntity
  8
1-4
  6
Continuous
 62
     2
370
     9
100
AcDbText
 10
-681.5989891258446
 20
-606.7158951712943
 30
0.0
 40
30.48
  1
300
 41
1.083333333333333
  7
ＭＳ ゴシック
100
AcDbText
  0
TEXT
  5
AC
330
1F
100
AcDbEntity
  8
1-4
  6
Continuous
 62
     2
370
     9
100
AcDbText
 10
26.73437170080248
 20
-606.7158951712943
 30
0.0
 40
30.48
  1
125
 41
1.083333333333333
  7
ＭＳ ゴシック
100
AcDbText
  0
TEXT
  5
AD
330
1F
100
AcDbEntity
  8
1-4
  6
Continuous
 62
     2
370
     9
100
AcDbText
 10
898.1948223711995
 20
505.5640803156673
 30
0.0
 40
30.48
  1
(36.5)
 50
90.0
 41
1.104166666666667
  7
ＭＳ ゴシック
100
AcDbText
  0
LWPOLYLINE
  5
AE
330
1F
100
AcDbEntity
  8
1-4
  6
Continuous
 62
     7
370
     9
100
AcDbPolyline
 90
        4
 70
     1
 43
1.0
 10
-1565.265545819257
 20
84.1381506017737
 42
0.4142135623731
 10
-1565.765545819257
 20
84.6381506017737
 42
0.4142135623731
 10
-1566.265545819257
 20
84.1381506017737
 42
0.4142135623731
 10
-1565.765545819257
 20
83.6381506017737
 42
0.4142135623731
  0
LWPOLYLINE
  5
AF
330
1F
100
AcDbEntity
  8
1-4
  6
Continuous
 62
     7
370
     9
100
AcDbPolyline
 90
        4
 70
     1
 43
1.0
 10
268.0675675675677
 20
84.1381506017737
 42
0.4142135623731
 10
267.5675675675677
 20
84.6381506017737
 42
0.4142135623731
 10
267.0675675675677
 20
84.1381506017737
 42
0.4142135623731
 10
267.5675675675677
 20
83.6381506017737
 42
0.4142135623731
  0
LWPOLYLINE
  5
B0
330
1F
100
AcDbEntity
  8
1-4
  6
Continuous
 62
     7
370
     9
100
AcDbPolyline
 90
        4
 70
     1
 43
1.0
 10
-1565.265545819257
 20
-618.3558778505068
 42
0.4142135623731
 10
-1565.765545819257
 20
-617.8558778505068
 42
0.4142135623731
 10
-1566.265545819257
 20
-618.3558778505068
 42
0.4142135623731
 10
-1565.765545819257
 20
-618.8558778505068
 42
0.4142135623731
  0
LWPOLYLINE
  5
B1
330
1F
100
AcDbEntity
  8
1-4
  6
Continuous
 62
     7
370
     9
100
AcDbPolyline
 90
        4
 70
     1
 43
1.0
 10
-1148.598906645904
 20
-618.3558778505068
 42
0.4142135623731
 10
-1149.098906645904
 20
-617.8558778505068
 42
0.4142135623731
 10
-1149.598906645904
 20
-618.3558778505068
 42
0.4142135623731
 10
-1149.098906645904
 20
-618.8558778505068
 42
0.4142135623731
  0
LWPOLYLINE
  5
B2
330
1F
100
AcDbEntity
  8
1-4
  6
Continuous
 62
     7
370
     9
100
AcDbPolyline
 90
        4
 70
     1
 43
1.0
 10
-148.5989478858739
 20
-618.3558778505068
 42
0.4142135623731
 10
-149.0989478858739
 20
-617.8558778505068
 42
0.4142135623731
 10
-149.5989478858739
 20
-618.3558778505068
 42
0.4142135623731
 10
-149.0989478858739
 20
-618.8558778505068
 42
0.4142135623731
  0
LWPOLYLINE
  5
B3
330
1F
100
AcDbEntity
  8
1-4
  6
Continuous
 62
     7
370
     9
100
AcDbPolyline
 90
        4
 70
     1
 43
1.0
 10
268.0675675675677
 20
-618.3558778505068
 42
0.4142135623731
 10
267.5675675675677
 20
-617.8558778505068
 42
0.4142135623731
 10
267.0675675675677
 20
-618.3558778505068
 42
0.4142135623731
 10
267.5675675675677
 20
-618.8558778505068
 42
0.4142135623731
  0
LWPOLYLINE
  5
B4
330
1F
100
AcDbEntity
  8
1-4
  6
Continuous
 62
     7
370
     9
100
AcDbPolyline
 90
        4
 70
     1
 43
1.0
 10
911.428674646326
 20
503.2433092271961
 42
0.4142135623731
 10
910.928674646326
 20
503.7433092271961
 42
0.4142135623731
 10
910.428674646326
 20
503.2433092271961
 42
0.4142135623731
 10
910.928674646326
 20
502.7433092271962
 42
0.4142135623731
  0
LWPOLYLINE
  5
B5
330
1F
100
AcDbEntity
  8
1-4
  6
Continuous
 62
     7
370
     9
100
AcDbPolyline
 90
        4
 70
     1
 43
1.0
 10
911.428674646326
 20
624.9099648965373
 42
0.4142135623731
 10
910.928674646326
 20
625.4099648965372
 42
0.4142135623731
 10
910.428674646326
 20
624.9099648965373
 42
0.4142135623731
 10
910.928674646326
 20
624.4099648965373
 42
0.4142135623731
  0
LWPOLYLINE
  5
B6
330
1F
100
AcDbEntity
  8
1-4
  6
Continuous
 62
     7
370
     9
100
AcDbPolyline
 90
        4
 70
     1
 43
1.0
 10
911.428674646326
 20
858.2432432432436
 42
0.4142135623731
 10
910.928674646326
 20
858.7432432432435
 42
0.4142135623731
 10
910.428674646326
 20
858.2432432432436
 42
0.4142135623731
 10
910.928674646326
 20
857.7432432432436
 42
0.4142135623731
  0
LWPOLYLINE
  5
B7
330
1F
100
AcDbEntity
  8
1-4
  6
Continuous
 62
     7
370
     9
100
AcDbPolyline
 90
        4
 70
     1
 43
1.0
 10
812.7853047138938
 20
424.9102948163008
 42
0.4142135623731
 10
812.2853047138938
 20
425.4102948163007
 42
0.4142135623731
 10
811.7853047138938
 20
424.9102948163008
 42
0.4142135623731
 10
812.2853047138938
 20
424.4102948163008
 42
0.4142135623731
  0
LWPOLYLINE
  5
B8
330
1F
100
AcDbEntity
  8
1-4
  6
Continuous
 62
     7
370
     9
100
AcDbPolyline
 90
        4
 70
     1
 43
1.0
 10
812.7853047138938
 20
858.2432432432436
 42
0.4142135623731
 10
812.2853047138938
 20
858.7432432432435
 42
0.4142135623731
 10
811.7853047138938
 20
858.2432432432436
 42
0.4142135623731
 10
812.2853047138938
 20
857.7432432432436
 42
0.4142135623731
  0
LWPOLYLINE
  5
B9
330
1F
100
AcDbEntity
  8
1-4
  6
Continuous
 62
     7
370
     9
100
AcDbPolyline
 90
        4
 70
     1
 43
1.0
 10
1065.995671452702
 20
981.7825234902873
 42
0.4142135623731
 10
1065.495671452702
 20
982.2825234902872
 42
0.4142135623731
 10
1064.995671452703
 20
981.7825234902873
 42
0.4142135623731
 10
1065.495671452702
 20
981.2825234902873
 42
0.4142135623731
  0
LWPOLYLINE
  5
BA
330
1F
100
AcDbEntity
  8
1-4
  6
Continuous
 62
     7
370
     9
100
AcDbPolyline
 90
        4
 70
     1
 43
1.0
 10
1165.995753932644
 20
981.7825234902873
 42
0.4142135623731
 10
1165.495753932644
 20
982.2825234902872
 42
0.4142135623731
 10
1164.995753932644
 20
981.7825234902873
 42
0.4142135623731
 10
1165.495753932644
 20
981.2825234902873
 42
0.4142135623731
  0
LWPOLYLINE
  5
BB
330
1F
100
AcDbEntity
  8
1-4
  6
Continuous
 62
     7
370
     9
100
AcDbPolyline
 90
        4
 70
     1
 43
1.0
 10
1065.995671452702
 20
1047.904135214316
 42
0.4142135623731
 10
1065.495671452702
 20
1048.404135214316
 42
0.4142135623731
 10
1064.995671452703
 20
1047.904135214316
 42
0.4142135623731
 10
1065.495671452702
 20
1047.404135214316
 42
0.4142135623731
  0
LWPOLYLINE
  5
BC
330
1F
100
AcDbEntity
  8
1-4
  6
Continuous
 62
     7
370
     9
100
AcDbPolyline
 90
        4
 70
     1
 43
1.0
 10
1349.329114759291
 20
1047.904135214316
 42
0.4142135623731
 10
1348.829114759291
 20
1048.404135214316
 42
0.4142135623731
 10
1348.32911475929
 20
1047.904135214316
 42
0.4142135623731
 10
1348.829114759291
 20
1047.404135214316
 42
0.4142135623731
  0
LWPOLYLINE
  5
BD
330
1F
100
AcDbEntity
  8
1-4
  6
Continuous
 62
     7
370
     9
100
AcDbPolyline
 90
        4
 70
     1
 43
1.0
 10
1560.490300358953
 20
424.9102948163008
 42
0.4142135623731
 10
1559.990300358953
 20
425.4102948163007
 42
0.4142135623731
 10
1559.490300358953
 20
424.9102948163008
 42
0.4142135623731
 10
1559.990300358953
 20
424.4102948163008
 42
0.4142135623731
  0
LWPOLYLINE
  5
BE
330
1F
100
AcDbEntity
  8
1-4
  6
Continuous
 62
     7
370
     9
100
AcDbPolyline
 90
        4
 70
     1
 43
1.0
 10
1560.490300358953
 20
724.9100473764781
 42
0.4142135623731
 10
1559.990300358953
 20
725.4100473764781
 42
0.4142135623731
 10
1559.490300358953
 20
724.9100473764781
 42
0.4142135623731
 10
1559.990300358953
 20
724.4100473764781
 42
0.4142135623731
  0
LWPOLYLINE
  5
BF
330
1F
100
AcDbEntity
  8
1-4
  6
Continuous
 62
     7
370
     9
100
AcDbPolyline
 90
        4
 70
     1
 43
1.0
 10
1560.490300358953
 20
858.2432432432436
 42
0.4142135623731
 10
1559.990300358953
 20
858.7432432432435
 42
0.4142135623731
 10
1559.490300358953
 20
858.2432432432436
 42
0.4142135623731
 10
1559.990300358953
 20
857.7432432432436
 42
0.4142135623731
  0
LWPOLYLINE
  5
C0
330
1F
100
AcDbEntity
  8
1-4
  6
Continuous
 62
     7
370
     9
100
AcDbPolyline
 90
        4
 70
     1
 43
1.0
 10
986.3111407305745
 20
658.2435731630068
 42
0.4142135623731
 10
985.8111407305745
 20
658.7435731630068
 42
0.4142135623731
 10
985.3111407305745
 20
658.2435731630068
 42
0.4142135623731
 10
985.8111407305745
 20
657.7435731630068
 42
0.4142135623731
  0
LWPOLYLINE
  5
C1
330
1F
100
AcDbEntity
  8
1-4
  6
Continuous
 62
     7
370
     9
100
AcDbPolyline
 90
        4
 70
     1
 43
1.0
 10
986.3111407305745
 20
791.5767690297721
 42
0.4142135623731
 10
985.8111407305745
 20
792.0767690297721
 42
0.4142135623731
 10
985.3111407305745
 20
791.5767690297721
 42
0.4142135623731
 10
985.8111407305745
 20
791.0767690297722
 42
0.4142135623731
  0
LWPOLYLINE
  5
C2
330
1F
100
AcDbEntity
  8
1-4
  6
Continuous
 62
     7
370
     9
100
AcDbPolyline
 90
        4
 70
     1
 43
1.0
 10
1470.606300147804
 20
694.9101958403717
 42
0.4142135623731
 10
1470.106300147804
 20
695.4101958403716
 42
0.4142135623731
 10
1469.606300147804
 20
694.9101958403717
 42
0.4142135623731
 10
1470.106300147804
 20
694.4101958403717
 42
0.4142135623731
  0
LWPOLYLINE
  5
C3
330
1F
100
AcDbEntity
  8
1-4
  6
Continuous
 62
     7
370
     9
100
AcDbPolyline
 90
        4
 70
     1
 43
1.0
 10
1470.606300147804
 20
754.9101463524073
 42
0.4142135623731
 10
1470.106300147804
 20
755.4101463524073
 42
0.4142135623731
 10
1469.606300147804
 20
754.9101463524073
 42
0.4142135623731
 10
1470.106300147804
 20
754.4101463524073
 42
0.4142135623731
  0
ENDSEC
  0
SECTION
  2
OBJECTS
  0
DICTIONARY
  5
C
330
0
100
AcDbDictionary
281
     1
  3
ACAD_GROUP
350
D
  3
ACAD_LAYOUT
350
1A
  3
ACAD_MLEADERSTYLE
350
C5
  3
ACAD_MLINESTYLE
350
17
  3
ACAD_PLOTSETTINGS
350
19
  3
ACAD_PLOTSTYLENAME
350
E
  3
ACAD_TABLESTYLE
350
C4
  3
ACAD_VISUALSTYLE
350
2A
  3
AcDbVariableDictionary
350
C6
  0
DICTIONARY
  5
D
102
{ACAD_REACTORS
330
C
102
}
330
C
100
AcDbDictionary
281
     1
  0
DICTIONARY
  5
1A
102
{ACAD_REACTORS
330
C
102
}
330
C
100
AcDbDictionary
281
     1
  3
Layout1
350
1E
  3
Layout2
350
26
  3
Model
350
22
  0
DICTIONARY
  5
C5
102
{ACAD_REACTORS
330
C
102
}
330
C
100
AcDbDictionary
281
     1
  0
DICTIONARY
  5
17
102
{ACAD_REACTORS
330
C
102
}
330
C
100
AcDbDictionary
281
     1
  3
Standard
350
18
  0
DICTIONARY
  5
19
102
{ACAD_REACTORS
330
C
102
}
330
C
100
AcDbDictionary
281
     1
  0
ACDBDICTIONARYWDFLT
  5
E
102
{ACAD_REACTORS
330
C
102
}
330
C
100
AcDbDictionary
281
     1
  3
Normal
350
F
100
AcDbDictionaryWithDefault
340
F
  0
DICTIONARY
  5
C4
102
{ACAD_REACTORS
330
C
102
}
330
C
100
AcDbDictionary
281
     1
  0
DICTIONARY
  5
2A
102
{ACAD_REACTORS
330
C
102
}
330
C
100
AcDbDictionary
281
     1
  3
2dWireframe
350
2F
  3
3D Hidden
350
31
  3
3dWireframe
350
30
  3
Basic
350
32
  3
Brighten
350
36
  3
ColorChange
350
3A
  3
Conceptual
350
34
  3
Dim
350
35
  3
Facepattern
350
39
  3
Flat
350
2B
  3
FlatWithEdges
350
2C
  3
Gouraud
350
2D
  3
GouraudWithEdges
350
2E
  3
Linepattern
350
38
  3
Realistic
350
33
  3
Thicken
350
37
  0
DICTIONARY
  5
C6
102
{ACAD_REACTORS
330
C
102
}
330
C
100
AcDbDictionary
281
     1
  3
PSOLHEIGHT
350
C8
  3
PSOLWIDTH
350
C7
  0
LAYOUT
  5
1E
102
{ACAD_REACTORS
330
1A
102
}
102
{ACAD_XDICTIONARY
360
C9
102
}
330
1A
100
AcDbPlotSettings
  1

  2
none_device
  4

  6

 40
0.0
 41
0.0
 42
0.0
 43
0.0
 44
0.0
 45
0.0
 46
0.0
 47
0.0
 48
0.0
 49
0.0
140
0.0
141
0.0
142
1.0
143
1.0
 70
   688
 72
     0
 73
     0
 74
     5
  7

 75
    16
147
1.0
148
0.0
149
0.0
100
AcDbLayout
  1
Layout1
 70
     1
 71
     1
 10
0.0
 20
0.0
 11
420.0
 21
297.0
 12
0.0
 22
0.0
 32
0.0
 14
1.000000000000000E+20
 24
1.000000000000000E+20
 34
1.000000000000000E+20
 15
-1.000000000000000E+20
 25
-1.000000000000000E+20
 35
-1.000000000000000E+20
146
0.0
 13
0.0
 23
0.0
 33
0.0
 16
1.0
 26
0.0
 36
0.0
 17
0.0
 27
1.0
 37
0.0
 76
     0
330
1B
  0
LAYOUT
  5
26
102
{ACAD_REACTORS
330
1A
102
}
102
{ACAD_XDICTIONARY
360
CD
102
}
330
1A
100
AcDbPlotSettings
  1

  2
none_device
  4

  6

 40
0.0
 41
0.0
 42
0.0
 43
0.0
 44
0.0
 45
0.0
 46
0.0
 47
0.0
 48
0.0
 49
0.0
140
0.0
141
0.0
142
1.0
143
1.0
 70
   688
 72
     0
 73
     0
 74
     5
  7

 75
    16
147
1.0
148
0.0
149
0.0
100
AcDbLayout
  1
Layout2
 70
     1
 71
     2
 10
0.0
 20
0.0
 11
0.0
 21
0.0
 12
0.0
 22
0.0
 32
0.0
 14
0.0
 24
0.0
 34
0.0
 15
0.0
 25
0.0
 35
0.0
146
0.0
 13
0.0
 23
0.0
 33
0.0
 16
1.0
 26
0.0
 36
0.0
 17
0.0
 27
1.0
 37
0.0
 76
     0
330
23
  0
LAYOUT
  5
22
102
{ACAD_REACTORS
330
1A
102
}
102
{ACAD_XDICTIONARY
360
CB
102
}
330
1A
100
AcDbPlotSettings
  1

  2
none_device
  4

  6

 40
0.0
 41
0.0
 42
0.0
 43
0.0
 44
0.0
 45
0.0
 46
0.0
 47
0.0
 48
0.0
 49
0.0
140
0.0
141
0.0
142
1.0
143
1.0
 70
  1712
 72
     0
 73
     0
 74
     0
  7

 75
     0
147
1.0
148
0.0
149
0.0
100
AcDbLayout
  1
Model
 70
     1
 71
     0
 10
-2100.0
 20
-1485.0
 11
2100.0
 21
1485.0
 12
0.0
 22
0.0
 32
0.0
 14
-2100.0
 24
-1485.0
 34
0.0
 15
2100.0
 25
1485.0
 35
0.0
146
0.0
 13
0.0
 23
0.0
 33
0.0
 16
1.0
 26
0.0
 36
0.0
 17
0.0
 27
1.0
 37
0.0
 76
     0
330
1F
331
29
  0
MLINESTYLE
  5
18
102
{ACAD_REACTORS
330
17
102
}
330
17
100
AcDbMlineStyle
  2
Standard
 70
     0
  3

 62
   256
 51
90.0
 52
90.0
 71
     2
 49
0.5
 62
   256
  6
BYLAYER
 49
-0.5
 62
   256
  6
BYLAYER
  0
ACDBPLACEHOLDER
  5
F
102
{ACAD_REACTORS
330
E
102
}
330
E
  0
VISUALSTYLE
  5
2F
102
{ACAD_REACTORS
330
2A
102
}
330
2A
100
AcDbVisualStyle
  2
2dWireframe
 70
     4
 71
     0
 72
     2
 73
     0
 90
        0
 40
-0.6
 41
-30.0
 62
     5
 63
     7
 74
     1
 91
        4
 64
     7
 65
   257
 75
     1
175
     1
 42
1.0
 92
        0
 66
   257
 43
1.0
 76
     1
 77
     6
 78
     2
 67
     7
 79
     5
170
     0
171
     0
290
     0
174
     0
 93
        1
 44
0.0
173
     0
291
     0
 45
0.0
1001
ACAD
1000
AcDbSavedByObjectVersion
1070
     0
  0
VISUALSTYLE
  5
31
102
{ACAD_REACTORS
330
2A
102
}
330
2A
100
AcDbVisualStyle
  2
3D Hidden
 70
     6
 71
     1
 72
     2
 73
     2
 90
        0
 40
-0.6
 41
-30.0
 62
     5
 63
     7
 74
     2
 91
        2
 64
     7
 65
   257
 75
     2
175
     1
 42
40.0
 92
        0
 66
   257
 43
1.0
 76
     1
 77
     6
 78
     2
 67
     7
 79
     3
170
     0
171
     0
290
     0
174
     0
 93
        1
 44
0.0
173
     0
291
     0
 45
0.0
1001
ACAD
1000
AcDbSavedByObjectVersion
1070
     0
  0
VISUALSTYLE
  5
30
102
{ACAD_REACTORS
330
2A
102
}
330
2A
100
AcDbVisualStyle
  2
3dWireframe
 70
     5
 71
     0
 72
     2
 73
     0
 90
        0
 40
-0.6
 41
-30.0
 62
     5
 63
     7
 74
     1
 91
        4
 64
     7
 65
   257
 75
     1
175
     1
 42
1.0
 92
        0
 66
   257
 43
1.0
 76
     1
 77
     6
 78
     2
 67
     7
 79
     5
170
     0
171
     0
290
     0
174
     0
 93
        1
 44
0.0
173
     0
291
     0
 45
0.0
1001
ACAD
1000
AcDbSavedByObjectVersion
1070
     0
  0
VISUALSTYLE
  5
32
102
{ACAD_REACTORS
330
2A
102
}
330
2A
100
AcDbVisualStyle
  2
Basic
 70
     7
 71
     1
 72
     0
 73
     1
 90
        0
 40
-0.6
 41
-30.0
 62
     5
 63
     7
 74
     0
 91
        4
 64
     7
 65
   257
 75
     1
175
     1
 42
1.0
 92
        8
 66
     7
 43
1.0
 76
     1
 77
     6
 78
     2
 67
     7
 79
     5
170
     0
171
     0
290
     0
174
     0
 93
        1
 44
0.0
173
     0
291
     1
 45
0.0
1001
ACAD
1000
AcDbSavedByObjectVersion
1070
     0
  0
VISUALSTYLE
  5
36
102
{ACAD_REACTORS
330
2A
102
}
330
2A
100
AcDbVisualStyle
  2
Brighten
 70
    12
 71
     2
 72
     2
 73
     0
 90
        0
 40
-0.6
 41
-30.0
 62
     5
 63
     7
 74
     1
 91
        4
 64
     7
 65
   257
 75
     1
175
     1
 42
1.0
 92
        8
 66
     7
 43
1.0
 76
     1
 77
     6
 78
     2
 67
     7
 79
     5
170
     0
171
     0
290
     0
174
     0
 93
        1
 44
50.0
173
     0
291
     1
 45
0.0
1001
ACAD
1000
AcDbSavedByObjectVersion
1070
     0
  0
VISUALSTYLE
  5
3A
102
{ACAD_REACTORS
330
2A
102
}
330
2A
100
AcDbVisualStyle
  2
ColorChange
 70
    16
 71
     2
 72
     2
 73
     3
 90
        0
 40
-0.6
 41
-30.0
 62
     5
 63
     8
 74
     1
 91
        4
 64
     7
 65
   257
 75
     1
175
     1
 42
1.0
 92
        8
 66
     8
 43
1.0
 76
     1
 77
     6
 78
     2
 67
     7
 79
     5
170
     0
171
     0
290
     0
174
     0
 93
        1
 44
0.0
173
     0
291
     1
 45
0.0
1001
ACAD
1000
AcDbSavedByObjectVersion
1070
     0
  0
VISUALSTYLE
  5
34
102
{ACAD_REACTORS
330
2A
102
}
330
2A
100
AcDbVisualStyle
  2
Conceptual
 70
     9
 71
     3
 72
     2
 73
     0
 90
        0
 40
-0.6
 41
-30.0
 62
     5
 63
     7
 74
     2
 91
        2
 64
     7
 65
   257
 75
     1
175
     1
 42
40.0
 92
        8
 66
     7
 43
1.0
 76
     1
 77
     6
 78
     2
 67
     7
 79
     3
170
     0
171
     0
290
     0
174
     0
 93
        1
 44
0.0
173
     0
291
     0
 45
0.0
1001
ACAD
1000
AcDbSavedByObjectVersion
1070
     0
  0
VISUALSTYLE
  5
35
102
{ACAD_REACTORS
330
2A
102
}
330
2A
100
AcDbVisualStyle
  2
Dim
 70
    11
 71
     2
 72
     2
 73
     0
 90
        0
 40
-0.6
 41
-30.0
 62
     5
 63
     7
 74
     1
 91
        4
 64
     7
 65
   257
 75
     1
175
     1
 42
1.0
 92
        8
 66
     7
 43
1.0
 76
     1
 77
     6
 78
     2
 67
     7
 79
     5
170
     0
171
     0
290
     0
174
     0
 93
        1
 44
-50.0
173
     0
291
     1
 45
0.0
1001
ACAD
1000
AcDbSavedByObjectVersion
1070
     0
  0
VISUALSTYLE
  5
39
102
{ACAD_REACTORS
330
2A
102
}
330
2A
100
AcDbVisualStyle
  2
Facepattern
 70
    15
 71
     2
 72
     2
 73
     0
 90
        0
 40
-0.6
 41
-30.0
 62
     5
 63
     7
 74
     1
 91
        4
 64
     7
 65
   257
 75
     1
175
     1
 42
1.0
 92
        8
 66
     7
 43
1.0
 76
     1
 77
     6
 78
     2
 67
     7
 79
     5
170
     0
171
     0
290
     0
174
     0
 93
        1
 44
0.0
173
     0
291
     1
 45
0.0
1001
ACAD
1000
AcDbSavedByObjectVersion
1070
     0
  0
VISUALSTYLE
  5
2B
102
{ACAD_REACTORS
330
2A
102
}
330
2A
100
AcDbVisualStyle
  2
Flat
 70
     0
 71
     2
 72
     1
 73
     1
 90
        2
 40
-0.6
 41
30.0
 62
     5
 63
     7
 74
     0
 91
        4
 64
     7
 65
   257
 75
     1
175
     1
 42
1.0
 92
        8
 66
     7
 43
1.0
 76
     1
 77
     6
 78
     2
 67
     7
 79
     5
170
     0
171
     0
290
     0
174
     0
 93
       13
 44
0.0
173
     0
291
     1
 45
0.0
1001
ACAD
1000
AcDbSavedByObjectVersion
1070
     0
  0
VISUALSTYLE
  5
2C
102
{ACAD_REACTORS
330
2A
102
}
330
2A
100
AcDbVisualStyle
  2
FlatWithEdges
 70
     1
 71
     2
 72
     1
 73
     1
 90
        2
 40
-0.6
 41
30.0
 62
     5
 63
     7
 74
     1
 91
        4
 64
     7
 65
   257
 75
     1
175
     1
 42
1.0
 92
        0
 66
   257
 43
1.0
 76
     1
 77
     6
 78
     2
 67
     7
 79
     5
170
     0
171
     0
290
     0
174
     0
 93
       13
 44
0.0
173
     0
291
     1
 45
0.0
1001
ACAD
1000
AcDbSavedByObjectVersion
1070
     0
  0
VISUALSTYLE
  5
2D
102
{ACAD_REACTORS
330
2A
102
}
330
2A
100
AcDbVisualStyle
  2
Gouraud
 70
     2
 71
     2
 72
     2
 73
     1
 90
        2
 40
-0.6
 41
30.0
 62
     5
 63
     7
 74
     0
 91
        4
 64
     7
 65
   257
 75
     1
175
     1
 42
1.0
 92
        0
 66
     7
 43
1.0
 76
     1
 77
     6
 78
     2
 67
     7
 79
     5
170
     0
171
     0
290
     0
174
     0
 93
       13
 44
0.0
173
     0
291
     1
 45
0.0
1001
ACAD
1000
AcDbSavedByObjectVersion
1070
     0
  0
VISUALSTYLE
  5
2E
102
{ACAD_REACTORS
330
2A
102
}
330
2A
100
AcDbVisualStyle
  2
GouraudWithEdges
 70
     3
 71
     2
 72
     2
 73
     1
 90
        2
 40
-0.6
 41
30.0
 62
     5
 63
     7
 74
     1
 91
        4
 64
     7
 65
   257
 75
     1
175
     1
 42
1.0
 92
        0
 66
   257
 43
1.0
 76
     1
 77
     6
 78
     2
 67
     7
 79
     5
170
     0
171
     0
290
     0
174
     0
 93
       13
 44
0.0
173
     0
291
     1
 45
0.0
1001
ACAD
1000
AcDbSavedByObjectVersion
1070
     0
  0
VISUALSTYLE
  5
38
102
{ACAD_REACTORS
330
2A
102
}
330
2A
100
AcDbVisualStyle
  2
Linepattern
 70
    14
 71
     2
 72
     2
 73
     0
 90
        0
 40
-0.6
 41
-30.0
 62
     5
 63
     7
 74
     1
 91
        4
 64
     7
 65
   257
 75
     7
175
     7
 42
1.0
 92
        8
 66
     7
 43
1.0
 76
     1
 77
     6
 78
     2
 67
     7
 79
     5
170
     0
171
     0
290
     0
174
     0
 93
        1
 44
0.0
173
     0
291
     1
 45
0.0
1001
ACAD
1000
AcDbSavedByObjectVersion
1070
     0
  0
VISUALSTYLE
  5
33
102
{ACAD_REACTORS
330
2A
102
}
330
2A
100
AcDbVisualStyle
  2
Realistic
 70
     8
 71
     2
 72
     2
 73
     0
 90
        0
 40
-0.6
 41
-30.0
 62
     5
 63
     7
 74
     1
 91
        0
 64
     7
 65
   257
 75
     1
175
     1
 42
1.0
 92
        8
 66
     8
 43
1.0
 76
     1
 77
     6
 78
     2
 67
     7
 79
     5
170
     0
171
     0
290
     0
174
     0
 93
       13
 44
0.0
173
     0
291
     0
 45
0.0
1001
ACAD
1000
AcDbSavedByObjectVersion
1070
     0
  0
VISUALSTYLE
  5
37
102
{ACAD_REACTORS
330
2A
102
}
330
2A
100
AcDbVisualStyle
  2
Thicken
 70
    13
 71
     2
 72
     2
 73
     0
 90
        0
 40
-0.6
 41
-30.0
 62
     5
 63
     7
 74
     1
 91
        4
 64
     7
 65
   257
 75
     1
175
     1
 42
1.0
 92
       12
 66
     7
 43
1.0
 76
     1
 77
     6
 78
     2
 67
     7
 79
     5
170
     0
171
     0
290
     0
174
     0
 93
        1
 44
0.0
173
     0
291
     1
 45
0.0
1001
ACAD
1000
AcDbSavedByObjectVersion
1070
     0
  0
DICTIONARYVAR
  5
C8
102
{ACAD_REACTORS
330
C6
102
}
330
C6
100
DictionaryVariables
280
     0
  1
80.000000
  0
DICTIONARYVAR
  5
C7
102
{ACAD_REACTORS
330
C6
102
}
330
C6
100
DictionaryVariables
280
     0
  1
5.000000
  0
DICTIONARY
  5
C9
330
1E
100
AcDbDictionary
280
     1
281
     1
  3
ACAD_XREC_ROUNDTRIP
360
CA
  0
DICTIONARY
  5
CD
330
26
100
AcDbDictionary
280
     1
281
     1
  3
ACAD_XREC_ROUNDTRIP
360
CE
  0
DICTIONARY
  5
CB
330
22
100
AcDbDictionary
280
     1
281
     1
  3
ACAD_XREC_ROUNDTRIP
360
CC
  0
XRECORD
  5
CA
102
{ACAD_REACTORS
330
C9
102
}
330
C9
100
AcDbXrecord
280
     1
102
SHADEPLOT
 70
     0
102
SHADEPLOTRESLEVEL
 70
     5
102
SHADEPLOTCUSTOMDPI
 70
   300
  0
XRECORD
  5
CE
102
{ACAD_REACTORS
330
CD
102
}
330
CD
100
AcDbXrecord
280
     1
102
SHADEPLOT
 70
     0
102
SHADEPLOTRESLEVEL
 70
     5
102
SHADEPLOTCUSTOMDPI
 70
   300
  0
XRECORD
  5
CC
102
{ACAD_REACTORS
330
CB
102
}
330
CB
100
AcDbXrecord
280
     1
102
SHADEPLOT
 70
     0
102
SHADEPLOTRESLEVEL
 70
     5
102
SHADEPLOTCUSTOMDPI
 70
   300
  0
ENDSEC
  0
EOF
