  0
SECTION
  2
HEADER
  9
$ACADVER
  1
AC1018
  9
$ACADMAINTVER
 70
     0
  9
$DWGCODEPAGE
  3
ANSI_932
  9
$INSBASE
 10
0.0
 20
0.0
 30
0.0
  9
$EXTMIN
 10
-2100.0
 20
-1485.0
 30
0.0
  9
$EXTMAX
 10
2100.0
 20
1485.0
 30
0.0
  9
$LIMMIN
 10
-2100.0
 20
-1485.0
  9
$LIMMAX
 10
2100.0
 20
1485.0
  9
$ORTHOMODE
 70
     0
  9
$REGENMODE
 70
     1
  9
$FILLMODE
 70
     1
  9
$QTEXTMODE
 70
     0
  9
$MIRRTEXT
 70
     1
  9
$LTSCALE
 40
10.0
  9
$ATTMODE
 70
     1
  9
$TEXTSIZE
 40
2.5
  9
$TRACEWID
 40
1.0
  9
$TEXTSTYLE
  7
Standard
  9
$CLAYER
  8
0
  9
$CELTYPE
  6
ByLayer
  9
$CECOLOR
 62
   256
  9
$CELTSCALE
 40
1.0
  9
$DISPSILH
 70
     0
  9
$DIMSCALE
 40
1.0
  9
$DIMASZ
 40
2.5
  9
$DIMEXO
 40
0.625
  9
$DIMDLI
 40
3.75
  9
$DIMRND
 40
0.0
  9
$DIMDLE
 40
0.0
  9
$DIMEXE
 40
1.25
  9
$DIMTP
 40
0.0
  9
$DIMTM
 40
0.0
  9
$DIMTXT
 40
2.5
  9
$DIMCEN
 40
2.5
  9
$DIMTSZ
 40
0.0
  9
$DIMTOL
 70
     0
  9
$DIMLIM
 70
     0
  9
$DIMTIH
 70
     0
  9
$DIMTOH
 70
     0
  9
$DIMSE1
 70
     0
  9
$DIMSE2
 70
     0
  9
$DIMTAD
 70
     1
  9
$DIMZIN
 70
     8
  9
$DIMBLK
  1

  9
$DIMASO
 70
     1
  9
$DIMSHO
 70
     1
  9
$DIMPOST
  1

  9
$DIMAPOST
  1

  9
$DIMALT
 70
     0
  9
$DIMALTD
 70
     3
  9
$DIMALTF
 40
0.03937007874016
  9
$DIMLFAC
 40
1.0
  9
$DIMTOFL
 70
     1
  9
$DIMTVP
 40
0.0
  9
$DIMTIX
 70
     0
  9
$DIMSOXD
 70
     0
  9
$DIMSAH
 70
     0
  9
$DIMBLK1
  1

  9
$DIMBLK2
  1

  9
$DIMSTYLE
  2
ISO-25
  9
$DIMCLRD
 70
     0
  9
$DIMCLRE
 70
     0
  9
$DIMCLRT
 70
     0
  9
$DIMTFAC
 40
1.0
  9
$DIMGAP
 40
0.625
  9
$DIMJUST
 70
     0
  9
$DIMSD1
 70
     0
  9
$DIMSD2
 70
     0
  9
$DIMTOLJ
 70
     0
  9
$DIMTZIN
 70
     8
  9
$DIMALTZ
 70
     0
  9
$DIMALTTZ
 70
     0
  9
$DIMUPT
 70
     0
  9
$DIMDEC
 70
     2
  9
$DIMTDEC
 70
     2
  9
$DIMALTU
 70
     2
  9
$DIMALTTD
 70
     3
  9
$DIMTXSTY
  7
Standard
  9
$DIMAUNIT
 70
     0
  9
$DIMADEC
 70
     0
  9
$DIMALTRND
 40
0.0
  9
$DIMAZIN
 70
     0
  9
$DIMDSEP
 70
    44
  9
$DIMATFIT
 70
     3
  9
$DIMFRAC
 70
     0
  9
$DIMLDRBLK
  1

  9
$DIMLUNIT
 70
     2
  9
$DIMLWD
 70
    -2
  9
$DIMLWE
 70
    -2
  9
$DIMTMOVE
 70
     0
  9
$LUNITS
 70
     2
  9
$LUPREC
 70
     4
  9
$SKETCHINC
 40
1.0
  9
$FILLETRAD
 40
10.0
  9
$AUNITS
 70
     0
  9
$AUPREC
 70
     0
  9
$MENU
  1
.
  9
$ELEVATION
 40
0.0
  9
$PELEVATION
 40
0.0
  9
$THICKNESS
 40
0.0
  9
$LIMCHECK
 70
     0
  9
$CHAMFERA
 40
10.0
  9
$CHAMFERB
 40
10.0
  9
$CHAMFERC
 40
20.0
  9
$CHAMFERD
 40
0.0
  9
$SKPOLY
 70
     0
  9
$TDCREATE
 40
2456499.587062269
  9
$TDUCREATE
 40
2456499.212062269
  9
$TDUPDATE
 40
2456499.58706228
  9
$TDUUPDATE
 40
2456499.21206228
  9
$TDINDWG
 40
0.0000000116
  9
$TDUSRTIMER
 40
0.0000000116
  9
$USRTIMER
 70
     1
  9
$ANGBASE
 50
0.0
  9
$ANGDIR
 70
     0
  9
$PDMODE
 70
     0
  9
$PDSIZE
 40
0.0
  9
$PLINEWID
 40
0.0
  9
$SPLFRAME
 70
     0
  9
$SPLINETYPE
 70
     6
  9
$SPLINESEGS
 70
     8
  9
$HANDSEED
  5
175
  9
$SURFTAB1
 70
     6
  9
$SURFTAB2
 70
     6
  9
$SURFTYPE
 70
     6
  9
$SURFU
 70
     6
  9
$SURFV
 70
     6
  9
$UCSBASE
  2

  9
$UCSNAME
  2

  9
$UCSORG
 10
0.0
 20
0.0
 30
0.0
  9
$UCSXDIR
 10
1.0
 20
0.0
 30
0.0
  9
$UCSYDIR
 10
0.0
 20
1.0
 30
0.0
  9
$UCSORTHOREF
  2

  9
$UCSORTHOVIEW
 70
     0
  9
$UCSORGTOP
 10
0.0
 20
0.0
 30
0.0
  9
$UCSORGBOTTOM
 10
0.0
 20
0.0
 30
0.0
  9
$UCSORGLEFT
 10
0.0
 20
0.0
 30
0.0
  9
$UCSORGRIGHT
 10
0.0
 20
0.0
 30
0.0
  9
$UCSORGFRONT
 10
0.0
 20
0.0
 30
0.0
  9
$UCSORGBACK
 10
0.0
 20
0.0
 30
0.0
  9
$PUCSBASE
  2

  9
$PUCSNAME
  2

  9
$PUCSORG
 10
0.0
 20
0.0
 30
0.0
  9
$PUCSXDIR
 10
1.0
 20
0.0
 30
0.0
  9
$PUCSYDIR
 10
0.0
 20
1.0
 30
0.0
  9
$PUCSORTHOREF
  2

  9
$PUCSORTHOVIEW
 70
     0
  9
$PUCSORGTOP
 10
0.0
 20
0.0
 30
0.0
  9
$PUCSORGBOTTOM
 10
0.0
 20
0.0
 30
0.0
  9
$PUCSORGLEFT
 10
0.0
 20
0.0
 30
0.0
  9
$PUCSORGRIGHT
 10
0.0
 20
0.0
 30
0.0
  9
$PUCSORGFRONT
 10
0.0
 20
0.0
 30
0.0
  9
$PUCSORGBACK
 10
0.0
 20
0.0
 30
0.0
  9
$USERI1
 70
     0
  9
$USERI2
 70
     0
  9
$USERI3
 70
     0
  9
$USERI4
 70
     0
  9
$USERI5
 70
     0
  9
$USERR1
 40
0.0
  9
$USERR2
 40
0.0
  9
$USERR3
 40
0.0
  9
$USERR4
 40
0.0
  9
$USERR5
 40
0.0
  9
$WORLDVIEW
 70
     1
  9
$SHADEDGE
 70
     3
  9
$SHADEDIF
 70
    70
  9
$TILEMODE
 70
     1
  9
$MAXACTVP
 70
    64
  9
$PINSBASE
 10
0.0
 20
0.0
 30
0.0
  9
$PLIMCHECK
 70
     0
  9
$PEXTMIN
 10
1.000000000000000E+20
 20
1.000000000000000E+20
 30
1.000000000000000E+20
  9
$PEXTMAX
 10
-1.000000000000000E+20
 20
-1.000000000000000E+20
 30
-1.000000000000000E+20
  9
$PLIMMIN
 10
0.0
 20
0.0
  9
$PLIMMAX
 10
420.0
 20
297.0
  9
$UNITMODE
 70
     0
  9
$VISRETAIN
 70
     1
  9
$PLINEGEN
 70
     0
  9
$PSLTSCALE
 70
     1
  9
$TREEDEPTH
 70
  3020
  9
$CMLSTYLE
  2
Standard
  9
$CMLJUST
 70
     0
  9
$CMLSCALE
 40
20.0
  9
$PROXYGRAPHICS
 70
     1
  9
$MEASUREMENT
 70
     1
  9
$CELWEIGHT
370
    -1
  9
$ENDCAPS
280
     0
  9
$JOINSTYLE
280
     0
  9
$LWDISPLAY
290
     0
  9
$INSUNITS
 70
     4
  9
$HYPERLINKBASE
  1

  9
$STYLESHEET
  1

  9
$XEDIT
290
     1
  9
$CEPSNTYPE
380
     0
  9
$PSTYLEMODE
290
     1
  9
$FINGERPRINTGUID
  2
{1BDC5442-550A-440A-BC4E-6BB906B989AB}
  9
$VERSIONGUID
  2
{FAEB1C32-E019-11D5-929B-00C0DF256EC4}
  9
$EXTNAMES
290
     1
  9
$PSVPSCALE
 40
0.0
  9
$OLESTARTUP
290
     0
  9
$SORTENTS
280
   127
  9
$INDEXCTL
280
     0
  9
$HIDETEXT
280
     1
  9
$XCLIPFRAME
290
     0
  9
$HALOGAP
280
     0
  9
$OBSCOLOR
 70
   257
  9
$OBSLTYPE
280
     0
  9
$INTERSECTIONDISPLAY
280
     0
  9
$INTERSECTIONCOLOR
 70
   257
  9
$DIMASSOC
280
     2
  9
$PROJECTNAME
  1

  0
ENDSEC
  0
SECTION
  2
CLASSES
  0
CLASS
  1
ACDBDICTIONARYWDFLT
  2
AcDbDictionaryWithDefault
  3
ObjectDBX Classes
 90
        0
 91
        4
280
     0
281
     0
  0
CLASS
  1
VISUALSTYLE
  2
AcDbVisualStyle
  3
ObjectDBX Classes
 90
     4095
 91
        4
280
     0
281
     0
  0
ENDSEC
  0
SECTION
  2
TABLES
  0
TABLE
  2
VPORT
  5
8
330
0
100
AcDbSymbolTable
 70
     1
  0
VPORT
  5
29
330
8
100
AcDbSymbolTableRecord
100
AcDbViewportTableRecord
  2
*Active
 70
     0
 10
0.0
 20
0.0
 11
1.0
 21
1.0
 12
0.0
 22
0.0
 13
0.0
 23
0.0
 14
10.0
 24
10.0
 15
10.0
 25
10.0
 16
0.0
 26
0.0
 36
1.0
 17
0.0
 27
0.0
 37
0.0
 40
3267.0
 41
1.414141414141414
 42
50.0
 43
0.0
 44
0.0
 50
0.0
 51
0.0
 71
     0
 72
 10000
 73
     1
 74
     3
 75
     0
 76
     0
 77
     0
 78
     0
281
     0
 65
     1
110
0.0
120
0.0
130
0.0
111
1.0
121
0.0
131
0.0
112
0.0
122
1.0
132
0.0
 79
     0
146
0.0
  0
ENDTAB
  0
TABLE
  2
LTYPE
  5
5
330
0
100
AcDbSymbolTable
 70
     2
  0
LTYPE
  5
14
330
5
100
AcDbSymbolTableRecord
100
AcDbLinetypeTableRecord
  2
ByBlock
 70
     0
  3

 72
    65
 73
     0
 40
0.0
  0
LTYPE
  5
15
330
5
100
AcDbSymbolTableRecord
100
AcDbLinetypeTableRecord
  2
ByLayer
 70
     0
  3

 72
    65
 73
     0
 40
0.0
  0
LTYPE
  5
16
330
5
100
AcDbSymbolTableRecord
100
AcDbLinetypeTableRecord
  2
Continuous
 70
     0
  3
Solid line
 72
    65
 73
     0
 40
0.0
  0
LTYPE
  5
3C
330
5
100
AcDbSymbolTableRecord
100
AcDbLinetypeTableRecord
  2
JWW_CENTER2
 70
     0
  3
-------------  --  -------------
 72
    65
 73
     4
 40
13.54666666666667
 49
11.00666666666667
 74
     0
 49
-0.8466666666666667
 74
     0
 49
0.8466666666666667
 74
     0
 49
-0.8466666666666667
 74
     0
  0
ENDTAB
  0
TABLE
  2
LAYER
  5
2
330
0
100
AcDbSymbolTable
 70
     5
  0
LAYER
  5
10
330
2
100
AcDbSymbolTableRecord
100
AcDbLayerTableRecord
  2
0
 70
     0
 62
     7
  6
Continuous
370
    -3
390
F
  0
LAYER
  5
3D
330
2
100
AcDbSymbolTableRecord
100
AcDbLayerTableRecord
  2
3-2
 70
     0
 62
     7
  6
Continuous
370
    -3
390
F
  0
LAYER
  5
3E
330
2
100
AcDbSymbolTableRecord
100
AcDbLayerTableRecord
  2
3-4
 70
     0
 62
     7
  6
Continuous
370
    -3
390
F
  0
LAYER
  5
3F
330
2
100
AcDbSymbolTableRecord
100
AcDbLayerTableRecord
  2
3-0
 70
     0
 62
     7
  6
Continuous
370
    -3
390
F
  0
LAYER
  5
40
330
2
100
AcDbSymbolTableRecord
100
AcDbLayerTableRecord
  2
F-5
 70
     0
 62
     7
  6
Continuous
370
    -3
390
F
  0
ENDTAB
  0
TABLE
  2
STYLE
  5
3
330
0
100
AcDbSymbolTable
 70
     2
  0
STYLE
  5
11
330
3
100
AcDbSymbolTableRecord
100
AcDbTextStyleTableRecord
  2
Standard
 70
     0
 40
0.0
 41
1.0
 50
0.0
 71
     0
 42
2.5
  3
txt
  4

1001
ACAD
1000

1071
        0
  0
STYLE
  5
3B
330
3
100
AcDbSymbolTableRecord
100
AcDbTextStyleTableRecord
  2
ＭＳ ゴシック
 70
     0
 40
1.0
 41
1.0
 50
0.0
 71
     0
 42
10.0
  3

  4

1001
ACAD
1000
MS Gothic
1071
    32817
  0
ENDTAB
  0
TABLE
  2
VIEW
  5
6
330
0
100
AcDbSymbolTable
 70
     0
  0
ENDTAB
  0
TABLE
  2
UCS
  5
7
330
0
100
AcDbSymbolTable
 70
     0
  0
ENDTAB
  0
TABLE
  2
APPID
  5
9
330
0
100
AcDbSymbolTable
 70
     1
  0
APPID
  5
12
330
9
100
AcDbSymbolTableRecord
100
AcDbRegAppTableRecord
  2
ACAD
 70
     0
  0
ENDTAB
  0
TABLE
  2
DIMSTYLE
  5
A
330
0
100
AcDbSymbolTable
 70
     1
100
AcDbDimStyleTable
  0
DIMSTYLE
105
27
330
A
100
AcDbSymbolTableRecord
100
AcDbDimStyleTableRecord
  2
ISO-25
 70
     0
 41
2.5
 42
0.625
 43
3.75
 44
1.25
 73
     0
 74
     0
 77
     1
 78
     8
140
2.5
141
2.5
143
0.03937007874016
147
0.625
171
     3
172
     1
271
     2
272
     2
274
     3
278
    44
283
     0
284
     8
340
11
  0
ENDTAB
  0
TABLE
  2
BLOCK_RECORD
  5
1
330
0
100
AcDbSymbolTable
 70
     1
  0
BLOCK_RECORD
  5
1F
330
1
100
AcDbSymbolTableRecord
100
AcDbBlockTableRecord
  2
*Model_Space
340
22
  0
BLOCK_RECORD
  5
1B
330
1
100
AcDbSymbolTableRecord
100
AcDbBlockTableRecord
  2
*Paper_Space
340
1E
  0
BLOCK_RECORD
  5
23
330
1
100
AcDbSymbolTableRecord
100
AcDbBlockTableRecord
  2
*Paper_Space0
340
26
  0
ENDTAB
  0
ENDSEC
  0
SECTION
  2
BLOCKS
  0
BLOCK
  5
20
330
1F
100
AcDbEntity
  8
0
100
AcDbBlockBegin
  2
*Model_Space
 70
     0
 10
0.0
 20
0.0
 30
0.0
  3
*Model_Space
  1

  0
ENDBLK
  5
21
330
1F
100
AcDbEntity
  8
0
100
AcDbBlockEnd
  0
BLOCK
  5
1C
330
1B
100
AcDbEntity
 67
     1
  8
0
100
AcDbBlockBegin
  2
*Paper_Space
 70
     0
 10
0.0
 20
0.0
 30
0.0
  3
*Paper_Space
  1

  0
ENDBLK
  5
1D
330
1B
100
AcDbEntity
 67
     1
  8
0
100
AcDbBlockEnd
  0
BLOCK
  5
24
330
23
100
AcDbEntity
  8
0
100
AcDbBlockBegin
  2
*Paper_Space0
 70
     0
 10
0.0
 20
0.0
 30
0.0
  3
*Paper_Space0
  1

  0
ENDBLK
  5
25
330
23
100
AcDbEntity
  8
0
100
AcDbBlockEnd
  0
ENDSEC
  0
SECTION
  2
ENTITIES
  0
LINE
  5
41
330
1F
100
AcDbEntity
  8
3-2
  6
Continuous
 62
     3
370
     9
100
AcDbLine
 10
859.864332869244
 20
465.6756756756758
 30
0.0
 11
919.8642833812792
 21
465.6756756756758
 31
0.0
  0
LINE
  5
42
330
1F
100
AcDbEntity
  8
3-2
  6
Continuous
 62
     3
370
     9
100
AcDbLine
 10
919.8642833812792
 20
115.6756756756758
 30
0.0
 11
859.864332869244
 21
115.6756756756758
 31
0.0
  0
LINE
  5
43
330
1F
100
AcDbEntity
  8
3-2
  6
Continuous
 62
     3
370
     9
100
AcDbLine
 10
919.8642833812792
 20
465.6756756756758
 30
0.0
 11
919.8642833812792
 21
115.6756756756758
 31
0.0
  0
LINE
  5
44
330
1F
100
AcDbEntity
  8
3-2
  6
Continuous
 62
     3
370
     9
100
AcDbLine
 10
859.864332869244
 20
465.6756756756758
 30
0.0
 11
859.864332869244
 21
115.6756756756758
 31
0.0
  0
LINE
  5
45
330
1F
100
AcDbEntity
  8
3-2
  6
Continuous
 62
     3
370
     9
100
AcDbLine
 10
-1535.134970175253
 20
365.6756756756758
 30
0.0
 11
-1535.134970175253
 21
215.6756756756758
 31
0.0
  0
LINE
  5
46
330
1F
100
AcDbEntity
  8
3-2
  6
Continuous
 62
     3
370
     9
100
AcDbLine
 10
-1492.635201119088
 20
365.6756756756758
 30
0.0
 11
-1535.134970175253
 21
365.6756756756758
 31
0.0
  0
LINE
  5
47
330
1F
100
AcDbEntity
  8
3-2
  6
Continuous
 62
     3
370
     9
100
AcDbLine
 10
-1492.635201119088
 20
215.6756756756758
 30
0.0
 11
-1535.134970175253
 21
215.6756756756758
 31
0.0
  0
LINE
  5
48
330
1F
100
AcDbEntity
  8
3-4
  6
Continuous
 62
     7
370
     9
100
AcDbLine
 10
1014.865029824747
 20
95.17495645059142
 30
0.0
 11
1014.865029824747
 21
107.1750455289273
 31
0.0
  0
LINE
  5
49
330
1F
100
AcDbEntity
  8
3-4
  6
Continuous
 62
     7
370
     9
100
AcDbLine
 10
1014.865029824747
 20
110.1750059385557
 30
0.0
 11
990.0789827913854
 21
113.4381185995568
 31
0.0
  0
LINE
  5
4A
330
1F
100
AcDbEntity
  8
3-4
  6
Continuous
 62
     7
370
     9
100
AcDbLine
 10
1014.865029824747
 20
110.1750059385557
 30
0.0
 11
990.0789827913854
 21
106.911893277555
 31
0.0
  0
ARC
  5
4B
330
1F
100
AcDbEntity
  8
3-2
  6
Continuous
 62
     3
370
     9
100
AcDbCircle
 10
-1492.635201119088
 20
373.1757004196581
 30
0.0
 40
7.500000096656181
100
AcDbArc
 50
270.0
 51
0.0
  0
ARC
  5
4C
330
1F
100
AcDbEntity
  8
3-2
  6
Continuous
 62
     3
370
     9
100
AcDbCircle
 10
-1492.635201119088
 20
208.1756509316935
 30
0.0
 40
7.500000096656181
100
AcDbArc
 50
0.0
 51
90.0
  0
ARC
  5
4D
330
1F
100
AcDbEntity
  8
3-2
  6
Continuous
 62
     3
370
     9
100
AcDbCircle
 10
1022.364930848818
 20
373.1757004196581
 30
0.0
 40
7.500000096656181
100
AcDbArc
 50
180.0
 51
270.0
  0
ARC
  5
4E
330
1F
100
AcDbEntity
  8
3-2
  6
Continuous
 62
     3
370
     9
100
AcDbCircle
 10
1022.364930848818
 20
208.1756509316935
 30
0.0
 40
7.500000096656181
100
AcDbArc
 50
90.0
 51
180.0
  0
LINE
  5
4F
330
1F
100
AcDbEntity
  8
3-2
  6
Continuous
 62
     3
370
     9
100
AcDbLine
 10
-1485.135176375105
 20
373.1757004196581
 30
0.0
 11
-1485.135176375105
 21
540.6756756756758
 31
0.0
  0
LINE
  5
50
330
1F
100
AcDbEntity
  8
3-2
  6
Continuous
 62
     3
370
     9
100
AcDbLine
 10
1014.865029824747
 20
373.1757004196581
 30
0.0
 11
1014.865029824747
 21
540.6756756756758
 31
0.0
  0
LINE
  5
51
330
1F
100
AcDbEntity
  8
3-4
  6
Continuous
 62
     7
370
     9
100
AcDbLine
 10
-24.32432432432421
 20
540.6756756756758
 30
0.0
 11
186.4864864864867
 21
725.1351351351352
 31
0.0
  0
LINE
  5
52
330
1F
100
AcDbEntity
  8
3-4
  6
Continuous
 62
     7
370
     9
100
AcDbLine
 10
-24.32432432432421
 20
540.6756756756758
 30
0.0
 11
-7.819593274915349
 21
559.4531414959883
 31
0.0
  0
LINE
  5
53
330
1F
100
AcDbEntity
  8
3-4
  6
Continuous
 62
     7
370
     9
100
AcDbLine
 10
-24.32432432432421
 20
540.6756756756758
 30
0.0
 11
-3.52205843538826
 21
554.5417084565033
 31
0.0
  0
LINE
  5
54
330
1F
100
AcDbEntity
  8
3-4
  6
Continuous
 62
     7
370
     9
100
AcDbLine
 10
186.4864864864867
 20
725.1351351351352
 30
0.0
 11
520.8912617451438
 21
725.1351351351352
 31
0.0
  0
TEXT
  5
55
330
1F
100
AcDbEntity
  8
3-4
  6
Continuous
 62
     2
370
     9
100
AcDbText
 10
243.6891215556378
 20
681.1404387932856
 30
0.0
 40
30.48
  1
樹脂系塗装
 41
1.1
  7
ＭＳ ゴシック
100
AcDbText
  0
LINE
  5
56
330
1F
100
AcDbEntity
  8
3-2
  6
Continuous
 62
     3
370
     9
100
AcDbLine
 10
-1485.135176375105
 20
208.1756509316935
 30
0.0
 11
-1485.135176375105
 21
40.67567567567579
 31
0.0
  0
LINE
  5
57
330
1F
100
AcDbEntity
  8
3-2
  6
Continuous
 62
     3
370
     9
100
AcDbLine
 10
-317.635036159206
 20
40.67567567567579
 30
0.0
 11
-1485.135176375105
 21
40.67567567567579
 31
0.0
  0
LINE
  5
58
330
1F
100
AcDbEntity
  8
3-2
  6
Continuous
 62
     3
370
     9
100
AcDbLine
 10
-152.6349866712414
 20
40.67567567567579
 30
0.0
 11
1014.865029824747
 21
40.67567567567579
 31
0.0
  0
LINE
  5
59
330
1F
100
AcDbEntity
  8
3-2
  6
Continuous
 62
     3
370
     9
100
AcDbLine
 10
1014.865029824747
 20
208.1756509316935
 30
0.0
 11
1014.865029824747
 21
40.67567567567579
 31
0.0
  0
LINE
  5
5A
330
1F
100
AcDbEntity
  8
3-4
  6
Continuous
 62
     7
370
     9
100
AcDbLine
 10
-1485.135176375105
 20
-241.081081081081
 30
0.0
 11
1014.865029824747
 21
-241.081081081081
 31
0.0
  0
LINE
  5
5B
330
1F
100
AcDbEntity
  8
3-4
  6
Continuous
 62
     7
370
     9
100
AcDbLine
 10
-1485.135176375105
 20
25.6756261877112
 30
0.0
 11
-1485.135176375105
 21
-244.0810414907094
 31
0.0
  0
LINE
  5
5C
330
1F
100
AcDbEntity
  8
3-4
  6
Continuous
 62
     7
370
     9
100
AcDbLine
 10
1014.865029824747
 20
25.6756261877112
 30
0.0
 11
1014.865029824747
 21
-244.0810414907094
 31
0.0
  0
LINE
  5
5D
330
1F
100
AcDbEntity
  8
3-4
  6
Continuous
 62
     7
370
     9
100
AcDbLine
 10
-1485.135176375105
 20
-241.081081081081
 30
0.0
 11
-1460.349067481789
 21
-237.8179684200802
 31
0.0
  0
LINE
  5
5E
330
1F
100
AcDbEntity
  8
3-4
  6
Continuous
 62
     7
370
     9
100
AcDbLine
 10
-1485.135176375105
 20
-241.081081081081
 30
0.0
 11
-1460.349067481789
 21
-244.3441937420819
 31
0.0
  0
LINE
  5
5F
330
1F
100
AcDbEntity
  8
3-4
  6
Continuous
 62
     7
370
     9
100
AcDbLine
 10
1014.865029824747
 20
-241.081081081081
 30
0.0
 11
990.0789827913854
 21
-237.8179684200802
 31
0.0
  0
LINE
  5
60
330
1F
100
AcDbEntity
  8
3-4
  6
Continuous
 62
     7
370
     9
100
AcDbLine
 10
1014.865029824747
 20
-241.081081081081
 30
0.0
 11
990.0789827913854
 21
-244.3441937420819
 31
0.0
  0
LINE
  5
61
330
1F
100
AcDbEntity
  8
3-4
  6
Continuous
 62
     7
370
     9
100
AcDbLine
 10
-420.8342681059966
 20
40.67567567567579
 30
0.0
 11
-432.8343571843328
 21
40.67567567567579
 31
0.0
  0
LINE
  5
62
330
1F
100
AcDbEntity
  8
3-4
  6
Continuous
 62
     7
370
     9
100
AcDbLine
 10
-435.8343175939609
 20
40.67567567567579
 30
0.0
 11
-439.097430254962
 21
65.46184642894843
 31
0.0
  0
LINE
  5
63
330
1F
100
AcDbEntity
  8
3-4
  6
Continuous
 62
     7
370
     9
100
AcDbLine
 10
-435.8343175939609
 20
40.67567567567579
 30
0.0
 11
-432.5712049329601
 21
65.46184642894843
 31
0.0
  0
ARC
  5
64
330
1F
100
AcDbEntity
  8
3-2
  6
Continuous
 62
     3
370
     9
100
AcDbCircle
 10
-317.635036159206
 20
33.1756509316935
 30
0.0
 40
7.500000096656181
100
AcDbArc
 50
0.0
 51
90.0
  0
ARC
  5
65
330
1F
100
AcDbEntity
  8
3-2
  6
Continuous
 62
     3
370
     9
100
AcDbCircle
 10
-152.6349866712414
 20
33.1756509316935
 30
0.0
 40
7.500000096656181
100
AcDbArc
 50
90.0
 51
180.0
  0
TEXT
  5
66
330
1F
100
AcDbEntity
  8
3-4
  6
Continuous
 62
     2
370
     9
100
AcDbText
 10
-267.6350114152239
 20
-229.4410365419129
 30
0.0
 40
30.48
  1
500
 41
1.083333333333333
  7
ＭＳ ゴシック
100
AcDbText
  0
LINE
  5
67
330
1F
100
AcDbEntity
  8
3-2
  6
Continuous
 62
     3
370
     9
100
AcDbLine
 10
1059.864947344806
 20
365.6756756756758
 30
0.0
 11
1059.864947344806
 21
215.6756756756758
 31
0.0
  0
LINE
  5
68
330
1F
100
AcDbEntity
  8
3-2
  6
Continuous
 62
     3
370
     9
100
AcDbLine
 10
1022.364930848818
 20
365.6756756756758
 30
0.0
 11
1059.864947344806
 21
365.6756756756758
 31
0.0
  0
LINE
  5
69
330
1F
100
AcDbEntity
  8
3-2
  6
Continuous
 62
     3
370
     9
100
AcDbLine
 10
1022.364930848818
 20
215.6756756756758
 30
0.0
 11
1059.864947344806
 21
215.6756756756758
 31
0.0
  0
LINE
  5
6A
330
1F
100
AcDbEntity
  8
3-4
  6
Continuous
 62
     7
370
     9
100
AcDbLine
 10
1059.864947344806
 20
200.6756261877112
 30
0.0
 11
1059.864947344806
 21
107.1750455289273
 31
0.0
  0
LINE
  5
6B
330
1F
100
AcDbEntity
  8
3-4
  6
Continuous
 62
     7
370
     9
100
AcDbLine
 10
1059.864947344806
 20
110.1750059385557
 30
0.0
 11
1084.650994378167
 21
113.4381185995568
 31
0.0
  0
LINE
  5
6C
330
1F
100
AcDbEntity
  8
3-4
  6
Continuous
 62
     7
370
     9
100
AcDbLine
 10
1059.864947344806
 20
110.1750059385557
 30
0.0
 11
1084.650994378167
 21
106.911893277555
 31
0.0
  0
LINE
  5
6D
330
1F
100
AcDbEntity
  8
3-4
  6
Continuous
 62
     7
370
     9
100
AcDbLine
 10
1105.537389806799
 20
110.1750059385557
 30
0.0
 11
968.7226991395693
 21
110.1750059385557
 31
0.0
  0
TEXT
  5
6E
330
1F
100
AcDbEntity
  8
3-4
  6
Continuous
 62
     2
370
   211
100
AcDbText
 10
1027.364988584776
 20
121.8150059385557
 30
0.0
 40
30.48
  1
9
 41
0.9999999999999998
  7
ＭＳ ゴシック
100
AcDbText
  0
LINE
  5
6F
330
1F
100
AcDbEntity
  8
3-2
  6
Continuous
 62
     3
370
     9
100
AcDbLine
 10
-160.1350114152237
 20
-4.324365564294794
 30
0.0
 11
-310.1350114152237
 21
-4.324365564294794
 31
0.0
  0
LINE
  5
70
330
1F
100
AcDbEntity
  8
3-2
  6
Continuous
 62
     3
370
     9
100
AcDbLine
 10
-310.1350114152237
 20
33.1756509316935
 30
0.0
 11
-310.1350114152237
 21
-4.324365564294794
 31
0.0
  0
LINE
  5
71
330
1F
100
AcDbEntity
  8
3-2
  6
Continuous
 62
     3
370
     9
100
AcDbLine
 10
-160.1350114152237
 20
33.1756509316935
 30
0.0
 11
-160.1350114152237
 21
-4.324365564294794
 31
0.0
  0
LINE
  5
72
330
1F
100
AcDbEntity
  8
3-4
  6
Continuous
 62
     7
370
     9
100
AcDbLine
 10
-310.1350114152237
 20
-130.3547462257178
 30
0.0
 11
-160.1350114152237
 21
-130.3547462257178
 31
0.0
  0
LINE
  5
73
330
1F
100
AcDbEntity
  8
3-4
  6
Continuous
 62
     7
370
     9
100
AcDbLine
 10
-310.1350114152237
 20
-19.3244150522591
 30
0.0
 11
-310.1350114152237
 21
-133.3547066353462
 31
0.0
  0
LINE
  5
74
330
1F
100
AcDbEntity
  8
3-4
  6
Continuous
 62
     7
370
     9
100
AcDbLine
 10
-160.1350114152237
 20
-19.3244150522591
 30
0.0
 11
-160.1350114152237
 21
-133.3547066353462
 31
0.0
  0
LINE
  5
75
330
1F
100
AcDbEntity
  8
3-4
  6
Continuous
 62
     7
370
     9
100
AcDbLine
 10
-310.1350114152237
 20
-130.3547462257178
 30
0.0
 11
-285.348840661951
 21
-127.0916335647171
 31
0.0
  0
LINE
  5
76
330
1F
100
AcDbEntity
  8
3-4
  6
Continuous
 62
     7
370
     9
100
AcDbLine
 10
-310.1350114152237
 20
-130.3547462257178
 30
0.0
 11
-285.348840661951
 21
-133.6178588867188
 31
0.0
  0
LINE
  5
77
330
1F
100
AcDbEntity
  8
3-4
  6
Continuous
 62
     7
370
     9
100
AcDbLine
 10
-160.1350114152237
 20
-130.3547462257178
 30
0.0
 11
-184.9211821684966
 21
-127.0916335647171
 31
0.0
  0
LINE
  5
78
330
1F
100
AcDbEntity
  8
3-4
  6
Continuous
 62
     7
370
     9
100
AcDbLine
 10
-160.1350114152237
 20
-130.3547462257178
 30
0.0
 11
-184.9211821684966
 21
-133.6178588867188
 31
0.0
  0
LINE
  5
79
330
1F
100
AcDbEntity
  8
3-4
  6
Continuous
 62
     7
370
     9
100
AcDbLine
 10
-325.1350609031883
 20
-4.324365564294794
 30
0.0
 11
-438.8342780035893
 21
-4.324365564294794
 31
0.0
  0
LINE
  5
7A
330
1F
100
AcDbEntity
  8
3-4
  6
Continuous
 62
     7
370
     9
100
AcDbLine
 10
-435.8343175939609
 20
-4.324365564294794
 30
0.0
 11
-439.097430254962
 21
-29.11053631756744
 31
0.0
  0
LINE
  5
7B
330
1F
100
AcDbEntity
  8
3-4
  6
Continuous
 62
     7
370
     9
100
AcDbLine
 10
-435.8343175939609
 20
-4.324365564294794
 30
0.0
 11
-432.5712049329601
 21
-29.11053631756744
 31
0.0
  0
LINE
  5
7C
330
1F
100
AcDbEntity
  8
3-4
  6
Continuous
 62
     7
370
     9
100
AcDbLine
 10
-435.8343175939609
 20
83.37611842799845
 30
0.0
 11
-435.8343175939609
 21
-44.25942085884714
 31
0.0
  0
TEXT
  5
7D
330
1F
100
AcDbEntity
  8
3-4
  6
Continuous
 62
     2
370
     9
100
AcDbText
 10
-256.3850114152237
 20
-118.7147016865497
 30
0.0
 40
30.48
  1
30
 41
1.0625
  7
ＭＳ ゴシック
100
AcDbText
  0
TEXT
  5
7E
330
1F
100
AcDbEntity
  8
3-4
  6
Continuous
 62
     2
370
   211
100
AcDbText
 10
-446.6137381106774
 20
8.972073257277742
 30
0.0
 40
30.48
  1
9
 50
86.18597883571476
 41
0.9999999999999997
  7
ＭＳ ゴシック
100
AcDbText
  0
TEXT
  5
7F
330
1F
100
AcDbEntity
  8
3-4
  6
Continuous
 62
     2
370
     9
100
AcDbText
 10
198.6889978357264
 20
744.6278061655406
 30
0.0
 40
30.48
  1
蓋：ＦＣ１５０
 41
1.107142857142857
  7
ＭＳ ゴシック
100
AcDbText
  0
LINE
  5
80
330
1F
100
AcDbEntity
  8
3-0
  6
JWW_CENTER2
 62
     7
370
     9
100
AcDbLine
 10
1450.788095310034
 20
290.6756756756758
 30
0.0
 11
1588.625933147872
 21
290.6756756756758
 31
0.0
  0
LINE
  5
81
330
1F
100
AcDbEntity
  8
3-4
  6
Continuous
 62
     7
370
     9
100
AcDbLine
 10
1542.544967538708
 20
-143.7837837837837
 30
0.0
 11
1567.331014572069
 21
-140.5206711227828
 31
0.0
  0
LINE
  5
82
330
1F
100
AcDbEntity
  8
3-4
  6
Continuous
 62
     7
370
     9
100
AcDbLine
 10
1542.544967538708
 20
-143.7837837837837
 30
0.0
 11
1567.331014572069
 21
-147.0468964447845
 31
0.0
  0
LINE
  5
83
330
1F
100
AcDbEntity
  8
3-4
  6
Continuous
 62
     7
370
     9
100
AcDbLine
 10
1507.544852066791
 20
-143.7837837837837
 30
0.0
 11
1482.758805033429
 21
-140.5206711227828
 31
0.0
  0
LINE
  5
84
330
1F
100
AcDbEntity
  8
3-4
  6
Continuous
 62
     7
370
     9
100
AcDbLine
 10
1507.544852066791
 20
-143.7837837837837
 30
0.0
 11
1482.758805033429
 21
-147.0468964447845
 31
0.0
  0
LINE
  5
85
330
1F
100
AcDbEntity
  8
3-4
  6
Continuous
 62
     7
370
     9
100
AcDbLine
 10
1588.719960280473
 20
-143.7837837837837
 30
0.0
 11
1459.584828444536
 21
-143.7837837837837
 31
0.0
  0
TEXT
  5
86
330
1F
100
AcDbEntity
  8
3-4
  6
Continuous
 62
     2
370
     9
100
AcDbText
 10
1515.045033522661
 20
-132.1437392446156
 30
0.0
 40
30.48
  1
7
 41
0.9999999999999998
  7
ＭＳ ゴシック
100
AcDbText
  0
LINE
  5
87
330
1F
100
AcDbEntity
  8
3-2
  6
Continuous
 62
     3
370
     9
100
AcDbLine
 10
-1390.134429931638
 20
465.6756756756758
 30
0.0
 11
-1330.134479419602
 21
465.6756756756758
 31
0.0
  0
LINE
  5
88
330
1F
100
AcDbEntity
  8
3-2
  6
Continuous
 62
     3
370
     9
100
AcDbLine
 10
-1330.134479419602
 20
115.6756756756758
 30
0.0
 11
-1390.134429931638
 21
115.6756756756758
 31
0.0
  0
LINE
  5
89
330
1F
100
AcDbEntity
  8
3-2
  6
Continuous
 62
     3
370
     9
100
AcDbLine
 10
-1330.134479419602
 20
465.6756756756758
 30
0.0
 11
-1330.134479419602
 21
115.6756756756758
 31
0.0
  0
LINE
  5
8A
330
1F
100
AcDbEntity
  8
3-2
  6
Continuous
 62
     3
370
     9
100
AcDbLine
 10
-1390.134429931638
 20
465.6756756756758
 30
0.0
 11
-1390.134429931638
 21
115.6756756756758
 31
0.0
  0
LINE
  5
8B
330
1F
100
AcDbEntity
  8
3-2
  6
Continuous
 62
     3
370
     9
100
AcDbLine
 10
-1300.134479419602
 20
465.6756756756758
 30
0.0
 11
-1240.134528907567
 21
465.6756756756758
 31
0.0
  0
LINE
  5
8C
330
1F
100
AcDbEntity
  8
3-2
  6
Continuous
 62
     3
370
     9
100
AcDbLine
 10
-1240.134528907567
 20
115.6756756756758
 30
0.0
 11
-1300.134479419602
 21
115.6756756756758
 31
0.0
  0
LINE
  5
8D
330
1F
100
AcDbEntity
  8
3-2
  6
Continuous
 62
     3
370
     9
100
AcDbLine
 10
-1240.134528907567
 20
465.6756756756758
 30
0.0
 11
-1240.134528907567
 21
115.6756756756758
 31
0.0
  0
LINE
  5
8E
330
1F
100
AcDbEntity
  8
3-2
  6
Continuous
 62
     3
370
     9
100
AcDbLine
 10
-1300.134479419602
 20
465.6756756756758
 30
0.0
 11
-1300.134479419602
 21
115.6756756756758
 31
0.0
  0
LINE
  5
8F
330
1F
100
AcDbEntity
  8
3-2
  6
Continuous
 62
     3
370
     9
100
AcDbLine
 10
-1210.134528907567
 20
465.6756756756758
 30
0.0
 11
-1150.134578395532
 21
465.6756756756758
 31
0.0
  0
LINE
  5
90
330
1F
100
AcDbEntity
  8
3-2
  6
Continuous
 62
     3
370
     9
100
AcDbLine
 10
-1150.134578395532
 20
115.6756756756758
 30
0.0
 11
-1210.134528907567
 21
115.6756756756758
 31
0.0
  0
LINE
  5
91
330
1F
100
AcDbEntity
  8
3-2
  6
Continuous
 62
     3
370
     9
100
AcDbLine
 10
-1150.134578395532
 20
465.6756756756758
 30
0.0
 11
-1150.134578395532
 21
115.6756756756758
 31
0.0
  0
LINE
  5
92
330
1F
100
AcDbEntity
  8
3-2
  6
Continuous
 62
     3
370
     9
100
AcDbLine
 10
-1210.134528907567
 20
465.6756756756758
 30
0.0
 11
-1210.134528907567
 21
115.6756756756758
 31
0.0
  0
LINE
  5
93
330
1F
100
AcDbEntity
  8
3-2
  6
Continuous
 62
     3
370
     9
100
AcDbLine
 10
-1120.134578395532
 20
465.6756756756758
 30
0.0
 11
-1060.134627883496
 21
465.6756756756758
 31
0.0
  0
LINE
  5
94
330
1F
100
AcDbEntity
  8
3-2
  6
Continuous
 62
     3
370
     9
100
AcDbLine
 10
-1060.134627883496
 20
115.6756756756758
 30
0.0
 11
-1120.134578395532
 21
115.6756756756758
 31
0.0
  0
LINE
  5
95
330
1F
100
AcDbEntity
  8
3-2
  6
Continuous
 62
     3
370
     9
100
AcDbLine
 10
-1060.134627883496
 20
465.6756756756758
 30
0.0
 11
-1060.134627883496
 21
115.6756756756758
 31
0.0
  0
LINE
  5
96
330
1F
100
AcDbEntity
  8
3-2
  6
Continuous
 62
     3
370
     9
100
AcDbLine
 10
-1120.134578395532
 20
465.6756756756758
 30
0.0
 11
-1120.134578395532
 21
115.6756756756758
 31
0.0
  0
LINE
  5
97
330
1F
100
AcDbEntity
  8
3-2
  6
Continuous
 62
     3
370
     9
100
AcDbLine
 10
-1030.134627883496
 20
465.6756756756758
 30
0.0
 11
-970.1346773714612
 21
465.6756756756758
 31
0.0
  0
LINE
  5
98
330
1F
100
AcDbEntity
  8
3-2
  6
Continuous
 62
     3
370
     9
100
AcDbLine
 10
-970.1346773714612
 20
115.6756756756758
 30
0.0
 11
-1030.134627883496
 21
115.6756756756758
 31
0.0
  0
LINE
  5
99
330
1F
100
AcDbEntity
  8
3-2
  6
Continuous
 62
     3
370
     9
100
AcDbLine
 10
-970.1346773714612
 20
465.6756756756758
 30
0.0
 11
-970.1346773714612
 21
115.6756756756758
 31
0.0
  0
LINE
  5
9A
330
1F
100
AcDbEntity
  8
3-2
  6
Continuous
 62
     3
370
     9
100
AcDbLine
 10
-1030.134627883496
 20
465.6756756756758
 30
0.0
 11
-1030.134627883496
 21
115.6756756756758
 31
0.0
  0
LINE
  5
9B
330
1F
100
AcDbEntity
  8
3-2
  6
Continuous
 62
     3
370
     9
100
AcDbLine
 10
-940.1346773714612
 20
465.6756756756758
 30
0.0
 11
-880.1347268594259
 21
465.6756756756758
 31
0.0
  0
LINE
  5
9C
330
1F
100
AcDbEntity
  8
3-2
  6
Continuous
 62
     3
370
     9
100
AcDbLine
 10
-880.1347268594259
 20
115.6756756756758
 30
0.0
 11
-940.1346773714612
 21
115.6756756756758
 31
0.0
  0
LINE
  5
9D
330
1F
100
AcDbEntity
  8
3-2
  6
Continuous
 62
     3
370
     9
100
AcDbLine
 10
-880.1347268594259
 20
465.6756756756758
 30
0.0
 11
-880.1347268594259
 21
115.6756756756758
 31
0.0
  0
LINE
  5
9E
330
1F
100
AcDbEntity
  8
3-2
  6
Continuous
 62
     3
370
     9
100
AcDbLine
 10
-940.1346773714612
 20
465.6756756756758
 30
0.0
 11
-940.1346773714612
 21
115.6756756756758
 31
0.0
  0
LINE
  5
9F
330
1F
100
AcDbEntity
  8
3-2
  6
Continuous
 62
     3
370
     9
100
AcDbLine
 10
-850.1347268594259
 20
465.6756756756758
 30
0.0
 11
-790.1347763473906
 21
465.6756756756758
 31
0.0
  0
LINE
  5
A0
330
1F
100
AcDbEntity
  8
3-2
  6
Continuous
 62
     3
370
     9
100
AcDbLine
 10
-790.1347763473906
 20
115.6756756756758
 30
0.0
 11
-850.1347268594259
 21
115.6756756756758
 31
0.0
  0
LINE
  5
A1
330
1F
100
AcDbEntity
  8
3-2
  6
Continuous
 62
     3
370
     9
100
AcDbLine
 10
-790.1347763473906
 20
465.6756756756758
 30
0.0
 11
-790.1347763473906
 21
115.6756756756758
 31
0.0
  0
LINE
  5
A2
330
1F
100
AcDbEntity
  8
3-2
  6
Continuous
 62
     3
370
     9
100
AcDbLine
 10
-850.1347268594259
 20
465.6756756756758
 30
0.0
 11
-850.1347268594259
 21
115.6756756756758
 31
0.0
  0
LINE
  5
A3
330
1F
100
AcDbEntity
  8
3-2
  6
Continuous
 62
     3
370
     9
100
AcDbLine
 10
-760.1347763473906
 20
465.6756756756758
 30
0.0
 11
-700.1348258353553
 21
465.6756756756758
 31
0.0
  0
LINE
  5
A4
330
1F
100
AcDbEntity
  8
3-2
  6
Continuous
 62
     3
370
     9
100
AcDbLine
 10
-700.1348258353553
 20
115.6756756756758
 30
0.0
 11
-760.1347763473906
 21
115.6756756756758
 31
0.0
  0
LINE
  5
A5
330
1F
100
AcDbEntity
  8
3-2
  6
Continuous
 62
     3
370
     9
100
AcDbLine
 10
-700.1348258353553
 20
465.6756756756758
 30
0.0
 11
-700.1348258353553
 21
115.6756756756758
 31
0.0
  0
LINE
  5
A6
330
1F
100
AcDbEntity
  8
3-2
  6
Continuous
 62
     3
370
     9
100
AcDbLine
 10
-760.1347763473906
 20
465.6756756756758
 30
0.0
 11
-760.1347763473906
 21
115.6756756756758
 31
0.0
  0
LINE
  5
A7
330
1F
100
AcDbEntity
  8
3-2
  6
Continuous
 62
     3
370
     9
100
AcDbLine
 10
-670.1348258353553
 20
465.6756756756758
 30
0.0
 11
-610.1348753233201
 21
465.6756756756758
 31
0.0
  0
LINE
  5
A8
330
1F
100
AcDbEntity
  8
3-2
  6
Continuous
 62
     3
370
     9
100
AcDbLine
 10
-610.1348753233201
 20
115.6756756756758
 30
0.0
 11
-670.1348258353553
 21
115.6756756756758
 31
0.0
  0
LINE
  5
A9
330
1F
100
AcDbEntity
  8
3-2
  6
Continuous
 62
     3
370
     9
100
AcDbLine
 10
-610.1348753233201
 20
465.6756756756758
 30
0.0
 11
-610.1348753233201
 21
115.6756756756758
 31
0.0
  0
LINE
  5
AA
330
1F
100
AcDbEntity
  8
3-2
  6
Continuous
 62
     3
370
     9
100
AcDbLine
 10
-670.1348258353553
 20
465.6756756756758
 30
0.0
 11
-670.1348258353553
 21
115.6756756756758
 31
0.0
  0
LINE
  5
AB
330
1F
100
AcDbEntity
  8
3-2
  6
Continuous
 62
     3
370
     9
100
AcDbLine
 10
-580.1348753233201
 20
465.6756756756758
 30
0.0
 11
-520.1349248112848
 21
465.6756756756758
 31
0.0
  0
LINE
  5
AC
330
1F
100
AcDbEntity
  8
3-2
  6
Continuous
 62
     3
370
     9
100
AcDbLine
 10
-520.1349248112848
 20
115.6756756756758
 30
0.0
 11
-580.1348753233201
 21
115.6756756756758
 31
0.0
  0
LINE
  5
AD
330
1F
100
AcDbEntity
  8
3-2
  6
Continuous
 62
     3
370
     9
100
AcDbLine
 10
-520.1349248112848
 20
465.6756756756758
 30
0.0
 11
-520.1349248112848
 21
115.6756756756758
 31
0.0
  0
LINE
  5
AE
330
1F
100
AcDbEntity
  8
3-2
  6
Continuous
 62
     3
370
     9
100
AcDbLine
 10
-580.1348753233201
 20
465.6756756756758
 30
0.0
 11
-580.1348753233201
 21
115.6756756756758
 31
0.0
  0
LINE
  5
AF
330
1F
100
AcDbEntity
  8
3-2
  6
Continuous
 62
     3
370
     9
100
AcDbLine
 10
-490.1349248112848
 20
465.6756756756758
 30
0.0
 11
-430.1349742992495
 21
465.6756756756758
 31
0.0
  0
LINE
  5
B0
330
1F
100
AcDbEntity
  8
3-2
  6
Continuous
 62
     3
370
     9
100
AcDbLine
 10
-430.1349742992495
 20
115.6756756756758
 30
0.0
 11
-490.1349248112848
 21
115.6756756756758
 31
0.0
  0
LINE
  5
B1
330
1F
100
AcDbEntity
  8
3-2
  6
Continuous
 62
     3
370
     9
100
AcDbLine
 10
-430.1349742992495
 20
465.6756756756758
 30
0.0
 11
-430.1349742992495
 21
115.6756756756758
 31
0.0
  0
LINE
  5
B2
330
1F
100
AcDbEntity
  8
3-2
  6
Continuous
 62
     3
370
     9
100
AcDbLine
 10
-490.1349248112848
 20
465.6756756756758
 30
0.0
 11
-490.1349248112848
 21
115.6756756756758
 31
0.0
  0
LINE
  5
B3
330
1F
100
AcDbEntity
  8
3-2
  6
Continuous
 62
     3
370
     9
100
AcDbLine
 10
-400.1349742992495
 20
465.6756756756758
 30
0.0
 11
-340.1350237872143
 21
465.6756756756758
 31
0.0
  0
LINE
  5
B4
330
1F
100
AcDbEntity
  8
3-2
  6
Continuous
 62
     3
370
     9
100
AcDbLine
 10
-340.1350237872143
 20
115.6756756756758
 30
0.0
 11
-400.1349742992495
 21
115.6756756756758
 31
0.0
  0
LINE
  5
B5
330
1F
100
AcDbEntity
  8
3-2
  6
Continuous
 62
     3
370
     9
100
AcDbLine
 10
-340.1350237872143
 20
465.6756756756758
 30
0.0
 11
-340.1350237872143
 21
115.6756756756758
 31
0.0
  0
LINE
  5
B6
330
1F
100
AcDbEntity
  8
3-2
  6
Continuous
 62
     3
370
     9
100
AcDbLine
 10
-400.1349742992495
 20
465.6756756756758
 30
0.0
 11
-400.1349742992495
 21
115.6756756756758
 31
0.0
  0
LINE
  5
B7
330
1F
100
AcDbEntity
  8
3-2
  6
Continuous
 62
     3
370
     9
100
AcDbLine
 10
-310.1350237872143
 20
465.6756756756758
 30
0.0
 11
-250.135073275179
 21
465.6756756756758
 31
0.0
  0
LINE
  5
B8
330
1F
100
AcDbEntity
  8
3-2
  6
Continuous
 62
     3
370
     9
100
AcDbLine
 10
-250.135073275179
 20
115.6756756756758
 30
0.0
 11
-310.1350237872143
 21
115.6756756756758
 31
0.0
  0
LINE
  5
B9
330
1F
100
AcDbEntity
  8
3-2
  6
Continuous
 62
     3
370
     9
100
AcDbLine
 10
-250.135073275179
 20
465.6756756756758
 30
0.0
 11
-250.135073275179
 21
115.6756756756758
 31
0.0
  0
LINE
  5
BA
330
1F
100
AcDbEntity
  8
3-2
  6
Continuous
 62
     3
370
     9
100
AcDbLine
 10
-310.1350237872143
 20
465.6756756756758
 30
0.0
 11
-310.1350237872143
 21
115.6756756756758
 31
0.0
  0
LINE
  5
BB
330
1F
100
AcDbEntity
  8
3-2
  6
Continuous
 62
     3
370
     9
100
AcDbLine
 10
-220.135073275179
 20
465.6756756756758
 30
0.0
 11
-160.1351227631437
 21
465.6756756756758
 31
0.0
  0
LINE
  5
BC
330
1F
100
AcDbEntity
  8
3-2
  6
Continuous
 62
     3
370
     9
100
AcDbLine
 10
-160.1351227631437
 20
115.6756756756758
 30
0.0
 11
-220.135073275179
 21
115.6756756756758
 31
0.0
  0
LINE
  5
BD
330
1F
100
AcDbEntity
  8
3-2
  6
Continuous
 62
     3
370
     9
100
AcDbLine
 10
-160.1351227631437
 20
465.6756756756758
 30
0.0
 11
-160.1351227631437
 21
115.6756756756758
 31
0.0
  0
LINE
  5
BE
330
1F
100
AcDbEntity
  8
3-2
  6
Continuous
 62
     3
370
     9
100
AcDbLine
 10
-220.135073275179
 20
465.6756756756758
 30
0.0
 11
-220.135073275179
 21
115.6756756756758
 31
0.0
  0
LINE
  5
BF
330
1F
100
AcDbEntity
  8
3-2
  6
Continuous
 62
     3
370
     9
100
AcDbLine
 10
-130.1351227631437
 20
465.6756756756758
 30
0.0
 11
-70.13517225110846
 21
465.6756756756758
 31
0.0
  0
LINE
  5
C0
330
1F
100
AcDbEntity
  8
3-2
  6
Continuous
 62
     3
370
     9
100
AcDbLine
 10
-70.13517225110846
 20
115.6756756756758
 30
0.0
 11
-130.1351227631437
 21
115.6756756756758
 31
0.0
  0
LINE
  5
C1
330
1F
100
AcDbEntity
  8
3-2
  6
Continuous
 62
     3
370
     9
100
AcDbLine
 10
-70.13517225110846
 20
465.6756756756758
 30
0.0
 11
-70.13517225110846
 21
115.6756756756758
 31
0.0
  0
LINE
  5
C2
330
1F
100
AcDbEntity
  8
3-2
  6
Continuous
 62
     3
370
     9
100
AcDbLine
 10
-130.1351227631437
 20
465.6756756756758
 30
0.0
 11
-130.1351227631437
 21
115.6756756756758
 31
0.0
  0
LINE
  5
C3
330
1F
100
AcDbEntity
  8
3-2
  6
Continuous
 62
     3
370
     9
100
AcDbLine
 10
-40.13517225110846
 20
465.6756756756758
 30
0.0
 11
19.86477826092681
 21
465.6756756756758
 31
0.0
  0
LINE
  5
C4
330
1F
100
AcDbEntity
  8
3-2
  6
Continuous
 62
     3
370
     9
100
AcDbLine
 10
19.86477826092681
 20
115.6756756756758
 30
0.0
 11
-40.13517225110846
 21
115.6756756756758
 31
0.0
  0
LINE
  5
C5
330
1F
100
AcDbEntity
  8
3-2
  6
Continuous
 62
     3
370
     9
100
AcDbLine
 10
19.86477826092681
 20
465.6756756756758
 30
0.0
 11
19.86477826092681
 21
115.6756756756758
 31
0.0
  0
LINE
  5
C6
330
1F
100
AcDbEntity
  8
3-2
  6
Continuous
 62
     3
370
     9
100
AcDbLine
 10
-40.13517225110846
 20
465.6756756756758
 30
0.0
 11
-40.13517225110846
 21
115.6756756756758
 31
0.0
  0
LINE
  5
C7
330
1F
100
AcDbEntity
  8
3-2
  6
Continuous
 62
     3
370
     9
100
AcDbLine
 10
49.86477826092667
 20
465.6756756756758
 30
0.0
 11
109.8647287729619
 21
465.6756756756758
 31
0.0
  0
LINE
  5
C8
330
1F
100
AcDbEntity
  8
3-2
  6
Continuous
 62
     3
370
     9
100
AcDbLine
 10
109.8647287729619
 20
115.6756756756758
 30
0.0
 11
49.86477826092667
 21
115.6756756756758
 31
0.0
  0
LINE
  5
C9
330
1F
100
AcDbEntity
  8
3-2
  6
Continuous
 62
     3
370
     9
100
AcDbLine
 10
109.8647287729619
 20
465.6756756756758
 30
0.0
 11
109.8647287729619
 21
115.6756756756758
 31
0.0
  0
LINE
  5
CA
330
1F
100
AcDbEntity
  8
3-2
  6
Continuous
 62
     3
370
     9
100
AcDbLine
 10
49.86477826092667
 20
465.6756756756758
 30
0.0
 11
49.86477826092667
 21
115.6756756756758
 31
0.0
  0
LINE
  5
CB
330
1F
100
AcDbEntity
  8
3-2
  6
Continuous
 62
     3
370
     9
100
AcDbLine
 10
139.8647287729621
 20
465.6756756756758
 30
0.0
 11
199.8646792849974
 21
465.6756756756758
 31
0.0
  0
LINE
  5
CC
330
1F
100
AcDbEntity
  8
3-2
  6
Continuous
 62
     3
370
     9
100
AcDbLine
 10
199.8646792849974
 20
115.6756756756758
 30
0.0
 11
139.8647287729621
 21
115.6756756756758
 31
0.0
  0
LINE
  5
CD
330
1F
100
AcDbEntity
  8
3-2
  6
Continuous
 62
     3
370
     9
100
AcDbLine
 10
199.8646792849974
 20
465.6756756756758
 30
0.0
 11
199.8646792849974
 21
115.6756756756758
 31
0.0
  0
LINE
  5
CE
330
1F
100
AcDbEntity
  8
3-2
  6
Continuous
 62
     3
370
     9
100
AcDbLine
 10
139.8647287729621
 20
465.6756756756758
 30
0.0
 11
139.8647287729621
 21
115.6756756756758
 31
0.0
  0
LINE
  5
CF
330
1F
100
AcDbEntity
  8
3-2
  6
Continuous
 62
     3
370
     9
100
AcDbLine
 10
229.8646792849975
 20
465.6756756756758
 30
0.0
 11
289.8646297970328
 21
465.6756756756758
 31
0.0
  0
LINE
  5
D0
330
1F
100
AcDbEntity
  8
3-2
  6
Continuous
 62
     3
370
     9
100
AcDbLine
 10
289.8646297970328
 20
115.6756756756758
 30
0.0
 11
229.8646792849975
 21
115.6756756756758
 31
0.0
  0
LINE
  5
D1
330
1F
100
AcDbEntity
  8
3-2
  6
Continuous
 62
     3
370
     9
100
AcDbLine
 10
289.8646297970328
 20
465.6756756756758
 30
0.0
 11
289.8646297970328
 21
115.6756756756758
 31
0.0
  0
LINE
  5
D2
330
1F
100
AcDbEntity
  8
3-2
  6
Continuous
 62
     3
370
     9
100
AcDbLine
 10
229.8646792849975
 20
465.6756756756758
 30
0.0
 11
229.8646792849975
 21
115.6756756756758
 31
0.0
  0
LINE
  5
D3
330
1F
100
AcDbEntity
  8
3-2
  6
Continuous
 62
     3
370
     9
100
AcDbLine
 10
319.8646297970326
 20
465.6756756756758
 30
0.0
 11
379.8645803090679
 21
465.6756756756758
 31
0.0
  0
LINE
  5
D4
330
1F
100
AcDbEntity
  8
3-2
  6
Continuous
 62
     3
370
     9
100
AcDbLine
 10
379.8645803090679
 20
115.6756756756758
 30
0.0
 11
319.8646297970326
 21
115.6756756756758
 31
0.0
  0
LINE
  5
D5
330
1F
100
AcDbEntity
  8
3-2
  6
Continuous
 62
     3
370
     9
100
AcDbLine
 10
379.8645803090679
 20
465.6756756756758
 30
0.0
 11
379.8645803090679
 21
115.6756756756758
 31
0.0
  0
LINE
  5
D6
330
1F
100
AcDbEntity
  8
3-2
  6
Continuous
 62
     3
370
     9
100
AcDbLine
 10
319.8646297970326
 20
465.6756756756758
 30
0.0
 11
319.8646297970326
 21
115.6756756756758
 31
0.0
  0
LINE
  5
D7
330
1F
100
AcDbEntity
  8
3-2
  6
Continuous
 62
     3
370
     9
100
AcDbLine
 10
409.8645803090677
 20
465.6756756756758
 30
0.0
 11
469.864530821103
 21
465.6756756756758
 31
0.0
  0
LINE
  5
D8
330
1F
100
AcDbEntity
  8
3-2
  6
Continuous
 62
     3
370
     9
100
AcDbLine
 10
469.864530821103
 20
115.6756756756758
 30
0.0
 11
409.8645803090677
 21
115.6756756756758
 31
0.0
  0
LINE
  5
D9
330
1F
100
AcDbEntity
  8
3-2
  6
Continuous
 62
     3
370
     9
100
AcDbLine
 10
469.864530821103
 20
465.6756756756758
 30
0.0
 11
469.864530821103
 21
115.6756756756758
 31
0.0
  0
LINE
  5
DA
330
1F
100
AcDbEntity
  8
3-2
  6
Continuous
 62
     3
370
     9
100
AcDbLine
 10
409.8645803090677
 20
465.6756756756758
 30
0.0
 11
409.8645803090677
 21
115.6756756756758
 31
0.0
  0
LINE
  5
DB
330
1F
100
AcDbEntity
  8
3-2
  6
Continuous
 62
     3
370
     9
100
AcDbLine
 10
499.8645308211031
 20
465.6756756756758
 30
0.0
 11
559.8644813331384
 21
465.6756756756758
 31
0.0
  0
LINE
  5
DC
330
1F
100
AcDbEntity
  8
3-2
  6
Continuous
 62
     3
370
     9
100
AcDbLine
 10
559.8644813331384
 20
115.6756756756758
 30
0.0
 11
499.8645308211031
 21
115.6756756756758
 31
0.0
  0
LINE
  5
DD
330
1F
100
AcDbEntity
  8
3-2
  6
Continuous
 62
     3
370
     9
100
AcDbLine
 10
559.8644813331384
 20
465.6756756756758
 30
0.0
 11
559.8644813331384
 21
115.6756756756758
 31
0.0
  0
LINE
  5
DE
330
1F
100
AcDbEntity
  8
3-2
  6
Continuous
 62
     3
370
     9
100
AcDbLine
 10
499.8645308211031
 20
465.6756756756758
 30
0.0
 11
499.8645308211031
 21
115.6756756756758
 31
0.0
  0
LINE
  5
DF
330
1F
100
AcDbEntity
  8
3-2
  6
Continuous
 62
     3
370
     9
100
AcDbLine
 10
589.8644813331385
 20
465.6756756756758
 30
0.0
 11
649.8644318451738
 21
465.6756756756758
 31
0.0
  0
LINE
  5
E0
330
1F
100
AcDbEntity
  8
3-2
  6
Continuous
 62
     3
370
     9
100
AcDbLine
 10
649.8644318451738
 20
115.6756756756758
 30
0.0
 11
589.8644813331385
 21
115.6756756756758
 31
0.0
  0
LINE
  5
E1
330
1F
100
AcDbEntity
  8
3-2
  6
Continuous
 62
     3
370
     9
100
AcDbLine
 10
649.8644318451738
 20
465.6756756756758
 30
0.0
 11
649.8644318451738
 21
115.6756756756758
 31
0.0
  0
LINE
  5
E2
330
1F
100
AcDbEntity
  8
3-2
  6
Continuous
 62
     3
370
     9
100
AcDbLine
 10
589.8644813331385
 20
465.6756756756758
 30
0.0
 11
589.8644813331385
 21
115.6756756756758
 31
0.0
  0
LINE
  5
E3
330
1F
100
AcDbEntity
  8
3-2
  6
Continuous
 62
     3
370
     9
100
AcDbLine
 10
679.8644318451737
 20
465.6756756756758
 30
0.0
 11
739.864382357209
 21
465.6756756756758
 31
0.0
  0
LINE
  5
E4
330
1F
100
AcDbEntity
  8
3-2
  6
Continuous
 62
     3
370
     9
100
AcDbLine
 10
739.864382357209
 20
115.6756756756758
 30
0.0
 11
679.8644318451737
 21
115.6756756756758
 31
0.0
  0
LINE
  5
E5
330
1F
100
AcDbEntity
  8
3-2
  6
Continuous
 62
     3
370
     9
100
AcDbLine
 10
739.864382357209
 20
465.6756756756758
 30
0.0
 11
739.864382357209
 21
115.6756756756758
 31
0.0
  0
LINE
  5
E6
330
1F
100
AcDbEntity
  8
3-2
  6
Continuous
 62
     3
370
     9
100
AcDbLine
 10
679.8644318451737
 20
465.6756756756758
 30
0.0
 11
679.8644318451737
 21
115.6756756756758
 31
0.0
  0
LINE
  5
E7
330
1F
100
AcDbEntity
  8
3-2
  6
Continuous
 62
     3
370
     9
100
AcDbLine
 10
769.8643823572088
 20
465.6756756756758
 30
0.0
 11
829.8643328692441
 21
465.6756756756758
 31
0.0
  0
LINE
  5
E8
330
1F
100
AcDbEntity
  8
3-2
  6
Continuous
 62
     3
370
     9
100
AcDbLine
 10
829.8643328692441
 20
115.6756756756758
 30
0.0
 11
769.8643823572088
 21
115.6756756756758
 31
0.0
  0
LINE
  5
E9
330
1F
100
AcDbEntity
  8
3-2
  6
Continuous
 62
     3
370
     9
100
AcDbLine
 10
829.8643328692441
 20
465.6756756756758
 30
0.0
 11
829.8643328692441
 21
115.6756756756758
 31
0.0
  0
LINE
  5
EA
330
1F
100
AcDbEntity
  8
3-2
  6
Continuous
 62
     3
370
     9
100
AcDbLine
 10
769.8643823572088
 20
465.6756756756758
 30
0.0
 11
769.8643823572088
 21
115.6756756756758
 31
0.0
  0
LINE
  5
EB
330
1F
100
AcDbEntity
  8
3-4
  6
Continuous
 62
     7
370
     9
100
AcDbLine
 10
229.8646792849975
 20
-32.16570295637698
 30
0.0
 11
229.8646792849975
 21
95.67567567567579
 31
0.0
  0
LINE
  5
EC
330
1F
100
AcDbEntity
  8
3-4
  6
Continuous
 62
     7
370
     9
100
AcDbLine
 10
289.8646297970328
 20
-32.16570295637698
 30
0.0
 11
289.8646297970328
 21
95.67567567567579
 31
0.0
  0
TEXT
  5
ED
330
1F
100
AcDbEntity
  8
3-4
  6
Continuous
 62
     2
370
   211
100
AcDbText
 10
238.6146545410151
 20
-17.52570295637697
 30
0.0
 40
30.48
  1
12
 41
1.0625
  7
ＭＳ ゴシック
100
AcDbText
  0
LINE
  5
EE
330
1F
100
AcDbEntity
  8
3-4
  6
Continuous
 62
     7
370
     9
100
AcDbLine
 10
319.8646297970326
 20
-32.16570295637698
 30
0.0
 11
319.8646297970326
 21
95.67567567567579
 31
0.0
  0
TEXT
  5
EF
330
1F
100
AcDbEntity
  8
3-4
  6
Continuous
 62
     2
370
   211
100
AcDbText
 10
294.8646297970327
 20
-17.52570295637697
 30
0.0
 40
30.48
  1
6
 41
0.9999999999999998
  7
ＭＳ ゴシック
100
AcDbText
  0
LINE
  5
F0
330
1F
100
AcDbEntity
  8
3-4
  6
Continuous
 62
     7
370
     9
100
AcDbLine
 10
319.8646297970326
 20
-29.16570295637698
 30
0.0
 11
344.6507513313779
 21
-25.90254815087569
 31
0.0
  0
LINE
  5
F1
330
1F
100
AcDbEntity
  8
3-4
  6
Continuous
 62
     7
370
     9
100
AcDbLine
 10
319.8646297970326
 20
-29.16570295637698
 30
0.0
 11
344.6507513313779
 21
-32.42885776187826
 31
0.0
  0
LINE
  5
F2
330
1F
100
AcDbEntity
  8
3-4
  6
Continuous
 62
     7
370
     9
100
AcDbLine
 10
289.8646297970328
 20
-29.16570295637698
 30
0.0
 11
357.8832674626843
 21
-29.16570295637698
 31
0.0
  0
LINE
  5
F3
330
1F
100
AcDbEntity
  8
3-4
  6
Continuous
 62
     7
370
     9
100
AcDbLine
 10
229.8646792849975
 20
-29.16570295637698
 30
0.0
 11
205.0785577506522
 21
-25.90254815087569
 31
0.0
  0
LINE
  5
F4
330
1F
100
AcDbEntity
  8
3-4
  6
Continuous
 62
     7
370
     9
100
AcDbLine
 10
229.8646792849975
 20
-29.16570295637698
 30
0.0
 11
205.0785577506522
 21
-32.42885776187826
 31
0.0
  0
LINE
  5
F5
330
1F
100
AcDbEntity
  8
3-4
  6
Continuous
 62
     7
370
     9
100
AcDbLine
 10
185.5272309878654
 20
-29.16570295637698
 30
0.0
 11
289.8646297970328
 21
-29.16570295637698
 31
0.0
  0
LWPOLYLINE
  5
F6
330
1F
100
AcDbEntity
  8
3-4
  6
Continuous
 62
     7
370
     9
100
AcDbPolyline
 90
        4
 70
     1
 43
1.0
 10
290.3646297970328
 20
-29.16570295637698
 42
0.4142135623731
 10
289.8646297970328
 20
-28.66570295637698
 42
0.4142135623731
 10
289.3646297970328
 20
-29.16570295637698
 42
0.4142135623731
 10
289.8646297970328
 20
-29.66570295637698
 42
0.4142135623731
  0
LINE
  5
F7
330
1F
100
AcDbEntity
  8
3-2
  6
Continuous
 62
     3
370
     9
100
AcDbLine
 10
-1535.134970175253
 20
-427.4002119120931
 30
0.0
 11
-1533.300698770059
 21
-462.4002036640991
 31
0.0
  0
LINE
  5
F8
330
1F
100
AcDbEntity
  8
3-2
  6
Continuous
 62
     3
370
     9
100
AcDbLine
 10
1059.864947344806
 20
-427.4002119120931
 30
0.0
 11
1058.030675939611
 21
-462.4002036640991
 31
0.0
  0
LINE
  5
F9
330
1F
100
AcDbEntity
  8
3-2
  6
Continuous
 62
     3
370
     9
100
AcDbLine
 10
-1535.134970175253
 20
-427.4002119120931
 30
0.0
 11
1059.864947344806
 21
-427.4002119120931
 31
0.0
  0
LINE
  5
FA
330
1F
100
AcDbEntity
  8
3-2
  6
Continuous
 62
     3
370
     9
100
AcDbLine
 10
-1533.300698770059
 20
-462.4002036640991
 30
0.0
 11
1058.030675939611
 21
-462.4002036640991
 31
0.0
  0
LINE
  5
FB
330
1F
100
AcDbEntity
  8
3-2
  6
Continuous
 62
     3
370
     9
100
AcDbLine
 10
1014.865029824747
 20
-427.4002119120931
 30
0.0
 11
1013.030758419553
 21
-462.4002036640991
 31
0.0
  0
LINE
  5
FC
330
1F
100
AcDbEntity
  8
3-2
  6
Continuous
 62
     3
370
     9
100
AcDbLine
 10
-1485.135176375105
 20
-427.4002119120931
 30
0.0
 11
-1483.300904969911
 21
-462.4002036640991
 31
0.0
  0
LINE
  5
FD
330
1F
100
AcDbEntity
  8
3-4
  6
Continuous
 62
     7
370
     9
100
AcDbLine
 10
1198.190281223607
 20
-462.4002036640991
 30
0.0
 11
1078.030675939611
 21
-462.4002036640991
 31
0.0
  0
LINE
  5
FE
330
1F
100
AcDbEntity
  8
3-4
  6
Continuous
 62
     7
370
     9
100
AcDbLine
 10
1198.190281223607
 20
-427.4002119120931
 30
0.0
 11
1079.864947344806
 21
-427.4002119120931
 31
0.0
  0
TEXT
  5
FF
330
1F
100
AcDbEntity
  8
3-4
  6
Continuous
 62
     2
370
   211
100
AcDbText
 10
1183.550281223607
 20
-454.9002077880961
 30
0.0
 40
30.48
  1
7
 50
90.0
 41
0.9999999999999998
  7
ＭＳ ゴシック
100
AcDbText
  0
LINE
  5
100
330
1F
100
AcDbEntity
  8
3-4
  6
Continuous
 62
     7
370
     9
100
AcDbLine
 10
1195.190281223607
 20
-427.4002119120931
 30
0.0
 11
1191.927126418105
 21
-402.6140903777479
 31
0.0
  0
LINE
  5
101
330
1F
100
AcDbEntity
  8
3-4
  6
Continuous
 62
     7
370
     9
100
AcDbLine
 10
1195.190281223607
 20
-427.4002119120931
 30
0.0
 11
1198.453436029108
 21
-402.6140903777479
 31
0.0
  0
LINE
  5
102
330
1F
100
AcDbEntity
  8
3-4
  6
Continuous
 62
     7
370
     9
100
AcDbLine
 10
1195.190281223607
 20
-462.4002036640991
 30
0.0
 11
1191.927126418105
 21
-487.1863251984444
 31
0.0
  0
LINE
  5
103
330
1F
100
AcDbEntity
  8
3-4
  6
Continuous
 62
     7
370
     9
100
AcDbLine
 10
1195.190281223607
 20
-462.4002036640991
 30
0.0
 11
1198.453436029108
 21
-487.1863251984444
 31
0.0
  0
LINE
  5
104
330
1F
100
AcDbEntity
  8
3-4
  6
Continuous
 62
     7
370
     9
100
AcDbLine
 10
1195.190281223607
 20
-495.4723291810657
 30
0.0
 11
1195.190281223607
 21
-396.1226964140744
 31
0.0
  0
ARC
  5
105
330
1F
100
AcDbEntity
  8
3-2
  6
Continuous
 62
     3
370
     9
100
AcDbCircle
 10
-317.635036159206
 20
548.175700419658
 30
0.0
 40
7.500000096656181
100
AcDbArc
 50
270.0
 51
0.0
  0
ARC
  5
106
330
1F
100
AcDbEntity
  8
3-2
  6
Continuous
 62
     3
370
     9
100
AcDbCircle
 10
-152.6349866712414
 20
548.175700419658
 30
0.0
 40
7.500000096656181
100
AcDbArc
 50
180.0
 51
270.0
  0
LINE
  5
107
330
1F
100
AcDbEntity
  8
3-2
  6
Continuous
 62
     3
370
     9
100
AcDbLine
 10
-160.1350114152237
 20
585.6757169156463
 30
0.0
 11
-310.1350114152237
 21
585.6757169156463
 31
0.0
  0
LINE
  5
108
330
1F
100
AcDbEntity
  8
3-2
  6
Continuous
 62
     3
370
     9
100
AcDbLine
 10
-310.1350114152237
 20
548.175700419658
 30
0.0
 11
-310.1350114152237
 21
585.6757169156463
 31
0.0
  0
LINE
  5
109
330
1F
100
AcDbEntity
  8
3-2
  6
Continuous
 62
     3
370
     9
100
AcDbLine
 10
-160.1350114152237
 20
548.175700419658
 30
0.0
 11
-160.1350114152237
 21
585.6757169156463
 31
0.0
  0
LINE
  5
10A
330
1F
100
AcDbEntity
  8
3-2
  6
Continuous
 62
     3
370
     9
100
AcDbLine
 10
-1485.135176375105
 20
540.6756756756758
 30
0.0
 11
-317.635036159206
 21
540.6756756756758
 31
0.0
  0
LINE
  5
10B
330
1F
100
AcDbEntity
  8
3-2
  6
Continuous
 62
     3
370
     9
100
AcDbLine
 10
-152.6349866712414
 20
540.6756756756758
 30
0.0
 11
1014.865029824747
 21
540.6756756756758
 31
0.0
  0
LINE
  5
10C
330
1F
100
AcDbEntity
  8
3-0
  6
JWW_CENTER2
 62
     7
370
     9
100
AcDbLine
 10
-235.1350114152237
 20
635.2664576802508
 30
0.0
 11
-235.1350114152237
 21
-74.41194276551926
 31
0.0
  0
LINE
  5
10D
330
1F
100
AcDbEntity
  8
3-4
  6
Continuous
 62
     7
370
     9
100
AcDbLine
 10
1176.411647802757
 20
40.67567567567579
 30
0.0
 11
1176.411647802757
 21
540.6756756756758
 31
0.0
  0
LINE
  5
10E
330
1F
100
AcDbEntity
  8
3-4
  6
Continuous
 62
     7
370
     9
100
AcDbLine
 10
1029.865079312711
 20
540.6756756756758
 30
0.0
 11
1179.411608212385
 21
540.6756756756758
 31
0.0
  0
LINE
  5
10F
330
1F
100
AcDbEntity
  8
3-4
  6
Continuous
 62
     7
370
     9
100
AcDbLine
 10
1176.411647802757
 20
540.6756756756758
 30
0.0
 11
1173.148411421845
 21
515.8896286423144
 31
0.0
  0
LINE
  5
110
330
1F
100
AcDbEntity
  8
3-4
  6
Continuous
 62
     7
370
     9
100
AcDbLine
 10
1176.411647802757
 20
540.6756756756758
 30
0.0
 11
1179.674884183669
 21
515.8896286423144
 31
0.0
  0
LINE
  5
111
330
1F
100
AcDbEntity
  8
3-4
  6
Continuous
 62
     7
370
     9
100
AcDbLine
 10
1029.865079312711
 20
40.67567567567579
 30
0.0
 11
1179.411608212385
 21
40.67567567567579
 31
0.0
  0
LINE
  5
112
330
1F
100
AcDbEntity
  8
3-4
  6
Continuous
 62
     7
370
     9
100
AcDbLine
 10
1176.411647802757
 20
40.67567567567579
 30
0.0
 11
1173.148411421845
 21
65.46184642894843
 31
0.0
  0
LINE
  5
113
330
1F
100
AcDbEntity
  8
3-4
  6
Continuous
 62
     7
370
     9
100
AcDbLine
 10
1176.411647802757
 20
40.67567567567579
 30
0.0
 11
1179.674884183669
 21
65.46184642894843
 31
0.0
  0
TEXT
  5
114
330
1F
100
AcDbEntity
  8
3-4
  6
Continuous
 62
     2
370
   211
100
AcDbText
 10
1164.771647802757
 20
258.1756756756758
 30
0.0
 40
30.48
  1
100
 50
90.0
 41
1.083333333333333
  7
ＭＳ ゴシック
100
AcDbText
  0
LINE
  5
115
330
1F
100
AcDbEntity
  8
3-4
  6
Continuous
 62
     7
370
     9
100
AcDbLine
 10
-1618.830091327306
 20
215.6756756756758
 30
0.0
 11
-1618.830091327306
 21
365.6756756756758
 31
0.0
  0
LINE
  5
116
330
1F
100
AcDbEntity
  8
3-4
  6
Continuous
 62
     7
370
     9
100
AcDbLine
 10
-1618.830091327306
 20
215.6756756756758
 30
0.0
 11
-1622.093246132808
 21
240.461797210021
 31
0.0
  0
LINE
  5
117
330
1F
100
AcDbEntity
  8
3-4
  6
Continuous
 62
     7
370
     9
100
AcDbLine
 10
-1618.830091327306
 20
215.6756756756758
 30
0.0
 11
-1615.566936521805
 21
240.461797210021
 31
0.0
  0
LINE
  5
118
330
1F
100
AcDbEntity
  8
3-4
  6
Continuous
 62
     7
370
     9
100
AcDbLine
 10
-1618.830091327306
 20
365.6756756756758
 30
0.0
 11
-1622.093246132808
 21
340.8895541413306
 31
0.0
  0
LINE
  5
119
330
1F
100
AcDbEntity
  8
3-4
  6
Continuous
 62
     7
370
     9
100
AcDbLine
 10
-1618.830091327306
 20
365.6756756756758
 30
0.0
 11
-1615.566936521805
 21
340.8895541413306
 31
0.0
  0
LINE
  5
11A
330
1F
100
AcDbEntity
  8
3-4
  6
Continuous
 62
     7
370
     9
100
AcDbLine
 10
-1621.830091327306
 20
215.6756756756758
 30
0.0
 11
-1555.134970175253
 21
215.6756756756758
 31
0.0
  0
LINE
  5
11B
330
1F
100
AcDbEntity
  8
3-4
  6
Continuous
 62
     7
370
     9
100
AcDbLine
 10
-1621.830091327306
 20
365.6756756756758
 30
0.0
 11
-1555.134970175253
 21
365.6756756756758
 31
0.0
  0
TEXT
  5
11C
330
1F
100
AcDbEntity
  8
3-4
  6
Continuous
 62
     2
370
   211
100
AcDbText
 10
-1630.470091327306
 20
269.4256756756758
 30
0.0
 40
30.48
  1
30
 50
90.0
 41
1.0625
  7
ＭＳ ゴシック
100
AcDbText
  0
LINE
  5
11D
330
1F
100
AcDbEntity
  8
3-4
  6
Continuous
 62
     7
370
     9
100
AcDbLine
 10
-1704.445522951323
 20
40.67567567567579
 30
0.0
 11
-1704.445522951323
 21
115.6756756756758
 31
0.0
  0
LINE
  5
11E
330
1F
100
AcDbEntity
  8
3-4
  6
Continuous
 62
     7
370
     9
100
AcDbLine
 10
-1704.445522951323
 20
40.67567567567579
 30
0.0
 11
-1707.708677756825
 21
65.46179721002105
 31
0.0
  0
LINE
  5
11F
330
1F
100
AcDbEntity
  8
3-4
  6
Continuous
 62
     7
370
     9
100
AcDbLine
 10
-1704.445522951323
 20
40.67567567567579
 30
0.0
 11
-1701.182368145822
 21
65.46179721002105
 31
0.0
  0
LINE
  5
120
330
1F
100
AcDbEntity
  8
3-4
  6
Continuous
 62
     7
370
     9
100
AcDbLine
 10
-1704.445522951323
 20
115.6756756756758
 30
0.0
 11
-1707.708677756825
 21
90.88955414133055
 31
0.0
  0
LINE
  5
121
330
1F
100
AcDbEntity
  8
3-4
  6
Continuous
 62
     7
370
     9
100
AcDbLine
 10
-1704.445522951323
 20
115.6756756756758
 30
0.0
 11
-1701.182368145822
 21
90.88955414133055
 31
0.0
  0
LINE
  5
122
330
1F
100
AcDbEntity
  8
3-4
  6
Continuous
 62
     7
370
     9
100
AcDbLine
 10
-1707.445522951323
 20
40.67567567567579
 30
0.0
 11
-1505.135176375105
 21
40.67567567567578
 31
0.0
  0
LINE
  5
123
330
1F
100
AcDbEntity
  8
3-4
  6
Continuous
 62
     7
370
     9
100
AcDbLine
 10
-1707.445522951323
 20
115.6756756756758
 30
0.0
 11
-1410.134429931638
 21
115.6756756756758
 31
0.0
  0
TEXT
  5
124
330
1F
100
AcDbEntity
  8
3-4
  6
Continuous
 62
     2
370
   211
100
AcDbText
 10
-1716.085522951323
 20
56.9256756756758
 30
0.0
 40
30.48
  1
15
 50
90.0
 41
1.0625
  7
ＭＳ ゴシック
100
AcDbText
  0
LINE
  5
125
330
1F
100
AcDbEntity
  8
3-4
  6
Continuous
 62
     7
370
     9
100
AcDbLine
 10
-1704.445522951323
 20
115.6756756756758
 30
0.0
 11
-1704.445522951323
 21
465.6756756756758
 31
0.0
  0
LINE
  5
126
330
1F
100
AcDbEntity
  8
3-4
  6
Continuous
 62
     7
370
     9
100
AcDbLine
 10
-1704.445522951323
 20
115.6756756756758
 30
0.0
 11
-1707.708677756825
 21
140.4617972100211
 31
0.0
  0
LINE
  5
127
330
1F
100
AcDbEntity
  8
3-4
  6
Continuous
 62
     7
370
     9
100
AcDbLine
 10
-1704.445522951323
 20
115.6756756756758
 30
0.0
 11
-1701.182368145822
 21
140.4617972100211
 31
0.0
  0
LINE
  5
128
330
1F
100
AcDbEntity
  8
3-4
  6
Continuous
 62
     7
370
     9
100
AcDbLine
 10
-1704.445522951323
 20
465.6756756756758
 30
0.0
 11
-1707.708677756825
 21
440.8895541413306
 31
0.0
  0
LINE
  5
129
330
1F
100
AcDbEntity
  8
3-4
  6
Continuous
 62
     7
370
     9
100
AcDbLine
 10
-1704.445522951323
 20
465.6756756756758
 30
0.0
 11
-1701.182368145822
 21
440.8895541413306
 31
0.0
  0
LINE
  5
12A
330
1F
100
AcDbEntity
  8
3-4
  6
Continuous
 62
     7
370
     9
100
AcDbLine
 10
-1707.445522951323
 20
465.6756756756758
 30
0.0
 11
-1410.134429931638
 21
465.6756756756758
 31
0.0
  0
TEXT
  5
12B
330
1F
100
AcDbEntity
  8
3-4
  6
Continuous
 62
     2
370
   211
100
AcDbText
 10
-1716.085522951323
 20
269.4256756756758
 30
0.0
 40
30.48
  1
70
 50
90.0
 41
1.0625
  7
ＭＳ ゴシック
100
AcDbText
  0
LINE
  5
12C
330
1F
100
AcDbEntity
  8
3-4
  6
Continuous
 62
     7
370
     9
100
AcDbLine
 10
-1704.445522951323
 20
465.6756756756758
 30
0.0
 11
-1704.445522951323
 21
540.6756756756758
 31
0.0
  0
LINE
  5
12D
330
1F
100
AcDbEntity
  8
3-4
  6
Continuous
 62
     7
370
     9
100
AcDbLine
 10
-1704.445522951323
 20
465.6756756756758
 30
0.0
 11
-1707.708677756825
 21
490.461797210021
 31
0.0
  0
LINE
  5
12E
330
1F
100
AcDbEntity
  8
3-4
  6
Continuous
 62
     7
370
     9
100
AcDbLine
 10
-1704.445522951323
 20
465.6756756756758
 30
0.0
 11
-1701.182368145822
 21
490.461797210021
 31
0.0
  0
LINE
  5
12F
330
1F
100
AcDbEntity
  8
3-4
  6
Continuous
 62
     7
370
     9
100
AcDbLine
 10
-1704.445522951323
 20
540.6756756756758
 30
0.0
 11
-1707.708677756825
 21
515.8895541413306
 31
0.0
  0
LINE
  5
130
330
1F
100
AcDbEntity
  8
3-4
  6
Continuous
 62
     7
370
     9
100
AcDbLine
 10
-1704.445522951323
 20
540.6756756756758
 30
0.0
 11
-1701.182368145822
 21
515.8895541413306
 31
0.0
  0
LINE
  5
131
330
1F
100
AcDbEntity
  8
3-4
  6
Continuous
 62
     7
370
     9
100
AcDbLine
 10
-1707.445522951323
 20
540.6756756756758
 30
0.0
 11
-1505.135176375105
 21
540.6756756756758
 31
0.0
  0
TEXT
  5
132
330
1F
100
AcDbEntity
  8
3-4
  6
Continuous
 62
     2
370
   211
100
AcDbText
 10
-1716.085522951323
 20
481.9256756756758
 30
0.0
 40
30.48
  1
15
 50
90.0
 41
1.0625
  7
ＭＳ ゴシック
100
AcDbText
  0
LINE
  5
133
330
1F
100
AcDbEntity
  8
3-0
  6
JWW_CENTER2
 62
     7
370
     9
100
AcDbLine
 10
-1570.217917675545
 20
290.6756756756758
 30
0.0
 11
1105.484190244933
 21
290.6756756756758
 31
0.0
  0
TEXT
  5
134
330
1F
100
AcDbEntity
  8
F-5
  6
Continuous
 62
     2
370
     9
100
AcDbText
 10
-621.2502268198374
 20
-1347.468295749974
 30
0.0
 40
30.48
  1
床下換気孔　ＵＡ １００×５００
 41
1.116935483870968
  7
ＭＳ ゴシック
100
AcDbText
  0
LINE
  5
135
330
1F
100
AcDbEntity
  8
3-2
  6
Continuous
 62
     3
370
     9
100
AcDbLine
 10
1507.544852066791
 20
-4.324365564294794
 30
0.0
 11
1542.544967538708
 21
-2.490094159100522
 31
0.0
  0
LINE
  5
136
330
1F
100
AcDbEntity
  8
3-4
  6
Continuous
 62
     7
370
     9
100
AcDbLine
 10
1542.544967538708
 20
-17.49014364706511
 30
0.0
 11
1542.544967538708
 21
-146.7837441934121
 31
0.0
  0
LINE
  5
137
330
1F
100
AcDbEntity
  8
3-4
  6
Continuous
 62
     7
370
     9
100
AcDbLine
 10
1507.544852066791
 20
-19.32441505225938
 30
0.0
 11
1507.544852066791
 21
-146.7837441934121
 31
0.0
  0
LINE
  5
138
330
1F
100
AcDbEntity
  8
3-2
  6
Continuous
 62
     3
370
     9
100
AcDbLine
 10
1507.544852066791
 20
585.6757169156463
 30
0.0
 11
1542.544967538708
 21
583.841445510452
 31
0.0
  0
LINE
  5
139
330
1F
100
AcDbEntity
  8
3-2
  6
Continuous
 62
     3
370
     9
100
AcDbLine
 10
1542.544967538708
 20
583.841445510452
 30
0.0
 11
1542.544967538708
 21
-2.490094159100522
 31
0.0
  0
LINE
  5
13A
330
1F
100
AcDbEntity
  8
3-2
  6
Continuous
 62
     3
370
     9
100
AcDbLine
 10
1507.544852066791
 20
585.6757169156463
 30
0.0
 11
1507.544852066791
 21
-4.324365564294794
 31
0.0
  0
LINE
  5
13B
330
1F
100
AcDbEntity
  8
3-2
  6
Continuous
 62
     3
370
     9
100
AcDbLine
 10
829.8649762007501
 20
-427.4002119120931
 30
0.0
 11
834.8649762007501
 21
-462.4002036640991
 31
0.0
  0
LINE
  5
13C
330
1F
100
AcDbEntity
  8
3-2
  6
Continuous
 62
     3
370
     9
100
AcDbLine
 10
769.8650256887149
 20
-427.4002119120931
 30
0.0
 11
764.8650256887149
 21
-462.4002036640991
 31
0.0
  0
LINE
  5
13D
330
1F
100
AcDbEntity
  8
3-2
  6
Continuous
 62
     3
370
     9
100
AcDbLine
 10
739.864382357209
 20
-427.4002119120931
 30
0.0
 11
744.864382357209
 21
-462.4002036640991
 31
0.0
  0
LINE
  5
13E
330
1F
100
AcDbEntity
  8
3-2
  6
Continuous
 62
     3
370
     9
100
AcDbLine
 10
679.8644318451737
 20
-427.4002119120931
 30
0.0
 11
674.8644318451737
 21
-462.4002036640991
 31
0.0
  0
LINE
  5
13F
330
1F
100
AcDbEntity
  8
3-2
  6
Continuous
 62
     3
370
     9
100
AcDbLine
 10
649.8637885136678
 20
-427.4002119120931
 30
0.0
 11
654.8637885136678
 21
-462.4002036640991
 31
0.0
  0
LINE
  5
140
330
1F
100
AcDbEntity
  8
3-2
  6
Continuous
 62
     3
370
     9
100
AcDbLine
 10
589.8638380016325
 20
-427.4002119120931
 30
0.0
 11
584.8638380016325
 21
-462.4002036640991
 31
0.0
  0
LINE
  5
141
330
1F
100
AcDbEntity
  8
3-2
  6
Continuous
 62
     3
370
     9
100
AcDbLine
 10
559.8631946701266
 20
-427.4002119120931
 30
0.0
 11
564.8631946701266
 21
-462.4002036640991
 31
0.0
  0
LINE
  5
142
330
1F
100
AcDbEntity
  8
3-2
  6
Continuous
 62
     3
370
     9
100
AcDbLine
 10
499.8632441580913
 20
-427.4002119120931
 30
0.0
 11
494.8632441580913
 21
-462.4002036640991
 31
0.0
  0
LINE
  5
143
330
1F
100
AcDbEntity
  8
3-2
  6
Continuous
 62
     3
370
     9
100
AcDbLine
 10
469.8626008265854
 20
-427.4002119120931
 30
0.0
 11
474.8626008265854
 21
-462.4002036640991
 31
0.0
  0
LINE
  5
144
330
1F
100
AcDbEntity
  8
3-2
  6
Continuous
 62
     3
370
     9
100
AcDbLine
 10
409.8626503145502
 20
-427.4002119120931
 30
0.0
 11
404.8626503145502
 21
-462.4002036640991
 31
0.0
  0
LINE
  5
145
330
1F
100
AcDbEntity
  8
3-2
  6
Continuous
 62
     3
370
     9
100
AcDbLine
 10
379.8620069830443
 20
-427.4002119120931
 30
0.0
 11
384.8620069830443
 21
-462.4002036640991
 31
0.0
  0
LINE
  5
146
330
1F
100
AcDbEntity
  8
3-2
  6
Continuous
 62
     3
370
     9
100
AcDbLine
 10
319.8620564710091
 20
-427.4002119120931
 30
0.0
 11
314.8620564710091
 21
-462.4002036640991
 31
0.0
  0
LINE
  5
147
330
1F
100
AcDbEntity
  8
3-2
  6
Continuous
 62
     3
370
     9
100
AcDbLine
 10
289.8614131395032
 20
-427.4002119120931
 30
0.0
 11
294.8614131395032
 21
-462.4002036640991
 31
0.0
  0
LINE
  5
148
330
1F
100
AcDbEntity
  8
3-2
  6
Continuous
 62
     3
370
     9
100
AcDbLine
 10
229.8614626274679
 20
-427.4002119120931
 30
0.0
 11
224.8614626274679
 21
-462.4002036640991
 31
0.0
  0
LINE
  5
149
330
1F
100
AcDbEntity
  8
3-2
  6
Continuous
 62
     3
370
     9
100
AcDbLine
 10
199.860819295962
 20
-427.4002119120931
 30
0.0
 11
204.860819295962
 21
-462.4002036640991
 31
0.0
  0
LINE
  5
14A
330
1F
100
AcDbEntity
  8
3-2
  6
Continuous
 62
     3
370
     9
100
AcDbLine
 10
139.8608687839267
 20
-427.4002119120931
 30
0.0
 11
134.8608687839267
 21
-462.4002036640991
 31
0.0
  0
LINE
  5
14B
330
1F
100
AcDbEntity
  8
3-2
  6
Continuous
 62
     3
370
     9
100
AcDbLine
 10
109.8602254524208
 20
-427.4002119120931
 30
0.0
 11
114.8602254524208
 21
-462.4002036640991
 31
0.0
  0
LINE
  5
14C
330
1F
100
AcDbEntity
  8
3-2
  6
Continuous
 62
     3
370
     9
100
AcDbLine
 10
49.86027494038552
 20
-427.4002119120931
 30
0.0
 11
44.86027494038552
 21
-462.4002036640991
 31
0.0
  0
LINE
  5
14D
330
1F
100
AcDbEntity
  8
3-2
  6
Continuous
 62
     3
370
     9
100
AcDbLine
 10
19.85963160887962
 20
-427.4002119120931
 30
0.0
 11
24.85963160887962
 21
-462.4002036640991
 31
0.0
  0
LINE
  5
14E
330
1F
100
AcDbEntity
  8
3-2
  6
Continuous
 62
     3
370
     9
100
AcDbLine
 10
-40.14031890315565
 20
-427.4002119120931
 30
0.0
 11
-45.14031890315565
 21
-462.4002036640991
 31
0.0
  0
LINE
  5
14F
330
1F
100
AcDbEntity
  8
3-2
  6
Continuous
 62
     3
370
     9
100
AcDbLine
 10
-70.14096223466154
 20
-427.4002119120931
 30
0.0
 11
-65.14096223466154
 21
-462.4002036640991
 31
0.0
  0
LINE
  5
150
330
1F
100
AcDbEntity
  8
3-2
  6
Continuous
 62
     3
370
     9
100
AcDbLine
 10
-130.1409127466968
 20
-427.4002119120931
 30
0.0
 11
-135.1409127466968
 21
-462.4002036640991
 31
0.0
  0
LINE
  5
151
330
1F
100
AcDbEntity
  8
3-2
  6
Continuous
 62
     3
370
     9
100
AcDbLine
 10
-160.1415560782027
 20
-427.4002119120931
 30
0.0
 11
-155.1415560782027
 21
-462.4002036640991
 31
0.0
  0
LINE
  5
152
330
1F
100
AcDbEntity
  8
3-2
  6
Continuous
 62
     3
370
     9
100
AcDbLine
 10
-220.141506590238
 20
-427.4002119120931
 30
0.0
 11
-225.141506590238
 21
-462.4002036640991
 31
0.0
  0
LINE
  5
153
330
1F
100
AcDbEntity
  8
3-2
  6
Continuous
 62
     3
370
     9
100
AcDbLine
 10
-250.1421499217439
 20
-427.4002119120931
 30
0.0
 11
-245.1421499217439
 21
-462.4002036640991
 31
0.0
  0
LINE
  5
154
330
1F
100
AcDbEntity
  8
3-2
  6
Continuous
 62
     3
370
     9
100
AcDbLine
 10
-310.1421004337791
 20
-427.4002119120931
 30
0.0
 11
-315.1421004337791
 21
-462.4002036640991
 31
0.0
  0
LINE
  5
155
330
1F
100
AcDbEntity
  8
3-2
  6
Continuous
 62
     3
370
     9
100
AcDbLine
 10
-340.142743765285
 20
-427.4002119120931
 30
0.0
 11
-335.142743765285
 21
-462.4002036640991
 31
0.0
  0
LINE
  5
156
330
1F
100
AcDbEntity
  8
3-2
  6
Continuous
 62
     3
370
     9
100
AcDbLine
 10
-400.1426942773203
 20
-427.4002119120931
 30
0.0
 11
-405.1426942773203
 21
-462.4002036640991
 31
0.0
  0
LINE
  5
157
330
1F
100
AcDbEntity
  8
3-2
  6
Continuous
 62
     3
370
     9
100
AcDbLine
 10
-430.1433376088262
 20
-427.4002119120931
 30
0.0
 11
-425.1433376088262
 21
-462.4002036640991
 31
0.0
  0
LINE
  5
158
330
1F
100
AcDbEntity
  8
3-2
  6
Continuous
 62
     3
370
     9
100
AcDbLine
 10
-490.1432881208615
 20
-427.4002119120931
 30
0.0
 11
-495.1432881208615
 21
-462.4002036640991
 31
0.0
  0
LINE
  5
159
330
1F
100
AcDbEntity
  8
3-2
  6
Continuous
 62
     3
370
     9
100
AcDbLine
 10
-520.1439314523673
 20
-427.4002119120931
 30
0.0
 11
-515.1439314523673
 21
-462.4002036640991
 31
0.0
  0
LINE
  5
15A
330
1F
100
AcDbEntity
  8
3-2
  6
Continuous
 62
     3
370
     9
100
AcDbLine
 10
-580.1438819644025
 20
-427.4002119120931
 30
0.0
 11
-585.1438819644025
 21
-462.4002036640991
 31
0.0
  0
LINE
  5
15B
330
1F
100
AcDbEntity
  8
3-2
  6
Continuous
 62
     3
370
     9
100
AcDbLine
 10
-610.1445252959086
 20
-427.4002119120931
 30
0.0
 11
-605.1445252959086
 21
-462.4002036640991
 31
0.0
  0
LINE
  5
15C
330
1F
100
AcDbEntity
  8
3-2
  6
Continuous
 62
     3
370
     9
100
AcDbLine
 10
-670.1444758079438
 20
-427.4002119120931
 30
0.0
 11
-675.1444758079438
 21
-462.4002036640991
 31
0.0
  0
LINE
  5
15D
330
1F
100
AcDbEntity
  8
3-2
  6
Continuous
 62
     3
370
     9
100
AcDbLine
 10
-700.1451191394499
 20
-427.4002119120931
 30
0.0
 11
-695.1451191394499
 21
-462.4002036640991
 31
0.0
  0
LINE
  5
15E
330
1F
100
AcDbEntity
  8
3-2
  6
Continuous
 62
     3
370
     9
100
AcDbLine
 10
-760.1450696514851
 20
-427.4002119120931
 30
0.0
 11
-765.1450696514851
 21
-462.4002036640991
 31
0.0
  0
LINE
  5
15F
330
1F
100
AcDbEntity
  8
3-2
  6
Continuous
 62
     3
370
     9
100
AcDbLine
 10
-790.1457129829909
 20
-427.4002119120931
 30
0.0
 11
-785.1457129829909
 21
-462.4002036640991
 31
0.0
  0
LINE
  5
160
330
1F
100
AcDbEntity
  8
3-2
  6
Continuous
 62
     3
370
     9
100
AcDbLine
 10
-850.1456634950262
 20
-427.4002119120931
 30
0.0
 11
-855.1456634950262
 21
-462.4002036640991
 31
0.0
  0
LINE
  5
161
330
1F
100
AcDbEntity
  8
3-2
  6
Continuous
 62
     3
370
     9
100
AcDbLine
 10
-880.1463068265319
 20
-427.4002119120931
 30
0.0
 11
-875.1463068265319
 21
-462.4002036640991
 31
0.0
  0
LINE
  5
162
330
1F
100
AcDbEntity
  8
3-2
  6
Continuous
 62
     3
370
     9
100
AcDbLine
 10
-940.1462573385672
 20
-427.4002119120931
 30
0.0
 11
-945.1462573385672
 21
-462.4002036640991
 31
0.0
  0
LINE
  5
163
330
1F
100
AcDbEntity
  8
3-2
  6
Continuous
 62
     3
370
     9
100
AcDbLine
 10
-970.1469006700733
 20
-427.4002119120931
 30
0.0
 11
-965.1469006700733
 21
-462.4002036640991
 31
0.0
  0
LINE
  5
164
330
1F
100
AcDbEntity
  8
3-2
  6
Continuous
 62
     3
370
     9
100
AcDbLine
 10
-1030.146851182109
 20
-427.4002119120931
 30
0.0
 11
-1035.146851182109
 21
-462.4002036640991
 31
0.0
  0
LINE
  5
165
330
1F
100
AcDbEntity
  8
3-2
  6
Continuous
 62
     3
370
     9
100
AcDbLine
 10
-1060.147494513614
 20
-427.4002119120931
 30
0.0
 11
-1055.147494513614
 21
-462.4002036640991
 31
0.0
  0
LINE
  5
166
330
1F
100
AcDbEntity
  8
3-2
  6
Continuous
 62
     3
370
     9
100
AcDbLine
 10
-1120.14744502565
 20
-427.4002119120931
 30
0.0
 11
-1125.14744502565
 21
-462.4002036640991
 31
0.0
  0
LINE
  5
167
330
1F
100
AcDbEntity
  8
3-2
  6
Continuous
 62
     3
370
     9
100
AcDbLine
 10
-1150.148088357156
 20
-427.4002119120931
 30
0.0
 11
-1145.148088357156
 21
-462.4002036640991
 31
0.0
  0
LINE
  5
168
330
1F
100
AcDbEntity
  8
3-2
  6
Continuous
 62
     3
370
     9
100
AcDbLine
 10
-1210.148038869191
 20
-427.4002119120931
 30
0.0
 11
-1215.148038869191
 21
-462.4002036640991
 31
0.0
  0
LINE
  5
169
330
1F
100
AcDbEntity
  8
3-2
  6
Continuous
 62
     3
370
     9
100
AcDbLine
 10
-1240.148682200697
 20
-427.4002119120931
 30
0.0
 11
-1235.148682200697
 21
-462.4002036640991
 31
0.0
  0
LINE
  5
16A
330
1F
100
AcDbEntity
  8
3-2
  6
Continuous
 62
     3
370
     9
100
AcDbLine
 10
-1300.148632712732
 20
-427.4002119120931
 30
0.0
 11
-1305.148632712732
 21
-462.4002036640991
 31
0.0
  0
LINE
  5
16B
330
1F
100
AcDbEntity
  8
3-2
  6
Continuous
 62
     3
370
     9
100
AcDbLine
 10
-1330.149276044238
 20
-427.4002119120931
 30
0.0
 11
-1325.149276044238
 21
-462.4002036640991
 31
0.0
  0
LINE
  5
16C
330
1F
100
AcDbEntity
  8
3-2
  6
Continuous
 62
     3
370
     9
100
AcDbLine
 10
-1390.149226556273
 20
-427.4002119120931
 30
0.0
 11
-1395.149226556273
 21
-462.4002036640991
 31
0.0
  0
LINE
  5
16D
330
1F
100
AcDbEntity
  8
3-2
  6
Continuous
 62
     3
370
     9
100
AcDbLine
 10
919.8642833812792
 20
-427.4002119120931
 30
0.0
 11
924.8642833812792
 21
-462.4002036640991
 31
0.0
  0
LINE
  5
16E
330
1F
100
AcDbEntity
  8
3-2
  6
Continuous
 62
     3
370
     9
100
AcDbLine
 10
859.864332869244
 20
-427.4002119120931
 30
0.0
 11
854.864332869244
 21
-462.4002036640991
 31
0.0
  0
LINE
  5
16F
330
1F
100
AcDbEntity
  8
3-2
  6
Continuous
 62
     3
370
     9
100
AcDbLine
 10
1507.544852066791
 20
40.67567567567579
 30
0.0
 11
1542.544843818797
 21
45.67567567567579
 31
0.0
  0
LINE
  5
170
330
1F
100
AcDbEntity
  8
3-2
  6
Continuous
 62
     3
370
     9
100
AcDbLine
 10
1507.544852066791
 20
115.6756756756758
 30
0.0
 11
1542.544843818797
 21
110.6756756756758
 31
0.0
  0
LINE
  5
171
330
1F
100
AcDbEntity
  8
3-2
  6
Continuous
 62
     3
370
     9
100
AcDbLine
 10
1507.544852066791
 20
540.6756756756758
 30
0.0
 11
1542.544843818797
 21
535.6756756756758
 31
0.0
  0
LINE
  5
172
330
1F
100
AcDbEntity
  8
3-2
  6
Continuous
 62
     3
370
     9
100
AcDbLine
 10
1507.544852066791
 20
465.6756756756758
 30
0.0
 11
1542.544843818797
 21
470.6756756756758
 31
0.0
  0
ENDSEC
  0
SECTION
  2
OBJECTS
  0
DICTIONARY
  5
C
330
0
100
AcDbDictionary
281
     1
  3
ACAD_GROUP
350
D
  3
ACAD_LAYOUT
350
1A
  3
ACAD_MLEADERSTYLE
350
174
  3
ACAD_MLINESTYLE
350
17
  3
ACAD_PLOTSETTINGS
350
19
  3
ACAD_PLOTSTYLENAME
350
E
  3
ACAD_TABLESTYLE
350
173
  3
ACAD_VISUALSTYLE
350
2A
  0
DICTIONARY
  5
D
102
{ACAD_REACTORS
330
C
102
}
330
C
100
AcDbDictionary
281
     1
  0
DICTIONARY
  5
1A
102
{ACAD_REACTORS
330
C
102
}
330
C
100
AcDbDictionary
281
     1
  3
Layout1
350
1E
  3
Layout2
350
26
  3
Model
350
22
  0
DICTIONARY
  5
174
102
{ACAD_REACTORS
330
C
102
}
330
C
100
AcDbDictionary
281
     1
  0
DICTIONARY
  5
17
102
{ACAD_REACTORS
330
C
102
}
330
C
100
AcDbDictionary
281
     1
  3
Standard
350
18
  0
DICTIONARY
  5
19
102
{ACAD_REACTORS
330
C
102
}
330
C
100
AcDbDictionary
281
     1
  0
ACDBDICTIONARYWDFLT
  5
E
102
{ACAD_REACTORS
330
C
102
}
330
C
100
AcDbDictionary
281
     1
  3
Normal
350
F
100
AcDbDictionaryWithDefault
340
F
  0
DICTIONARY
  5
173
102
{ACAD_REACTORS
330
C
102
}
330
C
100
AcDbDictionary
281
     1
  0
DICTIONARY
  5
2A
102
{ACAD_REACTORS
330
C
102
}
330
C
100
AcDbDictionary
281
     1
  3
2dWireframe
350
2F
  3
3D Hidden
350
31
  3
3dWireframe
350
30
  3
Basic
350
32
  3
Brighten
350
36
  3
ColorChange
350
3A
  3
Conceptual
350
34
  3
Dim
350
35
  3
Facepattern
350
39
  3
Flat
350
2B
  3
FlatWithEdges
350
2C
  3
Gouraud
350
2D
  3
GouraudWithEdges
350
2E
  3
Linepattern
350
38
  3
Realistic
350
33
  3
Thicken
350
37
  0
LAYOUT
  5
1E
102
{ACAD_REACTORS
330
1A
102
}
330
1A
100
AcDbPlotSettings
  1

  2
none_device
  4

  6

 40
0.0
 41
0.0
 42
0.0
 43
0.0
 44
0.0
 45
0.0
 46
0.0
 47
0.0
 48
0.0
 49
0.0
140
0.0
141
0.0
142
1.0
143
1.0
 70
   688
 72
     0
 73
     0
 74
     5
  7

 75
    16
 76
     0
 77
     5
 78
   300
147
1.0
148
0.0
149
0.0
100
AcDbLayout
  1
Layout1
 70
     1
 71
     1
 10
0.0
 20
0.0
 11
420.0
 21
297.0
 12
0.0
 22
0.0
 32
0.0
 14
1.000000000000000E+20
 24
1.000000000000000E+20
 34
1.000000000000000E+20
 15
-1.000000000000000E+20
 25
-1.000000000000000E+20
 35
-1.000000000000000E+20
146
0.0
 13
0.0
 23
0.0
 33
0.0
 16
1.0
 26
0.0
 36
0.0
 17
0.0
 27
1.0
 37
0.0
 76
     0
330
1B
  0
LAYOUT
  5
26
102
{ACAD_REACTORS
330
1A
102
}
330
1A
100
AcDbPlotSettings
  1

  2
none_device
  4

  6

 40
0.0
 41
0.0
 42
0.0
 43
0.0
 44
0.0
 45
0.0
 46
0.0
 47
0.0
 48
0.0
 49
0.0
140
0.0
141
0.0
142
1.0
143
1.0
 70
   688
 72
     0
 73
     0
 74
     5
  7

 75
    16
 76
     0
 77
     5
 78
   300
147
1.0
148
0.0
149
0.0
100
AcDbLayout
  1
Layout2
 70
     1
 71
     2
 10
0.0
 20
0.0
 11
0.0
 21
0.0
 12
0.0
 22
0.0
 32
0.0
 14
0.0
 24
0.0
 34
0.0
 15
0.0
 25
0.0
 35
0.0
146
0.0
 13
0.0
 23
0.0
 33
0.0
 16
1.0
 26
0.0
 36
0.0
 17
0.0
 27
1.0
 37
0.0
 76
     0
330
23
  0
LAYOUT
  5
22
102
{ACAD_REACTORS
330
1A
102
}
330
1A
100
AcDbPlotSettings
  1

  2
none_device
  4

  6

 40
0.0
 41
0.0
 42
0.0
 43
0.0
 44
0.0
 45
0.0
 46
0.0
 47
0.0
 48
0.0
 49
0.0
140
0.0
141
0.0
142
1.0
143
1.0
 70
  1712
 72
     0
 73
     0
 74
     0
  7

 75
     0
 76
     0
 77
     5
 78
   300
147
1.0
148
0.0
149
0.0
100
AcDbLayout
  1
Model
 70
     1
 71
     0
 10
-2100.0
 20
-1485.0
 11
2100.0
 21
1485.0
 12
0.0
 22
0.0
 32
0.0
 14
-2100.0
 24
-1485.0
 34
0.0
 15
2100.0
 25
1485.0
 35
0.0
146
0.0
 13
0.0
 23
0.0
 33
0.0
 16
1.0
 26
0.0
 36
0.0
 17
0.0
 27
1.0
 37
0.0
 76
     0
330
1F
331
29
  0
MLINESTYLE
  5
18
102
{ACAD_REACTORS
330
17
102
}
330
17
100
AcDbMlineStyle
  2
Standard
 70
     0
  3

 62
   256
 51
90.0
 52
90.0
 71
     2
 49
0.5
 62
   256
  6
BYLAYER
 49
-0.5
 62
   256
  6
BYLAYER
  0
ACDBPLACEHOLDER
  5
F
102
{ACAD_REACTORS
330
E
102
}
330
E
  0
VISUALSTYLE
  5
2F
102
{ACAD_REACTORS
330
2A
102
}
330
2A
100
AcDbVisualStyle
  2
2dWireframe
 70
     4
 71
     0
 72
     2
 73
     0
 90
        0
 40
-0.6
 41
-30.0
 62
     5
 63
     7
421
 16777215
 74
     1
 91
        4
 64
     7
 65
   257
 75
     1
175
     1
 42
1.0
 92
        0
 66
   257
 43
1.0
 76
     1
 77
     6
 78
     2
 67
     7
 79
     5
170
     0
171
     0
290
     0
174
     0
 93
        1
 44
0.0
173
     0
291
     0
 45
0.0
1001
ACAD
1000
AcDbSavedByObjectVersion
1070
     0
  0
VISUALSTYLE
  5
31
102
{ACAD_REACTORS
330
2A
102
}
330
2A
100
AcDbVisualStyle
  2
3D Hidden
 70
     6
 71
     1
 72
     2
 73
     2
 90
        0
 40
-0.6
 41
-30.0
 62
     5
 63
     7
421
 16777215
 74
     2
 91
        2
 64
     7
 65
   257
 75
     2
175
     1
 42
40.0
 92
        0
 66
   257
 43
1.0
 76
     1
 77
     6
 78
     2
 67
     7
 79
     3
170
     0
171
     0
290
     0
174
     0
 93
        1
 44
0.0
173
     0
291
     0
 45
0.0
1001
ACAD
1000
AcDbSavedByObjectVersion
1070
     0
  0
VISUALSTYLE
  5
30
102
{ACAD_REACTORS
330
2A
102
}
330
2A
100
AcDbVisualStyle
  2
3dWireframe
 70
     5
 71
     0
 72
     2
 73
     0
 90
        0
 40
-0.6
 41
-30.0
 62
     5
 63
     7
421
 16777215
 74
     1
 91
        4
 64
     7
 65
   257
 75
     1
175
     1
 42
1.0
 92
        0
 66
   257
 43
1.0
 76
     1
 77
     6
 78
     2
 67
     7
 79
     5
170
     0
171
     0
290
     0
174
     0
 93
        1
 44
0.0
173
     0
291
     0
 45
0.0
1001
ACAD
1000
AcDbSavedByObjectVersion
1070
     0
  0
VISUALSTYLE
  5
32
102
{ACAD_REACTORS
330
2A
102
}
330
2A
100
AcDbVisualStyle
  2
Basic
 70
     7
 71
     1
 72
     0
 73
     1
 90
        0
 40
-0.6
 41
-30.0
 62
     5
 63
     7
421
 16777215
 74
     0
 91
        4
 64
     7
 65
   257
 75
     1
175
     1
 42
1.0
 92
        8
 66
     7
 43
1.0
 76
     1
 77
     6
 78
     2
 67
     7
 79
     5
170
     0
171
     0
290
     0
174
     0
 93
        1
 44
0.0
173
     0
291
     1
 45
0.0
1001
ACAD
1000
AcDbSavedByObjectVersion
1070
     0
  0
VISUALSTYLE
  5
36
102
{ACAD_REACTORS
330
2A
102
}
330
2A
100
AcDbVisualStyle
  2
Brighten
 70
    12
 71
     2
 72
     2
 73
     0
 90
        0
 40
-0.6
 41
-30.0
 62
     5
 63
     7
421
 16777215
 74
     1
 91
        4
 64
     7
 65
   257
 75
     1
175
     1
 42
1.0
 92
        8
 66
     7
 43
1.0
 76
     1
 77
     6
 78
     2
 67
     7
 79
     5
170
     0
171
     0
290
     0
174
     0
 93
        1
 44
50.0
173
     0
291
     1
 45
0.0
1001
ACAD
1000
AcDbSavedByObjectVersion
1070
     0
  0
VISUALSTYLE
  5
3A
102
{ACAD_REACTORS
330
2A
102
}
330
2A
100
AcDbVisualStyle
  2
ColorChange
 70
    16
 71
     2
 72
     2
 73
     3
 90
        0
 40
-0.6
 41
-30.0
 62
     5
 63
     8
421
  8421504
 74
     1
 91
        4
 64
     7
 65
   257
 75
     1
175
     1
 42
1.0
 92
        8
 66
     8
424
  8421504
 43
1.0
 76
     1
 77
     6
 78
     2
 67
     7
 79
     5
170
     0
171
     0
290
     0
174
     0
 93
        1
 44
0.0
173
     0
291
     1
 45
0.0
1001
ACAD
1000
AcDbSavedByObjectVersion
1070
     0
  0
VISUALSTYLE
  5
34
102
{ACAD_REACTORS
330
2A
102
}
330
2A
100
AcDbVisualStyle
  2
Conceptual
 70
     9
 71
     3
 72
     2
 73
     0
 90
        0
 40
-0.6
 41
-30.0
 62
     5
 63
     7
421
 16777215
 74
     2
 91
        2
 64
     7
 65
   257
 75
     1
175
     1
 42
40.0
 92
        8
 66
     7
 43
1.0
 76
     1
 77
     6
 78
     2
 67
     7
 79
     3
170
     0
171
     0
290
     0
174
     0
 93
        1
 44
0.0
173
     0
291
     0
 45
0.0
1001
ACAD
1000
AcDbSavedByObjectVersion
1070
     0
  0
VISUALSTYLE
  5
35
102
{ACAD_REACTORS
330
2A
102
}
330
2A
100
AcDbVisualStyle
  2
Dim
 70
    11
 71
     2
 72
     2
 73
     0
 90
        0
 40
-0.6
 41
-30.0
 62
     5
 63
     7
421
 16777215
 74
     1
 91
        4
 64
     7
 65
   257
 75
     1
175
     1
 42
1.0
 92
        8
 66
     7
 43
1.0
 76
     1
 77
     6
 78
     2
 67
     7
 79
     5
170
     0
171
     0
290
     0
174
     0
 93
        1
 44
-50.0
173
     0
291
     1
 45
0.0
1001
ACAD
1000
AcDbSavedByObjectVersion
1070
     0
  0
VISUALSTYLE
  5
39
102
{ACAD_REACTORS
330
2A
102
}
330
2A
100
AcDbVisualStyle
  2
Facepattern
 70
    15
 71
     2
 72
     2
 73
     0
 90
        0
 40
-0.6
 41
-30.0
 62
     5
 63
     7
421
 16777215
 74
     1
 91
        4
 64
     7
 65
   257
 75
     1
175
     1
 42
1.0
 92
        8
 66
     7
 43
1.0
 76
     1
 77
     6
 78
     2
 67
     7
 79
     5
170
     0
171
     0
290
     0
174
     0
 93
        1
 44
0.0
173
     0
291
     1
 45
0.0
1001
ACAD
1000
AcDbSavedByObjectVersion
1070
     0
  0
VISUALSTYLE
  5
2B
102
{ACAD_REACTORS
330
2A
102
}
330
2A
100
AcDbVisualStyle
  2
Flat
 70
     0
 71
     2
 72
     1
 73
     1
 90
        2
 40
-0.6
 41
30.0
 62
     5
 63
     7
421
 16777215
 74
     0
 91
        4
 64
     7
 65
   257
 75
     1
175
     1
 42
1.0
 92
        8
 66
     7
 43
1.0
 76
     1
 77
     6
 78
     2
 67
     7
 79
     5
170
     0
171
     0
290
     0
174
     0
 93
       13
 44
0.0
173
     0
291
     1
 45
0.0
1001
ACAD
1000
AcDbSavedByObjectVersion
1070
     0
  0
VISUALSTYLE
  5
2C
102
{ACAD_REACTORS
330
2A
102
}
330
2A
100
AcDbVisualStyle
  2
FlatWithEdges
 70
     1
 71
     2
 72
     1
 73
     1
 90
        2
 40
-0.6
 41
30.0
 62
     5
 63
     7
421
 16777215
 74
     1
 91
        4
 64
     7
 65
   257
 75
     1
175
     1
 42
1.0
 92
        0
 66
   257
 43
1.0
 76
     1
 77
     6
 78
     2
 67
     7
 79
     5
170
     0
171
     0
290
     0
174
     0
 93
       13
 44
0.0
173
     0
291
     1
 45
0.0
1001
ACAD
1000
AcDbSavedByObjectVersion
1070
     0
  0
VISUALSTYLE
  5
2D
102
{ACAD_REACTORS
330
2A
102
}
330
2A
100
AcDbVisualStyle
  2
Gouraud
 70
     2
 71
     2
 72
     2
 73
     1
 90
        2
 40
-0.6
 41
30.0
 62
     5
 63
     7
421
 16777215
 74
     0
 91
        4
 64
     7
 65
   257
 75
     1
175
     1
 42
1.0
 92
        0
 66
     7
 43
1.0
 76
     1
 77
     6
 78
     2
 67
     7
 79
     5
170
     0
171
     0
290
     0
174
     0
 93
       13
 44
0.0
173
     0
291
     1
 45
0.0
1001
ACAD
1000
AcDbSavedByObjectVersion
1070
     0
  0
VISUALSTYLE
  5
2E
102
{ACAD_REACTORS
330
2A
102
}
330
2A
100
AcDbVisualStyle
  2
GouraudWithEdges
 70
     3
 71
     2
 72
     2
 73
     1
 90
        2
 40
-0.6
 41
30.0
 62
     5
 63
     7
421
 16777215
 74
     1
 91
        4
 64
     7
 65
   257
 75
     1
175
     1
 42
1.0
 92
        0
 66
   257
 43
1.0
 76
     1
 77
     6
 78
     2
 67
     7
 79
     5
170
     0
171
     0
290
     0
174
     0
 93
       13
 44
0.0
173
     0
291
     1
 45
0.0
1001
ACAD
1000
AcDbSavedByObjectVersion
1070
     0
  0
VISUALSTYLE
  5
38
102
{ACAD_REACTORS
330
2A
102
}
330
2A
100
AcDbVisualStyle
  2
Linepattern
 70
    14
 71
     2
 72
     2
 73
     0
 90
        0
 40
-0.6
 41
-30.0
 62
     5
 63
     7
421
 16777215
 74
     1
 91
        4
 64
     7
 65
   257
 75
     7
175
     7
 42
1.0
 92
        8
 66
     7
 43
1.0
 76
     1
 77
     6
 78
     2
 67
     7
 79
     5
170
     0
171
     0
290
     0
174
     0
 93
        1
 44
0.0
173
     0
291
     1
 45
0.0
1001
ACAD
1000
AcDbSavedByObjectVersion
1070
     0
  0
VISUALSTYLE
  5
33
102
{ACAD_REACTORS
330
2A
102
}
330
2A
100
AcDbVisualStyle
  2
Realistic
 70
     8
 71
     2
 72
     2
 73
     0
 90
        0
 40
-0.6
 41
-30.0
 62
     5
 63
     7
421
 16777215
 74
     1
 91
        0
 64
     7
 65
   257
 75
     1
175
     1
 42
1.0
 92
        8
 66
     8
424
  7895160
 43
1.0
 76
     1
 77
     6
 78
     2
 67
     7
 79
     5
170
     0
171
     0
290
     0
174
     0
 93
       13
 44
0.0
173
     0
291
     0
 45
0.0
1001
ACAD
1000
AcDbSavedByObjectVersion
1070
     0
  0
VISUALSTYLE
  5
37
102
{ACAD_REACTORS
330
2A
102
}
330
2A
100
AcDbVisualStyle
  2
Thicken
 70
    13
 71
     2
 72
     2
 73
     0
 90
        0
 40
-0.6
 41
-30.0
 62
     5
 63
     7
421
 16777215
 74
     1
 91
        4
 64
     7
 65
   257
 75
     1
175
     1
 42
1.0
 92
       12
 66
     7
 43
1.0
 76
     1
 77
     6
 78
     2
 67
     7
 79
     5
170
     0
171
     0
290
     0
174
     0
 93
        1
 44
0.0
173
     0
291
     1
 45
0.0
1001
ACAD
1000
AcDbSavedByObjectVersion
1070
     0
  0
ENDSEC
  0
EOF
