  0
SECTION
  2
HEADER
  9
$ACADVER
  1
AC1018
  9
$ACADMAINTVER
 70
     0
  9
$DWGCODEPAGE
  3
ANSI_932
  9
$INSBASE
 10
0.0
 20
0.0
 30
0.0
  9
$EXTMIN
 10
-2100.0
 20
-1485.0
 30
0.0
  9
$EXTMAX
 10
2100.0
 20
1485.0
 30
0.0
  9
$LIMMIN
 10
-2100.0
 20
-1485.0
  9
$LIMMAX
 10
2100.0
 20
1485.0
  9
$ORTHOMODE
 70
     0
  9
$REGENMODE
 70
     1
  9
$FILLMODE
 70
     1
  9
$QTEXTMODE
 70
     0
  9
$MIRRTEXT
 70
     1
  9
$LTSCALE
 40
10.0
  9
$ATTMODE
 70
     1
  9
$TEXTSIZE
 40
2.5
  9
$TRACEWID
 40
1.0
  9
$TEXTSTYLE
  7
Standard
  9
$CLAYER
  8
0
  9
$CELTYPE
  6
ByLayer
  9
$CECOLOR
 62
   256
  9
$CELTSCALE
 40
1.0
  9
$DISPSILH
 70
     0
  9
$DIMSCALE
 40
1.0
  9
$DIMASZ
 40
2.5
  9
$DIMEXO
 40
0.625
  9
$DIMDLI
 40
3.75
  9
$DIMRND
 40
0.0
  9
$DIMDLE
 40
0.0
  9
$DIMEXE
 40
1.25
  9
$DIMTP
 40
0.0
  9
$DIMTM
 40
0.0
  9
$DIMTXT
 40
2.5
  9
$DIMCEN
 40
2.5
  9
$DIMTSZ
 40
0.0
  9
$DIMTOL
 70
     0
  9
$DIMLIM
 70
     0
  9
$DIMTIH
 70
     0
  9
$DIMTOH
 70
     0
  9
$DIMSE1
 70
     0
  9
$DIMSE2
 70
     0
  9
$DIMTAD
 70
     1
  9
$DIMZIN
 70
     8
  9
$DIMBLK
  1

  9
$DIMASO
 70
     1
  9
$DIMSHO
 70
     1
  9
$DIMPOST
  1

  9
$DIMAPOST
  1

  9
$DIMALT
 70
     0
  9
$DIMALTD
 70
     3
  9
$DIMALTF
 40
0.03937007874016
  9
$DIMLFAC
 40
1.0
  9
$DIMTOFL
 70
     1
  9
$DIMTVP
 40
0.0
  9
$DIMTIX
 70
     0
  9
$DIMSOXD
 70
     0
  9
$DIMSAH
 70
     0
  9
$DIMBLK1
  1

  9
$DIMBLK2
  1

  9
$DIMSTYLE
  2
ISO-25
  9
$DIMCLRD
 70
     0
  9
$DIMCLRE
 70
     0
  9
$DIMCLRT
 70
     0
  9
$DIMTFAC
 40
1.0
  9
$DIMGAP
 40
0.625
  9
$DIMJUST
 70
     0
  9
$DIMSD1
 70
     0
  9
$DIMSD2
 70
     0
  9
$DIMTOLJ
 70
     0
  9
$DIMTZIN
 70
     8
  9
$DIMALTZ
 70
     0
  9
$DIMALTTZ
 70
     0
  9
$DIMUPT
 70
     0
  9
$DIMDEC
 70
     2
  9
$DIMTDEC
 70
     2
  9
$DIMALTU
 70
     2
  9
$DIMALTTD
 70
     3
  9
$DIMTXSTY
  7
Standard
  9
$DIMAUNIT
 70
     0
  9
$DIMADEC
 70
     0
  9
$DIMALTRND
 40
0.0
  9
$DIMAZIN
 70
     0
  9
$DIMDSEP
 70
    44
  9
$DIMATFIT
 70
     3
  9
$DIMFRAC
 70
     0
  9
$DIMLDRBLK
  1

  9
$DIMLUNIT
 70
     2
  9
$DIMLWD
 70
    -2
  9
$DIMLWE
 70
    -2
  9
$DIMTMOVE
 70
     0
  9
$LUNITS
 70
     2
  9
$LUPREC
 70
     4
  9
$SKETCHINC
 40
1.0
  9
$FILLETRAD
 40
10.0
  9
$AUNITS
 70
     0
  9
$AUPREC
 70
     0
  9
$MENU
  1
.
  9
$ELEVATION
 40
0.0
  9
$PELEVATION
 40
0.0
  9
$THICKNESS
 40
0.0
  9
$LIMCHECK
 70
     0
  9
$CHAMFERA
 40
10.0
  9
$CHAMFERB
 40
10.0
  9
$CHAMFERC
 40
20.0
  9
$CHAMFERD
 40
0.0
  9
$SKPOLY
 70
     0
  9
$TDCREATE
 40
2456499.587064791
  9
$TDUCREATE
 40
2456499.212064791
  9
$TDUPDATE
 40
2456499.587064803
  9
$TDUUPDATE
 40
2456499.212064803
  9
$TDINDWG
 40
0.0000000116
  9
$TDUSRTIMER
 40
0.0000000116
  9
$USRTIMER
 70
     1
  9
$ANGBASE
 50
0.0
  9
$ANGDIR
 70
     0
  9
$PDMODE
 70
     0
  9
$PDSIZE
 40
0.0
  9
$PLINEWID
 40
0.0
  9
$SPLFRAME
 70
     0
  9
$SPLINETYPE
 70
     6
  9
$SPLINESEGS
 70
     8
  9
$HANDSEED
  5
131
  9
$SURFTAB1
 70
     6
  9
$SURFTAB2
 70
     6
  9
$SURFTYPE
 70
     6
  9
$SURFU
 70
     6
  9
$SURFV
 70
     6
  9
$UCSBASE
  2

  9
$UCSNAME
  2

  9
$UCSORG
 10
0.0
 20
0.0
 30
0.0
  9
$UCSXDIR
 10
1.0
 20
0.0
 30
0.0
  9
$UCSYDIR
 10
0.0
 20
1.0
 30
0.0
  9
$UCSORTHOREF
  2

  9
$UCSORTHOVIEW
 70
     0
  9
$UCSORGTOP
 10
0.0
 20
0.0
 30
0.0
  9
$UCSORGBOTTOM
 10
0.0
 20
0.0
 30
0.0
  9
$UCSORGLEFT
 10
0.0
 20
0.0
 30
0.0
  9
$UCSORGRIGHT
 10
0.0
 20
0.0
 30
0.0
  9
$UCSORGFRONT
 10
0.0
 20
0.0
 30
0.0
  9
$UCSORGBACK
 10
0.0
 20
0.0
 30
0.0
  9
$PUCSBASE
  2

  9
$PUCSNAME
  2

  9
$PUCSORG
 10
0.0
 20
0.0
 30
0.0
  9
$PUCSXDIR
 10
1.0
 20
0.0
 30
0.0
  9
$PUCSYDIR
 10
0.0
 20
1.0
 30
0.0
  9
$PUCSORTHOREF
  2

  9
$PUCSORTHOVIEW
 70
     0
  9
$PUCSORGTOP
 10
0.0
 20
0.0
 30
0.0
  9
$PUCSORGBOTTOM
 10
0.0
 20
0.0
 30
0.0
  9
$PUCSORGLEFT
 10
0.0
 20
0.0
 30
0.0
  9
$PUCSORGRIGHT
 10
0.0
 20
0.0
 30
0.0
  9
$PUCSORGFRONT
 10
0.0
 20
0.0
 30
0.0
  9
$PUCSORGBACK
 10
0.0
 20
0.0
 30
0.0
  9
$USERI1
 70
     0
  9
$USERI2
 70
     0
  9
$USERI3
 70
     0
  9
$USERI4
 70
     0
  9
$USERI5
 70
     0
  9
$USERR1
 40
0.0
  9
$USERR2
 40
0.0
  9
$USERR3
 40
0.0
  9
$USERR4
 40
0.0
  9
$USERR5
 40
0.0
  9
$WORLDVIEW
 70
     1
  9
$SHADEDGE
 70
     3
  9
$SHADEDIF
 70
    70
  9
$TILEMODE
 70
     1
  9
$MAXACTVP
 70
    64
  9
$PINSBASE
 10
0.0
 20
0.0
 30
0.0
  9
$PLIMCHECK
 70
     0
  9
$PEXTMIN
 10
1.000000000000000E+20
 20
1.000000000000000E+20
 30
1.000000000000000E+20
  9
$PEXTMAX
 10
-1.000000000000000E+20
 20
-1.000000000000000E+20
 30
-1.000000000000000E+20
  9
$PLIMMIN
 10
0.0
 20
0.0
  9
$PLIMMAX
 10
420.0
 20
297.0
  9
$UNITMODE
 70
     0
  9
$VISRETAIN
 70
     1
  9
$PLINEGEN
 70
     0
  9
$PSLTSCALE
 70
     1
  9
$TREEDEPTH
 70
  3020
  9
$CMLSTYLE
  2
Standard
  9
$CMLJUST
 70
     0
  9
$CMLSCALE
 40
20.0
  9
$PROXYGRAPHICS
 70
     1
  9
$MEASUREMENT
 70
     1
  9
$CELWEIGHT
370
    -1
  9
$ENDCAPS
280
     0
  9
$JOINSTYLE
280
     0
  9
$LWDISPLAY
290
     0
  9
$INSUNITS
 70
     4
  9
$HYPERLINKBASE
  1

  9
$STYLESHEET
  1

  9
$XEDIT
290
     1
  9
$CEPSNTYPE
380
     0
  9
$PSTYLEMODE
290
     1
  9
$FINGERPRINTGUID
  2
{02BB9DF4-DD54-4198-BBAC-14EB4BE6DFC7}
  9
$VERSIONGUID
  2
{FAEB1C32-E019-11D5-929B-00C0DF256EC4}
  9
$EXTNAMES
290
     1
  9
$PSVPSCALE
 40
0.0
  9
$OLESTARTUP
290
     0
  9
$SORTENTS
280
   127
  9
$INDEXCTL
280
     0
  9
$HIDETEXT
280
     1
  9
$XCLIPFRAME
290
     0
  9
$HALOGAP
280
     0
  9
$OBSCOLOR
 70
   257
  9
$OBSLTYPE
280
     0
  9
$INTERSECTIONDISPLAY
280
     0
  9
$INTERSECTIONCOLOR
 70
   257
  9
$DIMASSOC
280
     2
  9
$PROJECTNAME
  1

  0
ENDSEC
  0
SECTION
  2
CLASSES
  0
CLASS
  1
ACDBDICTIONARYWDFLT
  2
AcDbDictionaryWithDefault
  3
ObjectDBX Classes
 90
        0
 91
        4
280
     0
281
     0
  0
CLASS
  1
VISUALSTYLE
  2
AcDbVisualStyle
  3
ObjectDBX Classes
 90
     4095
 91
        4
280
     0
281
     0
  0
ENDSEC
  0
SECTION
  2
TABLES
  0
TABLE
  2
VPORT
  5
8
330
0
100
AcDbSymbolTable
 70
     1
  0
VPORT
  5
29
330
8
100
AcDbSymbolTableRecord
100
AcDbViewportTableRecord
  2
*Active
 70
     0
 10
0.0
 20
0.0
 11
1.0
 21
1.0
 12
0.0
 22
0.0
 13
0.0
 23
0.0
 14
10.0
 24
10.0
 15
10.0
 25
10.0
 16
0.0
 26
0.0
 36
1.0
 17
0.0
 27
0.0
 37
0.0
 40
3267.0
 41
1.414141414141414
 42
50.0
 43
0.0
 44
0.0
 50
0.0
 51
0.0
 71
     0
 72
 10000
 73
     1
 74
     3
 75
     0
 76
     0
 77
     0
 78
     0
281
     0
 65
     1
110
0.0
120
0.0
130
0.0
111
1.0
121
0.0
131
0.0
112
0.0
122
1.0
132
0.0
 79
     0
146
0.0
  0
ENDTAB
  0
TABLE
  2
LTYPE
  5
5
330
0
100
AcDbSymbolTable
 70
     2
  0
LTYPE
  5
14
330
5
100
AcDbSymbolTableRecord
100
AcDbLinetypeTableRecord
  2
ByBlock
 70
     0
  3

 72
    65
 73
     0
 40
0.0
  0
LTYPE
  5
15
330
5
100
AcDbSymbolTableRecord
100
AcDbLinetypeTableRecord
  2
ByLayer
 70
     0
  3

 72
    65
 73
     0
 40
0.0
  0
LTYPE
  5
16
330
5
100
AcDbSymbolTableRecord
100
AcDbLinetypeTableRecord
  2
Continuous
 70
     0
  3
Solid line
 72
    65
 73
     0
 40
0.0
  0
LTYPE
  5
3C
330
5
100
AcDbSymbolTableRecord
100
AcDbLinetypeTableRecord
  2
JWW_CENTER2
 70
     0
  3
-------------  --  -------------
 72
    65
 73
     4
 40
13.54666666666667
 49
11.00666666666667
 74
     0
 49
-0.8466666666666667
 74
     0
 49
0.8466666666666667
 74
     0
 49
-0.8466666666666667
 74
     0
  0
ENDTAB
  0
TABLE
  2
LAYER
  5
2
330
0
100
AcDbSymbolTable
 70
     5
  0
LAYER
  5
10
330
2
100
AcDbSymbolTableRecord
100
AcDbLayerTableRecord
  2
0
 70
     0
 62
     7
  6
Continuous
370
    -3
390
F
  0
LAYER
  5
3D
330
2
100
AcDbSymbolTableRecord
100
AcDbLayerTableRecord
  2
3-2
 70
     0
 62
     7
  6
Continuous
370
    -3
390
F
  0
LAYER
  5
3E
330
2
100
AcDbSymbolTableRecord
100
AcDbLayerTableRecord
  2
3-4
 70
     0
 62
     7
  6
Continuous
370
    -3
390
F
  0
LAYER
  5
3F
330
2
100
AcDbSymbolTableRecord
100
AcDbLayerTableRecord
  2
3-0
 70
     0
 62
     7
  6
Continuous
370
    -3
390
F
  0
LAYER
  5
40
330
2
100
AcDbSymbolTableRecord
100
AcDbLayerTableRecord
  2
F-5
 70
     0
 62
     7
  6
Continuous
370
    -3
390
F
  0
ENDTAB
  0
TABLE
  2
STYLE
  5
3
330
0
100
AcDbSymbolTable
 70
     2
  0
STYLE
  5
11
330
3
100
AcDbSymbolTableRecord
100
AcDbTextStyleTableRecord
  2
Standard
 70
     0
 40
0.0
 41
1.0
 50
0.0
 71
     0
 42
2.5
  3
txt
  4

1001
ACAD
1000

1071
        0
  0
STYLE
  5
3B
330
3
100
AcDbSymbolTableRecord
100
AcDbTextStyleTableRecord
  2
ＭＳ ゴシック
 70
     0
 40
1.0
 41
1.0
 50
0.0
 71
     0
 42
10.0
  3

  4

1001
ACAD
1000
MS Gothic
1071
    32817
  0
ENDTAB
  0
TABLE
  2
VIEW
  5
6
330
0
100
AcDbSymbolTable
 70
     0
  0
ENDTAB
  0
TABLE
  2
UCS
  5
7
330
0
100
AcDbSymbolTable
 70
     0
  0
ENDTAB
  0
TABLE
  2
APPID
  5
9
330
0
100
AcDbSymbolTable
 70
     1
  0
APPID
  5
12
330
9
100
AcDbSymbolTableRecord
100
AcDbRegAppTableRecord
  2
ACAD
 70
     0
  0
ENDTAB
  0
TABLE
  2
DIMSTYLE
  5
A
330
0
100
AcDbSymbolTable
 70
     1
100
AcDbDimStyleTable
  0
DIMSTYLE
105
27
330
A
100
AcDbSymbolTableRecord
100
AcDbDimStyleTableRecord
  2
ISO-25
 70
     0
 41
2.5
 42
0.625
 43
3.75
 44
1.25
 73
     0
 74
     0
 77
     1
 78
     8
140
2.5
141
2.5
143
0.03937007874016
147
0.625
171
     3
172
     1
271
     2
272
     2
274
     3
278
    44
283
     0
284
     8
340
11
  0
ENDTAB
  0
TABLE
  2
BLOCK_RECORD
  5
1
330
0
100
AcDbSymbolTable
 70
     1
  0
BLOCK_RECORD
  5
1F
330
1
100
AcDbSymbolTableRecord
100
AcDbBlockTableRecord
  2
*Model_Space
340
22
  0
BLOCK_RECORD
  5
1B
330
1
100
AcDbSymbolTableRecord
100
AcDbBlockTableRecord
  2
*Paper_Space
340
1E
  0
BLOCK_RECORD
  5
23
330
1
100
AcDbSymbolTableRecord
100
AcDbBlockTableRecord
  2
*Paper_Space0
340
26
  0
ENDTAB
  0
ENDSEC
  0
SECTION
  2
BLOCKS
  0
BLOCK
  5
20
330
1F
100
AcDbEntity
  8
0
100
AcDbBlockBegin
  2
*Model_Space
 70
     0
 10
0.0
 20
0.0
 30
0.0
  3
*Model_Space
  1

  0
ENDBLK
  5
21
330
1F
100
AcDbEntity
  8
0
100
AcDbBlockEnd
  0
BLOCK
  5
1C
330
1B
100
AcDbEntity
 67
     1
  8
0
100
AcDbBlockBegin
  2
*Paper_Space
 70
     0
 10
0.0
 20
0.0
 30
0.0
  3
*Paper_Space
  1

  0
ENDBLK
  5
1D
330
1B
100
AcDbEntity
 67
     1
  8
0
100
AcDbBlockEnd
  0
BLOCK
  5
24
330
23
100
AcDbEntity
  8
0
100
AcDbBlockBegin
  2
*Paper_Space0
 70
     0
 10
0.0
 20
0.0
 30
0.0
  3
*Paper_Space0
  1

  0
ENDBLK
  5
25
330
23
100
AcDbEntity
  8
0
100
AcDbBlockEnd
  0
ENDSEC
  0
SECTION
  2
ENTITIES
  0
LINE
  5
41
330
1F
100
AcDbEntity
  8
3-2
  6
Continuous
 62
     3
370
     9
100
AcDbLine
 10
424.8649885847763
 20
-662.6723745582677
 30
0.0
 11
429.8649885847763
 21
-707.6723745582677
 31
0.0
  0
LINE
  5
42
330
1F
100
AcDbEntity
  8
3-2
  6
Continuous
 62
     3
370
     9
100
AcDbLine
 10
364.8649885847763
 20
-662.6723745582677
 30
0.0
 11
359.8649885847763
 21
-707.6723745582677
 31
0.0
  0
LINE
  5
43
330
1F
100
AcDbEntity
  8
3-2
  6
Continuous
 62
     3
370
     9
100
AcDbLine
 10
274.8649885847763
 20
-662.6723745582677
 30
0.0
 11
269.8649885847763
 21
-707.6723745582677
 31
0.0
  0
LINE
  5
44
330
1F
100
AcDbEntity
  8
3-4
  6
Continuous
 62
     7
370
     9
100
AcDbLine
 10
-435.8343175939609
 20
-84.32432432432421
 30
0.0
 11
-439.097430254962
 21
-59.53815357105157
 31
0.0
  0
LINE
  5
45
330
1F
100
AcDbEntity
  8
3-4
  6
Continuous
 62
     7
370
     9
100
AcDbLine
 10
-435.8343175939609
 20
-84.32432432432421
 30
0.0
 11
-432.5712049329601
 21
-59.53815357105157
 31
0.0
  0
LINE
  5
46
330
1F
100
AcDbEntity
  8
3-4
  6
Continuous
 62
     7
370
     9
100
AcDbLine
 10
186.4864864864867
 20
850.1351351351352
 30
0.0
 11
520.8912617451438
 21
850.1351351351352
 31
0.0
  0
TEXT
  5
47
330
1F
100
AcDbEntity
  8
3-4
  6
Continuous
 62
     2
370
     9
100
AcDbText
 10
243.6891215556378
 20
806.1404387932856
 30
0.0
 40
30.48
  1
樹脂系塗装
 41
1.1
  7
ＭＳ ゴシック
100
AcDbText
  0
LINE
  5
48
330
1F
100
AcDbEntity
  8
3-4
  6
Continuous
 62
     7
370
     9
100
AcDbLine
 10
-985.1350114152237
 20
-99.3243738122888
 30
0.0
 11
-985.1350114152237
 21
-369.0810414907094
 31
0.0
  0
LINE
  5
49
330
1F
100
AcDbEntity
  8
3-4
  6
Continuous
 62
     7
370
     9
100
AcDbLine
 10
-985.1350114152237
 20
-366.081081081081
 30
0.0
 11
-960.3489025219068
 21
-362.8179684200802
 31
0.0
  0
LINE
  5
4A
330
1F
100
AcDbEntity
  8
3-4
  6
Continuous
 62
     7
370
     9
100
AcDbLine
 10
-985.1350114152237
 20
-366.081081081081
 30
0.0
 11
-960.3489025219068
 21
-369.3441937420819
 31
0.0
  0
LINE
  5
4B
330
1F
100
AcDbEntity
  8
3-4
  6
Continuous
 62
     7
370
     9
100
AcDbLine
 10
514.8649885847763
 20
-99.3243738122888
 30
0.0
 11
514.8649885847763
 21
-369.0810414907094
 31
0.0
  0
LINE
  5
4C
330
1F
100
AcDbEntity
  8
3-4
  6
Continuous
 62
     7
370
     9
100
AcDbLine
 10
514.8649885847763
 20
-366.081081081081
 30
0.0
 11
490.0789415514149
 21
-362.8179684200802
 31
0.0
  0
LINE
  5
4D
330
1F
100
AcDbEntity
  8
3-4
  6
Continuous
 62
     7
370
     9
100
AcDbLine
 10
514.8649885847763
 20
-366.081081081081
 30
0.0
 11
490.0789415514149
 21
-369.3441937420819
 31
0.0
  0
LINE
  5
4E
330
1F
100
AcDbEntity
  8
3-4
  6
Continuous
 62
     7
370
     9
100
AcDbLine
 10
-985.1350114152237
 20
-366.081081081081
 30
0.0
 11
514.8649885847763
 21
-366.081081081081
 31
0.0
  0
LINE
  5
4F
330
1F
100
AcDbEntity
  8
3-2
  6
Continuous
 62
     3
370
     9
100
AcDbLine
 10
-265.1350114152237
 20
590.6756756756758
 30
0.0
 11
-205.1350114152237
 21
590.6756756756758
 31
0.0
  0
LINE
  5
50
330
1F
100
AcDbEntity
  8
3-2
  6
Continuous
 62
     3
370
     9
100
AcDbLine
 10
-205.1350114152237
 20
590.6756756756758
 30
0.0
 11
-205.1350114152237
 21
-9.324324324324209
 31
0.0
  0
LINE
  5
51
330
1F
100
AcDbEntity
  8
3-2
  6
Continuous
 62
     3
370
     9
100
AcDbLine
 10
-265.1350114152237
 20
-9.324324324324209
 30
0.0
 11
-205.1350114152237
 21
-9.324324324324209
 31
0.0
  0
LINE
  5
52
330
1F
100
AcDbEntity
  8
3-2
  6
Continuous
 62
     3
370
     9
100
AcDbLine
 10
-265.1350114152237
 20
590.6756756756758
 30
0.0
 11
-265.1350114152237
 21
-9.324324324324209
 31
0.0
  0
LINE
  5
53
330
1F
100
AcDbEntity
  8
3-2
  6
Continuous
 62
     3
370
     9
100
AcDbLine
 10
-355.1350114152237
 20
590.6756756756758
 30
0.0
 11
-295.1350114152237
 21
590.6756756756758
 31
0.0
  0
LINE
  5
54
330
1F
100
AcDbEntity
  8
3-2
  6
Continuous
 62
     3
370
     9
100
AcDbLine
 10
-295.1350114152237
 20
590.6756756756758
 30
0.0
 11
-295.1350114152237
 21
-9.324324324324209
 31
0.0
  0
LINE
  5
55
330
1F
100
AcDbEntity
  8
3-2
  6
Continuous
 62
     3
370
     9
100
AcDbLine
 10
-355.1350114152237
 20
-9.324324324324209
 30
0.0
 11
-295.1350114152237
 21
-9.324324324324209
 31
0.0
  0
LINE
  5
56
330
1F
100
AcDbEntity
  8
3-2
  6
Continuous
 62
     3
370
     9
100
AcDbLine
 10
-355.1350114152237
 20
590.6756756756758
 30
0.0
 11
-355.1350114152237
 21
-9.324324324324209
 31
0.0
  0
LINE
  5
57
330
1F
100
AcDbEntity
  8
3-2
  6
Continuous
 62
     3
370
     9
100
AcDbLine
 10
-445.1350114152237
 20
590.6756756756758
 30
0.0
 11
-385.1350114152237
 21
590.6756756756758
 31
0.0
  0
LINE
  5
58
330
1F
100
AcDbEntity
  8
3-2
  6
Continuous
 62
     3
370
     9
100
AcDbLine
 10
-385.1350114152237
 20
590.6756756756758
 30
0.0
 11
-385.1350114152237
 21
-9.324324324324209
 31
0.0
  0
LINE
  5
59
330
1F
100
AcDbEntity
  8
3-2
  6
Continuous
 62
     3
370
     9
100
AcDbLine
 10
-445.1350114152237
 20
-9.324324324324209
 30
0.0
 11
-385.1350114152237
 21
-9.324324324324209
 31
0.0
  0
LINE
  5
5A
330
1F
100
AcDbEntity
  8
3-2
  6
Continuous
 62
     3
370
     9
100
AcDbLine
 10
-445.1350114152237
 20
590.6756756756758
 30
0.0
 11
-445.1350114152237
 21
-9.324324324324209
 31
0.0
  0
LINE
  5
5B
330
1F
100
AcDbEntity
  8
3-2
  6
Continuous
 62
     3
370
     9
100
AcDbLine
 10
-535.1350114152237
 20
590.6756756756758
 30
0.0
 11
-475.1350114152237
 21
590.6756756756758
 31
0.0
  0
LINE
  5
5C
330
1F
100
AcDbEntity
  8
3-2
  6
Continuous
 62
     3
370
     9
100
AcDbLine
 10
-475.1350114152237
 20
590.6756756756758
 30
0.0
 11
-475.1350114152237
 21
-9.324324324324209
 31
0.0
  0
LINE
  5
5D
330
1F
100
AcDbEntity
  8
3-2
  6
Continuous
 62
     3
370
     9
100
AcDbLine
 10
-535.1350114152237
 20
-9.324324324324209
 30
0.0
 11
-475.1350114152237
 21
-9.324324324324209
 31
0.0
  0
LINE
  5
5E
330
1F
100
AcDbEntity
  8
3-2
  6
Continuous
 62
     3
370
     9
100
AcDbLine
 10
-535.1350114152237
 20
590.6756756756758
 30
0.0
 11
-535.1350114152237
 21
-9.324324324324209
 31
0.0
  0
LINE
  5
5F
330
1F
100
AcDbEntity
  8
3-2
  6
Continuous
 62
     3
370
     9
100
AcDbLine
 10
-625.1350114152237
 20
590.6756756756758
 30
0.0
 11
-565.1350114152237
 21
590.6756756756758
 31
0.0
  0
LINE
  5
60
330
1F
100
AcDbEntity
  8
3-2
  6
Continuous
 62
     3
370
     9
100
AcDbLine
 10
-565.1350114152237
 20
590.6756756756758
 30
0.0
 11
-565.1350114152237
 21
-9.324324324324209
 31
0.0
  0
LINE
  5
61
330
1F
100
AcDbEntity
  8
3-2
  6
Continuous
 62
     3
370
     9
100
AcDbLine
 10
-625.1350114152237
 20
-9.324324324324209
 30
0.0
 11
-565.1350114152237
 21
-9.324324324324209
 31
0.0
  0
LINE
  5
62
330
1F
100
AcDbEntity
  8
3-2
  6
Continuous
 62
     3
370
     9
100
AcDbLine
 10
-625.1350114152237
 20
590.6756756756758
 30
0.0
 11
-625.1350114152237
 21
-9.324324324324209
 31
0.0
  0
LINE
  5
63
330
1F
100
AcDbEntity
  8
3-2
  6
Continuous
 62
     3
370
     9
100
AcDbLine
 10
-715.1350114152237
 20
590.6756756756758
 30
0.0
 11
-655.1350114152237
 21
590.6756756756758
 31
0.0
  0
LINE
  5
64
330
1F
100
AcDbEntity
  8
3-2
  6
Continuous
 62
     3
370
     9
100
AcDbLine
 10
-655.1350114152237
 20
590.6756756756758
 30
0.0
 11
-655.1350114152237
 21
-9.324324324324209
 31
0.0
  0
LINE
  5
65
330
1F
100
AcDbEntity
  8
3-2
  6
Continuous
 62
     3
370
     9
100
AcDbLine
 10
-715.1350114152237
 20
-9.324324324324209
 30
0.0
 11
-655.1350114152237
 21
-9.324324324324209
 31
0.0
  0
LINE
  5
66
330
1F
100
AcDbEntity
  8
3-2
  6
Continuous
 62
     3
370
     9
100
AcDbLine
 10
-715.1350114152237
 20
590.6756756756758
 30
0.0
 11
-715.1350114152237
 21
-9.324324324324209
 31
0.0
  0
LINE
  5
67
330
1F
100
AcDbEntity
  8
3-2
  6
Continuous
 62
     3
370
     9
100
AcDbLine
 10
-805.1350114152237
 20
590.6756756756758
 30
0.0
 11
-745.1350114152237
 21
590.6756756756758
 31
0.0
  0
LINE
  5
68
330
1F
100
AcDbEntity
  8
3-2
  6
Continuous
 62
     3
370
     9
100
AcDbLine
 10
-745.1350114152237
 20
590.6756756756758
 30
0.0
 11
-745.1350114152237
 21
-9.324324324324209
 31
0.0
  0
LINE
  5
69
330
1F
100
AcDbEntity
  8
3-2
  6
Continuous
 62
     3
370
     9
100
AcDbLine
 10
-805.1350114152237
 20
-9.324324324324209
 30
0.0
 11
-745.1350114152237
 21
-9.324324324324209
 31
0.0
  0
LINE
  5
6A
330
1F
100
AcDbEntity
  8
3-2
  6
Continuous
 62
     3
370
     9
100
AcDbLine
 10
-805.1350114152237
 20
590.6756756756758
 30
0.0
 11
-805.1350114152237
 21
-9.324324324324209
 31
0.0
  0
LINE
  5
6B
330
1F
100
AcDbEntity
  8
3-2
  6
Continuous
 62
     3
370
     9
100
AcDbLine
 10
-895.1350114152237
 20
590.6756756756758
 30
0.0
 11
-835.1350114152237
 21
590.6756756756758
 31
0.0
  0
LINE
  5
6C
330
1F
100
AcDbEntity
  8
3-2
  6
Continuous
 62
     3
370
     9
100
AcDbLine
 10
-835.1350114152237
 20
590.6756756756758
 30
0.0
 11
-835.1350114152237
 21
-9.324324324324209
 31
0.0
  0
LINE
  5
6D
330
1F
100
AcDbEntity
  8
3-2
  6
Continuous
 62
     3
370
     9
100
AcDbLine
 10
-895.1350114152237
 20
-9.324324324324209
 30
0.0
 11
-835.1350114152237
 21
-9.324324324324209
 31
0.0
  0
LINE
  5
6E
330
1F
100
AcDbEntity
  8
3-2
  6
Continuous
 62
     3
370
     9
100
AcDbLine
 10
-895.1350114152237
 20
590.6756756756758
 30
0.0
 11
-895.1350114152237
 21
-9.324324324324209
 31
0.0
  0
LINE
  5
6F
330
1F
100
AcDbEntity
  8
3-2
  6
Continuous
 62
     3
370
     9
100
AcDbLine
 10
-115.1350114152237
 20
590.6756756756758
 30
0.0
 11
-175.1350114152237
 21
590.6756756756758
 31
0.0
  0
LINE
  5
70
330
1F
100
AcDbEntity
  8
3-2
  6
Continuous
 62
     3
370
     9
100
AcDbLine
 10
-175.1350114152237
 20
590.6756756756758
 30
0.0
 11
-175.1350114152237
 21
-9.324324324324209
 31
0.0
  0
LINE
  5
71
330
1F
100
AcDbEntity
  8
3-2
  6
Continuous
 62
     3
370
     9
100
AcDbLine
 10
-115.1350114152237
 20
-9.324324324324209
 30
0.0
 11
-175.1350114152237
 21
-9.324324324324209
 31
0.0
  0
LINE
  5
72
330
1F
100
AcDbEntity
  8
3-2
  6
Continuous
 62
     3
370
     9
100
AcDbLine
 10
-115.1350114152237
 20
590.6756756756758
 30
0.0
 11
-115.1350114152237
 21
-9.324324324324209
 31
0.0
  0
LINE
  5
73
330
1F
100
AcDbEntity
  8
3-2
  6
Continuous
 62
     3
370
     9
100
AcDbLine
 10
-25.13501141522369
 20
590.6756756756758
 30
0.0
 11
-85.13501141522369
 21
590.6756756756758
 31
0.0
  0
LINE
  5
74
330
1F
100
AcDbEntity
  8
3-2
  6
Continuous
 62
     3
370
     9
100
AcDbLine
 10
-85.13501141522369
 20
590.6756756756758
 30
0.0
 11
-85.13501141522369
 21
-9.324324324324209
 31
0.0
  0
LINE
  5
75
330
1F
100
AcDbEntity
  8
3-2
  6
Continuous
 62
     3
370
     9
100
AcDbLine
 10
-25.13501141522369
 20
-9.324324324324209
 30
0.0
 11
-85.13501141522369
 21
-9.324324324324209
 31
0.0
  0
LINE
  5
76
330
1F
100
AcDbEntity
  8
3-2
  6
Continuous
 62
     3
370
     9
100
AcDbLine
 10
-25.13501141522369
 20
590.6756756756758
 30
0.0
 11
-25.13501141522369
 21
-9.324324324324209
 31
0.0
  0
LINE
  5
77
330
1F
100
AcDbEntity
  8
3-2
  6
Continuous
 62
     3
370
     9
100
AcDbLine
 10
64.86498858477631
 20
590.6756756756758
 30
0.0
 11
4.864988584776313
 21
590.6756756756758
 31
0.0
  0
LINE
  5
78
330
1F
100
AcDbEntity
  8
3-2
  6
Continuous
 62
     3
370
     9
100
AcDbLine
 10
4.864988584776313
 20
590.6756756756758
 30
0.0
 11
4.864988584776313
 21
-9.324324324324209
 31
0.0
  0
LINE
  5
79
330
1F
100
AcDbEntity
  8
3-2
  6
Continuous
 62
     3
370
     9
100
AcDbLine
 10
64.86498858477631
 20
-9.324324324324209
 30
0.0
 11
4.864988584776313
 21
-9.324324324324209
 31
0.0
  0
LINE
  5
7A
330
1F
100
AcDbEntity
  8
3-2
  6
Continuous
 62
     3
370
     9
100
AcDbLine
 10
64.86498858477631
 20
590.6756756756758
 30
0.0
 11
64.86498858477631
 21
-9.324324324324209
 31
0.0
  0
LINE
  5
7B
330
1F
100
AcDbEntity
  8
3-2
  6
Continuous
 62
     3
370
     9
100
AcDbLine
 10
154.8649885847763
 20
590.6756756756758
 30
0.0
 11
94.86498858477631
 21
590.6756756756758
 31
0.0
  0
LINE
  5
7C
330
1F
100
AcDbEntity
  8
3-2
  6
Continuous
 62
     3
370
     9
100
AcDbLine
 10
94.86498858477631
 20
590.6756756756758
 30
0.0
 11
94.86498858477631
 21
-9.324324324324209
 31
0.0
  0
LINE
  5
7D
330
1F
100
AcDbEntity
  8
3-2
  6
Continuous
 62
     3
370
     9
100
AcDbLine
 10
154.8649885847763
 20
-9.324324324324209
 30
0.0
 11
94.86498858477631
 21
-9.324324324324209
 31
0.0
  0
LINE
  5
7E
330
1F
100
AcDbEntity
  8
3-2
  6
Continuous
 62
     3
370
     9
100
AcDbLine
 10
154.8649885847763
 20
590.6756756756758
 30
0.0
 11
154.8649885847763
 21
-9.324324324324209
 31
0.0
  0
LINE
  5
7F
330
1F
100
AcDbEntity
  8
3-2
  6
Continuous
 62
     3
370
     9
100
AcDbLine
 10
244.8649885847763
 20
590.6756756756758
 30
0.0
 11
184.8649885847763
 21
590.6756756756758
 31
0.0
  0
LINE
  5
80
330
1F
100
AcDbEntity
  8
3-2
  6
Continuous
 62
     3
370
     9
100
AcDbLine
 10
184.8649885847763
 20
590.6756756756758
 30
0.0
 11
184.8649885847763
 21
-9.324324324324209
 31
0.0
  0
LINE
  5
81
330
1F
100
AcDbEntity
  8
3-2
  6
Continuous
 62
     3
370
     9
100
AcDbLine
 10
244.8649885847763
 20
-9.324324324324209
 30
0.0
 11
184.8649885847763
 21
-9.324324324324209
 31
0.0
  0
LINE
  5
82
330
1F
100
AcDbEntity
  8
3-2
  6
Continuous
 62
     3
370
     9
100
AcDbLine
 10
244.8649885847763
 20
590.6756756756758
 30
0.0
 11
244.8649885847763
 21
-9.324324324324209
 31
0.0
  0
LINE
  5
83
330
1F
100
AcDbEntity
  8
3-2
  6
Continuous
 62
     3
370
     9
100
AcDbLine
 10
334.8649885847763
 20
590.6756756756758
 30
0.0
 11
274.8649885847763
 21
590.6756756756758
 31
0.0
  0
LINE
  5
84
330
1F
100
AcDbEntity
  8
3-2
  6
Continuous
 62
     3
370
     9
100
AcDbLine
 10
274.8649885847763
 20
590.6756756756758
 30
0.0
 11
274.8649885847763
 21
-9.324324324324209
 31
0.0
  0
LINE
  5
85
330
1F
100
AcDbEntity
  8
3-2
  6
Continuous
 62
     3
370
     9
100
AcDbLine
 10
334.8649885847763
 20
-9.324324324324209
 30
0.0
 11
274.8649885847763
 21
-9.324324324324209
 31
0.0
  0
LINE
  5
86
330
1F
100
AcDbEntity
  8
3-2
  6
Continuous
 62
     3
370
     9
100
AcDbLine
 10
334.8649885847763
 20
590.6756756756758
 30
0.0
 11
334.8649885847763
 21
-9.324324324324209
 31
0.0
  0
LINE
  5
87
330
1F
100
AcDbEntity
  8
3-2
  6
Continuous
 62
     3
370
     9
100
AcDbLine
 10
424.8649885847763
 20
590.6756756756758
 30
0.0
 11
364.8649885847763
 21
590.6756756756758
 31
0.0
  0
LINE
  5
88
330
1F
100
AcDbEntity
  8
3-2
  6
Continuous
 62
     3
370
     9
100
AcDbLine
 10
364.8649885847763
 20
590.6756756756758
 30
0.0
 11
364.8649885847763
 21
-9.324324324324209
 31
0.0
  0
LINE
  5
89
330
1F
100
AcDbEntity
  8
3-2
  6
Continuous
 62
     3
370
     9
100
AcDbLine
 10
424.8649885847763
 20
-9.324324324324209
 30
0.0
 11
364.8649885847763
 21
-9.324324324324209
 31
0.0
  0
LINE
  5
8A
330
1F
100
AcDbEntity
  8
3-2
  6
Continuous
 62
     3
370
     9
100
AcDbLine
 10
424.8649885847763
 20
590.6756756756758
 30
0.0
 11
424.8649885847763
 21
-9.324324324324209
 31
0.0
  0
LINE
  5
8B
330
1F
100
AcDbEntity
  8
3-4
  6
Continuous
 62
     7
370
     9
100
AcDbLine
 10
184.8649885847763
 20
-249.5616212382998
 30
0.0
 11
184.8649885847763
 21
-29.32432432432421
 31
0.0
  0
LINE
  5
8C
330
1F
100
AcDbEntity
  8
3-4
  6
Continuous
 62
     7
370
     9
100
AcDbLine
 10
244.8649885847763
 20
-249.5616212382998
 30
0.0
 11
244.8649885847763
 21
-29.32432432432421
 31
0.0
  0
TEXT
  5
8D
330
1F
100
AcDbEntity
  8
3-4
  6
Continuous
 62
     2
370
   211
100
AcDbText
 10
193.6149885847763
 20
-234.9216212382998
 30
0.0
 40
30.48
  1
12
 41
1.0625
  7
ＭＳ ゴシック
100
AcDbText
  0
LINE
  5
8E
330
1F
100
AcDbEntity
  8
3-4
  6
Continuous
 62
     7
370
     9
100
AcDbLine
 10
274.8649885847763
 20
-249.5616212382998
 30
0.0
 11
274.8649885847763
 21
-29.32432432432421
 31
0.0
  0
LINE
  5
8F
330
1F
100
AcDbEntity
  8
3-4
  6
Continuous
 62
     7
370
     9
100
AcDbLine
 10
274.8649885847763
 20
-246.5616212382998
 30
0.0
 11
299.6511101191215
 21
-243.2984664327985
 31
0.0
  0
LINE
  5
90
330
1F
100
AcDbEntity
  8
3-4
  6
Continuous
 62
     7
370
     9
100
AcDbLine
 10
274.8649885847763
 20
-246.5616212382998
 30
0.0
 11
299.6511101191215
 21
-249.8247760438011
 31
0.0
  0
LINE
  5
91
330
1F
100
AcDbEntity
  8
3-4
  6
Continuous
 62
     7
370
     9
100
AcDbLine
 10
184.8649885847763
 20
-246.5616212382998
 30
0.0
 11
160.0788670504311
 21
-243.2984664327985
 31
0.0
  0
LINE
  5
92
330
1F
100
AcDbEntity
  8
3-4
  6
Continuous
 62
     7
370
     9
100
AcDbLine
 10
184.8649885847763
 20
-246.5616212382998
 30
0.0
 11
160.0788670504311
 21
-249.8247760438011
 31
0.0
  0
LINE
  5
93
330
1F
100
AcDbEntity
  8
3-4
  6
Continuous
 62
     7
370
     9
100
AcDbLine
 10
149.2419151879066
 20
-246.5616212382998
 30
0.0
 11
244.8649885847763
 21
-246.5616212382998
 31
0.0
  0
LWPOLYLINE
  5
94
330
1F
100
AcDbEntity
  8
3-4
  6
Continuous
 62
     7
370
     9
100
AcDbPolyline
 90
        4
 70
     1
 43
1.0
 10
245.3649885847763
 20
-246.5616212382998
 42
0.4142135623731
 10
244.8649885847763
 20
-246.0616212382998
 42
0.4142135623731
 10
244.3649885847763
 20
-246.5616212382998
 42
0.4142135623731
 10
244.8649885847763
 20
-247.0616212382998
 42
0.4142135623731
  0
TEXT
  5
95
330
1F
100
AcDbEntity
  8
3-4
  6
Continuous
 62
     2
370
   211
100
AcDbText
 10
305.346168739324
 20
-234.9216212382998
 30
0.0
 40
30.48
  1
6
 41
0.9999999999999998
  7
ＭＳ ゴシック
100
AcDbText
  0
LINE
  5
96
330
1F
100
AcDbEntity
  8
3-4
  6
Continuous
 62
     7
370
     9
100
AcDbLine
 10
244.8649885847763
 20
-246.5616212382998
 30
0.0
 11
332.1535271185952
 21
-246.5616212382998
 31
0.0
  0
LINE
  5
97
330
1F
100
AcDbEntity
  8
3-4
  6
Continuous
 62
     7
370
     9
100
AcDbLine
 10
-435.8343175939609
 20
-129.3243655642948
 30
0.0
 11
-439.097430254962
 21
-154.1105363175674
 31
0.0
  0
LINE
  5
98
330
1F
100
AcDbEntity
  8
3-4
  6
Continuous
 62
     7
370
     9
100
AcDbLine
 10
-435.8343175939609
 20
-129.3243655642948
 30
0.0
 11
-432.5712049329601
 21
-154.1105363175674
 31
0.0
  0
LINE
  5
99
330
1F
100
AcDbEntity
  8
3-4
  6
Continuous
 62
     7
370
     9
100
AcDbLine
 10
-435.8343175939609
 20
-41.62388157200155
 30
0.0
 11
-435.8343175939609
 21
-169.2594208588471
 31
0.0
  0
LINE
  5
9A
330
1F
100
AcDbEntity
  8
3-2
  6
Continuous
 62
     3
370
     9
100
AcDbLine
 10
514.8649885847763
 20
398.1757004196581
 30
0.0
 11
514.8649885847763
 21
665.6756756756758
 31
0.0
  0
ARC
  5
9B
330
1F
100
AcDbEntity
  8
3-2
  6
Continuous
 62
     3
370
     9
100
AcDbCircle
 10
522.3648896088471
 20
398.1757004196581
 30
0.0
 40
7.500000096656181
100
AcDbArc
 50
180.0
 51
270.0
  0
LINE
  5
9C
330
1F
100
AcDbEntity
  8
3-2
  6
Continuous
 62
     3
370
     9
100
AcDbLine
 10
522.3648896088471
 20
390.6756756756758
 30
0.0
 11
559.8649061048352
 21
390.6756756756758
 31
0.0
  0
LINE
  5
9D
330
1F
100
AcDbEntity
  8
3-2
  6
Continuous
 62
     3
370
     9
100
AcDbLine
 10
514.8649885847763
 20
183.1756509316935
 30
0.0
 11
514.8649885847763
 21
-84.32432432432421
 31
0.0
  0
LINE
  5
9E
330
1F
100
AcDbEntity
  8
3-4
  6
Continuous
 62
     7
370
     9
100
AcDbLine
 10
514.8649885847763
 20
85.17500593855573
 30
0.0
 11
490.0789415514149
 21
88.43811859955679
 31
0.0
  0
LINE
  5
9F
330
1F
100
AcDbEntity
  8
3-4
  6
Continuous
 62
     7
370
     9
100
AcDbLine
 10
514.8649885847763
 20
85.17500593855573
 30
0.0
 11
490.0789415514149
 21
81.91189327755495
 31
0.0
  0
ARC
  5
A0
330
1F
100
AcDbEntity
  8
3-2
  6
Continuous
 62
     3
370
     9
100
AcDbCircle
 10
522.3648896088471
 20
183.1756509316935
 30
0.0
 40
7.500000096656181
100
AcDbArc
 50
90.0
 51
180.0
  0
LINE
  5
A1
330
1F
100
AcDbEntity
  8
3-2
  6
Continuous
 62
     3
370
     9
100
AcDbLine
 10
522.3648896088471
 20
190.6756756756758
 30
0.0
 11
559.8649061048352
 21
190.6756756756758
 31
0.0
  0
LINE
  5
A2
330
1F
100
AcDbEntity
  8
3-4
  6
Continuous
 62
     7
370
     9
100
AcDbLine
 10
559.8649061048352
 20
175.6756261877112
 30
0.0
 11
559.8649061048352
 21
82.17504552892734
 31
0.0
  0
LINE
  5
A3
330
1F
100
AcDbEntity
  8
3-4
  6
Continuous
 62
     7
370
     9
100
AcDbLine
 10
559.8649061048352
 20
85.17500593855573
 30
0.0
 11
584.6509531381967
 21
88.43811859955679
 31
0.0
  0
LINE
  5
A4
330
1F
100
AcDbEntity
  8
3-4
  6
Continuous
 62
     7
370
     9
100
AcDbLine
 10
559.8649061048352
 20
85.17500593855573
 30
0.0
 11
584.6509531381967
 21
81.91189327755495
 31
0.0
  0
LINE
  5
A5
330
1F
100
AcDbEntity
  8
3-4
  6
Continuous
 62
     7
370
     9
100
AcDbLine
 10
605.5373485668283
 20
85.17500593855573
 30
0.0
 11
468.7226578995987
 21
85.17500593855573
 31
0.0
  0
LINE
  5
A6
330
1F
100
AcDbEntity
  8
3-2
  6
Continuous
 62
     3
370
     9
100
AcDbLine
 10
559.8649061048352
 20
390.6756756756758
 30
0.0
 11
559.8649061048352
 21
190.6756756756758
 31
0.0
  0
LINE
  5
A7
330
1F
100
AcDbEntity
  8
3-2
  6
Continuous
 62
     3
370
     9
100
AcDbLine
 10
-992.635036159206
 20
390.6756756756758
 30
0.0
 11
-1035.134805215372
 21
390.6756756756758
 31
0.0
  0
LINE
  5
A8
330
1F
100
AcDbEntity
  8
3-2
  6
Continuous
 62
     3
370
     9
100
AcDbLine
 10
-985.1350114152237
 20
398.1757004196581
 30
0.0
 11
-985.1350114152237
 21
665.6756756756758
 31
0.0
  0
ARC
  5
A9
330
1F
100
AcDbEntity
  8
3-2
  6
Continuous
 62
     3
370
     9
100
AcDbCircle
 10
-992.635036159206
 20
398.1757004196581
 30
0.0
 40
7.500000096656181
100
AcDbArc
 50
270.0
 51
0.0
  0
LINE
  5
AA
330
1F
100
AcDbEntity
  8
3-2
  6
Continuous
 62
     3
370
     9
100
AcDbLine
 10
-992.635036159206
 20
190.6756756756758
 30
0.0
 11
-1035.134805215372
 21
190.6756756756758
 31
0.0
  0
LINE
  5
AB
330
1F
100
AcDbEntity
  8
3-2
  6
Continuous
 62
     3
370
     9
100
AcDbLine
 10
-985.1350114152237
 20
183.1756509316935
 30
0.0
 11
-985.1350114152237
 21
-84.32432432432421
 31
0.0
  0
ARC
  5
AC
330
1F
100
AcDbEntity
  8
3-2
  6
Continuous
 62
     3
370
     9
100
AcDbCircle
 10
-992.635036159206
 20
183.1756509316935
 30
0.0
 40
7.500000096656181
100
AcDbArc
 50
0.0
 51
90.0
  0
LINE
  5
AD
330
1F
100
AcDbEntity
  8
3-2
  6
Continuous
 62
     3
370
     9
100
AcDbLine
 10
-1035.134805215372
 20
390.6756756756758
 30
0.0
 11
-1035.134805215372
 21
190.6756756756758
 31
0.0
  0
LINE
  5
AE
330
1F
100
AcDbEntity
  8
3-4
  6
Continuous
 62
     7
370
     9
100
AcDbLine
 10
-335.1350114152237
 20
-260.3547462257178
 30
0.0
 11
-310.348840661951
 21
-257.0916335647171
 31
0.0
  0
LINE
  5
AF
330
1F
100
AcDbEntity
  8
3-4
  6
Continuous
 62
     7
370
     9
100
AcDbLine
 10
-335.1350114152237
 20
-260.3547462257178
 30
0.0
 11
-310.348840661951
 21
-263.6178588867188
 31
0.0
  0
ARC
  5
B0
330
1F
100
AcDbEntity
  8
3-2
  6
Continuous
 62
     3
370
     9
100
AcDbCircle
 10
-342.635036159206
 20
-91.8243490683065
 30
0.0
 40
7.500000096656181
100
AcDbArc
 50
0.0
 51
90.0
  0
LINE
  5
B1
330
1F
100
AcDbEntity
  8
3-2
  6
Continuous
 62
     3
370
     9
100
AcDbLine
 10
-342.635036159206
 20
-84.32432432432421
 30
0.0
 11
-985.1350114152237
 21
-84.32432432432421
 31
0.0
  0
LINE
  5
B2
330
1F
100
AcDbEntity
  8
3-2
  6
Continuous
 62
     3
370
     9
100
AcDbLine
 10
-335.1350114152237
 20
-91.8243490683065
 30
0.0
 11
-335.1350114152237
 21
-129.3243655642948
 31
0.0
  0
LINE
  5
B3
330
1F
100
AcDbEntity
  8
3-4
  6
Continuous
 62
     7
370
     9
100
AcDbLine
 10
-335.1350114152237
 20
-144.3244150522591
 30
0.0
 11
-335.1350114152237
 21
-263.3547066353462
 31
0.0
  0
LINE
  5
B4
330
1F
100
AcDbEntity
  8
3-4
  6
Continuous
 62
     7
370
     9
100
AcDbLine
 10
-350.1350609031883
 20
-129.3243655642948
 30
0.0
 11
-438.8342780035893
 21
-129.3243655642948
 31
0.0
  0
LINE
  5
B5
330
1F
100
AcDbEntity
  8
3-4
  6
Continuous
 62
     7
370
     9
100
AcDbLine
 10
-135.1350114152237
 20
-260.3547462257178
 30
0.0
 11
-159.9211821684966
 21
-257.0916335647171
 31
0.0
  0
LINE
  5
B6
330
1F
100
AcDbEntity
  8
3-4
  6
Continuous
 62
     7
370
     9
100
AcDbLine
 10
-135.1350114152237
 20
-260.3547462257178
 30
0.0
 11
-159.9211821684966
 21
-263.6178588867188
 31
0.0
  0
ARC
  5
B7
330
1F
100
AcDbEntity
  8
3-2
  6
Continuous
 62
     3
370
     9
100
AcDbCircle
 10
-127.6349866712414
 20
-91.8243490683065
 30
0.0
 40
7.500000096656181
100
AcDbArc
 50
90.0
 51
180.0
  0
LINE
  5
B8
330
1F
100
AcDbEntity
  8
3-2
  6
Continuous
 62
     3
370
     9
100
AcDbLine
 10
-127.6349866712414
 20
-84.32432432432421
 30
0.0
 11
514.8649885847763
 21
-84.32432432432421
 31
0.0
  0
LINE
  5
B9
330
1F
100
AcDbEntity
  8
3-2
  6
Continuous
 62
     3
370
     9
100
AcDbLine
 10
-135.1350114152237
 20
-91.8243490683065
 30
0.0
 11
-135.1350114152237
 21
-129.3243655642948
 31
0.0
  0
LINE
  5
BA
330
1F
100
AcDbEntity
  8
3-4
  6
Continuous
 62
     7
370
     9
100
AcDbLine
 10
-135.1350114152237
 20
-144.3244150522591
 30
0.0
 11
-135.1350114152237
 21
-263.3547066353462
 31
0.0
  0
LINE
  5
BB
330
1F
100
AcDbEntity
  8
3-4
  6
Continuous
 62
     7
370
     9
100
AcDbLine
 10
-335.1350114152237
 20
-260.3547462257178
 30
0.0
 11
-135.1350114152237
 21
-260.3547462257178
 31
0.0
  0
LINE
  5
BC
330
1F
100
AcDbEntity
  8
3-2
  6
Continuous
 62
     3
370
     9
100
AcDbLine
 10
-135.1350114152237
 20
-129.3243655642948
 30
0.0
 11
-335.1350114152237
 21
-129.3243655642948
 31
0.0
  0
TEXT
  5
BD
330
1F
100
AcDbEntity
  8
3-4
  6
Continuous
 62
     2
370
     9
100
AcDbText
 10
-447.4743621331291
 20
-119.3242830843538
 30
0.0
 40
30.48
  1
9
 50
90.0
 41
0.9999999999999998
  7
ＭＳ ゴシック
100
AcDbText
  0
TEXT
  5
BE
330
1F
100
AcDbEntity
  8
3-4
  6
Continuous
 62
     2
370
     9
100
AcDbText
 10
529.8649473448057
 20
96.81505047772397
 30
0.0
 40
30.48
  1
9
 41
0.9999999999999998
  7
ＭＳ ゴシック
100
AcDbText
  0
ARC
  5
BF
330
1F
100
AcDbEntity
  8
3-2
  6
Continuous
 62
     3
370
     9
100
AcDbCircle
 10
-342.635036159206
 20
673.1757004196581
 30
0.0
 40
7.500000096656181
100
AcDbArc
 50
270.0
 51
0.0
  0
LINE
  5
C0
330
1F
100
AcDbEntity
  8
3-2
  6
Continuous
 62
     3
370
     9
100
AcDbLine
 10
-335.1350114152237
 20
673.1757004196581
 30
0.0
 11
-335.1350114152237
 21
710.6757169156464
 31
0.0
  0
ARC
  5
C1
330
1F
100
AcDbEntity
  8
3-2
  6
Continuous
 62
     3
370
     9
100
AcDbCircle
 10
-127.6349866712414
 20
673.1757004196581
 30
0.0
 40
7.500000096656181
100
AcDbArc
 50
180.0
 51
270.0
  0
LINE
  5
C2
330
1F
100
AcDbEntity
  8
3-2
  6
Continuous
 62
     3
370
     9
100
AcDbLine
 10
-135.1350114152237
 20
673.1757004196581
 30
0.0
 11
-135.1350114152237
 21
710.6757169156464
 31
0.0
  0
LINE
  5
C3
330
1F
100
AcDbEntity
  8
3-2
  6
Continuous
 62
     3
370
     9
100
AcDbLine
 10
-135.1350114152237
 20
710.6757169156464
 30
0.0
 11
-335.1350114152237
 21
710.6757169156464
 31
0.0
  0
LINE
  5
C4
330
1F
100
AcDbEntity
  8
3-2
  6
Continuous
 62
     3
370
     9
100
AcDbLine
 10
-985.1350114152237
 20
665.6756756756758
 30
0.0
 11
-342.635036159206
 21
665.6756756756758
 31
0.0
  0
LINE
  5
C5
330
1F
100
AcDbEntity
  8
3-2
  6
Continuous
 62
     3
370
     9
100
AcDbLine
 10
-127.6349866712414
 20
665.6756756756758
 30
0.0
 11
514.8649885847763
 21
665.6756756756758
 31
0.0
  0
LINE
  5
C6
330
1F
100
AcDbEntity
  8
3-0
  6
JWW_CENTER2
 62
     7
370
     9
100
AcDbLine
 10
-235.1350114152237
 20
760.6757169156464
 30
0.0
 11
-235.1350114152237
 21
-179.3243655642948
 31
0.0
  0
LINE
  5
C7
330
1F
100
AcDbEntity
  8
3-0
  6
JWW_CENTER2
 62
     7
370
     9
100
AcDbLine
 10
-1085.134805215372
 20
290.6756756756758
 30
0.0
 11
609.8649061048352
 21
290.6756756756758
 31
0.0
  0
TEXT
  5
C8
330
1F
100
AcDbEntity
  8
3-4
  6
Continuous
 62
     2
370
     9
100
AcDbText
 10
-256.3850114152237
 20
-248.7147016865497
 30
0.0
 40
30.48
  1
40
 41
1.0625
  7
ＭＳ ゴシック
100
AcDbText
  0
TEXT
  5
C9
330
1F
100
AcDbEntity
  8
3-4
  6
Continuous
 62
     2
370
   211
100
AcDbText
 10
-267.6350114152237
 20
-354.441081081081
 30
0.0
 40
30.48
  1
300
 41
1.083333333333333
  7
ＭＳ ゴシック
100
AcDbText
  0
LINE
  5
CA
330
1F
100
AcDbEntity
  8
3-4
  6
Continuous
 62
     7
370
     9
100
AcDbLine
 10
-1145.762711864407
 20
190.6756756756758
 30
0.0
 11
-1145.762711864407
 21
390.6756756756758
 31
0.0
  0
LINE
  5
CB
330
1F
100
AcDbEntity
  8
3-4
  6
Continuous
 62
     7
370
     9
100
AcDbLine
 10
-1145.762711864407
 20
190.6756756756758
 30
0.0
 11
-1149.025866669908
 21
215.461797210021
 31
0.0
  0
LINE
  5
CC
330
1F
100
AcDbEntity
  8
3-4
  6
Continuous
 62
     7
370
     9
100
AcDbLine
 10
-1145.762711864407
 20
190.6756756756758
 30
0.0
 11
-1142.499557058905
 21
215.461797210021
 31
0.0
  0
LINE
  5
CD
330
1F
100
AcDbEntity
  8
3-4
  6
Continuous
 62
     7
370
     9
100
AcDbLine
 10
-1145.762711864407
 20
390.6756756756758
 30
0.0
 11
-1149.025866669908
 21
365.8895541413306
 31
0.0
  0
LINE
  5
CE
330
1F
100
AcDbEntity
  8
3-4
  6
Continuous
 62
     7
370
     9
100
AcDbLine
 10
-1145.762711864407
 20
390.6756756756758
 30
0.0
 11
-1142.499557058905
 21
365.8895541413306
 31
0.0
  0
LINE
  5
CF
330
1F
100
AcDbEntity
  8
3-4
  6
Continuous
 62
     7
370
     9
100
AcDbLine
 10
-1148.762711864407
 20
190.6756756756758
 30
0.0
 11
-1055.134805215372
 21
190.6756756756758
 31
0.0
  0
LINE
  5
D0
330
1F
100
AcDbEntity
  8
3-4
  6
Continuous
 62
     7
370
     9
100
AcDbLine
 10
-1148.762711864407
 20
390.6756756756758
 30
0.0
 11
-1055.134805215372
 21
390.6756756756758
 31
0.0
  0
TEXT
  5
D1
330
1F
100
AcDbEntity
  8
3-4
  6
Continuous
 62
     2
370
   211
100
AcDbText
 10
-1157.402711864407
 20
269.4256756756758
 30
0.0
 40
30.48
  1
40
 50
90.0
 41
1.0625
  7
ＭＳ ゴシック
100
AcDbText
  0
LINE
  5
D2
330
1F
100
AcDbEntity
  8
3-4
  6
Continuous
 62
     7
370
     9
100
AcDbLine
 10
-1229.520799989056
 20
-84.32432432432421
 30
0.0
 11
-1229.520799989056
 21
-9.324324324324174
 31
0.0
  0
LINE
  5
D3
330
1F
100
AcDbEntity
  8
3-4
  6
Continuous
 62
     7
370
     9
100
AcDbLine
 10
-1229.520799989056
 20
-84.32432432432421
 30
0.0
 11
-1232.783954794558
 21
-59.53820278997895
 31
0.0
  0
LINE
  5
D4
330
1F
100
AcDbEntity
  8
3-4
  6
Continuous
 62
     7
370
     9
100
AcDbLine
 10
-1229.520799989056
 20
-84.32432432432421
 30
0.0
 11
-1226.257645183555
 21
-59.53820278997895
 31
0.0
  0
LINE
  5
D5
330
1F
100
AcDbEntity
  8
3-4
  6
Continuous
 62
     7
370
     9
100
AcDbLine
 10
-1229.520799989056
 20
-9.324324324324174
 30
0.0
 11
-1232.783954794558
 21
-34.11044585866944
 31
0.0
  0
LINE
  5
D6
330
1F
100
AcDbEntity
  8
3-4
  6
Continuous
 62
     7
370
     9
100
AcDbLine
 10
-1229.520799989056
 20
-9.324324324324174
 30
0.0
 11
-1226.257645183555
 21
-34.11044585866944
 31
0.0
  0
LINE
  5
D7
330
1F
100
AcDbEntity
  8
3-4
  6
Continuous
 62
     7
370
     9
100
AcDbLine
 10
-1232.520799989056
 20
-84.32432432432421
 30
0.0
 11
-1005.135011415224
 21
-84.32432432432422
 31
0.0
  0
TEXT
  5
D8
330
1F
100
AcDbEntity
  8
3-4
  6
Continuous
 62
     2
370
   211
100
AcDbText
 10
-1241.160799989056
 20
-68.0743243243242
 30
0.0
 40
30.48
  1
15
 50
90.0
 41
1.0625
  7
ＭＳ ゴシック
100
AcDbText
  0
LINE
  5
D9
330
1F
100
AcDbEntity
  8
3-4
  6
Continuous
 62
     7
370
     9
100
AcDbLine
 10
-1229.520799989056
 20
-9.324324324324174
 30
0.0
 11
-1229.520799989056
 21
590.6756756756758
 31
0.0
  0
LINE
  5
DA
330
1F
100
AcDbEntity
  8
3-4
  6
Continuous
 62
     7
370
     9
100
AcDbLine
 10
-1229.520799989056
 20
-9.324324324324174
 30
0.0
 11
-1232.783954794558
 21
15.46179721002109
 31
0.0
  0
LINE
  5
DB
330
1F
100
AcDbEntity
  8
3-4
  6
Continuous
 62
     7
370
     9
100
AcDbLine
 10
-1229.520799989056
 20
-9.324324324324174
 30
0.0
 11
-1226.257645183555
 21
15.46179721002109
 31
0.0
  0
LINE
  5
DC
330
1F
100
AcDbEntity
  8
3-4
  6
Continuous
 62
     7
370
     9
100
AcDbLine
 10
-1229.520799989056
 20
590.6756756756758
 30
0.0
 11
-1232.783954794558
 21
565.8895541413306
 31
0.0
  0
LINE
  5
DD
330
1F
100
AcDbEntity
  8
3-4
  6
Continuous
 62
     7
370
     9
100
AcDbLine
 10
-1229.520799989056
 20
590.6756756756758
 30
0.0
 11
-1226.257645183555
 21
565.8895541413306
 31
0.0
  0
TEXT
  5
DE
330
1F
100
AcDbEntity
  8
3-4
  6
Continuous
 62
     2
370
   211
100
AcDbText
 10
-1241.160799989056
 20
258.1756756756758
 30
0.0
 40
30.48
  1
120
 50
90.0
 41
1.083333333333333
  7
ＭＳ ゴシック
100
AcDbText
  0
LINE
  5
DF
330
1F
100
AcDbEntity
  8
3-4
  6
Continuous
 62
     7
370
     9
100
AcDbLine
 10
-1229.520799989056
 20
590.6756756756758
 30
0.0
 11
-1229.520799989056
 21
665.6756756756758
 31
0.0
  0
LINE
  5
E0
330
1F
100
AcDbEntity
  8
3-4
  6
Continuous
 62
     7
370
     9
100
AcDbLine
 10
-1229.520799989056
 20
590.6756756756758
 30
0.0
 11
-1232.783954794558
 21
615.461797210021
 31
0.0
  0
LINE
  5
E1
330
1F
100
AcDbEntity
  8
3-4
  6
Continuous
 62
     7
370
     9
100
AcDbLine
 10
-1229.520799989056
 20
590.6756756756758
 30
0.0
 11
-1226.257645183555
 21
615.461797210021
 31
0.0
  0
LINE
  5
E2
330
1F
100
AcDbEntity
  8
3-4
  6
Continuous
 62
     7
370
     9
100
AcDbLine
 10
-1229.520799989056
 20
665.6756756756758
 30
0.0
 11
-1232.783954794558
 21
640.8895541413306
 31
0.0
  0
LINE
  5
E3
330
1F
100
AcDbEntity
  8
3-4
  6
Continuous
 62
     7
370
     9
100
AcDbLine
 10
-1229.520799989056
 20
665.6756756756758
 30
0.0
 11
-1226.257645183555
 21
640.8895541413306
 31
0.0
  0
LINE
  5
E4
330
1F
100
AcDbEntity
  8
3-4
  6
Continuous
 62
     7
370
     9
100
AcDbLine
 10
-1232.520799989056
 20
665.6756756756758
 30
0.0
 11
-1005.135011415224
 21
665.6756756756758
 31
0.0
  0
TEXT
  5
E5
330
1F
100
AcDbEntity
  8
3-4
  6
Continuous
 62
     2
370
   211
100
AcDbText
 10
-1241.160799989056
 20
606.9256756756758
 30
0.0
 40
30.48
  1
15
 50
90.0
 41
1.0625
  7
ＭＳ ゴシック
100
AcDbText
  0
LINE
  5
E6
330
1F
100
AcDbEntity
  8
3-4
  6
Continuous
 62
     7
370
     9
100
AcDbLine
 10
722.0338983050847
 20
-84.32432432432421
 30
0.0
 11
722.0338983050847
 21
665.6756756756758
 31
0.0
  0
LINE
  5
E7
330
1F
100
AcDbEntity
  8
3-4
  6
Continuous
 62
     7
370
     9
100
AcDbLine
 10
722.0338983050847
 20
-84.32432432432421
 30
0.0
 11
718.7707434995833
 21
-59.53820278997895
 31
0.0
  0
LINE
  5
E8
330
1F
100
AcDbEntity
  8
3-4
  6
Continuous
 62
     7
370
     9
100
AcDbLine
 10
722.0338983050847
 20
-84.32432432432421
 30
0.0
 11
725.297053110586
 21
-59.53820278997895
 31
0.0
  0
LINE
  5
E9
330
1F
100
AcDbEntity
  8
3-4
  6
Continuous
 62
     7
370
     9
100
AcDbLine
 10
722.0338983050847
 20
665.6756756756758
 30
0.0
 11
718.7707434995833
 21
640.8895541413306
 31
0.0
  0
LINE
  5
EA
330
1F
100
AcDbEntity
  8
3-4
  6
Continuous
 62
     7
370
     9
100
AcDbLine
 10
722.0338983050847
 20
665.6756756756758
 30
0.0
 11
725.297053110586
 21
640.8895541413306
 31
0.0
  0
LINE
  5
EB
330
1F
100
AcDbEntity
  8
3-4
  6
Continuous
 62
     7
370
     9
100
AcDbLine
 10
725.0338983050847
 20
-84.32432432432421
 30
0.0
 11
534.8649885847763
 21
-84.3243243243242
 31
0.0
  0
LINE
  5
EC
330
1F
100
AcDbEntity
  8
3-4
  6
Continuous
 62
     7
370
     9
100
AcDbLine
 10
725.0338983050847
 20
665.6756756756758
 30
0.0
 11
534.8649885847763
 21
665.6756756756758
 31
0.0
  0
TEXT
  5
ED
330
1F
100
AcDbEntity
  8
3-4
  6
Continuous
 62
     2
370
   211
100
AcDbText
 10
710.3938983050848
 20
258.1756756756758
 30
0.0
 40
30.48
  1
150
 50
90.0
 41
1.083333333333333
  7
ＭＳ ゴシック
100
AcDbText
  0
TEXT
  5
EE
330
1F
100
AcDbEntity
  8
3-4
  6
Continuous
 62
     2
370
     9
100
AcDbText
 10
198.6889978357264
 20
869.6278061655406
 30
0.0
 40
30.48
  1
蓋：ＦＣ１５０
 41
1.107142857142857
  7
ＭＳ ゴシック
100
AcDbText
  0
TEXT
  5
EF
330
1F
100
AcDbEntity
  8
F-5
  6
Continuous
 62
     2
370
     9
100
AcDbText
 10
-601.4982625660684
 20
-1347.468295749974
 30
0.0
 40
30.48
  1
床下換気孔　ＵＡ １５０×３００
 41
1.116935483870968
  7
ＭＳ ゴシック
100
AcDbText
  0
TEXT
  5
F0
330
1F
100
AcDbEntity
  8
3-4
  6
Continuous
 62
     2
370
   211
100
AcDbText
 10
672.2465155034918
 20
-695.1723745582677
 30
0.0
 40
30.48
  1
9
 50
90.0
 41
0.9999999999999998
  7
ＭＳ ゴシック
100
AcDbText
  0
LINE
  5
F1
330
1F
100
AcDbEntity
  8
3-4
  6
Continuous
 62
     7
370
     9
100
AcDbLine
 10
683.8865155034916
 20
-662.6723745582677
 30
0.0
 11
680.6233606979903
 21
-637.8862530239224
 31
0.0
  0
LINE
  5
F2
330
1F
100
AcDbEntity
  8
3-4
  6
Continuous
 62
     7
370
     9
100
AcDbLine
 10
683.8865155034916
 20
-662.6723745582677
 30
0.0
 11
687.149670308993
 21
-637.8862530239224
 31
0.0
  0
LINE
  5
F3
330
1F
100
AcDbEntity
  8
3-4
  6
Continuous
 62
     7
370
     9
100
AcDbLine
 10
683.8865155034916
 20
-707.6723745582677
 30
0.0
 11
680.6233606979903
 21
-732.458496092613
 31
0.0
  0
LINE
  5
F4
330
1F
100
AcDbEntity
  8
3-4
  6
Continuous
 62
     7
370
     9
100
AcDbLine
 10
683.8865155034916
 20
-707.6723745582677
 30
0.0
 11
687.149670308993
 21
-732.458496092613
 31
0.0
  0
LINE
  5
F5
330
1F
100
AcDbEntity
  8
3-4
  6
Continuous
 62
     7
370
     9
100
AcDbLine
 10
683.8865155034916
 20
-744.0005719776927
 30
0.0
 11
683.8865155034916
 21
-626.9107484309179
 31
0.0
  0
LINE
  5
F6
330
1F
100
AcDbEntity
  8
3-2
  6
Continuous
 62
     3
370
     9
100
AcDbLine
 10
559.8649061048352
 20
-662.6723745582677
 30
0.0
 11
557.5065565995383
 21
-707.6723745582677
 31
0.0
  0
LINE
  5
F7
330
1F
100
AcDbEntity
  8
3-4
  6
Continuous
 62
     7
370
     9
100
AcDbLine
 10
686.8865155034916
 20
-707.6723745582677
 30
0.0
 11
577.5065565995383
 21
-707.6723745582677
 31
0.0
  0
LINE
  5
F8
330
1F
100
AcDbEntity
  8
3-4
  6
Continuous
 62
     7
370
     9
100
AcDbLine
 10
686.8865155034916
 20
-662.6723745582677
 30
0.0
 11
579.8649061048352
 21
-662.6723745582677
 31
0.0
  0
LINE
  5
F9
330
1F
100
AcDbEntity
  8
3-2
  6
Continuous
 62
     3
370
     9
100
AcDbLine
 10
-1035.134805215372
 20
-662.6723745582677
 30
0.0
 11
-1032.776455710075
 21
-707.6723745582677
 31
0.0
  0
LINE
  5
FA
330
1F
100
AcDbEntity
  8
3-2
  6
Continuous
 62
     3
370
     9
100
AcDbLine
 10
557.5065565995383
 20
-707.6723745582677
 30
0.0
 11
-1032.776455710075
 21
-707.6723745582677
 31
0.0
  0
LINE
  5
FB
330
1F
100
AcDbEntity
  8
3-2
  6
Continuous
 62
     3
370
     9
100
AcDbLine
 10
-1035.134805215372
 20
-662.6723745582677
 30
0.0
 11
559.8649061048352
 21
-662.6723745582677
 31
0.0
  0
LINE
  5
FC
330
1F
100
AcDbEntity
  8
3-2
  6
Continuous
 62
     3
370
     9
100
AcDbLine
 10
334.8649885847763
 20
-662.6723745582677
 30
0.0
 11
339.8649885847763
 21
-707.6723745582677
 31
0.0
  0
LINE
  5
FD
330
1F
100
AcDbEntity
  8
3-2
  6
Continuous
 62
     3
370
     9
100
AcDbLine
 10
244.8649885847763
 20
-662.6723745582677
 30
0.0
 11
249.8649885847763
 21
-707.6723745582677
 31
0.0
  0
LINE
  5
FE
330
1F
100
AcDbEntity
  8
3-2
  6
Continuous
 62
     3
370
     9
100
AcDbLine
 10
184.8649885847763
 20
-662.6723745582677
 30
0.0
 11
179.8649885847763
 21
-707.6723745582677
 31
0.0
  0
LINE
  5
FF
330
1F
100
AcDbEntity
  8
3-2
  6
Continuous
 62
     3
370
     9
100
AcDbLine
 10
154.8649885847763
 20
-662.6723745582677
 30
0.0
 11
159.8649885847763
 21
-707.6723745582677
 31
0.0
  0
LINE
  5
100
330
1F
100
AcDbEntity
  8
3-2
  6
Continuous
 62
     3
370
     9
100
AcDbLine
 10
94.86498858477631
 20
-662.6723745582677
 30
0.0
 11
89.86498858477631
 21
-707.6723745582677
 31
0.0
  0
LINE
  5
101
330
1F
100
AcDbEntity
  8
3-2
  6
Continuous
 62
     3
370
     9
100
AcDbLine
 10
64.86498858477631
 20
-662.6723745582677
 30
0.0
 11
69.86498858477631
 21
-707.6723745582677
 31
0.0
  0
LINE
  5
102
330
1F
100
AcDbEntity
  8
3-2
  6
Continuous
 62
     3
370
     9
100
AcDbLine
 10
4.864988584776313
 20
-662.6723745582677
 30
0.0
 11
-0.135011415223687
 21
-707.6723745582677
 31
0.0
  0
LINE
  5
103
330
1F
100
AcDbEntity
  8
3-2
  6
Continuous
 62
     3
370
     9
100
AcDbLine
 10
-25.13501141522369
 20
-662.6723745582677
 30
0.0
 11
-20.13501141522369
 21
-707.6723745582677
 31
0.0
  0
LINE
  5
104
330
1F
100
AcDbEntity
  8
3-2
  6
Continuous
 62
     3
370
     9
100
AcDbLine
 10
-85.13501141522369
 20
-662.6723745582677
 30
0.0
 11
-90.13501141522369
 21
-707.6723745582677
 31
0.0
  0
LINE
  5
105
330
1F
100
AcDbEntity
  8
3-2
  6
Continuous
 62
     3
370
     9
100
AcDbLine
 10
-115.1350114152237
 20
-662.6723745582677
 30
0.0
 11
-110.1350114152237
 21
-707.6723745582677
 31
0.0
  0
LINE
  5
106
330
1F
100
AcDbEntity
  8
3-2
  6
Continuous
 62
     3
370
     9
100
AcDbLine
 10
-175.1350114152237
 20
-662.6723745582677
 30
0.0
 11
-180.1350114152237
 21
-707.6723745582677
 31
0.0
  0
LINE
  5
107
330
1F
100
AcDbEntity
  8
3-2
  6
Continuous
 62
     3
370
     9
100
AcDbLine
 10
-205.1350114152237
 20
-662.6723745582677
 30
0.0
 11
-200.1350114152237
 21
-707.6723745582677
 31
0.0
  0
LINE
  5
108
330
1F
100
AcDbEntity
  8
3-2
  6
Continuous
 62
     3
370
     9
100
AcDbLine
 10
-265.1350114152237
 20
-662.6723745582677
 30
0.0
 11
-270.1350114152237
 21
-707.6723745582677
 31
0.0
  0
LINE
  5
109
330
1F
100
AcDbEntity
  8
3-2
  6
Continuous
 62
     3
370
     9
100
AcDbLine
 10
-295.1350114152237
 20
-662.6723745582677
 30
0.0
 11
-290.1350114152237
 21
-707.6723745582677
 31
0.0
  0
LINE
  5
10A
330
1F
100
AcDbEntity
  8
3-2
  6
Continuous
 62
     3
370
     9
100
AcDbLine
 10
-355.1350114152237
 20
-662.6723745582677
 30
0.0
 11
-360.1350114152237
 21
-707.6723745582677
 31
0.0
  0
LINE
  5
10B
330
1F
100
AcDbEntity
  8
3-2
  6
Continuous
 62
     3
370
     9
100
AcDbLine
 10
-385.1350114152237
 20
-662.6723745582677
 30
0.0
 11
-380.1350114152237
 21
-707.6723745582677
 31
0.0
  0
LINE
  5
10C
330
1F
100
AcDbEntity
  8
3-2
  6
Continuous
 62
     3
370
     9
100
AcDbLine
 10
-445.1350114152237
 20
-662.6723745582677
 30
0.0
 11
-450.1350114152237
 21
-707.6723745582677
 31
0.0
  0
LINE
  5
10D
330
1F
100
AcDbEntity
  8
3-2
  6
Continuous
 62
     3
370
     9
100
AcDbLine
 10
-475.1350114152237
 20
-662.6723745582677
 30
0.0
 11
-470.1350114152237
 21
-707.6723745582677
 31
0.0
  0
LINE
  5
10E
330
1F
100
AcDbEntity
  8
3-2
  6
Continuous
 62
     3
370
     9
100
AcDbLine
 10
-535.1350114152237
 20
-662.6723745582677
 30
0.0
 11
-540.1350114152237
 21
-707.6723745582677
 31
0.0
  0
LINE
  5
10F
330
1F
100
AcDbEntity
  8
3-2
  6
Continuous
 62
     3
370
     9
100
AcDbLine
 10
-565.1350114152237
 20
-662.6723745582677
 30
0.0
 11
-560.1350114152237
 21
-707.6723745582677
 31
0.0
  0
LINE
  5
110
330
1F
100
AcDbEntity
  8
3-2
  6
Continuous
 62
     3
370
     9
100
AcDbLine
 10
-625.1350114152237
 20
-662.6723745582677
 30
0.0
 11
-630.1350114152237
 21
-707.6723745582677
 31
0.0
  0
LINE
  5
111
330
1F
100
AcDbEntity
  8
3-2
  6
Continuous
 62
     3
370
     9
100
AcDbLine
 10
-655.1350114152237
 20
-662.6723745582677
 30
0.0
 11
-650.1350114152237
 21
-707.6723745582677
 31
0.0
  0
LINE
  5
112
330
1F
100
AcDbEntity
  8
3-2
  6
Continuous
 62
     3
370
     9
100
AcDbLine
 10
-715.1350114152237
 20
-662.6723745582677
 30
0.0
 11
-720.1350114152237
 21
-707.6723745582677
 31
0.0
  0
LINE
  5
113
330
1F
100
AcDbEntity
  8
3-2
  6
Continuous
 62
     3
370
     9
100
AcDbLine
 10
-745.1350114152237
 20
-662.6723745582677
 30
0.0
 11
-740.1350114152237
 21
-707.6723745582677
 31
0.0
  0
LINE
  5
114
330
1F
100
AcDbEntity
  8
3-2
  6
Continuous
 62
     3
370
     9
100
AcDbLine
 10
-805.1350114152237
 20
-662.6723745582677
 30
0.0
 11
-810.1350114152237
 21
-707.6723745582677
 31
0.0
  0
LINE
  5
115
330
1F
100
AcDbEntity
  8
3-2
  6
Continuous
 62
     3
370
     9
100
AcDbLine
 10
-835.1350114152237
 20
-662.6723745582677
 30
0.0
 11
-830.1350114152237
 21
-707.6723745582677
 31
0.0
  0
LINE
  5
116
330
1F
100
AcDbEntity
  8
3-2
  6
Continuous
 62
     3
370
     9
100
AcDbLine
 10
-895.1350114152237
 20
-662.6723745582677
 30
0.0
 11
-900.1350114152237
 21
-707.6723745582677
 31
0.0
  0
LINE
  5
117
330
1F
100
AcDbEntity
  8
3-2
  6
Continuous
 62
     3
370
     9
100
AcDbLine
 10
-985.1350114152237
 20
-662.6723745582677
 30
0.0
 11
-980.1350114152237
 21
-707.6723745582677
 31
0.0
  0
LINE
  5
118
330
1F
100
AcDbEntity
  8
3-2
  6
Continuous
 62
     3
370
     9
100
AcDbLine
 10
514.8649885847763
 20
-662.6723745582677
 30
0.0
 11
509.8649885847763
 21
-707.6723745582677
 31
0.0
  0
LINE
  5
119
330
1F
100
AcDbEntity
  8
3-0
  6
JWW_CENTER2
 62
     7
370
     9
100
AcDbLine
 10
1122.038295665615
 20
290.6756756756758
 30
0.0
 11
1259.876133503454
 21
290.6756756756758
 31
0.0
  0
LINE
  5
11A
330
1F
100
AcDbEntity
  8
3-2
  6
Continuous
 62
     3
370
     9
100
AcDbLine
 10
1178.795052422372
 20
710.6757169156464
 30
0.0
 11
1223.795052422372
 21
708.3173757467445
 31
0.0
  0
LINE
  5
11B
330
1F
100
AcDbEntity
  8
3-2
  6
Continuous
 62
     3
370
     9
100
AcDbLine
 10
1178.795052422372
 20
-129.3243655642948
 30
0.0
 11
1223.795052422372
 21
-126.9660243953929
 31
0.0
  0
LINE
  5
11C
330
1F
100
AcDbEntity
  8
3-2
  6
Continuous
 62
     3
370
     9
100
AcDbLine
 10
1178.795052422372
 20
710.6757169156464
 30
0.0
 11
1178.795052422372
 21
-129.3243655642948
 31
0.0
  0
LINE
  5
11D
330
1F
100
AcDbEntity
  8
3-2
  6
Continuous
 62
     3
370
     9
100
AcDbLine
 10
1223.795052422372
 20
-126.9660243953929
 30
0.0
 11
1223.795052422372
 21
708.3173757467445
 31
0.0
  0
LINE
  5
11E
330
1F
100
AcDbEntity
  8
3-2
  6
Continuous
 62
     3
370
     9
100
AcDbLine
 10
1178.795052422372
 20
-9.324324324324209
 30
0.0
 11
1223.795052422372
 21
-11.68268216607522
 31
0.0
  0
LINE
  5
11F
330
1F
100
AcDbEntity
  8
3-2
  6
Continuous
 62
     3
370
     9
100
AcDbLine
 10
1178.795052422372
 20
-84.32432432432421
 30
0.0
 11
1223.795052422372
 21
-81.9659664825732
 31
0.0
  0
LINE
  5
120
330
1F
100
AcDbEntity
  8
3-2
  6
Continuous
 62
     3
370
     9
100
AcDbLine
 10
1178.795052422372
 20
590.6756756756758
 30
0.0
 11
1223.795052422372
 21
593.0340335174268
 31
0.0
  0
LINE
  5
121
330
1F
100
AcDbEntity
  8
3-2
  6
Continuous
 62
     3
370
     9
100
AcDbLine
 10
1178.795052422372
 20
665.6756756756758
 30
0.0
 11
1223.795052422372
 21
663.3173178339248
 31
0.0
  0
LINE
  5
122
330
1F
100
AcDbEntity
  8
3-4
  6
Continuous
 62
     7
370
     9
100
AcDbLine
 10
1178.795052422372
 20
-249.5616212382998
 30
0.0
 11
1178.795052422372
 21
-149.3243655642948
 31
0.0
  0
LINE
  5
123
330
1F
100
AcDbEntity
  8
3-4
  6
Continuous
 62
     7
370
     9
100
AcDbLine
 10
1223.795052422372
 20
-249.5616212382998
 30
0.0
 11
1223.795052422372
 21
-146.9660243953929
 31
0.0
  0
TEXT
  5
124
330
1F
100
AcDbEntity
  8
3-4
  6
Continuous
 62
     2
370
   211
100
AcDbText
 10
1191.295052422372
 20
-234.9216212382998
 30
0.0
 40
30.48
  1
9
 41
0.9999999999999998
  7
ＭＳ ゴシック
100
AcDbText
  0
LINE
  5
125
330
1F
100
AcDbEntity
  8
3-4
  6
Continuous
 62
     7
370
     9
100
AcDbLine
 10
1223.795052422372
 20
-246.5616212382998
 30
0.0
 11
1248.581173956718
 21
-243.2984664327985
 31
0.0
  0
LINE
  5
126
330
1F
100
AcDbEntity
  8
3-4
  6
Continuous
 62
     7
370
     9
100
AcDbLine
 10
1223.795052422372
 20
-246.5616212382998
 30
0.0
 11
1248.581173956718
 21
-249.8247760438011
 31
0.0
  0
LINE
  5
127
330
1F
100
AcDbEntity
  8
3-4
  6
Continuous
 62
     7
370
     9
100
AcDbLine
 10
1178.795052422372
 20
-246.5616212382998
 30
0.0
 11
1154.008930888027
 21
-243.2984664327985
 31
0.0
  0
LINE
  5
128
330
1F
100
AcDbEntity
  8
3-4
  6
Continuous
 62
     7
370
     9
100
AcDbLine
 10
1178.795052422372
 20
-246.5616212382998
 30
0.0
 11
1154.008930888027
 21
-249.8247760438011
 31
0.0
  0
LINE
  5
129
330
1F
100
AcDbEntity
  8
3-4
  6
Continuous
 62
     7
370
     9
100
AcDbLine
 10
1138.585587606983
 20
-246.5616212382998
 30
0.0
 11
1258.840258064665
 21
-246.5616212382998
 31
0.0
  0
LINE
  5
12A
330
1F
100
AcDbEntity
  8
3-4
  6
Continuous
 62
     7
370
     9
100
AcDbLine
 10
-1232.520799989056
 20
-9.324324324324174
 30
0.0
 11
-1005.135011415224
 21
-9.324324324324188
 31
0.0
  0
LINE
  5
12B
330
1F
100
AcDbEntity
  8
3-4
  6
Continuous
 62
     7
370
     9
100
AcDbLine
 10
-1232.520799989056
 20
590.6756756756758
 30
0.0
 11
-1005.135011415224
 21
590.6756756756758
 31
0.0
  0
LINE
  5
12C
330
1F
100
AcDbEntity
  8
3-4
  6
Continuous
 62
     7
370
     9
100
AcDbLine
 10
186.4864864864867
 20
850.1351351351352
 30
0.0
 11
99.87829421288893
 21
665.6756756756758
 31
0.0
  0
LINE
  5
12D
330
1F
100
AcDbEntity
  8
3-4
  6
Continuous
 62
     7
370
     9
100
AcDbLine
 10
99.87829421288893
 20
665.6756756756758
 30
0.0
 11
107.4588307169587
 21
689.4986785575644
 31
0.0
  0
LINE
  5
12E
330
1F
100
AcDbEntity
  8
3-4
  6
Continuous
 62
     7
370
     9
100
AcDbLine
 10
99.87829421288893
 20
665.6756756756758
 30
0.0
 11
113.3663770566621
 21
686.7249421997028
 31
0.0
  0
ENDSEC
  0
SECTION
  2
OBJECTS
  0
DICTIONARY
  5
C
330
0
100
AcDbDictionary
281
     1
  3
ACAD_GROUP
350
D
  3
ACAD_LAYOUT
350
1A
  3
ACAD_MLEADERSTYLE
350
130
  3
ACAD_MLINESTYLE
350
17
  3
ACAD_PLOTSETTINGS
350
19
  3
ACAD_PLOTSTYLENAME
350
E
  3
ACAD_TABLESTYLE
350
12F
  3
ACAD_VISUALSTYLE
350
2A
  0
DICTIONARY
  5
D
102
{ACAD_REACTORS
330
C
102
}
330
C
100
AcDbDictionary
281
     1
  0
DICTIONARY
  5
1A
102
{ACAD_REACTORS
330
C
102
}
330
C
100
AcDbDictionary
281
     1
  3
Layout1
350
1E
  3
Layout2
350
26
  3
Model
350
22
  0
DICTIONARY
  5
130
102
{ACAD_REACTORS
330
C
102
}
330
C
100
AcDbDictionary
281
     1
  0
DICTIONARY
  5
17
102
{ACAD_REACTORS
330
C
102
}
330
C
100
AcDbDictionary
281
     1
  3
Standard
350
18
  0
DICTIONARY
  5
19
102
{ACAD_REACTORS
330
C
102
}
330
C
100
AcDbDictionary
281
     1
  0
ACDBDICTIONARYWDFLT
  5
E
102
{ACAD_REACTORS
330
C
102
}
330
C
100
AcDbDictionary
281
     1
  3
Normal
350
F
100
AcDbDictionaryWithDefault
340
F
  0
DICTIONARY
  5
12F
102
{ACAD_REACTORS
330
C
102
}
330
C
100
AcDbDictionary
281
     1
  0
DICTIONARY
  5
2A
102
{ACAD_REACTORS
330
C
102
}
330
C
100
AcDbDictionary
281
     1
  3
2dWireframe
350
2F
  3
3D Hidden
350
31
  3
3dWireframe
350
30
  3
Basic
350
32
  3
Brighten
350
36
  3
ColorChange
350
3A
  3
Conceptual
350
34
  3
Dim
350
35
  3
Facepattern
350
39
  3
Flat
350
2B
  3
FlatWithEdges
350
2C
  3
Gouraud
350
2D
  3
GouraudWithEdges
350
2E
  3
Linepattern
350
38
  3
Realistic
350
33
  3
Thicken
350
37
  0
LAYOUT
  5
1E
102
{ACAD_REACTORS
330
1A
102
}
330
1A
100
AcDbPlotSettings
  1

  2
none_device
  4

  6

 40
0.0
 41
0.0
 42
0.0
 43
0.0
 44
0.0
 45
0.0
 46
0.0
 47
0.0
 48
0.0
 49
0.0
140
0.0
141
0.0
142
1.0
143
1.0
 70
   688
 72
     0
 73
     0
 74
     5
  7

 75
    16
 76
     0
 77
     5
 78
   300
147
1.0
148
0.0
149
0.0
100
AcDbLayout
  1
Layout1
 70
     1
 71
     1
 10
0.0
 20
0.0
 11
420.0
 21
297.0
 12
0.0
 22
0.0
 32
0.0
 14
1.000000000000000E+20
 24
1.000000000000000E+20
 34
1.000000000000000E+20
 15
-1.000000000000000E+20
 25
-1.000000000000000E+20
 35
-1.000000000000000E+20
146
0.0
 13
0.0
 23
0.0
 33
0.0
 16
1.0
 26
0.0
 36
0.0
 17
0.0
 27
1.0
 37
0.0
 76
     0
330
1B
  0
LAYOUT
  5
26
102
{ACAD_REACTORS
330
1A
102
}
330
1A
100
AcDbPlotSettings
  1

  2
none_device
  4

  6

 40
0.0
 41
0.0
 42
0.0
 43
0.0
 44
0.0
 45
0.0
 46
0.0
 47
0.0
 48
0.0
 49
0.0
140
0.0
141
0.0
142
1.0
143
1.0
 70
   688
 72
     0
 73
     0
 74
     5
  7

 75
    16
 76
     0
 77
     5
 78
   300
147
1.0
148
0.0
149
0.0
100
AcDbLayout
  1
Layout2
 70
     1
 71
     2
 10
0.0
 20
0.0
 11
0.0
 21
0.0
 12
0.0
 22
0.0
 32
0.0
 14
0.0
 24
0.0
 34
0.0
 15
0.0
 25
0.0
 35
0.0
146
0.0
 13
0.0
 23
0.0
 33
0.0
 16
1.0
 26
0.0
 36
0.0
 17
0.0
 27
1.0
 37
0.0
 76
     0
330
23
  0
LAYOUT
  5
22
102
{ACAD_REACTORS
330
1A
102
}
330
1A
100
AcDbPlotSettings
  1

  2
none_device
  4

  6

 40
0.0
 41
0.0
 42
0.0
 43
0.0
 44
0.0
 45
0.0
 46
0.0
 47
0.0
 48
0.0
 49
0.0
140
0.0
141
0.0
142
1.0
143
1.0
 70
  1712
 72
     0
 73
     0
 74
     0
  7

 75
     0
 76
     0
 77
     5
 78
   300
147
1.0
148
0.0
149
0.0
100
AcDbLayout
  1
Model
 70
     1
 71
     0
 10
-2100.0
 20
-1485.0
 11
2100.0
 21
1485.0
 12
0.0
 22
0.0
 32
0.0
 14
-2100.0
 24
-1485.0
 34
0.0
 15
2100.0
 25
1485.0
 35
0.0
146
0.0
 13
0.0
 23
0.0
 33
0.0
 16
1.0
 26
0.0
 36
0.0
 17
0.0
 27
1.0
 37
0.0
 76
     0
330
1F
331
29
  0
MLINESTYLE
  5
18
102
{ACAD_REACTORS
330
17
102
}
330
17
100
AcDbMlineStyle
  2
Standard
 70
     0
  3

 62
   256
 51
90.0
 52
90.0
 71
     2
 49
0.5
 62
   256
  6
BYLAYER
 49
-0.5
 62
   256
  6
BYLAYER
  0
ACDBPLACEHOLDER
  5
F
102
{ACAD_REACTORS
330
E
102
}
330
E
  0
VISUALSTYLE
  5
2F
102
{ACAD_REACTORS
330
2A
102
}
330
2A
100
AcDbVisualStyle
  2
2dWireframe
 70
     4
 71
     0
 72
     2
 73
     0
 90
        0
 40
-0.6
 41
-30.0
 62
     5
 63
     7
421
 16777215
 74
     1
 91
        4
 64
     7
 65
   257
 75
     1
175
     1
 42
1.0
 92
        0
 66
   257
 43
1.0
 76
     1
 77
     6
 78
     2
 67
     7
 79
     5
170
     0
171
     0
290
     0
174
     0
 93
        1
 44
0.0
173
     0
291
     0
 45
0.0
1001
ACAD
1000
AcDbSavedByObjectVersion
1070
     0
  0
VISUALSTYLE
  5
31
102
{ACAD_REACTORS
330
2A
102
}
330
2A
100
AcDbVisualStyle
  2
3D Hidden
 70
     6
 71
     1
 72
     2
 73
     2
 90
        0
 40
-0.6
 41
-30.0
 62
     5
 63
     7
421
 16777215
 74
     2
 91
        2
 64
     7
 65
   257
 75
     2
175
     1
 42
40.0
 92
        0
 66
   257
 43
1.0
 76
     1
 77
     6
 78
     2
 67
     7
 79
     3
170
     0
171
     0
290
     0
174
     0
 93
        1
 44
0.0
173
     0
291
     0
 45
0.0
1001
ACAD
1000
AcDbSavedByObjectVersion
1070
     0
  0
VISUALSTYLE
  5
30
102
{ACAD_REACTORS
330
2A
102
}
330
2A
100
AcDbVisualStyle
  2
3dWireframe
 70
     5
 71
     0
 72
     2
 73
     0
 90
        0
 40
-0.6
 41
-30.0
 62
     5
 63
     7
421
 16777215
 74
     1
 91
        4
 64
     7
 65
   257
 75
     1
175
     1
 42
1.0
 92
        0
 66
   257
 43
1.0
 76
     1
 77
     6
 78
     2
 67
     7
 79
     5
170
     0
171
     0
290
     0
174
     0
 93
        1
 44
0.0
173
     0
291
     0
 45
0.0
1001
ACAD
1000
AcDbSavedByObjectVersion
1070
     0
  0
VISUALSTYLE
  5
32
102
{ACAD_REACTORS
330
2A
102
}
330
2A
100
AcDbVisualStyle
  2
Basic
 70
     7
 71
     1
 72
     0
 73
     1
 90
        0
 40
-0.6
 41
-30.0
 62
     5
 63
     7
421
 16777215
 74
     0
 91
        4
 64
     7
 65
   257
 75
     1
175
     1
 42
1.0
 92
        8
 66
     7
 43
1.0
 76
     1
 77
     6
 78
     2
 67
     7
 79
     5
170
     0
171
     0
290
     0
174
     0
 93
        1
 44
0.0
173
     0
291
     1
 45
0.0
1001
ACAD
1000
AcDbSavedByObjectVersion
1070
     0
  0
VISUALSTYLE
  5
36
102
{ACAD_REACTORS
330
2A
102
}
330
2A
100
AcDbVisualStyle
  2
Brighten
 70
    12
 71
     2
 72
     2
 73
     0
 90
        0
 40
-0.6
 41
-30.0
 62
     5
 63
     7
421
 16777215
 74
     1
 91
        4
 64
     7
 65
   257
 75
     1
175
     1
 42
1.0
 92
        8
 66
     7
 43
1.0
 76
     1
 77
     6
 78
     2
 67
     7
 79
     5
170
     0
171
     0
290
     0
174
     0
 93
        1
 44
50.0
173
     0
291
     1
 45
0.0
1001
ACAD
1000
AcDbSavedByObjectVersion
1070
     0
  0
VISUALSTYLE
  5
3A
102
{ACAD_REACTORS
330
2A
102
}
330
2A
100
AcDbVisualStyle
  2
ColorChange
 70
    16
 71
     2
 72
     2
 73
     3
 90
        0
 40
-0.6
 41
-30.0
 62
     5
 63
     8
421
  8421504
 74
     1
 91
        4
 64
     7
 65
   257
 75
     1
175
     1
 42
1.0
 92
        8
 66
     8
424
  8421504
 43
1.0
 76
     1
 77
     6
 78
     2
 67
     7
 79
     5
170
     0
171
     0
290
     0
174
     0
 93
        1
 44
0.0
173
     0
291
     1
 45
0.0
1001
ACAD
1000
AcDbSavedByObjectVersion
1070
     0
  0
VISUALSTYLE
  5
34
102
{ACAD_REACTORS
330
2A
102
}
330
2A
100
AcDbVisualStyle
  2
Conceptual
 70
     9
 71
     3
 72
     2
 73
     0
 90
        0
 40
-0.6
 41
-30.0
 62
     5
 63
     7
421
 16777215
 74
     2
 91
        2
 64
     7
 65
   257
 75
     1
175
     1
 42
40.0
 92
        8
 66
     7
 43
1.0
 76
     1
 77
     6
 78
     2
 67
     7
 79
     3
170
     0
171
     0
290
     0
174
     0
 93
        1
 44
0.0
173
     0
291
     0
 45
0.0
1001
ACAD
1000
AcDbSavedByObjectVersion
1070
     0
  0
VISUALSTYLE
  5
35
102
{ACAD_REACTORS
330
2A
102
}
330
2A
100
AcDbVisualStyle
  2
Dim
 70
    11
 71
     2
 72
     2
 73
     0
 90
        0
 40
-0.6
 41
-30.0
 62
     5
 63
     7
421
 16777215
 74
     1
 91
        4
 64
     7
 65
   257
 75
     1
175
     1
 42
1.0
 92
        8
 66
     7
 43
1.0
 76
     1
 77
     6
 78
     2
 67
     7
 79
     5
170
     0
171
     0
290
     0
174
     0
 93
        1
 44
-50.0
173
     0
291
     1
 45
0.0
1001
ACAD
1000
AcDbSavedByObjectVersion
1070
     0
  0
VISUALSTYLE
  5
39
102
{ACAD_REACTORS
330
2A
102
}
330
2A
100
AcDbVisualStyle
  2
Facepattern
 70
    15
 71
     2
 72
     2
 73
     0
 90
        0
 40
-0.6
 41
-30.0
 62
     5
 63
     7
421
 16777215
 74
     1
 91
        4
 64
     7
 65
   257
 75
     1
175
     1
 42
1.0
 92
        8
 66
     7
 43
1.0
 76
     1
 77
     6
 78
     2
 67
     7
 79
     5
170
     0
171
     0
290
     0
174
     0
 93
        1
 44
0.0
173
     0
291
     1
 45
0.0
1001
ACAD
1000
AcDbSavedByObjectVersion
1070
     0
  0
VISUALSTYLE
  5
2B
102
{ACAD_REACTORS
330
2A
102
}
330
2A
100
AcDbVisualStyle
  2
Flat
 70
     0
 71
     2
 72
     1
 73
     1
 90
        2
 40
-0.6
 41
30.0
 62
     5
 63
     7
421
 16777215
 74
     0
 91
        4
 64
     7
 65
   257
 75
     1
175
     1
 42
1.0
 92
        8
 66
     7
 43
1.0
 76
     1
 77
     6
 78
     2
 67
     7
 79
     5
170
     0
171
     0
290
     0
174
     0
 93
       13
 44
0.0
173
     0
291
     1
 45
0.0
1001
ACAD
1000
AcDbSavedByObjectVersion
1070
     0
  0
VISUALSTYLE
  5
2C
102
{ACAD_REACTORS
330
2A
102
}
330
2A
100
AcDbVisualStyle
  2
FlatWithEdges
 70
     1
 71
     2
 72
     1
 73
     1
 90
        2
 40
-0.6
 41
30.0
 62
     5
 63
     7
421
 16777215
 74
     1
 91
        4
 64
     7
 65
   257
 75
     1
175
     1
 42
1.0
 92
        0
 66
   257
 43
1.0
 76
     1
 77
     6
 78
     2
 67
     7
 79
     5
170
     0
171
     0
290
     0
174
     0
 93
       13
 44
0.0
173
     0
291
     1
 45
0.0
1001
ACAD
1000
AcDbSavedByObjectVersion
1070
     0
  0
VISUALSTYLE
  5
2D
102
{ACAD_REACTORS
330
2A
102
}
330
2A
100
AcDbVisualStyle
  2
Gouraud
 70
     2
 71
     2
 72
     2
 73
     1
 90
        2
 40
-0.6
 41
30.0
 62
     5
 63
     7
421
 16777215
 74
     0
 91
        4
 64
     7
 65
   257
 75
     1
175
     1
 42
1.0
 92
        0
 66
     7
 43
1.0
 76
     1
 77
     6
 78
     2
 67
     7
 79
     5
170
     0
171
     0
290
     0
174
     0
 93
       13
 44
0.0
173
     0
291
     1
 45
0.0
1001
ACAD
1000
AcDbSavedByObjectVersion
1070
     0
  0
VISUALSTYLE
  5
2E
102
{ACAD_REACTORS
330
2A
102
}
330
2A
100
AcDbVisualStyle
  2
GouraudWithEdges
 70
     3
 71
     2
 72
     2
 73
     1
 90
        2
 40
-0.6
 41
30.0
 62
     5
 63
     7
421
 16777215
 74
     1
 91
        4
 64
     7
 65
   257
 75
     1
175
     1
 42
1.0
 92
        0
 66
   257
 43
1.0
 76
     1
 77
     6
 78
     2
 67
     7
 79
     5
170
     0
171
     0
290
     0
174
     0
 93
       13
 44
0.0
173
     0
291
     1
 45
0.0
1001
ACAD
1000
AcDbSavedByObjectVersion
1070
     0
  0
VISUALSTYLE
  5
38
102
{ACAD_REACTORS
330
2A
102
}
330
2A
100
AcDbVisualStyle
  2
Linepattern
 70
    14
 71
     2
 72
     2
 73
     0
 90
        0
 40
-0.6
 41
-30.0
 62
     5
 63
     7
421
 16777215
 74
     1
 91
        4
 64
     7
 65
   257
 75
     7
175
     7
 42
1.0
 92
        8
 66
     7
 43
1.0
 76
     1
 77
     6
 78
     2
 67
     7
 79
     5
170
     0
171
     0
290
     0
174
     0
 93
        1
 44
0.0
173
     0
291
     1
 45
0.0
1001
ACAD
1000
AcDbSavedByObjectVersion
1070
     0
  0
VISUALSTYLE
  5
33
102
{ACAD_REACTORS
330
2A
102
}
330
2A
100
AcDbVisualStyle
  2
Realistic
 70
     8
 71
     2
 72
     2
 73
     0
 90
        0
 40
-0.6
 41
-30.0
 62
     5
 63
     7
421
 16777215
 74
     1
 91
        0
 64
     7
 65
   257
 75
     1
175
     1
 42
1.0
 92
        8
 66
     8
424
  7895160
 43
1.0
 76
     1
 77
     6
 78
     2
 67
     7
 79
     5
170
     0
171
     0
290
     0
174
     0
 93
       13
 44
0.0
173
     0
291
     0
 45
0.0
1001
ACAD
1000
AcDbSavedByObjectVersion
1070
     0
  0
VISUALSTYLE
  5
37
102
{ACAD_REACTORS
330
2A
102
}
330
2A
100
AcDbVisualStyle
  2
Thicken
 70
    13
 71
     2
 72
     2
 73
     0
 90
        0
 40
-0.6
 41
-30.0
 62
     5
 63
     7
421
 16777215
 74
     1
 91
        4
 64
     7
 65
   257
 75
     1
175
     1
 42
1.0
 92
       12
 66
     7
 43
1.0
 76
     1
 77
     6
 78
     2
 67
     7
 79
     5
170
     0
171
     0
290
     0
174
     0
 93
        1
 44
0.0
173
     0
291
     1
 45
0.0
1001
ACAD
1000
AcDbSavedByObjectVersion
1070
     0
  0
ENDSEC
  0
EOF
