  0
SECTION
  2
HEADER
  9
$ACADVER
  1
AC1027
  9
$ACADMAINTVER
 70
   105
  9
$DWGCODEPAGE
  3
ANSI_932
  9
$REQUIREDVERSIONS
160
                 0
  9
$INSBASE
 10
0.0
 20
0.0
 30
0.0
  9
$EXTMIN
 10
-2100.0
 20
-1485.0
 30
0.0
  9
$EXTMAX
 10
2100.0
 20
1485.0
 30
0.0
  9
$LIMMIN
 10
-2100.0
 20
-1485.0
  9
$LIMMAX
 10
2100.0
 20
1485.0
  9
$ORTHOMODE
 70
     0
  9
$REGENMODE
 70
     1
  9
$FILLMODE
 70
     1
  9
$QTEXTMODE
 70
     0
  9
$MIRRTEXT
 70
     1
  9
$LTSCALE
 40
10.0
  9
$ATTMODE
 70
     1
  9
$TEXTSIZE
 40
2.5
  9
$TRACEWID
 40
1.0
  9
$TEXTSTYLE
  7
Standard
  9
$CLAYER
  8
0
  9
$CELTYPE
  6
ByLayer
  9
$CECOLOR
 62
   256
  9
$CELTSCALE
 40
1.0
  9
$DISPSILH
 70
     0
  9
$DIMSCALE
 40
1.0
  9
$DIMASZ
 40
2.5
  9
$DIMEXO
 40
0.625
  9
$DIMDLI
 40
3.75
  9
$DIMRND
 40
0.0
  9
$DIMDLE
 40
0.0
  9
$DIMEXE
 40
1.25
  9
$DIMTP
 40
0.0
  9
$DIMTM
 40
0.0
  9
$DIMTXT
 40
2.5
  9
$DIMCEN
 40
2.5
  9
$DIMTSZ
 40
0.0
  9
$DIMTOL
 70
     0
  9
$DIMLIM
 70
     0
  9
$DIMTIH
 70
     0
  9
$DIMTOH
 70
     0
  9
$DIMSE1
 70
     0
  9
$DIMSE2
 70
     0
  9
$DIMTAD
 70
     1
  9
$DIMZIN
 70
     8
  9
$DIMBLK
  1

  9
$DIMASO
 70
     1
  9
$DIMSHO
 70
     1
  9
$DIMPOST
  1

  9
$DIMAPOST
  1

  9
$DIMALT
 70
     0
  9
$DIMALTD
 70
     3
  9
$DIMALTF
 40
0.03937007874016
  9
$DIMLFAC
 40
1.0
  9
$DIMTOFL
 70
     1
  9
$DIMTVP
 40
0.0
  9
$DIMTIX
 70
     0
  9
$DIMSOXD
 70
     0
  9
$DIMSAH
 70
     0
  9
$DIMBLK1
  1

  9
$DIMBLK2
  1

  9
$DIMSTYLE
  2
ISO-25
  9
$DIMCLRD
 70
     0
  9
$DIMCLRE
 70
     0
  9
$DIMCLRT
 70
     0
  9
$DIMTFAC
 40
1.0
  9
$DIMGAP
 40
0.625
  9
$DIMJUST
 70
     0
  9
$DIMSD1
 70
     0
  9
$DIMSD2
 70
     0
  9
$DIMTOLJ
 70
     0
  9
$DIMTZIN
 70
     8
  9
$DIMALTZ
 70
     0
  9
$DIMALTTZ
 70
     0
  9
$DIMUPT
 70
     0
  9
$DIMDEC
 70
     2
  9
$DIMTDEC
 70
     2
  9
$DIMALTU
 70
     2
  9
$DIMALTTD
 70
     3
  9
$DIMTXSTY
  7
Standard
  9
$DIMAUNIT
 70
     0
  9
$DIMADEC
 70
     0
  9
$DIMALTRND
 40
0.0
  9
$DIMAZIN
 70
     0
  9
$DIMDSEP
 70
    44
  9
$DIMATFIT
 70
     3
  9
$DIMFRAC
 70
     0
  9
$DIMLDRBLK
  1

  9
$DIMLUNIT
 70
     2
  9
$DIMLWD
 70
    -2
  9
$DIMLWE
 70
    -2
  9
$DIMTMOVE
 70
     0
  9
$DIMFXL
 40
1.0
  9
$DIMFXLON
 70
     0
  9
$DIMJOGANG
 40
0.7853981633974483
  9
$DIMTFILL
 70
     0
  9
$DIMTFILLCLR
 70
     0
  9
$DIMARCSYM
 70
     0
  9
$DIMLTYPE
  6

  9
$DIMLTEX1
  6

  9
$DIMLTEX2
  6

  9
$DIMTXTDIRECTION
 70
     0
  9
$LUNITS
 70
     2
  9
$LUPREC
 70
     4
  9
$SKETCHINC
 40
1.0
  9
$FILLETRAD
 40
10.0
  9
$AUNITS
 70
     0
  9
$AUPREC
 70
     0
  9
$MENU
  1
.
  9
$ELEVATION
 40
0.0
  9
$PELEVATION
 40
0.0
  9
$THICKNESS
 40
0.0
  9
$LIMCHECK
 70
     0
  9
$CHAMFERA
 40
0.0
  9
$CHAMFERB
 40
0.0
  9
$CHAMFERC
 40
0.0
  9
$CHAMFERD
 40
0.0
  9
$SKPOLY
 70
     0
  9
$TDCREATE
 40
2458802.365310347
  9
$TDUCREATE
 40
2458801.990310347
  9
$TDUPDATE
 40
2458802.365310706
  9
$TDUUPDATE
 40
2458801.990310706
  9
$TDINDWG
 40
0.0000000116
  9
$TDUSRTIMER
 40
0.0000000116
  9
$USRTIMER
 70
     1
  9
$ANGBASE
 50
0.0
  9
$ANGDIR
 70
     0
  9
$PDMODE
 70
     0
  9
$PDSIZE
 40
0.0
  9
$PLINEWID
 40
0.0
  9
$SPLFRAME
 70
     0
  9
$SPLINETYPE
 70
     6
  9
$SPLINESEGS
 70
     8
  9
$HANDSEED
  5
5BA
  9
$SURFTAB1
 70
     6
  9
$SURFTAB2
 70
     6
  9
$SURFTYPE
 70
     6
  9
$SURFU
 70
     6
  9
$SURFV
 70
     6
  9
$UCSBASE
  2

  9
$UCSNAME
  2

  9
$UCSORG
 10
0.0
 20
0.0
 30
0.0
  9
$UCSXDIR
 10
1.0
 20
0.0
 30
0.0
  9
$UCSYDIR
 10
0.0
 20
1.0
 30
0.0
  9
$UCSORTHOREF
  2

  9
$UCSORTHOVIEW
 70
     0
  9
$UCSORGTOP
 10
0.0
 20
0.0
 30
0.0
  9
$UCSORGBOTTOM
 10
0.0
 20
0.0
 30
0.0
  9
$UCSORGLEFT
 10
0.0
 20
0.0
 30
0.0
  9
$UCSORGRIGHT
 10
0.0
 20
0.0
 30
0.0
  9
$UCSORGFRONT
 10
0.0
 20
0.0
 30
0.0
  9
$UCSORGBACK
 10
0.0
 20
0.0
 30
0.0
  9
$PUCSBASE
  2

  9
$PUCSNAME
  2

  9
$PUCSORG
 10
0.0
 20
0.0
 30
0.0
  9
$PUCSXDIR
 10
1.0
 20
0.0
 30
0.0
  9
$PUCSYDIR
 10
0.0
 20
1.0
 30
0.0
  9
$PUCSORTHOREF
  2

  9
$PUCSORTHOVIEW
 70
     0
  9
$PUCSORGTOP
 10
0.0
 20
0.0
 30
0.0
  9
$PUCSORGBOTTOM
 10
0.0
 20
0.0
 30
0.0
  9
$PUCSORGLEFT
 10
0.0
 20
0.0
 30
0.0
  9
$PUCSORGRIGHT
 10
0.0
 20
0.0
 30
0.0
  9
$PUCSORGFRONT
 10
0.0
 20
0.0
 30
0.0
  9
$PUCSORGBACK
 10
0.0
 20
0.0
 30
0.0
  9
$USERI1
 70
     0
  9
$USERI2
 70
     0
  9
$USERI3
 70
     0
  9
$USERI4
 70
     0
  9
$USERI5
 70
     0
  9
$USERR1
 40
0.0
  9
$USERR2
 40
0.0
  9
$USERR3
 40
0.0
  9
$USERR4
 40
0.0
  9
$USERR5
 40
0.0
  9
$WORLDVIEW
 70
     1
  9
$SHADEDGE
 70
     3
  9
$SHADEDIF
 70
    70
  9
$TILEMODE
 70
     1
  9
$MAXACTVP
 70
    64
  9
$PINSBASE
 10
0.0
 20
0.0
 30
0.0
  9
$PLIMCHECK
 70
     0
  9
$PEXTMIN
 10
1.000000000000000E+20
 20
1.000000000000000E+20
 30
1.000000000000000E+20
  9
$PEXTMAX
 10
-1.000000000000000E+20
 20
-1.000000000000000E+20
 30
-1.000000000000000E+20
  9
$PLIMMIN
 10
0.0
 20
0.0
  9
$PLIMMAX
 10
420.0
 20
297.0
  9
$UNITMODE
 70
     0
  9
$VISRETAIN
 70
     1
  9
$PLINEGEN
 70
     0
  9
$PSLTSCALE
 70
     1
  9
$TREEDEPTH
 70
  3020
  9
$CMLSTYLE
  2
Standard
  9
$CMLJUST
 70
     0
  9
$CMLSCALE
 40
20.0
  9
$PROXYGRAPHICS
 70
     1
  9
$MEASUREMENT
 70
     1
  9
$CELWEIGHT
370
    -1
  9
$ENDCAPS
280
     0
  9
$JOINSTYLE
280
     0
  9
$LWDISPLAY
290
     0
  9
$INSUNITS
 70
     4
  9
$HYPERLINKBASE
  1

  9
$STYLESHEET
  1

  9
$XEDIT
290
     1
  9
$CEPSNTYPE
380
     0
  9
$PSTYLEMODE
290
     1
  9
$FINGERPRINTGUID
  2
{6C42DF4E-36FF-4074-933D-9C67BF5AF360}
  9
$VERSIONGUID
  2
{FAEB1C32-E019-11D5-929B-00C0DF256EC4}
  9
$EXTNAMES
290
     1
  9
$PSVPSCALE
 40
0.0
  9
$OLESTARTUP
290
     0
  9
$SORTENTS
280
   127
  9
$INDEXCTL
280
     0
  9
$HIDETEXT
280
     1
  9
$XCLIPFRAME
280
     2
  9
$HALOGAP
280
     0
  9
$OBSCOLOR
 70
   257
  9
$OBSLTYPE
280
     0
  9
$INTERSECTIONDISPLAY
280
     0
  9
$INTERSECTIONCOLOR
 70
   257
  9
$DIMASSOC
280
     2
  9
$PROJECTNAME
  1

  9
$CAMERADISPLAY
290
     0
  9
$LENSLENGTH
 40
50.0
  9
$CAMERAHEIGHT
 40
0.0
  9
$STEPSPERSEC
 40
2.0
  9
$STEPSIZE
 40
6.0
  9
$3DDWFPREC
 40
2.0
  9
$PSOLWIDTH
 40
5.0
  9
$PSOLHEIGHT
 40
80.0
  9
$LOFTANG1
 40
1.570796326794897
  9
$LOFTANG2
 40
1.570796326794897
  9
$LOFTMAG1
 40
0.0
  9
$LOFTMAG2
 40
0.0
  9
$LOFTPARAM
 70
     7
  9
$LOFTNORMALS
280
     1
  9
$LATITUDE
 40
37.795
  9
$LONGITUDE
 40
-122.394
  9
$NORTHDIRECTION
 40
0.0
  9
$TIMEZONE
 70
 -8000
  9
$LIGHTGLYPHDISPLAY
280
     1
  9
$TILEMODELIGHTSYNCH
280
     1
  9
$CMATERIAL
347
44
  9
$SOLIDHIST
280
     0
  9
$SHOWHIST
280
     1
  9
$DWFFRAME
280
     2
  9
$DGNFRAME
280
     2
  9
$REALWORLDSCALE
290
     1
  9
$INTERFERECOLOR
 62
   256
  9
$CSHADOW
280
     0
  9
$SHADOWPLANELOCATION
 40
0.0
  0
ENDSEC
  0
SECTION
  2
CLASSES
  0
CLASS
  1
ACDBDICTIONARYWDFLT
  2
AcDbDictionaryWithDefault
  3
ObjectDBX Classes
 90
        0
 91
        4
280
     0
281
     0
  0
CLASS
  1
VISUALSTYLE
  2
AcDbVisualStyle
  3
ObjectDBX Classes
 90
     4095
 91
        4
280
     0
281
     0
  0
CLASS
  1
MATERIAL
  2
AcDbMaterial
  3
ObjectDBX Classes
 90
     1153
 91
        4
280
     0
281
     0
  0
CLASS
  1
SCALE
  2
AcDbScale
  3
ObjectDBX Classes
 90
     1153
 91
        4
280
     0
281
     0
  0
CLASS
  1
TABLESTYLE
  2
AcDbTableStyle
  3
ObjectDBX Classes
 90
     4095
 91
        4
280
     0
281
     0
  0
CLASS
  1
MLEADERSTYLE
  2
AcDbMLeaderStyle
  3
ACDB_MLEADERSTYLE_CLASS
 90
     4095
 91
        4
280
     0
281
     0
  0
CLASS
  1
SUN
  2
AcDbSun
  3
SCENEOE
 90
     1153
 91
        4
280
     0
281
     0
  0
CLASS
  1
DICTIONARYVAR
  2
AcDbDictionaryVar
  3
ObjectDBX Classes
 90
        0
 91
        4
280
     0
281
     0
  0
CLASS
  1
CELLSTYLEMAP
  2
AcDbCellStyleMap
  3
ObjectDBX Classes
 90
     1152
 91
        4
280
     0
281
     0
  0
ENDSEC
  0
SECTION
  2
TABLES
  0
TABLE
  2
VPORT
  5
8
330
0
100
AcDbSymbolTable
 70
     1
  0
VPORT
  5
29
330
8
100
AcDbSymbolTableRecord
100
AcDbViewportTableRecord
  2
*Active
 70
     0
 10
0.0
 20
0.0
 11
1.0
 21
1.0
 12
0.0
 22
0.0
 13
0.0
 23
0.0
 14
10.0
 24
10.0
 15
10.0
 25
10.0
 16
0.0
 26
0.0
 36
1.0
 17
0.0
 27
0.0
 37
0.0
 40
3267.0
 41
1.414141414141414
 42
50.0
 43
0.0
 44
0.0
 50
0.0
 51
0.0
 71
     0
 72
 10000
 73
     1
 74
     3
 75
     0
 76
     0
 77
     0
 78
     0
281
     0
 65
     1
110
0.0
120
0.0
130
0.0
111
1.0
121
0.0
131
0.0
112
0.0
122
1.0
132
0.0
 79
     0
146
0.0
348
2F
 60
     3
 61
     5
292
     1
282
     1
141
0.0
142
0.0
 63
   250
361
6D
  0
ENDTAB
  0
TABLE
  2
LTYPE
  5
5
330
0
100
AcDbSymbolTable
 70
     5
  0
LTYPE
  5
14
330
5
100
AcDbSymbolTableRecord
100
AcDbLinetypeTableRecord
  2
ByBlock
 70
     0
  3

 72
    65
 73
     0
 40
0.0
  0
LTYPE
  5
15
330
5
100
AcDbSymbolTableRecord
100
AcDbLinetypeTableRecord
  2
ByLayer
 70
     0
  3

 72
    65
 73
     0
 40
0.0
  0
LTYPE
  5
16
330
5
100
AcDbSymbolTableRecord
100
AcDbLinetypeTableRecord
  2
Continuous
 70
     0
  3
Solid line
 72
    65
 73
     0
 40
0.0
  0
LTYPE
  5
6F
330
5
100
AcDbSymbolTableRecord
100
AcDbLinetypeTableRecord
  2
JWW_CENTER1
 70
     0
  3
-----  --  ----------  --  -----
 72
    65
 73
     4
 40
6.773333333333333
 49
4.233333333333333
 74
     0
 49
-0.8466666666666667
 74
     0
 49
0.8466666666666667
 74
     0
 49
-0.8466666666666667
 74
     0
  0
LTYPE
  5
70
330
5
100
AcDbSymbolTableRecord
100
AcDbLinetypeTableRecord
  2
JWW_PHANTOM1
 70
     0
  3
----  -  -  --------  -  -  ----
 72
    65
 73
     6
 40
6.773333333333333
 49
3.386666666666667
 74
     0
 49
-0.8466666666666667
 74
     0
 49
0.4233333333333333
 74
     0
 49
-0.8466666666666667
 74
     0
 49
0.4233333333333333
 74
     0
 49
-0.8466666666666667
 74
     0
  0
LTYPE
  5
71
330
5
100
AcDbSymbolTableRecord
100
AcDbLinetypeTableRecord
  2
JWW_DASHED1
 70
     0
  3
-  --  --  --  --  --  --  --  -
 72
    65
 73
     2
 40
1.693333333333333
 49
0.8466666666666667
 74
     0
 49
-0.8466666666666667
 74
     0
  0
LTYPE
  5
72
330
5
100
AcDbSymbolTableRecord
100
AcDbLinetypeTableRecord
  2
JWW_CENTER2
 70
     0
  3
-------------  --  -------------
 72
    65
 73
     4
 40
13.54666666666667
 49
11.00666666666667
 74
     0
 49
-0.8466666666666667
 74
     0
 49
0.8466666666666667
 74
     0
 49
-0.8466666666666667
 74
     0
  0
ENDTAB
  0
TABLE
  2
LAYER
  5
2
330
0
100
AcDbSymbolTable
 70
    15
  0
LAYER
  5
10
330
2
100
AcDbSymbolTableRecord
100
AcDbLayerTableRecord
  2
0
 70
     0
 62
     7
  6
Continuous
370
    -3
390
F
347
46
348
0
  0
LAYER
  5
73
330
2
100
AcDbSymbolTableRecord
100
AcDbLayerTableRecord
  2
Ｐｶﾞｲﾄﾞ
 70
     0
 62
     7
  6
Continuous
370
    -3
390
F
347
46
348
0
  0
LAYER
  5
74
330
2
100
AcDbSymbolTableRecord
100
AcDbLayerTableRecord
  2
F-Fﾚｲﾔ
 70
     0
 62
     7
  6
Continuous
370
    -3
390
F
347
46
348
0
  0
LAYER
  5
75
330
2
100
AcDbSymbolTableRecord
100
AcDbLayerTableRecord
  2
0-0_通り芯
 70
     0
 62
     7
  6
Continuous
370
    -3
390
F
347
46
348
0
  0
LAYER
  5
76
330
2
100
AcDbSymbolTableRecord
100
AcDbLayerTableRecord
  2
0-D_把手
 70
     0
 62
     7
  6
Continuous
370
    -3
390
F
347
46
348
0
  0
LAYER
  5
77
330
2
100
AcDbSymbolTableRecord
100
AcDbLayerTableRecord
  2
0-3_受枠
 70
     0
 62
     7
  6
Continuous
370
    -3
390
F
347
46
348
0
  0
LAYER
  5
78
330
2
100
AcDbSymbolTableRecord
100
AcDbLayerTableRecord
  2
0-4_寸法
 70
     0
 62
     7
  6
Continuous
370
    -3
390
F
347
46
348
0
  0
LAYER
  5
79
330
2
100
AcDbSymbolTableRecord
100
AcDbLayerTableRecord
  2
0-6_化粧Ｐ
 70
     0
 62
     7
  6
Continuous
370
    -3
390
F
347
46
348
0
  0
LAYER
  5
7A
330
2
100
AcDbSymbolTableRecord
100
AcDbLayerTableRecord
  2
0-A
 70
     0
 62
     7
  6
Continuous
370
    -3
390
F
347
46
348
0
  0
LAYER
  5
7B
330
2
100
AcDbSymbolTableRecord
100
AcDbLayerTableRecord
  2
ｸｯｼｮﾝ
 70
     0
 62
     7
  6
Continuous
370
    -3
390
F
347
46
348
0
  0
LAYER
  5
7C
330
2
100
AcDbSymbolTableRecord
100
AcDbLayerTableRecord
  2
0-5_文字
 70
     0
 62
     7
  6
Continuous
370
    -3
390
F
347
46
348
0
  0
LAYER
  5
7D
330
2
100
AcDbSymbolTableRecord
100
AcDbLayerTableRecord
  2
0-1_ピット
 70
     0
 62
     7
  6
Continuous
370
    -3
390
F
347
46
348
0
  0
LAYER
  5
7E
330
2
100
AcDbSymbolTableRecord
100
AcDbLayerTableRecord
  2
ｱﾝｶｰ
 70
     0
 62
     7
  6
Continuous
370
    -3
390
F
347
46
348
0
  0
LAYER
  5
7F
330
2
100
AcDbSymbolTableRecord
100
AcDbLayerTableRecord
  2
F-5ﾚｲﾔ
 70
     0
 62
     7
  6
Continuous
370
    -3
390
F
347
46
348
0
  0
LAYER
  5
80
330
2
100
AcDbSymbolTableRecord
100
AcDbLayerTableRecord
  2
F-Eﾚｲﾔ
 70
     0
 62
     7
  6
Continuous
370
    -3
390
F
347
46
348
0
  0
ENDTAB
  0
TABLE
  2
STYLE
  5
3
330
0
100
AcDbSymbolTable
 70
     2
  0
STYLE
  5
11
330
3
100
AcDbSymbolTableRecord
100
AcDbTextStyleTableRecord
  2
Standard
 70
     0
 40
0.0
 41
1.0
 50
0.0
 71
     0
 42
2.5
  3
txt
  4

  0
STYLE
  5
6E
330
3
100
AcDbSymbolTableRecord
100
AcDbTextStyleTableRecord
  2
ＭＳ ゴシック
 70
     0
 40
1.0
 41
1.0
 50
0.0
 71
     0
 42
2.5
  3

  4

1001
ACAD
1000
MS Gothic
1071
    32817
  0
ENDTAB
  0
TABLE
  2
VIEW
  5
6
330
0
100
AcDbSymbolTable
 70
     0
  0
ENDTAB
  0
TABLE
  2
UCS
  5
7
330
0
100
AcDbSymbolTable
 70
     0
  0
ENDTAB
  0
TABLE
  2
APPID
  5
9
330
0
100
AcDbSymbolTable
 70
     1
  0
APPID
  5
12
330
9
100
AcDbSymbolTableRecord
100
AcDbRegAppTableRecord
  2
ACAD
 70
     0
  0
ENDTAB
  0
TABLE
  2
DIMSTYLE
  5
A
330
0
100
AcDbSymbolTable
 70
     1
100
AcDbDimStyleTable
  0
DIMSTYLE
105
27
330
A
100
AcDbSymbolTableRecord
100
AcDbDimStyleTableRecord
  2
ISO-25
 70
     0
 41
2.5
 42
0.625
 43
3.75
 44
1.25
 73
     0
 74
     0
 77
     1
 78
     8
140
2.5
141
2.5
143
0.03937007874016
147
0.625
171
     3
172
     1
178
     0
271
     2
272
     2
274
     3
278
    44
283
     0
284
     8
340
11
  0
ENDTAB
  0
TABLE
  2
BLOCK_RECORD
  5
1
330
0
100
AcDbSymbolTable
 70
     1
  0
BLOCK_RECORD
  5
1F
330
1
100
AcDbSymbolTableRecord
100
AcDbBlockTableRecord
  2
*Model_Space
340
22
 70
     0
280
     1
281
     0
  0
BLOCK_RECORD
  5
1B
330
1
100
AcDbSymbolTableRecord
100
AcDbBlockTableRecord
  2
*Paper_Space
340
1E
 70
     0
280
     1
281
     0
  0
BLOCK_RECORD
  5
23
330
1
100
AcDbSymbolTableRecord
100
AcDbBlockTableRecord
  2
*Paper_Space0
340
26
 70
     0
280
     1
281
     0
  0
ENDTAB
  0
ENDSEC
  0
SECTION
  2
BLOCKS
  0
BLOCK
  5
20
330
1F
100
AcDbEntity
  8
0
100
AcDbBlockBegin
  2
*Model_Space
 70
     0
 10
0.0
 20
0.0
 30
0.0
  3
*Model_Space
  1

  0
ENDBLK
  5
21
330
1F
100
AcDbEntity
  8
0
100
AcDbBlockEnd
  0
BLOCK
  5
1C
330
1B
100
AcDbEntity
 67
     1
  8
0
100
AcDbBlockBegin
  2
*Paper_Space
 70
     0
 10
0.0
 20
0.0
 30
0.0
  3
*Paper_Space
  1

  0
ENDBLK
  5
1D
330
1B
100
AcDbEntity
 67
     1
  8
0
100
AcDbBlockEnd
  0
BLOCK
  5
24
330
23
100
AcDbEntity
  8
0
100
AcDbBlockBegin
  2
*Paper_Space0
 70
     0
 10
0.0
 20
0.0
 30
0.0
  3
*Paper_Space0
  1

  0
ENDBLK
  5
25
330
23
100
AcDbEntity
  8
0
100
AcDbBlockEnd
  0
ENDSEC
  0
SECTION
  2
ENTITIES
  0
LINE
  5
81
330
1F
100
AcDbEntity
  8
Ｐｶﾞｲﾄﾞ
  6
Continuous
 62
     7
370
     9
100
AcDbLine
 10
162.0683942070438
 20
-294.8580346956483
 30
0.0
 11
162.0683942070438
 21
-238.3586883491797
 31
0.0
  0
LINE
  5
82
330
1F
100
AcDbEntity
  8
F-Fﾚｲﾔ
  6
Continuous
 62
     7
370
     9
100
AcDbLine
 10
4772.337708124282
 20
-2425.409373350768
 30
0.0
 11
6272.337752899108
 21
-2425.409373350768
 31
0.0
  0
LINE
  5
83
330
1F
100
AcDbEntity
  8
F-Fﾚｲﾔ
  6
Continuous
 62
     7
370
     9
100
AcDbLine
 10
4772.337708124282
 20
-2345.409496481537
 30
0.0
 11
6272.337752899108
 21
-2345.409496481537
 31
0.0
  0
LINE
  5
84
330
1F
100
AcDbEntity
  8
F-Fﾚｲﾔ
  6
Continuous
 62
     7
370
     9
100
AcDbLine
 10
4772.337708124282
 20
-2265.409371877912
 30
0.0
 11
6272.337752899108
 21
-2265.409371877912
 31
0.0
  0
LINE
  5
85
330
1F
100
AcDbEntity
  8
F-Fﾚｲﾔ
  6
Continuous
 62
     7
370
     9
100
AcDbLine
 10
4772.337708124282
 20
-2185.409247274287
 30
0.0
 11
6272.337752899108
 21
-2185.409247274287
 31
0.0
  0
LINE
  5
86
330
1F
100
AcDbEntity
  8
F-Fﾚｲﾔ
  6
Continuous
 62
     7
370
     9
100
AcDbLine
 10
4772.337708124282
 20
-2105.409370405056
 30
0.0
 11
6272.337752899108
 21
-2105.409370405056
 31
0.0
  0
LINE
  5
87
330
1F
100
AcDbEntity
  8
F-Fﾚｲﾔ
  6
Continuous
 62
     7
370
     9
100
AcDbLine
 10
4772.337708124282
 20
-2025.409493535825
 30
0.0
 11
6272.337752899108
 21
-2025.409493535825
 31
0.0
  0
LINE
  5
88
330
1F
100
AcDbEntity
  8
F-Fﾚｲﾔ
  6
Continuous
 62
     7
370
     9
100
AcDbLine
 10
4772.337708124282
 20
-1945.4093689322
 30
0.0
 11
6272.337752899108
 21
-1945.4093689322
 31
0.0
  0
LINE
  5
89
330
1F
100
AcDbEntity
  8
F-Fﾚｲﾔ
  6
Continuous
 62
     7
370
     9
100
AcDbLine
 10
4772.337708124282
 20
-1865.409244328575
 30
0.0
 11
6272.337752899108
 21
-1865.409244328575
 31
0.0
  0
LINE
  5
8A
330
1F
100
AcDbEntity
  8
F-Fﾚｲﾔ
  6
Continuous
 62
     7
370
     9
100
AcDbLine
 10
4772.337708124282
 20
-1785.409367459344
 30
0.0
 11
6272.337752899108
 21
-1785.409367459344
 31
0.0
  0
LINE
  5
8B
330
1F
100
AcDbEntity
  8
F-Fﾚｲﾔ
  6
Continuous
 62
     7
370
     9
100
AcDbLine
 10
4772.337708124282
 20
-1705.409242855719
 30
0.0
 11
6272.337752899108
 21
-1705.409242855719
 31
0.0
  0
LINE
  5
8C
330
1F
100
AcDbEntity
  8
F-Fﾚｲﾔ
  6
Continuous
 62
     7
370
     9
100
AcDbLine
 10
4772.337708124282
 20
-2425.409373350768
 30
0.0
 11
4772.337708124282
 21
-1705.409242855719
 31
0.0
  0
LINE
  5
8D
330
1F
100
AcDbEntity
  8
F-Fﾚｲﾔ
  6
Continuous
 62
     7
370
     9
100
AcDbLine
 10
4872.337678078019
 20
-2425.409373350768
 30
0.0
 11
4872.337678078019
 21
-1705.409242855719
 31
0.0
  0
LINE
  5
8E
330
1F
100
AcDbEntity
  8
F-Fﾚｲﾔ
  6
Continuous
 62
     7
370
     9
100
AcDbLine
 10
5172.337587939226
 20
-2425.409373350768
 30
0.0
 11
5172.337587939226
 21
-1705.409242855719
 31
0.0
  0
LINE
  5
8F
330
1F
100
AcDbEntity
  8
F-Fﾚｲﾔ
  6
Continuous
 62
     7
370
     9
100
AcDbLine
 10
5422.337265089172
 20
-2425.409373350768
 30
0.0
 11
5422.337265089172
 21
-1705.409242855719
 31
0.0
  0
LINE
  5
90
330
1F
100
AcDbEntity
  8
F-Fﾚｲﾔ
  6
Continuous
 62
     7
370
     9
100
AcDbLine
 10
5672.337933176694
 20
-2425.409373350768
 30
0.0
 11
5672.337933176694
 21
-1705.409242855719
 31
0.0
  0
LINE
  5
91
330
1F
100
AcDbEntity
  8
F-Fﾚｲﾔ
  6
Continuous
 62
     7
370
     9
100
AcDbLine
 10
5922.337610326639
 20
-2425.409373350768
 30
0.0
 11
5922.337610326639
 21
-1705.409242855719
 31
0.0
  0
LINE
  5
92
330
1F
100
AcDbEntity
  8
F-Fﾚｲﾔ
  6
Continuous
 62
     7
370
     9
100
AcDbLine
 10
6022.337580280374
 20
-2425.409373350768
 30
0.0
 11
6022.337580280374
 21
-1705.409242855719
 31
0.0
  0
LINE
  5
93
330
1F
100
AcDbEntity
  8
F-Fﾚｲﾔ
  6
Continuous
 62
     7
370
     9
100
AcDbLine
 10
6272.337752899108
 20
-2425.409373350768
 30
0.0
 11
6272.337752899108
 21
-1705.409242855719
 31
0.0
  0
CIRCLE
  5
94
330
1F
100
AcDbEntity
  8
F-Fﾚｲﾔ
  6
Continuous
 62
     7
370
     9
100
AcDbCircle
 10
4935.976680108439
 20
-1635.458835540314
 30
0.0
 40
30.00000027616052
  0
CIRCLE
  5
95
330
1F
100
AcDbEntity
  8
F-Fﾚｲﾔ
  6
Continuous
 62
     7
370
     9
100
AcDbCircle
 10
5356.021740667567
 20
-1635.458835540314
 30
0.0
 40
30.00000027616052
  0
TEXT
  5
96
330
1F
100
AcDbEntity
  8
F-Fﾚｲﾔ
  6
Continuous
 62
     2
370
     9
100
AcDbText
 10
5931.331929167225
 20
-2399.769280266264
 30
0.0
 40
30.48
  1
数量
 41
1.0625
  7
ＭＳ ゴシック
100
AcDbText
  0
TEXT
  5
97
330
1F
100
AcDbEntity
  8
F-Fﾚｲﾔ
  6
Continuous
 62
     2
370
     9
100
AcDbText
 10
6104.837666589741
 20
-2399.769404133461
 30
0.0
 40
30.48
  1
備考
 41
1.0625
  7
ＭＳ ゴシック
100
AcDbText
  0
TEXT
  5
98
330
1F
100
AcDbEntity
  8
F-Fﾚｲﾔ
  6
Continuous
 62
     2
370
     9
100
AcDbText
 10
4802.337445366757
 20
-2319.769403397032
 30
0.0
 40
30.48
  1
１
 41
0.9999999999999998
  7
ＭＳ ゴシック
100
AcDbText
  0
TEXT
  5
99
330
1F
100
AcDbEntity
  8
F-Fﾚｲﾔ
  6
Continuous
 62
     2
370
     9
100
AcDbText
 10
4802.337445366757
 20
-2239.769278793407
 30
0.0
 40
30.48
  1
２
 41
0.9999999999999998
  7
ＭＳ ゴシック
100
AcDbText
  0
TEXT
  5
9A
330
1F
100
AcDbEntity
  8
F-Fﾚｲﾔ
  6
Continuous
 62
     2
370
     9
100
AcDbText
 10
4802.337445366757
 20
-2159.769401924177
 30
0.0
 40
30.48
  1
３
 41
0.9999999999999998
  7
ＭＳ ゴシック
100
AcDbText
  0
TEXT
  5
9B
330
1F
100
AcDbEntity
  8
F-Fﾚｲﾔ
  6
Continuous
 62
     2
370
     9
100
AcDbText
 10
4889.837137539835
 20
-2239.769278793407
 30
0.0
 40
30.48
  1
化粧プレート
 41
1.104166666666667
  7
ＭＳ ゴシック
100
AcDbText
  0
TEXT
  5
9C
330
1F
100
AcDbEntity
  8
F-Fﾚｲﾔ
  6
Continuous
 62
     2
370
     9
100
AcDbText
 10
4957.337385274229
 20
-2319.769403397032
 30
0.0
 40
30.48
  1
本体・
 41
1.083333333333333
  7
ＭＳ ゴシック
100
AcDbText
  0
TEXT
  5
9D
330
1F
100
AcDbEntity
  8
F-Fﾚｲﾔ
  6
Continuous
 62
     2
370
     9
100
AcDbText
 10
4802.337445366757
 20
-2079.769277320551
 30
0.0
 40
30.48
  1
４
 41
0.9999999999999998
  7
ＭＳ ゴシック
100
AcDbText
  0
TEXT
  5
9E
330
1F
100
AcDbEntity
  8
F-Fﾚｲﾔ
  6
Continuous
 62
     2
370
     9
100
AcDbText
 10
4802.337445366757
 20
-1999.76940045132
 30
0.0
 40
30.48
  1
５
 41
0.9999999999999998
  7
ＭＳ ゴシック
100
AcDbText
  0
TEXT
  5
9F
330
1F
100
AcDbEntity
  8
F-Fﾚｲﾔ
  6
Continuous
 62
     2
370
     9
100
AcDbText
 10
4802.337445366757
 20
-1919.769275847695
 30
0.0
 40
30.48
  1
６
 41
0.9999999999999998
  7
ＭＳ ゴシック
100
AcDbText
  0
TEXT
  5
A0
330
1F
100
AcDbEntity
  8
F-Fﾚｲﾔ
  6
Continuous
 62
     2
370
     9
100
AcDbText
 10
4802.337445366757
 20
-1839.769398978464
 30
0.0
 40
30.48
  1
７
 41
0.9999999999999998
  7
ＭＳ ゴシック
100
AcDbText
  0
TEXT
  5
A1
330
1F
100
AcDbEntity
  8
F-Fﾚｲﾔ
  6
Continuous
 62
     2
370
     9
100
AcDbText
 10
4802.337445366757
 20
-1759.769274374839
 30
0.0
 40
30.48
  1
８
 41
0.9999999999999998
  7
ＭＳ ゴシック
100
AcDbText
  0
TEXT
  5
A2
330
1F
100
AcDbEntity
  8
F-Fﾚｲﾔ
  6
Continuous
 62
     2
370
     9
100
AcDbText
 10
4779.837693101151
 20
-2399.769280266264
 30
0.0
 40
30.48
  1
部番
 41
1.0625
  7
ＭＳ ゴシック
100
AcDbText
  0
TEXT
  5
A3
330
1F
100
AcDbEntity
  8
F-Fﾚｲﾔ
  6
Continuous
 62
     2
370
     9
100
AcDbText
 10
5953.832176901619
 20
-2319.769403397032
 30
0.0
 40
30.48
  1
１
 41
0.9999999999999998
  7
ＭＳ ゴシック
100
AcDbText
  0
TEXT
  5
A4
330
1F
100
AcDbEntity
  8
F-Fﾚｲﾔ
  6
Continuous
 62
     2
370
     9
100
AcDbText
 10
5953.832176901619
 20
-2239.769278793407
 30
0.0
 40
30.48
  1
１
 41
0.9999999999999998
  7
ＭＳ ゴシック
100
AcDbText
  0
TEXT
  5
A5
330
1F
100
AcDbEntity
  8
F-Fﾚｲﾔ
  6
Continuous
 62
     2
370
     9
100
AcDbText
 10
4889.837137539835
 20
-2159.769401924177
 30
0.0
 40
30.48
  1
パイプガイド
 41
1.104166666666667
  7
ＭＳ ゴシック
100
AcDbText
  0
TEXT
  5
A6
330
1F
100
AcDbEntity
  8
F-Fﾚｲﾔ
  6
Continuous
 62
     2
370
     9
100
AcDbText
 10
5953.832176901619
 20
-2159.769401924177
 30
0.0
 40
30.48
  1
１
 41
0.9999999999999998
  7
ＭＳ ゴシック
100
AcDbText
  0
TEXT
  5
A7
330
1F
100
AcDbEntity
  8
F-Fﾚｲﾔ
  6
Continuous
 62
     2
370
     9
100
AcDbText
 10
4957.337385274229
 20
-2079.769277320551
 30
0.0
 40
30.48
  1
埋設管
 41
1.083333333333333
  7
ＭＳ ゴシック
100
AcDbText
  0
TEXT
  5
A8
330
1F
100
AcDbEntity
  8
F-Fﾚｲﾔ
  6
Continuous
 62
     2
370
     9
100
AcDbText
 10
5953.832176901619
 20
-2079.769277320551
 30
0.0
 40
30.48
  1
１
 41
0.9999999999999998
  7
ＭＳ ゴシック
100
AcDbText
  0
TEXT
  5
A9
330
1F
100
AcDbEntity
  8
F-Fﾚｲﾔ
  6
Continuous
 62
     2
370
     9
100
AcDbText
 10
5953.832176901619
 20
-1999.76940045132
 30
0.0
 40
30.48
  1
４
 41
0.9999999999999998
  7
ＭＳ ゴシック
100
AcDbText
  0
TEXT
  5
AA
330
1F
100
AcDbEntity
  8
F-Fﾚｲﾔ
  6
Continuous
 62
     2
370
     9
100
AcDbText
 10
5953.832176901619
 20
-1919.769523582089
 30
0.0
 40
30.48
  1
８
 41
0.9999999999999998
  7
ＭＳ ゴシック
100
AcDbText
  0
TEXT
  5
AB
330
1F
100
AcDbEntity
  8
F-Fﾚｲﾔ
  6
Continuous
 62
     2
370
     9
100
AcDbText
 10
5481.087599132932
 20
-1999.76940045132
 30
0.0
 40
30.48
  1
SUS304
 41
1.104166666666667
  7
ＭＳ ゴシック
100
AcDbText
  0
TEXT
  5
AC
330
1F
100
AcDbEntity
  8
F-Fﾚｲﾔ
  6
Continuous
 62
     2
370
     9
100
AcDbText
 10
4912.337385274229
 20
-1919.769523582089
 30
0.0
 40
30.48
  1
反射テープ
 41
1.100000000000003
  7
ＭＳ ゴシック
100
AcDbText
  0
TEXT
  5
AD
330
1F
100
AcDbEntity
  8
F-Fﾚｲﾔ
  6
Continuous
 62
     2
370
     9
100
AcDbText
 10
5253.587921982988
 20
-1919.769523582089
 30
0.0
 40
30.48
  1
φ14
 41
1.09375
  7
ＭＳ ゴシック
100
AcDbText
  0
TEXT
  5
AE
330
1F
100
AcDbEntity
  8
F-Fﾚｲﾔ
  6
Continuous
 62
     2
370
     9
100
AcDbText
 10
5219.837674248593
 20
-2159.769401924177
 30
0.0
 40
30.48
  1
1KU0221
 41
1.107142857142857
  7
ＭＳ ゴシック
100
AcDbText
  0
TEXT
  5
AF
330
1F
100
AcDbEntity
  8
F-Fﾚｲﾔ
  6
Continuous
 62
     2
370
     9
100
AcDbText
 10
4934.837633008622
 20
-1999.76940045132
 30
0.0
 40
30.48
  1
皿小ネジ
 41
1.09375
  7
ＭＳ ゴシック
100
AcDbText
  0
TEXT
  5
B0
330
1F
100
AcDbEntity
  8
F-Fﾚｲﾔ
  6
Continuous
 62
     2
370
     9
100
AcDbText
 10
5219.836683311018
 20
-2239.769278793407
 30
0.0
 40
30.48
  1
3KU0229
 41
1.107142857142857
  7
ＭＳ ゴシック
100
AcDbText
  0
TEXT
  5
B1
330
1F
100
AcDbEntity
  8
F-Fﾚｲﾔ
  6
Continuous
 62
     2
370
     9
100
AcDbText
 10
5481.087599132932
 20
-2319.769403397032
 30
0.0
 40
30.48
  1
SUS304
 41
1.104166666666667
  7
ＭＳ ゴシック
100
AcDbText
  0
TEXT
  5
B2
330
1F
100
AcDbEntity
  8
F-Fﾚｲﾔ
  6
Continuous
 62
     2
370
     9
100
AcDbText
 10
5481.087599132932
 20
-2239.769278793407
 30
0.0
 40
30.48
  1
SUS304
 41
1.104166666666667
  7
ＭＳ ゴシック
100
AcDbText
  0
TEXT
  5
B3
330
1F
100
AcDbEntity
  8
F-Fﾚｲﾔ
  6
Continuous
 62
     2
370
     9
100
AcDbText
 10
5504.837351398539
 20
-2399.769404133461
 30
0.0
 40
30.48
  1
材質
 41
1.0625
  7
ＭＳ ゴシック
100
AcDbText
  0
TEXT
  5
B4
330
1F
100
AcDbEntity
  8
F-Fﾚｲﾔ
  6
Continuous
 62
     2
370
     9
100
AcDbText
 10
5729.837159927247
 20
-2399.769404133461
 30
0.0
 40
30.48
  1
処理
 41
1.0625
  7
ＭＳ ゴシック
100
AcDbText
  0
TEXT
  5
B5
330
1F
100
AcDbEntity
  8
F-Fﾚｲﾔ
  6
Continuous
 62
     2
370
     9
100
AcDbText
 10
5526.087846867326
 20
-2159.769278056979
 30
0.0
 40
30.48
  1
PP
 41
1.0625
  7
ＭＳ ゴシック
100
AcDbText
  0
TEXT
  5
B6
330
1F
100
AcDbEntity
  8
F-Fﾚｲﾔ
  6
Continuous
 62
     2
370
     9
100
AcDbText
 10
4979.837137539835
 20
-2399.769280266264
 30
0.0
 40
30.48
  1
名称
 41
1.0625
  7
ＭＳ ゴシック
100
AcDbText
  0
TEXT
  5
B7
330
1F
100
AcDbEntity
  8
F-Fﾚｲﾔ
  6
Continuous
 62
     2
370
     9
100
AcDbText
 10
5187.336931045411
 20
-2399.769280266264
 30
0.0
 40
30.48
  1
図番・規格
 41
1.1
  7
ＭＳ ゴシック
100
AcDbText
  0
TEXT
  5
B8
330
1F
100
AcDbEntity
  8
F-Fﾚｲﾔ
  6
Continuous
 62
     2
370
     9
100
AcDbText
 10
5219.837178779806
 20
-2079.769277320551
 30
0.0
 40
30.48
  1
1KU1328
 41
1.107142857142857
  7
ＭＳ ゴシック
100
AcDbText
  0
TEXT
  5
B9
330
1F
100
AcDbEntity
  8
F-Fﾚｲﾔ
  6
Continuous
 62
     2
370
     9
100
AcDbText
 10
5439.337351398537
 20
-1919.769523582089
 30
0.0
 40
30.48
  1
スコッチライト
 41
0.7714285714285761
  7
ＭＳ ゴシック
100
AcDbText
  0
TEXT
  5
BA
330
1F
100
AcDbEntity
  8
F-Fﾚｲﾔ
  6
Continuous
 62
     2
370
     9
100
AcDbText
 10
5953.832176901619
 20
-1839.769646712858
 30
0.0
 40
30.48
  1
１
 41
0.9999999999999998
  7
ＭＳ ゴシック
100
AcDbText
  0
TEXT
  5
BB
330
1F
100
AcDbEntity
  8
F-Fﾚｲﾔ
  6
Continuous
 62
     2
370
     9
100
AcDbText
 10
5953.832176901619
 20
-1759.769769843627
 30
0.0
 40
30.48
  1
１
 41
0.9999999999999998
  7
ＭＳ ゴシック
100
AcDbText
  0
TEXT
  5
BC
330
1F
100
AcDbEntity
  8
F-Fﾚｲﾔ
  6
Continuous
 62
     2
370
     9
100
AcDbText
 10
5439.837599132932
 20
-2079.769401187748
 30
0.0
 40
30.48
  1
ＰＰ＋タルク
 41
0.8958333333333333
  7
ＭＳ ゴシック
100
AcDbText
  0
TEXT
  5
BD
330
1F
100
AcDbEntity
  8
F-Fﾚｲﾔ
  6
Continuous
 62
     2
370
     9
100
AcDbText
 10
4932.837880743016
 20
-1839.769646712858
 30
0.0
 40
30.48
  1
鍵用ボルト
 41
0.8949999999999987
  7
ＭＳ ゴシック
100
AcDbText
  0
TEXT
  5
BE
330
1F
100
AcDbEntity
  8
F-Fﾚｲﾔ
  6
Continuous
 62
     2
370
     9
100
AcDbText
 10
4957.337385274229
 20
-1759.769769843627
 30
0.0
 40
30.48
  1
南京錠
 41
1.083333333333333
  7
ＭＳ ゴシック
100
AcDbText
  0
TEXT
  5
BF
330
1F
100
AcDbEntity
  8
F-Fﾚｲﾔ
  6
Continuous
 62
     2
370
     9
100
AcDbText
 10
5253.587921982988
 20
-1759.769769843627
 30
0.0
 40
30.48
  1
25mm
 41
1.09375
  7
ＭＳ ゴシック
100
AcDbText
  0
TEXT
  5
C0
330
1F
100
AcDbEntity
  8
F-Fﾚｲﾔ
  6
Continuous
 62
     2
370
     9
100
AcDbText
 10
5219.835692373443
 20
-2319.769403397032
 30
0.0
 40
30.48
  1
2KU1202
 41
1.107142857142857
  7
ＭＳ ゴシック
100
AcDbText
  0
TEXT
  5
C1
330
1F
100
AcDbEntity
  8
F-Fﾚｲﾔ
  6
Continuous
 62
     2
370
     9
100
AcDbText
 10
5219.837674248593
 20
-1839.769646712858
 30
0.0
 40
30.48
  1
4KU1582
 41
1.107142857142857
  7
ＭＳ ゴシック
100
AcDbText
  0
TEXT
  5
C2
330
1F
100
AcDbEntity
  8
F-Fﾚｲﾔ
  6
Continuous
 62
     2
370
     9
100
AcDbText
 10
5231.087921982988
 20
-1999.76940045132
 30
0.0
 40
30.48
  1
M6×20
 41
1.104166666666667
  7
ＭＳ ゴシック
100
AcDbText
  0
TEXT
  5
C3
330
1F
100
AcDbEntity
  8
F-Fﾚｲﾔ
  6
Continuous
 62
     2
370
     9
100
AcDbText
 10
6058.587171120953
 20
-1919.769399714892
 30
0.0
 40
30.48
  1
№680-10
 41
1.109375
  7
ＭＳ ゴシック
100
AcDbText
  0
TEXT
  5
C4
330
1F
100
AcDbEntity
  8
F-Fﾚｲﾔ
  6
Continuous
 62
     2
370
     9
100
AcDbText
 10
4915.976680108439
 20
-1649.818804757621
 30
0.0
 40
30.48
  1
１
 41
0.9999999999999998
  7
ＭＳ ゴシック
100
AcDbText
  0
TEXT
  5
C5
330
1F
100
AcDbEntity
  8
F-Fﾚｲﾔ
  6
Continuous
 62
     2
370
     9
100
AcDbText
 10
5336.021740667567
 20
-1649.818804757621
 30
0.0
 40
30.48
  1
２
 41
0.9999999999999998
  7
ＭＳ ゴシック
100
AcDbText
  0
TEXT
  5
C6
330
1F
100
AcDbEntity
  8
F-Fﾚｲﾔ
  6
Continuous
 62
     2
370
     9
100
AcDbText
 10
4772.337703116572
 20
-1650.547267742745
 30
0.0
 40
30.48
  1
特記）　　本体天端の出は　　化粧プレート天端より±１．５とする。
 41
1.12109375
  7
ＭＳ ゴシック
100
AcDbText
  0
LINE
  5
C7
330
1F
100
AcDbEntity
  8
0-0_通り芯
  6
JWW_CENTER1
 62
     4
370
     9
100
AcDbLine
 10
-1687.004722438701
 20
347.5543623576028
 30
0.0
 11
-1687.004722438701
 21
785.3491958612375
 31
0.0
  0
LINE
  5
C8
330
1F
100
AcDbEntity
  8
0-0_通り芯
  6
JWW_CENTER1
 62
     4
370
     9
100
AcDbLine
 10
-1465.775877306337
 20
564.6416334404182
 30
0.0
 11
-1906.12777567644
 21
564.6416334404182
 31
0.0
  0
LINE
  5
C9
330
1F
100
AcDbEntity
  8
0-D_把手
  6
Continuous
 62
     7
370
     9
100
AcDbLine
 10
-1680.004937593519
 20
614.6416679641652
 30
0.0
 11
-1680.004937593519
 21
514.6415989166715
 31
0.0
  0
LINE
  5
CA
330
1F
100
AcDbEntity
  8
0-D_把手
  6
Continuous
 62
     7
370
     9
100
AcDbLine
 10
-1694.005101846429
 20
514.6415989166715
 30
0.0
 11
-1694.005101846429
 21
614.6416679641652
 31
0.0
  0
LINE
  5
CB
330
1F
100
AcDbEntity
  8
Ｐｶﾞｲﾄﾞ
  6
Continuous
 62
     7
370
     9
100
AcDbLine
 10
-1792.92485074921
 20
611.9378947896582
 30
0.0
 11
-1794.666324444237
 21
612.9433000536694
 31
0.0
  0
LINE
  5
CC
330
1F
100
AcDbEntity
  8
Ｐｶﾞｲﾄﾞ
  6
Continuous
 62
     7
370
     9
100
AcDbLine
 10
-1780.924794898508
 20
632.7226122463726
 30
0.0
 11
-1782.666268593533
 21
633.7278688697477
 31
0.0
  0
LINE
  5
CD
330
1F
100
AcDbEntity
  8
Ｐｶﾞｲﾄﾞ
  6
Continuous
 62
     7
370
     9
100
AcDbLine
 10
-1734.300983787941
 20
458.7215051299092
 30
0.0
 11
-1735.306389051952
 21
456.980328716156
 31
0.0
  0
LINE
  5
CE
330
1F
100
AcDbEntity
  8
Ｐｶﾞｲﾄﾞ
  6
Continuous
 62
     7
370
     9
100
AcDbLine
 10
-1755.085701244656
 20
470.721560980612
 30
0.0
 11
-1756.091106508667
 21
468.9803845668586
 31
0.0
  0
LINE
  5
CF
330
1F
100
AcDbEntity
  8
Ｐｶﾞｲﾄﾞ
  6
Continuous
 62
     7
370
     9
100
AcDbLine
 10
-1581.084594128192
 20
517.3453720911784
 30
0.0
 11
-1579.343714995711
 21
516.3399668271672
 31
0.0
  0
LINE
  5
D0
330
1F
100
AcDbEntity
  8
Ｐｶﾞｲﾄﾞ
  6
Continuous
 62
     7
370
     9
100
AcDbLine
 10
-1593.084649978895
 20
496.5606546344638
 30
0.0
 11
-1591.343770846414
 21
495.5552493704528
 31
0.0
  0
LINE
  5
D1
330
1F
100
AcDbEntity
  8
Ｐｶﾞｲﾄﾞ
  6
Continuous
 62
     7
370
     9
100
AcDbLine
 10
-1639.708461089461
 20
670.5617617509273
 30
0.0
 11
-1638.70305582545
 21
672.3029381646808
 31
0.0
  0
LINE
  5
D2
330
1F
100
AcDbEntity
  8
Ｐｶﾞｲﾄﾞ
  6
Continuous
 62
     7
370
     9
100
AcDbLine
 10
-1618.923743632747
 20
658.5617059002248
 30
0.0
 11
-1617.918338368736
 21
660.302882313978
 31
0.0
  0
LINE
  5
D3
330
1F
100
AcDbEntity
  8
0-3_受枠
  6
Continuous
 62
     4
370
     9
100
AcDbLine
 10
-1805.304980706962
 20
584.6418256186807
 30
0.0
 11
-1811.304711351041
 21
584.6418256186807
 31
0.0
  0
LINE
  5
D4
330
1F
100
AcDbEntity
  8
0-3_受枠
  6
Continuous
 62
     4
370
     9
100
AcDbLine
 10
-1805.304980706962
 20
544.6420358247015
 30
0.0
 11
-1811.304711351041
 21
544.6420358247015
 31
0.0
  0
LINE
  5
D5
330
1F
100
AcDbEntity
  8
0-3_受枠
  6
Continuous
 62
     4
370
     9
100
AcDbLine
 10
-1815.304928155456
 20
580.6416088142647
 30
0.0
 11
-1815.304928155456
 21
548.641658066572
 31
0.0
  0
LINE
  5
D6
330
1F
100
AcDbEntity
  8
0-3_受枠
  6
Continuous
 62
     4
370
     9
100
AcDbLine
 10
-1801.304763902546
 20
580.6416088142647
 30
0.0
 11
-1801.304763902546
 21
548.641658066572
 31
0.0
  0
LINE
  5
D7
330
1F
100
AcDbEntity
  8
0-3_受枠
  6
Continuous
 62
     4
370
     9
100
AcDbLine
 10
-1511.304355567924
 20
569.6416071646656
 30
0.0
 11
-1511.304355567924
 21
559.6416597161708
 31
0.0
  0
LINE
  5
D8
330
1F
100
AcDbEntity
  8
0-3_受枠
  6
Continuous
 62
     4
370
     9
100
AcDbLine
 10
-1547.304523120033
 20
576.6419865723936
 30
0.0
 11
-1547.304523120033
 21
552.6418748709881
 31
0.0
  0
LINE
  5
D9
330
1F
100
AcDbEntity
  8
0-4_寸法
  6
Continuous
 62
     7
370
     9
100
AcDbLine
 10
-1530.477808527022
 20
540.6418190202853
 30
0.0
 11
-1524.130853356519
 21
540.6418190202853
 31
0.0
  0
LINE
  5
DA
330
1F
100
AcDbEntity
  8
0-4_寸法
  6
Continuous
 62
     7
370
     9
100
AcDbLine
 10
-1530.477808527022
 20
588.6414478605514
 30
0.0
 11
-1524.130853356519
 21
588.6414478605514
 31
0.0
  0
LINE
  5
DB
330
1F
100
AcDbEntity
  8
0-4_寸法
  6
Continuous
 62
     7
370
     9
100
AcDbLine
 10
-1531.304250464914
 20
548.2415174736213
 30
0.0
 11
-1531.304250464914
 21
581.0417494072151
 31
0.0
  0
LINE
  5
DC
330
1F
100
AcDbEntity
  8
0-4_寸法
  6
Continuous
 62
     7
370
     9
100
AcDbLine
 10
-1523.304411418627
 20
581.0417494072151
 30
0.0
 11
-1523.304411418627
 21
548.2415174736213
 31
0.0
  0
LINE
  5
DD
330
1F
100
AcDbEntity
  8
0-3_受枠
  6
Continuous
 62
     4
370
     9
100
AcDbLine
 10
-1547.304523120033
 20
559.6416597161708
 30
0.0
 11
-1531.304250464914
 21
559.6416597161708
 31
0.0
  0
LINE
  5
DE
330
1F
100
AcDbEntity
  8
0-3_受枠
  6
Continuous
 62
     4
370
     9
100
AcDbLine
 10
-1523.304411418627
 20
559.6416597161708
 30
0.0
 11
-1511.304355567924
 21
559.6416597161708
 31
0.0
  0
LINE
  5
DF
330
1F
100
AcDbEntity
  8
0-3_受枠
  6
Continuous
 62
     4
370
     9
100
AcDbLine
 10
-1547.304523120033
 20
569.6416071646656
 30
0.0
 11
-1531.304250464914
 21
569.6416071646656
 31
0.0
  0
LINE
  5
E0
330
1F
100
AcDbEntity
  8
0-3_受枠
  6
Continuous
 62
     4
370
     9
100
AcDbLine
 10
-1523.304411418627
 20
569.6416071646656
 30
0.0
 11
-1511.304355567924
 21
569.6416071646656
 31
0.0
  0
LINE
  5
E1
330
1F
100
AcDbEntity
  8
0-3_受枠
  6
JWW_CENTER1
 62
     4
370
     9
100
AcDbLine
 10
-1527.304628223043
 20
585.792898706277
 30
0.0
 11
-1527.304628223043
 21
542.484368348003
 31
0.0
  0
LINE
  5
E2
330
1F
100
AcDbEntity
  8
0-3_受枠
  6
Continuous
 62
     4
370
     9
100
AcDbLine
 10
-1801.304763902546
 20
576.6419865723936
 30
0.0
 11
-1800.673041198222
 21
576.6419865723936
 31
0.0
  0
LINE
  5
E3
330
1F
100
AcDbEntity
  8
0-3_受枠
  6
Continuous
 62
     4
370
     9
100
AcDbLine
 10
-1573.336403679181
 20
576.6419865723936
 30
0.0
 11
-1547.304523120033
 21
576.6419865723936
 31
0.0
  0
LINE
  5
E4
330
1F
100
AcDbEntity
  8
0-3_受枠
  6
Continuous
 62
     4
370
     9
100
AcDbLine
 10
-1801.304763902546
 20
552.6418748709881
 30
0.0
 11
-1800.673041198222
 21
552.6418748709881
 31
0.0
  0
LINE
  5
E5
330
1F
100
AcDbEntity
  8
0-3_受枠
  6
Continuous
 62
     4
370
     9
100
AcDbLine
 10
-1573.336403679181
 20
552.6418748709881
 30
0.0
 11
-1547.304523120033
 21
552.6418748709881
 31
0.0
  0
LINE
  5
E6
330
1F
100
AcDbEntity
  8
0-6_化粧Ｐ
  6
Continuous
 62
     7
370
     9
100
AcDbLine
 10
-1870.004533677465
 20
564.6416334404182
 30
0.0
 11
-1850.004638780476
 21
559.2828412201151
 31
0.0
  0
LINE
  5
E7
330
1F
100
AcDbEntity
  8
0-6_化粧Ｐ
  6
Continuous
 62
     7
370
     9
100
AcDbLine
 10
-1850.004638780476
 20
559.2828412201151
 30
0.0
 11
-1850.004638780476
 21
570.0004256607217
 31
0.0
  0
LINE
  5
E8
330
1F
100
AcDbEntity
  8
0-6_化粧Ｐ
  6
Continuous
 62
     7
370
     9
100
AcDbLine
 10
-1850.004638780476
 20
570.0004256607217
 30
0.0
 11
-1870.004533677465
 21
564.6416334404182
 31
0.0
  0
LINE
  5
E9
330
1F
100
AcDbEntity
  8
0-A
  6
Continuous
 62
     2
370
     9
100
AcDbLine
 10
-1809.712621495508
 20
445.4700437620995
 30
0.0
 11
-1808.714945544585
 21
445.9352889537547
 31
0.0
  0
LINE
  5
EA
330
1F
100
AcDbEntity
  8
0-A
  6
Continuous
 62
     2
370
     9
100
AcDbLine
 10
-1808.250592196748
 20
446.9323703421326
 30
0.0
 11
-1808.714945544585
 21
445.9352889537547
 31
0.0
  0
LINE
  5
EB
330
1F
100
AcDbEntity
  8
0-A
  6
Continuous
 62
     2
370
     9
100
AcDbLine
 10
-1809.712621495508
 20
443.3968041668263
 30
0.0
 11
-1808.714945544585
 21
442.9318562564436
 31
0.0
  0
LINE
  5
EC
330
1F
100
AcDbEntity
  8
0-A
  6
Continuous
 62
     2
370
     9
100
AcDbLine
 10
-1808.249997634202
 20
441.9347748680661
 30
0.0
 11
-1808.714945544585
 21
442.9318562564436
 31
0.0
  0
LINE
  5
ED
330
1F
100
AcDbEntity
  8
0-A
  6
Continuous
 62
     2
370
     9
100
AcDbLine
 10
-1804.714728740169
 20
445.4700437620995
 30
0.0
 11
-1805.711810128546
 21
445.9352889537547
 31
0.0
  0
LINE
  5
EE
330
1F
100
AcDbEntity
  8
0-A
  6
Continuous
 62
     2
370
     9
100
AcDbLine
 10
-1806.176758038929
 20
446.9323703421326
 30
0.0
 11
-1805.711810128546
 21
445.9352889537547
 31
0.0
  0
LINE
  5
EF
330
1F
100
AcDbEntity
  8
0-A
  6
Continuous
 62
     2
370
     9
100
AcDbLine
 10
-1804.714728740169
 20
443.3968041668263
 30
0.0
 11
-1805.711810128546
 21
442.9318562564436
 31
0.0
  0
LINE
  5
F0
330
1F
100
AcDbEntity
  8
0-A
  6
Continuous
 62
     2
370
     9
100
AcDbLine
 10
-1806.176758038929
 20
441.9347748680661
 30
0.0
 11
-1805.711810128546
 21
442.9318562564436
 31
0.0
  0
LINE
  5
F1
330
1F
100
AcDbEntity
  8
0-A
  6
Continuous
 62
     2
370
     9
100
AcDbLine
 10
-1808.173299065865
 20
437.5335256268813
 30
0.0
 11
-1808.249997634202
 21
441.9347748680661
 31
0.0
  0
LINE
  5
F2
330
1F
100
AcDbEntity
  8
0-A
  6
Continuous
 62
     2
370
     9
100
AcDbLine
 10
-1808.173299065865
 20
437.5335256268813
 30
0.0
 11
-1806.254051169811
 21
437.5335256268813
 31
0.0
  0
LINE
  5
F3
330
1F
100
AcDbEntity
  8
0-A
  6
Continuous
 62
     2
370
     9
100
AcDbLine
 10
-1806.254051169811
 20
437.5335256268813
 30
0.0
 11
-1806.176758038929
 21
441.9347748680661
 31
0.0
  0
LINE
  5
F4
330
1F
100
AcDbEntity
  8
0-A
  6
Continuous
 62
     2
370
     9
100
AcDbLine
 10
-1814.11357345542
 20
443.4738000164356
 30
0.0
 11
-1809.712621495508
 21
443.3968041668263
 31
0.0
  0
LINE
  5
F5
330
1F
100
AcDbEntity
  8
0-A
  6
Continuous
 62
     2
370
     9
100
AcDbLine
 10
-1814.11357345542
 20
443.4738000164356
 30
0.0
 11
-1814.11357345542
 21
445.3933451937626
 31
0.0
  0
LINE
  5
F6
330
1F
100
AcDbEntity
  8
0-A
  6
Continuous
 62
     2
370
     9
100
AcDbLine
 10
-1814.11357345542
 20
445.3933451937626
 30
0.0
 11
-1809.712621495508
 21
445.4700437620995
 31
0.0
  0
LINE
  5
F7
330
1F
100
AcDbEntity
  8
0-A
  6
Continuous
 62
     2
370
     9
100
AcDbLine
 10
-1808.173299065865
 20
451.3336195833169
 30
0.0
 11
-1808.250592196748
 21
446.9323703421326
 31
0.0
  0
LINE
  5
F8
330
1F
100
AcDbEntity
  8
0-A
  6
Continuous
 62
     2
370
     9
100
AcDbLine
 10
-1808.173299065865
 20
451.3336195833169
 30
0.0
 11
-1806.253456607266
 21
451.3336195833169
 31
0.0
  0
LINE
  5
F9
330
1F
100
AcDbEntity
  8
0-A
  6
Continuous
 62
     2
370
     9
100
AcDbLine
 10
-1806.253456607266
 20
451.3336195833169
 30
0.0
 11
-1806.176758038929
 21
446.9323703421326
 31
0.0
  0
LINE
  5
FA
330
1F
100
AcDbEntity
  8
0-A
  6
Continuous
 62
     2
370
     9
100
AcDbLine
 10
-1800.313776780257
 20
445.3933451937626
 30
0.0
 11
-1804.714728740169
 21
445.4700437620995
 31
0.0
  0
LINE
  5
FB
330
1F
100
AcDbEntity
  8
0-A
  6
Continuous
 62
     2
370
     9
100
AcDbLine
 10
-1800.313776780257
 20
443.4738000164356
 30
0.0
 11
-1804.714728740169
 21
443.3968041668263
 31
0.0
  0
LINE
  5
FC
330
1F
100
AcDbEntity
  8
0-A
  6
Continuous
 62
     2
370
     9
100
AcDbLine
 10
-1800.313776780257
 20
443.4738000164356
 30
0.0
 11
-1800.313776780257
 21
445.3933451937626
 31
0.0
  0
LINE
  5
FD
330
1F
100
AcDbEntity
  8
0-6_化粧Ｐ
  6
JWW_CENTER1
 62
     7
370
     9
100
AcDbLine
 10
-1792.636190633493
 20
444.4334239644628
 30
0.0
 11
-1822.463015278311
 21
444.4334239644628
 31
0.0
  0
LINE
  5
FE
330
1F
100
AcDbEntity
  8
0-6_化粧Ｐ
  6
JWW_CENTER1
 62
     7
370
     9
100
AcDbLine
 10
-1807.213675117838
 20
429.5592527700401
 30
0.0
 11
-1807.213675117838
 21
459.7496524112761
 31
0.0
  0
LINE
  5
FF
330
1F
100
AcDbEntity
  8
0-6_化粧Ｐ
  6
JWW_CENTER1
 62
     7
370
     9
100
AcDbLine
 10
-1566.796512962746
 20
459.0107598081715
 30
0.0
 11
-1566.796512962746
 21
429.1842324446262
 31
0.0
  0
LINE
  5
100
330
1F
100
AcDbEntity
  8
0-6_化粧Ｐ
  6
JWW_CENTER1
 62
     7
370
     9
100
AcDbLine
 10
-1551.922341768323
 20
444.4335726050992
 30
0.0
 11
-1582.113038690831
 21
444.4335726050992
 31
0.0
  0
LINE
  5
101
330
1F
100
AcDbEntity
  8
0-6_化粧Ｐ
  6
JWW_CENTER1
 62
     7
370
     9
100
AcDbLine
 10
-1581.373848806454
 20
684.8504374789189
 30
0.0
 11
-1551.547618724182
 21
684.8504374789189
 31
0.0
  0
LINE
  5
102
330
1F
100
AcDbEntity
  8
0-6_化粧Ｐ
  6
JWW_CENTER1
 62
     7
370
     9
100
AcDbLine
 10
-1566.796958884654
 20
699.7244600327055
 30
0.0
 11
-1566.796958884654
 21
669.5342090321058
 31
0.0
  0
LINE
  5
103
330
1F
100
AcDbEntity
  8
0-6_化粧Ｐ
  6
JWW_CENTER1
 62
     7
370
     9
100
AcDbLine
 10
-1807.213526477202
 20
670.2731016352107
 30
0.0
 11
-1807.213526477202
 21
700.0996289987556
 31
0.0
  0
LINE
  5
104
330
1F
100
AcDbEntity
  8
0-6_化粧Ｐ
  6
JWW_CENTER1
 62
     7
370
     9
100
AcDbLine
 10
-1822.087697671624
 20
684.8502888382827
 30
0.0
 11
-1791.897595311661
 21
684.8502888382827
 31
0.0
  0
LINE
  5
105
330
1F
100
AcDbEntity
  8
0-A
  6
Continuous
 62
     2
370
     9
100
AcDbLine
 10
-1567.833430041655
 20
441.9346262274296
 30
0.0
 11
-1568.298377952038
 21
442.93200489708
 31
0.0
  0
LINE
  5
106
330
1F
100
AcDbEntity
  8
0-A
  6
Continuous
 62
     2
370
     9
100
AcDbLine
 10
-1569.295459340415
 20
443.3966555261898
 30
0.0
 11
-1568.298377952038
 21
442.93200489708
 31
0.0
  0
LINE
  5
107
330
1F
100
AcDbEntity
  8
0-A
  6
Continuous
 62
     2
370
     9
100
AcDbLine
 10
-1565.760190446382
 20
441.9346262274296
 30
0.0
 11
-1565.295242535999
 21
442.93200489708
 31
0.0
  0
LINE
  5
108
330
1F
100
AcDbEntity
  8
0-A
  6
Continuous
 62
     2
370
     9
100
AcDbLine
 10
-1564.298161147622
 20
443.3969528074627
 30
0.0
 11
-1565.295242535999
 21
442.93200489708
 31
0.0
  0
LINE
  5
109
330
1F
100
AcDbEntity
  8
0-A
  6
Continuous
 62
     2
370
     9
100
AcDbLine
 10
-1567.833430041655
 20
446.9325189827686
 30
0.0
 11
-1568.298377952038
 21
445.9351403131182
 31
0.0
  0
LINE
  5
10A
330
1F
100
AcDbEntity
  8
0-A
  6
Continuous
 62
     2
370
     9
100
AcDbLine
 10
-1569.295459340415
 20
445.4701924027359
 30
0.0
 11
-1568.298377952038
 21
445.9351403131182
 31
0.0
  0
LINE
  5
10B
330
1F
100
AcDbEntity
  8
0-A
  6
Continuous
 62
     2
370
     9
100
AcDbLine
 10
-1565.760190446382
 20
446.9325189827686
 30
0.0
 11
-1565.295242535999
 21
445.9354375943911
 31
0.0
  0
LINE
  5
10C
330
1F
100
AcDbEntity
  8
0-A
  6
Continuous
 62
     2
370
     9
100
AcDbLine
 10
-1564.298161147622
 20
445.4701924027359
 30
0.0
 11
-1565.295242535999
 21
445.9354375943911
 31
0.0
  0
LINE
  5
10D
330
1F
100
AcDbEntity
  8
0-A
  6
Continuous
 62
     2
370
     9
100
AcDbLine
 10
-1559.896614625165
 20
443.4736513757992
 30
0.0
 11
-1564.298161147622
 21
443.3969528074627
 31
0.0
  0
LINE
  5
10E
330
1F
100
AcDbEntity
  8
0-A
  6
Continuous
 62
     2
370
     9
100
AcDbLine
 10
-1559.896614625165
 20
443.4736513757992
 30
0.0
 11
-1559.896614625165
 21
445.3931965531265
 31
0.0
  0
LINE
  5
10F
330
1F
100
AcDbEntity
  8
0-A
  6
Continuous
 62
     2
370
     9
100
AcDbLine
 10
-1559.896614625165
 20
445.3931965531265
 30
0.0
 11
-1564.298161147622
 21
445.4701924027359
 31
0.0
  0
LINE
  5
110
330
1F
100
AcDbEntity
  8
0-A
  6
Continuous
 62
     2
370
     9
100
AcDbLine
 10
-1565.836889014719
 20
437.5336742675178
 30
0.0
 11
-1565.760190446382
 21
441.9346262274296
 31
0.0
  0
LINE
  5
111
330
1F
100
AcDbEntity
  8
0-A
  6
Continuous
 62
     2
370
     9
100
AcDbLine
 10
-1565.836889014719
 20
437.5336742675178
 30
0.0
 11
-1567.756731473318
 21
437.5336742675178
 31
0.0
  0
LINE
  5
112
330
1F
100
AcDbEntity
  8
0-A
  6
Continuous
 62
     2
370
     9
100
AcDbLine
 10
-1567.756731473318
 20
437.5336742675178
 30
0.0
 11
-1567.833430041655
 21
441.9346262274296
 31
0.0
  0
LINE
  5
113
330
1F
100
AcDbEntity
  8
0-A
  6
Continuous
 62
     2
370
     9
100
AcDbLine
 10
-1573.697005862873
 20
443.4739486570721
 30
0.0
 11
-1569.295459340415
 21
443.3966555261898
 31
0.0
  0
LINE
  5
114
330
1F
100
AcDbEntity
  8
0-A
  6
Continuous
 62
     2
370
     9
100
AcDbLine
 10
-1573.697005862873
 20
443.4739486570721
 30
0.0
 11
-1573.697005862873
 21
445.3934938343991
 31
0.0
  0
LINE
  5
115
330
1F
100
AcDbEntity
  8
0-A
  6
Continuous
 62
     2
370
     9
100
AcDbLine
 10
-1573.697005862873
 20
445.3934938343991
 30
0.0
 11
-1569.295459340415
 21
445.4701924027359
 31
0.0
  0
LINE
  5
116
330
1F
100
AcDbEntity
  8
0-A
  6
Continuous
 62
     2
370
     9
100
AcDbLine
 10
-1567.756731473318
 20
451.3334709426807
 30
0.0
 11
-1567.833430041655
 21
446.9325189827686
 31
0.0
  0
LINE
  5
117
330
1F
100
AcDbEntity
  8
0-A
  6
Continuous
 62
     2
370
     9
100
AcDbLine
 10
-1565.836889014719
 20
451.3334709426807
 30
0.0
 11
-1565.760190446382
 21
446.9325189827686
 31
0.0
  0
LINE
  5
118
330
1F
100
AcDbEntity
  8
0-A
  6
Continuous
 62
     2
370
     9
100
AcDbLine
 10
-1565.836889014719
 20
451.3334709426807
 30
0.0
 11
-1567.756731473318
 21
451.3334709426807
 31
0.0
  0
LINE
  5
119
330
1F
100
AcDbEntity
  8
0-A
  6
Continuous
 62
     2
370
     9
100
AcDbLine
 10
-1564.298012506985
 20
683.8135204000098
 30
0.0
 11
-1565.295093895363
 21
683.348572489627
 31
0.0
  0
LINE
  5
11A
330
1F
100
AcDbEntity
  8
0-A
  6
Continuous
 62
     2
370
     9
100
AcDbLine
 10
-1565.760041805745
 20
682.3514911012495
 30
0.0
 11
-1565.295093895363
 21
683.348572489627
 31
0.0
  0
LINE
  5
11B
330
1F
100
AcDbEntity
  8
0-A
  6
Continuous
 62
     2
370
     9
100
AcDbLine
 10
-1564.298012506985
 20
685.8870572765555
 30
0.0
 11
-1565.295093895363
 21
686.3520051869381
 31
0.0
  0
LINE
  5
11C
330
1F
100
AcDbEntity
  8
0-A
  6
Continuous
 62
     2
370
     9
100
AcDbLine
 10
-1565.760041805745
 20
687.349086575316
 30
0.0
 11
-1565.295093895363
 21
686.3520051869381
 31
0.0
  0
LINE
  5
11D
330
1F
100
AcDbEntity
  8
0-A
  6
Continuous
 62
     2
370
     9
100
AcDbLine
 10
-1569.295905262324
 20
683.8135204000098
 30
0.0
 11
-1568.298229311401
 21
683.348572489627
 31
0.0
  0
LINE
  5
11E
330
1F
100
AcDbEntity
  8
0-A
  6
Continuous
 62
     2
370
     9
100
AcDbLine
 10
-1567.833281401019
 20
682.3514911012495
 30
0.0
 11
-1568.298229311401
 21
683.348572489627
 31
0.0
  0
LINE
  5
11F
330
1F
100
AcDbEntity
  8
0-A
  6
Continuous
 62
     2
370
     9
100
AcDbLine
 10
-1569.295905262324
 20
685.8870572765555
 30
0.0
 11
-1568.298823873947
 21
686.3520051869381
 31
0.0
  0
LINE
  5
120
330
1F
100
AcDbEntity
  8
0-A
  6
Continuous
 62
     2
370
     9
100
AcDbLine
 10
-1567.833281401019
 20
687.349086575316
 30
0.0
 11
-1568.298823873947
 21
686.3520051869381
 31
0.0
  0
LINE
  5
121
330
1F
100
AcDbEntity
  8
0-A
  6
Continuous
 62
     2
370
     9
100
AcDbLine
 10
-1565.836740374082
 20
691.7503358165004
 30
0.0
 11
-1565.760041805745
 21
687.349086575316
 31
0.0
  0
LINE
  5
122
330
1F
100
AcDbEntity
  8
0-A
  6
Continuous
 62
     2
370
     9
100
AcDbLine
 10
-1565.836740374082
 20
691.7503358165004
 30
0.0
 11
-1567.756582832682
 21
691.7503358165004
 31
0.0
  0
LINE
  5
123
330
1F
100
AcDbEntity
  8
0-A
  6
Continuous
 62
     2
370
     9
100
AcDbLine
 10
-1567.756582832682
 20
691.7503358165004
 30
0.0
 11
-1567.833281401019
 21
687.349086575316
 31
0.0
  0
LINE
  5
124
330
1F
100
AcDbEntity
  8
0-A
  6
Continuous
 62
     2
370
     9
100
AcDbLine
 10
-1559.897060547074
 20
685.810061426946
 30
0.0
 11
-1564.298012506985
 21
685.8870572765555
 31
0.0
  0
LINE
  5
125
330
1F
100
AcDbEntity
  8
0-A
  6
Continuous
 62
     2
370
     9
100
AcDbLine
 10
-1559.897060547074
 20
685.810061426946
 30
0.0
 11
-1559.897060547074
 21
683.890516249619
 31
0.0
  0
LINE
  5
126
330
1F
100
AcDbEntity
  8
0-A
  6
Continuous
 62
     2
370
     9
100
AcDbLine
 10
-1559.897060547074
 20
683.890516249619
 30
0.0
 11
-1564.298012506985
 21
683.8135204000098
 31
0.0
  0
LINE
  5
127
330
1F
100
AcDbEntity
  8
0-A
  6
Continuous
 62
     2
370
     9
100
AcDbLine
 10
-1565.837334936627
 20
677.9502418600648
 30
0.0
 11
-1565.760041805745
 21
682.3514911012495
 31
0.0
  0
LINE
  5
128
330
1F
100
AcDbEntity
  8
0-A
  6
Continuous
 62
     2
370
     9
100
AcDbLine
 10
-1565.837334936627
 20
677.9502418600648
 30
0.0
 11
-1567.756582832682
 21
677.9502418600648
 31
0.0
  0
LINE
  5
129
330
1F
100
AcDbEntity
  8
0-A
  6
Continuous
 62
     2
370
     9
100
AcDbLine
 10
-1567.756582832682
 20
677.9502418600648
 30
0.0
 11
-1567.833281401019
 21
682.3514911012495
 31
0.0
  0
LINE
  5
12A
330
1F
100
AcDbEntity
  8
0-A
  6
Continuous
 62
     2
370
     9
100
AcDbLine
 10
-1573.696857222236
 20
683.890516249619
 30
0.0
 11
-1569.295905262324
 21
683.8135204000098
 31
0.0
  0
LINE
  5
12B
330
1F
100
AcDbEntity
  8
0-A
  6
Continuous
 62
     2
370
     9
100
AcDbLine
 10
-1573.696857222236
 20
685.810061426946
 30
0.0
 11
-1569.295905262324
 21
685.8870572765555
 31
0.0
  0
LINE
  5
12C
330
1F
100
AcDbEntity
  8
0-A
  6
Continuous
 62
     2
370
     9
100
AcDbLine
 10
-1573.696857222236
 20
685.810061426946
 30
0.0
 11
-1573.696857222236
 21
683.890516249619
 31
0.0
  0
LINE
  5
12D
330
1F
100
AcDbEntity
  8
0-A
  6
Continuous
 62
     2
370
     9
100
AcDbLine
 10
-1806.177203960838
 20
687.349235215952
 30
0.0
 11
-1805.71166148791
 21
686.3518565463016
 31
0.0
  0
LINE
  5
12E
330
1F
100
AcDbEntity
  8
0-A
  6
Continuous
 62
     2
370
     9
100
AcDbLine
 10
-1804.714580099532
 20
685.887205917192
 30
0.0
 11
-1805.71166148791
 21
686.3518565463016
 31
0.0
  0
LINE
  5
12F
330
1F
100
AcDbEntity
  8
0-A
  6
Continuous
 62
     2
370
     9
100
AcDbLine
 10
-1808.250443556111
 20
687.349235215952
 30
0.0
 11
-1808.715391466494
 21
686.3518565463016
 31
0.0
  0
LINE
  5
130
330
1F
100
AcDbEntity
  8
0-A
  6
Continuous
 62
     2
370
     9
100
AcDbLine
 10
-1809.712472854872
 20
685.8869086359193
 30
0.0
 11
-1808.715391466494
 21
686.3518565463016
 31
0.0
  0
LINE
  5
131
330
1F
100
AcDbEntity
  8
0-A
  6
Continuous
 62
     2
370
     9
100
AcDbLine
 10
-1806.177203960838
 20
682.3513424606131
 30
0.0
 11
-1805.71166148791
 21
683.3487211302635
 31
0.0
  0
LINE
  5
132
330
1F
100
AcDbEntity
  8
0-A
  6
Continuous
 62
     2
370
     9
100
AcDbLine
 10
-1804.714580099532
 20
683.8136690406462
 30
0.0
 11
-1805.71166148791
 21
683.3487211302635
 31
0.0
  0
LINE
  5
133
330
1F
100
AcDbEntity
  8
0-A
  6
Continuous
 62
     2
370
     9
100
AcDbLine
 10
-1808.250443556111
 20
682.3513424606131
 30
0.0
 11
-1808.715391466494
 21
683.348423848991
 31
0.0
  0
LINE
  5
134
330
1F
100
AcDbEntity
  8
0-A
  6
Continuous
 62
     2
370
     9
100
AcDbLine
 10
-1809.712472854872
 20
683.8136690406462
 30
0.0
 11
-1808.715391466494
 21
683.348423848991
 31
0.0
  0
LINE
  5
135
330
1F
100
AcDbEntity
  8
0-A
  6
Continuous
 62
     2
370
     9
100
AcDbLine
 10
-1814.113424814783
 20
685.8102100675825
 30
0.0
 11
-1809.712472854872
 21
685.8869086359193
 31
0.0
  0
LINE
  5
136
330
1F
100
AcDbEntity
  8
0-A
  6
Continuous
 62
     2
370
     9
100
AcDbLine
 10
-1814.113424814783
 20
685.8102100675825
 30
0.0
 11
-1814.113424814783
 21
683.8906648902555
 31
0.0
  0
LINE
  5
137
330
1F
100
AcDbEntity
  8
0-A
  6
Continuous
 62
     2
370
     9
100
AcDbLine
 10
-1814.113424814783
 20
683.8906648902555
 30
0.0
 11
-1809.712472854872
 21
683.8136690406462
 31
0.0
  0
LINE
  5
138
330
1F
100
AcDbEntity
  8
0-A
  6
Continuous
 62
     2
370
     9
100
AcDbLine
 10
-1808.173150425229
 20
691.7501871758643
 30
0.0
 11
-1808.250443556111
 21
687.349235215952
 31
0.0
  0
LINE
  5
139
330
1F
100
AcDbEntity
  8
0-A
  6
Continuous
 62
     2
370
     9
100
AcDbLine
 10
-1808.173150425229
 20
691.7501871758643
 30
0.0
 11
-1806.253902529175
 21
691.7501871758643
 31
0.0
  0
LINE
  5
13A
330
1F
100
AcDbEntity
  8
0-A
  6
Continuous
 62
     2
370
     9
100
AcDbLine
 10
-1806.253902529175
 20
691.7501871758643
 30
0.0
 11
-1806.177203960838
 21
687.349235215952
 31
0.0
  0
LINE
  5
13B
330
1F
100
AcDbEntity
  8
0-A
  6
Continuous
 62
     2
370
     9
100
AcDbLine
 10
-1800.313628139621
 20
685.8099127863101
 30
0.0
 11
-1804.714580099532
 21
685.887205917192
 31
0.0
  0
LINE
  5
13C
330
1F
100
AcDbEntity
  8
0-A
  6
Continuous
 62
     2
370
     9
100
AcDbLine
 10
-1800.313628139621
 20
685.8099127863101
 30
0.0
 11
-1800.313628139621
 21
683.8903676089826
 31
0.0
  0
LINE
  5
13D
330
1F
100
AcDbEntity
  8
0-A
  6
Continuous
 62
     2
370
     9
100
AcDbLine
 10
-1800.313628139621
 20
683.8903676089826
 30
0.0
 11
-1804.714580099532
 21
683.8136690406462
 31
0.0
  0
LINE
  5
13E
330
1F
100
AcDbEntity
  8
0-A
  6
Continuous
 62
     2
370
     9
100
AcDbLine
 10
-1806.253902529175
 20
677.9503905007014
 30
0.0
 11
-1806.177203960838
 21
682.3513424606131
 31
0.0
  0
LINE
  5
13F
330
1F
100
AcDbEntity
  8
0-A
  6
Continuous
 62
     2
370
     9
100
AcDbLine
 10
-1808.173150425229
 20
677.9503905007014
 30
0.0
 11
-1808.250443556111
 21
682.3513424606131
 31
0.0
  0
LINE
  5
140
330
1F
100
AcDbEntity
  8
0-A
  6
Continuous
 62
     2
370
     9
100
AcDbLine
 10
-1808.173150425229
 20
677.9503905007014
 30
0.0
 11
-1806.253902529175
 21
677.9503905007014
 31
0.0
  0
CIRCLE
  5
141
330
1F
100
AcDbEntity
  8
0-0_通り芯
  6
Continuous
 62
     4
370
     9
100
AcDbCircle
 10
-1687.004722438701
 20
564.6416334404182
 30
0.0
 40
60.00000055232103
  0
CIRCLE
  5
142
330
1F
100
AcDbEntity
  8
0-0_通り芯
  6
Continuous
 62
     4
370
     9
100
AcDbCircle
 10
-1687.004722438701
 20
564.6416334404182
 30
0.0
 40
63.00000522495696
  0
CIRCLE
  5
143
330
1F
100
AcDbEntity
  8
0-6_化粧Ｐ
  6
Continuous
 62
     7
370
     9
100
AcDbCircle
 10
-1687.004722438701
 20
564.6416334404182
 30
0.0
 40
200.00000803443
  0
CIRCLE
  5
144
330
1F
100
AcDbEntity
  8
0-0_通り芯
  6
Continuous
 62
     4
370
     9
100
AcDbCircle
 10
-1687.004722438701
 20
564.6416334404182
 30
0.0
 40
114.3000135937253
  0
ARC
  5
145
330
1F
100
AcDbEntity
  8
0-D_把手
  6
Continuous
 62
     7
370
     9
100
AcDbCircle
 10
-1687.004722438701
 20
514.6415989166715
 30
0.0
 40
7.000000838607434
100
AcDbArc
 50
180.0
 51
0.0
  0
ARC
  5
146
330
1F
100
AcDbEntity
  8
0-D_把手
  6
Continuous
 62
     7
370
     9
100
AcDbCircle
 10
-1687.004722438701
 20
614.6416679641652
 30
0.0
 40
7.000000838607434
100
AcDbArc
 50
0.0
 51
180.0
  0
ARC
  5
147
330
1F
100
AcDbEntity
  8
0-0_通り芯
  6
Continuous
 62
     4
370
     9
100
AcDbCircle
 10
-1687.004722438701
 20
514.6415989166715
 30
0.0
 40
9.000001244103125
100
AcDbArc
 50
141.0575561523438
 51
38.94242858886719
  0
ARC
  5
148
330
1F
100
AcDbEntity
  8
0-0_通り芯
  6
Continuous
 62
     4
370
     9
100
AcDbCircle
 10
-1687.004722438701
 20
614.6416679641652
 30
0.0
 40
9.000001244103125
100
AcDbArc
 50
321.0575561523438
 51
218.9424285888671
  0
ARC
  5
149
330
1F
100
AcDbEntity
  8
Ｐｶﾞｲﾄﾞ
  6
Continuous
 62
     7
370
     9
100
AcDbCircle
 10
-1687.004722438701
 20
564.6416334404182
 30
0.0
 40
116.0000072611805
100
AcDbArc
 50
144.0623321533203
 51
155.9379119873047
  0
ARC
  5
14A
330
1F
100
AcDbEntity
  8
Ｐｶﾞｲﾄﾞ
  6
Continuous
 62
     7
370
     9
100
AcDbCircle
 10
-1687.004722438701
 20
564.6416334404182
 30
0.0
 40
116.0000072611805
100
AcDbArc
 50
234.0623321533203
 51
245.9379119873047
  0
ARC
  5
14B
330
1F
100
AcDbEntity
  8
Ｐｶﾞｲﾄﾞ
  6
Continuous
 62
     7
370
     9
100
AcDbCircle
 10
-1687.004722438701
 20
564.6416334404182
 30
0.0
 40
116.0000072611805
100
AcDbArc
 50
324.0623321533203
 51
335.9379119873047
  0
ARC
  5
14C
330
1F
100
AcDbEntity
  8
Ｐｶﾞｲﾄﾞ
  6
Continuous
 62
     7
370
     9
100
AcDbCircle
 10
-1687.004722438701
 20
564.6416334404182
 30
0.0
 40
116.0000072611805
100
AcDbArc
 50
54.06233215332031
 51
65.93791198730467
  0
ARC
  5
14D
330
1F
100
AcDbEntity
  8
0-3_受枠
  6
Continuous
 62
     4
370
     9
100
AcDbCircle
 10
-1811.304711351041
 20
580.6416088142647
 30
0.0
 40
4.000000230363897
100
AcDbArc
 50
90.0
 51
180.0
  0
ARC
  5
14E
330
1F
100
AcDbEntity
  8
0-3_受枠
  6
Continuous
 62
     4
370
     9
100
AcDbCircle
 10
-1805.304980706962
 20
580.6416088142647
 30
0.0
 40
4.000000230363897
100
AcDbArc
 50
0.0
 51
90.0
  0
ARC
  5
14F
330
1F
100
AcDbEntity
  8
0-3_受枠
  6
Continuous
 62
     4
370
     9
100
AcDbCircle
 10
-1811.304711351041
 20
548.641658066572
 30
0.0
 40
4.000000230363897
100
AcDbArc
 50
180.0
 51
270.0
  0
ARC
  5
150
330
1F
100
AcDbEntity
  8
0-3_受枠
  6
Continuous
 62
     4
370
     9
100
AcDbCircle
 10
-1805.304980706962
 20
548.641658066572
 30
0.0
 40
4.000000230363897
100
AcDbArc
 50
270.0
 51
0.0
  0
ARC
  5
151
330
1F
100
AcDbEntity
  8
0-4_寸法
  6
Continuous
 62
     7
370
     9
100
AcDbCircle
 10
-1530.477808527022
 20
542.6419274224932
 30
0.0
 40
2.000000115181948
100
AcDbArc
 50
202.253677368164
 51
270.0
  0
ARC
  5
152
330
1F
100
AcDbEntity
  8
0-4_寸法
  6
Continuous
 62
     7
370
     9
100
AcDbCircle
 10
-1530.477808527022
 20
586.6413394583435
 30
0.0
 40
2.000000115181948
100
AcDbArc
 50
90.0
 51
157.7463226318359
  0
ARC
  5
153
330
1F
100
AcDbEntity
  8
0-4_寸法
  6
Continuous
 62
     7
370
     9
100
AcDbCircle
 10
-1524.130853356519
 20
542.6419274224932
 30
0.0
 40
2.000000115181948
100
AcDbArc
 50
270.0
 51
337.7463226318359
  0
ARC
  5
154
330
1F
100
AcDbEntity
  8
0-4_寸法
  6
Continuous
 62
     7
370
     9
100
AcDbCircle
 10
-1524.130853356519
 20
586.6413394583435
 30
0.0
 40
2.000000115181948
100
AcDbArc
 50
22.25367736816407
 51
90.0
  0
ARC
  5
155
330
1F
100
AcDbEntity
  8
0-4_寸法
  6
Continuous
 62
     7
370
     9
100
AcDbCircle
 10
-1527.304628223043
 20
581.0417494072151
 30
0.0
 40
3.9999195231434
100
AcDbArc
 50
0.0
 51
180.0
  0
ARC
  5
156
330
1F
100
AcDbEntity
  8
0-4_寸法
  6
Continuous
 62
     7
370
     9
100
AcDbCircle
 10
-1527.304628223043
 20
548.2415174736213
 30
0.0
 40
3.9999195231434
100
AcDbArc
 50
180.0
 51
0.0
  0
ARC
  5
157
330
1F
100
AcDbEntity
  8
0-4_寸法
  6
Continuous
 62
     7
370
     9
100
AcDbCircle
 10
-1476.706166497506
 20
564.6419307216911
 30
0.0
 40
60.09847032885753
100
AcDbArc
 50
157.7492828369141
 51
175.2276763916016
  0
ARC
  5
158
330
1F
100
AcDbEntity
  8
0-4_寸法
  6
Continuous
 62
     7
370
     9
100
AcDbCircle
 10
-1476.706166497506
 20
564.6419307216911
 30
0.0
 40
60.09847032885753
100
AcDbArc
 50
184.7723236083984
 51
202.2512817382813
  0
ARC
  5
159
330
1F
100
AcDbEntity
  8
0-4_寸法
  6
Continuous
 62
     7
370
     9
100
AcDbCircle
 10
-1577.90308994858
 20
564.6419307216911
 30
0.0
 40
60.09847032885753
100
AcDbArc
 50
337.7487182617188
 51
355.2276916503906
  0
ARC
  5
15A
330
1F
100
AcDbEntity
  8
0-4_寸法
  6
Continuous
 62
     7
370
     9
100
AcDbCircle
 10
-1577.90308994858
 20
564.6419307216911
 30
0.0
 40
60.09847032885753
100
AcDbArc
 50
4.77230834960937
 51
22.25071716308593
  0
ARC
  5
15B
330
1F
100
AcDbEntity
  8
0-6_化粧Ｐ
  6
Continuous
 62
     7
370
     9
100
AcDbCircle
 10
-1687.004722438701
 20
564.6416334404182
 30
0.0
 40
118.0000041829113
100
AcDbArc
 50
189.5154418945312
 51
354.1633453369141
  0
ARC
  5
15C
330
1F
100
AcDbEntity
  8
0-6_化粧Ｐ
  6
Continuous
 62
     7
370
     9
100
AcDbCircle
 10
-1687.004722438701
 20
564.6416334404182
 30
0.0
 40
118.0000041829113
100
AcDbArc
 50
5.83695983886718
 51
170.4845581054687
  0
CIRCLE
  5
15D
330
1F
100
AcDbEntity
  8
0-6_化粧Ｐ
  6
Continuous
 62
     7
370
     9
100
AcDbCircle
 10
-1807.213675117838
 20
444.4334239644628
 30
0.0
 40
13.00000205509451
  0
CIRCLE
  5
15E
330
1F
100
AcDbEntity
  8
0-6_化粧Ｐ
  6
Continuous
 62
     7
370
     9
100
AcDbCircle
 10
-1807.213526477202
 20
684.8502888382827
 30
0.0
 40
13.00000205509451
  0
CIRCLE
  5
15F
330
1F
100
AcDbEntity
  8
0-6_化粧Ｐ
  6
Continuous
 62
     7
370
     9
100
AcDbCircle
 10
-1566.796512962746
 20
444.4335726050992
 30
0.0
 40
13.00000205509451
  0
CIRCLE
  5
160
330
1F
100
AcDbEntity
  8
0-6_化粧Ｐ
  6
Continuous
 62
     7
370
     9
100
AcDbCircle
 10
-1566.796958884654
 20
684.8504374789189
 30
0.0
 40
13.00000205509451
  0
CIRCLE
  5
161
330
1F
100
AcDbEntity
  8
0-A
  6
Continuous
 62
     2
370
     9
100
AcDbCircle
 10
-1807.213675117838
 20
444.4334239644628
 30
0.0
 40
11.30000142010943
  0
CIRCLE
  5
162
330
1F
100
AcDbEntity
  8
0-A
  6
Continuous
 62
     2
370
     9
100
AcDbCircle
 10
-1566.796512962746
 20
444.4335726050992
 30
0.0
 40
11.30000142010943
  0
CIRCLE
  5
163
330
1F
100
AcDbEntity
  8
0-A
  6
Continuous
 62
     2
370
     9
100
AcDbCircle
 10
-1566.796958884654
 20
684.8504374789189
 30
0.0
 40
11.30000142010943
  0
CIRCLE
  5
164
330
1F
100
AcDbEntity
  8
0-A
  6
Continuous
 62
     2
370
     9
100
AcDbCircle
 10
-1807.213526477202
 20
684.8502888382827
 30
0.0
 40
11.30000142010943
  0
LINE
  5
165
330
1F
100
AcDbEntity
  8
0-0_通り芯
  6
Continuous
 62
     4
370
     9
100
AcDbLine
 10
-1249.155832343202
 20
-370.557886597023
 30
0.0
 11
-1256.931521309931
 21
-368.4685938130281
 31
0.0
  0
LINE
  5
166
330
1F
100
AcDbEntity
  8
0-0_通り芯
  6
Continuous
 62
     4
370
     9
100
AcDbLine
 10
-1260.931440833074
 20
-371.5377256715886
 30
0.0
 11
-1249.896062712033
 21
-374.4947824903704
 31
0.0
  0
LINE
  5
167
330
1F
100
AcDbEntity
  8
0-0_通り芯
  6
Continuous
 62
     4
370
     9
100
AcDbLine
 10
-1249.155832343202
 20
-500.1591438034133
 30
0.0
 11
-1256.931521309931
 21
-502.2484365874081
 31
0.0
  0
LINE
  5
168
330
1F
100
AcDbEntity
  8
0-0_通り芯
  6
Continuous
 62
     4
370
     9
100
AcDbLine
 10
-1260.931440833074
 20
-499.1793047288478
 30
0.0
 11
-1249.896062712033
 21
-496.222247910066
 31
0.0
  0
LINE
  5
169
330
1F
100
AcDbEntity
  8
0-0_通り芯
  6
Continuous
 62
     4
370
     9
100
AcDbLine
 10
389.0682120442031
 20
-321.0587710176462
 30
0.0
 11
389.0682120442031
 21
-549.6585566640626
 31
0.0
  0
LINE
  5
16A
330
1F
100
AcDbEntity
  8
0-0_通り芯
  6
Continuous
 62
     4
370
     9
100
AcDbLine
 10
-1260.931440833074
 20
-549.6585566640626
 30
0.0
 11
-1260.931440833074
 21
-321.0587710176462
 31
0.0
  0
LINE
  5
16B
330
1F
100
AcDbEntity
  8
0-0_通り芯
  6
Continuous
 62
     4
370
     9
100
AcDbLine
 10
-1246.931573861436
 20
-492.3587804910567
 30
0.0
 11
-1246.931573861436
 21
-378.3585471906522
 31
0.0
  0
LINE
  5
16C
330
1F
100
AcDbEntity
  8
0-0_通り芯
  6
Continuous
 62
     4
370
     9
100
AcDbLine
 10
253.0685700071465
 20
-325.0586905407897
 30
0.0
 11
253.0685700071465
 21
-321.0587710176462
 31
0.0
  0
LINE
  5
16D
330
1F
100
AcDbEntity
  8
0-0_通り芯
  6
Continuous
 62
     4
370
     9
100
AcDbLine
 10
275.068573306344
 20
-321.0587710176462
 30
0.0
 11
275.068573306344
 21
-325.0586905407897
 31
0.0
  0
LINE
  5
16E
330
1F
100
AcDbEntity
  8
0-0_通り芯
  6
Continuous
 62
     4
370
     9
100
AcDbLine
 10
274.0685191052401
 20
-325.0586905407897
 30
0.0
 11
389.0682120442031
 21
-325.0586905407897
 31
0.0
  0
LINE
  5
16F
330
1F
100
AcDbEntity
  8
0-0_通り芯
  6
Continuous
 62
     4
370
     9
100
AcDbLine
 10
274.0685191052401
 20
-321.0587710176462
 30
0.0
 11
389.0682120442031
 21
-321.0587710176462
 31
0.0
  0
LINE
  5
170
330
1F
100
AcDbEntity
  8
0-0_通り芯
  6
Continuous
 62
     4
370
     9
100
AcDbLine
 10
254.0686242082504
 20
-293.0584425118246
 30
0.0
 11
254.0686242082504
 21
-577.6585878886117
 31
0.0
  0
LINE
  5
171
330
1F
100
AcDbEntity
  8
0-0_通り芯
  6
Continuous
 62
     4
370
     9
100
AcDbLine
 10
253.0685700071465
 20
-545.6586371409192
 30
0.0
 11
253.0685700071465
 21
-549.6585566640626
 31
0.0
  0
LINE
  5
172
330
1F
100
AcDbEntity
  8
0-0_通り芯
  6
Continuous
 62
     4
370
     9
100
AcDbLine
 10
275.068573306344
 20
-549.6585566640626
 30
0.0
 11
275.068573306344
 21
-545.6586371409192
 31
0.0
  0
LINE
  5
173
330
1F
100
AcDbEntity
  8
0-0_通り芯
  6
Continuous
 62
     4
370
     9
100
AcDbLine
 10
274.0685191052401
 20
-545.6586371409192
 30
0.0
 11
389.0682120442031
 21
-545.6586371409192
 31
0.0
  0
LINE
  5
174
330
1F
100
AcDbEntity
  8
0-6_化粧Ｐ
  6
Continuous
 62
     7
370
     9
100
AcDbLine
 10
141.0684451089502
 20
-235.3585257458678
 30
0.0
 11
155.0689066431336
 21
-235.3585257458678
 31
0.0
  0
LINE
  5
175
330
1F
100
AcDbEntity
  8
0-6_化粧Ｐ
  6
Continuous
 62
     7
370
     9
100
AcDbLine
 10
155.0689066431336
 20
-235.3585257458678
 30
0.0
 11
155.0689066431336
 21
-238.3586883491797
 31
0.0
  0
LINE
  5
176
330
1F
100
AcDbEntity
  8
0-6_化粧Ｐ
  6
Continuous
 62
     7
370
     9
100
AcDbLine
 10
141.0684451089502
 20
-635.3582073732958
 30
0.0
 11
155.0689066431336
 21
-635.3582073732958
 31
0.0
  0
LINE
  5
177
330
1F
100
AcDbEntity
  8
0-6_化粧Ｐ
  6
Continuous
 62
     7
370
     9
100
AcDbLine
 10
155.0689066431336
 20
-635.3582073732958
 30
0.0
 11
155.0689066431336
 21
-632.358044769984
 31
0.0
  0
LINE
  5
178
330
1F
100
AcDbEntity
  8
Ｐｶﾞｲﾄﾞ
  6
Continuous
 62
     7
370
     9
100
AcDbLine
 10
162.0683942070438
 20
-632.358044769984
 30
0.0
 11
142.0684993100542
 21
-632.358044769984
 31
0.0
  0
LINE
  5
179
330
1F
100
AcDbEntity
  8
0-6_化粧Ｐ
  6
Continuous
 62
     7
370
     9
100
AcDbLine
 10
142.0684993100542
 20
-553.3583707424931
 30
0.0
 11
139.0689312692874
 21
-553.3583707424931
 31
0.0
  0
LINE
  5
17A
330
1F
100
AcDbEntity
  8
0-0_通り芯
  6
Continuous
 62
     4
370
     9
100
AcDbLine
 10
254.0686242082504
 20
-577.6585878886117
 30
0.0
 11
274.0685191052401
 21
-577.6585878886117
 31
0.0
  0
LINE
  5
17B
330
1F
100
AcDbEntity
  8
0-0_通り芯
  6
Continuous
 62
     4
370
     9
100
AcDbLine
 10
274.0685191052401
 20
-293.0584425118246
 30
0.0
 11
254.0686242082504
 21
-293.0584425118246
 31
0.0
  0
LINE
  5
17C
330
1F
100
AcDbEntity
  8
0-0_通り芯
  6
Continuous
 62
     4
370
     9
100
AcDbLine
 10
274.0685191052401
 20
-577.6585878886117
 30
0.0
 11
274.0685191052401
 21
-293.0584425118246
 31
0.0
  0
LINE
  5
17D
330
1F
100
AcDbEntity
  8
Ｐｶﾞｲﾄﾞ
  6
Continuous
 62
     7
370
     9
100
AcDbLine
 10
162.0683942070438
 20
-238.3586883491797
 30
0.0
 11
142.0684993100542
 21
-238.3586883491797
 31
0.0
  0
LINE
  5
17E
330
1F
100
AcDbEntity
  8
0-A
  6
JWW_PHANTOM1
 62
     2
370
     9
100
AcDbLine
 10
145.0921471339035
 20
-599.4815601899622
 30
0.0
 11
139.6688448774406
 21
-594.058406574136
 31
0.0
  0
LINE
  5
17F
330
1F
100
AcDbEntity
  8
0-A
  6
JWW_PHANTOM1
 62
     2
370
     9
100
AcDbLine
 10
139.0689312692874
 20
-594.058406574136
 30
0.0
 11
139.6688448774406
 21
-594.058406574136
 31
0.0
  0
LINE
  5
180
330
1F
100
AcDbEntity
  8
0-A
  6
JWW_PHANTOM1
 62
     2
370
     9
100
AcDbLine
 10
139.0689312692874
 20
-616.6583234814868
 30
0.0
 11
139.6688448774406
 21
-616.6583234814868
 31
0.0
  0
LINE
  5
181
330
1F
100
AcDbEntity
  8
0-A
  6
JWW_PHANTOM1
 62
     2
370
     9
100
AcDbLine
 10
139.6688448774406
 20
-616.6583234814868
 30
0.0
 11
139.6688448774406
 21
-594.058406574136
 31
0.0
  0
LINE
  5
182
330
1F
100
AcDbEntity
  8
0-A
  6
JWW_PHANTOM1
 62
     2
370
     9
100
AcDbLine
 10
145.0921471339035
 20
-611.2351698656606
 30
0.0
 11
139.6688448774406
 21
-616.6583234814868
 31
0.0
  0
LINE
  5
183
330
1F
100
AcDbEntity
  8
0-A
  6
JWW_PHANTOM1
 62
     2
370
     9
100
AcDbLine
 10
149.6690896072084
 20
-611.3583929531628
 30
0.0
 11
149.6690896072084
 21
-599.35833710246
 31
0.0
  0
LINE
  5
184
330
1F
100
AcDbEntity
  8
0-A
  6
JWW_PHANTOM1
 62
     2
370
     9
100
AcDbLine
 10
146.458451862879
 20
-600.2637072182337
 30
0.0
 11
149.6690896072084
 21
-601.0984730317592
 31
0.0
  0
LINE
  5
185
330
1F
100
AcDbEntity
  8
0-A
  6
JWW_PHANTOM1
 62
     2
370
     9
100
AcDbLine
 10
149.6690896072084
 20
-599.35833710246
 30
0.0
 11
147.5910935115729
 21
-600.5581643187668
 31
0.0
  0
LINE
  5
186
330
1F
100
AcDbEntity
  8
0-A
  6
JWW_PHANTOM1
 62
     2
370
     9
100
AcDbLine
 10
146.458451862879
 20
-610.4530228373892
 30
0.0
 11
149.6690896072084
 21
-609.6184056645001
 31
0.0
  0
LINE
  5
187
330
1F
100
AcDbEntity
  8
0-A
  6
JWW_PHANTOM1
 62
     2
370
     9
100
AcDbLine
 10
149.6690896072084
 20
-611.3583929531628
 30
0.0
 11
147.5910935115729
 21
-610.1585657368561
 31
0.0
  0
LINE
  5
188
330
1F
100
AcDbEntity
  8
0-A
  6
JWW_PHANTOM1
 62
     2
370
     9
100
AcDbLine
 10
145.6688728027923
 20
-610.7846400970003
 30
0.0
 11
145.6688728027923
 21
-599.9320899586226
 31
0.0
  0
LINE
  5
189
330
1F
100
AcDbEntity
  8
0-A
  6
JWW_CENTER1
 62
     2
370
     9
100
AcDbLine
 10
185.7067145996673
 20
-605.3583650278115
 30
0.0
 11
135.9483697505632
 21
-605.3583650278115
 31
0.0
  0
LINE
  5
18A
330
1F
100
AcDbEntity
  8
0-0_通り芯
  6
Continuous
 62
     4
370
     9
100
AcDbLine
 10
389.0682120442031
 20
-549.6585566640626
 30
0.0
 11
274.0685191052401
 21
-549.6585566640626
 31
0.0
  0
LINE
  5
18B
330
1F
100
AcDbEntity
  8
0-0_通り芯
  6
JWW_CENTER1
 62
     4
370
     9
100
AcDbLine
 10
264.0685716567452
 20
-579.281000433952
 30
0.0
 11
264.0685716567452
 21
-291.3177120199801
 31
0.0
  0
LINE
  5
18C
330
1F
100
AcDbEntity
  8
Ｐｶﾞｲﾄﾞ
  6
Continuous
 62
     7
370
     9
100
AcDbLine
 10
142.0687965913267
 20
-276.358369740951
 30
0.0
 11
151.868971024619
 21
-276.358369740951
 31
0.0
  0
LINE
  5
18D
330
1F
100
AcDbEntity
  8
Ｐｶﾞｲﾄﾞ
  6
Continuous
 62
     7
370
     9
100
AcDbLine
 10
146.6689270038962
 20
-302.3582925632919
 30
0.0
 11
151.868971024619
 21
-302.3582925632919
 31
0.0
  0
LINE
  5
18E
330
1F
100
AcDbEntity
  8
Ｐｶﾞｲﾄﾞ
  6
Continuous
 62
     7
370
     9
100
AcDbLine
 10
151.868971024619
 20
-283.8586276085948
 30
0.0
 11
162.0695833321343
 21
-283.8586276085948
 31
0.0
  0
LINE
  5
18F
330
1F
100
AcDbEntity
  8
Ｐｶﾞｲﾄﾞ
  6
Continuous
 62
     7
370
     9
100
AcDbLine
 10
146.6689270038962
 20
-317.3586596579431
 30
0.0
 11
146.6689270038962
 21
-302.3582925632919
 31
0.0
  0
LINE
  5
190
330
1F
100
AcDbEntity
  8
Ｐｶﾞｲﾄﾞ
  6
Continuous
 62
     7
370
     9
100
AcDbLine
 10
162.0683942070438
 20
-577.3583338032624
 30
0.0
 11
162.0683942070438
 21
-632.358044769984
 31
0.0
  0
LINE
  5
191
330
1F
100
AcDbEntity
  8
Ｐｶﾞｲﾄﾞ
  6
Continuous
 62
     7
370
     9
100
AcDbLine
 10
142.0684993100542
 20
-553.3583707424931
 30
0.0
 11
254.0686242082504
 21
-553.3583707424931
 31
0.0
  0
LINE
  5
192
330
1F
100
AcDbEntity
  8
Ｐｶﾞｲﾄﾞ
  6
Continuous
 62
     7
370
     9
100
AcDbLine
 10
274.0685191052401
 20
-553.3583707424931
 30
0.0
 11
324.0685536289868
 21
-553.3583707424931
 31
0.0
  0
LINE
  5
193
330
1F
100
AcDbEntity
  8
Ｐｶﾞｲﾄﾞ
  6
Continuous
 62
     7
370
     9
100
AcDbLine
 10
300.068441927581
 20
-577.3583338032624
 30
0.0
 11
274.0685191052401
 21
-577.3583338032624
 31
0.0
  0
LINE
  5
194
330
1F
100
AcDbEntity
  8
Ｐｶﾞｲﾄﾞ
  6
Continuous
 62
     7
370
     9
100
AcDbLine
 10
254.0686242082504
 20
-577.3583338032624
 30
0.0
 11
162.0683942070438
 21
-577.3583338032624
 31
0.0
  0
LINE
  5
195
330
1F
100
AcDbEntity
  8
Ｐｶﾞｲﾄﾞ
  6
Continuous
 62
     7
370
     9
100
AcDbLine
 10
151.868971024619
 20
-294.8580346956483
 30
0.0
 11
162.0683942070438
 21
-294.8580346956483
 31
0.0
  0
LINE
  5
196
330
1F
100
AcDbEntity
  8
Ｐｶﾞｲﾄﾞ
  6
Continuous
 62
     7
370
     9
100
AcDbLine
 10
274.0685191052401
 20
-317.3583623766706
 30
0.0
 11
324.0685536289868
 21
-317.3583623766706
 31
0.0
  0
LINE
  5
197
330
1F
100
AcDbEntity
  8
Ｐｶﾞｲﾄﾞ
  6
Continuous
 62
     7
370
     9
100
AcDbLine
 10
300.068441927581
 20
-293.3583993159012
 30
0.0
 11
274.0685191052401
 21
-293.3583993159012
 31
0.0
  0
LINE
  5
198
330
1F
100
AcDbEntity
  8
Ｐｶﾞｲﾄﾞ
  6
Continuous
 62
     7
370
     9
100
AcDbLine
 10
254.0686242082504
 20
-293.3583993159012
 30
0.0
 11
162.0683942070438
 21
-293.3583993159012
 31
0.0
  0
LINE
  5
199
330
1F
100
AcDbEntity
  8
Ｐｶﾞｲﾄﾞ
  6
Continuous
 62
     7
370
     9
100
AcDbLine
 10
232.0683236277801
 20
-577.3583338032624
 30
0.0
 11
232.0683236277801
 21
-553.3583707424931
 31
0.0
  0
LINE
  5
19A
330
1F
100
AcDbEntity
  8
Ｐｶﾞｲﾄﾞ
  6
Continuous
 62
     7
370
     9
100
AcDbLine
 10
232.0683236277801
 20
-317.3583623766706
 30
0.0
 11
232.0683236277801
 21
-293.3583993159012
 31
0.0
  0
LINE
  5
19B
330
1F
100
AcDbEntity
  8
0-0_通り芯
  6
JWW_CENTER1
 62
     4
370
     9
100
AcDbLine
 10
1869.068461015795
 20
-435.3583665595818
 30
0.0
 11
-1282.770020401238
 21
-435.3583665595818
 31
0.0
  0
LINE
  5
19C
330
1F
100
AcDbEntity
  8
Ｐｶﾞｲﾄﾞ
  6
Continuous
 62
     6
370
     5
100
AcDbLine
 10
1789.068584146565
 20
-305.3584551666041
 30
0.0
 11
1789.068584146565
 21
-565.3585752338323
 31
0.0
  0
LINE
  5
19D
330
1F
100
AcDbEntity
  8
Ｐｶﾞｲﾄﾞ
  6
Continuous
 62
     6
370
     5
100
AcDbLine
 10
1789.068584146565
 20
-305.3584551666041
 30
0.0
 11
1799.06853159506
 21
-305.3584551666041
 31
0.0
  0
LINE
  5
19E
330
1F
100
AcDbEntity
  8
Ｐｶﾞｲﾄﾞ
  6
Continuous
 62
     6
370
     5
100
AcDbLine
 10
1789.068584146565
 20
-565.3585752338323
 30
0.0
 11
1799.06853159506
 21
-565.3585752338323
 31
0.0
  0
LINE
  5
19F
330
1F
100
AcDbEntity
  8
Ｐｶﾞｲﾄﾞ
  6
Continuous
 62
     6
370
     5
100
AcDbLine
 10
1799.06853159506
 20
-305.3584551666041
 30
0.0
 11
1799.06853159506
 21
-565.3585752338323
 31
0.0
  0
LINE
  5
1A0
330
1F
100
AcDbEntity
  8
Ｐｶﾞｲﾄﾞ
  6
Continuous
 62
     6
370
     5
100
AcDbLine
 10
1789.068584146565
 20
-470.3584799105863
 30
0.0
 11
1799.06853159506
 21
-470.3584799105863
 31
0.0
  0
LINE
  5
1A1
330
1F
100
AcDbEntity
  8
Ｐｶﾞｲﾄﾞ
  6
Continuous
 62
     6
370
     5
100
AcDbLine
 10
1789.068584146565
 20
-400.35855048985
 30
0.0
 11
1799.06853159506
 21
-400.35855048985
 31
0.0
  0
LINE
  5
1A2
330
1F
100
AcDbEntity
  8
Ｐｶﾞｲﾄﾞ
  6
Continuous
 62
     6
370
     5
100
AcDbLine
 10
1793.850056135434
 20
-470.3584799105863
 30
0.0
 11
1799.06853159506
 21
-470.3584799105863
 31
0.0
  0
LINE
  5
1A3
330
1F
100
AcDbEntity
  8
0-0_通り芯
  6
Continuous
 62
     4
370
     9
100
AcDbLine
 10
-1242.931654338293
 20
-378.3585471906522
 30
0.0
 11
-1242.931654338293
 21
-492.3587804910567
 31
0.0
  0
LINE
  5
1A4
330
1F
100
AcDbEntity
  8
0-0_通り芯
  6
JWW_DASHED1
 62
     4
370
     9
100
AcDbLine
 10
-1242.931654338293
 20
-427.3583788726587
 30
0.0
 11
-1246.931573861436
 21
-427.3583788726587
 31
0.0
  0
LINE
  5
1A5
330
1F
100
AcDbEntity
  8
0-0_通り芯
  6
JWW_DASHED1
 62
     4
370
     9
100
AcDbLine
 10
-1242.994380686816
 20
-443.358354246505
 30
0.0
 11
-1247.058512964846
 21
-443.358354246505
 31
0.0
  0
LINE
  5
1A6
330
1F
100
AcDbEntity
  8
0-D_把手
  6
JWW_DASHED1
 62
     7
370
     9
100
AcDbLine
 10
-1242.931654338293
 20
-441.3583944849333
 30
0.0
 11
-1246.931573861436
 21
-441.3583944849333
 31
0.0
  0
LINE
  5
1A7
330
1F
100
AcDbEntity
  8
0-D_把手
  6
JWW_DASHED1
 62
     7
370
     9
100
AcDbLine
 10
-1242.931654338293
 20
-429.3583386342306
 30
0.0
 11
-1246.931871142709
 21
-429.3583386342306
 31
0.0
  0
LINE
  5
1A8
330
1F
100
AcDbEntity
  8
0-6_化粧Ｐ
  6
JWW_PHANTOM1
 62
     7
370
     9
100
AcDbLine
 10
145.0689591946388
 20
-598.8580127206354
 30
0.0
 11
139.0689312692874
 21
-592.8581334359204
 31
0.0
  0
LINE
  5
1A9
330
1F
100
AcDbEntity
  8
0-6_化粧Ｐ
  6
JWW_PHANTOM1
 62
     7
370
     9
100
AcDbLine
 10
145.0689591946388
 20
-611.8581227724422
 30
0.0
 11
139.0689312692874
 21
-617.8580020571574
 31
0.0
  0
LINE
  5
1AA
330
1F
100
AcDbEntity
  8
0-6_化粧Ｐ
  6
JWW_PHANTOM1
 62
     7
370
     9
100
AcDbLine
 10
147.1903583560771
 20
-613.9793732932441
 30
0.0
 11
142.0684993100542
 21
-619.1010836986309
 31
0.0
  0
LINE
  5
1AB
330
1F
100
AcDbEntity
  8
0-6_化粧Ｐ
  6
JWW_PHANTOM1
 62
     7
370
     9
100
AcDbLine
 10
147.1903583560771
 20
-596.7367621998336
 30
0.0
 11
142.0684993100542
 21
-591.6150517944469
 31
0.0
  0
LINE
  5
1AC
330
1F
100
AcDbEntity
  8
0-6_化粧Ｐ
  6
JWW_PHANTOM1
 62
     7
370
     9
100
AcDbLine
 10
145.0689591946388
 20
-598.8580127206354
 30
0.0
 11
147.1903583560771
 21
-596.7367621998336
 31
0.0
  0
LINE
  5
1AD
330
1F
100
AcDbEntity
  8
0-6_化粧Ｐ
  6
JWW_PHANTOM1
 62
     7
370
     9
100
AcDbLine
 10
147.1903583560771
 20
-613.9793732932441
 30
0.0
 11
145.0689591946388
 21
-611.8581227724422
 31
0.0
  0
LINE
  5
1AE
330
1F
100
AcDbEntity
  8
0-6_化粧Ｐ
  6
JWW_PHANTOM1
 62
     7
370
     9
100
AcDbLine
 10
145.0689591946388
 20
-599.4583722506978
 30
0.0
 11
145.0689591946388
 21
-598.8580127206354
 31
0.0
  0
LINE
  5
1AF
330
1F
100
AcDbEntity
  8
0-6_化粧Ｐ
  6
JWW_PHANTOM1
 62
     7
370
     9
100
AcDbLine
 10
145.0689591946388
 20
-611.8581227724422
 30
0.0
 11
145.0689591946388
 21
-611.2583578049253
 31
0.0
  0
LINE
  5
1B0
330
1F
100
AcDbEntity
  8
0-6_化粧Ｐ
  6
JWW_PHANTOM1
 62
     7
370
     9
100
AcDbLine
 10
147.1903583560771
 20
-610.2627628229105
 30
0.0
 11
147.1903583560771
 21
-613.9793732932441
 31
0.0
  0
LINE
  5
1B1
330
1F
100
AcDbEntity
  8
0-6_化粧Ｐ
  6
JWW_PHANTOM1
 62
     7
370
     9
100
AcDbLine
 10
147.1903583560771
 20
-596.7367621998336
 30
0.0
 11
147.1903583560771
 21
-600.4539672327123
 31
0.0
  0
LINE
  5
1B2
330
1F
100
AcDbEntity
  8
0-0_通り芯
  6
Continuous
 62
     4
370
     9
100
AcDbLine
 10
-1256.931521309931
 20
-368.4685938130281
 30
0.0
 11
-1256.931521309931
 21
-321.0587710176462
 31
0.0
  0
LINE
  5
1B3
330
1F
100
AcDbEntity
  8
0-0_通り芯
  6
Continuous
 62
     4
370
     9
100
AcDbLine
 10
-1256.931521309931
 20
-502.2484365874081
 30
0.0
 11
-1256.931521309931
 21
-549.6585566640626
 31
0.0
  0
LINE
  5
1B4
330
1F
100
AcDbEntity
  8
0-D_把手
  6
Continuous
 62
     7
370
     9
100
AcDbLine
 10
-1152.931384098658
 20
-437.3583263211536
 30
0.0
 11
-1152.931384098658
 21
-433.3584067980101
 31
0.0
  0
LINE
  5
1B5
330
1F
100
AcDbEntity
  8
0-D_把手
  6
Continuous
 62
     7
370
     9
100
AcDbLine
 10
-1152.931384098658
 20
-433.3584067980101
 30
0.0
 11
-1168.931359472504
 21
-433.3584067980101
 31
0.0
  0
LINE
  5
1B6
330
1F
100
AcDbEntity
  8
0-D_把手
  6
Continuous
 62
     7
370
     9
100
AcDbLine
 10
-1152.931384098658
 20
-437.3583263211536
 30
0.0
 11
-1168.931359472504
 21
-437.3583263211536
 31
0.0
  0
LINE
  5
1B7
330
1F
100
AcDbEntity
  8
0-D_把手
  6
Continuous
 62
     7
370
     9
100
AcDbLine
 10
-1242.931654338293
 20
-429.3583386342306
 30
0.0
 11
-1168.931359472504
 21
-429.3583386342306
 31
0.0
  0
LINE
  5
1B8
330
1F
100
AcDbEntity
  8
0-D_把手
  6
Continuous
 62
     7
370
     9
100
AcDbLine
 10
-1168.931359472504
 20
-429.3583386342306
 30
0.0
 11
-1168.931359472504
 21
-441.3583944849333
 31
0.0
  0
LINE
  5
1B9
330
1F
100
AcDbEntity
  8
0-D_把手
  6
Continuous
 62
     7
370
     9
100
AcDbLine
 10
-1242.931654338293
 20
-441.3583944849333
 30
0.0
 11
-1168.931359472504
 21
-441.3583944849333
 31
0.0
  0
LINE
  5
1BA
330
1F
100
AcDbEntity
  8
0-6_化粧Ｐ
  6
Continuous
 62
     7
370
     9
100
AcDbLine
 10
139.0689312692874
 20
-633.3580989710879
 30
0.0
 11
139.0689312692874
 21
-615.8372326065021
 31
0.0
  0
LINE
  5
1BB
330
1F
100
AcDbEntity
  8
0-D_把手
  6
Continuous
 62
     7
370
     9
100
AcDbLine
 10
-1252.931601786787
 20
-429.3583386342306
 30
0.0
 11
-1246.931573861436
 21
-429.3583386342306
 31
0.0
  0
LINE
  5
1BC
330
1F
100
AcDbEntity
  8
0-D_把手
  6
Continuous
 62
     7
370
     9
100
AcDbLine
 10
-1252.931601786787
 20
-441.3583944849333
 30
0.0
 11
-1246.931573861436
 21
-441.3583944849333
 31
0.0
  0
LINE
  5
1BD
330
1F
100
AcDbEntity
  8
ｸｯｼｮﾝ
  6
Continuous
 62
     2
370
     9
100
AcDbLine
 10
381.0680757166432
 20
-327.9292385092378
 30
0.0
 11
381.0680757166432
 21
-542.7874946099257
 31
0.0
  0
LINE
  5
1BE
330
1F
100
AcDbEntity
  8
ｸｯｼｮﾝ
  6
Continuous
 62
     2
370
     9
100
AcDbLine
 10
381.0680757166432
 20
-327.9292385092378
 30
0.0
 11
389.0682120442031
 21
-327.9292385092378
 31
0.0
  0
LINE
  5
1BF
330
1F
100
AcDbEntity
  8
ｸｯｼｮﾝ
  6
Continuous
 62
     2
370
     9
100
AcDbLine
 10
381.0680757166432
 20
-542.7874946099257
 30
0.0
 11
389.0682120442031
 21
-542.7874946099257
 31
0.0
  0
LINE
  5
1C0
330
1F
100
AcDbEntity
  8
ｸｯｼｮﾝ
  6
Continuous
 62
     2
370
     9
100
AcDbLine
 10
389.0682120442031
 20
-327.9292385092378
 30
0.0
 11
389.0682120442031
 21
-542.7874946099257
 31
0.0
  0
LINE
  5
1C1
330
1F
100
AcDbEntity
  8
0-3_受枠
  6
Continuous
 62
     4
370
     9
100
AcDbLine
 10
19.06837276225907
 20
-553.6584761872061
 30
0.0
 11
19.06837276225907
 21
-559.6582068312848
 31
0.0
  0
LINE
  5
1C2
330
1F
100
AcDbEntity
  8
0-3_受枠
  6
Continuous
 62
     4
370
     9
100
AcDbLine
 10
59.06816255623838
 20
-553.6584761872061
 30
0.0
 11
59.06816255623838
 21
-559.6582068312848
 31
0.0
  0
LINE
  5
1C3
330
1F
100
AcDbEntity
  8
0-3_受枠
  6
Continuous
 62
     4
370
     9
100
AcDbLine
 10
23.06829228540256
 20
-563.6584236357008
 30
0.0
 11
55.06824303309489
 21
-563.6584236357008
 31
0.0
  0
LINE
  5
1C4
330
1F
100
AcDbEntity
  8
0-3_受枠
  6
Continuous
 62
     4
370
     9
100
AcDbLine
 10
23.06829228540256
 20
-549.65825938279
 30
0.0
 11
55.06824303309489
 21
-549.65825938279
 31
0.0
  0
LINE
  5
1C5
330
1F
100
AcDbEntity
  8
0-3_受枠
  6
Continuous
 62
     4
370
     9
100
AcDbLine
 10
27.06821180854607
 20
-295.6581672409133
 30
0.0
 11
51.06832350995173
 21
-295.6581672409133
 31
0.0
  0
LINE
  5
1C6
330
1F
100
AcDbEntity
  8
0-3_受枠
  6
Continuous
 62
     4
370
     9
100
AcDbLine
 10
27.06821180854607
 20
-259.6579996888048
 30
0.0
 11
51.06832350995173
 21
-259.6579996888048
 31
0.0
  0
LINE
  5
1C7
330
1F
100
AcDbEntity
  8
0-3_受枠
  6
JWW_CENTER1
 62
     4
370
     9
100
AcDbLine
 10
39.06826765924873
 20
-570.5562410043741
 30
0.0
 11
39.06826765924873
 21
-255.4193633037451
 31
0.0
  0
LINE
  5
1C8
330
1F
100
AcDbEntity
  8
0-3_受枠
  6
Continuous
 62
     4
370
     9
100
AcDbLine
 10
27.06821180854607
 20
-549.65825938279
 30
0.0
 11
27.06821180854607
 21
-259.6579996888048
 31
0.0
  0
LINE
  5
1C9
330
1F
100
AcDbEntity
  8
0-3_受枠
  6
Continuous
 62
     4
370
     9
100
AcDbLine
 10
51.06832350995173
 20
-549.65825938279
 30
0.0
 11
51.06832350995173
 21
-280.1579216863464
 31
0.0
  0
LINE
  5
1CA
330
1F
100
AcDbEntity
  8
0-3_受枠
  6
Continuous
 62
     4
370
     9
100
AcDbLine
 10
51.06832350995173
 20
-271.157731157683
 30
0.0
 11
51.06832350995173
 21
-259.6579996888048
 31
0.0
  0
LINE
  5
1CB
330
1F
100
AcDbEntity
  8
0-4_寸法
  6
Continuous
 62
     7
370
     9
100
AcDbLine
 10
68.01573429964765
 20
-266.1577574334356
 30
0.0
 11
115.0156062200822
 21
-266.1577574334356
 31
0.0
  0
LINE
  5
1CC
330
1F
100
AcDbEntity
  8
0-4_寸法
  6
Continuous
 62
     7
370
     9
100
AcDbLine
 10
68.01573429964765
 20
-271.1580284389557
 30
0.0
 11
115.0156062200822
 21
-271.1580284389557
 31
0.0
  0
LINE
  5
1CD
330
1F
100
AcDbEntity
  8
0-4_寸法
  6
Continuous
 62
     7
370
     9
100
AcDbLine
 10
68.01573429964765
 20
-280.1579216863464
 30
0.0
 11
115.0156062200822
 21
-280.1579216863464
 31
0.0
  0
LINE
  5
1CE
330
1F
100
AcDbEntity
  8
0-4_寸法
  6
Continuous
 62
     7
370
     9
100
AcDbLine
 10
68.01573429964765
 20
-285.1578954105938
 30
0.0
 11
115.0156062200822
 21
-285.1578954105938
 31
0.0
  0
LINE
  5
1CF
330
1F
100
AcDbEntity
  8
0-4_寸法
  6
Continuous
 62
     7
370
     9
100
AcDbLine
 10
68.01573429964765
 20
-285.1578954105938
 30
0.0
 11
68.01573429964765
 21
-266.1577574334356
 31
0.0
  0
LINE
  5
1D0
330
1F
100
AcDbEntity
  8
0-4_寸法
  6
Continuous
 62
     7
370
     9
100
AcDbLine
 10
115.0156062200822
 20
-285.1578954105938
 30
0.0
 11
115.0156062200822
 21
-266.1577574334356
 31
0.0
  0
LINE
  5
1D1
330
1F
100
AcDbEntity
  8
0-4_寸法
  6
Continuous
 62
     7
370
     9
100
AcDbLine
 10
41.01575727620244
 20
-279.6578945857945
 30
0.0
 11
68.01573429964765
 21
-279.6578945857945
 31
0.0
  0
LINE
  5
1D2
330
1F
100
AcDbEntity
  8
0-4_寸法
  6
Continuous
 62
     7
370
     9
100
AcDbLine
 10
41.01575727620244
 20
-271.6577582582351
 30
0.0
 11
68.01573429964765
 21
-271.6577582582351
 31
0.0
  0
LINE
  5
1D3
330
1F
100
AcDbEntity
  8
0-3_受枠
  6
JWW_CENTER1
 62
     4
370
     9
100
AcDbLine
 10
23.74044524280354
 20
-275.6579750626511
 30
0.0
 11
53.7946900611777
 21
-275.6579750626511
 31
0.0
  0
LINE
  5
1D4
330
1F
100
AcDbEntity
  8
0-0_通り芯
  6
Continuous
 62
     4
370
     9
100
AcDbLine
 10
25.06840068761075
 20
-321.0587710176462
 30
0.0
 11
25.06840068761075
 21
-325.0586905407897
 31
0.0
  0
LINE
  5
1D5
330
1F
100
AcDbEntity
  8
0-0_通り芯
  6
Continuous
 62
     4
370
     9
100
AcDbLine
 10
25.06840068761075
 20
-549.6579621015176
 30
0.0
 11
25.06840068761075
 21
-545.658042578374
 31
0.0
  0
LINE
  5
1D6
330
1F
100
AcDbEntity
  8
0-0_通り芯
  6
Continuous
 62
     4
370
     9
100
AcDbLine
 10
53.06813463088705
 20
-321.0587710176462
 30
0.0
 11
53.06813463088705
 21
-325.0586905407897
 31
0.0
  0
LINE
  5
1D7
330
1F
100
AcDbEntity
  8
0-0_通り芯
  6
Continuous
 62
     4
370
     9
100
AcDbLine
 10
53.06813463088705
 20
-549.6579621015176
 30
0.0
 11
53.06813463088705
 21
-545.658042578374
 31
0.0
  0
LINE
  5
1D8
330
1F
100
AcDbEntity
  8
0-0_通り芯
  6
Continuous
 62
     4
370
     9
100
AcDbLine
 10
-1256.931521309931
 20
-325.0586905407897
 30
0.0
 11
27.06821180854607
 21
-325.0586905407897
 31
0.0
  0
LINE
  5
1D9
330
1F
100
AcDbEntity
  8
0-0_通り芯
  6
Continuous
 62
     4
370
     9
100
AcDbLine
 10
-1260.931440833074
 20
-321.0587710176462
 30
0.0
 11
27.06821180854607
 21
-321.0587710176462
 31
0.0
  0
LINE
  5
1DA
330
1F
100
AcDbEntity
  8
0-0_通り芯
  6
Continuous
 62
     4
370
     9
100
AcDbLine
 10
-1256.931521309931
 20
-545.6586371409192
 30
0.0
 11
27.06821180854607
 21
-545.6586371409192
 31
0.0
  0
LINE
  5
1DB
330
1F
100
AcDbEntity
  8
0-0_通り芯
  6
Continuous
 62
     4
370
     9
100
AcDbLine
 10
23.06829228540256
 20
-549.6585566640626
 30
0.0
 11
-1260.931440833074
 21
-549.6585566640626
 31
0.0
  0
LINE
  5
1DC
330
1F
100
AcDbEntity
  8
0-6_化粧Ｐ
  6
Continuous
 62
     7
370
     9
100
AcDbLine
 10
139.0689312692874
 20
-237.3586341480758
 30
0.0
 11
139.0689312692874
 21
-321.0587710176462
 31
0.0
  0
LINE
  5
1DD
330
1F
100
AcDbEntity
  8
0-6_化粧Ｐ
  6
Continuous
 62
     7
370
     9
100
AcDbLine
 10
142.0684993100542
 20
-317.3582137360342
 30
0.0
 11
139.0689312692874
 21
-317.3582137360342
 31
0.0
  0
LINE
  5
1DE
330
1F
100
AcDbEntity
  8
0-0_通り芯
  6
Continuous
 62
     4
370
     9
100
AcDbLine
 10
51.06832350995173
 20
-325.0586905407897
 30
0.0
 11
254.0686242082504
 21
-325.0586905407897
 31
0.0
  0
LINE
  5
1DF
330
1F
100
AcDbEntity
  8
0-0_通り芯
  6
Continuous
 62
     4
370
     9
100
AcDbLine
 10
51.06832350995173
 20
-321.0587710176462
 30
0.0
 11
254.0686242082504
 21
-321.0587710176462
 31
0.0
  0
LINE
  5
1E0
330
1F
100
AcDbEntity
  8
Ｐｶﾞｲﾄﾞ
  6
Continuous
 62
     7
370
     9
100
AcDbLine
 10
142.0684993100542
 20
-238.3586883491797
 30
0.0
 11
142.0684993100542
 21
-321.0587710176462
 31
0.0
  0
LINE
  5
1E1
330
1F
100
AcDbEntity
  8
Ｐｶﾞｲﾄﾞ
  6
Continuous
 62
     7
370
     9
100
AcDbLine
 10
142.0684993100542
 20
-317.3583623766706
 30
0.0
 11
254.0686242082504
 21
-317.3583623766706
 31
0.0
  0
LINE
  5
1E2
330
1F
100
AcDbEntity
  8
Ｐｶﾞｲﾄﾞ
  6
Continuous
 62
     7
370
     9
100
AcDbLine
 10
151.868971024619
 20
-276.358369740951
 30
0.0
 11
151.868971024619
 21
-302.3582925632919
 31
0.0
  0
LINE
  5
1E3
330
1F
100
AcDbEntity
  8
0-6_化粧Ｐ
  6
Continuous
 62
     7
370
     9
100
AcDbLine
 10
139.0689312692874
 20
-607.2568032347824
 30
0.0
 11
139.0689312692874
 21
-549.6585566640626
 31
0.0
  0
LINE
  5
1E4
330
1F
100
AcDbEntity
  8
0-0_通り芯
  6
Continuous
 62
     4
370
     9
100
AcDbLine
 10
51.06832350995173
 20
-545.6586371409192
 30
0.0
 11
254.0686242082504
 21
-545.6586371409192
 31
0.0
  0
LINE
  5
1E5
330
1F
100
AcDbEntity
  8
0-0_通り芯
  6
Continuous
 62
     4
370
     9
100
AcDbLine
 10
254.0686242082504
 20
-549.6585566640626
 30
0.0
 11
55.06824303309489
 21
-549.6585566640626
 31
0.0
  0
LINE
  5
1E6
330
1F
100
AcDbEntity
  8
Ｐｶﾞｲﾄﾞ
  6
Continuous
 62
     7
370
     9
100
AcDbLine
 10
142.0684993100542
 20
-632.358044769984
 30
0.0
 11
142.0684993100542
 21
-549.6585566640626
 31
0.0
  0
LINE
  5
1E7
330
1F
100
AcDbEntity
  8
0-4_寸法
  6
Continuous
 62
     2
370
     9
100
AcDbLine
 10
1799.06853159506
 20
-415.3584716625921
 30
0.0
 11
1833.067996182415
 21
-415.3584716625921
 31
0.0
  0
LINE
  5
1E8
330
1F
100
AcDbEntity
  8
0-4_寸法
  6
Continuous
 62
     2
370
     9
100
AcDbLine
 10
1799.06853159506
 20
-455.358558737844
 30
0.0
 11
1833.067996182415
 21
-455.358558737844
 31
0.0
  0
LINE
  5
1E9
330
1F
100
AcDbEntity
  8
0-5_文字
  6
JWW_CENTER2
 62
     2
370
     9
100
AcDbLine
 10
232.0689181903255
 20
-242.3375009019669
 30
0.0
 11
232.0689181903255
 21
-266.379826544085
 31
0.0
  0
LINE
  5
1EA
330
1F
100
AcDbEntity
  8
0-5_文字
  6
JWW_CENTER2
 62
     2
370
     9
100
AcDbLine
 10
218.2961741109713
 20
-254.3583664417533
 30
0.0
 11
245.5000860874355
 21
-254.3583664417533
 31
0.0
  0
LINE
  5
1EB
330
1F
100
AcDbEntity
  8
0-5_文字
  6
JWW_CENTER2
 62
     2
370
     9
100
AcDbLine
 10
232.0689181903255
 20
-628.3792322171968
 30
0.0
 11
232.0689181903255
 21
-604.3375011376238
 31
0.0
  0
LINE
  5
1EC
330
1F
100
AcDbEntity
  8
0-5_文字
  6
JWW_CENTER2
 62
     2
370
     9
100
AcDbLine
 10
218.2961741109713
 20
-616.3583666774103
 30
0.0
 11
245.5000860874355
 21
-616.3583666774103
 31
0.0
  0
LINE
  5
1ED
330
1F
100
AcDbEntity
  8
0-5_文字
  6
JWW_CENTER2
 62
     2
370
     9
100
AcDbLine
 10
370.0689659108624
 20
-243.309016100899
 30
0.0
 11
370.0689659108624
 21
-263.7863447217213
 31
0.0
  0
LINE
  5
1EE
330
1F
100
AcDbEntity
  8
0-5_文字
  6
JWW_CENTER2
 62
     2
370
     9
100
AcDbLine
 10
359.6290421788859
 20
-254.3583664417533
 30
0.0
 11
379.1467468516806
 21
-254.3583664417533
 31
0.0
  0
LINE
  5
1EF
330
1F
100
AcDbEntity
  8
0-5_文字
  6
JWW_CENTER2
 62
     2
370
     9
100
AcDbLine
 10
470.0690349583557
 20
-243.309016100899
 30
0.0
 11
470.0690349583557
 21
-263.7863447217213
 31
0.0
  0
LINE
  5
1F0
330
1F
100
AcDbEntity
  8
0-5_文字
  6
JWW_CENTER2
 62
     2
370
     9
100
AcDbLine
 10
459.6291112263792
 20
-254.3583664417533
 30
0.0
 11
479.1468158991739
 21
-254.3583664417533
 31
0.0
  0
LINE
  5
1F1
330
1F
100
AcDbEntity
  8
0-5_文字
  6
JWW_CENTER2
 62
     2
370
     9
100
AcDbLine
 10
570.0688067245768
 20
-243.309016100899
 30
0.0
 11
570.0688067245768
 21
-263.7863447217213
 31
0.0
  0
LINE
  5
1F2
330
1F
100
AcDbEntity
  8
0-5_文字
  6
JWW_CENTER2
 62
     2
370
     9
100
AcDbLine
 10
559.6288829925995
 20
-254.3583664417533
 30
0.0
 11
579.146587665395
 21
-254.3583664417533
 31
0.0
  0
LINE
  5
1F3
330
1F
100
AcDbEntity
  8
0-5_文字
  6
JWW_CENTER2
 62
     2
370
     9
100
AcDbLine
 10
670.0688757720701
 20
-243.309016100899
 30
0.0
 11
670.0688757720701
 21
-263.7863447217213
 31
0.0
  0
LINE
  5
1F4
330
1F
100
AcDbEntity
  8
0-5_文字
  6
JWW_CENTER2
 62
     2
370
     9
100
AcDbLine
 10
659.628952040093
 20
-254.3583664417533
 30
0.0
 11
679.1466567128883
 21
-254.3583664417533
 31
0.0
  0
LINE
  5
1F5
330
1F
100
AcDbEntity
  8
0-5_文字
  6
JWW_CENTER2
 62
     2
370
     9
100
AcDbLine
 10
872.0688249879925
 20
-243.309016100899
 30
0.0
 11
872.0688249879925
 21
-263.7863447217213
 31
0.0
  0
LINE
  5
1F6
330
1F
100
AcDbEntity
  8
0-5_文字
  6
JWW_CENTER2
 62
     2
370
     9
100
AcDbLine
 10
861.6289012560153
 20
-254.3583664417533
 30
0.0
 11
881.14660592881
 21
-254.3583664417533
 31
0.0
  0
LINE
  5
1F7
330
1F
100
AcDbEntity
  8
0-5_文字
  6
JWW_CENTER2
 62
     2
370
     9
100
AcDbLine
 10
1174.06914053268
 20
-243.309016100899
 30
0.0
 11
1174.06914053268
 21
-263.7863447217213
 31
0.0
  0
LINE
  5
1F8
330
1F
100
AcDbEntity
  8
0-5_文字
  6
JWW_CENTER2
 62
     2
370
     9
100
AcDbLine
 10
1163.629216800704
 20
-254.3583664417533
 30
0.0
 11
1183.146921473498
 21
-254.3583664417533
 31
0.0
  0
LINE
  5
1F9
330
1F
100
AcDbEntity
  8
0-5_文字
  6
JWW_CENTER2
 62
     2
370
     9
100
AcDbLine
 10
1476.068861514823
 20
-243.309016100899
 30
0.0
 11
1476.068861514823
 21
-263.7863447217213
 31
0.0
  0
LINE
  5
1FA
330
1F
100
AcDbEntity
  8
0-5_文字
  6
JWW_CENTER2
 62
     2
370
     9
100
AcDbLine
 10
1465.628937782846
 20
-254.3583664417533
 30
0.0
 11
1485.146642455641
 21
-254.3583664417533
 31
0.0
  0
LINE
  5
1FB
330
1F
100
AcDbEntity
  8
0-5_文字
  6
JWW_CENTER2
 62
     2
370
     9
100
AcDbLine
 10
1778.069177059511
 20
-243.309016100899
 30
0.0
 11
1778.069177059511
 21
-263.7863447217213
 31
0.0
  0
LINE
  5
1FC
330
1F
100
AcDbEntity
  8
0-5_文字
  6
JWW_CENTER2
 62
     2
370
     9
100
AcDbLine
 10
1767.629253327534
 20
-254.3583664417533
 30
0.0
 11
1787.14695800033
 21
-254.3583664417533
 31
0.0
  0
LINE
  5
1FD
330
1F
100
AcDbEntity
  8
0-5_文字
  6
JWW_CENTER2
 62
     2
370
     9
100
AcDbLine
 10
193.5915057934488
 20
-254.3583664417533
 30
0.0
 11
210.5466458962331
 21
-254.3583664417533
 31
0.0
  0
LINE
  5
1FE
330
1F
100
AcDbEntity
  8
0-5_文字
  6
JWW_CENTER2
 62
     2
370
     9
100
AcDbLine
 10
202.0687785635685
 20
-246.3950929919992
 30
0.0
 11
202.0687785635685
 21
-262.3219371727802
 31
0.0
  0
LINE
  5
1FF
330
1F
100
AcDbEntity
  8
0-5_文字
  6
JWW_CENTER2
 62
     2
370
     9
100
AcDbLine
 10
253.5911904844178
 20
-254.3583664417533
 30
0.0
 11
270.5463305872018
 21
-254.3583664417533
 31
0.0
  0
LINE
  5
200
330
1F
100
AcDbEntity
  8
0-5_文字
  6
JWW_CENTER2
 62
     2
370
     9
100
AcDbLine
 10
262.0690578170825
 20
-246.3950929919992
 30
0.0
 11
262.0690578170825
 21
-262.3219371727802
 31
0.0
  0
LINE
  5
201
330
1F
100
AcDbEntity
  8
0-5_文字
  6
JWW_CENTER2
 62
     2
370
     9
100
AcDbLine
 10
391.5912382049547
 20
-254.3583664417533
 30
0.0
 11
408.546378307739
 21
-254.3583664417533
 31
0.0
  0
LINE
  5
202
330
1F
100
AcDbEntity
  8
0-5_文字
  6
JWW_CENTER2
 62
     2
370
     9
100
AcDbLine
 10
400.0688082563469
 20
-246.3950929919992
 30
0.0
 11
400.0688082563469
 21
-262.3219371727802
 31
0.0
  0
LINE
  5
203
330
1F
100
AcDbEntity
  8
0-5_文字
  6
JWW_CENTER2
 62
     2
370
     9
100
AcDbLine
 10
491.5913072524481
 20
-254.3583664417533
 30
0.0
 11
508.5464473552324
 21
-254.3583664417533
 31
0.0
  0
LINE
  5
204
330
1F
100
AcDbEntity
  8
0-5_文字
  6
JWW_CENTER2
 62
     2
370
     9
100
AcDbLine
 10
500.0688773038402
 20
-246.3950929919992
 30
0.0
 11
500.0688773038402
 21
-262.3219371727802
 31
0.0
  0
LINE
  5
205
330
1F
100
AcDbEntity
  8
0-5_文字
  6
JWW_CENTER2
 62
     2
370
     9
100
AcDbLine
 10
591.5910790186692
 20
-254.3583664417533
 30
0.0
 11
608.5462191214535
 21
-254.3583664417533
 31
0.0
  0
LINE
  5
206
330
1F
100
AcDbEntity
  8
0-5_文字
  6
JWW_CENTER2
 62
     2
370
     9
100
AcDbLine
 10
600.0689463513335
 20
-246.3950929919992
 30
0.0
 11
600.0689463513335
 21
-262.3219371727802
 31
0.0
  0
LINE
  5
207
330
1F
100
AcDbEntity
  8
0-5_文字
  6
JWW_CENTER2
 62
     2
370
     9
100
AcDbLine
 10
691.5911480661625
 20
-254.3583664417533
 30
0.0
 11
708.5462881689468
 21
-254.3583664417533
 31
0.0
  0
LINE
  5
208
330
1F
100
AcDbEntity
  8
0-5_文字
  6
JWW_CENTER2
 62
     2
370
     9
100
AcDbLine
 10
700.0690153988268
 20
-246.3950929919992
 30
0.0
 11
700.0690153988268
 21
-262.3219371727802
 31
0.0
  0
LINE
  5
209
330
1F
100
AcDbEntity
  8
0-5_文字
  6
JWW_CENTER2
 62
     2
370
     9
100
AcDbLine
 10
893.591394563357
 20
-254.3583664417533
 30
0.0
 11
910.5465346661413
 21
-254.3583664417533
 31
0.0
  0
LINE
  5
20A
330
1F
100
AcDbEntity
  8
0-5_文字
  6
JWW_CENTER2
 62
     2
370
     9
100
AcDbLine
 10
902.0689646147491
 20
-246.3950929919992
 30
0.0
 11
902.0689646147491
 21
-262.3219371727802
 31
0.0
  0
LINE
  5
20B
330
1F
100
AcDbEntity
  8
0-5_文字
  6
JWW_CENTER2
 62
     2
370
     9
100
AcDbLine
 10
1195.591115545501
 20
-254.3583664417533
 30
0.0
 11
1212.546255648284
 21
-254.3583664417533
 31
0.0
  0
LINE
  5
20C
330
1F
100
AcDbEntity
  8
0-5_文字
  6
JWW_CENTER2
 62
     2
370
     9
100
AcDbLine
 10
1204.068982878165
 20
-246.3950929919992
 30
0.0
 11
1204.068982878165
 21
-262.3219371727802
 31
0.0
  0
LINE
  5
20D
330
1F
100
AcDbEntity
  8
0-5_文字
  6
JWW_CENTER2
 62
     2
370
     9
100
AcDbLine
 10
1497.591431090188
 20
-254.3583664417533
 30
0.0
 11
1514.546571192972
 21
-254.3583664417533
 31
0.0
  0
LINE
  5
20E
330
1F
100
AcDbEntity
  8
0-5_文字
  6
JWW_CENTER2
 62
     2
370
     9
100
AcDbLine
 10
1506.068703860307
 20
-246.3950929919992
 30
0.0
 11
1506.068703860307
 21
-262.3219371727802
 31
0.0
  0
LINE
  5
20F
330
1F
100
AcDbEntity
  8
0-5_文字
  6
JWW_CENTER2
 62
     2
370
     9
100
AcDbLine
 10
1778.069177059511
 20
-627.4077170182646
 30
0.0
 11
1778.069177059511
 21
-606.9303883974424
 31
0.0
  0
LINE
  5
210
330
1F
100
AcDbEntity
  8
0-5_文字
  6
JWW_CENTER2
 62
     2
370
     9
100
AcDbLine
 10
1767.629253327534
 20
-616.3583666774103
 30
0.0
 11
1787.14695800033
 21
-616.3583666774103
 31
0.0
  0
LINE
  5
211
330
1F
100
AcDbEntity
  8
0-5_文字
  6
JWW_CENTER2
 62
     2
370
     9
100
AcDbLine
 10
202.0687785635685
 20
-627.2358884426885
 30
0.0
 11
202.0687785635685
 21
-605.4814394746774
 31
0.0
  0
LINE
  5
212
330
1F
100
AcDbEntity
  8
0-5_文字
  6
JWW_CENTER2
 62
     2
370
     9
100
AcDbLine
 10
191.4213525033005
 20
-616.3583666774103
 30
0.0
 11
212.7167991863816
 21
-616.3583666774103
 31
0.0
  0
LINE
  5
213
330
1F
100
AcDbEntity
  8
0-5_文字
  6
JWW_CENTER2
 62
     2
370
     9
100
AcDbLine
 10
251.4213344755419
 20
-616.3583666774103
 30
0.0
 11
272.7164838773501
 21
-616.3583666774103
 31
0.0
  0
LINE
  5
214
330
1F
100
AcDbEntity
  8
0-5_文字
  6
JWW_CENTER2
 62
     2
370
     9
100
AcDbLine
 10
400.0688082563469
 20
-627.2358884426885
 30
0.0
 11
400.0688082563469
 21
-605.4814394746774
 31
0.0
  0
LINE
  5
215
330
1F
100
AcDbEntity
  8
0-5_文字
  6
JWW_CENTER2
 62
     2
370
     9
100
AcDbLine
 10
389.4213821960792
 20
-616.3583666774103
 30
0.0
 11
410.7162343166145
 21
-616.3583666774103
 31
0.0
  0
LINE
  5
216
330
1F
100
AcDbEntity
  8
0-5_文字
  6
JWW_CENTER2
 62
     2
370
     9
100
AcDbLine
 10
500.0688773038402
 20
-627.2358884426885
 30
0.0
 11
500.0688773038402
 21
-605.4814394746774
 31
0.0
  0
LINE
  5
217
330
1F
100
AcDbEntity
  8
0-5_文字
  6
JWW_CENTER2
 62
     2
370
     9
100
AcDbLine
 10
489.4211539622996
 20
-616.3583666774103
 30
0.0
 11
510.7163033641085
 21
-616.3583666774103
 31
0.0
  0
LINE
  5
218
330
1F
100
AcDbEntity
  8
0-5_文字
  6
JWW_CENTER2
 62
     2
370
     9
100
AcDbLine
 10
600.0689463513335
 20
-627.2358884426885
 30
0.0
 11
600.0689463513335
 21
-605.4814394746774
 31
0.0
  0
LINE
  5
219
330
1F
100
AcDbEntity
  8
0-5_文字
  6
JWW_CENTER2
 62
     2
370
     9
100
AcDbLine
 10
589.4209257285207
 20
-616.3583666774103
 30
0.0
 11
610.7163724116017
 21
-616.3583666774103
 31
0.0
  0
LINE
  5
21A
330
1F
100
AcDbEntity
  8
0-5_文字
  6
JWW_CENTER2
 62
     2
370
     9
100
AcDbLine
 10
700.0690153988268
 20
-627.2358884426885
 30
0.0
 11
700.0690153988268
 21
-605.4814394746774
 31
0.0
  0
LINE
  5
21B
330
1F
100
AcDbEntity
  8
0-5_文字
  6
JWW_CENTER2
 62
     2
370
     9
100
AcDbLine
 10
689.420994776014
 20
-616.3583666774103
 30
0.0
 11
710.7164414590952
 21
-616.3583666774103
 31
0.0
  0
LINE
  5
21C
330
1F
100
AcDbEntity
  8
0-5_文字
  6
JWW_CENTER2
 62
     2
370
     9
100
AcDbLine
 10
902.0689646147491
 20
-627.2358884426885
 30
0.0
 11
902.0689646147491
 21
-605.4814394746774
 31
0.0
  0
LINE
  5
21D
330
1F
100
AcDbEntity
  8
0-5_文字
  6
JWW_CENTER2
 62
     2
370
     9
100
AcDbLine
 10
891.4212412732084
 20
-616.3583666774103
 30
0.0
 11
912.7166879562895
 21
-616.3583666774103
 31
0.0
  0
LINE
  5
21E
330
1F
100
AcDbEntity
  8
0-5_文字
  6
JWW_CENTER2
 62
     2
370
     9
100
AcDbLine
 10
1204.068982878165
 20
-627.2358884426885
 30
0.0
 11
1204.068982878165
 21
-605.4814394746774
 31
0.0
  0
LINE
  5
21F
330
1F
100
AcDbEntity
  8
0-5_文字
  6
JWW_CENTER2
 62
     2
370
     9
100
AcDbLine
 10
1193.420962255352
 20
-616.3583666774103
 30
0.0
 11
1214.716408938432
 21
-616.3583666774103
 31
0.0
  0
LINE
  5
220
330
1F
100
AcDbEntity
  8
0-5_文字
  6
JWW_CENTER2
 62
     2
370
     9
100
AcDbLine
 10
1506.068703860307
 20
-627.2358884426885
 30
0.0
 11
1506.068703860307
 21
-605.4814394746774
 31
0.0
  0
LINE
  5
221
330
1F
100
AcDbEntity
  8
0-5_文字
  6
JWW_CENTER2
 62
     2
370
     9
100
AcDbLine
 10
1495.42127780004
 20
-616.3583666774103
 30
0.0
 11
1516.716724483121
 21
-616.3583666774103
 31
0.0
  0
LINE
  5
222
330
1F
100
AcDbEntity
  8
0-5_文字
  6
JWW_CENTER2
 62
     2
370
     9
100
AcDbLine
 10
262.0690578170825
 20
-627.2358884426885
 30
0.0
 11
262.0690578170825
 21
-605.4814394746774
 31
0.0
  0
LINE
  5
223
330
1F
100
AcDbEntity
  8
0-4_寸法
  6
Continuous
 62
     2
370
     9
100
AcDbLine
 10
1779.06863669807
 20
-288.3584255916538
 30
0.0
 11
162.0683942070438
 21
-288.3584255916538
 31
0.0
  0
LINE
  5
224
330
1F
100
AcDbEntity
  8
0-4_寸法
  6
Continuous
 62
     2
370
     9
100
AcDbLine
 10
1779.06863669807
 20
-582.3583075275099
 30
0.0
 11
162.0683942070438
 21
-582.3583075275099
 31
0.0
  0
LINE
  5
225
330
1F
100
AcDbEntity
  8
0-4_寸法
  6
Continuous
 62
     2
370
     9
100
AcDbLine
 10
1799.06853159506
 20
-562.3584126305202
 30
0.0
 11
1799.06853159506
 21
-308.358617769916
 31
0.0
  0
LINE
  5
226
330
1F
100
AcDbEntity
  8
0-5_文字
  6
JWW_CENTER2
 62
     2
370
     9
100
AcDbLine
 10
370.0689659108624
 20
-628.3792322171968
 30
0.0
 11
370.0689659108624
 21
-604.3375011376238
 31
0.0
  0
LINE
  5
227
330
1F
100
AcDbEntity
  8
0-5_文字
  6
JWW_CENTER2
 62
     2
370
     9
100
AcDbLine
 10
356.2962218315082
 20
-616.3583666774103
 30
0.0
 11
383.5001338079732
 21
-616.3583666774103
 31
0.0
  0
LINE
  5
228
330
1F
100
AcDbEntity
  8
0-5_文字
  6
JWW_CENTER2
 62
     2
370
     9
100
AcDbLine
 10
470.0687376770836
 20
-628.3792322171968
 30
0.0
 11
470.0687376770836
 21
-604.3375011376238
 31
0.0
  0
LINE
  5
229
330
1F
100
AcDbEntity
  8
0-5_文字
  6
JWW_CENTER2
 62
     2
370
     9
100
AcDbLine
 10
456.2962908790016
 20
-616.3583666774103
 30
0.0
 11
483.5002028554665
 21
-616.3583666774103
 31
0.0
  0
LINE
  5
22A
330
1F
100
AcDbEntity
  8
0-5_文字
  6
JWW_CENTER2
 62
     2
370
     9
100
AcDbLine
 10
570.0685094433039
 20
-628.3792322171968
 30
0.0
 11
570.0685094433039
 21
-604.3375011376238
 31
0.0
  0
LINE
  5
22B
330
1F
100
AcDbEntity
  8
0-5_文字
  6
JWW_CENTER2
 62
     2
370
     9
100
AcDbLine
 10
556.2963599264948
 20
-616.3583666774103
 30
0.0
 11
583.4999746216869
 21
-616.3583666774103
 31
0.0
  0
LINE
  5
22C
330
1F
100
AcDbEntity
  8
0-5_文字
  6
JWW_CENTER2
 62
     2
370
     9
100
AcDbLine
 10
670.0685784907972
 20
-628.3792322171968
 30
0.0
 11
670.0685784907972
 21
-604.3375011376238
 31
0.0
  0
LINE
  5
22D
330
1F
100
AcDbEntity
  8
0-5_文字
  6
JWW_CENTER2
 62
     2
370
     9
100
AcDbLine
 10
656.2961316927159
 20
-616.3583666774103
 30
0.0
 11
683.5000436691802
 21
-616.3583666774103
 31
0.0
  0
LINE
  5
22E
330
1F
100
AcDbEntity
  8
0-5_文字
  6
JWW_CENTER2
 62
     2
370
     9
100
AcDbLine
 10
872.0688249879925
 20
-628.3792322171968
 30
0.0
 11
872.0688249879925
 21
-604.3375011376238
 31
0.0
  0
LINE
  5
22F
330
1F
100
AcDbEntity
  8
0-5_文字
  6
JWW_CENTER2
 62
     2
370
     9
100
AcDbLine
 10
858.2963781899105
 20
-616.3583666774103
 30
0.0
 11
885.4999928851023
 21
-616.3583666774103
 31
0.0
  0
LINE
  5
230
330
1F
100
AcDbEntity
  8
0-5_文字
  6
JWW_CENTER2
 62
     2
370
     9
100
AcDbLine
 10
1174.068545970135
 20
-628.3792322171968
 30
0.0
 11
1174.068545970135
 21
-604.3375011376238
 31
0.0
  0
LINE
  5
231
330
1F
100
AcDbEntity
  8
0-5_文字
  6
JWW_CENTER2
 62
     2
370
     9
100
AcDbLine
 10
1160.296099172054
 20
-616.3583666774103
 30
0.0
 11
1187.500011148518
 21
-616.3583666774103
 31
0.0
  0
LINE
  5
232
330
1F
100
AcDbEntity
  8
0-5_文字
  6
JWW_CENTER2
 62
     2
370
     9
100
AcDbLine
 10
1476.068861514823
 20
-628.3792322171968
 30
0.0
 11
1476.068861514823
 21
-604.3375011376238
 31
0.0
  0
LINE
  5
233
330
1F
100
AcDbEntity
  8
0-5_文字
  6
JWW_CENTER2
 62
     2
370
     9
100
AcDbLine
 10
1462.296414716741
 20
-616.3583666774103
 30
0.0
 11
1489.500029411934
 21
-616.3583666774103
 31
0.0
  0
LINE
  5
234
330
1F
100
AcDbEntity
  8
0-4_寸法
  6
Continuous
 62
     2
370
     9
100
AcDbLine
 10
1833.06859074496
 20
-320.3583763393464
 30
0.0
 11
1833.06859074496
 21
-298.3583730401486
 31
0.0
  0
LINE
  5
235
330
1F
100
AcDbEntity
  8
0-4_寸法
  6
Continuous
 62
     2
370
     9
100
AcDbLine
 10
1833.06859074496
 20
-374.3583303862363
 30
0.0
 11
1833.06859074496
 21
-352.3583270870388
 31
0.0
  0
LINE
  5
236
330
1F
100
AcDbEntity
  8
0-4_寸法
  6
Continuous
 62
     2
370
     9
100
AcDbLine
 10
1833.06859074496
 20
-406.3582811339288
 30
0.0
 11
1833.06859074496
 21
-435.3583665595818
 31
0.0
  0
LINE
  5
237
330
1F
100
AcDbEntity
  8
0-4_寸法
  6
Continuous
 62
     2
370
     9
100
AcDbLine
 10
1833.06859074496
 20
-464.358451985235
 30
0.0
 11
1833.06859074496
 21
-435.3583665595818
 31
0.0
  0
LINE
  5
238
330
1F
100
AcDbEntity
  8
0-4_寸法
  6
Continuous
 62
     2
370
     9
100
AcDbLine
 10
1833.06859074496
 20
-518.358406032125
 30
0.0
 11
1833.06859074496
 21
-496.3584027329274
 31
0.0
  0
LINE
  5
239
330
1F
100
AcDbEntity
  8
0-4_寸法
  6
Continuous
 62
     2
370
     9
100
AcDbLine
 10
1833.06859074496
 20
-550.3583567798173
 30
0.0
 11
1833.06859074496
 21
-572.358360079015
 31
0.0
  0
LINE
  5
23A
330
1F
100
AcDbEntity
  8
0-4_寸法
  6
Continuous
 62
     2
370
     9
100
AcDbLine
 10
1839.068618670311
 20
-292.3586423960699
 30
0.0
 11
1858.06875664747
 21
-292.3586423960699
 31
0.0
  0
LINE
  5
23B
330
1F
100
AcDbEntity
  8
0-4_寸法
  6
Continuous
 62
     2
370
     9
100
AcDbLine
 10
1839.068618670311
 20
-326.3587015459703
 30
0.0
 11
1856.068648245262
 21
-326.3587015459703
 31
0.0
  0
LINE
  5
23C
330
1F
100
AcDbEntity
  8
0-4_寸法
  6
Continuous
 62
     2
370
     9
100
AcDbLine
 10
1839.068618670311
 20
-346.35859644296
 30
0.0
 11
1856.068648245262
 21
-346.35859644296
 31
0.0
  0
LINE
  5
23D
330
1F
100
AcDbEntity
  8
0-4_寸法
  6
Continuous
 62
     2
370
     9
100
AcDbLine
 10
1858.06875664747
 20
-625.358259924801
 30
0.0
 11
1858.06875664747
 21
-245.3584731943626
 31
0.0
  0
LINE
  5
23E
330
1F
100
AcDbEntity
  8
0-4_寸法
  6
Continuous
 62
     2
370
     9
100
AcDbLine
 10
1839.068618670311
 20
-380.3583583115878
 30
0.0
 11
1856.068648245262
 21
-380.3583583115878
 31
0.0
  0
LINE
  5
23F
330
1F
100
AcDbEntity
  8
0-4_寸法
  6
Continuous
 62
     2
370
     9
100
AcDbLine
 10
1839.068618670311
 20
-400.3582532085774
 30
0.0
 11
1856.068648245262
 21
-400.3582532085774
 31
0.0
  0
LINE
  5
240
330
1F
100
AcDbEntity
  8
0-4_寸法
  6
Continuous
 62
     2
370
     9
100
AcDbLine
 10
1839.068618670311
 20
-470.3587771918589
 30
0.0
 11
1856.068648245262
 21
-470.3587771918589
 31
0.0
  0
LINE
  5
241
330
1F
100
AcDbEntity
  8
0-4_寸法
  6
Continuous
 62
     2
370
     9
100
AcDbLine
 10
1839.068618670311
 20
-490.358374807576
 30
0.0
 11
1856.068648245262
 21
-490.358374807576
 31
0.0
  0
LINE
  5
242
330
1F
100
AcDbEntity
  8
0-4_寸法
  6
Continuous
 62
     2
370
     9
100
AcDbLine
 10
1839.068618670311
 20
-524.3587312387491
 30
0.0
 11
1856.068648245262
 21
-524.3587312387491
 31
0.0
  0
LINE
  5
243
330
1F
100
AcDbEntity
  8
0-4_寸法
  6
Continuous
 62
     2
370
     9
100
AcDbLine
 10
1839.068618670311
 20
-544.3586261357386
 30
0.0
 11
1856.068648245262
 21
-544.3586261357386
 31
0.0
  0
LINE
  5
244
330
1F
100
AcDbEntity
  8
0-4_寸法
  6
Continuous
 62
     2
370
     9
100
AcDbLine
 10
1839.068618670311
 20
-578.3580907230937
 30
0.0
 11
1858.06875664747
 21
-578.3580907230937
 31
0.0
  0
LINE
  5
245
330
1F
100
AcDbEntity
  8
0-1_ピット
  6
JWW_CENTER2
 62
     2
370
     9
100
AcDbLine
 10
232.0689181903255
 20
-242.3375009019669
 30
0.0
 11
232.0689181903255
 21
-266.379826544085
 31
0.0
  0
LINE
  5
246
330
1F
100
AcDbEntity
  8
0-1_ピット
  6
JWW_CENTER2
 62
     2
370
     9
100
AcDbLine
 10
218.2961741109713
 20
-254.3583664417533
 30
0.0
 11
245.5000860874355
 21
-254.3583664417533
 31
0.0
  0
LINE
  5
247
330
1F
100
AcDbEntity
  8
0-1_ピット
  6
JWW_CENTER2
 62
     2
370
     9
100
AcDbLine
 10
232.0689181903255
 20
-628.3792322171968
 30
0.0
 11
232.0689181903255
 21
-604.3375011376238
 31
0.0
  0
LINE
  5
248
330
1F
100
AcDbEntity
  8
0-1_ピット
  6
JWW_CENTER2
 62
     2
370
     9
100
AcDbLine
 10
218.2961741109713
 20
-616.3583666774103
 30
0.0
 11
245.5000860874355
 21
-616.3583666774103
 31
0.0
  0
LINE
  5
249
330
1F
100
AcDbEntity
  8
0-1_ピット
  6
JWW_CENTER2
 62
     2
370
     9
100
AcDbLine
 10
370.0689659108624
 20
-243.309016100899
 30
0.0
 11
370.0689659108624
 21
-263.7863447217213
 31
0.0
  0
LINE
  5
24A
330
1F
100
AcDbEntity
  8
0-1_ピット
  6
JWW_CENTER2
 62
     2
370
     9
100
AcDbLine
 10
359.6290421788859
 20
-254.3583664417533
 30
0.0
 11
379.1467468516806
 21
-254.3583664417533
 31
0.0
  0
LINE
  5
24B
330
1F
100
AcDbEntity
  8
0-1_ピット
  6
JWW_CENTER2
 62
     2
370
     9
100
AcDbLine
 10
470.0690349583557
 20
-243.309016100899
 30
0.0
 11
470.0690349583557
 21
-263.7863447217213
 31
0.0
  0
LINE
  5
24C
330
1F
100
AcDbEntity
  8
0-1_ピット
  6
JWW_CENTER2
 62
     2
370
     9
100
AcDbLine
 10
459.6291112263792
 20
-254.3583664417533
 30
0.0
 11
479.1468158991739
 21
-254.3583664417533
 31
0.0
  0
LINE
  5
24D
330
1F
100
AcDbEntity
  8
0-1_ピット
  6
JWW_CENTER2
 62
     2
370
     9
100
AcDbLine
 10
570.0688067245768
 20
-243.309016100899
 30
0.0
 11
570.0688067245768
 21
-263.7863447217213
 31
0.0
  0
LINE
  5
24E
330
1F
100
AcDbEntity
  8
0-1_ピット
  6
JWW_CENTER2
 62
     2
370
     9
100
AcDbLine
 10
559.6288829925995
 20
-254.3583664417533
 30
0.0
 11
579.146587665395
 21
-254.3583664417533
 31
0.0
  0
LINE
  5
24F
330
1F
100
AcDbEntity
  8
0-1_ピット
  6
JWW_CENTER2
 62
     2
370
     9
100
AcDbLine
 10
670.0688757720701
 20
-243.309016100899
 30
0.0
 11
670.0688757720701
 21
-263.7863447217213
 31
0.0
  0
LINE
  5
250
330
1F
100
AcDbEntity
  8
0-1_ピット
  6
JWW_CENTER2
 62
     2
370
     9
100
AcDbLine
 10
659.628952040093
 20
-254.3583664417533
 30
0.0
 11
679.1466567128883
 21
-254.3583664417533
 31
0.0
  0
LINE
  5
251
330
1F
100
AcDbEntity
  8
0-1_ピット
  6
JWW_CENTER2
 62
     2
370
     9
100
AcDbLine
 10
872.0688249879925
 20
-243.309016100899
 30
0.0
 11
872.0688249879925
 21
-263.7863447217213
 31
0.0
  0
LINE
  5
252
330
1F
100
AcDbEntity
  8
0-1_ピット
  6
JWW_CENTER2
 62
     2
370
     9
100
AcDbLine
 10
861.6289012560153
 20
-254.3583664417533
 30
0.0
 11
881.14660592881
 21
-254.3583664417533
 31
0.0
  0
LINE
  5
253
330
1F
100
AcDbEntity
  8
0-1_ピット
  6
JWW_CENTER2
 62
     2
370
     9
100
AcDbLine
 10
1174.06914053268
 20
-243.309016100899
 30
0.0
 11
1174.06914053268
 21
-263.7863447217213
 31
0.0
  0
LINE
  5
254
330
1F
100
AcDbEntity
  8
0-1_ピット
  6
JWW_CENTER2
 62
     2
370
     9
100
AcDbLine
 10
1163.629216800704
 20
-254.3583664417533
 30
0.0
 11
1183.146921473498
 21
-254.3583664417533
 31
0.0
  0
LINE
  5
255
330
1F
100
AcDbEntity
  8
0-1_ピット
  6
JWW_CENTER2
 62
     2
370
     9
100
AcDbLine
 10
1476.068861514823
 20
-243.309016100899
 30
0.0
 11
1476.068861514823
 21
-263.7863447217213
 31
0.0
  0
LINE
  5
256
330
1F
100
AcDbEntity
  8
0-1_ピット
  6
JWW_CENTER2
 62
     2
370
     9
100
AcDbLine
 10
1465.628937782846
 20
-254.3583664417533
 30
0.0
 11
1485.146642455641
 21
-254.3583664417533
 31
0.0
  0
LINE
  5
257
330
1F
100
AcDbEntity
  8
0-1_ピット
  6
JWW_CENTER2
 62
     2
370
     9
100
AcDbLine
 10
1778.069177059511
 20
-243.309016100899
 30
0.0
 11
1778.069177059511
 21
-263.7863447217213
 31
0.0
  0
LINE
  5
258
330
1F
100
AcDbEntity
  8
0-1_ピット
  6
JWW_CENTER2
 62
     2
370
     9
100
AcDbLine
 10
1767.629253327534
 20
-254.3583664417533
 30
0.0
 11
1787.14695800033
 21
-254.3583664417533
 31
0.0
  0
LINE
  5
259
330
1F
100
AcDbEntity
  8
0-1_ピット
  6
JWW_CENTER2
 62
     2
370
     9
100
AcDbLine
 10
193.5915057934488
 20
-254.3583664417533
 30
0.0
 11
210.5463486149603
 21
-254.3583664417533
 31
0.0
  0
LINE
  5
25A
330
1F
100
AcDbEntity
  8
0-1_ピット
  6
JWW_CENTER2
 62
     2
370
     9
100
AcDbLine
 10
202.0687785635685
 20
-246.3953902732717
 30
0.0
 11
202.0687785635685
 21
-262.3216398915075
 31
0.0
  0
LINE
  5
25B
330
1F
100
AcDbEntity
  8
0-1_ピット
  6
JWW_CENTER2
 62
     2
370
     9
100
AcDbLine
 10
253.5911904844178
 20
-254.3583664417533
 30
0.0
 11
270.5463305872018
 21
-254.3583664417533
 31
0.0
  0
LINE
  5
25C
330
1F
100
AcDbEntity
  8
0-1_ピット
  6
JWW_CENTER2
 62
     2
370
     9
100
AcDbLine
 10
262.0690578170825
 20
-246.3953902732717
 30
0.0
 11
262.0690578170825
 21
-262.3216398915075
 31
0.0
  0
LINE
  5
25D
330
1F
100
AcDbEntity
  8
0-1_ピット
  6
JWW_CENTER2
 62
     2
370
     9
100
AcDbLine
 10
391.5912382049547
 20
-254.3583664417533
 30
0.0
 11
408.546378307739
 21
-254.3583664417533
 31
0.0
  0
LINE
  5
25E
330
1F
100
AcDbEntity
  8
0-1_ピット
  6
JWW_CENTER2
 62
     2
370
     9
100
AcDbLine
 10
400.0688082563469
 20
-246.3953902732717
 30
0.0
 11
400.0688082563469
 21
-262.3216398915075
 31
0.0
  0
LINE
  5
25F
330
1F
100
AcDbEntity
  8
0-1_ピット
  6
JWW_CENTER2
 62
     2
370
     9
100
AcDbLine
 10
491.5913072524481
 20
-254.3583664417533
 30
0.0
 11
508.5464473552324
 21
-254.3583664417533
 31
0.0
  0
LINE
  5
260
330
1F
100
AcDbEntity
  8
0-1_ピット
  6
JWW_CENTER2
 62
     2
370
     9
100
AcDbLine
 10
500.0688773038402
 20
-246.3953902732717
 30
0.0
 11
500.0688773038402
 21
-262.3216398915075
 31
0.0
  0
LINE
  5
261
330
1F
100
AcDbEntity
  8
0-1_ピット
  6
JWW_CENTER2
 62
     2
370
     9
100
AcDbLine
 10
591.5910790186692
 20
-254.3583664417533
 30
0.0
 11
608.5462191214535
 21
-254.3583664417533
 31
0.0
  0
LINE
  5
262
330
1F
100
AcDbEntity
  8
0-1_ピット
  6
JWW_CENTER2
 62
     2
370
     9
100
AcDbLine
 10
600.0689463513335
 20
-246.3953902732717
 30
0.0
 11
600.0689463513335
 21
-262.3216398915075
 31
0.0
  0
LINE
  5
263
330
1F
100
AcDbEntity
  8
0-1_ピット
  6
JWW_CENTER2
 62
     2
370
     9
100
AcDbLine
 10
691.5911480661625
 20
-254.3583664417533
 30
0.0
 11
708.5462881689468
 21
-254.3583664417533
 31
0.0
  0
LINE
  5
264
330
1F
100
AcDbEntity
  8
0-1_ピット
  6
JWW_CENTER2
 62
     2
370
     9
100
AcDbLine
 10
700.0687181175547
 20
-246.3953902732717
 30
0.0
 11
700.0687181175547
 21
-262.3216398915075
 31
0.0
  0
LINE
  5
265
330
1F
100
AcDbEntity
  8
0-1_ピット
  6
JWW_CENTER2
 62
     2
370
     9
100
AcDbLine
 10
893.591394563357
 20
-254.3583664417533
 30
0.0
 11
910.5465346661413
 21
-254.3583664417533
 31
0.0
  0
LINE
  5
266
330
1F
100
AcDbEntity
  8
0-1_ピット
  6
JWW_CENTER2
 62
     2
370
     9
100
AcDbLine
 10
902.0689646147491
 20
-246.3953902732717
 30
0.0
 11
902.0689646147491
 21
-262.3216398915075
 31
0.0
  0
LINE
  5
267
330
1F
100
AcDbEntity
  8
0-1_ピット
  6
JWW_CENTER2
 62
     2
370
     9
100
AcDbLine
 10
1195.591115545501
 20
-254.3583664417533
 30
0.0
 11
1212.546255648284
 21
-254.3583664417533
 31
0.0
  0
LINE
  5
268
330
1F
100
AcDbEntity
  8
0-1_ピット
  6
JWW_CENTER2
 62
     2
370
     9
100
AcDbLine
 10
1204.068982878165
 20
-246.3953902732717
 30
0.0
 11
1204.068982878165
 21
-262.3216398915075
 31
0.0
  0
LINE
  5
269
330
1F
100
AcDbEntity
  8
0-1_ピット
  6
JWW_CENTER2
 62
     2
370
     9
100
AcDbLine
 10
1497.591431090188
 20
-254.3583664417533
 30
0.0
 11
1514.546571192972
 21
-254.3583664417533
 31
0.0
  0
LINE
  5
26A
330
1F
100
AcDbEntity
  8
0-1_ピット
  6
JWW_CENTER2
 62
     2
370
     9
100
AcDbLine
 10
1506.068703860307
 20
-246.3953902732717
 30
0.0
 11
1506.068703860307
 21
-262.3216398915075
 31
0.0
  0
LINE
  5
26B
330
1F
100
AcDbEntity
  8
0-1_ピット
  6
JWW_CENTER2
 62
     2
370
     9
100
AcDbLine
 10
1778.069177059511
 20
-627.4077170182646
 30
0.0
 11
1778.069177059511
 21
-606.9303883974424
 31
0.0
  0
LINE
  5
26C
330
1F
100
AcDbEntity
  8
0-1_ピット
  6
JWW_CENTER2
 62
     2
370
     9
100
AcDbLine
 10
1767.629253327534
 20
-616.3583666774103
 30
0.0
 11
1787.14695800033
 21
-616.3583666774103
 31
0.0
  0
LINE
  5
26D
330
1F
100
AcDbEntity
  8
0-1_ピット
  6
JWW_CENTER2
 62
     2
370
     9
100
AcDbLine
 10
202.0687785635685
 20
-627.2358884426885
 30
0.0
 11
202.0687785635685
 21
-605.4814394746774
 31
0.0
  0
LINE
  5
26E
330
1F
100
AcDbEntity
  8
0-1_ピット
  6
JWW_CENTER2
 62
     2
370
     9
100
AcDbLine
 10
191.4213525033005
 20
-616.3583666774103
 30
0.0
 11
212.7167991863816
 21
-616.3583666774103
 31
0.0
  0
LINE
  5
26F
330
1F
100
AcDbEntity
  8
0-1_ピット
  6
JWW_CENTER2
 62
     2
370
     9
100
AcDbLine
 10
251.4213344755419
 20
-616.3583666774103
 30
0.0
 11
272.7164838773501
 21
-616.3583666774103
 31
0.0
  0
LINE
  5
270
330
1F
100
AcDbEntity
  8
0-1_ピット
  6
JWW_CENTER2
 62
     2
370
     9
100
AcDbLine
 10
400.0688082563469
 20
-627.2358884426885
 30
0.0
 11
400.0688082563469
 21
-605.4814394746774
 31
0.0
  0
LINE
  5
271
330
1F
100
AcDbEntity
  8
0-1_ピット
  6
JWW_CENTER2
 62
     2
370
     9
100
AcDbLine
 10
389.4213821960792
 20
-616.3583666774103
 30
0.0
 11
410.7162343166145
 21
-616.3583666774103
 31
0.0
  0
LINE
  5
272
330
1F
100
AcDbEntity
  8
0-1_ピット
  6
JWW_CENTER2
 62
     2
370
     9
100
AcDbLine
 10
500.0688773038402
 20
-627.2358884426885
 30
0.0
 11
500.0688773038402
 21
-605.4814394746774
 31
0.0
  0
LINE
  5
273
330
1F
100
AcDbEntity
  8
0-1_ピット
  6
JWW_CENTER2
 62
     2
370
     9
100
AcDbLine
 10
489.4211539622996
 20
-616.3583666774103
 30
0.0
 11
510.7163033641085
 21
-616.3583666774103
 31
0.0
  0
LINE
  5
274
330
1F
100
AcDbEntity
  8
0-1_ピット
  6
JWW_CENTER2
 62
     2
370
     9
100
AcDbLine
 10
600.0689463513335
 20
-627.2358884426885
 30
0.0
 11
600.0689463513335
 21
-605.4814394746774
 31
0.0
  0
LINE
  5
275
330
1F
100
AcDbEntity
  8
0-1_ピット
  6
JWW_CENTER2
 62
     2
370
     9
100
AcDbLine
 10
589.4212230097929
 20
-616.3583666774103
 30
0.0
 11
610.7163724116017
 21
-616.3583666774103
 31
0.0
  0
LINE
  5
276
330
1F
100
AcDbEntity
  8
0-1_ピット
  6
JWW_CENTER2
 62
     2
370
     9
100
AcDbLine
 10
700.0687181175547
 20
-627.2358884426885
 30
0.0
 11
700.0687181175547
 21
-605.4814394746774
 31
0.0
  0
LINE
  5
277
330
1F
100
AcDbEntity
  8
0-1_ピット
  6
JWW_CENTER2
 62
     2
370
     9
100
AcDbLine
 10
689.420994776014
 20
-616.3583666774103
 30
0.0
 11
710.7164414590952
 21
-616.3583666774103
 31
0.0
  0
LINE
  5
278
330
1F
100
AcDbEntity
  8
0-1_ピット
  6
JWW_CENTER2
 62
     2
370
     9
100
AcDbLine
 10
902.0689646147491
 20
-627.2358884426885
 30
0.0
 11
902.0689646147491
 21
-605.4814394746774
 31
0.0
  0
LINE
  5
279
330
1F
100
AcDbEntity
  8
0-1_ピット
  6
JWW_CENTER2
 62
     2
370
     9
100
AcDbLine
 10
891.4212412732084
 20
-616.3583666774103
 30
0.0
 11
912.7166879562895
 21
-616.3583666774103
 31
0.0
  0
LINE
  5
27A
330
1F
100
AcDbEntity
  8
0-1_ピット
  6
JWW_CENTER2
 62
     2
370
     9
100
AcDbLine
 10
1204.068982878165
 20
-627.2358884426885
 30
0.0
 11
1204.068982878165
 21
-605.4814394746774
 31
0.0
  0
LINE
  5
27B
330
1F
100
AcDbEntity
  8
0-1_ピット
  6
JWW_CENTER2
 62
     2
370
     9
100
AcDbLine
 10
1193.420962255352
 20
-616.3583666774103
 30
0.0
 11
1214.716408938432
 21
-616.3583666774103
 31
0.0
  0
LINE
  5
27C
330
1F
100
AcDbEntity
  8
0-1_ピット
  6
JWW_CENTER2
 62
     2
370
     9
100
AcDbLine
 10
1506.068703860307
 20
-627.2358884426885
 30
0.0
 11
1506.068703860307
 21
-605.4814394746774
 31
0.0
  0
LINE
  5
27D
330
1F
100
AcDbEntity
  8
0-1_ピット
  6
JWW_CENTER2
 62
     2
370
     9
100
AcDbLine
 10
1495.420980518767
 20
-616.3583666774103
 30
0.0
 11
1516.716724483121
 21
-616.3583666774103
 31
0.0
  0
LINE
  5
27E
330
1F
100
AcDbEntity
  8
0-1_ピット
  6
JWW_CENTER2
 62
     2
370
     9
100
AcDbLine
 10
262.0690578170825
 20
-627.2358884426885
 30
0.0
 11
262.0690578170825
 21
-605.4814394746774
 31
0.0
  0
LINE
  5
27F
330
1F
100
AcDbEntity
  8
0-1_ピット
  6
JWW_CENTER2
 62
     2
370
     9
100
AcDbLine
 10
370.0689659108624
 20
-628.3792322171968
 30
0.0
 11
370.0689659108624
 21
-604.3375011376238
 31
0.0
  0
LINE
  5
280
330
1F
100
AcDbEntity
  8
0-1_ピット
  6
JWW_CENTER2
 62
     2
370
     9
100
AcDbLine
 10
356.2962218315082
 20
-616.3583666774103
 30
0.0
 11
383.5001338079732
 21
-616.3583666774103
 31
0.0
  0
LINE
  5
281
330
1F
100
AcDbEntity
  8
0-1_ピット
  6
JWW_CENTER2
 62
     2
370
     9
100
AcDbLine
 10
470.0687376770836
 20
-628.3792322171968
 30
0.0
 11
470.0687376770836
 21
-604.3375011376238
 31
0.0
  0
LINE
  5
282
330
1F
100
AcDbEntity
  8
0-1_ピット
  6
JWW_CENTER2
 62
     2
370
     9
100
AcDbLine
 10
456.2962908790016
 20
-616.3583666774103
 30
0.0
 11
483.5002028554665
 21
-616.3583666774103
 31
0.0
  0
LINE
  5
283
330
1F
100
AcDbEntity
  8
0-1_ピット
  6
JWW_CENTER2
 62
     2
370
     9
100
AcDbLine
 10
570.0685094433039
 20
-628.3792322171968
 30
0.0
 11
570.0685094433039
 21
-604.3375011376238
 31
0.0
  0
LINE
  5
284
330
1F
100
AcDbEntity
  8
0-1_ピット
  6
JWW_CENTER2
 62
     2
370
     9
100
AcDbLine
 10
556.2960626452227
 20
-616.3583666774103
 30
0.0
 11
583.4999746216869
 21
-616.3583666774103
 31
0.0
  0
LINE
  5
285
330
1F
100
AcDbEntity
  8
0-1_ピット
  6
JWW_CENTER2
 62
     2
370
     9
100
AcDbLine
 10
670.0685784907972
 20
-628.3792322171968
 30
0.0
 11
670.0685784907972
 21
-604.3375011376238
 31
0.0
  0
LINE
  5
286
330
1F
100
AcDbEntity
  8
0-1_ピット
  6
JWW_CENTER2
 62
     2
370
     9
100
AcDbLine
 10
656.2961316927159
 20
-616.3583666774103
 30
0.0
 11
683.5000436691802
 21
-616.3583666774103
 31
0.0
  0
LINE
  5
287
330
1F
100
AcDbEntity
  8
0-1_ピット
  6
JWW_CENTER2
 62
     2
370
     9
100
AcDbLine
 10
872.0688249879925
 20
-628.3792322171968
 30
0.0
 11
872.0688249879925
 21
-604.3375011376238
 31
0.0
  0
LINE
  5
288
330
1F
100
AcDbEntity
  8
0-1_ピット
  6
JWW_CENTER2
 62
     2
370
     9
100
AcDbLine
 10
858.2963781899105
 20
-616.3583666774103
 30
0.0
 11
885.4999928851023
 21
-616.3583666774103
 31
0.0
  0
LINE
  5
289
330
1F
100
AcDbEntity
  8
0-1_ピット
  6
JWW_CENTER2
 62
     2
370
     9
100
AcDbLine
 10
1174.068545970135
 20
-628.3792322171968
 30
0.0
 11
1174.068545970135
 21
-604.3375011376238
 31
0.0
  0
LINE
  5
28A
330
1F
100
AcDbEntity
  8
0-1_ピット
  6
JWW_CENTER2
 62
     2
370
     9
100
AcDbLine
 10
1160.296099172054
 20
-616.3583666774103
 30
0.0
 11
1187.500011148518
 21
-616.3583666774103
 31
0.0
  0
LINE
  5
28B
330
1F
100
AcDbEntity
  8
0-1_ピット
  6
JWW_CENTER2
 62
     2
370
     9
100
AcDbLine
 10
1476.068564233551
 20
-628.3792322171968
 30
0.0
 11
1476.068564233551
 21
-604.3375011376238
 31
0.0
  0
LINE
  5
28C
330
1F
100
AcDbEntity
  8
0-1_ピット
  6
JWW_CENTER2
 62
     2
370
     9
100
AcDbLine
 10
1462.296414716741
 20
-616.3583666774103
 30
0.0
 11
1489.500029411934
 21
-616.3583666774103
 31
0.0
  0
LINE
  5
28D
330
1F
100
AcDbEntity
  8
0-4_寸法
  6
Continuous
 62
     2
370
     9
100
AcDbLine
 10
164.068502609252
 20
-631.3582878501525
 30
0.0
 11
1852.068728722119
 21
-631.3582878501525
 31
0.0
  0
LINE
  5
28E
330
1F
100
AcDbEntity
  8
0-4_寸法
  6
Continuous
 62
     2
370
     9
100
AcDbLine
 10
164.068502609252
 20
-239.3584452690111
 30
0.0
 11
1852.068728722119
 21
-239.3584452690111
 31
0.0
  0
LINE
  5
28F
330
1F
100
AcDbEntity
  8
0-1_ピット
  6
JWW_PHANTOM1
 62
     4
370
     9
100
AcDbLine
 10
183.0873693065852
 20
-616.8583937779623
 30
0.0
 11
174.0684500577468
 21
-616.8583937779623
 31
0.0
  0
LINE
  5
290
330
1F
100
AcDbEntity
  8
0-1_ピット
  6
JWW_PHANTOM1
 62
     4
370
     9
100
AcDbLine
 10
183.0873693065852
 20
-593.8583362776608
 30
0.0
 11
174.0684500577468
 21
-593.8583362776608
 31
0.0
  0
LINE
  5
291
330
1F
100
AcDbEntity
  8
0-1_ピット
  6
JWW_PHANTOM1
 62
     4
370
     9
100
AcDbLine
 10
183.0873693065852
 20
-599.6318358732733
 30
0.0
 11
174.0684500577468
 21
-599.6318358732733
 31
0.0
  0
LINE
  5
292
330
1F
100
AcDbEntity
  8
0-1_ピット
  6
JWW_PHANTOM1
 62
     4
370
     9
100
AcDbLine
 10
184.0689920687867
 20
-613.9714953395196
 30
0.0
 11
184.0689920687867
 21
-596.7452347161033
 31
0.0
  0
LINE
  5
293
330
1F
100
AcDbEntity
  8
0-1_ピット
  6
JWW_PHANTOM1
 62
     4
370
     9
100
AcDbLine
 10
174.0684500577468
 20
-618.8585021801703
 30
0.0
 11
172.0683416555386
 21
-618.8585021801703
 31
0.0
  0
LINE
  5
294
330
1F
100
AcDbEntity
  8
0-1_ピット
  6
JWW_PHANTOM1
 62
     4
370
     9
100
AcDbLine
 10
172.0683416555386
 20
-618.8585021801703
 30
0.0
 11
172.0683416555386
 21
-591.8582278754526
 31
0.0
  0
LINE
  5
295
330
1F
100
AcDbEntity
  8
0-1_ピット
  6
JWW_PHANTOM1
 62
     4
370
     9
100
AcDbLine
 10
174.0684500577468
 20
-591.8582278754526
 30
0.0
 11
172.0683416555386
 21
-591.8582278754526
 31
0.0
  0
LINE
  5
296
330
1F
100
AcDbEntity
  8
0-1_ピット
  6
JWW_PHANTOM1
 62
     4
370
     9
100
AcDbLine
 10
174.0684500577468
 20
-618.8585021801703
 30
0.0
 11
174.0684500577468
 21
-591.8582278754526
 31
0.0
  0
LINE
  5
297
330
1F
100
AcDbEntity
  8
0-1_ピット
  6
JWW_PHANTOM1
 62
     4
370
     9
100
AcDbLine
 10
183.0873693065852
 20
-611.0848941823497
 30
0.0
 11
174.0684500577468
 21
-611.0848941823497
 31
0.0
  0
LINE
  5
298
330
1F
100
AcDbEntity
  8
0-A
  6
JWW_PHANTOM1
 62
     2
370
     9
100
AcDbLine
 10
149.6690896072084
 20
-601.0984730317592
 30
0.0
 11
172.0683416555386
 21
-601.0984730317592
 31
0.0
  0
LINE
  5
299
330
1F
100
AcDbEntity
  8
0-A
  6
JWW_PHANTOM1
 62
     2
370
     9
100
AcDbLine
 10
149.6690896072084
 20
-599.35833710246
 30
0.0
 11
172.0683416555386
 21
-599.35833710246
 31
0.0
  0
LINE
  5
29A
330
1F
100
AcDbEntity
  8
0-A
  6
JWW_PHANTOM1
 62
     2
370
     9
100
AcDbLine
 10
149.6690896072084
 20
-609.6184056645001
 30
0.0
 11
172.0683416555386
 21
-609.6184056645001
 31
0.0
  0
LINE
  5
29B
330
1F
100
AcDbEntity
  8
0-A
  6
JWW_PHANTOM1
 62
     2
370
     9
100
AcDbLine
 10
149.6690896072084
 20
-611.3583929531628
 30
0.0
 11
172.0683416555386
 21
-611.3583929531628
 31
0.0
  0
ARC
  5
29C
330
1F
100
AcDbEntity
  8
0-0_通り芯
  6
Continuous
 62
     4
370
     9
100
AcDbCircle
 10
-1250.931493384579
 20
-378.3585471906522
 30
0.0
 40
4.000000230363897
100
AcDbArc
 50
0.0
 51
75.0
  0
ARC
  5
29D
330
1F
100
AcDbEntity
  8
0-0_通り芯
  6
Continuous
 62
     4
370
     9
100
AcDbCircle
 10
-1250.931493384579
 20
-378.3585471906522
 30
0.0
 40
8.000000460727794
100
AcDbArc
 50
0.0
 51
77.17655944824219
  0
ARC
  5
29E
330
1F
100
AcDbEntity
  8
0-0_通り芯
  6
Continuous
 62
     4
370
     9
100
AcDbCircle
 10
-1250.931493384579
 20
-492.3587804910567
 30
0.0
 40
4.000000230363897
100
AcDbArc
 50
285.0
 51
0.0
  0
ARC
  5
29F
330
1F
100
AcDbEntity
  8
0-0_通り芯
  6
Continuous
 62
     4
370
     9
100
AcDbCircle
 10
-1250.931493384579
 20
-492.3587804910567
 30
0.0
 40
8.000000460727794
100
AcDbArc
 50
282.8234252929688
 51
0.0000000000000254
  0
ARC
  5
2A0
330
1F
100
AcDbEntity
  8
0-6_化粧Ｐ
  6
Continuous
 62
     7
370
     9
100
AcDbCircle
 10
141.0684451089502
 20
-237.3586341480758
 30
0.0
 40
2.000000115181948
100
AcDbArc
 50
90.0
 51
180.0
  0
ARC
  5
2A1
330
1F
100
AcDbEntity
  8
0-6_化粧Ｐ
  6
Continuous
 62
     7
370
     9
100
AcDbCircle
 10
141.0684451089502
 20
-633.3580989710879
 30
0.0
 40
2.000000115181948
100
AcDbArc
 50
180.0
 51
270.0
  0
ARC
  5
2A2
330
1F
100
AcDbEntity
  8
0-A
  6
JWW_PHANTOM1
 62
     2
370
     9
100
AcDbCircle
 10
147.2132490140689
 20
-597.3601610285241
 30
0.0
 40
3.000000027616052
100
AcDbArc
 50
225.0
 51
255.4259643554687
  0
ARC
  5
2A3
330
1F
100
AcDbEntity
  8
0-A
  6
JWW_PHANTOM1
 62
     2
370
     9
100
AcDbCircle
 10
147.2132490140689
 20
-613.3565690270989
 30
0.0
 40
3.000000027616052
100
AcDbArc
 50
104.5740356445312
 51
135.0
  0
ARC
  5
2A4
330
1F
100
AcDbEntity
  8
Ｐｶﾞｲﾄﾞ
  6
Continuous
 62
     7
370
     9
100
AcDbCircle
 10
324.0685536289868
 20
-435.3583665595818
 30
0.0
 40
118.0000041829113
100
AcDbArc
 50
270.0
 51
284.3856048583985
  0
ARC
  5
2A5
330
1F
100
AcDbEntity
  8
Ｐｶﾞｲﾄﾞ
  6
Continuous
 62
     7
370
     9
100
AcDbCircle
 10
300.068441927581
 20
-435.3583665595818
 30
0.0
 40
141.9999672436806
100
AcDbArc
 50
270.0
 51
306.3963928222656
  0
ARC
  5
2A6
330
1F
100
AcDbEntity
  8
Ｐｶﾞｲﾄﾞ
  6
Continuous
 62
     7
370
     9
100
AcDbCircle
 10
324.0685536289868
 20
-435.3583665595818
 30
0.0
 40
118.0000041829113
100
AcDbArc
 50
303.4250640869141
 51
56.57493591308592
  0
ARC
  5
2A7
330
1F
100
AcDbEntity
  8
Ｐｶﾞｲﾄﾞ
  6
Continuous
 62
     7
370
     9
100
AcDbCircle
 10
324.0685536289868
 20
-435.3583665595818
 30
0.0
 40
118.0000041829113
100
AcDbArc
 50
75.61320495605469
 51
90.0
  0
ARC
  5
2A8
330
1F
100
AcDbEntity
  8
Ｐｶﾞｲﾄﾞ
  6
Continuous
 62
     7
370
     9
100
AcDbCircle
 10
300.068441927581
 20
-435.3583665595818
 30
0.0
 40
141.9999672436806
100
AcDbArc
 50
308.8114166259766
 51
51.18858337402348
  0
ARC
  5
2A9
330
1F
100
AcDbEntity
  8
Ｐｶﾞｲﾄﾞ
  6
Continuous
 62
     7
370
     9
100
AcDbCircle
 10
300.068441927581
 20
-435.3583665595818
 30
0.0
 40
141.9999672436806
100
AcDbArc
 50
53.60321044921875
 51
90.0
  0
ARC
  5
2AA
330
1F
100
AcDbEntity
  8
0-D_把手
  6
Continuous
 62
     7
370
     9
100
AcDbCircle
 10
-1252.931601786787
 20
-435.3583665595818
 30
0.0
 40
6.000027925351411
100
AcDbArc
 50
0.000152587890625
 51
359.9999999999999
  0
ARC
  5
2AB
330
1F
100
AcDbEntity
  8
0-3_受枠
  6
Continuous
 62
     4
370
     9
100
AcDbCircle
 10
23.06829228540256
 20
-559.6582068312848
 30
0.0
 40
4.000000230363897
100
AcDbArc
 50
180.0
 51
270.0
  0
ARC
  5
2AC
330
1F
100
AcDbEntity
  8
0-3_受枠
  6
Continuous
 62
     4
370
     9
100
AcDbCircle
 10
23.06829228540256
 20
-553.6584761872061
 30
0.0
 40
4.000000230363897
100
AcDbArc
 50
90.0
 51
180.0
  0
ARC
  5
2AD
330
1F
100
AcDbEntity
  8
0-3_受枠
  6
Continuous
 62
     4
370
     9
100
AcDbCircle
 10
55.06824303309489
 20
-559.6582068312848
 30
0.0
 40
4.000000230363897
100
AcDbArc
 50
270.0
 51
0.0
  0
ARC
  5
2AE
330
1F
100
AcDbEntity
  8
0-3_受枠
  6
Continuous
 62
     4
370
     9
100
AcDbCircle
 10
55.06824303309489
 20
-553.6584761872061
 30
0.0
 40
4.000000230363897
100
AcDbArc
 50
0.0
 51
90.0
  0
ARC
  5
2AF
330
1F
100
AcDbEntity
  8
0-3_受枠
  6
Continuous
 62
     4
370
     9
100
AcDbCircle
 10
39.06826765924873
 20
-275.6579750626511
 30
0.0
 40
6.999999677352463
100
AcDbArc
 50
40.00746154785156
 51
319.9959716796875
  0
ARC
  5
2B0
330
1F
100
AcDbEntity
  8
0-4_寸法
  6
Continuous
 62
     7
370
     9
100
AcDbCircle
 10
41.01575727620244
 20
-275.6579750626511
 30
0.0
 40
3.9999195231434
100
AcDbArc
 50
90.0
 51
270.0
  0
ARC
  5
2B1
330
1F
100
AcDbEntity
  8
0-4_寸法
  6
Continuous
 62
     2
370
     9
100
AcDbCircle
 10
1852.068728722119
 20
-245.3584731943626
 30
0.0
 40
6.000000055232103
100
AcDbArc
 50
0.0
 51
90.0
  0
ARC
  5
2B2
330
1F
100
AcDbEntity
  8
0-4_寸法
  6
Continuous
 62
     2
370
     9
100
AcDbCircle
 10
1852.068728722119
 20
-625.358259924801
 30
0.0
 40
6.000000055232103
100
AcDbArc
 50
270.0
 51
0.0
  0
CIRCLE
  5
2B3
330
1F
100
AcDbEntity
  8
0-5_文字
  6
Continuous
 62
     2
370
     9
100
AcDbCircle
 10
232.0689181903255
 20
-254.3583664417533
 30
0.0
 40
6.000000055232103
  0
CIRCLE
  5
2B4
330
1F
100
AcDbEntity
  8
0-5_文字
  6
Continuous
 62
     2
370
     9
100
AcDbCircle
 10
232.0689181903255
 20
-616.3583666774103
 30
0.0
 40
6.000000055232103
  0
CIRCLE
  5
2B5
330
1F
100
AcDbEntity
  8
0-5_文字
  6
Continuous
 62
     2
370
     9
100
AcDbCircle
 10
370.0689659108624
 20
-254.3583664417533
 30
0.0
 40
6.000000055232103
  0
CIRCLE
  5
2B6
330
1F
100
AcDbEntity
  8
0-5_文字
  6
Continuous
 62
     2
370
     9
100
AcDbCircle
 10
470.0690349583557
 20
-254.3583664417533
 30
0.0
 40
6.000000055232103
  0
CIRCLE
  5
2B7
330
1F
100
AcDbEntity
  8
0-5_文字
  6
Continuous
 62
     2
370
     9
100
AcDbCircle
 10
570.0688067245768
 20
-254.3583664417533
 30
0.0
 40
6.000000055232103
  0
CIRCLE
  5
2B8
330
1F
100
AcDbEntity
  8
0-5_文字
  6
Continuous
 62
     2
370
     9
100
AcDbCircle
 10
670.0688757720701
 20
-254.3583664417533
 30
0.0
 40
6.000000055232103
  0
CIRCLE
  5
2B9
330
1F
100
AcDbEntity
  8
0-5_文字
  6
Continuous
 62
     2
370
     9
100
AcDbCircle
 10
872.0688249879925
 20
-254.3583664417533
 30
0.0
 40
6.000000055232103
  0
CIRCLE
  5
2BA
330
1F
100
AcDbEntity
  8
0-5_文字
  6
Continuous
 62
     2
370
     9
100
AcDbCircle
 10
1174.06914053268
 20
-254.3583664417533
 30
0.0
 40
6.000000055232103
  0
CIRCLE
  5
2BB
330
1F
100
AcDbEntity
  8
0-5_文字
  6
Continuous
 62
     2
370
     9
100
AcDbCircle
 10
1476.068861514823
 20
-254.3583664417533
 30
0.0
 40
6.000000055232103
  0
CIRCLE
  5
2BC
330
1F
100
AcDbEntity
  8
0-5_文字
  6
Continuous
 62
     2
370
     9
100
AcDbCircle
 10
1778.069177059511
 20
-254.3583664417533
 30
0.0
 40
6.000000055232103
  0
CIRCLE
  5
2BD
330
1F
100
AcDbEntity
  8
0-5_文字
  6
Continuous
 62
     2
370
     9
100
AcDbCircle
 10
1778.069177059511
 20
-616.3583666774103
 30
0.0
 40
6.000000055232103
  0
CIRCLE
  5
2BE
330
1F
100
AcDbEntity
  8
0-5_文字
  6
Continuous
 62
     4
370
     9
100
AcDbCircle
 10
202.0687785635685
 20
-616.3583666774103
 30
0.0
 40
6.000000055232103
  0
ARC
  5
2BF
330
1F
100
AcDbEntity
  8
0-4_寸法
  6
Continuous
 62
     2
370
     9
100
AcDbCircle
 10
1779.06863669807
 20
-308.358617769916
 30
0.0
 40
20.00000173244697
100
AcDbArc
 50
0.0
 51
90.0
  0
ARC
  5
2C0
330
1F
100
AcDbEntity
  8
0-4_寸法
  6
Continuous
 62
     2
370
     9
100
AcDbCircle
 10
1779.06863669807
 20
-562.3584126305202
 30
0.0
 40
20.00000173244697
100
AcDbArc
 50
270.0
 51
0.0
  0
CIRCLE
  5
2C1
330
1F
100
AcDbEntity
  8
0-5_文字
  6
Continuous
 62
     2
370
     9
100
AcDbCircle
 10
370.0689659108624
 20
-616.3583666774103
 30
0.0
 40
6.000000055232103
  0
CIRCLE
  5
2C2
330
1F
100
AcDbEntity
  8
0-5_文字
  6
Continuous
 62
     2
370
     9
100
AcDbCircle
 10
470.0687376770836
 20
-616.3583666774103
 30
0.0
 40
6.000000055232103
  0
CIRCLE
  5
2C3
330
1F
100
AcDbEntity
  8
0-5_文字
  6
Continuous
 62
     2
370
     9
100
AcDbCircle
 10
570.0685094433039
 20
-616.3583666774103
 30
0.0
 40
6.000000055232103
  0
CIRCLE
  5
2C4
330
1F
100
AcDbEntity
  8
0-5_文字
  6
Continuous
 62
     2
370
     9
100
AcDbCircle
 10
670.0685784907972
 20
-616.3583666774103
 30
0.0
 40
6.000000055232103
  0
CIRCLE
  5
2C5
330
1F
100
AcDbEntity
  8
0-5_文字
  6
Continuous
 62
     2
370
     9
100
AcDbCircle
 10
872.0688249879925
 20
-616.3583666774103
 30
0.0
 40
6.000000055232103
  0
CIRCLE
  5
2C6
330
1F
100
AcDbEntity
  8
0-5_文字
  6
Continuous
 62
     2
370
     9
100
AcDbCircle
 10
1174.068545970135
 20
-616.3583666774103
 30
0.0
 40
6.000000055232103
  0
CIRCLE
  5
2C7
330
1F
100
AcDbEntity
  8
0-5_文字
  6
Continuous
 62
     2
370
     9
100
AcDbCircle
 10
1476.068861514823
 20
-616.3583666774103
 30
0.0
 40
6.000000055232103
  0
ARC
  5
2C8
330
1F
100
AcDbEntity
  8
0-4_寸法
  6
Continuous
 62
     2
370
     9
100
AcDbCircle
 10
1839.068618670311
 20
-298.3583730401486
 30
0.0
 40
6.000000055232103
100
AcDbArc
 50
90.0
 51
180.0
  0
ARC
  5
2C9
330
1F
100
AcDbEntity
  8
0-4_寸法
  6
Continuous
 62
     2
370
     9
100
AcDbCircle
 10
1839.068618670311
 20
-320.3583763393464
 30
0.0
 40
6.000000055232103
100
AcDbArc
 50
180.0
 51
270.0
  0
ARC
  5
2CA
330
1F
100
AcDbEntity
  8
0-4_寸法
  6
Continuous
 62
     2
370
     9
100
AcDbCircle
 10
1839.068618670311
 20
-352.3583270870388
 30
0.0
 40
6.000000055232103
100
AcDbArc
 50
90.0
 51
180.0
  0
ARC
  5
2CB
330
1F
100
AcDbEntity
  8
0-4_寸法
  6
Continuous
 62
     2
370
     9
100
AcDbCircle
 10
1839.068618670311
 20
-374.3583303862363
 30
0.0
 40
6.000000055232103
100
AcDbArc
 50
180.0
 51
270.0
  0
ARC
  5
2CC
330
1F
100
AcDbEntity
  8
0-4_寸法
  6
Continuous
 62
     2
370
     9
100
AcDbCircle
 10
1839.068618670311
 20
-406.3582811339288
 30
0.0
 40
6.000000055232103
100
AcDbArc
 50
90.0
 51
180.0
  0
ARC
  5
2CD
330
1F
100
AcDbEntity
  8
0-4_寸法
  6
Continuous
 62
     2
370
     9
100
AcDbCircle
 10
1839.068618670311
 20
-464.358451985235
 30
0.0
 40
6.000000055232103
100
AcDbArc
 50
180.0
 51
270.0
  0
ARC
  5
2CE
330
1F
100
AcDbEntity
  8
0-4_寸法
  6
Continuous
 62
     2
370
     9
100
AcDbCircle
 10
1839.068618670311
 20
-496.3584027329274
 30
0.0
 40
6.000000055232103
100
AcDbArc
 50
90.0
 51
180.0
  0
ARC
  5
2CF
330
1F
100
AcDbEntity
  8
0-4_寸法
  6
Continuous
 62
     2
370
     9
100
AcDbCircle
 10
1839.068618670311
 20
-518.358406032125
 30
0.0
 40
6.000000055232103
100
AcDbArc
 50
180.0
 51
270.0
  0
ARC
  5
2D0
330
1F
100
AcDbEntity
  8
0-4_寸法
  6
Continuous
 62
     2
370
     9
100
AcDbCircle
 10
1839.068618670311
 20
-550.3583567798173
 30
0.0
 40
6.000000055232103
100
AcDbArc
 50
90.0
 51
180.0
  0
ARC
  5
2D1
330
1F
100
AcDbEntity
  8
0-4_寸法
  6
Continuous
 62
     2
370
     9
100
AcDbCircle
 10
1839.068618670311
 20
-572.358360079015
 30
0.0
 40
6.000000055232103
100
AcDbArc
 50
180.0
 51
270.0
  0
ARC
  5
2D2
330
1F
100
AcDbEntity
  8
0-4_寸法
  6
Continuous
 62
     2
370
     9
100
AcDbCircle
 10
1856.068648245262
 20
-328.3585126669057
 30
0.0
 40
2.000000115181948
100
AcDbArc
 50
0.0
 51
90.0
  0
ARC
  5
2D3
330
1F
100
AcDbEntity
  8
0-4_寸法
  6
Continuous
 62
     2
370
     9
100
AcDbCircle
 10
1856.068648245262
 20
-344.3584880407519
 30
0.0
 40
2.000000115181948
100
AcDbArc
 50
270.0001525878907
 51
0.0000000000000382
  0
ARC
  5
2D4
330
1F
100
AcDbEntity
  8
0-4_寸法
  6
Continuous
 62
     2
370
     9
100
AcDbCircle
 10
1856.068648245262
 20
-398.358442087642
 30
0.0
 40
2.000000115181948
100
AcDbArc
 50
270.0
 51
0.0
  0
ARC
  5
2D5
330
1F
100
AcDbEntity
  8
0-4_寸法
  6
Continuous
 62
     2
370
     9
100
AcDbCircle
 10
1856.068648245262
 20
-382.358169432523
 30
0.0
 40
2.000000115181948
100
AcDbArc
 50
0.0
 51
90.0
  0
ARC
  5
2D6
330
1F
100
AcDbEntity
  8
0-4_寸法
  6
Continuous
 62
     2
370
     9
100
AcDbCircle
 10
1856.068648245262
 20
-542.358220452258
 30
0.0
 40
2.000000115181948
100
AcDbArc
 50
270.0
 51
0.0
  0
ARC
  5
2D7
330
1F
100
AcDbEntity
  8
0-4_寸法
  6
Continuous
 62
     2
370
     9
100
AcDbCircle
 10
1856.068648245262
 20
-526.358245078412
 30
0.0
 40
2.000000115181948
100
AcDbArc
 50
0.0
 51
89.99984741210938
  0
ARC
  5
2D8
330
1F
100
AcDbEntity
  8
0-4_寸法
  6
Continuous
 62
     2
370
     9
100
AcDbCircle
 10
1856.068648245262
 20
-472.3582910315217
 30
0.0
 40
2.000000115181948
100
AcDbArc
 50
0.0
 51
90.0
  0
ARC
  5
2D9
330
1F
100
AcDbEntity
  8
0-4_寸法
  6
Continuous
 62
     2
370
     9
100
AcDbCircle
 10
1856.068648245262
 20
-488.3585636866405
 30
0.0
 40
2.000000115181948
100
AcDbArc
 50
270.0
 51
0.0
  0
CIRCLE
  5
2DA
330
1F
100
AcDbEntity
  8
0-4_寸法
  6
Continuous
 62
     2
370
     9
100
AcDbCircle
 10
202.0687785635685
 20
-254.3583664417533
 30
0.0
 40
3.000013962675705
  0
CIRCLE
  5
2DB
330
1F
100
AcDbEntity
  8
0-4_寸法
  6
Continuous
 62
     2
370
     9
100
AcDbCircle
 10
202.0687785635685
 20
-254.3583664417533
 30
0.0
 40
4.999973724247406
  0
CIRCLE
  5
2DC
330
1F
100
AcDbEntity
  8
0-4_寸法
  6
Continuous
 62
     2
370
     9
100
AcDbCircle
 10
262.0690578170825
 20
-254.3583664417533
 30
0.0
 40
3.000013962675705
  0
CIRCLE
  5
2DD
330
1F
100
AcDbEntity
  8
0-4_寸法
  6
Continuous
 62
     2
370
     9
100
AcDbCircle
 10
262.0690578170825
 20
-254.3583664417533
 30
0.0
 40
4.999973724247406
  0
CIRCLE
  5
2DE
330
1F
100
AcDbEntity
  8
0-4_寸法
  6
Continuous
 62
     2
370
     9
100
AcDbCircle
 10
400.0688082563469
 20
-254.3583664417533
 30
0.0
 40
3.000013962675705
  0
CIRCLE
  5
2DF
330
1F
100
AcDbEntity
  8
0-4_寸法
  6
Continuous
 62
     2
370
     9
100
AcDbCircle
 10
400.0688082563469
 20
-254.3583664417533
 30
0.0
 40
4.999973724247406
  0
CIRCLE
  5
2E0
330
1F
100
AcDbEntity
  8
0-4_寸法
  6
Continuous
 62
     2
370
     9
100
AcDbCircle
 10
500.0688773038402
 20
-254.3583664417533
 30
0.0
 40
3.000013962675705
  0
CIRCLE
  5
2E1
330
1F
100
AcDbEntity
  8
0-4_寸法
  6
Continuous
 62
     2
370
     9
100
AcDbCircle
 10
500.0688773038402
 20
-254.3583664417533
 30
0.0
 40
4.999973724247406
  0
CIRCLE
  5
2E2
330
1F
100
AcDbEntity
  8
0-4_寸法
  6
Continuous
 62
     2
370
     9
100
AcDbCircle
 10
600.0689463513335
 20
-254.3583664417533
 30
0.0
 40
3.000013962675705
  0
CIRCLE
  5
2E3
330
1F
100
AcDbEntity
  8
0-4_寸法
  6
Continuous
 62
     2
370
     9
100
AcDbCircle
 10
600.0689463513335
 20
-254.3583664417533
 30
0.0
 40
4.999973724247406
  0
CIRCLE
  5
2E4
330
1F
100
AcDbEntity
  8
0-4_寸法
  6
Continuous
 62
     2
370
     9
100
AcDbCircle
 10
700.0690153988268
 20
-254.3583664417533
 30
0.0
 40
3.000013962675705
  0
CIRCLE
  5
2E5
330
1F
100
AcDbEntity
  8
0-4_寸法
  6
Continuous
 62
     2
370
     9
100
AcDbCircle
 10
700.0690153988268
 20
-254.3583664417533
 30
0.0
 40
4.999973724247406
  0
CIRCLE
  5
2E6
330
1F
100
AcDbEntity
  8
0-4_寸法
  6
Continuous
 62
     2
370
     9
100
AcDbCircle
 10
902.0689646147491
 20
-254.3583664417533
 30
0.0
 40
3.000013962675705
  0
CIRCLE
  5
2E7
330
1F
100
AcDbEntity
  8
0-4_寸法
  6
Continuous
 62
     2
370
     9
100
AcDbCircle
 10
902.0689646147491
 20
-254.3583664417533
 30
0.0
 40
4.999973724247406
  0
CIRCLE
  5
2E8
330
1F
100
AcDbEntity
  8
0-4_寸法
  6
Continuous
 62
     2
370
     9
100
AcDbCircle
 10
1204.068982878165
 20
-254.3583664417533
 30
0.0
 40
3.000013962675705
  0
CIRCLE
  5
2E9
330
1F
100
AcDbEntity
  8
0-4_寸法
  6
Continuous
 62
     2
370
     9
100
AcDbCircle
 10
1204.068982878165
 20
-254.3583664417533
 30
0.0
 40
4.999973724247406
  0
CIRCLE
  5
2EA
330
1F
100
AcDbEntity
  8
0-4_寸法
  6
Continuous
 62
     2
370
     9
100
AcDbCircle
 10
1506.068703860307
 20
-254.3583664417533
 30
0.0
 40
3.000013962675705
  0
CIRCLE
  5
2EB
330
1F
100
AcDbEntity
  8
0-4_寸法
  6
Continuous
 62
     2
370
     9
100
AcDbCircle
 10
1506.068703860307
 20
-254.3583664417533
 30
0.0
 40
4.999973724247406
  0
CIRCLE
  5
2EC
330
1F
100
AcDbEntity
  8
0-5_文字
  6
Continuous
 62
     4
370
     9
100
AcDbCircle
 10
262.0690578170825
 20
-616.3583666774103
 30
0.0
 40
6.000000055232103
  0
CIRCLE
  5
2ED
330
1F
100
AcDbEntity
  8
0-5_文字
  6
Continuous
 62
     4
370
     9
100
AcDbCircle
 10
400.0688082563469
 20
-616.3583666774103
 30
0.0
 40
6.000000055232103
  0
CIRCLE
  5
2EE
330
1F
100
AcDbEntity
  8
0-5_文字
  6
Continuous
 62
     4
370
     9
100
AcDbCircle
 10
500.0688773038402
 20
-616.3583666774103
 30
0.0
 40
6.000000055232103
  0
CIRCLE
  5
2EF
330
1F
100
AcDbEntity
  8
0-5_文字
  6
Continuous
 62
     4
370
     9
100
AcDbCircle
 10
600.0689463513335
 20
-616.3583666774103
 30
0.0
 40
6.000000055232103
  0
CIRCLE
  5
2F0
330
1F
100
AcDbEntity
  8
0-5_文字
  6
Continuous
 62
     4
370
     9
100
AcDbCircle
 10
700.0690153988268
 20
-616.3583666774103
 30
0.0
 40
6.000000055232103
  0
CIRCLE
  5
2F1
330
1F
100
AcDbEntity
  8
0-5_文字
  6
Continuous
 62
     4
370
     9
100
AcDbCircle
 10
902.0689646147491
 20
-616.3583666774103
 30
0.0
 40
6.000000055232103
  0
CIRCLE
  5
2F2
330
1F
100
AcDbEntity
  8
0-5_文字
  6
Continuous
 62
     4
370
     9
100
AcDbCircle
 10
1204.068982878165
 20
-616.3583666774103
 30
0.0
 40
6.000000055232103
  0
CIRCLE
  5
2F3
330
1F
100
AcDbEntity
  8
0-5_文字
  6
Continuous
 62
     4
370
     9
100
AcDbCircle
 10
1506.068703860307
 20
-616.3583666774103
 30
0.0
 40
6.000000055232103
  0
CIRCLE
  5
2F4
330
1F
100
AcDbEntity
  8
0-5_文字
  6
Continuous
 62
     4
370
     9
100
AcDbCircle
 10
202.0687785635685
 20
-616.3583666774103
 30
0.0
 40
7.500000069040129
  0
CIRCLE
  5
2F5
330
1F
100
AcDbEntity
  8
0-5_文字
  6
Continuous
 62
     4
370
     9
100
AcDbCircle
 10
262.0690578170825
 20
-616.3583666774103
 30
0.0
 40
7.500000069040129
  0
CIRCLE
  5
2F6
330
1F
100
AcDbEntity
  8
0-5_文字
  6
Continuous
 62
     4
370
     9
100
AcDbCircle
 10
400.0688082563469
 20
-616.3583666774103
 30
0.0
 40
7.500000069040129
  0
CIRCLE
  5
2F7
330
1F
100
AcDbEntity
  8
0-5_文字
  6
Continuous
 62
     4
370
     9
100
AcDbCircle
 10
500.0688773038402
 20
-616.3583666774103
 30
0.0
 40
7.500000069040129
  0
CIRCLE
  5
2F8
330
1F
100
AcDbEntity
  8
0-5_文字
  6
Continuous
 62
     4
370
     9
100
AcDbCircle
 10
600.0689463513335
 20
-616.3583666774103
 30
0.0
 40
7.500000069040129
  0
CIRCLE
  5
2F9
330
1F
100
AcDbEntity
  8
0-5_文字
  6
Continuous
 62
     4
370
     9
100
AcDbCircle
 10
700.0687181175547
 20
-616.3583666774103
 30
0.0
 40
7.500000069040129
  0
CIRCLE
  5
2FA
330
1F
100
AcDbEntity
  8
0-5_文字
  6
Continuous
 62
     4
370
     9
100
AcDbCircle
 10
902.0689646147491
 20
-616.3583666774103
 30
0.0
 40
7.500000069040129
  0
CIRCLE
  5
2FB
330
1F
100
AcDbEntity
  8
0-5_文字
  6
Continuous
 62
     4
370
     9
100
AcDbCircle
 10
1204.068982878165
 20
-616.3583666774103
 30
0.0
 40
7.500000069040129
  0
CIRCLE
  5
2FC
330
1F
100
AcDbEntity
  8
0-5_文字
  6
Continuous
 62
     4
370
     9
100
AcDbCircle
 10
1506.068703860307
 20
-616.3583666774103
 30
0.0
 40
7.500000069040129
  0
ARC
  5
2FD
330
1F
100
AcDbEntity
  8
0-4_寸法
  6
Continuous
 62
     2
370
     9
100
AcDbCircle
 10
164.068502609252
 20
-629.3581794479445
 30
0.0
 40
2.000000115181948
100
AcDbArc
 50
180.0
 51
270.0
  0
ARC
  5
2FE
330
1F
100
AcDbEntity
  8
0-4_寸法
  6
Continuous
 62
     2
370
     9
100
AcDbCircle
 10
164.068502609252
 20
-241.3585536712191
 30
0.0
 40
2.000000115181948
100
AcDbArc
 50
90.0
 51
180.0
  0
ARC
  5
2FF
330
1F
100
AcDbEntity
  8
0-1_ピット
  6
JWW_PHANTOM1
 62
     4
370
     9
100
AcDbCircle
 10
179.3327068333561
 20
-613.9714953395196
 30
0.0
 40
4.735858183915091
100
AcDbArc
 50
322.4427795410156
 51
37.55722045898438
  0
ARC
  5
300
330
1F
100
AcDbEntity
  8
0-1_ピット
  6
JWW_PHANTOM1
 62
     4
370
     9
100
AcDbCircle
 10
179.3327068333561
 20
-596.7452347161033
 30
0.0
 40
4.735858183915091
100
AcDbArc
 50
322.4427795410156
 51
37.55722045898438
  0
ARC
  5
301
330
1F
100
AcDbEntity
  8
0-1_ピット
  6
JWW_PHANTOM1
 62
     4
370
     9
100
AcDbCircle
 10
166.8730541351778
 20
-605.3583650278115
 30
0.0
 40
17.19583806568131
100
AcDbArc
 50
340.5480041503906
 51
19.45199584960935
  0
LINE
  5
302
330
1F
100
AcDbEntity
  8
0-0_通り芯
  6
JWW_CENTER1
 62
     4
370
     9
100
AcDbLine
 10
-1160.931520426218
 20
584.980428988198
 30
0.0
 11
-1160.931520426218
 21
545.1096592665375
 31
0.0
  0
LINE
  5
303
330
1F
100
AcDbEntity
  8
0-6_化粧Ｐ
  6
Continuous
 62
     7
370
     9
100
AcDbLine
 10
139.0689312692874
 20
762.641663133197
 30
0.0
 11
139.0689312692874
 21
366.6421983101849
 31
0.0
  0
LINE
  5
304
330
1F
100
AcDbEntity
  8
0-0_通り芯
  6
Continuous
 62
     4
370
     9
100
AcDbLine
 10
139.0689312692874
 20
450.34174061721
 30
0.0
 11
-1260.931440833074
 21
450.34174061721
 31
0.0
  0
LINE
  5
305
330
1F
100
AcDbEntity
  8
0-0_通り芯
  6
Continuous
 62
     4
370
     9
100
AcDbLine
 10
-1260.931440833074
 20
450.34174061721
 30
0.0
 11
-1260.931440833074
 21
678.9415262636267
 31
0.0
  0
LINE
  5
306
330
1F
100
AcDbEntity
  8
0-0_通り芯
  6
Continuous
 62
     4
370
     9
100
AcDbLine
 10
-1145.931450612839
 20
644.6418075909221
 30
0.0
 11
-1147.515067952102
 21
648.914334041061
 31
0.0
  0
LINE
  5
307
330
1F
100
AcDbEntity
  8
0-0_通り芯
  6
Continuous
 62
     4
370
     9
100
AcDbLine
 10
-1147.515067952102
 20
648.914334041061
 30
0.0
 11
-1150.324524619026
 21
651.3972272300089
 31
0.0
  0
LINE
  5
308
330
1F
100
AcDbEntity
  8
0-0_通り芯
  6
Continuous
 62
     4
370
     9
100
AcDbLine
 10
-1150.324524619026
 20
651.3972272300089
 30
0.0
 11
-1154.223219868841
 21
653.1868604911995
 31
0.0
  0
LINE
  5
309
330
1F
100
AcDbEntity
  8
0-0_通り芯
  6
Continuous
 62
     4
370
     9
100
AcDbLine
 10
-1154.223219868841
 20
653.1868604911995
 30
0.0
 11
-1160.931520426218
 21
654.1958331304822
 31
0.0
  0
LINE
  5
30A
330
1F
100
AcDbEntity
  8
0-0_通り芯
  6
Continuous
 62
     4
370
     9
100
AcDbLine
 10
-1160.931520426218
 20
654.1958331304822
 30
0.0
 11
-1167.639820983593
 21
653.1868604911995
 31
0.0
  0
LINE
  5
30B
330
1F
100
AcDbEntity
  8
0-0_通り芯
  6
Continuous
 62
     4
370
     9
100
AcDbLine
 10
-1167.639820983593
 20
653.1868604911995
 30
0.0
 11
-1171.538516233408
 21
651.3972272300089
 31
0.0
  0
LINE
  5
30C
330
1F
100
AcDbEntity
  8
0-0_通り芯
  6
Continuous
 62
     4
370
     9
100
AcDbLine
 10
-1171.538516233408
 20
651.3972272300089
 30
0.0
 11
-1174.347972900332
 21
648.914334041061
 31
0.0
  0
LINE
  5
30D
330
1F
100
AcDbEntity
  8
0-0_通り芯
  6
Continuous
 62
     4
370
     9
100
AcDbLine
 10
-1174.347972900332
 20
648.914334041061
 30
0.0
 11
-1175.93144159896
 21
644.6418075909221
 31
0.0
  0
LINE
  5
30E
330
1F
100
AcDbEntity
  8
0-0_通り芯
  6
Continuous
 62
     4
370
     9
100
AcDbLine
 10
-1175.93144159896
 20
644.6418075909221
 30
0.0
 11
-1174.347972900332
 21
639.4274940691134
 31
0.0
  0
LINE
  5
30F
330
1F
100
AcDbEntity
  8
0-0_通り芯
  6
Continuous
 62
     4
370
     9
100
AcDbLine
 10
-1174.347972900332
 20
639.4274940691134
 30
0.0
 11
-1171.538516233408
 21
636.3976033385392
 31
0.0
  0
LINE
  5
310
330
1F
100
AcDbEntity
  8
0-0_通り芯
  6
Continuous
 62
     4
370
     9
100
AcDbLine
 10
-1171.538516233408
 20
636.3976033385392
 30
0.0
 11
-1167.639820983593
 21
634.2131805473049
 31
0.0
  0
LINE
  5
311
330
1F
100
AcDbEntity
  8
0-0_通り芯
  6
Continuous
 62
     4
370
     9
100
AcDbLine
 10
-1167.639820983593
 20
634.2131805473049
 30
0.0
 11
-1160.931520426218
 21
632.9824360786454
 31
0.0
  0
LINE
  5
312
330
1F
100
AcDbEntity
  8
0-0_通り芯
  6
Continuous
 62
     4
370
     9
100
AcDbLine
 10
-1160.931520426218
 20
632.9824360786454
 30
0.0
 11
-1154.223219868841
 21
634.2131805473049
 31
0.0
  0
LINE
  5
313
330
1F
100
AcDbEntity
  8
0-0_通り芯
  6
Continuous
 62
     4
370
     9
100
AcDbLine
 10
-1154.223219868841
 20
634.2131805473049
 30
0.0
 11
-1150.324524619026
 21
636.3976033385392
 31
0.0
  0
LINE
  5
314
330
1F
100
AcDbEntity
  8
0-0_通り芯
  6
Continuous
 62
     4
370
     9
100
AcDbLine
 10
-1150.324524619026
 20
636.3976033385392
 30
0.0
 11
-1147.515067952102
 21
639.4274940691134
 31
0.0
  0
LINE
  5
315
330
1F
100
AcDbEntity
  8
0-0_通り芯
  6
Continuous
 62
     4
370
     9
100
AcDbLine
 10
-1147.515067952102
 20
639.4274940691134
 30
0.0
 11
-1145.931450612839
 21
644.6418075909221
 31
0.0
  0
LINE
  5
316
330
1F
100
AcDbEntity
  8
0-0_通り芯
  6
JWW_CENTER1
 62
     4
370
     9
100
AcDbLine
 10
-1179.53939576415
 20
644.6418075909221
 30
0.0
 11
-1141.481001321035
 21
644.6418075909221
 31
0.0
  0
LINE
  5
317
330
1F
100
AcDbEntity
  8
0-0_通り芯
  6
JWW_CENTER1
 62
     4
370
     9
100
AcDbLine
 10
-1160.931520426218
 20
657.2417770497783
 30
0.0
 11
-1160.931520426218
 21
630.0571883560342
 31
0.0
  0
LINE
  5
318
330
1F
100
AcDbEntity
  8
0-0_通り芯
  6
Continuous
 62
     4
370
     9
100
AcDbLine
 10
-1175.93144159896
 20
484.6420538524599
 30
0.0
 11
-1174.347972900332
 21
480.3689328397757
 31
0.0
  0
LINE
  5
319
330
1F
100
AcDbEntity
  8
0-0_通り芯
  6
Continuous
 62
     4
370
     9
100
AcDbLine
 10
-1174.347972900332
 20
480.3689328397757
 30
0.0
 11
-1171.538516233408
 21
477.8860396508279
 31
0.0
  0
LINE
  5
31A
330
1F
100
AcDbEntity
  8
0-0_通り芯
  6
Continuous
 62
     4
370
     9
100
AcDbLine
 10
-1171.538516233408
 20
477.8860396508279
 30
0.0
 11
-1167.639820983593
 21
476.0970009521823
 31
0.0
  0
LINE
  5
31B
330
1F
100
AcDbEntity
  8
0-0_通り芯
  6
Continuous
 62
     4
370
     9
100
AcDbLine
 10
-1167.639820983593
 20
476.0970009521823
 30
0.0
 11
-1160.931520426218
 21
475.0880283128996
 31
0.0
  0
LINE
  5
31C
330
1F
100
AcDbEntity
  8
0-0_通り芯
  6
Continuous
 62
     4
370
     9
100
AcDbLine
 10
-1160.931520426218
 20
475.0880283128996
 30
0.0
 11
-1154.223219868841
 21
476.0970009521823
 31
0.0
  0
LINE
  5
31D
330
1F
100
AcDbEntity
  8
0-0_通り芯
  6
Continuous
 62
     4
370
     9
100
AcDbLine
 10
-1154.223219868841
 20
476.0970009521823
 30
0.0
 11
-1150.324524619026
 21
477.8860396508279
 31
0.0
  0
LINE
  5
31E
330
1F
100
AcDbEntity
  8
0-0_通り芯
  6
Continuous
 62
     4
370
     9
100
AcDbLine
 10
-1150.324524619026
 20
477.8860396508279
 30
0.0
 11
-1147.515067952102
 21
480.3689328397757
 31
0.0
  0
LINE
  5
31F
330
1F
100
AcDbEntity
  8
0-0_通り芯
  6
Continuous
 62
     4
370
     9
100
AcDbLine
 10
-1147.515067952102
 20
480.3689328397757
 30
0.0
 11
-1145.931450612839
 21
484.6420538524599
 31
0.0
  0
LINE
  5
320
330
1F
100
AcDbEntity
  8
0-0_通り芯
  6
Continuous
 62
     4
370
     9
100
AcDbLine
 10
-1145.931450612839
 20
484.6420538524599
 30
0.0
 11
-1147.515067952102
 21
489.8557728117232
 31
0.0
  0
LINE
  5
321
330
1F
100
AcDbEntity
  8
0-0_通り芯
  6
Continuous
 62
     4
370
     9
100
AcDbLine
 10
-1147.515067952102
 20
489.8557728117232
 30
0.0
 11
-1150.324524619026
 21
492.8862581048426
 31
0.0
  0
LINE
  5
322
330
1F
100
AcDbEntity
  8
0-0_通り芯
  6
Continuous
 62
     4
370
     9
100
AcDbLine
 10
-1150.324524619026
 20
492.8862581048426
 30
0.0
 11
-1154.223219868841
 21
495.0700863335318
 31
0.0
  0
LINE
  5
323
330
1F
100
AcDbEntity
  8
0-0_通り芯
  6
Continuous
 62
     4
370
     9
100
AcDbLine
 10
-1154.223219868841
 20
495.0700863335318
 30
0.0
 11
-1160.931520426218
 21
496.3014253647368
 31
0.0
  0
LINE
  5
324
330
1F
100
AcDbEntity
  8
0-0_通り芯
  6
Continuous
 62
     4
370
     9
100
AcDbLine
 10
-1160.931520426218
 20
496.3014253647368
 30
0.0
 11
-1167.639820983593
 21
495.0700863335318
 31
0.0
  0
LINE
  5
325
330
1F
100
AcDbEntity
  8
0-0_通り芯
  6
Continuous
 62
     4
370
     9
100
AcDbLine
 10
-1167.639820983593
 20
495.0700863335318
 30
0.0
 11
-1171.538516233408
 21
492.8862581048426
 31
0.0
  0
LINE
  5
326
330
1F
100
AcDbEntity
  8
0-0_通り芯
  6
Continuous
 62
     4
370
     9
100
AcDbLine
 10
-1171.538516233408
 20
492.8862581048426
 30
0.0
 11
-1174.347972900332
 21
489.8557728117232
 31
0.0
  0
LINE
  5
327
330
1F
100
AcDbEntity
  8
0-0_通り芯
  6
Continuous
 62
     4
370
     9
100
AcDbLine
 10
-1174.347972900332
 20
489.8557728117232
 30
0.0
 11
-1175.93144159896
 21
484.6420538524599
 31
0.0
  0
LINE
  5
328
330
1F
100
AcDbEntity
  8
0-0_通り芯
  6
JWW_CENTER1
 62
     4
370
     9
100
AcDbLine
 10
-1179.53939576415
 20
484.6420538524599
 30
0.0
 11
-1141.481001321035
 21
484.6420538524599
 31
0.0
  0
LINE
  5
329
330
1F
100
AcDbEntity
  8
0-0_通り芯
  6
JWW_CENTER1
 62
     4
370
     9
100
AcDbLine
 10
-1160.931520426218
 20
472.0414898310583
 30
0.0
 11
-1160.931520426218
 21
499.2260785248026
 31
0.0
  0
LINE
  5
32A
330
1F
100
AcDbEntity
  8
Ｐｶﾞｲﾄﾞ
  6
Continuous
 62
     7
370
     9
100
AcDbLine
 10
155.0689066431336
 20
761.6413116508204
 30
0.0
 11
162.0686914883163
 21
761.6413116508204
 31
0.0
  0
LINE
  5
32B
330
1F
100
AcDbEntity
  8
0-6_化粧Ｐ
  6
Continuous
 62
     7
370
     9
100
AcDbLine
 10
141.0684451089502
 20
764.641771535405
 30
0.0
 11
155.0689066431336
 21
764.641771535405
 31
0.0
  0
LINE
  5
32C
330
1F
100
AcDbEntity
  8
0-6_化粧Ｐ
  6
Continuous
 62
     7
370
     9
100
AcDbLine
 10
155.0689066431336
 20
764.641771535405
 30
0.0
 11
155.0689066431336
 21
364.642089907977
 31
0.0
  0
LINE
  5
32D
330
1F
100
AcDbEntity
  8
0-6_化粧Ｐ
  6
Continuous
 62
     7
370
     9
100
AcDbLine
 10
141.0684451089502
 20
364.642089907977
 30
0.0
 11
155.0689066431336
 21
364.642089907977
 31
0.0
  0
LINE
  5
32E
330
1F
100
AcDbEntity
  8
Ｐｶﾞｲﾄﾞ
  6
Continuous
 62
     7
370
     9
100
AcDbLine
 10
155.0689066431336
 20
367.6419552300162
 30
0.0
 11
162.0686914883163
 21
367.6419552300162
 31
0.0
  0
LINE
  5
32F
330
1F
100
AcDbEntity
  8
Ｐｶﾞｲﾄﾞ
  6
Continuous
 62
     7
370
     9
100
AcDbLine
 10
162.0686914883163
 20
367.6419552300162
 30
0.0
 11
162.0686914883163
 21
761.6413116508204
 31
0.0
  0
LINE
  5
330
330
1F
100
AcDbEntity
  8
0-4_寸法
  6
Continuous
 62
     2
370
     9
100
AcDbLine
 10
162.0686914883163
 20
760.6415547309891
 30
0.0
 11
162.0686914883163
 21
564.6416334404182
 31
0.0
  0
LINE
  5
331
330
1F
100
AcDbEntity
  8
0-4_寸法
  6
Continuous
 62
     2
370
     9
100
AcDbLine
 10
162.0686914883163
 20
368.6417121498476
 30
0.0
 11
162.0686914883163
 21
564.6416334404182
 31
0.0
  0
LINE
  5
332
330
1F
100
AcDbEntity
  8
0-0_通り芯
  6
Continuous
 62
     4
370
     9
100
AcDbLine
 10
-1260.931440833074
 20
678.9415262636267
 30
0.0
 11
139.0689312692874
 21
678.9415262636267
 31
0.0
  0
LINE
  5
333
330
1F
100
AcDbEntity
  8
0-3_受枠
  6
Continuous
 62
     4
370
     9
100
AcDbLine
 10
49.97759852069763
 20
559.6413624348982
 30
0.0
 11
28.16012592289066
 21
559.6413624348982
 31
0.0
  0
LINE
  5
334
330
1F
100
AcDbEntity
  8
0-3_受枠
  6
Continuous
 62
     4
370
     9
100
AcDbLine
 10
49.97759852069763
 20
569.6419044459385
 30
0.0
 11
28.16012592289066
 21
569.6419044459385
 31
0.0
  0
LINE
  5
335
330
1F
100
AcDbEntity
  8
0-4_寸法
  6
Continuous
 62
     7
370
     9
100
AcDbLine
 10
115.0162007826276
 20
540.642116301558
 30
0.0
 11
115.0162007826276
 21
588.6417451418238
 31
0.0
  0
LINE
  5
336
330
1F
100
AcDbEntity
  8
0-4_寸法
  6
Continuous
 62
     7
370
     9
100
AcDbLine
 10
68.01632886219274
 20
540.642116301558
 30
0.0
 11
115.0162007826276
 21
540.642116301558
 31
0.0
  0
LINE
  5
337
330
1F
100
AcDbEntity
  8
0-4_寸法
  6
Continuous
 62
     7
370
     9
100
AcDbLine
 10
68.01632886219274
 20
540.642116301558
 30
0.0
 11
68.01632886219274
 21
588.6417451418238
 31
0.0
  0
LINE
  5
338
330
1F
100
AcDbEntity
  8
0-4_寸法
  6
Continuous
 62
     7
370
     9
100
AcDbLine
 10
68.01632886219274
 20
588.6417451418238
 30
0.0
 11
115.0162007826276
 21
588.6417451418238
 31
0.0
  0
LINE
  5
339
330
1F
100
AcDbEntity
  8
0-4_寸法
  6
Continuous
 62
     7
370
     9
100
AcDbLine
 10
57.4161705242722
 20
544.2421925130232
 30
0.0
 11
68.01632886219274
 21
544.2421925130232
 31
0.0
  0
LINE
  5
33A
330
1F
100
AcDbEntity
  8
0-4_寸法
  6
Continuous
 62
     7
370
     9
100
AcDbLine
 10
57.4161705242722
 20
552.2420315593102
 30
0.0
 11
68.01632886219274
 21
552.2420315593102
 31
0.0
  0
LINE
  5
33B
330
1F
100
AcDbEntity
  8
0-4_寸法
  6
Continuous
 62
     7
370
     9
100
AcDbLine
 10
57.4161705242722
 20
585.0416689303586
 30
0.0
 11
68.01632886219274
 21
585.0416689303586
 31
0.0
  0
LINE
  5
33C
330
1F
100
AcDbEntity
  8
0-4_寸法
  6
Continuous
 62
     7
370
     9
100
AcDbLine
 10
57.4161705242722
 20
577.041829884072
 30
0.0
 11
68.01632886219274
 21
577.041829884072
 31
0.0
  0
LINE
  5
33D
330
1F
100
AcDbEntity
  8
0-0_通り芯
  6
JWW_CENTER1
 62
     7
370
     9
100
AcDbLine
 10
39.06886222179413
 20
586.5025091040281
 30
0.0
 11
39.06886222179413
 21
541.9183448049286
 31
0.0
  0
LINE
  5
33E
330
1F
100
AcDbEntity
  8
0-4_寸法
  6
Continuous
 62
     2
370
     9
100
AcDbLine
 10
612.0690022020368
 20
696.5164978198297
 30
0.0
 11
639.0689792254817
 21
643.3819295575455
 31
0.0
  0
LINE
  5
33F
330
1F
100
AcDbEntity
  8
0-4_寸法
  6
Continuous
 62
     2
370
     9
100
AcDbLine
 10
639.0689792254817
 20
659.5100331598921
 30
0.0
 11
639.0689792254817
 21
643.3819295575455
 31
0.0
  0
LINE
  5
340
330
1F
100
AcDbEntity
  8
0-4_寸法
  6
Continuous
 62
     2
370
     9
100
AcDbLine
 10
639.0689792254817
 20
659.5100331598921
 30
0.0
 11
612.0690022020368
 21
706.7367306913383
 31
0.0
  0
LINE
  5
341
330
1F
100
AcDbEntity
  8
0-4_寸法
  6
Continuous
 62
     2
370
     9
100
AcDbLine
 10
612.0690022020368
 20
696.5164978198297
 30
0.0
 11
612.0690022020368
 21
706.7367306913383
 31
0.0
  0
LINE
  5
342
330
1F
100
AcDbEntity
  8
0-4_寸法
  6
Continuous
 62
     2
370
     9
100
AcDbLine
 10
612.0690022020368
 20
741.2516810054219
 30
0.0
 11
612.0690022020368
 21
745.7245750333086
 31
0.0
  0
LINE
  5
343
330
1F
100
AcDbEntity
  8
0-4_寸法
  6
Continuous
 62
     2
370
     9
100
AcDbLine
 10
612.0690022020368
 20
741.2516810054219
 30
0.0
 11
639.0689792254817
 21
706.0630913275746
 31
0.0
  0
LINE
  5
344
330
1F
100
AcDbEntity
  8
0-4_寸法
  6
Continuous
 62
     2
370
     9
100
AcDbLine
 10
639.0689792254817
 20
706.0630913275746
 30
0.0
 11
639.0689792254817
 21
711.6109544372661
 31
0.0
  0
LINE
  5
345
330
1F
100
AcDbEntity
  8
0-4_寸法
  6
Continuous
 62
     2
370
     9
100
AcDbLine
 10
639.0689792254817
 20
711.6109544372661
 30
0.0
 11
612.0690022020368
 21
745.7245750333086
 31
0.0
  0
LINE
  5
346
330
1F
100
AcDbEntity
  8
0-5_文字
  6
Continuous
 62
     2
370
     9
100
AcDbLine
 10
222.0689707418307
 20
572.6414724867051
 30
0.0
 11
242.0688656388203
 21
572.6414724867051
 31
0.0
  0
LINE
  5
347
330
1F
100
AcDbEntity
  8
0-5_文字
  6
Continuous
 62
     2
370
     9
100
AcDbLine
 10
222.0689707418307
 20
574.6415808889129
 30
0.0
 11
222.0689707418307
 21
572.6414724867051
 31
0.0
  0
LINE
  5
348
330
1F
100
AcDbEntity
  8
0-5_文字
  6
Continuous
 62
     2
370
     9
100
AcDbLine
 10
242.0688656388203
 20
574.6415808889129
 30
0.0
 11
242.0688656388203
 21
572.6414724867051
 31
0.0
  0
LINE
  5
349
330
1F
100
AcDbEntity
  8
0-4_寸法
  6
Continuous
 62
     2
370
     9
100
AcDbLine
 10
162.0686914883163
 20
564.6416334404182
 30
0.0
 11
1858.069053928743
 21
564.6416334404182
 31
0.0
  0
LINE
  5
34A
330
1F
100
AcDbEntity
  8
0-4_寸法
  6
Continuous
 62
     2
370
     9
100
AcDbLine
 10
182.068586385306
 20
643.3819295575455
 30
0.0
 11
312.0684977782838
 21
643.3819295575455
 31
0.0
  0
LINE
  5
34B
330
1F
100
AcDbEntity
  8
0-4_寸法
  6
Continuous
 62
     2
370
     9
100
AcDbLine
 10
322.0687425080514
 20
643.3819295575455
 30
0.0
 11
412.0688641070495
 21
643.3819295575455
 31
0.0
  0
LINE
  5
34C
330
1F
100
AcDbEntity
  8
0-4_寸法
  6
Continuous
 62
     2
370
     9
100
AcDbLine
 10
422.0685142742721
 20
643.3819295575455
 30
0.0
 11
512.0686358732706
 21
643.3819295575455
 31
0.0
  0
LINE
  5
34D
330
1F
100
AcDbEntity
  8
0-4_寸法
  6
Continuous
 62
     2
370
     9
100
AcDbLine
 10
522.0688806030385
 20
643.3819295575455
 30
0.0
 11
639.0689792254817
 21
643.3819295575455
 31
0.0
  0
LINE
  5
34E
330
1F
100
AcDbEntity
  8
0-4_寸法
  6
Continuous
 62
     2
370
     9
100
AcDbLine
 10
730.9731873756309
 20
720.5177986463258
 30
0.0
 11
723.164500187641
 21
726.764867309227
 31
0.0
  0
LINE
  5
34F
330
1F
100
AcDbEntity
  8
0-4_寸法
  6
Continuous
 62
     2
370
     9
100
AcDbLine
 10
720.6655538099712
 20
727.6415497821926
 30
0.0
 11
626.3810145099287
 21
727.6415497821926
 31
0.0
  0
LINE
  5
350
330
1F
100
AcDbEntity
  8
0-4_寸法
  6
Continuous
 62
     2
370
     9
100
AcDbLine
 10
722.068721416752
 20
727.3873742940999
 30
0.0
 11
722.068721416752
 21
574.6415808889129
 31
0.0
  0
LINE
  5
351
330
1F
100
AcDbEntity
  8
0-4_寸法
  6
Continuous
 62
     2
370
     9
100
AcDbLine
 10
732.068668865247
 20
719.641413454633
 30
0.0
 11
732.068668865247
 21
574.6415808889129
 31
0.0
  0
LINE
  5
352
330
1F
100
AcDbEntity
  8
0-4_寸法
  6
Continuous
 62
     2
370
     9
100
AcDbLine
 10
1549.165272671201
 20
720.5180959275987
 30
0.0
 11
1556.973662577919
 21
726.764867309227
 31
0.0
  0
LINE
  5
353
330
1F
100
AcDbEntity
  8
0-4_寸法
  6
Continuous
 62
     2
370
     9
100
AcDbLine
 10
1558.069441348808
 20
574.6415808889129
 30
0.0
 11
1558.069441348808
 21
727.3873742940999
 31
0.0
  0
LINE
  5
354
330
1F
100
AcDbEntity
  8
0-4_寸法
  6
Continuous
 62
     2
370
     9
100
AcDbLine
 10
1548.069493900313
 20
574.6415808889129
 30
0.0
 11
1548.069493900313
 21
719.641413454633
 31
0.0
  0
LINE
  5
355
330
1F
100
AcDbEntity
  8
0-4_寸法
  6
Continuous
 62
     7
370
     9
100
AcDbLine
 10
1618.069126039776
 20
706.7364334100657
 30
0.0
 11
1618.069126039776
 21
696.5162005385571
 31
0.0
  0
LINE
  5
356
330
1F
100
AcDbEntity
  8
0-4_寸法
  6
Continuous
 62
     2
370
     9
100
AcDbLine
 10
1546.666326293532
 20
719.641413454633
 30
0.0
 11
733.4718364720277
 21
719.641413454633
 31
0.0
  0
LINE
  5
357
330
1F
100
AcDbEntity
  8
0-4_寸法
  6
Continuous
 62
     2
370
     9
100
AcDbLine
 10
1559.472608955589
 20
727.6415497821926
 30
0.0
 11
1606.134174787778
 21
727.6415497821926
 31
0.0
  0
LINE
  5
358
330
1F
100
AcDbEntity
  8
0-4_寸法
  6
Continuous
 62
     7
370
     9
100
AcDbLine
 10
1807.068965203892
 20
639.0992955441377
 30
0.0
 11
1696.069489069345
 21
639.0992955441377
 31
0.0
  0
LINE
  5
359
330
1F
100
AcDbEntity
  8
0-4_寸法
  6
Continuous
 62
     7
370
     9
100
AcDbLine
 10
1858.069053928743
 20
639.0992955441377
 30
0.0
 11
1815.069398812724
 21
639.0992955441377
 31
0.0
  0
LINE
  5
35A
330
1F
100
AcDbEntity
  8
0-4_寸法
  6
Continuous
 62
     2
370
     9
100
AcDbLine
 10
1821.069426738075
 20
574.6415808889129
 30
0.0
 11
1858.069053928743
 21
574.6415808889129
 31
0.0
  0
LINE
  5
35B
330
1F
100
AcDbEntity
  8
0-4_寸法
  6
Continuous
 62
     2
370
     9
100
AcDbLine
 10
312.0684977782838
 20
747.7240888729715
 30
0.0
 11
312.0684977782838
 21
760.6415547309891
 31
0.0
  0
LINE
  5
35C
330
1F
100
AcDbEntity
  8
0-4_寸法
  6
Continuous
 62
     2
370
     9
100
AcDbLine
 10
322.0687425080514
 20
747.7240888729715
 30
0.0
 11
322.0687425080514
 21
760.6415547309891
 31
0.0
  0
LINE
  5
35D
330
1F
100
AcDbEntity
  8
0-4_寸法
  6
Continuous
 62
     2
370
     9
100
AcDbLine
 10
312.0684977782838
 20
708.7368390935465
 30
0.0
 11
312.0684977782838
 21
739.2515726032138
 31
0.0
  0
LINE
  5
35E
330
1F
100
AcDbEntity
  8
0-4_寸法
  6
Continuous
 62
     2
370
     9
100
AcDbLine
 10
322.0687425080514
 20
708.7368390935465
 30
0.0
 11
322.0687425080514
 21
739.2515726032138
 31
0.0
  0
LINE
  5
35F
330
1F
100
AcDbEntity
  8
0-4_寸法
  6
Continuous
 62
     2
370
     9
100
AcDbLine
 10
322.0687425080514
 20
694.5166866988944
 30
0.0
 11
322.0687425080514
 21
580.6416088142647
 31
0.0
  0
LINE
  5
360
330
1F
100
AcDbEntity
  8
0-4_寸法
  6
Continuous
 62
     2
370
     9
100
AcDbLine
 10
312.0684977782838
 20
694.5166866988944
 30
0.0
 11
312.0684977782838
 21
580.6416088142647
 31
0.0
  0
LINE
  5
361
330
1F
100
AcDbEntity
  8
0-4_寸法
  6
Continuous
 62
     2
370
     9
100
AcDbLine
 10
412.0688641070495
 20
694.5166866988944
 30
0.0
 11
412.0688641070495
 21
580.6416088142647
 31
0.0
  0
LINE
  5
362
330
1F
100
AcDbEntity
  8
0-4_寸法
  6
Continuous
 62
     2
370
     9
100
AcDbLine
 10
410.0687557048417
 20
696.5164978198297
 30
0.0
 11
324.0685536289868
 21
696.5164978198297
 31
0.0
  0
LINE
  5
363
330
1F
100
AcDbEntity
  8
0-4_寸法
  6
Continuous
 62
     2
370
     9
100
AcDbLine
 10
422.0685142742721
 20
694.5166866988944
 30
0.0
 11
422.0685142742721
 21
580.6416088142647
 31
0.0
  0
LINE
  5
364
330
1F
100
AcDbEntity
  8
0-4_寸法
  6
Continuous
 62
     2
370
     9
100
AcDbLine
 10
410.0687557048417
 20
706.7367306913383
 30
0.0
 11
324.0685536289868
 21
706.7367306913383
 31
0.0
  0
LINE
  5
365
330
1F
100
AcDbEntity
  8
0-4_寸法
  6
Continuous
 62
     2
370
     9
100
AcDbLine
 10
410.0687557048417
 20
741.2516810054219
 30
0.0
 11
324.0685536289868
 21
741.2516810054219
 31
0.0
  0
LINE
  5
366
330
1F
100
AcDbEntity
  8
0-4_寸法
  6
Continuous
 62
     2
370
     9
100
AcDbLine
 10
412.0688641070495
 20
739.2515726032138
 30
0.0
 11
412.0688641070495
 21
708.7368390935465
 31
0.0
  0
LINE
  5
367
330
1F
100
AcDbEntity
  8
0-4_寸法
  6
Continuous
 62
     2
370
     9
100
AcDbLine
 10
422.0685142742721
 20
739.2515726032138
 30
0.0
 11
422.0685142742721
 21
708.7368390935465
 31
0.0
  0
LINE
  5
368
330
1F
100
AcDbEntity
  8
0-4_寸法
  6
Continuous
 62
     2
370
     9
100
AcDbLine
 10
422.0685142742721
 20
747.7240888729715
 30
0.0
 11
422.0685142742721
 21
760.6415547309891
 31
0.0
  0
LINE
  5
369
330
1F
100
AcDbEntity
  8
0-4_寸法
  6
Continuous
 62
     2
370
     9
100
AcDbLine
 10
412.0688641070495
 20
747.7240888729715
 30
0.0
 11
412.0688641070495
 21
760.6415547309891
 31
0.0
  0
LINE
  5
36A
330
1F
100
AcDbEntity
  8
0-4_寸法
  6
Continuous
 62
     2
370
     9
100
AcDbLine
 10
410.0687557048417
 20
745.7245750333086
 30
0.0
 11
324.0685536289868
 21
745.7245750333086
 31
0.0
  0
LINE
  5
36B
330
1F
100
AcDbEntity
  8
0-4_寸法
  6
Continuous
 62
     2
370
     9
100
AcDbLine
 10
510.068824752335
 20
741.2516810054219
 30
0.0
 11
424.0686226764799
 21
741.2516810054219
 31
0.0
  0
LINE
  5
36C
330
1F
100
AcDbEntity
  8
0-4_寸法
  6
Continuous
 62
     2
370
     9
100
AcDbLine
 10
524.0686917239734
 20
741.2516810054219
 30
0.0
 11
612.0690022020368
 21
741.2516810054219
 31
0.0
  0
LINE
  5
36D
330
1F
100
AcDbEntity
  8
0-4_寸法
  6
Continuous
 62
     2
370
     9
100
AcDbLine
 10
524.0686917239734
 20
745.7245750333086
 30
0.0
 11
612.0690022020368
 21
745.7245750333086
 31
0.0
  0
LINE
  5
36E
330
1F
100
AcDbEntity
  8
0-4_寸法
  6
Continuous
 62
     2
370
     9
100
AcDbLine
 10
522.0688806030385
 20
747.7240888729715
 30
0.0
 11
522.0688806030385
 21
760.6415547309891
 31
0.0
  0
LINE
  5
36F
330
1F
100
AcDbEntity
  8
0-4_寸法
  6
Continuous
 62
     2
370
     9
100
AcDbLine
 10
512.0686358732706
 20
747.7240888729715
 30
0.0
 11
512.0686358732706
 21
760.6415547309891
 31
0.0
  0
LINE
  5
370
330
1F
100
AcDbEntity
  8
0-4_寸法
  6
Continuous
 62
     2
370
     9
100
AcDbLine
 10
510.068824752335
 20
745.7245750333086
 30
0.0
 11
424.0686226764799
 21
745.7245750333086
 31
0.0
  0
LINE
  5
371
330
1F
100
AcDbEntity
  8
0-4_寸法
  6
Continuous
 62
     2
370
     9
100
AcDbLine
 10
512.0686358732706
 20
694.5166866988944
 30
0.0
 11
512.0686358732706
 21
580.6416088142647
 31
0.0
  0
LINE
  5
372
330
1F
100
AcDbEntity
  8
0-4_寸法
  6
Continuous
 62
     2
370
     9
100
AcDbLine
 10
510.068824752335
 20
696.5164978198297
 30
0.0
 11
424.0686226764799
 21
696.5164978198297
 31
0.0
  0
LINE
  5
373
330
1F
100
AcDbEntity
  8
0-4_寸法
  6
Continuous
 62
     2
370
     9
100
AcDbLine
 10
510.068824752335
 20
706.7367306913383
 30
0.0
 11
424.0686226764799
 21
706.7367306913383
 31
0.0
  0
LINE
  5
374
330
1F
100
AcDbEntity
  8
0-4_寸法
  6
Continuous
 62
     2
370
     9
100
AcDbLine
 10
512.0686358732706
 20
708.7368390935465
 30
0.0
 11
512.0686358732706
 21
739.2515726032138
 31
0.0
  0
LINE
  5
375
330
1F
100
AcDbEntity
  8
0-4_寸法
  6
Continuous
 62
     2
370
     9
100
AcDbLine
 10
522.0688806030385
 20
708.7368390935465
 30
0.0
 11
522.0688806030385
 21
739.2515726032138
 31
0.0
  0
LINE
  5
376
330
1F
100
AcDbEntity
  8
0-4_寸法
  6
Continuous
 62
     2
370
     9
100
AcDbLine
 10
524.0686917239734
 20
706.7367306913383
 30
0.0
 11
612.0690022020368
 21
706.7367306913383
 31
0.0
  0
LINE
  5
377
330
1F
100
AcDbEntity
  8
0-4_寸法
  6
Continuous
 62
     2
370
     9
100
AcDbLine
 10
524.0686917239734
 20
696.5164978198297
 30
0.0
 11
612.0690022020368
 21
696.5164978198297
 31
0.0
  0
LINE
  5
378
330
1F
100
AcDbEntity
  8
0-4_寸法
  6
Continuous
 62
     2
370
     9
100
AcDbLine
 10
522.0688806030385
 20
694.5166866988944
 30
0.0
 11
522.0688806030385
 21
580.6416088142647
 31
0.0
  0
LINE
  5
379
330
1F
100
AcDbEntity
  8
0-4_寸法
  6
Continuous
 62
     2
370
     9
100
AcDbLine
 10
612.4539814500837
 20
706.0630913275746
 30
0.0
 11
639.0689792254817
 21
706.0630913275746
 31
0.0
  0
LINE
  5
37A
330
1F
100
AcDbEntity
  8
0-4_寸法
  6
Continuous
 62
     2
370
     9
100
AcDbLine
 10
1688.069055460513
 20
747.7240888729715
 30
0.0
 11
1688.069055460513
 21
760.6415547309891
 31
0.0
  0
LINE
  5
37B
330
1F
100
AcDbEntity
  8
0-4_寸法
  6
Continuous
 62
     2
370
     9
100
AcDbLine
 10
1696.069489069345
 20
747.7240888729715
 30
0.0
 11
1696.069489069345
 21
760.6415547309891
 31
0.0
  0
LINE
  5
37C
330
1F
100
AcDbEntity
  8
0-4_寸法
  6
Continuous
 62
     7
370
     9
100
AcDbLine
 10
1686.068947058305
 20
706.7364334100657
 30
0.0
 11
1618.069126039776
 21
706.7364334100657
 31
0.0
  0
LINE
  5
37D
330
1F
100
AcDbEntity
  8
0-4_寸法
  6
Continuous
 62
     2
370
     9
100
AcDbLine
 10
1688.069055460513
 20
708.7362445310009
 30
0.0
 11
1688.069055460513
 21
739.2515726032138
 31
0.0
  0
LINE
  5
37E
330
1F
100
AcDbEntity
  8
0-4_寸法
  6
Continuous
 62
     2
370
     9
100
AcDbLine
 10
1696.069489069345
 20
708.7362445310009
 30
0.0
 11
1696.069489069345
 21
739.2515726032138
 31
0.0
  0
LINE
  5
37F
330
1F
100
AcDbEntity
  8
0-4_寸法
  6
Continuous
 62
     2
370
     9
100
AcDbLine
 10
1696.069489069345
 20
694.5163894176219
 30
0.0
 11
1696.069489069345
 21
580.6416088142647
 31
0.0
  0
LINE
  5
380
330
1F
100
AcDbEntity
  8
0-4_寸法
  6
Continuous
 62
     2
370
     9
100
AcDbLine
 10
1688.069055460513
 20
694.5163894176219
 30
0.0
 11
1688.069055460513
 21
580.6416088142647
 31
0.0
  0
LINE
  5
381
330
1F
100
AcDbEntity
  8
0-4_寸法
  6
Continuous
 62
     7
370
     9
100
AcDbLine
 10
1686.068947058305
 20
696.5162005385571
 30
0.0
 11
1618.069126039776
 21
696.5162005385571
 31
0.0
  0
LINE
  5
382
330
1F
100
AcDbEntity
  8
0-4_寸法
  6
Continuous
 62
     7
370
     9
100
AcDbLine
 10
1805.068856801684
 20
696.5162005385571
 30
0.0
 11
1698.069597471553
 21
696.5162005385571
 31
0.0
  0
LINE
  5
383
330
1F
100
AcDbEntity
  8
0-4_寸法
  6
Continuous
 62
     2
370
     9
100
AcDbLine
 10
1807.068965203892
 20
694.5163894176219
 30
0.0
 11
1807.068965203892
 21
580.6416088142647
 31
0.0
  0
LINE
  5
384
330
1F
100
AcDbEntity
  8
0-4_寸法
  6
Continuous
 62
     2
370
     9
100
AcDbLine
 10
1815.069398812724
 20
694.5163894176219
 30
0.0
 11
1815.069398812724
 21
580.6416088142647
 31
0.0
  0
LINE
  5
385
330
1F
100
AcDbEntity
  8
0-4_寸法
  6
Continuous
 62
     7
370
     9
100
AcDbLine
 10
1817.069507214932
 20
696.5162005385571
 30
0.0
 11
1858.069053928743
 21
696.5162005385571
 31
0.0
  0
LINE
  5
386
330
1F
100
AcDbEntity
  8
0-4_寸法
  6
Continuous
 62
     7
370
     9
100
AcDbLine
 10
1817.069507214932
 20
706.7364334100657
 30
0.0
 11
1858.069053928743
 21
706.7364334100657
 31
0.0
  0
LINE
  5
387
330
1F
100
AcDbEntity
  8
0-4_寸法
  6
Continuous
 62
     7
370
     9
100
AcDbLine
 10
1805.068856801684
 20
706.7364334100657
 30
0.0
 11
1698.069597471553
 21
706.7364334100657
 31
0.0
  0
LINE
  5
388
330
1F
100
AcDbEntity
  8
0-4_寸法
  6
Continuous
 62
     4
370
     9
100
AcDbLine
 10
1805.068856801684
 20
741.2516810054219
 30
0.0
 11
1698.069597471553
 21
741.2516810054219
 31
0.0
  0
LINE
  5
389
330
1F
100
AcDbEntity
  8
0-4_寸法
  6
Continuous
 62
     2
370
     9
100
AcDbLine
 10
1807.068965203892
 20
739.2515726032138
 30
0.0
 11
1807.068965203892
 21
708.7362445310009
 31
0.0
  0
LINE
  5
38A
330
1F
100
AcDbEntity
  8
0-4_寸法
  6
Continuous
 62
     2
370
     9
100
AcDbLine
 10
1815.069398812724
 20
739.2515726032138
 30
0.0
 11
1815.069398812724
 21
708.7362445310009
 31
0.0
  0
LINE
  5
38B
330
1F
100
AcDbEntity
  8
0-4_寸法
  6
Continuous
 62
     4
370
     9
100
AcDbLine
 10
1817.069507214932
 20
741.2516810054219
 30
0.0
 11
1858.069053928743
 21
741.2516810054219
 31
0.0
  0
LINE
  5
38C
330
1F
100
AcDbEntity
  8
0-4_寸法
  6
Continuous
 62
     4
370
     9
100
AcDbLine
 10
1817.069507214932
 20
745.7245750333086
 30
0.0
 11
1858.069053928743
 21
745.7245750333086
 31
0.0
  0
LINE
  5
38D
330
1F
100
AcDbEntity
  8
0-4_寸法
  6
Continuous
 62
     2
370
     9
100
AcDbLine
 10
1815.069398812724
 20
747.7240888729715
 30
0.0
 11
1815.069398812724
 21
760.6415547309891
 31
0.0
  0
LINE
  5
38E
330
1F
100
AcDbEntity
  8
0-4_寸法
  6
Continuous
 62
     2
370
     9
100
AcDbLine
 10
1807.068965203892
 20
747.7240888729715
 30
0.0
 11
1807.068965203892
 21
760.6415547309891
 31
0.0
  0
LINE
  5
38F
330
1F
100
AcDbEntity
  8
0-4_寸法
  6
Continuous
 62
     4
370
     9
100
AcDbLine
 10
1805.068856801684
 20
745.7245750333086
 30
0.0
 11
1698.069597471553
 21
745.7245750333086
 31
0.0
  0
LINE
  5
390
330
1F
100
AcDbEntity
  8
0-4_寸法
  6
Continuous
 62
     2
370
     9
100
AcDbLine
 10
182.068586385306
 20
694.5166866988944
 30
0.0
 11
182.068586385306
 21
580.6416088142647
 31
0.0
  0
LINE
  5
391
330
1F
100
AcDbEntity
  8
0-4_寸法
  6
Continuous
 62
     2
370
     9
100
AcDbLine
 10
184.0686947875141
 20
696.5164978198297
 30
0.0
 11
310.0686866573484
 21
696.5164978198297
 31
0.0
  0
LINE
  5
392
330
1F
100
AcDbEntity
  8
0-4_寸法
  6
Continuous
 62
     2
370
     9
100
AcDbLine
 10
184.0686947875141
 20
706.7367306913383
 30
0.0
 11
310.0686866573484
 21
706.7367306913383
 31
0.0
  0
LINE
  5
393
330
1F
100
AcDbEntity
  8
0-4_寸法
  6
Continuous
 62
     2
370
     9
100
AcDbLine
 10
182.068586385306
 20
739.2515726032138
 30
0.0
 11
182.068586385306
 21
708.7368390935465
 31
0.0
  0
LINE
  5
394
330
1F
100
AcDbEntity
  8
0-4_寸法
  6
Continuous
 62
     2
370
     9
100
AcDbLine
 10
184.0686947875141
 20
741.2516810054219
 30
0.0
 11
310.0686866573484
 21
741.2516810054219
 31
0.0
  0
LINE
  5
395
330
1F
100
AcDbEntity
  8
0-4_寸法
  6
Continuous
 62
     2
370
     9
100
AcDbLine
 10
184.0686947875141
 20
745.7245750333086
 30
0.0
 11
310.0686866573484
 21
745.7245750333086
 31
0.0
  0
LINE
  5
396
330
1F
100
AcDbEntity
  8
0-4_寸法
  6
Continuous
 62
     2
370
     9
100
AcDbLine
 10
182.068586385306
 20
747.7240888729715
 30
0.0
 11
182.068586385306
 21
760.6415547309891
 31
0.0
  0
LINE
  5
397
330
1F
100
AcDbEntity
  8
0-4_寸法
  6
Continuous
 62
     2
370
     9
100
AcDbLine
 10
1858.069053928743
 20
758.641446328781
 30
0.0
 11
1858.069053928743
 21
564.6416334404182
 31
0.0
  0
LINE
  5
398
330
1F
100
AcDbEntity
  8
0-4_寸法
  6
Continuous
 62
     2
370
     9
100
AcDbLine
 10
164.0687998905245
 20
760.6415547309891
 30
0.0
 11
1856.068945526534
 21
760.6415547309891
 31
0.0
  0
LINE
  5
399
330
1F
100
AcDbEntity
  8
0-4_寸法
  6
Continuous
 62
     2
370
     9
100
AcDbLine
 10
162.0686914883163
 20
758.641446328781
 30
0.0
 11
162.0686914883163
 21
564.6416334404182
 31
0.0
  0
LINE
  5
39A
330
1F
100
AcDbEntity
  8
0-4_寸法
  6
Continuous
 62
     4
370
     9
100
AcDbLine
 10
1686.068947058305
 20
741.2516810054219
 30
0.0
 11
1618.069126039776
 21
741.2516810054219
 31
0.0
  0
LINE
  5
39B
330
1F
100
AcDbEntity
  8
0-4_寸法
  6
Continuous
 62
     4
370
     9
100
AcDbLine
 10
1686.068947058305
 20
745.7245750333086
 30
0.0
 11
1618.069126039776
 21
745.7245750333086
 31
0.0
  0
LINE
  5
39C
330
1F
100
AcDbEntity
  8
0-4_寸法
  6
Continuous
 62
     4
370
     9
100
AcDbLine
 10
1618.069126039776
 20
745.7245750333086
 30
0.0
 11
1618.069126039776
 21
741.2510864428765
 31
0.0
  0
LINE
  5
39D
330
1F
100
AcDbEntity
  8
0-4_寸法
  6
Continuous
 62
     7
370
     9
100
AcDbLine
 10
1599.4839927192
 20
667.4367410131138
 30
0.0
 11
1618.069126039776
 21
706.7364334100657
 31
0.0
  0
LINE
  5
39E
330
1F
100
AcDbEntity
  8
0-4_寸法
  6
Continuous
 62
     7
370
     9
100
AcDbLine
 10
1599.205142885479
 20
651.3862278229215
 30
0.0
 11
1618.069126039776
 21
696.5162005385571
 31
0.0
  0
LINE
  5
39F
330
1F
100
AcDbEntity
  8
0-4_寸法
  6
Continuous
 62
     7
370
     9
100
AcDbLine
 10
1580.752597012493
 20
639.0992955441377
 30
0.0
 11
1581.403642999538
 21
655.9866555167637
 31
0.0
  0
LINE
  5
3A0
330
1F
100
AcDbEntity
  8
0-4_寸法
  6
Continuous
 62
     7
370
     9
100
AcDbLine
 10
1688.069055460513
 20
639.0992955441377
 30
0.0
 11
1580.752597012493
 21
639.0992955441377
 31
0.0
  0
LINE
  5
3A1
330
1F
100
AcDbEntity
  8
0-4_寸法
  6
Continuous
 62
     4
370
     9
100
AcDbLine
 10
1599.998289320838
 20
718.3449698247239
 30
0.0
 11
1618.069126039776
 21
745.7245750333086
 31
0.0
  0
LINE
  5
3A2
330
1F
100
AcDbEntity
  8
0-4_寸法
  6
Continuous
 62
     4
370
     9
100
AcDbLine
 10
1599.968561193576
 20
712.9487201640699
 30
0.0
 11
1618.069126039776
 21
741.2510864428765
 31
0.0
  0
LINE
  5
3A3
330
1F
100
AcDbEntity
  8
0-4_寸法
  6
Continuous
 62
     4
370
     9
100
AcDbLine
 10
1583.306243144325
 20
709.3620216098727
 30
0.0
 11
1583.119550505118
 21
703.7243795558487
 31
0.0
  0
LINE
  5
3A4
330
1F
100
AcDbEntity
  8
0-4_寸法
  6
Continuous
 62
     4
370
     9
100
AcDbLine
 10
1616.64485146264
 20
703.7243795558487
 30
0.0
 11
1583.119550505118
 21
703.7243795558487
 31
0.0
  0
LINE
  5
3A5
330
1F
100
AcDbEntity
  8
ｱﾝｶｰ
  6
Continuous
 62
     6
370
     5
100
AcDbLine
 10
222.5692951236552
 20
576.9157826244794
 30
0.0
 11
222.5692951236552
 21
572.6414724867051
 31
0.0
  0
LINE
  5
3A6
330
1F
100
AcDbEntity
  8
ｱﾝｶｰ
  6
Continuous
 62
     6
370
     5
100
AcDbLine
 10
241.5691358195409
 20
576.9157826244794
 30
0.0
 11
241.5691358195409
 21
572.6414724867051
 31
0.0
  0
LINE
  5
3A7
330
1F
100
AcDbEntity
  8
ｱﾝｶｰ
  6
Continuous
 62
     6
370
     5
100
AcDbLine
 10
231.0777824274001
 20
580.011075235031
 30
0.0
 11
231.0777824274001
 21
579.2072266738583
 31
0.0
  0
LINE
  5
3A8
330
1F
100
AcDbEntity
  8
ｱﾝｶｰ
  6
Continuous
 62
     6
370
     5
100
AcDbLine
 10
233.060648515796
 20
579.2072266738583
 30
0.0
 11
231.0777824274001
 21
579.2072266738583
 31
0.0
  0
LINE
  5
3A9
330
1F
100
AcDbEntity
  8
ｱﾝｶｰ
  6
Continuous
 62
     6
370
     5
100
AcDbLine
 10
233.060648515796
 20
580.011075235031
 30
0.0
 11
233.060648515796
 21
579.2072266738583
 31
0.0
  0
LINE
  5
3AA
330
1F
100
AcDbEntity
  8
ｱﾝｶｰ
  6
Continuous
 62
     6
370
     5
100
AcDbLine
 10
222.5692951236552
 20
572.6414724867051
 30
0.0
 11
241.5691358195409
 21
572.6414724867051
 31
0.0
  0
LINE
  5
3AB
330
1F
100
AcDbEntity
  8
0-4_寸法
  6
Continuous
 62
     2
370
     9
100
AcDbLine
 10
612.0690022020368
 20
432.7664717797341
 30
0.0
 11
639.0689792254817
 21
485.9013373232912
 31
0.0
  0
LINE
  5
3AC
330
1F
100
AcDbEntity
  8
0-4_寸法
  6
Continuous
 62
     2
370
     9
100
AcDbLine
 10
639.0689792254817
 20
469.7732337209442
 30
0.0
 11
639.0689792254817
 21
485.9013373232912
 31
0.0
  0
LINE
  5
3AD
330
1F
100
AcDbEntity
  8
0-4_寸法
  6
Continuous
 62
     2
370
     9
100
AcDbLine
 10
639.0689792254817
 20
469.7732337209442
 30
0.0
 11
612.0690022020368
 21
422.5465361894985
 31
0.0
  0
LINE
  5
3AE
330
1F
100
AcDbEntity
  8
0-4_寸法
  6
Continuous
 62
     2
370
     9
100
AcDbLine
 10
612.0690022020368
 20
432.7664717797341
 30
0.0
 11
612.0690022020368
 21
422.5465361894985
 31
0.0
  0
LINE
  5
3AF
330
1F
100
AcDbEntity
  8
0-4_寸法
  6
Continuous
 62
     2
370
     9
100
AcDbLine
 10
612.0690022020368
 20
388.0318831566872
 30
0.0
 11
612.0690022020368
 21
383.5589891288005
 31
0.0
  0
LINE
  5
3B0
330
1F
100
AcDbEntity
  8
0-4_寸法
  6
Continuous
 62
     2
370
     9
100
AcDbLine
 10
612.0690022020368
 20
388.0318831566872
 30
0.0
 11
639.0689792254817
 21
423.2201755532622
 31
0.0
  0
LINE
  5
3B1
330
1F
100
AcDbEntity
  8
0-4_寸法
  6
Continuous
 62
     2
370
     9
100
AcDbLine
 10
639.0689792254817
 20
423.2201755532622
 30
0.0
 11
639.0689792254817
 21
417.6723124435705
 31
0.0
  0
LINE
  5
3B2
330
1F
100
AcDbEntity
  8
0-4_寸法
  6
Continuous
 62
     2
370
     9
100
AcDbLine
 10
639.0689792254817
 20
417.6723124435705
 30
0.0
 11
612.0690022020368
 21
383.5589891288005
 31
0.0
  0
LINE
  5
3B3
330
1F
100
AcDbEntity
  8
0-4_寸法
  6
Continuous
 62
     2
370
     9
100
AcDbLine
 10
162.0686914883163
 20
564.6416334404182
 30
0.0
 11
1858.069053928743
 21
564.6416334404182
 31
0.0
  0
LINE
  5
3B4
330
1F
100
AcDbEntity
  8
0-4_寸法
  6
Continuous
 62
     2
370
     9
100
AcDbLine
 10
182.068586385306
 20
485.9013373232912
 30
0.0
 11
312.0684977782838
 21
485.9013373232912
 31
0.0
  0
LINE
  5
3B5
330
1F
100
AcDbEntity
  8
0-4_寸法
  6
Continuous
 62
     2
370
     9
100
AcDbLine
 10
322.0687425080514
 20
485.9013373232912
 30
0.0
 11
412.0688641070495
 21
485.9013373232912
 31
0.0
  0
LINE
  5
3B6
330
1F
100
AcDbEntity
  8
0-4_寸法
  6
Continuous
 62
     2
370
     9
100
AcDbLine
 10
422.0685142742721
 20
485.9013373232912
 30
0.0
 11
512.0686358732706
 21
485.9013373232912
 31
0.0
  0
LINE
  5
3B7
330
1F
100
AcDbEntity
  8
0-4_寸法
  6
Continuous
 62
     2
370
     9
100
AcDbLine
 10
522.0688806030385
 20
485.9013373232912
 30
0.0
 11
639.0689792254817
 21
485.9013373232912
 31
0.0
  0
LINE
  5
3B8
330
1F
100
AcDbEntity
  8
0-4_寸法
  6
Continuous
 62
     2
370
     9
100
AcDbLine
 10
730.9731873756309
 20
408.7654682345108
 30
0.0
 11
723.164500187641
 21
402.5183995716095
 31
0.0
  0
LINE
  5
3B9
330
1F
100
AcDbEntity
  8
0-4_寸法
  6
Continuous
 62
     2
370
     9
100
AcDbLine
 10
720.6655538099712
 20
401.6417170986442
 30
0.0
 11
626.3810145099287
 21
401.6417170986442
 31
0.0
  0
LINE
  5
3BA
330
1F
100
AcDbEntity
  8
0-4_寸法
  6
Continuous
 62
     2
370
     9
100
AcDbLine
 10
722.068721416752
 20
401.8958925867367
 30
0.0
 11
722.068721416752
 21
554.6416859919234
 31
0.0
  0
LINE
  5
3BB
330
1F
100
AcDbEntity
  8
0-4_寸法
  6
Continuous
 62
     2
370
     9
100
AcDbLine
 10
732.068668865247
 20
409.6418534262034
 30
0.0
 11
732.068668865247
 21
554.6416859919234
 31
0.0
  0
LINE
  5
3BC
330
1F
100
AcDbEntity
  8
0-4_寸法
  6
Continuous
 62
     2
370
     9
100
AcDbLine
 10
1549.165272671201
 20
408.7651709532379
 30
0.0
 11
1556.973662577919
 21
402.5183995716095
 31
0.0
  0
LINE
  5
3BD
330
1F
100
AcDbEntity
  8
0-4_寸法
  6
Continuous
 62
     2
370
     9
100
AcDbLine
 10
1558.069441348808
 20
554.6416859919234
 30
0.0
 11
1558.069441348808
 21
401.8958925867367
 31
0.0
  0
LINE
  5
3BE
330
1F
100
AcDbEntity
  8
0-4_寸法
  6
Continuous
 62
     2
370
     9
100
AcDbLine
 10
1548.069493900313
 20
554.6416859919234
 30
0.0
 11
1548.069493900313
 21
409.6418534262034
 31
0.0
  0
LINE
  5
3BF
330
1F
100
AcDbEntity
  8
0-4_寸法
  6
Continuous
 62
     7
370
     9
100
AcDbLine
 10
1618.069126039776
 20
422.546833470771
 30
0.0
 11
1618.069126039776
 21
432.7670663422795
 31
0.0
  0
LINE
  5
3C0
330
1F
100
AcDbEntity
  8
0-4_寸法
  6
Continuous
 62
     2
370
     9
100
AcDbLine
 10
1546.666326293532
 20
409.6418534262034
 30
0.0
 11
733.4718364720277
 21
409.6418534262034
 31
0.0
  0
LINE
  5
3C1
330
1F
100
AcDbEntity
  8
0-4_寸法
  6
Continuous
 62
     2
370
     9
100
AcDbLine
 10
1559.472608955589
 20
401.6417170986442
 30
0.0
 11
1606.134174787778
 21
401.6417170986442
 31
0.0
  0
LINE
  5
3C2
330
1F
100
AcDbEntity
  8
0-4_寸法
  6
Continuous
 62
     7
370
     9
100
AcDbLine
 10
1807.068965203892
 20
490.183971336699
 30
0.0
 11
1696.069489069345
 21
490.183971336699
 31
0.0
  0
LINE
  5
3C3
330
1F
100
AcDbEntity
  8
0-4_寸法
  6
Continuous
 62
     7
370
     9
100
AcDbLine
 10
1858.069053928743
 20
490.183971336699
 30
0.0
 11
1815.069398812724
 21
490.183971336699
 31
0.0
  0
LINE
  5
3C4
330
1F
100
AcDbEntity
  8
0-4_寸法
  6
Continuous
 62
     2
370
     9
100
AcDbLine
 10
1821.069426738075
 20
554.6416859919234
 30
0.0
 11
1858.069053928743
 21
554.6416859919234
 31
0.0
  0
LINE
  5
3C5
330
1F
100
AcDbEntity
  8
0-4_寸法
  6
Continuous
 62
     2
370
     9
100
AcDbLine
 10
312.0684977782838
 20
381.5588807265926
 30
0.0
 11
312.0684977782838
 21
368.6417121498476
 31
0.0
  0
LINE
  5
3C6
330
1F
100
AcDbEntity
  8
0-4_寸法
  6
Continuous
 62
     2
370
     9
100
AcDbLine
 10
322.0687425080514
 20
381.5588807265926
 30
0.0
 11
322.0687425080514
 21
368.6417121498476
 31
0.0
  0
LINE
  5
3C7
330
1F
100
AcDbEntity
  8
0-4_寸法
  6
Continuous
 62
     2
370
     9
100
AcDbLine
 10
312.0684977782838
 20
420.5464277872903
 30
0.0
 11
312.0684977782838
 21
390.0316942776226
 31
0.0
  0
LINE
  5
3C8
330
1F
100
AcDbEntity
  8
0-4_寸法
  6
Continuous
 62
     2
370
     9
100
AcDbLine
 10
322.0687425080514
 20
420.5464277872903
 30
0.0
 11
322.0687425080514
 21
390.0316942776226
 31
0.0
  0
LINE
  5
3C9
330
1F
100
AcDbEntity
  8
0-4_寸法
  6
Continuous
 62
     2
370
     9
100
AcDbLine
 10
322.0687425080514
 20
434.7665801819423
 30
0.0
 11
322.0687425080514
 21
548.641658066572
 31
0.0
  0
LINE
  5
3CA
330
1F
100
AcDbEntity
  8
0-4_寸法
  6
Continuous
 62
     2
370
     9
100
AcDbLine
 10
312.0684977782838
 20
434.7665801819423
 30
0.0
 11
312.0684977782838
 21
548.641658066572
 31
0.0
  0
LINE
  5
3CB
330
1F
100
AcDbEntity
  8
0-4_寸法
  6
Continuous
 62
     2
370
     9
100
AcDbLine
 10
412.0688641070495
 20
434.7665801819423
 30
0.0
 11
412.0688641070495
 21
548.641658066572
 31
0.0
  0
LINE
  5
3CC
330
1F
100
AcDbEntity
  8
0-4_寸法
  6
Continuous
 62
     2
370
     9
100
AcDbLine
 10
410.0687557048417
 20
432.7664717797341
 30
0.0
 11
324.0685536289868
 21
432.7664717797341
 31
0.0
  0
LINE
  5
3CD
330
1F
100
AcDbEntity
  8
0-4_寸法
  6
Continuous
 62
     2
370
     9
100
AcDbLine
 10
422.0685142742721
 20
434.7665801819423
 30
0.0
 11
422.0685142742721
 21
548.641658066572
 31
0.0
  0
LINE
  5
3CE
330
1F
100
AcDbEntity
  8
0-4_寸法
  6
Continuous
 62
     2
370
     9
100
AcDbLine
 10
410.0687557048417
 20
422.5465361894985
 30
0.0
 11
324.0685536289868
 21
422.5465361894985
 31
0.0
  0
LINE
  5
3CF
330
1F
100
AcDbEntity
  8
0-4_寸法
  6
Continuous
 62
     2
370
     9
100
AcDbLine
 10
410.0687557048417
 20
388.0318831566872
 30
0.0
 11
324.0685536289868
 21
388.0318831566872
 31
0.0
  0
LINE
  5
3D0
330
1F
100
AcDbEntity
  8
0-4_寸法
  6
Continuous
 62
     2
370
     9
100
AcDbLine
 10
412.0688641070495
 20
390.0316942776226
 30
0.0
 11
412.0688641070495
 21
420.5464277872903
 31
0.0
  0
LINE
  5
3D1
330
1F
100
AcDbEntity
  8
0-4_寸法
  6
Continuous
 62
     2
370
     9
100
AcDbLine
 10
422.0685142742721
 20
390.0316942776226
 30
0.0
 11
422.0685142742721
 21
420.5464277872903
 31
0.0
  0
LINE
  5
3D2
330
1F
100
AcDbEntity
  8
0-4_寸法
  6
Continuous
 62
     2
370
     9
100
AcDbLine
 10
422.0685142742721
 20
381.5588807265926
 30
0.0
 11
422.0685142742721
 21
368.6417121498476
 31
0.0
  0
LINE
  5
3D3
330
1F
100
AcDbEntity
  8
0-4_寸法
  6
Continuous
 62
     2
370
     9
100
AcDbLine
 10
412.0688641070495
 20
381.5588807265926
 30
0.0
 11
412.0688641070495
 21
368.6417121498476
 31
0.0
  0
LINE
  5
3D4
330
1F
100
AcDbEntity
  8
0-4_寸法
  6
Continuous
 62
     2
370
     9
100
AcDbLine
 10
410.0687557048417
 20
383.5589891288005
 30
0.0
 11
324.0685536289868
 21
383.5589891288005
 31
0.0
  0
LINE
  5
3D5
330
1F
100
AcDbEntity
  8
0-4_寸法
  6
Continuous
 62
     2
370
     9
100
AcDbLine
 10
510.068824752335
 20
388.0318831566872
 30
0.0
 11
424.0686226764799
 21
388.0318831566872
 31
0.0
  0
LINE
  5
3D6
330
1F
100
AcDbEntity
  8
0-4_寸法
  6
Continuous
 62
     2
370
     9
100
AcDbLine
 10
524.0686917239734
 20
388.0318831566872
 30
0.0
 11
612.0690022020368
 21
388.0318831566872
 31
0.0
  0
LINE
  5
3D7
330
1F
100
AcDbEntity
  8
0-4_寸法
  6
Continuous
 62
     2
370
     9
100
AcDbLine
 10
524.0686917239734
 20
383.5589891288005
 30
0.0
 11
612.0690022020368
 21
383.5589891288005
 31
0.0
  0
LINE
  5
3D8
330
1F
100
AcDbEntity
  8
0-4_寸法
  6
Continuous
 62
     2
370
     9
100
AcDbLine
 10
522.0688806030385
 20
381.5588807265926
 30
0.0
 11
522.0688806030385
 21
368.6417121498476
 31
0.0
  0
LINE
  5
3D9
330
1F
100
AcDbEntity
  8
0-4_寸法
  6
Continuous
 62
     2
370
     9
100
AcDbLine
 10
512.0686358732706
 20
381.5588807265926
 30
0.0
 11
512.0686358732706
 21
368.6417121498476
 31
0.0
  0
LINE
  5
3DA
330
1F
100
AcDbEntity
  8
0-4_寸法
  6
Continuous
 62
     2
370
     9
100
AcDbLine
 10
510.068824752335
 20
383.5589891288005
 30
0.0
 11
424.0686226764799
 21
383.5589891288005
 31
0.0
  0
LINE
  5
3DB
330
1F
100
AcDbEntity
  8
0-4_寸法
  6
Continuous
 62
     2
370
     9
100
AcDbLine
 10
512.0686358732706
 20
434.7665801819423
 30
0.0
 11
512.0686358732706
 21
548.641658066572
 31
0.0
  0
LINE
  5
3DC
330
1F
100
AcDbEntity
  8
0-4_寸法
  6
Continuous
 62
     2
370
     9
100
AcDbLine
 10
510.068824752335
 20
432.7664717797341
 30
0.0
 11
424.0686226764799
 21
432.7664717797341
 31
0.0
  0
LINE
  5
3DD
330
1F
100
AcDbEntity
  8
0-4_寸法
  6
Continuous
 62
     2
370
     9
100
AcDbLine
 10
510.068824752335
 20
422.5465361894985
 30
0.0
 11
424.0686226764799
 21
422.5465361894985
 31
0.0
  0
LINE
  5
3DE
330
1F
100
AcDbEntity
  8
0-4_寸法
  6
Continuous
 62
     2
370
     9
100
AcDbLine
 10
512.0686358732706
 20
420.5464277872903
 30
0.0
 11
512.0686358732706
 21
390.0316942776226
 31
0.0
  0
LINE
  5
3DF
330
1F
100
AcDbEntity
  8
0-4_寸法
  6
Continuous
 62
     2
370
     9
100
AcDbLine
 10
522.0688806030385
 20
420.5464277872903
 30
0.0
 11
522.0688806030385
 21
390.0316942776226
 31
0.0
  0
LINE
  5
3E0
330
1F
100
AcDbEntity
  8
0-4_寸法
  6
Continuous
 62
     2
370
     9
100
AcDbLine
 10
524.0686917239734
 20
422.5465361894985
 30
0.0
 11
612.0690022020368
 21
422.5465361894985
 31
0.0
  0
LINE
  5
3E1
330
1F
100
AcDbEntity
  8
0-4_寸法
  6
Continuous
 62
     2
370
     9
100
AcDbLine
 10
524.0686917239734
 20
432.7664717797341
 30
0.0
 11
612.0690022020368
 21
432.7664717797341
 31
0.0
  0
LINE
  5
3E2
330
1F
100
AcDbEntity
  8
0-4_寸法
  6
Continuous
 62
     2
370
     9
100
AcDbLine
 10
522.0688806030385
 20
434.7665801819423
 30
0.0
 11
522.0688806030385
 21
548.641658066572
 31
0.0
  0
LINE
  5
3E3
330
1F
100
AcDbEntity
  8
0-4_寸法
  6
Continuous
 62
     2
370
     9
100
AcDbLine
 10
612.4539814500837
 20
423.2201755532622
 30
0.0
 11
639.0689792254817
 21
423.2201755532622
 31
0.0
  0
LINE
  5
3E4
330
1F
100
AcDbEntity
  8
0-4_寸法
  6
Continuous
 62
     2
370
     9
100
AcDbLine
 10
1688.069055460513
 20
381.5588807265926
 30
0.0
 11
1688.069055460513
 21
368.6417121498476
 31
0.0
  0
LINE
  5
3E5
330
1F
100
AcDbEntity
  8
0-4_寸法
  6
Continuous
 62
     2
370
     9
100
AcDbLine
 10
1696.069489069345
 20
381.5588807265926
 30
0.0
 11
1696.069489069345
 21
368.6417121498476
 31
0.0
  0
LINE
  5
3E6
330
1F
100
AcDbEntity
  8
0-4_寸法
  6
Continuous
 62
     7
370
     9
100
AcDbLine
 10
1686.068947058305
 20
422.546833470771
 30
0.0
 11
1618.069126039776
 21
422.546833470771
 31
0.0
  0
LINE
  5
3E7
330
1F
100
AcDbEntity
  8
0-4_寸法
  6
Continuous
 62
     2
370
     9
100
AcDbLine
 10
1688.069055460513
 20
420.5470223498356
 30
0.0
 11
1688.069055460513
 21
390.0316942776226
 31
0.0
  0
LINE
  5
3E8
330
1F
100
AcDbEntity
  8
0-4_寸法
  6
Continuous
 62
     2
370
     9
100
AcDbLine
 10
1696.069489069345
 20
420.5470223498356
 30
0.0
 11
1696.069489069345
 21
390.0316942776226
 31
0.0
  0
LINE
  5
3E9
330
1F
100
AcDbEntity
  8
0-4_寸法
  6
Continuous
 62
     2
370
     9
100
AcDbLine
 10
1696.069489069345
 20
434.7668774632148
 30
0.0
 11
1696.069489069345
 21
548.641658066572
 31
0.0
  0
LINE
  5
3EA
330
1F
100
AcDbEntity
  8
0-4_寸法
  6
Continuous
 62
     2
370
     9
100
AcDbLine
 10
1688.069055460513
 20
434.7668774632148
 30
0.0
 11
1688.069055460513
 21
548.641658066572
 31
0.0
  0
LINE
  5
3EB
330
1F
100
AcDbEntity
  8
0-4_寸法
  6
Continuous
 62
     7
370
     9
100
AcDbLine
 10
1686.068947058305
 20
432.7670663422795
 30
0.0
 11
1618.069126039776
 21
432.7670663422795
 31
0.0
  0
LINE
  5
3EC
330
1F
100
AcDbEntity
  8
0-4_寸法
  6
Continuous
 62
     7
370
     9
100
AcDbLine
 10
1805.068856801684
 20
432.7670663422795
 30
0.0
 11
1698.069597471553
 21
432.7670663422795
 31
0.0
  0
LINE
  5
3ED
330
1F
100
AcDbEntity
  8
0-4_寸法
  6
Continuous
 62
     2
370
     9
100
AcDbLine
 10
1807.068965203892
 20
434.7668774632148
 30
0.0
 11
1807.068965203892
 21
548.641658066572
 31
0.0
  0
LINE
  5
3EE
330
1F
100
AcDbEntity
  8
0-4_寸法
  6
Continuous
 62
     2
370
     9
100
AcDbLine
 10
1815.069398812724
 20
434.7668774632148
 30
0.0
 11
1815.069398812724
 21
548.641658066572
 31
0.0
  0
LINE
  5
3EF
330
1F
100
AcDbEntity
  8
0-4_寸法
  6
Continuous
 62
     7
370
     9
100
AcDbLine
 10
1817.069507214932
 20
432.7670663422795
 30
0.0
 11
1858.069053928743
 21
432.7670663422795
 31
0.0
  0
LINE
  5
3F0
330
1F
100
AcDbEntity
  8
0-4_寸法
  6
Continuous
 62
     7
370
     9
100
AcDbLine
 10
1817.069507214932
 20
422.546833470771
 30
0.0
 11
1858.069053928743
 21
422.546833470771
 31
0.0
  0
LINE
  5
3F1
330
1F
100
AcDbEntity
  8
0-4_寸法
  6
Continuous
 62
     7
370
     9
100
AcDbLine
 10
1805.068856801684
 20
422.546833470771
 30
0.0
 11
1698.069597471553
 21
422.546833470771
 31
0.0
  0
LINE
  5
3F2
330
1F
100
AcDbEntity
  8
0-4_寸法
  6
Continuous
 62
     4
370
     9
100
AcDbLine
 10
1805.068856801684
 20
388.0318831566872
 30
0.0
 11
1698.069597471553
 21
388.0318831566872
 31
0.0
  0
LINE
  5
3F3
330
1F
100
AcDbEntity
  8
0-4_寸法
  6
Continuous
 62
     2
370
     9
100
AcDbLine
 10
1807.068965203892
 20
390.0316942776226
 30
0.0
 11
1807.068965203892
 21
420.5470223498356
 31
0.0
  0
LINE
  5
3F4
330
1F
100
AcDbEntity
  8
0-4_寸法
  6
Continuous
 62
     2
370
     9
100
AcDbLine
 10
1815.069398812724
 20
390.0316942776226
 30
0.0
 11
1815.069398812724
 21
420.5470223498356
 31
0.0
  0
LINE
  5
3F5
330
1F
100
AcDbEntity
  8
0-4_寸法
  6
Continuous
 62
     4
370
     9
100
AcDbLine
 10
1817.069507214932
 20
388.0318831566872
 30
0.0
 11
1858.069053928743
 21
388.0318831566872
 31
0.0
  0
LINE
  5
3F6
330
1F
100
AcDbEntity
  8
0-4_寸法
  6
Continuous
 62
     4
370
     9
100
AcDbLine
 10
1817.069507214932
 20
383.5589891288005
 30
0.0
 11
1858.069053928743
 21
383.5589891288005
 31
0.0
  0
LINE
  5
3F7
330
1F
100
AcDbEntity
  8
0-4_寸法
  6
Continuous
 62
     2
370
     9
100
AcDbLine
 10
1815.069398812724
 20
381.5588807265926
 30
0.0
 11
1815.069398812724
 21
368.6417121498476
 31
0.0
  0
LINE
  5
3F8
330
1F
100
AcDbEntity
  8
0-4_寸法
  6
Continuous
 62
     2
370
     9
100
AcDbLine
 10
1807.068965203892
 20
381.5588807265926
 30
0.0
 11
1807.068965203892
 21
368.6417121498476
 31
0.0
  0
LINE
  5
3F9
330
1F
100
AcDbEntity
  8
0-4_寸法
  6
Continuous
 62
     4
370
     9
100
AcDbLine
 10
1805.068856801684
 20
383.5589891288005
 30
0.0
 11
1698.069597471553
 21
383.5589891288005
 31
0.0
  0
LINE
  5
3FA
330
1F
100
AcDbEntity
  8
0-4_寸法
  6
Continuous
 62
     2
370
     9
100
AcDbLine
 10
182.068586385306
 20
434.7665801819423
 30
0.0
 11
182.068586385306
 21
548.641658066572
 31
0.0
  0
LINE
  5
3FB
330
1F
100
AcDbEntity
  8
0-4_寸法
  6
Continuous
 62
     2
370
     9
100
AcDbLine
 10
184.0686947875141
 20
432.7664717797341
 30
0.0
 11
310.0686866573484
 21
432.7664717797341
 31
0.0
  0
LINE
  5
3FC
330
1F
100
AcDbEntity
  8
0-4_寸法
  6
Continuous
 62
     2
370
     9
100
AcDbLine
 10
184.0686947875141
 20
422.5465361894985
 30
0.0
 11
310.0686866573484
 21
422.5465361894985
 31
0.0
  0
LINE
  5
3FD
330
1F
100
AcDbEntity
  8
0-4_寸法
  6
Continuous
 62
     2
370
     9
100
AcDbLine
 10
182.068586385306
 20
390.0316942776226
 30
0.0
 11
182.068586385306
 21
420.5464277872903
 31
0.0
  0
LINE
  5
3FE
330
1F
100
AcDbEntity
  8
0-4_寸法
  6
Continuous
 62
     2
370
     9
100
AcDbLine
 10
184.0686947875141
 20
388.0318831566872
 30
0.0
 11
310.0686866573484
 21
388.0318831566872
 31
0.0
  0
LINE
  5
3FF
330
1F
100
AcDbEntity
  8
0-4_寸法
  6
Continuous
 62
     2
370
     9
100
AcDbLine
 10
184.0686947875141
 20
383.5589891288005
 30
0.0
 11
310.0686866573484
 21
383.5589891288005
 31
0.0
  0
LINE
  5
400
330
1F
100
AcDbEntity
  8
0-4_寸法
  6
Continuous
 62
     2
370
     9
100
AcDbLine
 10
182.068586385306
 20
381.5588807265926
 30
0.0
 11
182.068586385306
 21
368.6417121498476
 31
0.0
  0
LINE
  5
401
330
1F
100
AcDbEntity
  8
0-4_寸法
  6
Continuous
 62
     2
370
     9
100
AcDbLine
 10
1858.069053928743
 20
370.6418205520558
 30
0.0
 11
1858.069053928743
 21
564.6416334404182
 31
0.0
  0
LINE
  5
402
330
1F
100
AcDbEntity
  8
0-4_寸法
  6
Continuous
 62
     2
370
     9
100
AcDbLine
 10
164.0687998905245
 20
368.6417121498476
 30
0.0
 11
1856.068945526534
 21
368.6417121498476
 31
0.0
  0
LINE
  5
403
330
1F
100
AcDbEntity
  8
0-4_寸法
  6
Continuous
 62
     2
370
     9
100
AcDbLine
 10
162.0686914883163
 20
370.6418205520558
 30
0.0
 11
162.0686914883163
 21
564.6416334404182
 31
0.0
  0
LINE
  5
404
330
1F
100
AcDbEntity
  8
0-4_寸法
  6
Continuous
 62
     4
370
     9
100
AcDbLine
 10
1686.068947058305
 20
388.0318831566872
 30
0.0
 11
1618.069126039776
 21
388.0318831566872
 31
0.0
  0
LINE
  5
405
330
1F
100
AcDbEntity
  8
0-4_寸法
  6
Continuous
 62
     4
370
     9
100
AcDbLine
 10
1686.068947058305
 20
383.5589891288005
 30
0.0
 11
1618.069126039776
 21
383.5589891288005
 31
0.0
  0
LINE
  5
406
330
1F
100
AcDbEntity
  8
0-4_寸法
  6
Continuous
 62
     4
370
     9
100
AcDbLine
 10
1618.069126039776
 20
383.5589891288005
 30
0.0
 11
1618.069126039776
 21
388.0321804379601
 31
0.0
  0
LINE
  5
407
330
1F
100
AcDbEntity
  8
0-4_寸法
  6
Continuous
 62
     7
370
     9
100
AcDbLine
 10
1599.4839927192
 20
461.846525867723
 30
0.0
 11
1618.069126039776
 21
422.546833470771
 31
0.0
  0
LINE
  5
408
330
1F
100
AcDbEntity
  8
0-4_寸法
  6
Continuous
 62
     7
370
     9
100
AcDbLine
 10
1599.205142885479
 20
477.8970390579151
 30
0.0
 11
1618.069126039776
 21
432.7670663422795
 31
0.0
  0
LINE
  5
409
330
1F
100
AcDbEntity
  8
0-4_寸法
  6
Continuous
 62
     7
370
     9
100
AcDbLine
 10
1580.752597012493
 20
490.183971336699
 30
0.0
 11
1581.403642999538
 21
473.296611364073
 31
0.0
  0
LINE
  5
40A
330
1F
100
AcDbEntity
  8
0-4_寸法
  6
Continuous
 62
     7
370
     9
100
AcDbLine
 10
1688.069055460513
 20
490.183971336699
 30
0.0
 11
1580.752597012493
 21
490.183971336699
 31
0.0
  0
LINE
  5
40B
330
1F
100
AcDbEntity
  8
0-4_寸法
  6
Continuous
 62
     4
370
     9
100
AcDbLine
 10
1599.998289320838
 20
410.9382970561127
 30
0.0
 11
1618.069126039776
 21
383.5589891288005
 31
0.0
  0
LINE
  5
40C
330
1F
100
AcDbEntity
  8
0-4_寸法
  6
Continuous
 62
     4
370
     9
100
AcDbLine
 10
1599.968561193576
 20
416.3345467167665
 30
0.0
 11
1618.069126039776
 21
388.0321804379601
 31
0.0
  0
LINE
  5
40D
330
1F
100
AcDbEntity
  8
0-4_寸法
  6
Continuous
 62
     4
370
     9
100
AcDbLine
 10
1583.306243144325
 20
419.9212452709639
 30
0.0
 11
1583.119550505118
 21
425.558887324988
 31
0.0
  0
LINE
  5
40E
330
1F
100
AcDbEntity
  8
0-4_寸法
  6
Continuous
 62
     4
370
     9
100
AcDbLine
 10
1616.64485146264
 20
425.558887324988
 30
0.0
 11
1583.119550505118
 21
425.558887324988
 31
0.0
  0
LINE
  5
40F
330
1F
100
AcDbEntity
  8
0-4_寸法
  6
Continuous
 62
     2
370
     9
100
AcDbLine
 10
217.0692942988558
 20
554.6416859919234
 30
0.0
 11
188.0686143106576
 21
554.6416859919234
 31
0.0
  0
LINE
  5
410
330
1F
100
AcDbEntity
  8
0-4_寸法
  6
Continuous
 62
     2
370
     9
100
AcDbLine
 10
218.0693484999597
 20
551.6415233886116
 30
0.0
 11
218.0693484999597
 21
553.6416317908195
 31
0.0
  0
LINE
  5
411
330
1F
100
AcDbEntity
  8
0-4_寸法
  6
Continuous
 62
     2
370
     9
100
AcDbLine
 10
245.069028242132
 20
550.6414691875074
 30
0.0
 11
219.0694027010636
 21
550.6414691875074
 31
0.0
  0
LINE
  5
412
330
1F
100
AcDbEntity
  8
0-4_寸法
  6
Continuous
 62
     2
370
     9
100
AcDbLine
 10
246.0690824432363
 20
553.6416317908195
 30
0.0
 11
246.0690824432363
 21
551.6415233886116
 31
0.0
  0
LINE
  5
413
330
1F
100
AcDbEntity
  8
0-4_寸法
  6
Continuous
 62
     2
370
     9
100
AcDbLine
 10
247.0691366443403
 20
554.6416859919234
 30
0.0
 11
306.0687671342049
 21
554.6416859919234
 31
0.0
  0
LINE
  5
414
330
1F
100
AcDbEntity
  8
0-4_寸法
  6
Continuous
 62
     2
370
     9
100
AcDbLine
 10
306.0687671342049
 20
574.6415808889129
 30
0.0
 11
241.5691358195409
 21
574.6415808889129
 31
0.0
  0
LINE
  5
415
330
1F
100
AcDbEntity
  8
0-4_寸法
  6
Continuous
 62
     2
370
     9
100
AcDbLine
 10
222.5692951236552
 20
574.6415808889129
 30
0.0
 11
188.0686143106576
 21
574.6415808889129
 31
0.0
  0
LINE
  5
416
330
1F
100
AcDbEntity
  8
0-5_文字
  6
JWW_CENTER1
 62
     2
370
     9
100
AcDbLine
 10
232.069215471598
 20
585.8247078024477
 30
0.0
 11
232.069215471598
 21
543.1306578346857
 31
0.0
  0
LINE
  5
417
330
1F
100
AcDbEntity
  8
0-5_文字
  6
Continuous
 62
     2
370
     9
100
AcDbLine
 10
360.0690184623676
 20
572.6414724867051
 30
0.0
 11
380.0689133593572
 21
572.6414724867051
 31
0.0
  0
LINE
  5
418
330
1F
100
AcDbEntity
  8
0-5_文字
  6
Continuous
 62
     2
370
     9
100
AcDbLine
 10
360.0690184623676
 20
574.6415808889129
 30
0.0
 11
360.0690184623676
 21
572.6414724867051
 31
0.0
  0
LINE
  5
419
330
1F
100
AcDbEntity
  8
0-5_文字
  6
Continuous
 62
     2
370
     9
100
AcDbLine
 10
380.0689133593572
 20
574.6415808889129
 30
0.0
 11
380.0689133593572
 21
572.6414724867051
 31
0.0
  0
LINE
  5
41A
330
1F
100
AcDbEntity
  8
ｱﾝｶｰ
  6
Continuous
 62
     6
370
     5
100
AcDbLine
 10
360.5693428441924
 20
576.9157826244794
 30
0.0
 11
360.5693428441924
 21
572.6414724867051
 31
0.0
  0
LINE
  5
41B
330
1F
100
AcDbEntity
  8
ｱﾝｶｰ
  6
Continuous
 62
     6
370
     5
100
AcDbLine
 10
379.5691835400781
 20
576.9157826244794
 30
0.0
 11
379.5691835400781
 21
572.6414724867051
 31
0.0
  0
LINE
  5
41C
330
1F
100
AcDbEntity
  8
ｱﾝｶｰ
  6
Continuous
 62
     6
370
     5
100
AcDbLine
 10
369.0778301479373
 20
580.011075235031
 30
0.0
 11
369.0778301479373
 21
579.2072266738583
 31
0.0
  0
LINE
  5
41D
330
1F
100
AcDbEntity
  8
ｱﾝｶｰ
  6
Continuous
 62
     6
370
     5
100
AcDbLine
 10
371.0603989550604
 20
579.2072266738583
 30
0.0
 11
369.0778301479373
 21
579.2072266738583
 31
0.0
  0
LINE
  5
41E
330
1F
100
AcDbEntity
  8
ｱﾝｶｰ
  6
Continuous
 62
     6
370
     5
100
AcDbLine
 10
371.0603989550604
 20
580.011075235031
 30
0.0
 11
371.0603989550604
 21
579.2072266738583
 31
0.0
  0
LINE
  5
41F
330
1F
100
AcDbEntity
  8
ｱﾝｶｰ
  6
Continuous
 62
     6
370
     5
100
AcDbLine
 10
360.5693428441924
 20
572.6414724867051
 30
0.0
 11
379.5691835400781
 21
572.6414724867051
 31
0.0
  0
LINE
  5
420
330
1F
100
AcDbEntity
  8
0-4_寸法
  6
Continuous
 62
     2
370
     9
100
AcDbLine
 10
356.0690989392241
 20
551.6415233886116
 30
0.0
 11
356.0690989392241
 21
553.6416317908195
 31
0.0
  0
LINE
  5
421
330
1F
100
AcDbEntity
  8
0-4_寸法
  6
Continuous
 62
     2
370
     9
100
AcDbLine
 10
383.0693732439419
 20
550.6414691875074
 30
0.0
 11
357.0691531403287
 21
550.6414691875074
 31
0.0
  0
LINE
  5
422
330
1F
100
AcDbEntity
  8
0-4_寸法
  6
Continuous
 62
     2
370
     9
100
AcDbLine
 10
384.0691301637736
 20
553.6416317908195
 30
0.0
 11
384.0691301637736
 21
551.6415233886116
 31
0.0
  0
LINE
  5
423
330
1F
100
AcDbEntity
  8
0-5_文字
  6
JWW_CENTER1
 62
     2
370
     9
100
AcDbLine
 10
370.0692631921353
 20
585.8247078024477
 30
0.0
 11
370.0692631921353
 21
543.1306578346857
 31
0.0
  0
LINE
  5
424
330
1F
100
AcDbEntity
  8
0-5_文字
  6
Continuous
 62
     2
370
     9
100
AcDbLine
 10
460.0693847911338
 20
572.6414724867051
 30
0.0
 11
480.0689824068505
 21
572.6414724867051
 31
0.0
  0
LINE
  5
425
330
1F
100
AcDbEntity
  8
0-5_文字
  6
Continuous
 62
     2
370
     9
100
AcDbLine
 10
460.0693847911338
 20
574.6415808889129
 30
0.0
 11
460.0693847911338
 21
572.6414724867051
 31
0.0
  0
LINE
  5
426
330
1F
100
AcDbEntity
  8
0-5_文字
  6
Continuous
 62
     2
370
     9
100
AcDbLine
 10
480.0689824068505
 20
574.6415808889129
 30
0.0
 11
480.0689824068505
 21
572.6414724867051
 31
0.0
  0
LINE
  5
427
330
1F
100
AcDbEntity
  8
ｱﾝｶｰ
  6
Continuous
 62
     6
370
     5
100
AcDbLine
 10
460.5694118916857
 20
576.9157826244794
 30
0.0
 11
460.5694118916857
 21
572.6414724867051
 31
0.0
  0
LINE
  5
428
330
1F
100
AcDbEntity
  8
ｱﾝｶｰ
  6
Continuous
 62
     6
370
     5
100
AcDbLine
 10
479.5692525875714
 20
576.9157826244794
 30
0.0
 11
479.5692525875714
 21
572.6414724867051
 31
0.0
  0
LINE
  5
429
330
1F
100
AcDbEntity
  8
ｱﾝｶｰ
  6
Continuous
 62
     6
370
     5
100
AcDbLine
 10
469.0778991954306
 20
580.011075235031
 30
0.0
 11
469.0778991954306
 21
579.2072266738583
 31
0.0
  0
LINE
  5
42A
330
1F
100
AcDbEntity
  8
ｱﾝｶｰ
  6
Continuous
 62
     6
370
     5
100
AcDbLine
 10
471.0604680025537
 20
579.2072266738583
 30
0.0
 11
469.0778991954306
 21
579.2072266738583
 31
0.0
  0
LINE
  5
42B
330
1F
100
AcDbEntity
  8
ｱﾝｶｰ
  6
Continuous
 62
     6
370
     5
100
AcDbLine
 10
471.0604680025537
 20
580.011075235031
 30
0.0
 11
471.0604680025537
 21
579.2072266738583
 31
0.0
  0
LINE
  5
42C
330
1F
100
AcDbEntity
  8
ｱﾝｶｰ
  6
Continuous
 62
     6
370
     5
100
AcDbLine
 10
460.5694118916857
 20
572.6414724867051
 30
0.0
 11
479.5692525875714
 21
572.6414724867051
 31
0.0
  0
LINE
  5
42D
330
1F
100
AcDbEntity
  8
0-4_寸法
  6
Continuous
 62
     2
370
     9
100
AcDbLine
 10
456.0691679867173
 20
551.6415233886116
 30
0.0
 11
456.0691679867173
 21
553.6416317908195
 31
0.0
  0
LINE
  5
42E
330
1F
100
AcDbEntity
  8
0-4_寸法
  6
Continuous
 62
     2
370
     9
100
AcDbLine
 10
483.069145010163
 20
550.6414691875074
 30
0.0
 11
457.069222187822
 21
550.6414691875074
 31
0.0
  0
LINE
  5
42F
330
1F
100
AcDbEntity
  8
0-4_寸法
  6
Continuous
 62
     2
370
     9
100
AcDbLine
 10
484.0691992112669
 20
553.6416317908195
 30
0.0
 11
484.0691992112669
 21
551.6415233886116
 31
0.0
  0
LINE
  5
430
330
1F
100
AcDbEntity
  8
0-5_文字
  6
JWW_CENTER1
 62
     2
370
     9
100
AcDbLine
 10
470.0693322396286
 20
585.8247078024477
 30
0.0
 11
470.0693322396286
 21
543.1306578346857
 31
0.0
  0
LINE
  5
431
330
1F
100
AcDbEntity
  8
0-5_文字
  6
Continuous
 62
     2
370
     9
100
AcDbLine
 10
560.068859276082
 20
572.6414724867051
 30
0.0
 11
580.0687541730715
 21
572.6414724867051
 31
0.0
  0
LINE
  5
432
330
1F
100
AcDbEntity
  8
0-5_文字
  6
Continuous
 62
     2
370
     9
100
AcDbLine
 10
560.068859276082
 20
574.6415808889129
 30
0.0
 11
560.068859276082
 21
572.6414724867051
 31
0.0
  0
LINE
  5
433
330
1F
100
AcDbEntity
  8
0-5_文字
  6
Continuous
 62
     2
370
     9
100
AcDbLine
 10
580.0687541730715
 20
574.6415808889129
 30
0.0
 11
580.0687541730715
 21
572.6414724867051
 31
0.0
  0
LINE
  5
434
330
1F
100
AcDbEntity
  8
ｱﾝｶｰ
  6
Continuous
 62
     6
370
     5
100
AcDbLine
 10
560.5691836579068
 20
576.9157826244794
 30
0.0
 11
560.5691836579068
 21
572.6414724867051
 31
0.0
  0
LINE
  5
435
330
1F
100
AcDbEntity
  8
ｱﾝｶｰ
  6
Continuous
 62
     6
370
     5
100
AcDbLine
 10
579.569024353792
 20
576.9157826244794
 30
0.0
 11
579.569024353792
 21
572.6414724867051
 31
0.0
  0
LINE
  5
436
330
1F
100
AcDbEntity
  8
ｱﾝｶｰ
  6
Continuous
 62
     6
370
     5
100
AcDbLine
 10
569.077670961651
 20
580.011075235031
 30
0.0
 11
569.077670961651
 21
579.2072266738583
 31
0.0
  0
LINE
  5
437
330
1F
100
AcDbEntity
  8
ｱﾝｶｰ
  6
Continuous
 62
     6
370
     5
100
AcDbLine
 10
571.060537050047
 20
579.2072266738583
 30
0.0
 11
569.077670961651
 21
579.2072266738583
 31
0.0
  0
LINE
  5
438
330
1F
100
AcDbEntity
  8
ｱﾝｶｰ
  6
Continuous
 62
     6
370
     5
100
AcDbLine
 10
571.060537050047
 20
580.011075235031
 30
0.0
 11
571.060537050047
 21
579.2072266738583
 31
0.0
  0
LINE
  5
439
330
1F
100
AcDbEntity
  8
ｱﾝｶｰ
  6
Continuous
 62
     6
370
     5
100
AcDbLine
 10
560.5691836579068
 20
572.6414724867051
 30
0.0
 11
579.569024353792
 21
572.6414724867051
 31
0.0
  0
LINE
  5
43A
330
1F
100
AcDbEntity
  8
0-4_寸法
  6
Continuous
 62
     2
370
     9
100
AcDbLine
 10
556.0692370342113
 20
551.6415233886116
 30
0.0
 11
556.0692370342113
 21
553.6416317908195
 31
0.0
  0
LINE
  5
43B
330
1F
100
AcDbEntity
  8
0-4_寸法
  6
Continuous
 62
     2
370
     9
100
AcDbLine
 10
583.0689167763833
 20
550.6414691875074
 30
0.0
 11
557.0692912353152
 21
550.6414691875074
 31
0.0
  0
LINE
  5
43C
330
1F
100
AcDbEntity
  8
0-4_寸法
  6
Continuous
 62
     2
370
     9
100
AcDbLine
 10
584.0689709774872
 20
553.6416317908195
 30
0.0
 11
584.0689709774872
 21
551.6415233886116
 31
0.0
  0
LINE
  5
43D
330
1F
100
AcDbEntity
  8
0-5_文字
  6
JWW_CENTER1
 62
     2
370
     9
100
AcDbLine
 10
570.069104005849
 20
585.8247078024477
 30
0.0
 11
570.069104005849
 21
543.1306578346857
 31
0.0
  0
LINE
  5
43E
330
1F
100
AcDbEntity
  8
0-5_文字
  6
Continuous
 62
     2
370
     9
100
AcDbLine
 10
660.0689283235752
 20
572.6414724867051
 30
0.0
 11
680.068823220565
 21
572.6414724867051
 31
0.0
  0
LINE
  5
43F
330
1F
100
AcDbEntity
  8
0-5_文字
  6
Continuous
 62
     2
370
     9
100
AcDbLine
 10
660.0689283235752
 20
574.6415808889129
 30
0.0
 11
660.0689283235752
 21
572.6414724867051
 31
0.0
  0
LINE
  5
440
330
1F
100
AcDbEntity
  8
0-5_文字
  6
Continuous
 62
     2
370
     9
100
AcDbLine
 10
680.068823220565
 20
574.6415808889129
 30
0.0
 11
680.068823220565
 21
572.6414724867051
 31
0.0
  0
LINE
  5
441
330
1F
100
AcDbEntity
  8
ｱﾝｶｰ
  6
Continuous
 62
     6
370
     5
100
AcDbLine
 10
660.5692527054
 20
576.9157826244794
 30
0.0
 11
660.5692527054
 21
572.6414724867051
 31
0.0
  0
LINE
  5
442
330
1F
100
AcDbEntity
  8
ｱﾝｶｰ
  6
Continuous
 62
     6
370
     5
100
AcDbLine
 10
679.5690934012852
 20
576.9157826244794
 30
0.0
 11
679.5690934012852
 21
572.6414724867051
 31
0.0
  0
LINE
  5
443
330
1F
100
AcDbEntity
  8
ｱﾝｶｰ
  6
Continuous
 62
     6
370
     5
100
AcDbLine
 10
669.0780372904171
 20
580.011075235031
 30
0.0
 11
669.0780372904171
 21
579.2072266738583
 31
0.0
  0
LINE
  5
444
330
1F
100
AcDbEntity
  8
ｱﾝｶｰ
  6
Continuous
 62
     6
370
     5
100
AcDbLine
 10
671.0606060975409
 20
579.2072266738583
 30
0.0
 11
669.0780372904171
 21
579.2072266738583
 31
0.0
  0
LINE
  5
445
330
1F
100
AcDbEntity
  8
ｱﾝｶｰ
  6
Continuous
 62
     6
370
     5
100
AcDbLine
 10
671.0606060975409
 20
580.011075235031
 30
0.0
 11
671.0606060975409
 21
579.2072266738583
 31
0.0
  0
LINE
  5
446
330
1F
100
AcDbEntity
  8
ｱﾝｶｰ
  6
Continuous
 62
     6
370
     5
100
AcDbLine
 10
660.5692527054
 20
572.6414724867051
 30
0.0
 11
679.5690934012852
 21
572.6414724867051
 31
0.0
  0
LINE
  5
447
330
1F
100
AcDbEntity
  8
0-4_寸法
  6
Continuous
 62
     2
370
     9
100
AcDbLine
 10
656.0693060817048
 20
551.6415233886116
 30
0.0
 11
656.0693060817048
 21
553.6416317908195
 31
0.0
  0
LINE
  5
448
330
1F
100
AcDbEntity
  8
0-4_寸法
  6
Continuous
 62
     2
370
     9
100
AcDbLine
 10
683.0689858238768
 20
550.6414691875074
 30
0.0
 11
657.0693602828087
 21
550.6414691875074
 31
0.0
  0
LINE
  5
449
330
1F
100
AcDbEntity
  8
0-4_寸法
  6
Continuous
 62
     2
370
     9
100
AcDbLine
 10
684.0690400249807
 20
553.6416317908195
 30
0.0
 11
684.0690400249807
 21
551.6415233886116
 31
0.0
  0
LINE
  5
44A
330
1F
100
AcDbEntity
  8
0-5_文字
  6
JWW_CENTER1
 62
     2
370
     9
100
AcDbLine
 10
670.069173053343
 20
585.8247078024477
 30
0.0
 11
670.069173053343
 21
543.1306578346857
 31
0.0
  0
LINE
  5
44B
330
1F
100
AcDbEntity
  8
0-5_文字
  6
Continuous
 62
     2
370
     9
100
AcDbLine
 10
862.0691748207698
 20
572.6414724867051
 30
0.0
 11
882.0690697177594
 21
572.6414724867051
 31
0.0
  0
LINE
  5
44C
330
1F
100
AcDbEntity
  8
0-5_文字
  6
Continuous
 62
     2
370
     9
100
AcDbLine
 10
862.0691748207698
 20
574.6415808889129
 30
0.0
 11
862.0691748207698
 21
572.6414724867051
 31
0.0
  0
LINE
  5
44D
330
1F
100
AcDbEntity
  8
0-5_文字
  6
Continuous
 62
     2
370
     9
100
AcDbLine
 10
882.0690697177594
 20
574.6415808889129
 30
0.0
 11
882.0690697177594
 21
572.6414724867051
 31
0.0
  0
LINE
  5
44E
330
1F
100
AcDbEntity
  8
ｱﾝｶｰ
  6
Continuous
 62
     6
370
     5
100
AcDbLine
 10
862.5692019213218
 20
576.9157826244794
 30
0.0
 11
862.5692019213218
 21
572.6414724867051
 31
0.0
  0
LINE
  5
44F
330
1F
100
AcDbEntity
  8
ｱﾝｶｰ
  6
Continuous
 62
     6
370
     5
100
AcDbLine
 10
881.5690426172074
 20
576.9157826244794
 30
0.0
 11
881.5690426172074
 21
572.6414724867051
 31
0.0
  0
LINE
  5
450
330
1F
100
AcDbEntity
  8
ｱﾝｶｰ
  6
Continuous
 62
     6
370
     5
100
AcDbLine
 10
871.0779865063396
 20
580.011075235031
 30
0.0
 11
871.0779865063396
 21
579.2072266738583
 31
0.0
  0
LINE
  5
451
330
1F
100
AcDbEntity
  8
ｱﾝｶｰ
  6
Continuous
 62
     6
370
     5
100
AcDbLine
 10
873.0605553134626
 20
579.2072266738583
 30
0.0
 11
871.0779865063396
 21
579.2072266738583
 31
0.0
  0
LINE
  5
452
330
1F
100
AcDbEntity
  8
ｱﾝｶｰ
  6
Continuous
 62
     6
370
     5
100
AcDbLine
 10
873.0605553134626
 20
580.011075235031
 30
0.0
 11
873.0605553134626
 21
579.2072266738583
 31
0.0
  0
LINE
  5
453
330
1F
100
AcDbEntity
  8
ｱﾝｶｰ
  6
Continuous
 62
     6
370
     5
100
AcDbLine
 10
862.5692019213218
 20
572.6414724867051
 30
0.0
 11
881.5690426172074
 21
572.6414724867051
 31
0.0
  0
LINE
  5
454
330
1F
100
AcDbEntity
  8
0-4_寸法
  6
Continuous
 62
     2
370
     9
100
AcDbLine
 10
858.0692552976262
 20
551.6415233886116
 30
0.0
 11
858.0692552976262
 21
553.6416317908195
 31
0.0
  0
LINE
  5
455
330
1F
100
AcDbEntity
  8
0-4_寸法
  6
Continuous
 62
     2
370
     9
100
AcDbLine
 10
885.0692323210719
 20
550.6414691875074
 30
0.0
 11
859.069309498731
 21
550.6414691875074
 31
0.0
  0
LINE
  5
456
330
1F
100
AcDbEntity
  8
0-4_寸法
  6
Continuous
 62
     2
370
     9
100
AcDbLine
 10
886.0692865221758
 20
553.6416317908195
 30
0.0
 11
886.0692865221758
 21
551.6415233886116
 31
0.0
  0
LINE
  5
457
330
1F
100
AcDbEntity
  8
0-5_文字
  6
JWW_CENTER1
 62
     2
370
     9
100
AcDbLine
 10
872.0691222692644
 20
585.8247078024477
 30
0.0
 11
872.0691222692644
 21
543.1306578346857
 31
0.0
  0
LINE
  5
458
330
1F
100
AcDbEntity
  8
0-5_文字
  6
Continuous
 62
     2
370
     9
100
AcDbLine
 10
1164.069490365458
 20
572.6414724867051
 30
0.0
 11
1184.069385262448
 21
572.6414724867051
 31
0.0
  0
LINE
  5
459
330
1F
100
AcDbEntity
  8
0-5_文字
  6
Continuous
 62
     2
370
     9
100
AcDbLine
 10
1164.069490365458
 20
574.6415808889129
 30
0.0
 11
1164.069490365458
 21
572.6414724867051
 31
0.0
  0
LINE
  5
45A
330
1F
100
AcDbEntity
  8
0-5_文字
  6
Continuous
 62
     2
370
     9
100
AcDbLine
 10
1184.069385262448
 20
574.6415808889129
 30
0.0
 11
1184.069385262448
 21
572.6414724867051
 31
0.0
  0
LINE
  5
45B
330
1F
100
AcDbEntity
  8
ｱﾝｶｰ
  6
Continuous
 62
     6
370
     5
100
AcDbLine
 10
1164.56951746601
 20
576.9157826244794
 30
0.0
 11
1164.56951746601
 21
572.6414724867051
 31
0.0
  0
LINE
  5
45C
330
1F
100
AcDbEntity
  8
ｱﾝｶｰ
  6
Continuous
 62
     6
370
     5
100
AcDbLine
 10
1183.569358161896
 20
576.9157826244794
 30
0.0
 11
1183.569358161896
 21
572.6414724867051
 31
0.0
  0
LINE
  5
45D
330
1F
100
AcDbEntity
  8
ｱﾝｶｰ
  6
Continuous
 62
     6
370
     5
100
AcDbLine
 10
1173.078302051028
 20
580.011075235031
 30
0.0
 11
1173.078302051028
 21
579.2072266738583
 31
0.0
  0
LINE
  5
45E
330
1F
100
AcDbEntity
  8
ｱﾝｶｰ
  6
Continuous
 62
     6
370
     5
100
AcDbLine
 10
1175.060573576878
 20
579.2072266738583
 30
0.0
 11
1173.078302051028
 21
579.2072266738583
 31
0.0
  0
LINE
  5
45F
330
1F
100
AcDbEntity
  8
ｱﾝｶｰ
  6
Continuous
 62
     6
370
     5
100
AcDbLine
 10
1175.060573576878
 20
580.011075235031
 30
0.0
 11
1175.060573576878
 21
579.2072266738583
 31
0.0
  0
LINE
  5
460
330
1F
100
AcDbEntity
  8
ｱﾝｶｰ
  6
Continuous
 62
     6
370
     5
100
AcDbLine
 10
1164.56951746601
 20
572.6414724867051
 30
0.0
 11
1183.569358161896
 21
572.6414724867051
 31
0.0
  0
LINE
  5
461
330
1F
100
AcDbEntity
  8
0-4_寸法
  6
Continuous
 62
     2
370
     9
100
AcDbLine
 10
1160.069273561042
 20
551.6415233886116
 30
0.0
 11
1160.069273561042
 21
553.6416317908195
 31
0.0
  0
LINE
  5
462
330
1F
100
AcDbEntity
  8
0-4_寸法
  6
Continuous
 62
     2
370
     9
100
AcDbLine
 10
1187.06954786576
 20
550.6414691875074
 30
0.0
 11
1161.069327762146
 21
550.6414691875074
 31
0.0
  0
LINE
  5
463
330
1F
100
AcDbEntity
  8
0-4_寸法
  6
Continuous
 62
     2
370
     9
100
AcDbLine
 10
1188.069602066864
 20
553.6416317908195
 30
0.0
 11
1188.069602066864
 21
551.6415233886116
 31
0.0
  0
LINE
  5
464
330
1F
100
AcDbEntity
  8
0-5_文字
  6
JWW_CENTER1
 62
     2
370
     9
100
AcDbLine
 10
1174.069437813953
 20
585.8247078024477
 30
0.0
 11
1174.069437813953
 21
543.1306578346857
 31
0.0
  0
LINE
  5
465
330
1F
100
AcDbEntity
  8
0-5_文字
  6
Continuous
 62
     2
370
     9
100
AcDbLine
 10
1466.069211347601
 20
572.6414724867051
 30
0.0
 11
1486.069106244591
 21
572.6414724867051
 31
0.0
  0
LINE
  5
466
330
1F
100
AcDbEntity
  8
0-5_文字
  6
Continuous
 62
     2
370
     9
100
AcDbLine
 10
1466.069211347601
 20
574.6415808889129
 30
0.0
 11
1466.069211347601
 21
572.6414724867051
 31
0.0
  0
LINE
  5
467
330
1F
100
AcDbEntity
  8
0-5_文字
  6
Continuous
 62
     2
370
     9
100
AcDbLine
 10
1486.069106244591
 20
574.6415808889129
 30
0.0
 11
1486.069106244591
 21
572.6414724867051
 31
0.0
  0
LINE
  5
468
330
1F
100
AcDbEntity
  8
ｱﾝｶｰ
  6
Continuous
 62
     6
370
     5
100
AcDbLine
 10
1466.569238448153
 20
576.9157826244794
 30
0.0
 11
1466.569238448153
 21
572.6414724867051
 31
0.0
  0
LINE
  5
469
330
1F
100
AcDbEntity
  8
ｱﾝｶｰ
  6
Continuous
 62
     6
370
     5
100
AcDbLine
 10
1485.569079144039
 20
576.9157826244794
 30
0.0
 11
1485.569079144039
 21
572.6414724867051
 31
0.0
  0
LINE
  5
46A
330
1F
100
AcDbEntity
  8
ｱﾝｶｰ
  6
Continuous
 62
     6
370
     5
100
AcDbLine
 10
1475.078023033171
 20
580.011075235031
 30
0.0
 11
1475.078023033171
 21
579.2072266738583
 31
0.0
  0
LINE
  5
46B
330
1F
100
AcDbEntity
  8
ｱﾝｶｰ
  6
Continuous
 62
     6
370
     5
100
AcDbLine
 10
1477.060294559021
 20
579.2072266738583
 30
0.0
 11
1475.078023033171
 21
579.2072266738583
 31
0.0
  0
LINE
  5
46C
330
1F
100
AcDbEntity
  8
ｱﾝｶｰ
  6
Continuous
 62
     6
370
     5
100
AcDbLine
 10
1477.060294559021
 20
580.011075235031
 30
0.0
 11
1477.060294559021
 21
579.2072266738583
 31
0.0
  0
LINE
  5
46D
330
1F
100
AcDbEntity
  8
ｱﾝｶｰ
  6
Continuous
 62
     6
370
     5
100
AcDbLine
 10
1466.569238448153
 20
572.6414724867051
 30
0.0
 11
1485.569079144039
 21
572.6414724867051
 31
0.0
  0
LINE
  5
46E
330
1F
100
AcDbEntity
  8
0-4_寸法
  6
Continuous
 62
     2
370
     9
100
AcDbLine
 10
1462.068994543185
 20
551.6415233886116
 30
0.0
 11
1462.068994543185
 21
553.6416317908195
 31
0.0
  0
LINE
  5
46F
330
1F
100
AcDbEntity
  8
0-4_寸法
  6
Continuous
 62
     2
370
     9
100
AcDbLine
 10
1489.069268847903
 20
550.6414691875074
 30
0.0
 11
1463.069048744289
 21
550.6414691875074
 31
0.0
  0
LINE
  5
470
330
1F
100
AcDbEntity
  8
0-4_寸法
  6
Continuous
 62
     2
370
     9
100
AcDbLine
 10
1490.069323049007
 20
553.6416317908195
 30
0.0
 11
1490.069323049007
 21
551.6415233886116
 31
0.0
  0
LINE
  5
471
330
1F
100
AcDbEntity
  8
0-5_文字
  6
JWW_CENTER1
 62
     2
370
     9
100
AcDbLine
 10
1476.069158796096
 20
585.8247078024477
 30
0.0
 11
1476.069158796096
 21
543.1306578346857
 31
0.0
  0
LINE
  5
472
330
1F
100
AcDbEntity
  8
0-5_文字
  6
Continuous
 62
     2
370
     9
100
AcDbLine
 10
1768.069526892289
 20
572.6414724867051
 30
0.0
 11
1788.069421789279
 21
572.6414724867051
 31
0.0
  0
LINE
  5
473
330
1F
100
AcDbEntity
  8
0-5_文字
  6
Continuous
 62
     2
370
     9
100
AcDbLine
 10
1768.069526892289
 20
574.6415808889129
 30
0.0
 11
1768.069526892289
 21
572.6414724867051
 31
0.0
  0
LINE
  5
474
330
1F
100
AcDbEntity
  8
0-5_文字
  6
Continuous
 62
     2
370
     9
100
AcDbLine
 10
1788.069421789279
 20
574.6415808889129
 30
0.0
 11
1788.069421789279
 21
572.6414724867051
 31
0.0
  0
LINE
  5
475
330
1F
100
AcDbEntity
  8
ｱﾝｶｰ
  6
Continuous
 62
     6
370
     5
100
AcDbLine
 10
1768.569553992841
 20
576.9157826244794
 30
0.0
 11
1768.569553992841
 21
572.6414724867051
 31
0.0
  0
LINE
  5
476
330
1F
100
AcDbEntity
  8
ｱﾝｶｰ
  6
Continuous
 62
     6
370
     5
100
AcDbLine
 10
1787.569394688727
 20
576.9157826244794
 30
0.0
 11
1787.569394688727
 21
572.6414724867051
 31
0.0
  0
LINE
  5
477
330
1F
100
AcDbEntity
  8
ｱﾝｶｰ
  6
Continuous
 62
     6
370
     5
100
AcDbLine
 10
1777.078338577858
 20
580.011075235031
 30
0.0
 11
1777.078338577858
 21
579.2072266738583
 31
0.0
  0
LINE
  5
478
330
1F
100
AcDbEntity
  8
ｱﾝｶｰ
  6
Continuous
 62
     6
370
     5
100
AcDbLine
 10
1779.060610103709
 20
579.2072266738583
 30
0.0
 11
1777.078338577858
 21
579.2072266738583
 31
0.0
  0
LINE
  5
479
330
1F
100
AcDbEntity
  8
ｱﾝｶｰ
  6
Continuous
 62
     6
370
     5
100
AcDbLine
 10
1779.060610103709
 20
580.011075235031
 30
0.0
 11
1779.060610103709
 21
579.2072266738583
 31
0.0
  0
LINE
  5
47A
330
1F
100
AcDbEntity
  8
ｱﾝｶｰ
  6
Continuous
 62
     6
370
     5
100
AcDbLine
 10
1768.569553992841
 20
572.6414724867051
 30
0.0
 11
1787.569394688727
 21
572.6414724867051
 31
0.0
  0
LINE
  5
47B
330
1F
100
AcDbEntity
  8
0-4_寸法
  6
Continuous
 62
     2
370
     9
100
AcDbLine
 10
1764.069310087873
 20
551.6415233886116
 30
0.0
 11
1764.069310087873
 21
553.6416317908195
 31
0.0
  0
LINE
  5
47C
330
1F
100
AcDbEntity
  8
0-4_寸法
  6
Continuous
 62
     2
370
     9
100
AcDbLine
 10
1791.069584392591
 20
550.6414691875074
 30
0.0
 11
1765.069364288977
 21
550.6414691875074
 31
0.0
  0
LINE
  5
47D
330
1F
100
AcDbEntity
  8
0-4_寸法
  6
Continuous
 62
     2
370
     9
100
AcDbLine
 10
1792.069638593695
 20
553.6416317908195
 30
0.0
 11
1792.069638593695
 21
551.6415233886116
 31
0.0
  0
LINE
  5
47E
330
1F
100
AcDbEntity
  8
0-5_文字
  6
JWW_CENTER1
 62
     2
370
     9
100
AcDbLine
 10
1778.069474340784
 20
585.8247078024477
 30
0.0
 11
1778.069474340784
 21
543.1306578346857
 31
0.0
  0
LINE
  5
47F
330
1F
100
AcDbEntity
  8
0-4_寸法
  6
Continuous
 62
     2
370
     9
100
AcDbLine
 10
406.0688361816982
 20
554.6416859919234
 30
0.0
 11
385.0691843648775
 21
554.6416859919234
 31
0.0
  0
LINE
  5
480
330
1F
100
AcDbEntity
  8
0-4_寸法
  6
Continuous
 62
     2
370
     9
100
AcDbLine
 10
355.0690447381202
 20
554.6416859919234
 30
0.0
 11
328.0687704334027
 21
554.6416859919234
 31
0.0
  0
LINE
  5
481
330
1F
100
AcDbEntity
  8
0-4_寸法
  6
Continuous
 62
     2
370
     9
100
AcDbLine
 10
406.0688361816982
 20
574.6415808889129
 30
0.0
 11
379.5691835400781
 21
574.6415808889129
 31
0.0
  0
LINE
  5
482
330
1F
100
AcDbEntity
  8
0-4_寸法
  6
Continuous
 62
     2
370
     9
100
AcDbLine
 10
360.5693428441924
 20
574.6415808889129
 30
0.0
 11
328.0687704334027
 21
574.6415808889129
 31
0.0
  0
LINE
  5
483
330
1F
100
AcDbEntity
  8
0-4_寸法
  6
Continuous
 62
     2
370
     9
100
AcDbLine
 10
506.0689052291914
 20
554.6416859919234
 30
0.0
 11
485.0692534123708
 21
554.6416859919234
 31
0.0
  0
LINE
  5
484
330
1F
100
AcDbEntity
  8
0-4_寸法
  6
Continuous
 62
     2
370
     9
100
AcDbLine
 10
455.0691137856134
 20
554.6416859919234
 30
0.0
 11
428.0688394808964
 21
554.6416859919234
 31
0.0
  0
LINE
  5
485
330
1F
100
AcDbEntity
  8
0-4_寸法
  6
Continuous
 62
     2
370
     9
100
AcDbLine
 10
506.0689052291914
 20
574.6415808889129
 30
0.0
 11
479.5692525875714
 21
574.6415808889129
 31
0.0
  0
LINE
  5
486
330
1F
100
AcDbEntity
  8
0-4_寸法
  6
Continuous
 62
     2
370
     9
100
AcDbLine
 10
460.5694118916857
 20
574.6415808889129
 30
0.0
 11
428.0688394808964
 21
574.6415808889129
 31
0.0
  0
LINE
  5
487
330
1F
100
AcDbEntity
  8
0-4_寸法
  6
Continuous
 62
     2
370
     9
100
AcDbLine
 10
555.0691828331069
 20
554.6416859919234
 30
0.0
 11
528.0689085283896
 21
554.6416859919234
 31
0.0
  0
LINE
  5
488
330
1F
100
AcDbEntity
  8
0-4_寸法
  6
Continuous
 62
     2
370
     9
100
AcDbLine
 10
560.5691836579068
 20
574.6415808889129
 30
0.0
 11
528.0689085283896
 21
574.6415808889129
 31
0.0
  0
LINE
  5
489
330
1F
100
AcDbEntity
  8
0-4_寸法
  6
Continuous
 62
     2
370
     9
100
AcDbLine
 10
655.0692518806009
 20
554.6416859919234
 30
0.0
 11
585.0690251785911
 21
554.6416859919234
 31
0.0
  0
LINE
  5
48A
330
1F
100
AcDbEntity
  8
0-4_寸法
  6
Continuous
 62
     2
370
     9
100
AcDbLine
 10
660.5692527054
 20
574.6415808889129
 30
0.0
 11
579.569024353792
 21
574.6415808889129
 31
0.0
  0
LINE
  5
48B
330
1F
100
AcDbEntity
  8
0-4_寸法
  6
Continuous
 62
     2
370
     9
100
AcDbLine
 10
857.0692010965223
 20
554.6416859919234
 30
0.0
 11
685.0690942260851
 21
554.6416859919234
 31
0.0
  0
LINE
  5
48C
330
1F
100
AcDbEntity
  8
0-4_寸法
  6
Continuous
 62
     2
370
     9
100
AcDbLine
 10
862.5692019213218
 20
574.6415808889129
 30
0.0
 11
679.5690934012852
 21
574.6415808889129
 31
0.0
  0
LINE
  5
48D
330
1F
100
AcDbEntity
  8
0-4_寸法
  6
Continuous
 62
     2
370
     9
100
AcDbLine
 10
1159.069219359938
 20
554.6416859919234
 30
0.0
 11
887.0693407232798
 21
554.6416859919234
 31
0.0
  0
LINE
  5
48E
330
1F
100
AcDbEntity
  8
0-4_寸法
  6
Continuous
 62
     2
370
     9
100
AcDbLine
 10
1164.56951746601
 20
574.6415808889129
 30
0.0
 11
881.5693398984803
 21
574.6415808889129
 31
0.0
  0
LINE
  5
48F
330
1F
100
AcDbEntity
  8
0-4_寸法
  6
Continuous
 62
     2
370
     9
100
AcDbLine
 10
1682.069027535161
 20
554.6416859919234
 30
0.0
 11
1491.069377250111
 21
554.6416859919234
 31
0.0
  0
LINE
  5
490
330
1F
100
AcDbEntity
  8
0-4_寸法
  6
Continuous
 62
     2
370
     9
100
AcDbLine
 10
1461.068940342081
 20
554.6416859919234
 30
0.0
 11
1189.069656267968
 21
554.6416859919234
 31
0.0
  0
LINE
  5
491
330
1F
100
AcDbEntity
  8
0-4_寸法
  6
Continuous
 62
     2
370
     9
100
AcDbLine
 10
1682.069027535161
 20
574.6415808889129
 30
0.0
 11
1485.569079144039
 21
574.6415808889129
 31
0.0
  0
LINE
  5
492
330
1F
100
AcDbEntity
  8
0-4_寸法
  6
Continuous
 62
     2
370
     9
100
AcDbLine
 10
1466.569238448153
 20
574.6415808889129
 30
0.0
 11
1183.569358161896
 21
574.6415808889129
 31
0.0
  0
LINE
  5
493
330
1F
100
AcDbEntity
  8
0-4_寸法
  6
Continuous
 62
     2
370
     9
100
AcDbLine
 10
1801.06893727854
 20
574.6415808889129
 30
0.0
 11
1787.569394688727
 21
574.6415808889129
 31
0.0
  0
LINE
  5
494
330
1F
100
AcDbEntity
  8
0-4_寸法
  6
Continuous
 62
     2
370
     9
100
AcDbLine
 10
1768.569553992841
 20
574.6415808889129
 30
0.0
 11
1702.069516994696
 21
574.6415808889129
 31
0.0
  0
LINE
  5
495
330
1F
100
AcDbEntity
  8
0-4_寸法
  6
Continuous
 62
     2
370
     9
100
AcDbLine
 10
1801.06893727854
 20
554.6416859919234
 30
0.0
 11
1793.069692794799
 21
554.6416859919234
 31
0.0
  0
LINE
  5
496
330
1F
100
AcDbEntity
  8
0-4_寸法
  6
Continuous
 62
     2
370
     9
100
AcDbLine
 10
1763.069255886769
 20
554.6416859919234
 30
0.0
 11
1702.069516994696
 21
554.6416859919234
 31
0.0
  0
LINE
  5
497
330
1F
100
AcDbEntity
  8
0-0_通り芯
  6
JWW_CENTER1
 62
     4
370
     9
100
AcDbLine
 10
1887.38247381574
 20
564.6416334404182
 30
0.0
 11
1858.069053928743
 21
564.6416334404182
 31
0.0
  0
CIRCLE
  5
498
330
1F
100
AcDbEntity
  8
0-0_通り芯
  6
Continuous
 62
     4
370
     9
100
AcDbCircle
 10
-1160.931520426218
 20
564.6416334404182
 30
0.0
 40
15.00000013808026
  0
ARC
  5
499
330
1F
100
AcDbEntity
  8
0-6_化粧Ｐ
  6
Continuous
 62
     7
370
     9
100
AcDbCircle
 10
141.0684451089502
 20
762.641663133197
 30
0.0
 40
2.000000115181948
100
AcDbArc
 50
90.0
 51
180.0
  0
ARC
  5
49A
330
1F
100
AcDbEntity
  8
0-6_化粧Ｐ
  6
Continuous
 62
     7
370
     9
100
AcDbCircle
 10
141.0684451089502
 20
366.6421983101849
 30
0.0
 40
2.000000115181948
100
AcDbArc
 50
180.0
 51
270.0
  0
ARC
  5
49B
330
1F
100
AcDbEntity
  8
0-3_受枠
  6
Continuous
 62
     4
370
     9
100
AcDbCircle
 10
39.06886222179413
 20
564.6416334404182
 30
0.0
 40
12.00005585070282
100
AcDbArc
 50
317.9279632568359
 51
42.07203674316406
  0
ARC
  5
49C
330
1F
100
AcDbEntity
  8
0-3_受枠
  6
Continuous
 62
     4
370
     9
100
AcDbCircle
 10
39.06886222179413
 20
564.6416334404182
 30
0.0
 40
12.00005585070282
100
AcDbArc
 50
81.58244323730469
 51
278.4175567626953
  0
ARC
  5
49D
330
1F
100
AcDbEntity
  8
0-4_寸法
  6
Continuous
 62
     7
370
     9
100
AcDbCircle
 10
57.4161705242722
 20
564.6416334404182
 30
0.0
 40
20.40003548994027
100
AcDbArc
 50
90.0
 51
165.8116760253906
  0
ARC
  5
49E
330
1F
100
AcDbEntity
  8
0-4_寸法
  6
Continuous
 62
     7
370
     9
100
AcDbCircle
 10
57.4161705242722
 20
564.6416334404182
 30
0.0
 40
20.40003548994027
100
AcDbArc
 50
194.1883239746094
 51
270.0
  0
ARC
  5
49F
330
1F
100
AcDbEntity
  8
0-4_寸法
  6
Continuous
 62
     7
370
     9
100
AcDbCircle
 10
57.4161705242722
 20
564.6416334404182
 30
0.0
 40
12.40003502921248
100
AcDbArc
 50
90.0
 51
156.2188262939453
  0
ARC
  5
4A0
330
1F
100
AcDbEntity
  8
0-4_寸法
  6
Continuous
 62
     7
370
     9
100
AcDbCircle
 10
57.4161705242722
 20
564.6416334404182
 30
0.0
 40
12.40003502921248
100
AcDbArc
 50
203.7811737060547
 51
270.0
  0
ARC
  5
4A1
330
1F
100
AcDbEntity
  8
0-0_通り芯
  6
Continuous
 62
     3
370
     9
100
AcDbCircle
 10
39.06886222179413
 20
564.6416334404182
 30
0.0
 40
13.99999935470493
100
AcDbArc
 50
317.5176239013672
 51
42.48237609863283
  0
ARC
  5
4A2
330
1F
100
AcDbEntity
  8
0-0_通り芯
  6
Continuous
 62
     3
370
     9
100
AcDbCircle
 10
39.06886222179413
 20
564.6416334404182
 30
0.0
 40
13.99999935470493
100
AcDbArc
 50
76.89714050292969
 51
283.1028594970703
  0
ARC
  5
4A3
330
1F
100
AcDbEntity
  8
0-4_寸法
  6
Continuous
 62
     2
370
     9
100
AcDbCircle
 10
720.6655538099712
 20
723.641630259049
 30
0.0
 40
4.000000230363897
100
AcDbArc
 50
51.33786010742188
 51
90.0
  0
ARC
  5
4A4
330
1F
100
AcDbEntity
  8
0-4_寸法
  6
Continuous
 62
     2
370
     9
100
AcDbCircle
 10
733.4718364720277
 20
723.6413329777764
 30
0.0
 40
4.000000230363897
100
AcDbArc
 50
231.3405303955078
 51
270.0
  0
ARC
  5
4A5
330
1F
100
AcDbEntity
  8
0-4_寸法
  6
Continuous
 62
     2
370
     9
100
AcDbCircle
 10
1559.472608955589
 20
723.641630259049
 30
0.0
 40
4.000000230363897
100
AcDbArc
 50
90.0
 51
128.6638031005859
  0
ARC
  5
4A6
330
1F
100
AcDbEntity
  8
0-4_寸法
  6
Continuous
 62
     2
370
     9
100
AcDbCircle
 10
1546.666326293532
 20
723.6413329777764
 30
0.0
 40
4.000000230363897
100
AcDbArc
 50
270.0
 51
308.6638031005859
  0
ARC
  5
4A7
330
1F
100
AcDbEntity
  8
0-4_寸法
  6
Continuous
 62
     2
370
     9
100
AcDbCircle
 10
188.0686143106576
 20
580.6416088142647
 30
0.0
 40
6.000000055232103
100
AcDbArc
 50
180.0
 51
270.0
  0
ARC
  5
4A8
330
1F
100
AcDbEntity
  8
0-4_寸法
  6
Continuous
 62
     2
370
     9
100
AcDbCircle
 10
306.0687671342049
 20
580.6416088142647
 30
0.0
 40
6.000000055232103
100
AcDbArc
 50
270.0
 51
0.0
  0
ARC
  5
4A9
330
1F
100
AcDbEntity
  8
0-4_寸法
  6
Continuous
 62
     2
370
     9
100
AcDbCircle
 10
328.0687704334027
 20
580.6416088142647
 30
0.0
 40
6.000000055232103
100
AcDbArc
 50
180.0
 51
270.0
  0
ARC
  5
4AA
330
1F
100
AcDbEntity
  8
0-4_寸法
  6
Continuous
 62
     2
370
     9
100
AcDbCircle
 10
406.0688361816982
 20
580.6416088142647
 30
0.0
 40
6.000000055232103
100
AcDbArc
 50
270.0
 51
0.0
  0
ARC
  5
4AB
330
1F
100
AcDbEntity
  8
0-4_寸法
  6
Continuous
 62
     2
370
     9
100
AcDbCircle
 10
428.0688394808964
 20
580.6416088142647
 30
0.0
 40
6.000000055232103
100
AcDbArc
 50
180.0
 51
270.0
  0
ARC
  5
4AC
330
1F
100
AcDbEntity
  8
0-4_寸法
  6
Continuous
 62
     2
370
     9
100
AcDbCircle
 10
506.0689052291914
 20
580.6416088142647
 30
0.0
 40
6.000000055232103
100
AcDbArc
 50
270.0
 51
0.0
  0
ARC
  5
4AD
330
1F
100
AcDbEntity
  8
0-4_寸法
  6
Continuous
 62
     2
370
     9
100
AcDbCircle
 10
528.0689085283896
 20
580.6416088142647
 30
0.0
 40
6.000000055232103
100
AcDbArc
 50
180.0
 51
270.0
  0
ARC
  5
4AE
330
1F
100
AcDbEntity
  8
0-4_寸法
  6
Continuous
 62
     2
370
     9
100
AcDbCircle
 10
1682.069027535161
 20
580.6416088142647
 30
0.0
 40
6.000000055232103
100
AcDbArc
 50
270.0
 51
0.0
  0
ARC
  5
4AF
330
1F
100
AcDbEntity
  8
0-4_寸法
  6
Continuous
 62
     2
370
     9
100
AcDbCircle
 10
1702.069516994696
 20
580.6416088142647
 30
0.0
 40
6.000000055232103
100
AcDbArc
 50
180.0
 51
270.0
  0
ARC
  5
4B0
330
1F
100
AcDbEntity
  8
0-4_寸法
  6
Continuous
 62
     2
370
     9
100
AcDbCircle
 10
1801.06893727854
 20
580.6416088142647
 30
0.0
 40
6.000000055232103
100
AcDbArc
 50
270.0
 51
0.0
  0
ARC
  5
4B1
330
1F
100
AcDbEntity
  8
0-4_寸法
  6
Continuous
 62
     2
370
     9
100
AcDbCircle
 10
1821.069426738075
 20
580.6416088142647
 30
0.0
 40
6.000000055232103
100
AcDbArc
 50
180.0
 51
270.0
  0
ARC
  5
4B2
330
1F
100
AcDbEntity
  8
0-4_寸法
  6
Continuous
 62
     2
370
     9
100
AcDbCircle
 10
310.0686866573484
 20
747.7240888729715
 30
0.0
 40
2.000000115181948
100
AcDbArc
 50
270.0
 51
0.0
  0
ARC
  5
4B3
330
1F
100
AcDbEntity
  8
0-4_寸法
  6
Continuous
 62
     2
370
     9
100
AcDbCircle
 10
324.0685536289868
 20
747.7240888729715
 30
0.0
 40
2.000000115181948
100
AcDbArc
 50
180.0
 51
270.0
  0
ARC
  5
4B4
330
1F
100
AcDbEntity
  8
0-4_寸法
  6
Continuous
 62
     2
370
     9
100
AcDbCircle
 10
324.0685536289868
 20
739.2515726032138
 30
0.0
 40
2.000000115181948
100
AcDbArc
 50
90.0
 51
180.0
  0
ARC
  5
4B5
330
1F
100
AcDbEntity
  8
0-4_寸法
  6
Continuous
 62
     2
370
     9
100
AcDbCircle
 10
310.0686866573484
 20
739.2515726032138
 30
0.0
 40
2.000000115181948
100
AcDbArc
 50
0.0
 51
90.0
  0
ARC
  5
4B6
330
1F
100
AcDbEntity
  8
0-4_寸法
  6
Continuous
 62
     2
370
     9
100
AcDbCircle
 10
310.0686866573484
 20
708.7368390935465
 30
0.0
 40
2.000000115181948
100
AcDbArc
 50
270.0
 51
0.0
  0
ARC
  5
4B7
330
1F
100
AcDbEntity
  8
0-4_寸法
  6
Continuous
 62
     2
370
     9
100
AcDbCircle
 10
324.0685536289868
 20
708.7368390935465
 30
0.0
 40
2.000000115181948
100
AcDbArc
 50
180.0
 51
270.0
  0
ARC
  5
4B8
330
1F
100
AcDbEntity
  8
0-4_寸法
  6
Continuous
 62
     2
370
     9
100
AcDbCircle
 10
324.0685536289868
 20
694.5166866988944
 30
0.0
 40
2.000000115181948
100
AcDbArc
 50
90.0
 51
180.0
  0
ARC
  5
4B9
330
1F
100
AcDbEntity
  8
0-4_寸法
  6
Continuous
 62
     2
370
     9
100
AcDbCircle
 10
310.0686866573484
 20
694.5166866988944
 30
0.0
 40
2.000000115181948
100
AcDbArc
 50
0.0
 51
90.0
  0
ARC
  5
4BA
330
1F
100
AcDbEntity
  8
0-4_寸法
  6
Continuous
 62
     2
370
     9
100
AcDbCircle
 10
410.0687557048417
 20
694.5166866988944
 30
0.0
 40
2.000000115181948
100
AcDbArc
 50
0.0
 51
90.0
  0
ARC
  5
4BB
330
1F
100
AcDbEntity
  8
0-4_寸法
  6
Continuous
 62
     2
370
     9
100
AcDbCircle
 10
424.0686226764799
 20
694.5166866988944
 30
0.0
 40
2.000000115181948
100
AcDbArc
 50
90.0
 51
180.0
  0
ARC
  5
4BC
330
1F
100
AcDbEntity
  8
0-4_寸法
  6
Continuous
 62
     2
370
     9
100
AcDbCircle
 10
424.0686226764799
 20
708.7368390935465
 30
0.0
 40
2.000000115181948
100
AcDbArc
 50
180.0
 51
270.0
  0
ARC
  5
4BD
330
1F
100
AcDbEntity
  8
0-4_寸法
  6
Continuous
 62
     2
370
     9
100
AcDbCircle
 10
410.0687557048417
 20
708.7368390935465
 30
0.0
 40
2.000000115181948
100
AcDbArc
 50
270.0
 51
0.0
  0
ARC
  5
4BE
330
1F
100
AcDbEntity
  8
0-4_寸法
  6
Continuous
 62
     2
370
     9
100
AcDbCircle
 10
410.0687557048417
 20
739.2515726032138
 30
0.0
 40
2.000000115181948
100
AcDbArc
 50
0.0
 51
90.0
  0
ARC
  5
4BF
330
1F
100
AcDbEntity
  8
0-4_寸法
  6
Continuous
 62
     2
370
     9
100
AcDbCircle
 10
424.0686226764799
 20
739.2515726032138
 30
0.0
 40
2.000000115181948
100
AcDbArc
 50
90.0
 51
180.0
  0
ARC
  5
4C0
330
1F
100
AcDbEntity
  8
0-4_寸法
  6
Continuous
 62
     2
370
     9
100
AcDbCircle
 10
424.0686226764799
 20
747.7240888729715
 30
0.0
 40
2.000000115181948
100
AcDbArc
 50
180.0
 51
270.0
  0
ARC
  5
4C1
330
1F
100
AcDbEntity
  8
0-4_寸法
  6
Continuous
 62
     2
370
     9
100
AcDbCircle
 10
410.0687557048417
 20
747.7240888729715
 30
0.0
 40
2.000000115181948
100
AcDbArc
 50
270.0
 51
0.0
  0
ARC
  5
4C2
330
1F
100
AcDbEntity
  8
0-4_寸法
  6
Continuous
 62
     2
370
     9
100
AcDbCircle
 10
510.068824752335
 20
739.2515726032138
 30
0.0
 40
2.000000115181948
100
AcDbArc
 50
0.0
 51
90.0
  0
ARC
  5
4C3
330
1F
100
AcDbEntity
  8
0-4_寸法
  6
Continuous
 62
     2
370
     9
100
AcDbCircle
 10
524.0686917239734
 20
739.2515726032138
 30
0.0
 40
2.000000115181948
100
AcDbArc
 50
90.0
 51
180.0
  0
ARC
  5
4C4
330
1F
100
AcDbEntity
  8
0-4_寸法
  6
Continuous
 62
     2
370
     9
100
AcDbCircle
 10
524.0686917239734
 20
747.7240888729715
 30
0.0
 40
2.000000115181948
100
AcDbArc
 50
180.0
 51
270.0
  0
ARC
  5
4C5
330
1F
100
AcDbEntity
  8
0-4_寸法
  6
Continuous
 62
     2
370
     9
100
AcDbCircle
 10
510.068824752335
 20
747.7240888729715
 30
0.0
 40
2.000000115181948
100
AcDbArc
 50
270.0
 51
0.0
  0
ARC
  5
4C6
330
1F
100
AcDbEntity
  8
0-4_寸法
  6
Continuous
 62
     2
370
     9
100
AcDbCircle
 10
510.068824752335
 20
694.5166866988944
 30
0.0
 40
2.000000115181948
100
AcDbArc
 50
0.0
 51
90.0
  0
ARC
  5
4C7
330
1F
100
AcDbEntity
  8
0-4_寸法
  6
Continuous
 62
     2
370
     9
100
AcDbCircle
 10
510.068824752335
 20
708.7368390935465
 30
0.0
 40
2.000000115181948
100
AcDbArc
 50
270.0
 51
0.0
  0
ARC
  5
4C8
330
1F
100
AcDbEntity
  8
0-4_寸法
  6
Continuous
 62
     2
370
     9
100
AcDbCircle
 10
524.0686917239734
 20
708.7368390935465
 30
0.0
 40
2.000000115181948
100
AcDbArc
 50
180.0
 51
270.0
  0
ARC
  5
4C9
330
1F
100
AcDbEntity
  8
0-4_寸法
  6
Continuous
 62
     2
370
     9
100
AcDbCircle
 10
524.0686917239734
 20
694.5166866988944
 30
0.0
 40
2.000000115181948
100
AcDbArc
 50
90.0
 51
180.0
  0
ARC
  5
4CA
330
1F
100
AcDbEntity
  8
0-4_寸法
  6
Continuous
 62
     2
370
     9
100
AcDbCircle
 10
1686.068947058305
 20
747.7240888729715
 30
0.0
 40
2.000000115181948
100
AcDbArc
 50
270.0
 51
0.0
  0
ARC
  5
4CB
330
1F
100
AcDbEntity
  8
0-4_寸法
  6
Continuous
 62
     2
370
     9
100
AcDbCircle
 10
1698.069597471553
 20
747.7240888729715
 30
0.0
 40
2.000000115181948
100
AcDbArc
 50
180.0
 51
270.0
  0
ARC
  5
4CC
330
1F
100
AcDbEntity
  8
0-4_寸法
  6
Continuous
 62
     2
370
     9
100
AcDbCircle
 10
1698.069597471553
 20
739.2515726032138
 30
0.0
 40
2.000000115181948
100
AcDbArc
 50
90.0
 51
180.0
  0
ARC
  5
4CD
330
1F
100
AcDbEntity
  8
0-4_寸法
  6
Continuous
 62
     2
370
     9
100
AcDbCircle
 10
1686.068947058305
 20
739.2515726032138
 30
0.0
 40
2.000000115181948
100
AcDbArc
 50
0.0
 51
90.0
  0
ARC
  5
4CE
330
1F
100
AcDbEntity
  8
0-4_寸法
  6
Continuous
 62
     2
370
     9
100
AcDbCircle
 10
1686.068947058305
 20
708.7362445310009
 30
0.0
 40
2.000000115181948
100
AcDbArc
 50
270.0
 51
0.0
  0
ARC
  5
4CF
330
1F
100
AcDbEntity
  8
0-4_寸法
  6
Continuous
 62
     2
370
     9
100
AcDbCircle
 10
1698.069597471553
 20
708.7362445310009
 30
0.0
 40
2.000000115181948
100
AcDbArc
 50
180.0
 51
270.0
  0
ARC
  5
4D0
330
1F
100
AcDbEntity
  8
0-4_寸法
  6
Continuous
 62
     2
370
     9
100
AcDbCircle
 10
1698.069597471553
 20
694.5163894176219
 30
0.0
 40
2.000000115181948
100
AcDbArc
 50
90.0
 51
180.0
  0
ARC
  5
4D1
330
1F
100
AcDbEntity
  8
0-4_寸法
  6
Continuous
 62
     2
370
     9
100
AcDbCircle
 10
1686.068947058305
 20
694.5163894176219
 30
0.0
 40
2.000000115181948
100
AcDbArc
 50
0.0
 51
90.0
  0
ARC
  5
4D2
330
1F
100
AcDbEntity
  8
0-4_寸法
  6
Continuous
 62
     2
370
     9
100
AcDbCircle
 10
1805.068856801684
 20
694.5163894176219
 30
0.0
 40
2.000000115181948
100
AcDbArc
 50
0.0
 51
90.0
  0
ARC
  5
4D3
330
1F
100
AcDbEntity
  8
0-4_寸法
  6
Continuous
 62
     2
370
     9
100
AcDbCircle
 10
1817.069507214932
 20
694.5163894176219
 30
0.0
 40
2.000000115181948
100
AcDbArc
 50
90.0
 51
180.0
  0
ARC
  5
4D4
330
1F
100
AcDbEntity
  8
0-4_寸法
  6
Continuous
 62
     2
370
     9
100
AcDbCircle
 10
1817.069507214932
 20
708.7362445310009
 30
0.0
 40
2.000000115181948
100
AcDbArc
 50
180.0
 51
270.0
  0
ARC
  5
4D5
330
1F
100
AcDbEntity
  8
0-4_寸法
  6
Continuous
 62
     2
370
     9
100
AcDbCircle
 10
1805.068856801684
 20
708.7362445310009
 30
0.0
 40
2.000000115181948
100
AcDbArc
 50
270.0
 51
0.0
  0
ARC
  5
4D6
330
1F
100
AcDbEntity
  8
0-4_寸法
  6
Continuous
 62
     2
370
     9
100
AcDbCircle
 10
1805.068856801684
 20
739.2515726032138
 30
0.0
 40
2.000000115181948
100
AcDbArc
 50
0.0
 51
90.0
  0
ARC
  5
4D7
330
1F
100
AcDbEntity
  8
0-4_寸法
  6
Continuous
 62
     2
370
     9
100
AcDbCircle
 10
1817.069507214932
 20
739.2515726032138
 30
0.0
 40
2.000000115181948
100
AcDbArc
 50
90.0
 51
180.0
  0
ARC
  5
4D8
330
1F
100
AcDbEntity
  8
0-4_寸法
  6
Continuous
 62
     2
370
     9
100
AcDbCircle
 10
1817.069507214932
 20
747.7240888729715
 30
0.0
 40
2.000000115181948
100
AcDbArc
 50
180.0
 51
270.0
  0
ARC
  5
4D9
330
1F
100
AcDbEntity
  8
0-4_寸法
  6
Continuous
 62
     2
370
     9
100
AcDbCircle
 10
1805.068856801684
 20
747.7240888729715
 30
0.0
 40
2.000000115181948
100
AcDbArc
 50
270.0
 51
0.0
  0
ARC
  5
4DA
330
1F
100
AcDbEntity
  8
0-4_寸法
  6
Continuous
 62
     2
370
     9
100
AcDbCircle
 10
184.0686947875141
 20
694.5166866988944
 30
0.0
 40
2.000000115181948
100
AcDbArc
 50
90.0
 51
180.0
  0
ARC
  5
4DB
330
1F
100
AcDbEntity
  8
0-4_寸法
  6
Continuous
 62
     2
370
     9
100
AcDbCircle
 10
184.0686947875141
 20
708.7368390935465
 30
0.0
 40
2.000000115181948
100
AcDbArc
 50
180.0
 51
270.0
  0
ARC
  5
4DC
330
1F
100
AcDbEntity
  8
0-4_寸法
  6
Continuous
 62
     2
370
     9
100
AcDbCircle
 10
184.0686947875141
 20
739.2515726032138
 30
0.0
 40
2.000000115181948
100
AcDbArc
 50
90.0
 51
180.0
  0
ARC
  5
4DD
330
1F
100
AcDbEntity
  8
0-4_寸法
  6
Continuous
 62
     2
370
     9
100
AcDbCircle
 10
184.0686947875141
 20
747.7240888729715
 30
0.0
 40
2.000000115181948
100
AcDbArc
 50
180.0
 51
270.0
  0
ARC
  5
4DE
330
1F
100
AcDbEntity
  8
0-4_寸法
  6
Continuous
 62
     2
370
     9
100
AcDbCircle
 10
1856.068945526534
 20
758.641446328781
 30
0.0
 40
2.000000115181948
100
AcDbArc
 50
0.0
 51
90.0
  0
ARC
  5
4DF
330
1F
100
AcDbEntity
  8
0-4_寸法
  6
Continuous
 62
     2
370
     9
100
AcDbCircle
 10
164.0687998905245
 20
758.641446328781
 30
0.0
 40
2.000000115181948
100
AcDbArc
 50
90.0
 51
180.0
  0
ARC
  5
4E0
330
1F
100
AcDbEntity
  8
0-4_寸法
  6
Continuous
 62
     7
370
     9
100
AcDbCircle
 10
1581.403642999538
 20
675.9868476950259
 30
0.0
 40
20.00000173244697
100
AcDbArc
 50
270.0
 51
334.6902008056641
  0
ARC
  5
4E1
330
1F
100
AcDbEntity
  8
0-4_寸法
  6
Continuous
 62
     7
370
     9
100
AcDbCircle
 10
1580.752597012493
 20
659.0991904411272
 30
0.0
 40
20.00000173244697
100
AcDbArc
 50
270.0
 51
337.3153839111329
  0
ARC
  5
4E2
330
1F
100
AcDbEntity
  8
0-4_寸法
  6
Continuous
 62
     4
370
     9
100
AcDbCircle
 10
1583.306243144325
 20
729.362213788135
 30
0.0
 40
20.00000173244697
100
AcDbArc
 50
270.0
 51
326.5746002197266
  0
ARC
  5
4E3
330
1F
100
AcDbEntity
  8
0-4_寸法
  6
Continuous
 62
     4
370
     9
100
AcDbCircle
 10
1583.119550505118
 20
723.7245717341108
 30
0.0
 40
20.00000173244697
100
AcDbArc
 50
270.0
 51
327.3993835449219
  0
ARC
  5
4E4
330
1F
100
AcDbEntity
  8
ｱﾝｶｰ
  6
Continuous
 62
     6
370
     5
100
AcDbCircle
 10
232.069215471598
 20
564.041719832265
 30
0.0
 40
16.00000092145559
100
AcDbArc
 50
93.55198669433594
 51
126.4235992431641
  0
ARC
  5
4E5
330
1F
100
AcDbEntity
  8
ｱﾝｶｰ
  6
Continuous
 62
     6
370
     5
100
AcDbCircle
 10
232.069215471598
 20
564.041719832265
 30
0.0
 40
16.00000092145559
100
AcDbArc
 50
53.57640075683594
 51
86.44801330566406
  0
ARC
  5
4E6
330
1F
100
AcDbEntity
  8
0-4_寸法
  6
Continuous
 62
     2
370
     9
100
AcDbCircle
 10
720.6655538099712
 20
405.6416366217873
 30
0.0
 40
4.000000230363897
100
AcDbArc
 50
270.0
 51
308.6621398925781
  0
ARC
  5
4E7
330
1F
100
AcDbEntity
  8
0-4_寸法
  6
Continuous
 62
     2
370
     9
100
AcDbCircle
 10
733.4718364720277
 20
405.6419339030601
 30
0.0
 40
4.000000230363897
100
AcDbArc
 50
90.0
 51
128.6594696044922
  0
ARC
  5
4E8
330
1F
100
AcDbEntity
  8
0-4_寸法
  6
Continuous
 62
     2
370
     9
100
AcDbCircle
 10
1559.472608955589
 20
405.6416366217873
 30
0.0
 40
4.000000230363897
100
AcDbArc
 50
231.3361968994141
 51
270.0
  0
ARC
  5
4E9
330
1F
100
AcDbEntity
  8
0-4_寸法
  6
Continuous
 62
     2
370
     9
100
AcDbCircle
 10
1546.666326293532
 20
405.6419339030601
 30
0.0
 40
4.000000230363897
100
AcDbArc
 50
51.33619689941406
 51
90.0
  0
ARC
  5
4EA
330
1F
100
AcDbEntity
  8
0-4_寸法
  6
Continuous
 62
     2
370
     9
100
AcDbCircle
 10
188.0686143106576
 20
548.641658066572
 30
0.0
 40
6.000000055232103
100
AcDbArc
 50
90.0
 51
180.0
  0
ARC
  5
4EB
330
1F
100
AcDbEntity
  8
0-4_寸法
  6
Continuous
 62
     2
370
     9
100
AcDbCircle
 10
306.0687671342049
 20
548.641658066572
 30
0.0
 40
6.000000055232103
100
AcDbArc
 50
0.0
 51
90.0
  0
ARC
  5
4EC
330
1F
100
AcDbEntity
  8
0-4_寸法
  6
Continuous
 62
     2
370
     9
100
AcDbCircle
 10
328.0687704334027
 20
548.641658066572
 30
0.0
 40
6.000000055232103
100
AcDbArc
 50
90.0
 51
180.0
  0
ARC
  5
4ED
330
1F
100
AcDbEntity
  8
0-4_寸法
  6
Continuous
 62
     2
370
     9
100
AcDbCircle
 10
406.0688361816982
 20
548.641658066572
 30
0.0
 40
6.000000055232103
100
AcDbArc
 50
0.0
 51
90.0
  0
ARC
  5
4EE
330
1F
100
AcDbEntity
  8
0-4_寸法
  6
Continuous
 62
     2
370
     9
100
AcDbCircle
 10
428.0688394808964
 20
548.641658066572
 30
0.0
 40
6.000000055232103
100
AcDbArc
 50
90.0
 51
180.0
  0
ARC
  5
4EF
330
1F
100
AcDbEntity
  8
0-4_寸法
  6
Continuous
 62
     2
370
     9
100
AcDbCircle
 10
506.0689052291914
 20
548.641658066572
 30
0.0
 40
6.000000055232103
100
AcDbArc
 50
0.0
 51
90.0
  0
ARC
  5
4F0
330
1F
100
AcDbEntity
  8
0-4_寸法
  6
Continuous
 62
     2
370
     9
100
AcDbCircle
 10
528.0689085283896
 20
548.641658066572
 30
0.0
 40
6.000000055232103
100
AcDbArc
 50
90.0
 51
180.0
  0
ARC
  5
4F1
330
1F
100
AcDbEntity
  8
0-4_寸法
  6
Continuous
 62
     2
370
     9
100
AcDbCircle
 10
1682.069027535161
 20
548.641658066572
 30
0.0
 40
6.000000055232103
100
AcDbArc
 50
0.0
 51
90.0
  0
ARC
  5
4F2
330
1F
100
AcDbEntity
  8
0-4_寸法
  6
Continuous
 62
     2
370
     9
100
AcDbCircle
 10
1702.069516994696
 20
548.641658066572
 30
0.0
 40
6.000000055232103
100
AcDbArc
 50
90.0
 51
180.0
  0
ARC
  5
4F3
330
1F
100
AcDbEntity
  8
0-4_寸法
  6
Continuous
 62
     2
370
     9
100
AcDbCircle
 10
1801.06893727854
 20
548.641658066572
 30
0.0
 40
6.000000055232103
100
AcDbArc
 50
0.0
 51
90.0
  0
ARC
  5
4F4
330
1F
100
AcDbEntity
  8
0-4_寸法
  6
Continuous
 62
     2
370
     9
100
AcDbCircle
 10
1821.069426738075
 20
548.641658066572
 30
0.0
 40
6.000000055232103
100
AcDbArc
 50
90.0
 51
180.0
  0
ARC
  5
4F5
330
1F
100
AcDbEntity
  8
0-4_寸法
  6
Continuous
 62
     2
370
     9
100
AcDbCircle
 10
310.0686866573484
 20
381.5588807265926
 30
0.0
 40
2.000000115181948
100
AcDbArc
 50
0.0
 51
90.0
  0
ARC
  5
4F6
330
1F
100
AcDbEntity
  8
0-4_寸法
  6
Continuous
 62
     2
370
     9
100
AcDbCircle
 10
324.0685536289868
 20
381.5588807265926
 30
0.0
 40
2.000000115181948
100
AcDbArc
 50
90.0
 51
180.0
  0
ARC
  5
4F7
330
1F
100
AcDbEntity
  8
0-4_寸法
  6
Continuous
 62
     2
370
     9
100
AcDbCircle
 10
324.0685536289868
 20
390.0316942776226
 30
0.0
 40
2.000000115181948
100
AcDbArc
 50
180.0
 51
270.0
  0
ARC
  5
4F8
330
1F
100
AcDbEntity
  8
0-4_寸法
  6
Continuous
 62
     2
370
     9
100
AcDbCircle
 10
310.0686866573484
 20
390.0316942776226
 30
0.0
 40
2.000000115181948
100
AcDbArc
 50
270.0
 51
0.0
  0
ARC
  5
4F9
330
1F
100
AcDbEntity
  8
0-4_寸法
  6
Continuous
 62
     2
370
     9
100
AcDbCircle
 10
310.0686866573484
 20
420.5464277872903
 30
0.0
 40
2.000000115181948
100
AcDbArc
 50
0.0
 51
90.0
  0
ARC
  5
4FA
330
1F
100
AcDbEntity
  8
0-4_寸法
  6
Continuous
 62
     2
370
     9
100
AcDbCircle
 10
324.0685536289868
 20
420.5464277872903
 30
0.0
 40
2.000000115181948
100
AcDbArc
 50
90.0
 51
180.0
  0
ARC
  5
4FB
330
1F
100
AcDbEntity
  8
0-4_寸法
  6
Continuous
 62
     2
370
     9
100
AcDbCircle
 10
324.0685536289868
 20
434.7665801819423
 30
0.0
 40
2.000000115181948
100
AcDbArc
 50
180.0
 51
270.0
  0
ARC
  5
4FC
330
1F
100
AcDbEntity
  8
0-4_寸法
  6
Continuous
 62
     2
370
     9
100
AcDbCircle
 10
310.0686866573484
 20
434.7665801819423
 30
0.0
 40
2.000000115181948
100
AcDbArc
 50
270.0
 51
0.0
  0
ARC
  5
4FD
330
1F
100
AcDbEntity
  8
0-4_寸法
  6
Continuous
 62
     2
370
     9
100
AcDbCircle
 10
410.0687557048417
 20
434.7665801819423
 30
0.0
 40
2.000000115181948
100
AcDbArc
 50
270.0
 51
0.0
  0
ARC
  5
4FE
330
1F
100
AcDbEntity
  8
0-4_寸法
  6
Continuous
 62
     2
370
     9
100
AcDbCircle
 10
424.0686226764799
 20
434.7665801819423
 30
0.0
 40
2.000000115181948
100
AcDbArc
 50
180.0
 51
270.0
  0
ARC
  5
4FF
330
1F
100
AcDbEntity
  8
0-4_寸法
  6
Continuous
 62
     2
370
     9
100
AcDbCircle
 10
424.0686226764799
 20
420.5464277872903
 30
0.0
 40
2.000000115181948
100
AcDbArc
 50
90.0
 51
180.0
  0
ARC
  5
500
330
1F
100
AcDbEntity
  8
0-4_寸法
  6
Continuous
 62
     2
370
     9
100
AcDbCircle
 10
410.0687557048417
 20
420.5464277872903
 30
0.0
 40
2.000000115181948
100
AcDbArc
 50
0.0
 51
90.0
  0
ARC
  5
501
330
1F
100
AcDbEntity
  8
0-4_寸法
  6
Continuous
 62
     2
370
     9
100
AcDbCircle
 10
410.0687557048417
 20
390.0316942776226
 30
0.0
 40
2.000000115181948
100
AcDbArc
 50
270.0
 51
0.0
  0
ARC
  5
502
330
1F
100
AcDbEntity
  8
0-4_寸法
  6
Continuous
 62
     2
370
     9
100
AcDbCircle
 10
424.0686226764799
 20
390.0316942776226
 30
0.0
 40
2.000000115181948
100
AcDbArc
 50
180.0
 51
270.0
  0
ARC
  5
503
330
1F
100
AcDbEntity
  8
0-4_寸法
  6
Continuous
 62
     2
370
     9
100
AcDbCircle
 10
424.0686226764799
 20
381.5588807265926
 30
0.0
 40
2.000000115181948
100
AcDbArc
 50
90.0
 51
180.0
  0
ARC
  5
504
330
1F
100
AcDbEntity
  8
0-4_寸法
  6
Continuous
 62
     2
370
     9
100
AcDbCircle
 10
410.0687557048417
 20
381.5588807265926
 30
0.0
 40
2.000000115181948
100
AcDbArc
 50
0.0
 51
90.0
  0
ARC
  5
505
330
1F
100
AcDbEntity
  8
0-4_寸法
  6
Continuous
 62
     2
370
     9
100
AcDbCircle
 10
510.068824752335
 20
390.0316942776226
 30
0.0
 40
2.000000115181948
100
AcDbArc
 50
270.0
 51
0.0
  0
ARC
  5
506
330
1F
100
AcDbEntity
  8
0-4_寸法
  6
Continuous
 62
     2
370
     9
100
AcDbCircle
 10
524.0686917239734
 20
390.0316942776226
 30
0.0
 40
2.000000115181948
100
AcDbArc
 50
180.0
 51
270.0
  0
ARC
  5
507
330
1F
100
AcDbEntity
  8
0-4_寸法
  6
Continuous
 62
     2
370
     9
100
AcDbCircle
 10
524.0686917239734
 20
381.5588807265926
 30
0.0
 40
2.000000115181948
100
AcDbArc
 50
90.0
 51
180.0
  0
ARC
  5
508
330
1F
100
AcDbEntity
  8
0-4_寸法
  6
Continuous
 62
     2
370
     9
100
AcDbCircle
 10
510.068824752335
 20
381.5588807265926
 30
0.0
 40
2.000000115181948
100
AcDbArc
 50
0.0
 51
90.0
  0
ARC
  5
509
330
1F
100
AcDbEntity
  8
0-4_寸法
  6
Continuous
 62
     2
370
     9
100
AcDbCircle
 10
510.068824752335
 20
434.7665801819423
 30
0.0
 40
2.000000115181948
100
AcDbArc
 50
270.0
 51
0.0
  0
ARC
  5
50A
330
1F
100
AcDbEntity
  8
0-4_寸法
  6
Continuous
 62
     2
370
     9
100
AcDbCircle
 10
510.068824752335
 20
420.5464277872903
 30
0.0
 40
2.000000115181948
100
AcDbArc
 50
0.0
 51
90.0
  0
ARC
  5
50B
330
1F
100
AcDbEntity
  8
0-4_寸法
  6
Continuous
 62
     2
370
     9
100
AcDbCircle
 10
524.0686917239734
 20
420.5464277872903
 30
0.0
 40
2.000000115181948
100
AcDbArc
 50
90.0
 51
180.0
  0
ARC
  5
50C
330
1F
100
AcDbEntity
  8
0-4_寸法
  6
Continuous
 62
     2
370
     9
100
AcDbCircle
 10
524.0686917239734
 20
434.7665801819423
 30
0.0
 40
2.000000115181948
100
AcDbArc
 50
180.0
 51
270.0
  0
ARC
  5
50D
330
1F
100
AcDbEntity
  8
0-4_寸法
  6
Continuous
 62
     2
370
     9
100
AcDbCircle
 10
1686.068947058305
 20
381.5588807265926
 30
0.0
 40
2.000000115181948
100
AcDbArc
 50
0.0
 51
90.0
  0
ARC
  5
50E
330
1F
100
AcDbEntity
  8
0-4_寸法
  6
Continuous
 62
     2
370
     9
100
AcDbCircle
 10
1698.069597471553
 20
381.5588807265926
 30
0.0
 40
2.000000115181948
100
AcDbArc
 50
90.0
 51
180.0
  0
ARC
  5
50F
330
1F
100
AcDbEntity
  8
0-4_寸法
  6
Continuous
 62
     2
370
     9
100
AcDbCircle
 10
1698.069597471553
 20
390.0316942776226
 30
0.0
 40
2.000000115181948
100
AcDbArc
 50
180.0
 51
270.0
  0
ARC
  5
510
330
1F
100
AcDbEntity
  8
0-4_寸法
  6
Continuous
 62
     2
370
     9
100
AcDbCircle
 10
1686.068947058305
 20
390.0316942776226
 30
0.0
 40
2.000000115181948
100
AcDbArc
 50
270.0
 51
0.0
  0
ARC
  5
511
330
1F
100
AcDbEntity
  8
0-4_寸法
  6
Continuous
 62
     2
370
     9
100
AcDbCircle
 10
1686.068947058305
 20
420.5470223498356
 30
0.0
 40
2.000000115181948
100
AcDbArc
 50
0.0
 51
90.0
  0
ARC
  5
512
330
1F
100
AcDbEntity
  8
0-4_寸法
  6
Continuous
 62
     2
370
     9
100
AcDbCircle
 10
1698.069597471553
 20
420.5470223498356
 30
0.0
 40
2.000000115181948
100
AcDbArc
 50
90.0
 51
180.0
  0
ARC
  5
513
330
1F
100
AcDbEntity
  8
0-4_寸法
  6
Continuous
 62
     2
370
     9
100
AcDbCircle
 10
1698.069597471553
 20
434.7668774632148
 30
0.0
 40
2.000000115181948
100
AcDbArc
 50
180.0
 51
270.0
  0
ARC
  5
514
330
1F
100
AcDbEntity
  8
0-4_寸法
  6
Continuous
 62
     2
370
     9
100
AcDbCircle
 10
1686.068947058305
 20
434.7668774632148
 30
0.0
 40
2.000000115181948
100
AcDbArc
 50
270.0
 51
0.0
  0
ARC
  5
515
330
1F
100
AcDbEntity
  8
0-4_寸法
  6
Continuous
 62
     2
370
     9
100
AcDbCircle
 10
1805.068856801684
 20
434.7668774632148
 30
0.0
 40
2.000000115181948
100
AcDbArc
 50
270.0
 51
0.0
  0
ARC
  5
516
330
1F
100
AcDbEntity
  8
0-4_寸法
  6
Continuous
 62
     2
370
     9
100
AcDbCircle
 10
1817.069507214932
 20
434.7668774632148
 30
0.0
 40
2.000000115181948
100
AcDbArc
 50
180.0
 51
270.0
  0
ARC
  5
517
330
1F
100
AcDbEntity
  8
0-4_寸法
  6
Continuous
 62
     2
370
     9
100
AcDbCircle
 10
1817.069507214932
 20
420.5470223498356
 30
0.0
 40
2.000000115181948
100
AcDbArc
 50
90.0
 51
180.0
  0
ARC
  5
518
330
1F
100
AcDbEntity
  8
0-4_寸法
  6
Continuous
 62
     2
370
     9
100
AcDbCircle
 10
1805.068856801684
 20
420.5470223498356
 30
0.0
 40
2.000000115181948
100
AcDbArc
 50
0.0
 51
90.0
  0
ARC
  5
519
330
1F
100
AcDbEntity
  8
0-4_寸法
  6
Continuous
 62
     2
370
     9
100
AcDbCircle
 10
1805.068856801684
 20
390.0316942776226
 30
0.0
 40
2.000000115181948
100
AcDbArc
 50
270.0
 51
0.0
  0
ARC
  5
51A
330
1F
100
AcDbEntity
  8
0-4_寸法
  6
Continuous
 62
     2
370
     9
100
AcDbCircle
 10
1817.069507214932
 20
390.0316942776226
 30
0.0
 40
2.000000115181948
100
AcDbArc
 50
180.0
 51
270.0
  0
ARC
  5
51B
330
1F
100
AcDbEntity
  8
0-4_寸法
  6
Continuous
 62
     2
370
     9
100
AcDbCircle
 10
1817.069507214932
 20
381.5588807265926
 30
0.0
 40
2.000000115181948
100
AcDbArc
 50
90.0
 51
180.0
  0
ARC
  5
51C
330
1F
100
AcDbEntity
  8
0-4_寸法
  6
Continuous
 62
     2
370
     9
100
AcDbCircle
 10
1805.068856801684
 20
381.5588807265926
 30
0.0
 40
2.000000115181948
100
AcDbArc
 50
0.0
 51
90.0
  0
ARC
  5
51D
330
1F
100
AcDbEntity
  8
0-4_寸法
  6
Continuous
 62
     2
370
     9
100
AcDbCircle
 10
184.0686947875141
 20
434.7665801819423
 30
0.0
 40
2.000000115181948
100
AcDbArc
 50
180.0
 51
270.0
  0
ARC
  5
51E
330
1F
100
AcDbEntity
  8
0-4_寸法
  6
Continuous
 62
     2
370
     9
100
AcDbCircle
 10
184.0686947875141
 20
420.5464277872903
 30
0.0
 40
2.000000115181948
100
AcDbArc
 50
90.0
 51
180.0
  0
ARC
  5
51F
330
1F
100
AcDbEntity
  8
0-4_寸法
  6
Continuous
 62
     2
370
     9
100
AcDbCircle
 10
184.0686947875141
 20
390.0316942776226
 30
0.0
 40
2.000000115181948
100
AcDbArc
 50
180.0
 51
270.0
  0
ARC
  5
520
330
1F
100
AcDbEntity
  8
0-4_寸法
  6
Continuous
 62
     2
370
     9
100
AcDbCircle
 10
184.0686947875141
 20
381.5588807265926
 30
0.0
 40
2.000000115181948
100
AcDbArc
 50
90.0
 51
180.0
  0
ARC
  5
521
330
1F
100
AcDbEntity
  8
0-4_寸法
  6
Continuous
 62
     2
370
     9
100
AcDbCircle
 10
1856.068945526534
 20
370.6418205520558
 30
0.0
 40
2.000000115181948
100
AcDbArc
 50
270.0
 51
0.0
  0
ARC
  5
522
330
1F
100
AcDbEntity
  8
0-4_寸法
  6
Continuous
 62
     2
370
     9
100
AcDbCircle
 10
164.0687998905245
 20
370.6418205520558
 30
0.0
 40
2.000000115181948
100
AcDbArc
 50
180.0
 51
270.0
  0
ARC
  5
523
330
1F
100
AcDbEntity
  8
0-4_寸法
  6
Continuous
 62
     7
370
     9
100
AcDbCircle
 10
1581.403642999538
 20
453.2964191858109
 30
0.0
 40
20.00000173244697
100
AcDbArc
 50
25.30979919433594
 51
90.0
  0
ARC
  5
524
330
1F
100
AcDbEntity
  8
0-4_寸法
  6
Continuous
 62
     7
370
     9
100
AcDbCircle
 10
1580.752597012493
 20
470.1840764397094
 30
0.0
 40
20.00000173244697
100
AcDbArc
 50
22.68461608886719
 51
90.0
  0
ARC
  5
525
330
1F
100
AcDbEntity
  8
0-4_寸法
  6
Continuous
 62
     4
370
     9
100
AcDbCircle
 10
1583.306243144325
 20
399.9210530927018
 30
0.0
 40
20.00000173244697
100
AcDbArc
 50
33.42539978027344
 51
90.0
  0
ARC
  5
526
330
1F
100
AcDbEntity
  8
0-4_寸法
  6
Continuous
 62
     4
370
     9
100
AcDbCircle
 10
1583.119550505118
 20
405.5586951467255
 30
0.0
 40
20.00000173244697
100
AcDbArc
 50
32.60061645507812
 51
90.0
  0
ARC
  5
527
330
1F
100
AcDbEntity
  8
0-4_寸法
  6
Continuous
 62
     2
370
     9
100
AcDbCircle
 10
217.0692942988558
 20
553.6416317908195
 30
0.0
 40
1.000000057590974
100
AcDbArc
 50
0.0
 51
90.0
  0
ARC
  5
528
330
1F
100
AcDbEntity
  8
0-4_寸法
  6
Continuous
 62
     2
370
     9
100
AcDbCircle
 10
219.0694027010636
 20
551.6415233886116
 30
0.0
 40
1.000000057590974
100
AcDbArc
 50
180.0
 51
270.0
  0
ARC
  5
529
330
1F
100
AcDbEntity
  8
0-4_寸法
  6
Continuous
 62
     2
370
     9
100
AcDbCircle
 10
245.069028242132
 20
551.6415233886116
 30
0.0
 40
1.000000057590974
100
AcDbArc
 50
270.0
 51
0.0
  0
ARC
  5
52A
330
1F
100
AcDbEntity
  8
0-4_寸法
  6
Continuous
 62
     2
370
     9
100
AcDbCircle
 10
247.0691366443403
 20
553.6416317908195
 30
0.0
 40
1.000000057590974
100
AcDbArc
 50
90.0
 51
180.0
  0
ARC
  5
52B
330
1F
100
AcDbEntity
  8
ｱﾝｶｰ
  6
Continuous
 62
     6
370
     5
100
AcDbCircle
 10
370.0692631921353
 20
564.041719832265
 30
0.0
 40
16.00000092145559
100
AcDbArc
 50
93.55198669433594
 51
126.4235992431641
  0
ARC
  5
52C
330
1F
100
AcDbEntity
  8
ｱﾝｶｰ
  6
Continuous
 62
     6
370
     5
100
AcDbCircle
 10
370.0692631921353
 20
564.041719832265
 30
0.0
 40
16.00000092145559
100
AcDbArc
 50
53.57640075683594
 51
86.44801330566406
  0
ARC
  5
52D
330
1F
100
AcDbEntity
  8
0-4_寸法
  6
Continuous
 62
     2
370
     9
100
AcDbCircle
 10
355.0690447381202
 20
553.6416317908195
 30
0.0
 40
1.000000057590974
100
AcDbArc
 50
0.0
 51
90.0
  0
ARC
  5
52E
330
1F
100
AcDbEntity
  8
0-4_寸法
  6
Continuous
 62
     2
370
     9
100
AcDbCircle
 10
357.0691531403287
 20
551.6415233886116
 30
0.0
 40
1.000000057590974
100
AcDbArc
 50
180.0
 51
270.0
  0
ARC
  5
52F
330
1F
100
AcDbEntity
  8
0-4_寸法
  6
Continuous
 62
     2
370
     9
100
AcDbCircle
 10
383.0693732439419
 20
551.6415233886116
 30
0.0
 40
1.000000057590974
100
AcDbArc
 50
270.0
 51
0.0
  0
ARC
  5
530
330
1F
100
AcDbEntity
  8
0-4_寸法
  6
Continuous
 62
     2
370
     9
100
AcDbCircle
 10
385.0691843648775
 20
553.6416317908195
 30
0.0
 40
1.000000057590974
100
AcDbArc
 50
90.0
 51
180.0
  0
ARC
  5
531
330
1F
100
AcDbEntity
  8
ｱﾝｶｰ
  6
Continuous
 62
     6
370
     5
100
AcDbCircle
 10
470.0693322396286
 20
564.041719832265
 30
0.0
 40
16.00000092145559
100
AcDbArc
 50
93.55198669433594
 51
126.4235992431641
  0
ARC
  5
532
330
1F
100
AcDbEntity
  8
ｱﾝｶｰ
  6
Continuous
 62
     6
370
     5
100
AcDbCircle
 10
470.0693322396286
 20
564.041719832265
 30
0.0
 40
16.00000092145559
100
AcDbArc
 50
53.57640075683594
 51
86.44801330566406
  0
ARC
  5
533
330
1F
100
AcDbEntity
  8
0-4_寸法
  6
Continuous
 62
     2
370
     9
100
AcDbCircle
 10
455.0691137856134
 20
553.6416317908195
 30
0.0
 40
1.000000057590974
100
AcDbArc
 50
0.0
 51
90.0
  0
ARC
  5
534
330
1F
100
AcDbEntity
  8
0-4_寸法
  6
Continuous
 62
     2
370
     9
100
AcDbCircle
 10
457.069222187822
 20
551.6415233886116
 30
0.0
 40
1.000000057590974
100
AcDbArc
 50
180.0
 51
270.0
  0
ARC
  5
535
330
1F
100
AcDbEntity
  8
0-4_寸法
  6
Continuous
 62
     2
370
     9
100
AcDbCircle
 10
483.069145010163
 20
551.6415233886116
 30
0.0
 40
1.000000057590974
100
AcDbArc
 50
270.0
 51
0.0
  0
ARC
  5
536
330
1F
100
AcDbEntity
  8
0-4_寸法
  6
Continuous
 62
     2
370
     9
100
AcDbCircle
 10
485.0692534123708
 20
553.6416317908195
 30
0.0
 40
1.000000057590974
100
AcDbArc
 50
90.0
 51
180.0
  0
ARC
  5
537
330
1F
100
AcDbEntity
  8
ｱﾝｶｰ
  6
Continuous
 62
     6
370
     5
100
AcDbCircle
 10
570.069104005849
 20
564.041719832265
 30
0.0
 40
16.00000092145559
100
AcDbArc
 50
93.55198669433594
 51
126.4235992431641
  0
ARC
  5
538
330
1F
100
AcDbEntity
  8
ｱﾝｶｰ
  6
Continuous
 62
     6
370
     5
100
AcDbCircle
 10
570.069104005849
 20
564.041719832265
 30
0.0
 40
16.00000092145559
100
AcDbArc
 50
53.57640075683594
 51
86.44801330566406
  0
ARC
  5
539
330
1F
100
AcDbEntity
  8
0-4_寸法
  6
Continuous
 62
     2
370
     9
100
AcDbCircle
 10
555.0691828331069
 20
553.6416317908195
 30
0.0
 40
1.000000057590974
100
AcDbArc
 50
0.0
 51
90.0
  0
ARC
  5
53A
330
1F
100
AcDbEntity
  8
0-4_寸法
  6
Continuous
 62
     2
370
     9
100
AcDbCircle
 10
557.0692912353152
 20
551.6415233886116
 30
0.0
 40
1.000000057590974
100
AcDbArc
 50
180.0
 51
270.0
  0
ARC
  5
53B
330
1F
100
AcDbEntity
  8
0-4_寸法
  6
Continuous
 62
     2
370
     9
100
AcDbCircle
 10
583.0689167763833
 20
551.6415233886116
 30
0.0
 40
1.000000057590974
100
AcDbArc
 50
270.0
 51
0.0
  0
ARC
  5
53C
330
1F
100
AcDbEntity
  8
0-4_寸法
  6
Continuous
 62
     2
370
     9
100
AcDbCircle
 10
585.0690251785911
 20
553.6416317908195
 30
0.0
 40
1.000000057590974
100
AcDbArc
 50
90.0
 51
180.0
  0
ARC
  5
53D
330
1F
100
AcDbEntity
  8
ｱﾝｶｰ
  6
Continuous
 62
     6
370
     5
100
AcDbCircle
 10
670.069173053343
 20
564.041719832265
 30
0.0
 40
16.00000092145559
100
AcDbArc
 50
93.55198669433594
 51
126.4235992431641
  0
ARC
  5
53E
330
1F
100
AcDbEntity
  8
ｱﾝｶｰ
  6
Continuous
 62
     6
370
     5
100
AcDbCircle
 10
670.069173053343
 20
564.041719832265
 30
0.0
 40
16.00000092145559
100
AcDbArc
 50
53.57640075683594
 51
86.44801330566406
  0
ARC
  5
53F
330
1F
100
AcDbEntity
  8
0-4_寸法
  6
Continuous
 62
     2
370
     9
100
AcDbCircle
 10
655.0692518806009
 20
553.6416317908195
 30
0.0
 40
1.000000057590974
100
AcDbArc
 50
0.0
 51
90.0
  0
ARC
  5
540
330
1F
100
AcDbEntity
  8
0-4_寸法
  6
Continuous
 62
     2
370
     9
100
AcDbCircle
 10
657.0693602828087
 20
551.6415233886116
 30
0.0
 40
1.000000057590974
100
AcDbArc
 50
180.0
 51
270.0
  0
ARC
  5
541
330
1F
100
AcDbEntity
  8
0-4_寸法
  6
Continuous
 62
     2
370
     9
100
AcDbCircle
 10
683.0689858238768
 20
551.6415233886116
 30
0.0
 40
1.000000057590974
100
AcDbArc
 50
270.0
 51
0.0
  0
ARC
  5
542
330
1F
100
AcDbEntity
  8
0-4_寸法
  6
Continuous
 62
     2
370
     9
100
AcDbCircle
 10
685.0690942260851
 20
553.6416317908195
 30
0.0
 40
1.000000057590974
100
AcDbArc
 50
90.0
 51
180.0
  0
ARC
  5
543
330
1F
100
AcDbEntity
  8
ｱﾝｶｰ
  6
Continuous
 62
     6
370
     5
100
AcDbCircle
 10
872.0691222692644
 20
564.041719832265
 30
0.0
 40
16.00000092145559
100
AcDbArc
 50
93.55198669433594
 51
126.4235992431641
  0
ARC
  5
544
330
1F
100
AcDbEntity
  8
ｱﾝｶｰ
  6
Continuous
 62
     6
370
     5
100
AcDbCircle
 10
872.0691222692644
 20
564.041719832265
 30
0.0
 40
16.00000092145559
100
AcDbArc
 50
53.57640075683594
 51
86.44801330566406
  0
ARC
  5
545
330
1F
100
AcDbEntity
  8
0-4_寸法
  6
Continuous
 62
     2
370
     9
100
AcDbCircle
 10
857.0692010965223
 20
553.6416317908195
 30
0.0
 40
1.000000057590974
100
AcDbArc
 50
0.0
 51
90.0
  0
ARC
  5
546
330
1F
100
AcDbEntity
  8
0-4_寸法
  6
Continuous
 62
     2
370
     9
100
AcDbCircle
 10
859.069309498731
 20
551.6415233886116
 30
0.0
 40
1.000000057590974
100
AcDbArc
 50
180.0
 51
270.0
  0
ARC
  5
547
330
1F
100
AcDbEntity
  8
0-4_寸法
  6
Continuous
 62
     2
370
     9
100
AcDbCircle
 10
885.0692323210719
 20
551.6415233886116
 30
0.0
 40
1.000000057590974
100
AcDbArc
 50
270.0
 51
0.0
  0
ARC
  5
548
330
1F
100
AcDbEntity
  8
0-4_寸法
  6
Continuous
 62
     2
370
     9
100
AcDbCircle
 10
887.0693407232798
 20
553.6416317908195
 30
0.0
 40
1.000000057590974
100
AcDbArc
 50
90.0
 51
180.0
  0
ARC
  5
549
330
1F
100
AcDbEntity
  8
ｱﾝｶｰ
  6
Continuous
 62
     6
370
     5
100
AcDbCircle
 10
1174.069437813953
 20
564.041719832265
 30
0.0
 40
16.00000092145559
100
AcDbArc
 50
93.55198669433594
 51
126.4235992431641
  0
ARC
  5
54A
330
1F
100
AcDbEntity
  8
ｱﾝｶｰ
  6
Continuous
 62
     6
370
     5
100
AcDbCircle
 10
1174.069437813953
 20
564.041719832265
 30
0.0
 40
16.00000092145559
100
AcDbArc
 50
53.57640075683594
 51
86.44801330566406
  0
ARC
  5
54B
330
1F
100
AcDbEntity
  8
0-4_寸法
  6
Continuous
 62
     2
370
     9
100
AcDbCircle
 10
1159.069219359938
 20
553.6416317908195
 30
0.0
 40
1.000000057590974
100
AcDbArc
 50
0.0
 51
90.0
  0
ARC
  5
54C
330
1F
100
AcDbEntity
  8
0-4_寸法
  6
Continuous
 62
     2
370
     9
100
AcDbCircle
 10
1161.069327762146
 20
551.6415233886116
 30
0.0
 40
1.000000057590974
100
AcDbArc
 50
180.0
 51
270.0
  0
ARC
  5
54D
330
1F
100
AcDbEntity
  8
0-4_寸法
  6
Continuous
 62
     2
370
     9
100
AcDbCircle
 10
1187.06954786576
 20
551.6415233886116
 30
0.0
 40
1.000000057590974
100
AcDbArc
 50
270.0
 51
0.0
  0
ARC
  5
54E
330
1F
100
AcDbEntity
  8
0-4_寸法
  6
Continuous
 62
     2
370
     9
100
AcDbCircle
 10
1189.069656267968
 20
553.6416317908195
 30
0.0
 40
1.000000057590974
100
AcDbArc
 50
90.0
 51
180.0
  0
ARC
  5
54F
330
1F
100
AcDbEntity
  8
ｱﾝｶｰ
  6
Continuous
 62
     6
370
     5
100
AcDbCircle
 10
1476.069158796096
 20
564.041719832265
 30
0.0
 40
16.00000092145559
100
AcDbArc
 50
93.55198669433594
 51
126.4235992431641
  0
ARC
  5
550
330
1F
100
AcDbEntity
  8
ｱﾝｶｰ
  6
Continuous
 62
     6
370
     5
100
AcDbCircle
 10
1476.069158796096
 20
564.041719832265
 30
0.0
 40
16.00000092145559
100
AcDbArc
 50
53.57640075683594
 51
86.44801330566406
  0
ARC
  5
551
330
1F
100
AcDbEntity
  8
0-4_寸法
  6
Continuous
 62
     2
370
     9
100
AcDbCircle
 10
1461.068940342081
 20
553.6416317908195
 30
0.0
 40
1.000000057590974
100
AcDbArc
 50
0.0
 51
90.0
  0
ARC
  5
552
330
1F
100
AcDbEntity
  8
0-4_寸法
  6
Continuous
 62
     2
370
     9
100
AcDbCircle
 10
1463.069048744289
 20
551.6415233886116
 30
0.0
 40
1.000000057590974
100
AcDbArc
 50
180.0
 51
270.0
  0
ARC
  5
553
330
1F
100
AcDbEntity
  8
0-4_寸法
  6
Continuous
 62
     2
370
     9
100
AcDbCircle
 10
1489.069268847903
 20
551.6415233886116
 30
0.0
 40
1.000000057590974
100
AcDbArc
 50
270.0
 51
0.0
  0
ARC
  5
554
330
1F
100
AcDbEntity
  8
0-4_寸法
  6
Continuous
 62
     2
370
     9
100
AcDbCircle
 10
1491.069377250111
 20
553.6416317908195
 30
0.0
 40
1.000000057590974
100
AcDbArc
 50
90.0
 51
180.0
  0
ARC
  5
555
330
1F
100
AcDbEntity
  8
ｱﾝｶｰ
  6
Continuous
 62
     6
370
     5
100
AcDbCircle
 10
1778.069474340784
 20
564.041719832265
 30
0.0
 40
16.00000092145559
100
AcDbArc
 50
93.55198669433594
 51
126.4235992431641
  0
ARC
  5
556
330
1F
100
AcDbEntity
  8
ｱﾝｶｰ
  6
Continuous
 62
     6
370
     5
100
AcDbCircle
 10
1778.069474340784
 20
564.041719832265
 30
0.0
 40
16.00000092145559
100
AcDbArc
 50
53.57640075683594
 51
86.44801330566406
  0
ARC
  5
557
330
1F
100
AcDbEntity
  8
0-4_寸法
  6
Continuous
 62
     2
370
     9
100
AcDbCircle
 10
1763.069255886769
 20
553.6416317908195
 30
0.0
 40
1.000000057590974
100
AcDbArc
 50
0.0
 51
90.0
  0
ARC
  5
558
330
1F
100
AcDbEntity
  8
0-4_寸法
  6
Continuous
 62
     2
370
     9
100
AcDbCircle
 10
1765.069364288977
 20
551.6415233886116
 30
0.0
 40
1.000000057590974
100
AcDbArc
 50
180.0
 51
270.0
  0
ARC
  5
559
330
1F
100
AcDbEntity
  8
0-4_寸法
  6
Continuous
 62
     2
370
     9
100
AcDbCircle
 10
1791.069584392591
 20
551.6415233886116
 30
0.0
 40
1.000000057590974
100
AcDbArc
 50
270.0
 51
0.0
  0
ARC
  5
55A
330
1F
100
AcDbEntity
  8
0-4_寸法
  6
Continuous
 62
     2
370
     9
100
AcDbCircle
 10
1793.069692794799
 20
553.6416317908195
 30
0.0
 40
1.000000057590974
100
AcDbArc
 50
90.0
 51
180.0
  0
LINE
  5
55B
330
1F
100
AcDbEntity
  8
0-4_寸法
  6
Continuous
 62
     7
370
     9
100
AcDbLine
 10
-39.87653405894658
 20
364.642089907977
 30
0.0
 11
-39.87653405894655
 21
764.6416632483789
 31
0.0
  0
LINE
  5
55C
330
1F
100
AcDbEntity
  8
0-4_寸法
  6
Continuous
 62
     7
370
     9
100
AcDbLine
 10
-39.87653405894658
 20
364.642089907977
 30
0.0
 11
-43.13968886444787
 21
389.4282114423223
 31
0.0
  0
LINE
  5
55D
330
1F
100
AcDbEntity
  8
0-4_寸法
  6
Continuous
 62
     7
370
     9
100
AcDbLine
 10
-39.87653405894658
 20
364.642089907977
 30
0.0
 11
-36.6133792534453
 21
389.4282114423223
 31
0.0
  0
LINE
  5
55E
330
1F
100
AcDbEntity
  8
0-4_寸法
  6
Continuous
 62
     7
370
     9
100
AcDbLine
 10
-39.87653405894655
 20
764.6416632483789
 30
0.0
 11
-43.13968886444783
 21
739.8555417140336
 31
0.0
  0
LINE
  5
55F
330
1F
100
AcDbEntity
  8
0-4_寸法
  6
Continuous
 62
     7
370
     9
100
AcDbLine
 10
-39.87653405894655
 20
764.6416632483789
 30
0.0
 11
-36.61337925344526
 21
739.8555417140336
 31
0.0
  0
LINE
  5
560
330
1F
100
AcDbEntity
  8
0-4_寸法
  6
Continuous
 62
     7
370
     9
100
AcDbLine
 10
-42.87653417815587
 20
364.642089907977
 30
0.0
 11
121.0684451089502
 21
364.642089907977
 31
0.0
  0
LINE
  5
561
330
1F
100
AcDbEntity
  8
0-4_寸法
  6
Continuous
 62
     7
370
     9
100
AcDbLine
 10
-42.87653417815584
 20
764.6416632483789
 30
0.0
 11
121.0684451089502
 21
764.6416632483789
 31
0.0
  0
LINE
  5
562
330
1F
100
AcDbEntity
  8
0-4_寸法
  6
Continuous
 62
     7
370
     9
100
AcDbLine
 10
-1360.359034579917
 20
450.34174061721
 30
0.0
 11
-1360.359034579917
 21
678.9415262636267
 31
0.0
  0
LINE
  5
563
330
1F
100
AcDbEntity
  8
0-4_寸法
  6
Continuous
 62
     7
370
     9
100
AcDbLine
 10
-1360.359034579917
 20
450.34174061721
 30
0.0
 11
-1363.622189385419
 21
475.1278621515552
 31
0.0
  0
LINE
  5
564
330
1F
100
AcDbEntity
  8
0-4_寸法
  6
Continuous
 62
     7
370
     9
100
AcDbLine
 10
-1360.359034579917
 20
450.34174061721
 30
0.0
 11
-1357.095879774416
 21
475.1278621515552
 31
0.0
  0
LINE
  5
565
330
1F
100
AcDbEntity
  8
0-4_寸法
  6
Continuous
 62
     7
370
     9
100
AcDbLine
 10
-1360.359034579917
 20
678.9415262636267
 30
0.0
 11
-1363.622189385419
 21
654.1554047292814
 31
0.0
  0
LINE
  5
566
330
1F
100
AcDbEntity
  8
0-4_寸法
  6
Continuous
 62
     7
370
     9
100
AcDbLine
 10
-1360.359034579917
 20
678.9415262636267
 30
0.0
 11
-1357.095879774416
 21
654.1554047292814
 31
0.0
  0
LINE
  5
567
330
1F
100
AcDbEntity
  8
0-4_寸法
  6
Continuous
 62
     7
370
     9
100
AcDbLine
 10
-1363.359034699127
 20
450.34174061721
 30
0.0
 11
-1280.931440833074
 21
450.34174061721
 31
0.0
  0
LINE
  5
568
330
1F
100
AcDbEntity
  8
0-4_寸法
  6
Continuous
 62
     7
370
     9
100
AcDbLine
 10
-1363.359034699127
 20
678.9415262636267
 30
0.0
 11
-1280.931440833074
 21
678.9415262636267
 31
0.0
  0
TEXT
  5
569
330
1F
100
AcDbEntity
  8
0-4_寸法
  6
Continuous
 62
     2
370
   211
100
AcDbText
 10
-1371.999034818336
 20
487.1416334404183
 30
0.0
 40
30.48
  1
φ114.3
 50
90.0
 41
1.107142857142857
  7
ＭＳ ゴシック
100
AcDbText
  0
TEXT
  5
56A
330
1F
100
AcDbEntity
  8
0-6_化粧Ｐ
  6
Continuous
 62
     7
370
     9
100
AcDbText
 10
-1740.103991662391
 20
401.5545240847237
 30
0.0
 40
13.71600000000003
  1
Ｋ
 50
345.0000422712694
 41
0.8999999999999854
  7
ＭＳ ゴシック
100
AcDbText
  0
TEXT
  5
56B
330
1F
100
AcDbEntity
  8
0-6_化粧Ｐ
  6
Continuous
 62
     7
370
     9
100
AcDbText
 10
-1722.765887646029
 20
396.8976122046313
 30
0.0
 40
13.71600000000005
  1
Ａ
 50
350.9997154429283
 41
0.8999999999999819
  7
ＭＳ ゴシック
100
AcDbText
  0
TEXT
  5
56C
330
1F
100
AcDbEntity
  8
0-6_化粧Ｐ
  6
Continuous
 62
     7
370
     9
100
AcDbText
 10
-1687.108608863179
 20
393.1280241130405
 30
0.0
 40
13.71600000000006
  1
Ｅ
 50
3.000008407775782
 41
0.8999999999999879
  7
ＭＳ ゴシック
100
AcDbText
  0
TEXT
  5
56D
330
1F
100
AcDbEntity
  8
0-6_化粧Ｐ
  6
Continuous
 62
     7
370
     9
100
AcDbText
 10
-1651.446919345577
 20
396.8543464420364
 30
0.0
 40
13.71600000000003
  1
Ｏ
 50
14.99995772873058
 41
0.9000000000000024
  7
ＭＳ ゴシック
100
AcDbText
  0
TEXT
  5
56E
330
1F
100
AcDbEntity
  8
0-6_化粧Ｐ
  6
Continuous
 62
     7
370
     9
100
AcDbText
 10
-1705.036124077065
 20
394.0785101156348
 30
0.0
 40
13.71600000000005
  1
Ｎ
 50
356.9999915922248
 41
0.899999999999988
  7
ＭＳ ゴシック
100
AcDbText
  0
TEXT
  5
56F
330
1F
100
AcDbEntity
  8
0-6_化粧Ｐ
  6
Continuous
 62
     7
370
     9
100
AcDbText
 10
-1669.179808853836
 20
394.0565998986166
 30
0.0
 40
13.71600000000005
  1
Ｓ
 50
9.000284557072334
 41
0.8999999999999996
  7
ＭＳ ゴシック
100
AcDbText
  0
TEXT
  5
570
330
1F
100
AcDbEntity
  8
0-6_化粧Ｐ
  6
Continuous
 62
     7
370
     9
100
AcDbText
 10
-1633.905452784988
 20
727.7287437949765
 30
0.0
 40
13.71599999999999
  1
Ｕ
 50
165.0000489877729
 41
0.9000000000000046
  7
ＭＳ ゴシック
100
AcDbText
  0
TEXT
  5
571
330
1F
100
AcDbEntity
  8
0-6_化粧Ｐ
  6
Continuous
 62
     7
370
     9
100
AcDbText
 10
-1651.243557277937
 20
732.3856545266406
 30
0.0
 40
13.71600000000007
  1
Ｄ
 50
170.9997144754685
 41
0.8999999999999959
  7
ＭＳ ゴシック
100
AcDbText
  0
TEXT
  5
572
330
1F
100
AcDbEntity
  8
0-6_化粧Ｐ
  6
Continuous
 62
     7
370
     9
100
AcDbText
 10
-1668.973320702431
 20
735.2047572555074
 30
0.0
 40
13.716
  1
１
 50
176.9999946801901
 41
0.8999999999999917
  7
ＭＳ ゴシック
100
AcDbText
  0
TEXT
  5
573
330
1F
100
AcDbEntity
  8
0-6_化粧Ｐ
  6
Continuous
 62
     7
370
     9
100
AcDbText
 10
-1686.900836060343
 20
736.1552422699427
 30
0.0
 40
13.716
  1
１
 50
183.0000053198106
 41
0.9000000000000079
  7
ＭＳ ゴシック
100
AcDbText
  0
TEXT
  5
574
330
1F
100
AcDbEntity
  8
0-6_化粧Ｐ
  6
Continuous
 62
     7
370
     9
100
AcDbText
 10
-1704.829636025502
 20
735.2266671388536
 30
0.0
 40
13.71600000000014
  1
７
 50
189.0002855245314
 41
0.8999999999999929
  7
ＭＳ ゴシック
100
AcDbText
  0
TEXT
  5
575
330
1F
100
AcDbEntity
  8
0-6_化粧Ｐ
  6
Continuous
 62
     7
370
     9
100
AcDbText
 10
-1722.563119967352
 20
732.4289193587471
 30
0.0
 40
13.71600000000001
  1
０
 50
194.9999510122277
 41
0.9000000000000071
  7
ＭＳ ゴシック
100
AcDbText
  0
LINE
  5
576
330
1F
100
AcDbEntity
  8
0-0_通り芯
  6
JWW_CENTER1
 62
     4
370
     9
100
AcDbLine
 10
162.0686914883163
 20
564.6416334404182
 30
0.0
 11
-24.03977183655012
 21
564.6416334404182
 31
0.0
  0
LINE
  5
577
330
1F
100
AcDbEntity
  8
0-0_通り芯
  6
JWW_CENTER1
 62
     4
370
     9
100
AcDbLine
 10
-98.5363530240015
 20
564.6416334404182
 30
0.0
 11
-1283.841422107771
 21
564.6416334404182
 31
0.0
  0
LINE
  5
578
330
1F
100
AcDbEntity
  8
0-4_寸法
  6
Continuous
 62
     7
370
     9
100
AcDbLine
 10
-1260.931440833074
 20
961.3138037082495
 30
0.0
 11
139.0689312692874
 21
961.3138037082495
 31
0.0
  0
LINE
  5
579
330
1F
100
AcDbEntity
  8
0-4_寸法
  6
Continuous
 62
     7
370
     9
100
AcDbLine
 10
-1260.931440833074
 20
961.3138037082495
 30
0.0
 11
-1236.145319298729
 21
964.5769585137508
 31
0.0
  0
LINE
  5
57A
330
1F
100
AcDbEntity
  8
0-4_寸法
  6
Continuous
 62
     7
370
     9
100
AcDbLine
 10
-1260.931440833074
 20
961.3138037082495
 30
0.0
 11
-1236.145319298729
 21
958.0506489027481
 31
0.0
  0
LINE
  5
57B
330
1F
100
AcDbEntity
  8
0-4_寸法
  6
Continuous
 62
     7
370
     9
100
AcDbLine
 10
139.0689312692874
 20
961.3138037082495
 30
0.0
 11
114.2828097349422
 21
964.5769585137508
 31
0.0
  0
LINE
  5
57C
330
1F
100
AcDbEntity
  8
0-4_寸法
  6
Continuous
 62
     7
370
     9
100
AcDbLine
 10
139.0689312692874
 20
961.3138037082495
 30
0.0
 11
114.2828097349422
 21
958.0506489027481
 31
0.0
  0
LINE
  5
57D
330
1F
100
AcDbEntity
  8
0-4_寸法
  6
Continuous
 62
     7
370
     9
100
AcDbLine
 10
-1260.931440833074
 20
964.3138038274587
 30
0.0
 11
-1260.931440833074
 21
698.9415262636267
 31
0.0
  0
LINE
  5
57E
330
1F
100
AcDbEntity
  8
0-4_寸法
  6
Continuous
 62
     7
370
     9
100
AcDbLine
 10
139.0689312692874
 20
964.3138038274587
 30
0.0
 11
139.0689312692874
 21
782.641663133197
 31
0.0
  0
TEXT
  5
57F
330
1F
100
AcDbEntity
  8
0-4_寸法
  6
Continuous
 62
     2
370
   211
100
AcDbText
 10
-593.4312547818935
 20
972.953803946668
 30
0.0
 40
30.48
  1
700
 41
1.083333333333333
  7
ＭＳ ゴシック
100
AcDbText
  0
LINE
  5
580
330
1F
100
AcDbEntity
  8
0-4_寸法
  6
Continuous
 62
     7
370
     9
100
AcDbLine
 10
139.0689312692874
 20
961.3138037082495
 30
0.0
 11
1858.068945641716
 21
961.3138037082495
 31
0.0
  0
LINE
  5
581
330
1F
100
AcDbEntity
  8
0-4_寸法
  6
Continuous
 62
     7
370
     9
100
AcDbLine
 10
139.0689312692874
 20
961.3138037082495
 30
0.0
 11
163.8550528036327
 21
964.5769585137508
 31
0.0
  0
LINE
  5
582
330
1F
100
AcDbEntity
  8
0-4_寸法
  6
Continuous
 62
     7
370
     9
100
AcDbLine
 10
139.0689312692874
 20
961.3138037082495
 30
0.0
 11
163.8550528036327
 21
958.0506489027481
 31
0.0
  0
LINE
  5
583
330
1F
100
AcDbEntity
  8
0-4_寸法
  6
Continuous
 62
     7
370
     9
100
AcDbLine
 10
1858.068945641716
 20
961.3138037082495
 30
0.0
 11
1833.282824107371
 21
964.5769585137508
 31
0.0
  0
LINE
  5
584
330
1F
100
AcDbEntity
  8
0-4_寸法
  6
Continuous
 62
     7
370
     9
100
AcDbLine
 10
1858.068945641716
 20
961.3138037082495
 30
0.0
 11
1833.282824107371
 21
958.0506489027481
 31
0.0
  0
LINE
  5
585
330
1F
100
AcDbEntity
  8
0-4_寸法
  6
Continuous
 62
     7
370
     9
100
AcDbLine
 10
1858.068945641716
 20
964.3138038274587
 30
0.0
 11
1858.068945641716
 21
778.641446328781
 31
0.0
  0
TEXT
  5
586
330
1F
100
AcDbEntity
  8
0-4_寸法
  6
Continuous
 62
     2
370
   211
100
AcDbText
 10
966.0689384555017
 20
972.953803946668
 30
0.0
 40
30.48
  1
860
 41
1.083333333333333
  7
ＭＳ ゴシック
100
AcDbText
  0
LINE
  5
587
330
1F
100
AcDbEntity
  8
0-5_文字
  6
Continuous
 62
     7
370
     9
100
AcDbLine
 10
-709.5387670313428
 20
-321.0587710176462
 30
0.0
 11
-729.6237048744592
 21
-298.774340591126
 31
0.0
  0
LINE
  5
588
330
1F
100
AcDbEntity
  8
0-5_文字
  6
Continuous
 62
     7
370
     9
100
AcDbLine
 10
-709.5387670313428
 20
-321.0587710176462
 30
0.0
 11
-723.1715877793368
 21
-294.3352701730516
 31
0.0
  0
LINE
  5
589
330
1F
100
AcDbEntity
  8
0-5_文字
  6
Continuous
 62
     7
370
     9
100
AcDbLine
 10
-887.3383003395621
 20
-62.63134877030808
 30
0.0
 11
-709.5387670313428
 21
-321.0587710176462
 31
0.0
  0
LINE
  5
58A
330
1F
100
AcDbEntity
  8
0-5_文字
  6
Continuous
 62
     7
370
     9
100
AcDbLine
 10
-1209.316895145305
 20
-62.63134877030808
 30
0.0
 11
-887.3383003395621
 21
-62.63134877030808
 31
0.0
  0
TEXT
  5
58B
330
1F
100
AcDbEntity
  8
0-5_文字
  6
Continuous
 62
     7
370
     9
100
AcDbText
 10
-1203.002709255314
 20
-45.48696954733516
 30
0.0
 40
22.86000000000006
  1
支柱：ＳＵＳ３０４
 41
1.148148148148145
  7
ＭＳ ゴシック
100
AcDbText
  0
TEXT
  5
58C
330
1F
100
AcDbEntity
  8
0-5_文字
  6
Continuous
 62
     7
370
     9
100
AcDbText
 10
-1172.189479732702
 20
-97.33897413981826
 30
0.0
 40
22.86000000000006
  1
ヘアライン仕上
 41
1.142857142857141
  7
ＭＳ ゴシック
100
AcDbText
  0
LINE
  5
58D
330
1F
100
AcDbEntity
  8
0-5_文字
  6
Continuous
 62
     7
370
     9
100
AcDbLine
 10
-524.2024479381964
 20
-201.7503275953199
 30
0.0
 11
-67.90658909106838
 21
-201.7503275953199
 31
0.0
  0
LINE
  5
58E
330
1F
100
AcDbEntity
  8
0-5_文字
  6
Continuous
 62
     7
370
     9
100
AcDbLine
 10
-404.0515837957292
 20
123.2230033983578
 30
0.0
 11
52.24427505139886
 21
123.2230033983578
 31
0.0
  0
TEXT
  5
58F
330
1F
100
AcDbEntity
  8
0-5_文字
  6
Continuous
 62
     7
370
     9
100
AcDbText
 10
-396.0016240459407
 20
140.3673826213307
 30
0.0
 40
22.86000000000006
  1
化粧プレート：ＳＵＳ３０４
 41
1.153846153846151
  7
ＭＳ ゴシック
100
AcDbText
  0
TEXT
  5
590
330
1F
100
AcDbEntity
  8
0-5_文字
  6
Continuous
 62
     7
370
     9
100
AcDbText
 10
-281.5003689950609
 20
88.6309166798301
 30
0.0
 40
22.85999999999983
  1
ヘアライン仕上
 50
359.999948446344
 41
1.142857142857153
  7
ＭＳ ゴシック
100
AcDbText
  0
LINE
  5
591
330
1F
100
AcDbEntity
  8
0-5_文字
  6
Continuous
 62
     7
370
     9
100
AcDbLine
 10
-454.5600408103993
 20
-34.21503483889241
 30
0.0
 11
-68.06266785106934
 21
-34.21503483889241
 31
0.0
  0
TEXT
  5
592
330
1F
100
AcDbEntity
  8
0-5_文字
  6
Continuous
 62
     7
370
     9
100
AcDbText
 10
-433.8113543307344
 20
-17.07065561591949
 30
0.0
 40
22.86000000000006
  1
南京錠：ＣＡＣ２０２
 41
1.149999999999997
  7
ＭＳ ゴシック
100
AcDbText
  0
LINE
  5
593
330
1F
100
AcDbEntity
  8
0-5_文字
  6
Continuous
 62
     7
370
     9
100
AcDbLine
 10
52.24427505139886
 20
123.2230033983578
 30
0.0
 11
139.0684766869851
 21
-290.7561425704561
 31
0.0
  0
LINE
  5
594
330
1F
100
AcDbEntity
  8
0-5_文字
  6
Continuous
 62
     7
370
     9
100
AcDbLine
 10
139.0684766869851
 20
-290.7561425704561
 30
0.0
 11
130.7870842377677
 21
-267.167616989105
 31
0.0
  0
LINE
  5
595
330
1F
100
AcDbEntity
  8
0-5_文字
  6
Continuous
 62
     7
370
     9
100
AcDbLine
 10
139.0684766869851
 20
-290.7561425704561
 30
0.0
 11
137.1744255089925
 21
-265.827994421523
 31
0.0
  0
LINE
  5
596
330
1F
100
AcDbEntity
  8
0-5_文字
  6
Continuous
 62
     7
370
     9
100
AcDbLine
 10
-68.06266785106934
 20
-34.21503483889241
 30
0.0
 11
91.51567025986496
 21
-266.1577574334356
 31
0.0
  0
LINE
  5
597
330
1F
100
AcDbEntity
  8
0-5_文字
  6
Continuous
 62
     7
370
     9
100
AcDbLine
 10
91.51567025986496
 20
-266.1577574334356
 30
0.0
 11
74.77824223383564
 21
-247.5873911722792
 31
0.0
  0
LINE
  5
598
330
1F
100
AcDbEntity
  8
0-5_文字
  6
Continuous
 62
     7
370
     9
100
AcDbLine
 10
91.51567025986496
 20
-266.1577574334356
 30
0.0
 11
80.15492072678543
 21
-243.8881959189684
 31
0.0
  0
LINE
  5
599
330
1F
100
AcDbEntity
  8
0-5_文字
  6
Continuous
 62
     7
370
     9
100
AcDbLine
 10
-67.90658909106838
 20
-201.7503275953199
 30
0.0
 11
27.06821180854606
 21
-339.793586845316
 31
0.0
  0
LINE
  5
59A
330
1F
100
AcDbEntity
  8
0-5_文字
  6
Continuous
 62
     7
370
     9
100
AcDbLine
 10
27.06821180854606
 20
-339.793586845316
 30
0.0
 11
10.33078378251673
 21
-321.2232205841597
 31
0.0
  0
LINE
  5
59B
330
1F
100
AcDbEntity
  8
0-5_文字
  6
Continuous
 62
     7
370
     9
100
AcDbLine
 10
27.06821180854606
 20
-339.793586845316
 30
0.0
 11
15.70746227546653
 21
-317.5240253308488
 31
0.0
  0
LINE
  5
59C
330
1F
100
AcDbEntity
  8
0-5_文字
  6
Continuous
 62
     7
370
     9
100
AcDbLine
 10
-1080.09729467092
 20
316.2153923545226
 30
0.0
 11
-897.3360765741608
 21
316.2153923545226
 31
0.0
  0
TEXT
  5
59D
330
1F
100
AcDbEntity
  8
0-5_文字
  6
Continuous
 62
     7
370
     9
100
AcDbText
 10
-1070.097228686967
 20
330.445425346499
 30
0.0
 40
22.85999999999999
  1
反射テープ
 41
1.133333333333334
  7
ＭＳ ゴシック
100
AcDbText
  0
LINE
  5
59E
330
1F
100
AcDbEntity
  8
0-5_文字
  6
Continuous
 62
     7
370
     9
100
AcDbLine
 10
-1080.09729467092
 20
316.2153923545226
 30
0.0
 11
-1152.845620042191
 21
476.3041978690352
 31
0.0
  0
LINE
  5
59F
330
1F
100
AcDbEntity
  8
0-5_文字
  6
Continuous
 62
     7
370
     9
100
AcDbLine
 10
-1152.845620042191
 20
476.3041978690352
 30
0.0
 11
-1145.562107968372
 21
452.3887122609497
 31
0.0
  0
LINE
  5
5A0
330
1F
100
AcDbEntity
  8
0-5_文字
  6
Continuous
 62
     7
370
     9
100
AcDbLine
 10
-1152.845620042191
 20
476.3041978690352
 30
0.0
 11
-1139.620504475753
 21
455.0887243118793
 31
0.0
  0
LINE
  5
5A1
330
1F
100
AcDbEntity
  8
0-5_文字
  6
Continuous
 62
     7
370
     9
100
AcDbLine
 10
1054.390197944375
 20
-239.3584452690111
 30
0.0
 11
1068.023142412281
 21
-212.6349444244166
 31
0.0
  0
LINE
  5
5A2
330
1F
100
AcDbEntity
  8
0-5_文字
  6
Continuous
 62
     7
370
     9
100
AcDbLine
 10
1054.390197944375
 20
-239.3584452690111
 30
0.0
 11
1074.475135787492
 21
-217.074014842491
 31
0.0
  0
LINE
  5
5A3
330
1F
100
AcDbEntity
  8
0-5_文字
  6
Continuous
 62
     7
370
     9
100
AcDbLine
 10
1167.042125995473
 20
-75.621576075599
 30
0.0
 11
1054.390197944375
 21
-239.3584452690111
 31
0.0
  0
LINE
  5
5A4
330
1F
100
AcDbEntity
  8
0-5_文字
  6
Continuous
 62
     7
370
     9
100
AcDbLine
 10
1564.636814176005
 20
-75.621576075599
 30
0.0
 11
1167.042125995473
 21
-75.621576075599
 31
0.0
  0
TEXT
  5
5A5
330
1F
100
AcDbEntity
  8
0-5_文字
  6
Continuous
 62
     7
370
     9
100
AcDbText
 10
1175.839470085739
 20
-58.47694941280356
 30
0.0
 40
22.86000000000006
  1
埋設管：ポリプロピレン
 41
1.151515151515152
  7
ＭＳ ゴシック
100
AcDbText
  0
LINE
  5
5A6
330
1F
100
AcDbEntity
  8
0-5_文字
  6
Continuous
 62
     7
370
     9
100
AcDbLine
 10
60.29143891955613
 20
-714.738876822572
 30
0.0
 11
158.6413753833477
 21
-571.7899509191438
 31
0.0
  0
LINE
  5
5A7
330
1F
100
AcDbEntity
  8
0-5_文字
  6
Continuous
 62
     7
370
     9
100
AcDbLine
 10
158.6413753833477
 20
-571.7899509191438
 30
0.0
 11
147.2806258502683
 21
-594.0595124336111
 31
0.0
  0
LINE
  5
5A8
330
1F
100
AcDbEntity
  8
0-5_文字
  6
Continuous
 62
     7
370
     9
100
AcDbLine
 10
158.6413753833477
 20
-571.7899509191438
 30
0.0
 11
141.9039473573184
 21
-590.3603171803003
 31
0.0
  0
LINE
  5
5A9
330
1F
100
AcDbEntity
  8
0-5_文字
  6
Continuous
 62
     7
370
     9
100
AcDbLine
 10
-450.4046941045934
 20
-714.738876822572
 30
0.0
 11
60.29143891955613
 21
-714.738876822572
 31
0.0
  0
TEXT
  5
5AA
330
1F
100
AcDbEntity
  8
0-5_文字
  6
Continuous
 62
     7
370
     9
100
AcDbText
 10
-437.5566275925186
 20
-697.5944975995991
 30
0.0
 40
22.85999999999992
  1
パイプガイド：ポリプロピレン
 41
1.15476190476191
  7
ＭＳ ゴシック
100
AcDbText
  0
TEXT
  5
5AB
330
1F
100
AcDbEntity
  8
F-5ﾚｲﾔ
  6
Continuous
 62
     7
370
     9
100
AcDbText
 10
-778.5004123997044
 20
-1345.673295749973
 30
0.0
 40
26.67000000000001
  1
上下式　南京錠付　ステンレス製　車止め　ＵＤ１１７０ＮＬ
 41
1.027551020408163
  7
ＭＳ ゴシック
100
AcDbText
  0
TEXT
  5
5AC
330
1F
100
AcDbEntity
  8
0-4_寸法
  6
Continuous
 62
     2
370
   211
100
AcDbText
 10
-51.51653429736514
 20
509.641876578178
 30
0.0
 40
30.48
  1
φ200
 50
90.0
 41
1.1
  7
ＭＳ ゴシック
100
AcDbText
  0
TEXT
  5
5AD
330
1F
100
AcDbEntity
  8
F-Eﾚｲﾔ
  6
Continuous
 62
     2
370
     9
100
AcDbText
 10
1368.873503562779
 20
-1091.595015478822
 30
0.0
 40
30.48
  1
重量：９．２ｋｇ／本
 50
359.9999645568635
 41
1.1125
  7
ＭＳ ゴシック
100
AcDbText
  0
TEXT
  5
5AE
330
1F
100
AcDbEntity
  8
0-5_文字
  6
Continuous
 62
     7
370
     9
100
AcDbText
 10
-498.652488188408
 20
-184.6059483723469
 30
0.0
 40
22.86000000000006
  1
ロックピン：ＳＣＳ１３Ａ
 41
1.152777777777775
  7
ＭＳ ゴシック
100
AcDbText
  0
ENDSEC
  0
SECTION
  2
OBJECTS
  0
DICTIONARY
  5
C
330
0
100
AcDbDictionary
281
     1
  3
ACAD_DETAILVIEWSTYLE
350
5B6
  3
ACAD_GROUP
350
D
  3
ACAD_LAYOUT
350
1A
  3
ACAD_MATERIAL
350
43
  3
ACAD_MLEADERSTYLE
350
6B
  3
ACAD_MLINESTYLE
350
17
  3
ACAD_PLOTSETTINGS
350
19
  3
ACAD_PLOTSTYLENAME
350
E
  3
ACAD_SCALELIST
350
47
  3
ACAD_SECTIONVIEWSTYLE
350
5B7
  3
ACAD_TABLESTYLE
350
69
  3
ACAD_VISUALSTYLE
350
2A
  3
ACDB_RECOMPOSE_DATA
350
5B3
  3
AcDbVariableDictionary
350
5AF
  0
SUN
  5
6D
330
29
100
AcDbSun
 90
        1
290
     0
 63
     7
421
 16777215
 40
1.0
291
     1
 91
  2455826
 92
 54000000
292
     0
 70
     2
 71
   256
280
     1
  0
DICTIONARY
  5
5B6
102
{ACAD_REACTORS
330
C
102
}
330
C
100
AcDbDictionary
281
     1
  0
DICTIONARY
  5
D
102
{ACAD_REACTORS
330
C
102
}
330
C
100
AcDbDictionary
281
     1
  0
DICTIONARY
  5
1A
102
{ACAD_REACTORS
330
C
102
}
330
C
100
AcDbDictionary
281
     1
  3
Layout1
350
1E
  3
Layout2
350
26
  3
Model
350
22
  0
DICTIONARY
  5
43
102
{ACAD_REACTORS
330
C
102
}
330
C
100
AcDbDictionary
281
     1
  3
ByBlock
350
45
  3
ByLayer
350
44
  3
Global
350
46
  0
DICTIONARY
  5
6B
102
{ACAD_REACTORS
330
C
102
}
330
C
100
AcDbDictionary
281
     1
  3
Standard
350
6C
  0
DICTIONARY
  5
17
102
{ACAD_REACTORS
330
C
102
}
330
C
100
AcDbDictionary
281
     1
  3
Standard
350
18
  0
DICTIONARY
  5
19
102
{ACAD_REACTORS
330
C
102
}
330
C
100
AcDbDictionary
281
     1
  0
ACDBDICTIONARYWDFLT
  5
E
102
{ACAD_REACTORS
330
C
102
}
330
C
100
AcDbDictionary
281
     1
  3
Normal
350
F
100
AcDbDictionaryWithDefault
340
F
  0
DICTIONARY
  5
47
102
{ACAD_REACTORS
330
C
102
}
330
C
100
AcDbDictionary
281
     1
  3
A0
350
48
  3
A1
350
49
  3
A2
350
4A
  3
A3
350
4B
  3
A4
350
4C
  3
A5
350
4D
  3
A6
350
4E
  3
A7
350
4F
  3
A8
350
50
  3
A9
350
51
  3
B0
350
52
  3
B1
350
53
  3
B2
350
54
  3
B3
350
55
  3
B4
350
56
  3
B5
350
57
  3
B6
350
58
  3
B7
350
59
  3
B8
350
5A
  3
B9
350
5B
  3
C0
350
5C
  3
C1
350
5D
  3
C2
350
5E
  3
C3
350
5F
  3
C4
350
60
  3
C5
350
61
  3
C6
350
62
  3
C7
350
63
  3
C8
350
64
  3
C9
350
65
  3
D0
350
66
  3
D1
350
67
  3
D2
350
68
  0
DICTIONARY
  5
5B7
102
{ACAD_REACTORS
330
C
102
}
330
C
100
AcDbDictionary
281
     1
  0
DICTIONARY
  5
69
102
{ACAD_REACTORS
330
C
102
}
330
C
100
AcDbDictionary
281
     1
  3
Standard
350
6A
  0
DICTIONARY
  5
2A
102
{ACAD_REACTORS
330
C
102
}
330
C
100
AcDbDictionary
281
     1
  3
2dWireframe
350
2F
  3
Basic
350
32
  3
Brighten
350
36
  3
ColorChange
350
3A
  3
Conceptual
350
34
  3
Dim
350
35
  3
EdgeColorOff
350
3D
  3
Facepattern
350
39
  3
Flat
350
2B
  3
FlatWithEdges
350
2C
  3
Gouraud
350
2D
  3
GouraudWithEdges
350
2E
  3
Hidden
350
31
  3
JitterOff
350
3B
  3
Linepattern
350
38
  3
OverhangOff
350
3C
  3
Realistic
350
33
  3
Shaded
350
42
  3
Shaded with edges
350
41
  3
Shades of Gray
350
3E
  3
Sketchy
350
3F
  3
Thicken
350
37
  3
Wireframe
350
30
  3
X-Ray
350
40
  0
XRECORD
  5
5B3
102
{ACAD_REACTORS
330
C
102
}
330
C
100
AcDbXrecord
280
     1
 90
        1
330
6A
  0
DICTIONARY
  5
5AF
102
{ACAD_REACTORS
330
C
102
}
330
C
100
AcDbDictionary
281
     1
  3
CANNOSCALE
350
5B0
  3
CENTEREXE
350
5B8
  3
CENTERLTYPEFILE
350
5B9
  3
CMLEADERSTYLE
350
5B5
  3
CTABLESTYLE
350
5B4
  0
LAYOUT
  5
1E
102
{ACAD_REACTORS
330
1A
102
}
330
1A
100
AcDbPlotSettings
  1

  2
none_device
  4

  6

 40
0.0
 41
0.0
 42
0.0
 43
0.0
 44
0.0
 45
0.0
 46
0.0
 47
0.0
 48
0.0
 49
0.0
140
0.0
141
0.0
142
1.0
143
1.0
 70
   688
 72
     1
 73
     0
 74
     5
  7

 75
    16
 76
     0
 77
     5
 78
   300
147
1.0
148
0.0
149
0.0
100
AcDbLayout
  1
Layout1
 70
     1
 71
     1
 10
0.0
 20
0.0
 11
420.0
 21
297.0
 12
0.0
 22
0.0
 32
0.0
 14
1.000000000000000E+20
 24
1.000000000000000E+20
 34
1.000000000000000E+20
 15
-1.000000000000000E+20
 25
-1.000000000000000E+20
 35
-1.000000000000000E+20
146
0.0
 13
0.0
 23
0.0
 33
0.0
 16
1.0
 26
0.0
 36
0.0
 17
0.0
 27
1.0
 37
0.0
 76
     0
330
1B
  0
LAYOUT
  5
26
102
{ACAD_REACTORS
330
1A
102
}
330
1A
100
AcDbPlotSettings
  1

  2
none_device
  4

  6

 40
0.0
 41
0.0
 42
0.0
 43
0.0
 44
0.0
 45
0.0
 46
0.0
 47
0.0
 48
0.0
 49
0.0
140
0.0
141
0.0
142
1.0
143
1.0
 70
   688
 72
     1
 73
     0
 74
     5
  7

 75
    16
 76
     0
 77
     5
 78
   300
147
1.0
148
0.0
149
0.0
100
AcDbLayout
  1
Layout2
 70
     1
 71
     2
 10
0.0
 20
0.0
 11
0.0
 21
0.0
 12
0.0
 22
0.0
 32
0.0
 14
0.0
 24
0.0
 34
0.0
 15
0.0
 25
0.0
 35
0.0
146
0.0
 13
0.0
 23
0.0
 33
0.0
 16
1.0
 26
0.0
 36
0.0
 17
0.0
 27
1.0
 37
0.0
 76
     0
330
23
  0
LAYOUT
  5
22
102
{ACAD_REACTORS
330
1A
102
}
330
1A
100
AcDbPlotSettings
  1

  2
none_device
  4
Letter_(8.50_x_11.00_Inches)
  6

 40
6.35
 41
6.35
 42
6.35000508
 43
6.35000508
 44
215.9
 45
279.4
 46
0.0
 47
0.0
 48
0.0
 49
0.0
140
0.0
141
0.0
142
1.0
143
1.0
 70
  1712
 72
     1
 73
     0
 74
     0
  7

 75
     0
 76
     0
 77
     5
 78
   300
147
1.0
148
0.0
149
0.0
100
AcDbLayout
  1
Model
 70
     1
 71
     0
 10
-2100.0
 20
-1485.0
 11
2100.0
 21
1485.0
 12
0.0
 22
0.0
 32
0.0
 14
-2100.0
 24
-1485.0
 34
0.0
 15
2100.0
 25
1485.0
 35
0.0
146
0.0
 13
0.0
 23
0.0
 33
0.0
 16
1.0
 26
0.0
 36
0.0
 17
0.0
 27
1.0
 37
0.0
 76
     0
330
1F
331
29
  0
MATERIAL
  5
45
102
{ACAD_REACTORS
330
43
102
}
330
43
100
AcDbMaterial
  1
ByBlock
 72
     1
 94
      127
  0
MATERIAL
  5
44
102
{ACAD_REACTORS
330
43
102
}
330
43
100
AcDbMaterial
  1
ByLayer
 72
     1
 94
      127
  0
MATERIAL
  5
46
102
{ACAD_REACTORS
330
43
102
}
330
43
100
AcDbMaterial
  1
Global
 72
     1
 94
      127
  0
MLEADERSTYLE
  5
6C
102
{ACAD_REACTORS
330
6B
102
}
330
6B
100
AcDbMLeaderStyle
179
     2
170
     2
171
     1
172
     0
 90
        2
 40
0.0
 41
0.0
173
     1
 91
-1056964608
340
14
 92
       -2
290
     1
 42
2.0
291
     1
 43
8.0
  3
Standard
341
0
 44
4.0
300

342
11
174
     1
178
     6
175
     1
176
     0
 93
-1056964608
 45
4.0
292
     0
297
     0
 46
4.0
343
0
 94
-1056964608
 47
1.0
 49
1.0
140
1.0
293
     1
141
0.0
294
     1
177
     0
142
1.0
295
     0
296
     0
143
3.75
271
     0
272
     9
273
     9
298
     0
  0
MLINESTYLE
  5
18
102
{ACAD_REACTORS
330
17
102
}
330
17
100
AcDbMlineStyle
  2
Standard
 70
     0
  3

 62
   256
 51
90.0
 52
90.0
 71
     2
 49
0.5
 62
   256
  6
BYLAYER
 49
-0.5
 62
   256
  6
BYLAYER
  0
ACDBPLACEHOLDER
  5
F
102
{ACAD_REACTORS
330
E
102
}
330
E
  0
SCALE
  5
48
102
{ACAD_REACTORS
330
47
102
}
330
47
100
AcDbScale
 70
     0
300
1:1
140
1.0
141
1.0
290
     1
  0
SCALE
  5
49
102
{ACAD_REACTORS
330
47
102
}
330
47
100
AcDbScale
 70
     0
300
1:2
140
1.0
141
2.0
290
     0
  0
SCALE
  5
4A
102
{ACAD_REACTORS
330
47
102
}
330
47
100
AcDbScale
 70
     0
300
1:4
140
1.0
141
4.0
290
     0
  0
SCALE
  5
4B
102
{ACAD_REACTORS
330
47
102
}
330
47
100
AcDbScale
 70
     0
300
1:5
140
1.0
141
5.0
290
     0
  0
SCALE
  5
4C
102
{ACAD_REACTORS
330
47
102
}
330
47
100
AcDbScale
 70
     0
300
1:8
140
1.0
141
8.0
290
     0
  0
SCALE
  5
4D
102
{ACAD_REACTORS
330
47
102
}
330
47
100
AcDbScale
 70
     0
300
1:10
140
1.0
141
10.0
290
     0
  0
SCALE
  5
4E
102
{ACAD_REACTORS
330
47
102
}
330
47
100
AcDbScale
 70
     0
300
1:16
140
1.0
141
16.0
290
     0
  0
SCALE
  5
4F
102
{ACAD_REACTORS
330
47
102
}
330
47
100
AcDbScale
 70
     0
300
1:20
140
1.0
141
20.0
290
     0
  0
SCALE
  5
50
102
{ACAD_REACTORS
330
47
102
}
330
47
100
AcDbScale
 70
     0
300
1:30
140
1.0
141
30.0
290
     0
  0
SCALE
  5
51
102
{ACAD_REACTORS
330
47
102
}
330
47
100
AcDbScale
 70
     0
300
1:40
140
1.0
141
40.0
290
     0
  0
SCALE
  5
52
102
{ACAD_REACTORS
330
47
102
}
330
47
100
AcDbScale
 70
     0
300
1:50
140
1.0
141
50.0
290
     0
  0
SCALE
  5
53
102
{ACAD_REACTORS
330
47
102
}
330
47
100
AcDbScale
 70
     0
300
1:100
140
1.0
141
100.0
290
     0
  0
SCALE
  5
54
102
{ACAD_REACTORS
330
47
102
}
330
47
100
AcDbScale
 70
     0
300
2:1
140
2.0
141
1.0
290
     0
  0
SCALE
  5
55
102
{ACAD_REACTORS
330
47
102
}
330
47
100
AcDbScale
 70
     0
300
4:1
140
4.0
141
1.0
290
     0
  0
SCALE
  5
56
102
{ACAD_REACTORS
330
47
102
}
330
47
100
AcDbScale
 70
     0
300
8:1
140
8.0
141
1.0
290
     0
  0
SCALE
  5
57
102
{ACAD_REACTORS
330
47
102
}
330
47
100
AcDbScale
 70
     0
300
10:1
140
10.0
141
1.0
290
     0
  0
SCALE
  5
58
102
{ACAD_REACTORS
330
47
102
}
330
47
100
AcDbScale
 70
     0
300
100:1
140
100.0
141
1.0
290
     0
  0
SCALE
  5
59
102
{ACAD_REACTORS
330
47
102
}
330
47
100
AcDbScale
 70
     0
300
1/128" = 1'-0"
140
0.0078125
141
12.0
290
     0
  0
SCALE
  5
5A
102
{ACAD_REACTORS
330
47
102
}
330
47
100
AcDbScale
 70
     0
300
1/64" = 1'-0"
140
0.015625
141
12.0
290
     0
  0
SCALE
  5
5B
102
{ACAD_REACTORS
330
47
102
}
330
47
100
AcDbScale
 70
     0
300
1/32" = 1'-0"
140
0.03125
141
12.0
290
     0
  0
SCALE
  5
5C
102
{ACAD_REACTORS
330
47
102
}
330
47
100
AcDbScale
 70
     0
300
1/16" = 1'-0"
140
0.0625
141
12.0
290
     0
  0
SCALE
  5
5D
102
{ACAD_REACTORS
330
47
102
}
330
47
100
AcDbScale
 70
     0
300
3/32" = 1'-0"
140
0.09375
141
12.0
290
     0
  0
SCALE
  5
5E
102
{ACAD_REACTORS
330
47
102
}
330
47
100
AcDbScale
 70
     0
300
1/8" = 1'-0"
140
0.125
141
12.0
290
     0
  0
SCALE
  5
5F
102
{ACAD_REACTORS
330
47
102
}
330
47
100
AcDbScale
 70
     0
300
3/16" = 1'-0"
140
0.1875
141
12.0
290
     0
  0
SCALE
  5
60
102
{ACAD_REACTORS
330
47
102
}
330
47
100
AcDbScale
 70
     0
300
1/4" = 1'-0"
140
0.25
141
12.0
290
     0
  0
SCALE
  5
61
102
{ACAD_REACTORS
330
47
102
}
330
47
100
AcDbScale
 70
     0
300
3/8" = 1'-0"
140
0.375
141
12.0
290
     0
  0
SCALE
  5
62
102
{ACAD_REACTORS
330
47
102
}
330
47
100
AcDbScale
 70
     0
300
1/2" = 1'-0"
140
0.5
141
12.0
290
     0
  0
SCALE
  5
63
102
{ACAD_REACTORS
330
47
102
}
330
47
100
AcDbScale
 70
     0
300
3/4" = 1'-0"
140
0.75
141
12.0
290
     0
  0
SCALE
  5
64
102
{ACAD_REACTORS
330
47
102
}
330
47
100
AcDbScale
 70
     0
300
1" = 1'-0"
140
1.0
141
12.0
290
     0
  0
SCALE
  5
65
102
{ACAD_REACTORS
330
47
102
}
330
47
100
AcDbScale
 70
     0
300
1-1/2" = 1'-0"
140
1.5
141
12.0
290
     0
  0
SCALE
  5
66
102
{ACAD_REACTORS
330
47
102
}
330
47
100
AcDbScale
 70
     0
300
3" = 1'-0"
140
3.0
141
12.0
290
     0
  0
SCALE
  5
67
102
{ACAD_REACTORS
330
47
102
}
330
47
100
AcDbScale
 70
     0
300
6" = 1'-0"
140
6.0
141
12.0
290
     0
  0
SCALE
  5
68
102
{ACAD_REACTORS
330
47
102
}
330
47
100
AcDbScale
 70
     0
300
1'-0" = 1'-0"
140
12.0
141
12.0
290
     0
  0
TABLESTYLE
  5
6A
102
{ACAD_REACTORS
330
69
102
}
102
{ACAD_XDICTIONARY
360
5B1
102
}
330
69
100
AcDbTableStyle
  3
Standard
 70
     0
 71
     0
 40
0.06
 41
0.06
280
     0
281
     0
  7
Standard
140
4.5
170
     2
 62
     0
 63
   257
283
     0
 90
        4
 91
        0
  1

274
    -2
284
     1
 64
     0
275
    -2
285
     1
 65
     0
276
    -2
286
     1
 66
     0
277
    -2
287
     1
 67
     0
278
    -2
288
     1
 68
     0
279
    -2
289
     1
 69
     0
  7
Standard
140
6.0
170
     5
 62
     0
 63
   257
283
     0
 90
        4
 91
        0
  1

274
    -2
284
     1
 64
     0
275
    -2
285
     1
 65
     0
276
    -2
286
     1
 66
     0
277
    -2
287
     1
 67
     0
278
    -2
288
     1
 68
     0
279
    -2
289
     1
 69
     0
  7
Standard
140
4.5
170
     5
 62
     0
 63
   257
283
     0
 90
        4
 91
        0
  1

274
    -2
284
     1
 64
     0
275
    -2
285
     1
 65
     0
276
    -2
286
     1
 66
     0
277
    -2
287
     1
 67
     0
278
    -2
288
     1
 68
     0
279
    -2
289
     1
 69
     0
  0
VISUALSTYLE
  5
2F
102
{ACAD_REACTORS
330
2A
102
}
330
2A
100
AcDbVisualStyle
  2
2dWireframe
 70
     4
177
     3
291
     0
 70
    58
 90
        0
176
     1
 90
        2
176
     1
 90
        0
176
     1
 90
        0
176
     1
 40
0.6
176
     1
 40
30.0
176
     1
 62
     7
420
 16777215
176
     1
 90
        1
176
     1
 90
        4
176
     1
 62
     7
176
     1
 62
   257
176
     1
 90
        1
176
     1
 90
        1
176
     1
 40
1.0
176
     1
 90
        0
176
     1
 62
   257
176
     1
 40
1.0
176
     1
 90
        1
176
     1
 90
        6
176
     1
 90
        2
176
     1
 62
     7
176
     1
 90
        5
176
     1
 90
        0
176
     1
 90
        0
176
     1
290
     0
176
     1
 90
        1
176
     1
 40
0.0
176
     1
 90
        0
176
     1
290
     1
176
     1
290
     1
176
     1
290
     0
176
     1
290
     0
176
     1
290
     0
176
     1
290
     0
176
     1
290
     0
176
     1
290
     0
176
     1
290
     0
176
     1
 90
       50
176
     1
 40
0.0
176
     1
 40
1.0
176
     1
 90
        0
176
     1
 62
    18
420
        0
176
     1
 90
       50
176
     1
 90
        3
176
     1
 62
     5
420
      255
176
     1
290
     0
176
     1
 90
       50
176
     1
 90
       50
176
     1
 90
       50
176
     1
290
     0
176
     1
 90
       50
176
     1
 62
   256
176
     0
 40
1.0
176
     0
 90
        2
176
     1
  1
strokes_ogs.tif
176
     1
290
     0
176
     1
 40
1.0
176
     1
 40
1.0
176
     1
  0
VISUALSTYLE
  5
32
102
{ACAD_REACTORS
330
2A
102
}
330
2A
100
AcDbVisualStyle
  2
Basic
 70
     7
177
     3
291
     1
 70
    58
 90
        1
176
     1
 90
        0
176
     1
 90
        1
176
     1
 90
        0
176
     1
 40
0.6
176
     1
 40
30.0
176
     1
 62
     7
420
 16777215
176
     1
 90
        0
176
     1
 90
        4
176
     1
 62
     7
176
     1
 62
   257
176
     1
 90
        1
176
     1
 90
        1
176
     1
 40
1.0
176
     1
 90
        8
176
     1
 62
     7
176
     1
 40
1.0
176
     1
 90
        1
176
     1
 90
        6
176
     1
 90
        2
176
     1
 62
     7
176
     1
 90
        5
176
     1
 90
        0
176
     1
 90
        0
176
     1
290
     0
176
     1
 90
        1
176
     1
 40
0.0
176
     1
 90
        0
176
     1
290
     0
176
     1
290
     1
176
     1
290
     1
176
     1
290
     0
176
     1
290
     0
176
     1
290
     0
176
     1
290
     0
176
     1
290
     0
176
     1
290
     0
176
     1
 90
       50
176
     1
 40
0.0
176
     1
 40
1.0
176
     1
 90
        0
176
     1
 62
    18
420
        0
176
     1
 90
       50
176
     1
 90
        3
176
     1
 62
     5
420
      255
176
     1
290
     0
176
     1
 90
       50
176
     1
 90
       50
176
     1
 90
       50
176
     1
290
     0
176
     1
 90
       50
176
     1
 62
   256
176
     0
 40
1.0
176
     0
 90
        2
176
     1
  1
strokes_ogs.tif
176
     1
290
     0
176
     1
 40
1.0
176
     1
 40
1.0
176
     1
  0
VISUALSTYLE
  5
36
102
{ACAD_REACTORS
330
2A
102
}
330
2A
100
AcDbVisualStyle
  2
Brighten
 70
    12
177
     3
291
     1
 70
    58
 90
        2
176
     1
 90
        2
176
     1
 90
        0
176
     1
 90
        0
176
     1
 40
0.6
176
     1
 40
30.0
176
     1
 62
     7
420
 16777215
176
     1
 90
        1
176
     1
 90
        4
176
     1
 62
     7
176
     1
 62
   257
176
     1
 90
        1
176
     1
 90
        1
176
     1
 40
1.0
176
     1
 90
        8
176
     1
 62
     7
176
     1
 40
1.0
176
     1
 90
        1
176
     1
 90
        6
176
     1
 90
        2
176
     1
 62
     7
176
     1
 90
        5
176
     1
 90
        0
176
     1
 90
        0
176
     1
290
     0
176
     1
 90
        1
176
     1
 40
50.0
176
     1
 90
        0
176
     1
290
     0
176
     1
290
     1
176
     1
290
     1
176
     1
290
     0
176
     1
290
     0
176
     1
290
     0
176
     1
290
     0
176
     1
290
     0
176
     1
290
     0
176
     1
 90
       50
176
     1
 40
0.0
176
     1
 40
1.0
176
     1
 90
        0
176
     1
 62
    18
420
        0
176
     1
 90
       50
176
     1
 90
        3
176
     1
 62
     5
420
      255
176
     1
290
     0
176
     1
 90
       50
176
     1
 90
       50
176
     1
 90
       50
176
     1
290
     0
176
     1
 90
       50
176
     1
 62
   256
176
     0
 40
1.0
176
     0
 90
        2
176
     1
  1
strokes_ogs.tif
176
     1
290
     0
176
     1
 40
1.0
176
     1
 40
1.0
176
     1
  0
VISUALSTYLE
  5
3A
102
{ACAD_REACTORS
330
2A
102
}
330
2A
100
AcDbVisualStyle
  2
ColorChange
 70
    16
177
     3
291
     1
 70
    58
 90
        2
176
     1
 90
        2
176
     1
 90
        3
176
     1
 90
        0
176
     1
 40
0.6
176
     1
 40
30.0
176
     1
 62
     8
420
  8421504
176
     1
 90
        1
176
     1
 90
        4
176
     1
 62
     7
176
     1
 62
   257
176
     1
 90
        1
176
     1
 90
        1
176
     1
 40
1.0
176
     1
 90
        8
176
     1
 62
     8
420
  8421504
176
     1
 40
1.0
176
     1
 90
        1
176
     1
 90
        6
176
     1
 90
        2
176
     1
 62
     7
176
     1
 90
        5
176
     1
 90
        0
176
     1
 90
        0
176
     1
290
     0
176
     1
 90
        1
176
     1
 40
0.0
176
     1
 90
        0
176
     1
290
     0
176
     1
290
     1
176
     1
290
     1
176
     1
290
     0
176
     1
290
     0
176
     1
290
     0
176
     1
290
     0
176
     1
290
     0
176
     1
290
     0
176
     1
 90
       50
176
     1
 40
0.0
176
     1
 40
1.0
176
     1
 90
        0
176
     1
 62
    18
420
        0
176
     1
 90
       50
176
     1
 90
        3
176
     1
 62
     5
420
      255
176
     1
290
     0
176
     1
 90
       50
176
     1
 90
       50
176
     1
 90
       50
176
     1
290
     0
176
     1
 90
       50
176
     1
 62
   256
176
     0
 40
1.0
176
     0
 90
        2
176
     1
  1
strokes_ogs.tif
176
     1
290
     0
176
     1
 40
1.0
176
     1
 40
1.0
176
     1
  0
VISUALSTYLE
  5
34
102
{ACAD_REACTORS
330
2A
102
}
330
2A
100
AcDbVisualStyle
  2
Conceptual
 70
     9
177
     3
291
     0
 70
    58
 90
        3
176
     1
 90
        2
176
     1
 90
        0
176
     1
 90
        0
176
     1
 40
0.6
176
     1
 40
30.0
176
     1
 62
     7
420
 16777215
176
     1
 90
        2
176
     1
 90
        2
176
     1
 62
     7
176
     1
 62
   257
176
     1
 90
        1
176
     1
 90
        1
176
     1
 40
179.0
176
     1
 90
        8
176
     1
 62
     7
176
     1
 40
1.0
176
     1
 90
        1
176
     1
 90
        6
176
     1
 90
        2
176
     1
 62
     7
176
     1
 90
        3
176
     1
 90
        0
176
     1
 90
        0
176
     1
290
     0
176
     1
 90
        1
176
     1
 40
0.0
176
     1
 90
        0
176
     1
290
     0
176
     1
290
     1
176
     1
290
     1
176
     1
290
     0
176
     1
290
     0
176
     1
290
     0
176
     1
290
     0
176
     1
290
     0
176
     1
290
     0
176
     1
 90
       50
176
     1
 40
0.0
176
     1
 40
1.0
176
     1
 90
        0
176
     1
 62
    18
420
        0
176
     1
 90
       50
176
     1
 90
        3
176
     1
 62
     5
420
      255
176
     1
290
     0
176
     1
 90
       50
176
     1
 90
       50
176
     1
 90
       50
176
     1
290
     0
176
     1
 90
       50
176
     1
 62
   256
176
     0
 40
1.0
176
     0
 90
        2
176
     1
  1
strokes_ogs.tif
176
     1
290
     0
176
     1
 40
1.0
176
     1
 40
1.0
176
     1
  0
VISUALSTYLE
  5
35
102
{ACAD_REACTORS
330
2A
102
}
330
2A
100
AcDbVisualStyle
  2
Dim
 70
    11
177
     3
291
     1
 70
    58
 90
        2
176
     1
 90
        2
176
     1
 90
        0
176
     1
 90
        0
176
     1
 40
0.6
176
     1
 40
30.0
176
     1
 62
     7
420
 16777215
176
     1
 90
        1
176
     1
 90
        4
176
     1
 62
     7
176
     1
 62
   257
176
     1
 90
        1
176
     1
 90
        1
176
     1
 40
1.0
176
     1
 90
        8
176
     1
 62
     7
176
     1
 40
1.0
176
     1
 90
        1
176
     1
 90
        6
176
     1
 90
        2
176
     1
 62
     7
176
     1
 90
        5
176
     1
 90
        0
176
     1
 90
        0
176
     1
290
     0
176
     1
 90
        1
176
     1
 40
-50.0
176
     1
 90
        0
176
     1
290
     0
176
     1
290
     1
176
     1
290
     1
176
     1
290
     0
176
     1
290
     0
176
     1
290
     0
176
     1
290
     0
176
     1
290
     0
176
     1
290
     0
176
     1
 90
       50
176
     1
 40
0.0
176
     1
 40
1.0
176
     1
 90
        0
176
     1
 62
    18
420
        0
176
     1
 90
       50
176
     1
 90
        3
176
     1
 62
     5
420
      255
176
     1
290
     0
176
     1
 90
       50
176
     1
 90
       50
176
     1
 90
       50
176
     1
290
     0
176
     1
 90
       50
176
     1
 62
   256
176
     0
 40
1.0
176
     0
 90
        2
176
     1
  1
strokes_ogs.tif
176
     1
290
     0
176
     1
 40
1.0
176
     1
 40
1.0
176
     1
  0
VISUALSTYLE
  5
3D
102
{ACAD_REACTORS
330
2A
102
}
330
2A
100
AcDbVisualStyle
  2
EdgeColorOff
 70
    22
177
     3
291
     1
 70
    58
 90
        2
176
     0
 90
        2
176
     0
 90
        0
176
     0
 90
        0
176
     0
 40
0.6
176
     0
 40
30.0
176
     0
 62
     7
420
 16777215
176
     0
 90
        1
176
     0
 90
        4
176
     0
 62
     7
176
     0
 62
   257
176
     0
 90
        1
176
     0
 90
        1
176
     0
 40
1.0
176
     0
 90
        8
176
     2
 62
     7
176
     0
 40
1.0
176
     0
 90
        1
176
     0
 90
        6
176
     0
 90
        2
176
     0
 62
     7
176
     0
 90
        5
176
     0
 90
        0
176
     0
 90
        0
176
     0
290
     0
176
     0
 90
        1
176
     0
 40
0.0
176
     0
 90
        0
176
     0
290
     0
176
     0
290
     1
176
     0
290
     1
176
     0
290
     0
176
     0
290
     0
176
     0
290
     0
176
     0
290
     0
176
     0
290
     0
176
     0
290
     0
176
     0
 90
       50
176
     0
 40
0.0
176
     0
 40
1.0
176
     0
 90
        0
176
     0
 62
    18
420
        0
176
     0
 90
       50
176
     0
 90
        3
176
     0
 62
     5
420
      255
176
     0
290
     0
176
     0
 90
       50
176
     0
 90
       50
176
     0
 90
       50
176
     0
290
     0
176
     0
 90
       50
176
     0
 62
   256
176
     0
 40
1.0
176
     0
 90
        2
176
     0
  1
strokes_ogs.tif
176
     0
290
     0
176
     0
 40
1.0
176
     0
 40
1.0
176
     0
  0
VISUALSTYLE
  5
39
102
{ACAD_REACTORS
330
2A
102
}
330
2A
100
AcDbVisualStyle
  2
Facepattern
 70
    15
177
     3
291
     1
 70
    58
 90
        2
176
     1
 90
        2
176
     1
 90
        0
176
     1
 90
        0
176
     1
 40
0.6
176
     1
 40
30.0
176
     1
 62
     7
420
 16777215
176
     1
 90
        1
176
     1
 90
        4
176
     1
 62
     7
176
     1
 62
   257
176
     1
 90
        1
176
     1
 90
        1
176
     1
 40
1.0
176
     1
 90
        8
176
     1
 62
     7
176
     1
 40
1.0
176
     1
 90
        1
176
     1
 90
        6
176
     1
 90
        2
176
     1
 62
     7
176
     1
 90
        5
176
     1
 90
        0
176
     1
 90
        0
176
     1
290
     0
176
     1
 90
        1
176
     1
 40
0.0
176
     1
 90
        0
176
     1
290
     0
176
     1
290
     1
176
     1
290
     1
176
     1
290
     0
176
     1
290
     0
176
     1
290
     0
176
     1
290
     0
176
     1
290
     0
176
     1
290
     0
176
     1
 90
       50
176
     1
 40
0.0
176
     1
 40
1.0
176
     1
 90
        0
176
     1
 62
    18
420
        0
176
     1
 90
       50
176
     1
 90
        3
176
     1
 62
     5
420
      255
176
     1
290
     0
176
     1
 90
       50
176
     1
 90
       50
176
     1
 90
       50
176
     1
290
     0
176
     1
 90
       50
176
     1
 62
   256
176
     0
 40
1.0
176
     0
 90
        2
176
     1
  1
strokes_ogs.tif
176
     1
290
     0
176
     1
 40
1.0
176
     1
 40
1.0
176
     1
  0
VISUALSTYLE
  5
2B
102
{ACAD_REACTORS
330
2A
102
}
330
2A
100
AcDbVisualStyle
  2
Flat
 70
     0
177
     3
291
     1
 70
    58
 90
        2
176
     1
 90
        1
176
     1
 90
        1
176
     1
 90
        2
176
     1
 40
0.6
176
     1
 40
30.0
176
     1
 62
     7
420
 16777215
176
     1
 90
        0
176
     1
 90
        0
176
     1
 62
     7
176
     1
 62
   257
176
     1
 90
        1
176
     1
 90
        1
176
     1
 40
1.0
176
     1
 90
        8
176
     1
 62
     7
176
     1
 40
1.0
176
     1
 90
        1
176
     1
 90
        6
176
     1
 90
        2
176
     1
 62
     7
176
     1
 90
        5
176
     1
 90
        0
176
     1
 90
        0
176
     1
290
     0
176
     1
 90
       13
176
     1
 40
0.0
176
     1
 90
        0
176
     1
290
     0
176
     1
290
     1
176
     1
290
     1
176
     1
290
     0
176
     1
290
     0
176
     1
290
     0
176
     1
290
     0
176
     1
290
     0
176
     1
290
     0
176
     1
 90
       50
176
     1
 40
0.0
176
     1
 40
1.0
176
     1
 90
        0
176
     1
 62
    18
420
        0
176
     1
 90
       50
176
     1
 90
        3
176
     1
 62
     5
420
      255
176
     1
290
     0
176
     1
 90
       50
176
     1
 90
       50
176
     1
 90
       50
176
     1
290
     0
176
     1
 90
       50
176
     1
 62
   256
176
     0
 40
1.0
176
     0
 90
        2
176
     1
  1
strokes_ogs.tif
176
     1
290
     0
176
     1
 40
1.0
176
     1
 40
1.0
176
     1
  0
VISUALSTYLE
  5
2C
102
{ACAD_REACTORS
330
2A
102
}
330
2A
100
AcDbVisualStyle
  2
FlatWithEdges
 70
     1
177
     3
291
     1
 70
    58
 90
        2
176
     1
 90
        1
176
     1
 90
        1
176
     1
 90
        2
176
     1
 40
0.6
176
     1
 40
30.0
176
     1
 62
     7
420
 16777215
176
     1
 90
        1
176
     1
 90
        0
176
     1
 62
     7
176
     1
 62
   257
176
     1
 90
        1
176
     1
 90
        1
176
     1
 40
1.0
176
     1
 90
        0
176
     1
 62
   257
176
     1
 40
1.0
176
     1
 90
        1
176
     1
 90
        6
176
     1
 90
        2
176
     1
 62
     7
176
     1
 90
        5
176
     1
 90
        0
176
     1
 90
        0
176
     1
290
     0
176
     1
 90
       13
176
     1
 40
0.0
176
     1
 90
        0
176
     1
290
     0
176
     1
290
     1
176
     1
290
     1
176
     1
290
     0
176
     1
290
     0
176
     1
290
     0
176
     1
290
     0
176
     1
290
     0
176
     1
290
     0
176
     1
 90
       50
176
     1
 40
0.0
176
     1
 40
1.0
176
     1
 90
        0
176
     1
 62
    18
420
        0
176
     1
 90
       50
176
     1
 90
        3
176
     1
 62
     5
420
      255
176
     1
290
     0
176
     1
 90
       50
176
     1
 90
       50
176
     1
 90
       50
176
     1
290
     0
176
     1
 90
       50
176
     1
 62
   256
176
     0
 40
1.0
176
     0
 90
        2
176
     1
  1
strokes_ogs.tif
176
     1
290
     0
176
     1
 40
1.0
176
     1
 40
1.0
176
     1
  0
VISUALSTYLE
  5
2D
102
{ACAD_REACTORS
330
2A
102
}
330
2A
100
AcDbVisualStyle
  2
Gouraud
 70
     2
177
     3
291
     1
 70
    58
 90
        2
176
     1
 90
        2
176
     1
 90
        1
176
     1
 90
        2
176
     1
 40
0.6
176
     1
 40
30.0
176
     1
 62
     7
420
 16777215
176
     1
 90
        0
176
     1
 90
        0
176
     1
 62
     7
176
     1
 62
   257
176
     1
 90
        1
176
     1
 90
        1
176
     1
 40
1.0
176
     1
 90
        0
176
     1
 62
     7
176
     1
 40
1.0
176
     1
 90
        1
176
     1
 90
        6
176
     1
 90
        2
176
     1
 62
     7
176
     1
 90
        5
176
     1
 90
        0
176
     1
 90
        0
176
     1
290
     0
176
     1
 90
       13
176
     1
 40
0.0
176
     1
 90
        0
176
     1
290
     0
176
     1
290
     1
176
     1
290
     1
176
     1
290
     0
176
     1
290
     0
176
     1
290
     0
176
     1
290
     0
176
     1
290
     0
176
     1
290
     0
176
     1
 90
       50
176
     1
 40
0.0
176
     1
 40
1.0
176
     1
 90
        0
176
     1
 62
    18
420
        0
176
     1
 90
       50
176
     1
 90
        3
176
     1
 62
     5
420
      255
176
     1
290
     0
176
     1
 90
       50
176
     1
 90
       50
176
     1
 90
       50
176
     1
290
     0
176
     1
 90
       50
176
     1
 62
   256
176
     0
 40
1.0
176
     0
 90
        2
176
     1
  1
strokes_ogs.tif
176
     1
290
     0
176
     1
 40
1.0
176
     1
 40
1.0
176
     1
  0
VISUALSTYLE
  5
2E
102
{ACAD_REACTORS
330
2A
102
}
330
2A
100
AcDbVisualStyle
  2
GouraudWithEdges
 70
     3
177
     3
291
     1
 70
    58
 90
        2
176
     1
 90
        2
176
     1
 90
        1
176
     1
 90
        2
176
     1
 40
0.6
176
     1
 40
30.0
176
     1
 62
     7
420
 16777215
176
     1
 90
        1
176
     1
 90
        0
176
     1
 62
     7
176
     1
 62
   257
176
     1
 90
        1
176
     1
 90
        1
176
     1
 40
1.0
176
     1
 90
        0
176
     1
 62
   257
176
     1
 40
1.0
176
     1
 90
        1
176
     1
 90
        6
176
     1
 90
        2
176
     1
 62
     7
176
     1
 90
        5
176
     1
 90
        0
176
     1
 90
        0
176
     1
290
     0
176
     1
 90
       13
176
     1
 40
0.0
176
     1
 90
        0
176
     1
290
     0
176
     1
290
     1
176
     1
290
     1
176
     1
290
     0
176
     1
290
     0
176
     1
290
     0
176
     1
290
     0
176
     1
290
     0
176
     1
290
     0
176
     1
 90
       50
176
     1
 40
0.0
176
     1
 40
1.0
176
     1
 90
        0
176
     1
 62
    18
420
        0
176
     1
 90
       50
176
     1
 90
        3
176
     1
 62
     5
420
      255
176
     1
290
     0
176
     1
 90
       50
176
     1
 90
       50
176
     1
 90
       50
176
     1
290
     0
176
     1
 90
       50
176
     1
 62
   256
176
     0
 40
1.0
176
     0
 90
        2
176
     1
  1
strokes_ogs.tif
176
     1
290
     0
176
     1
 40
1.0
176
     1
 40
1.0
176
     1
  0
VISUALSTYLE
  5
31
102
{ACAD_REACTORS
330
2A
102
}
330
2A
100
AcDbVisualStyle
  2
Hidden
 70
     6
177
     3
291
     0
 70
    58
 90
        1
176
     1
 90
        2
176
     1
 90
        2
176
     1
 90
        0
176
     1
 40
0.6
176
     1
 40
30.0
176
     1
 62
     7
420
 16777215
176
     1
 90
        2
176
     1
 90
        2
176
     1
 62
     7
176
     1
 62
   257
176
     1
 90
        2
176
     1
 90
        1
176
     1
 40
40.0
176
     1
 90
        0
176
     1
 62
   257
176
     1
 40
1.0
176
     1
 90
        1
176
     1
 90
        6
176
     1
 90
        2
176
     1
 62
     7
176
     1
 90
        3
176
     1
 90
        0
176
     1
 90
        0
176
     1
290
     0
176
     1
 90
        1
176
     1
 40
0.0
176
     1
 90
        0
176
     1
290
     0
176
     1
290
     1
176
     1
290
     1
176
     1
290
     0
176
     1
290
     0
176
     1
290
     0
176
     1
290
     0
176
     1
290
     0
176
     1
290
     0
176
     1
 90
       50
176
     1
 40
0.0
176
     1
 40
1.0
176
     1
 90
        0
176
     1
 62
    18
420
        0
176
     1
 90
       50
176
     1
 90
        3
176
     1
 62
     5
420
      255
176
     1
290
     0
176
     1
 90
       50
176
     1
 90
       50
176
     1
 90
       50
176
     1
290
     0
176
     1
 90
       50
176
     1
 62
   256
176
     0
 40
1.0
176
     0
 90
        2
176
     1
  1
strokes_ogs.tif
176
     1
290
     0
176
     1
 40
1.0
176
     1
 40
1.0
176
     1
  0
VISUALSTYLE
  5
3B
102
{ACAD_REACTORS
330
2A
102
}
330
2A
100
AcDbVisualStyle
  2
JitterOff
 70
    20
177
     3
291
     1
 70
    58
 90
        2
176
     0
 90
        2
176
     0
 90
        0
176
     0
 90
        0
176
     0
 40
0.6
176
     0
 40
30.0
176
     0
 62
     7
420
 16777215
176
     0
 90
        1
176
     0
 90
        4
176
     0
 62
     7
176
     0
 62
   257
176
     0
 90
        1
176
     0
 90
        1
176
     0
 40
1.0
176
     0
 90
       10
176
     2
 62
     7
176
     0
 40
1.0
176
     0
 90
        1
176
     0
 90
        6
176
     0
 90
        2
176
     0
 62
     7
176
     0
 90
        5
176
     0
 90
        0
176
     0
 90
        0
176
     0
290
     0
176
     0
 90
        1
176
     0
 40
0.0
176
     0
 90
        0
176
     0
290
     0
176
     0
290
     1
176
     0
290
     1
176
     0
290
     0
176
     0
290
     0
176
     0
290
     0
176
     0
290
     0
176
     0
290
     0
176
     0
290
     0
176
     0
 90
       50
176
     0
 40
0.0
176
     0
 40
1.0
176
     0
 90
        0
176
     0
 62
    18
420
        0
176
     0
 90
       50
176
     0
 90
        3
176
     0
 62
     5
420
      255
176
     0
290
     0
176
     0
 90
       50
176
     0
 90
       50
176
     0
 90
       50
176
     0
290
     0
176
     0
 90
       50
176
     0
 62
   256
176
     0
 40
1.0
176
     0
 90
        2
176
     0
  1
strokes_ogs.tif
176
     0
290
     0
176
     0
 40
1.0
176
     0
 40
1.0
176
     0
  0
VISUALSTYLE
  5
38
102
{ACAD_REACTORS
330
2A
102
}
330
2A
100
AcDbVisualStyle
  2
Linepattern
 70
    14
177
     3
291
     1
 70
    58
 90
        2
176
     1
 90
        2
176
     1
 90
        0
176
     1
 90
        0
176
     1
 40
0.6
176
     1
 40
30.0
176
     1
 62
     7
420
 16777215
176
     1
 90
        1
176
     1
 90
        4
176
     1
 62
     7
176
     1
 62
   257
176
     1
 90
        7
176
     1
 90
        7
176
     1
 40
1.0
176
     1
 90
        8
176
     1
 62
     7
176
     1
 40
1.0
176
     1
 90
        1
176
     1
 90
        6
176
     1
 90
        2
176
     1
 62
     7
176
     1
 90
        5
176
     1
 90
        0
176
     1
 90
        0
176
     1
290
     0
176
     1
 90
        1
176
     1
 40
0.0
176
     1
 90
        0
176
     1
290
     0
176
     1
290
     1
176
     1
290
     1
176
     1
290
     0
176
     1
290
     0
176
     1
290
     0
176
     1
290
     0
176
     1
290
     0
176
     1
290
     0
176
     1
 90
       50
176
     1
 40
0.0
176
     1
 40
1.0
176
     1
 90
        0
176
     1
 62
    18
420
        0
176
     1
 90
       50
176
     1
 90
        3
176
     1
 62
     5
420
      255
176
     1
290
     0
176
     1
 90
       50
176
     1
 90
       50
176
     1
 90
       50
176
     1
290
     0
176
     1
 90
       50
176
     1
 62
   256
176
     0
 40
1.0
176
     0
 90
        2
176
     1
  1
strokes_ogs.tif
176
     1
290
     0
176
     1
 40
1.0
176
     1
 40
1.0
176
     1
  0
VISUALSTYLE
  5
3C
102
{ACAD_REACTORS
330
2A
102
}
330
2A
100
AcDbVisualStyle
  2
OverhangOff
 70
    21
177
     3
291
     1
 70
    58
 90
        2
176
     0
 90
        2
176
     0
 90
        0
176
     0
 90
        0
176
     0
 40
0.6
176
     0
 40
30.0
176
     0
 62
     7
420
 16777215
176
     0
 90
        1
176
     0
 90
        4
176
     0
 62
     7
176
     0
 62
   257
176
     0
 90
        1
176
     0
 90
        1
176
     0
 40
1.0
176
     0
 90
        9
176
     2
 62
     7
176
     0
 40
1.0
176
     0
 90
        1
176
     0
 90
        6
176
     0
 90
        2
176
     0
 62
     7
176
     0
 90
        5
176
     0
 90
        0
176
     0
 90
        0
176
     0
290
     0
176
     0
 90
        1
176
     0
 40
0.0
176
     0
 90
        0
176
     0
290
     0
176
     0
290
     1
176
     0
290
     1
176
     0
290
     0
176
     0
290
     0
176
     0
290
     0
176
     0
290
     0
176
     0
290
     0
176
     0
290
     0
176
     0
 90
       50
176
     0
 40
0.0
176
     0
 40
1.0
176
     0
 90
        0
176
     0
 62
    18
420
        0
176
     0
 90
       50
176
     0
 90
        3
176
     0
 62
     5
420
      255
176
     0
290
     0
176
     0
 90
       50
176
     0
 90
       50
176
     0
 90
       50
176
     0
290
     0
176
     0
 90
       50
176
     0
 62
   256
176
     0
 40
1.0
176
     0
 90
        2
176
     0
  1
strokes_ogs.tif
176
     0
290
     0
176
     0
 40
1.0
176
     0
 40
1.0
176
     0
  0
VISUALSTYLE
  5
33
102
{ACAD_REACTORS
330
2A
102
}
330
2A
100
AcDbVisualStyle
  2
Realistic
 70
     8
177
     3
291
     0
 70
    58
 90
        2
176
     1
 90
        3
176
     1
 90
        0
176
     1
 90
        2
176
     1
 40
0.6
176
     1
 40
30.0
176
     1
 62
     7
420
 16777215
176
     1
 90
        0
176
     1
 90
        0
176
     1
 62
     7
176
     1
 62
   257
176
     1
 90
        1
176
     1
 90
        1
176
     1
 40
1.0
176
     1
 90
        8
176
     1
 62
   257
176
     1
 40
1.0
176
     1
 90
        1
176
     1
 90
        6
176
     1
 90
        2
176
     1
 62
     7
176
     1
 90
        3
176
     1
 90
        0
176
     1
 90
        0
176
     1
290
     0
176
     1
 90
       13
176
     1
 40
0.0
176
     1
 90
        0
176
     1
290
     0
176
     1
290
     1
176
     1
290
     1
176
     1
290
     0
176
     1
290
     0
176
     1
290
     0
176
     1
290
     0
176
     1
290
     0
176
     1
290
     0
176
     1
 90
       50
176
     1
 40
0.0
176
     1
 40
1.0
176
     1
 90
        0
176
     1
 62
    18
420
        0
176
     1
 90
       50
176
     1
 90
        3
176
     1
 62
     5
420
      255
176
     1
290
     0
176
     1
 90
       50
176
     1
 90
       50
176
     1
 90
       50
176
     1
290
     0
176
     1
 90
       50
176
     1
 62
   256
176
     0
 40
1.0
176
     0
 90
        2
176
     1
  1
strokes_ogs.tif
176
     1
290
     0
176
     1
 40
1.0
176
     1
 40
1.0
176
     1
  0
VISUALSTYLE
  5
42
102
{ACAD_REACTORS
330
2A
102
}
330
2A
100
AcDbVisualStyle
  2
Shaded
 70
    27
177
     3
291
     0
 70
    58
 90
        2
176
     1
 90
        2
176
     1
 90
        1
176
     1
 90
        2
176
     1
 40
0.6
176
     1
 40
30.0
176
     1
 62
     7
420
 16777215
176
     1
 90
        0
176
     1
 90
        4
176
     1
 62
     7
176
     1
 62
   257
176
     1
 90
        1
176
     1
 90
        1
176
     1
 40
1.0
176
     1
 90
        8
176
     1
 62
   257
176
     1
 40
1.0
176
     1
 90
        1
176
     1
 90
        6
176
     1
 90
        2
176
     1
 62
     8
420
  7895160
176
     1
 90
        3
176
     1
 90
        0
176
     1
 90
        0
176
     1
290
     0
176
     1
 90
        5
176
     1
 40
0.0
176
     1
 90
        0
176
     1
290
     0
176
     1
290
     1
176
     1
290
     1
176
     1
290
     0
176
     1
290
     0
176
     1
290
     0
176
     1
290
     0
176
     1
290
     0
176
     1
290
     0
176
     1
 90
       50
176
     1
 40
0.0
176
     1
 40
1.0
176
     1
 90
        0
176
     1
 62
    18
420
        0
176
     1
 90
       50
176
     1
 90
        3
176
     1
 62
     5
420
      255
176
     1
290
     0
176
     1
 90
       50
176
     1
 90
       50
176
     1
 90
       50
176
     1
290
     0
176
     1
 90
       50
176
     1
 62
   256
176
     0
 40
1.0
176
     0
 90
        2
176
     1
  1
strokes_ogs.tif
176
     1
290
     0
176
     1
 40
1.0
176
     1
 40
1.0
176
     1
  0
VISUALSTYLE
  5
41
102
{ACAD_REACTORS
330
2A
102
}
330
2A
100
AcDbVisualStyle
  2
Shaded with edges
 70
    26
177
     3
291
     0
 70
    58
 90
        2
176
     1
 90
        2
176
     1
 90
        1
176
     1
 90
        2
176
     1
 40
0.6
176
     1
 40
30.0
176
     1
 62
     7
420
 16777215
176
     1
 90
        1
176
     1
 90
       10
176
     1
 62
     7
176
     1
 62
   257
176
     1
 90
        2
176
     1
 90
        1
176
     1
 40
1.0
176
     1
 90
        8
176
     1
 62
   257
176
     1
 40
1.0
176
     1
 90
        1
176
     1
 90
        6
176
     1
 90
        2
176
     1
 62
     7
176
     1
 90
        3
176
     1
 90
        0
176
     1
 90
        0
176
     1
290
     0
176
     1
 90
        5
176
     1
 40
0.0
176
     1
 90
        0
176
     1
290
     0
176
     1
290
     1
176
     1
290
     1
176
     1
290
     0
176
     1
290
     0
176
     1
290
     0
176
     1
290
     0
176
     1
290
     0
176
     1
290
     0
176
     1
 90
       50
176
     1
 40
0.0
176
     1
 40
1.0
176
     1
 90
        0
176
     1
 62
    18
420
        0
176
     1
 90
       50
176
     1
 90
        3
176
     1
 62
     5
420
      255
176
     1
290
     0
176
     1
 90
       50
176
     1
 90
       50
176
     1
 90
       50
176
     1
290
     0
176
     1
 90
       50
176
     1
 62
   256
176
     0
 40
1.0
176
     0
 90
        2
176
     1
  1
strokes_ogs.tif
176
     1
290
     0
176
     1
 40
1.0
176
     1
 40
1.0
176
     1
  0
VISUALSTYLE
  5
3E
102
{ACAD_REACTORS
330
2A
102
}
330
2A
100
AcDbVisualStyle
  2
Shades of Gray
 70
    23
177
     3
291
     0
 70
    58
 90
        2
176
     1
 90
        2
176
     1
 90
        3
176
     1
 90
        0
176
     1
 40
0.6
176
     1
 40
30.0
176
     1
 62
     7
420
 16777215
176
     1
 90
        2
176
     1
 90
        2
176
     1
 62
     7
176
     1
 62
     7
176
     1
 90
        1
176
     1
 90
        1
176
     1
 40
40.0
176
     1
 90
        8
176
     1
 62
     7
176
     1
 40
1.0
176
     1
 90
        1
176
     1
 90
        6
176
     1
 90
        2
176
     1
 62
     7
176
     1
 90
        3
176
     1
 90
        0
176
     1
 90
        0
176
     1
290
     0
176
     1
 90
        1
176
     1
 40
0.0
176
     1
 90
        0
176
     1
290
     0
176
     1
290
     1
176
     1
290
     1
176
     1
290
     0
176
     1
290
     0
176
     1
290
     0
176
     1
290
     0
176
     1
290
     0
176
     1
290
     0
176
     1
 90
       50
176
     1
 40
0.0
176
     1
 40
1.0
176
     1
 90
        0
176
     1
 62
    18
420
        0
176
     1
 90
       50
176
     1
 90
        3
176
     1
 62
     5
420
      255
176
     1
290
     0
176
     1
 90
       50
176
     1
 90
       50
176
     1
 90
       50
176
     1
290
     0
176
     1
 90
       50
176
     1
 62
   256
176
     0
 40
1.0
176
     0
 90
        2
176
     1
  1
strokes_ogs.tif
176
     1
290
     0
176
     1
 40
1.0
176
     1
 40
1.0
176
     1
  0
VISUALSTYLE
  5
3F
102
{ACAD_REACTORS
330
2A
102
}
330
2A
100
AcDbVisualStyle
  2
Sketchy
 70
    24
177
     3
291
     0
 70
    58
 90
        1
176
     1
 90
        2
176
     1
 90
        2
176
     1
 90
        0
176
     1
 40
0.6
176
     1
 40
30.0
176
     1
 62
     7
420
 16777215
176
     1
 90
        2
176
     1
 90
        2
176
     1
 62
     7
176
     1
 62
     7
176
     1
 90
        1
176
     1
 90
        1
176
     1
 40
40.0
176
     1
 90
       11
176
     1
 62
     7
176
     1
 40
1.0
176
     1
 90
        1
176
     1
 90
        6
176
     1
 90
        2
176
     1
 62
     7
176
     1
 90
        6
176
     1
 90
        0
176
     1
 90
        0
176
     1
290
     0
176
     1
 90
        1
176
     1
 40
0.0
176
     1
 90
        0
176
     1
290
     0
176
     1
290
     1
176
     1
290
     1
176
     1
290
     0
176
     1
290
     0
176
     1
290
     0
176
     1
290
     0
176
     1
290
     0
176
     1
290
     0
176
     1
 90
       50
176
     1
 40
0.0
176
     1
 40
1.0
176
     1
 90
        0
176
     1
 62
    18
420
        0
176
     1
 90
       50
176
     1
 90
        3
176
     1
 62
     5
420
      255
176
     1
290
     0
176
     1
 90
       50
176
     1
 90
       50
176
     1
 90
       50
176
     1
290
     0
176
     1
 90
       50
176
     1
 62
   256
176
     0
 40
1.0
176
     0
 90
        2
176
     1
  1
strokes_ogs.tif
176
     1
290
     0
176
     1
 40
1.0
176
     1
 40
1.0
176
     1
  0
VISUALSTYLE
  5
37
102
{ACAD_REACTORS
330
2A
102
}
330
2A
100
AcDbVisualStyle
  2
Thicken
 70
    13
177
     3
291
     1
 70
    58
 90
        2
176
     1
 90
        2
176
     1
 90
        0
176
     1
 90
        0
176
     1
 40
0.6
176
     1
 40
30.0
176
     1
 62
     7
420
 16777215
176
     1
 90
        1
176
     1
 90
        4
176
     1
 62
     7
176
     1
 62
   257
176
     1
 90
        1
176
     1
 90
        1
176
     1
 40
1.0
176
     1
 90
       12
176
     1
 62
     7
176
     1
 40
1.0
176
     1
 90
        1
176
     1
 90
        6
176
     1
 90
        2
176
     1
 62
     7
176
     1
 90
        5
176
     1
 90
        0
176
     1
 90
        0
176
     1
290
     0
176
     1
 90
        1
176
     1
 40
0.0
176
     1
 90
        0
176
     1
290
     0
176
     1
290
     1
176
     1
290
     1
176
     1
290
     0
176
     1
290
     0
176
     1
290
     0
176
     1
290
     0
176
     1
290
     0
176
     1
290
     0
176
     1
 90
       50
176
     1
 40
0.0
176
     1
 40
1.0
176
     1
 90
        0
176
     1
 62
    18
420
        0
176
     1
 90
       50
176
     1
 90
        3
176
     1
 62
     5
420
      255
176
     1
290
     0
176
     1
 90
       50
176
     1
 90
       50
176
     1
 90
       50
176
     1
290
     0
176
     1
 90
       50
176
     1
 62
   256
176
     0
 40
1.0
176
     0
 90
        2
176
     1
  1
strokes_ogs.tif
176
     1
290
     0
176
     1
 40
1.0
176
     1
 40
1.0
176
     1
  0
VISUALSTYLE
  5
30
102
{ACAD_REACTORS
330
2A
102
}
330
2A
100
AcDbVisualStyle
  2
Wireframe
 70
     5
177
     3
291
     0
 70
    58
 90
        0
176
     1
 90
        2
176
     1
 90
        0
176
     1
 90
        0
176
     1
 40
0.6
176
     1
 40
30.0
176
     1
 62
     7
420
 16777215
176
     1
 90
        1
176
     1
 90
        4
176
     1
 62
     7
176
     1
 62
   257
176
     1
 90
        1
176
     1
 90
        1
176
     1
 40
1.0
176
     1
 90
        0
176
     1
 62
   257
176
     1
 40
1.0
176
     1
 90
        1
176
     1
 90
        6
176
     1
 90
        2
176
     1
 62
     7
176
     1
 90
        3
176
     1
 90
        0
176
     1
 90
        0
176
     1
290
     0
176
     1
 90
        1
176
     1
 40
0.0
176
     1
 90
        0
176
     1
290
     0
176
     1
290
     1
176
     1
290
     1
176
     1
290
     0
176
     1
290
     0
176
     1
290
     0
176
     1
290
     0
176
     1
290
     0
176
     1
290
     0
176
     1
 90
       50
176
     1
 40
0.0
176
     1
 40
1.0
176
     1
 90
        0
176
     1
 62
    18
420
        0
176
     1
 90
       50
176
     1
 90
        3
176
     1
 62
     5
420
      255
176
     1
290
     0
176
     1
 90
       50
176
     1
 90
       50
176
     1
 90
       50
176
     1
290
     0
176
     1
 90
       50
176
     1
 62
   256
176
     0
 40
1.0
176
     0
 90
        2
176
     1
  1
strokes_ogs.tif
176
     1
290
     0
176
     1
 40
1.0
176
     1
 40
1.0
176
     1
  0
VISUALSTYLE
  5
40
102
{ACAD_REACTORS
330
2A
102
}
330
2A
100
AcDbVisualStyle
  2
X-Ray
 70
    25
177
     3
291
     0
 70
    58
 90
        2
176
     1
 90
        2
176
     1
 90
        1
176
     1
 90
        1
176
     1
 40
0.5
176
     1
 40
30.0
176
     1
 62
     7
420
 16777215
176
     1
 90
        1
176
     1
 90
        0
176
     1
 62
     7
176
     1
 62
   257
176
     1
 90
        1
176
     1
 90
        1
176
     1
 40
1.0
176
     1
 90
        8
176
     1
 62
     7
176
     1
 40
1.0
176
     1
 90
        1
176
     1
 90
        6
176
     1
 90
        2
176
     1
 62
     7
176
     1
 90
        3
176
     1
 90
        0
176
     1
 90
        0
176
     1
290
     0
176
     1
 90
       13
176
     1
 40
0.0
176
     1
 90
        0
176
     1
290
     0
176
     1
290
     1
176
     1
290
     1
176
     1
290
     0
176
     1
290
     0
176
     1
290
     0
176
     1
290
     0
176
     1
290
     0
176
     1
290
     0
176
     1
 90
       50
176
     1
 40
0.0
176
     1
 40
1.0
176
     1
 90
        0
176
     1
 62
    18
420
        0
176
     1
 90
       50
176
     1
 90
        3
176
     1
 62
     5
420
      255
176
     1
290
     0
176
     1
 90
       50
176
     1
 90
       50
176
     1
 90
       50
176
     1
290
     0
176
     1
 90
       50
176
     1
 62
   256
176
     0
 40
1.0
176
     0
 90
        2
176
     1
  1
strokes_ogs.tif
176
     1
290
     0
176
     1
 40
1.0
176
     1
 40
1.0
176
     1
  0
DICTIONARYVAR
  5
5B0
102
{ACAD_REACTORS
330
5AF
102
}
330
5AF
100
DictionaryVariables
280
     0
  1
1:1
  0
DICTIONARYVAR
  5
5B8
102
{ACAD_REACTORS
330
5AF
102
}
330
5AF
100
DictionaryVariables
280
     0
  1
3.500000
  0
DICTIONARYVAR
  5
5B9
102
{ACAD_REACTORS
330
5AF
102
}
330
5AF
100
DictionaryVariables
280
     0
  1
acadiso.lin
  0
DICTIONARYVAR
  5
5B5
102
{ACAD_REACTORS
330
5AF
102
}
330
5AF
100
DictionaryVariables
280
     0
  1
Standard
  0
DICTIONARYVAR
  5
5B4
102
{ACAD_REACTORS
330
5AF
102
}
330
5AF
100
DictionaryVariables
280
     0
  1
Standard
  0
DICTIONARY
  5
5B1
330
6A
100
AcDbDictionary
280
     1
281
     1
  3
ACAD_ROUNDTRIP_2008_TABLESTYLE_CELLSTYLEMAP
360
5B2
  0
CELLSTYLEMAP
  5
5B2
102
{ACAD_REACTORS
330
5B1
102
}
330
5B1
100
AcDbCellStyleMap
 90
        3
300
CELLSTYLE
  1
TABLEFORMAT_BEGIN
 90
        5
170
     1
 91
        0
 92
    32768
 62
   257
 93
        1
300
CONTENTFORMAT
  1
CONTENTFORMAT_BEGIN
 90
        0
 91
        0
 92
        4
 93
        0
300

 40
0.0
140
1.0
 94
        5
 62
     0
340
11
144
6.0
309
CONTENTFORMAT_END
171
     1
301
MARGIN
  1
CELLMARGIN_BEGIN
 40
1.5
 40
1.5
 40
1.5
 40
1.5
 40
1.5
 40
1.5
309
CELLMARGIN_END
 94
        6
 95
        1
302
GRIDFORMAT
  1
GRIDFORMAT_BEGIN
 90
        0
 91
        1
 62
     0
 92
       -2
340
14
 93
        0
 40
0.045
309
GRIDFORMAT_END
 95
        2
302
GRIDFORMAT
  1
GRIDFORMAT_BEGIN
 90
        0
 91
        1
 62
     0
 92
       -2
340
14
 93
        0
 40
0.045
309
GRIDFORMAT_END
 95
        4
302
GRIDFORMAT
  1
GRIDFORMAT_BEGIN
 90
        0
 91
        1
 62
     0
 92
       -2
340
14
 93
        0
 40
0.045
309
GRIDFORMAT_END
 95
        8
302
GRIDFORMAT
  1
GRIDFORMAT_BEGIN
 90
        0
 91
        1
 62
     0
 92
       -2
340
14
 93
        0
 40
0.045
309
GRIDFORMAT_END
 95
       16
302
GRIDFORMAT
  1
GRIDFORMAT_BEGIN
 90
        0
 91
        1
 62
     0
 92
       -2
340
14
 93
        0
 40
0.045
309
GRIDFORMAT_END
 95
       32
302
GRIDFORMAT
  1
GRIDFORMAT_BEGIN
 90
        0
 91
        1
 62
     0
 92
       -2
340
14
 93
        0
 40
0.045
309
GRIDFORMAT_END
309
TABLEFORMAT_END
  1
CELLSTYLE_BEGIN
 90
        1
 91
        1
300
_TITLE
309
CELLSTYLE_END
300
CELLSTYLE
  1
TABLEFORMAT_BEGIN
 90
        5
170
     1
 91
        0
 92
        0
 62
   257
 93
        1
300
CONTENTFORMAT
  1
CONTENTFORMAT_BEGIN
 90
        0
 91
        0
 92
        4
 93
        0
300

 40
0.0
140
1.0
 94
        5
 62
     0
340
11
144
4.5
309
CONTENTFORMAT_END
171
     1
301
MARGIN
  1
CELLMARGIN_BEGIN
 40
1.5
 40
1.5
 40
1.5
 40
1.5
 40
1.5
 40
1.5
309
CELLMARGIN_END
 94
        6
 95
        1
302
GRIDFORMAT
  1
GRIDFORMAT_BEGIN
 90
        0
 91
        1
 62
     0
 92
       -2
340
14
 93
        0
 40
0.045
309
GRIDFORMAT_END
 95
        2
302
GRIDFORMAT
  1
GRIDFORMAT_BEGIN
 90
        0
 91
        1
 62
     0
 92
       -2
340
14
 93
        0
 40
0.045
309
GRIDFORMAT_END
 95
        4
302
GRIDFORMAT
  1
GRIDFORMAT_BEGIN
 90
        0
 91
        1
 62
     0
 92
       -2
340
14
 93
        0
 40
0.045
309
GRIDFORMAT_END
 95
        8
302
GRIDFORMAT
  1
GRIDFORMAT_BEGIN
 90
        0
 91
        1
 62
     0
 92
       -2
340
14
 93
        0
 40
0.045
309
GRIDFORMAT_END
 95
       16
302
GRIDFORMAT
  1
GRIDFORMAT_BEGIN
 90
        0
 91
        1
 62
     0
 92
       -2
340
14
 93
        0
 40
0.045
309
GRIDFORMAT_END
 95
       32
302
GRIDFORMAT
  1
GRIDFORMAT_BEGIN
 90
        0
 91
        1
 62
     0
 92
       -2
340
14
 93
        0
 40
0.045
309
GRIDFORMAT_END
309
TABLEFORMAT_END
  1
CELLSTYLE_BEGIN
 90
        2
 91
        1
300
_HEADER
309
CELLSTYLE_END
300
CELLSTYLE
  1
TABLEFORMAT_BEGIN
 90
        5
170
     1
 91
        0
 92
        0
 62
   257
 93
        1
300
CONTENTFORMAT
  1
CONTENTFORMAT_BEGIN
 90
        0
 91
        0
 92
        4
 93
        0
300

 40
0.0
140
1.0
 94
        2
 62
     0
340
11
144
4.5
309
CONTENTFORMAT_END
171
     1
301
MARGIN
  1
CELLMARGIN_BEGIN
 40
1.5
 40
1.5
 40
1.5
 40
1.5
 40
1.5
 40
1.5
309
CELLMARGIN_END
 94
        6
 95
        1
302
GRIDFORMAT
  1
GRIDFORMAT_BEGIN
 90
        0
 91
        1
 62
     0
 92
       -2
340
14
 93
        0
 40
0.045
309
GRIDFORMAT_END
 95
        2
302
GRIDFORMAT
  1
GRIDFORMAT_BEGIN
 90
        0
 91
        1
 62
     0
 92
       -2
340
14
 93
        0
 40
0.045
309
GRIDFORMAT_END
 95
        4
302
GRIDFORMAT
  1
GRIDFORMAT_BEGIN
 90
        0
 91
        1
 62
     0
 92
       -2
340
14
 93
        0
 40
0.045
309
GRIDFORMAT_END
 95
        8
302
GRIDFORMAT
  1
GRIDFORMAT_BEGIN
 90
        0
 91
        1
 62
     0
 92
       -2
340
14
 93
        0
 40
0.045
309
GRIDFORMAT_END
 95
       16
302
GRIDFORMAT
  1
GRIDFORMAT_BEGIN
 90
        0
 91
        1
 62
     0
 92
       -2
340
14
 93
        0
 40
0.045
309
GRIDFORMAT_END
 95
       32
302
GRIDFORMAT
  1
GRIDFORMAT_BEGIN
 90
        0
 91
        1
 62
     0
 92
       -2
340
14
 93
        0
 40
0.045
309
GRIDFORMAT_END
309
TABLEFORMAT_END
  1
CELLSTYLE_BEGIN
 90
        3
 91
        2
300
_DATA
309
CELLSTYLE_END
  0
ENDSEC
  0
EOF
