  0
SECTION
  2
HEADER
  9
$ACADVER
  1
AC1018
  9
$ACADMAINTVER
 70
     0
  9
$DWGCODEPAGE
  3
ANSI_932
  9
$LASTSAVEDBY
  1
m.murai
  9
$INSBASE
 10
0.0
 20
0.0
 30
0.0
  9
$EXTMIN
 10
-1050.0
 20
-742.5
 30
0.0
  9
$EXTMAX
 10
1050.0
 20
742.5
 30
0.0
  9
$LIMMIN
 10
-1050.0
 20
-742.5
  9
$LIMMAX
 10
1050.0
 20
742.5
  9
$ORTHOMODE
 70
     0
  9
$REGENMODE
 70
     1
  9
$FILLMODE
 70
     1
  9
$QTEXTMODE
 70
     0
  9
$MIRRTEXT
 70
     1
  9
$LTSCALE
 40
5.0
  9
$ATTMODE
 70
     1
  9
$TEXTSIZE
 40
2.5
  9
$TRACEWID
 40
1.0
  9
$TEXTSTYLE
  7
Standard
  9
$CLAYER
  8
0
  9
$CELTYPE
  6
ByLayer
  9
$CECOLOR
 62
   256
  9
$CELTSCALE
 40
1.0
  9
$DISPSILH
 70
     0
  9
$DIMSCALE
 40
1.0
  9
$DIMASZ
 40
2.5
  9
$DIMEXO
 40
0.625
  9
$DIMDLI
 40
3.75
  9
$DIMRND
 40
0.0
  9
$DIMDLE
 40
0.0
  9
$DIMEXE
 40
1.25
  9
$DIMTP
 40
0.0
  9
$DIMTM
 40
0.0
  9
$DIMTXT
 40
2.5
  9
$DIMCEN
 40
2.5
  9
$DIMTSZ
 40
0.0
  9
$DIMTOL
 70
     0
  9
$DIMLIM
 70
     0
  9
$DIMTIH
 70
     0
  9
$DIMTOH
 70
     0
  9
$DIMSE1
 70
     0
  9
$DIMSE2
 70
     0
  9
$DIMTAD
 70
     1
  9
$DIMZIN
 70
     8
  9
$DIMBLK
  1

  9
$DIMASO
 70
     1
  9
$DIMSHO
 70
     1
  9
$DIMPOST
  1

  9
$DIMAPOST
  1

  9
$DIMALT
 70
     0
  9
$DIMALTD
 70
     3
  9
$DIMALTF
 40
0.03937007874016
  9
$DIMLFAC
 40
1.0
  9
$DIMTOFL
 70
     1
  9
$DIMTVP
 40
0.0
  9
$DIMTIX
 70
     0
  9
$DIMSOXD
 70
     0
  9
$DIMSAH
 70
     0
  9
$DIMBLK1
  1

  9
$DIMBLK2
  1

  9
$DIMSTYLE
  2
ISO-25
  9
$DIMCLRD
 70
     0
  9
$DIMCLRE
 70
     0
  9
$DIMCLRT
 70
     0
  9
$DIMTFAC
 40
1.0
  9
$DIMGAP
 40
0.625
  9
$DIMJUST
 70
     0
  9
$DIMSD1
 70
     0
  9
$DIMSD2
 70
     0
  9
$DIMTOLJ
 70
     0
  9
$DIMTZIN
 70
     8
  9
$DIMALTZ
 70
     0
  9
$DIMALTTZ
 70
     0
  9
$DIMUPT
 70
     0
  9
$DIMDEC
 70
     2
  9
$DIMTDEC
 70
     2
  9
$DIMALTU
 70
     2
  9
$DIMALTTD
 70
     3
  9
$DIMTXSTY
  7
Standard
  9
$DIMAUNIT
 70
     0
  9
$DIMADEC
 70
     0
  9
$DIMALTRND
 40
0.0
  9
$DIMAZIN
 70
     0
  9
$DIMDSEP
 70
    44
  9
$DIMATFIT
 70
     3
  9
$DIMFRAC
 70
     0
  9
$DIMLDRBLK
  1

  9
$DIMLUNIT
 70
     2
  9
$DIMLWD
 70
    -2
  9
$DIMLWE
 70
    -2
  9
$DIMTMOVE
 70
     0
  9
$LUNITS
 70
     2
  9
$LUPREC
 70
     4
  9
$SKETCHINC
 40
1.0
  9
$FILLETRAD
 40
10.0
  9
$AUNITS
 70
     0
  9
$AUPREC
 70
     0
  9
$MENU
  1
.
  9
$ELEVATION
 40
0.0
  9
$PELEVATION
 40
0.0
  9
$THICKNESS
 40
0.0
  9
$LIMCHECK
 70
     0
  9
$CHAMFERA
 40
0.0
  9
$CHAMFERB
 40
0.0
  9
$CHAMFERC
 40
0.0
  9
$CHAMFERD
 40
0.0
  9
$SKPOLY
 70
     0
  9
$TDCREATE
 40
2460290.57290919
  9
$TDUCREATE
 40
2460290.19790919
  9
$TDUPDATE
 40
2460290.572909329
  9
$TDUUPDATE
 40
2460290.197909329
  9
$TDINDWG
 40
0.0000000116
  9
$TDUSRTIMER
 40
0.0000000116
  9
$USRTIMER
 70
     1
  9
$ANGBASE
 50
0.0
  9
$ANGDIR
 70
     0
  9
$PDMODE
 70
     0
  9
$PDSIZE
 40
0.0
  9
$PLINEWID
 40
0.0
  9
$SPLFRAME
 70
     0
  9
$SPLINETYPE
 70
     6
  9
$SPLINESEGS
 70
     8
  9
$HANDSEED
  5
3BB
  9
$SURFTAB1
 70
     6
  9
$SURFTAB2
 70
     6
  9
$SURFTYPE
 70
     6
  9
$SURFU
 70
     6
  9
$SURFV
 70
     6
  9
$UCSBASE
  2

  9
$UCSNAME
  2

  9
$UCSORG
 10
0.0
 20
0.0
 30
0.0
  9
$UCSXDIR
 10
1.0
 20
0.0
 30
0.0
  9
$UCSYDIR
 10
0.0
 20
1.0
 30
0.0
  9
$UCSORTHOREF
  2

  9
$UCSORTHOVIEW
 70
     0
  9
$UCSORGTOP
 10
0.0
 20
0.0
 30
0.0
  9
$UCSORGBOTTOM
 10
0.0
 20
0.0
 30
0.0
  9
$UCSORGLEFT
 10
0.0
 20
0.0
 30
0.0
  9
$UCSORGRIGHT
 10
0.0
 20
0.0
 30
0.0
  9
$UCSORGFRONT
 10
0.0
 20
0.0
 30
0.0
  9
$UCSORGBACK
 10
0.0
 20
0.0
 30
0.0
  9
$PUCSBASE
  2

  9
$PUCSNAME
  2

  9
$PUCSORG
 10
0.0
 20
0.0
 30
0.0
  9
$PUCSXDIR
 10
1.0
 20
0.0
 30
0.0
  9
$PUCSYDIR
 10
0.0
 20
1.0
 30
0.0
  9
$PUCSORTHOREF
  2

  9
$PUCSORTHOVIEW
 70
     0
  9
$PUCSORGTOP
 10
0.0
 20
0.0
 30
0.0
  9
$PUCSORGBOTTOM
 10
0.0
 20
0.0
 30
0.0
  9
$PUCSORGLEFT
 10
0.0
 20
0.0
 30
0.0
  9
$PUCSORGRIGHT
 10
0.0
 20
0.0
 30
0.0
  9
$PUCSORGFRONT
 10
0.0
 20
0.0
 30
0.0
  9
$PUCSORGBACK
 10
0.0
 20
0.0
 30
0.0
  9
$USERI1
 70
     0
  9
$USERI2
 70
     0
  9
$USERI3
 70
     0
  9
$USERI4
 70
     0
  9
$USERI5
 70
     0
  9
$USERR1
 40
0.0
  9
$USERR2
 40
0.0
  9
$USERR3
 40
0.0
  9
$USERR4
 40
0.0
  9
$USERR5
 40
0.0
  9
$WORLDVIEW
 70
     1
  9
$SHADEDGE
 70
     3
  9
$SHADEDIF
 70
    70
  9
$TILEMODE
 70
     1
  9
$MAXACTVP
 70
    64
  9
$PINSBASE
 10
0.0
 20
0.0
 30
0.0
  9
$PLIMCHECK
 70
     0
  9
$PEXTMIN
 10
1.000000000000000E+20
 20
1.000000000000000E+20
 30
1.000000000000000E+20
  9
$PEXTMAX
 10
-1.000000000000000E+20
 20
-1.000000000000000E+20
 30
-1.000000000000000E+20
  9
$PLIMMIN
 10
0.0
 20
0.0
  9
$PLIMMAX
 10
420.0
 20
297.0
  9
$UNITMODE
 70
     0
  9
$VISRETAIN
 70
     1
  9
$PLINEGEN
 70
     0
  9
$PSLTSCALE
 70
     1
  9
$TREEDEPTH
 70
  3020
  9
$CMLSTYLE
  2
Standard
  9
$CMLJUST
 70
     0
  9
$CMLSCALE
 40
20.0
  9
$PROXYGRAPHICS
 70
     1
  9
$MEASUREMENT
 70
     1
  9
$CELWEIGHT
370
    -1
  9
$ENDCAPS
280
     0
  9
$JOINSTYLE
280
     0
  9
$LWDISPLAY
290
     0
  9
$INSUNITS
 70
     4
  9
$HYPERLINKBASE
  1

  9
$STYLESHEET
  1

  9
$XEDIT
290
     1
  9
$CEPSNTYPE
380
     0
  9
$PSTYLEMODE
290
     1
  9
$FINGERPRINTGUID
  2
{c6b3c4cb-4218-4c9d-8640-6ba01f0043ed}
  9
$VERSIONGUID
  2
{FAEB1C32-E019-11D5-929B-00C0DF256EC4}
  9
$EXTNAMES
290
     1
  9
$PSVPSCALE
 40
0.0
  9
$OLESTARTUP
290
     0
  9
$SORTENTS
280
   127
  9
$INDEXCTL
280
     0
  9
$HIDETEXT
280
     1
  9
$XCLIPFRAME
290
     0
  9
$HALOGAP
280
     0
  9
$OBSCOLOR
 70
   257
  9
$OBSLTYPE
280
     0
  9
$INTERSECTIONDISPLAY
280
     0
  9
$INTERSECTIONCOLOR
 70
   257
  9
$DIMASSOC
280
     2
  9
$PROJECTNAME
  1

  0
ENDSEC
  0
SECTION
  2
CLASSES
  0
CLASS
  1
ACDBDICTIONARYWDFLT
  2
AcDbDictionaryWithDefault
  3
ObjectDBX Classes
 90
        0
 91
        3
280
     0
281
     0
  0
CLASS
  1
VISUALSTYLE
  2
AcDbVisualStyle
  3
ObjectDBX Classes
 90
     4095
 91
        3
280
     0
281
     0
  0
CLASS
  1
MATERIAL
  2
AcDbMaterial
  3
ObjectDBX Classes
 90
     1153
 91
        3
280
     0
281
     0
  0
CLASS
  1
SCALE
  2
AcDbScale
  3
ObjectDBX Classes
 90
     1153
 91
        3
280
     0
281
     0
  0
CLASS
  1
TABLESTYLE
  2
AcDbTableStyle
  3
ObjectDBX Classes
 90
     4095
 91
        3
280
     0
281
     0
  0
CLASS
  1
MLEADERSTYLE
  2
AcDbMLeaderStyle
  3
ACDB_MLEADERSTYLE_CLASS
 90
     4095
 91
        3
280
     0
281
     0
  0
CLASS
  1
SUN
  2
AcDbSun
  3
SCENEOE
 90
     1153
 91
        3
280
     0
281
     0
  0
CLASS
  1
DICTIONARYVAR
  2
AcDbDictionaryVar
  3
ObjectDBX Classes
 90
        0
 91
        3
280
     0
281
     0
  0
CLASS
  1
CELLSTYLEMAP
  2
AcDbCellStyleMap
  3
ObjectDBX Classes
 90
     1152
 91
        3
280
     0
281
     0
  0
ENDSEC
  0
SECTION
  2
TABLES
  0
TABLE
  2
VPORT
  5
8
102
{ACAD_XDICTIONARY
360
372
102
}
330
0
100
AcDbSymbolTable
 70
     1
  0
VPORT
  5
29
330
8
100
AcDbSymbolTableRecord
100
AcDbViewportTableRecord
  2
*Active
 70
     0
 10
0.0
 20
0.0
 11
1.0
 21
1.0
 12
0.0
 22
0.0
 13
0.0
 23
0.0
 14
10.0
 24
10.0
 15
10.0
 25
10.0
 16
0.0
 26
0.0
 36
1.0
 17
0.0
 27
0.0
 37
0.0
 40
1633.5
 41
1.414141414141414
 42
50.0
 43
0.0
 44
0.0
 50
0.0
 51
0.0
 71
     0
 72
 10000
 73
     1
 74
     3
 75
     0
 76
     0
 77
     0
 78
     0
281
     0
 65
     1
110
0.0
120
0.0
130
0.0
111
1.0
121
0.0
131
0.0
112
0.0
122
1.0
132
0.0
 79
     0
146
0.0
  0
ENDTAB
  0
TABLE
  2
LTYPE
  5
5
330
0
100
AcDbSymbolTable
 70
     7
  0
LTYPE
  5
14
330
5
100
AcDbSymbolTableRecord
100
AcDbLinetypeTableRecord
  2
ByBlock
 70
     0
  3

 72
    65
 73
     0
 40
0.0
  0
LTYPE
  5
15
330
5
100
AcDbSymbolTableRecord
100
AcDbLinetypeTableRecord
  2
ByLayer
 70
     0
  3

 72
    65
 73
     0
 40
0.0
  0
LTYPE
  5
16
330
5
100
AcDbSymbolTableRecord
100
AcDbLinetypeTableRecord
  2
Continuous
 70
     0
  3
Solid line
 72
    65
 73
     0
 40
0.0
  0
LTYPE
  5
6F
330
5
100
AcDbSymbolTableRecord
100
AcDbLinetypeTableRecord
  2
JWW_CENTER1
 70
     0
  3
-----  --  ----------  --  -----
 72
    65
 73
     8
 40
13.54666666666667
 49
4.233333333333333
 74
     0
 49
-0.8466666666666667
 74
     0
 49
0.8466666666666667
 74
     0
 49
-0.8466666666666667
 74
     0
 49
4.233333333333333
 74
     0
 49
-0.8466666666666667
 74
     0
 49
0.8466666666666667
 74
     0
 49
-0.8466666666666667
 74
     0
  0
LTYPE
  5
70
330
5
100
AcDbSymbolTableRecord
100
AcDbLinetypeTableRecord
  2
JWW_DASHED2
 70
     0
  3
--    ----    ----    ----    --
 72
    65
 73
     8
 40
13.54666666666667
 49
1.693333333333333
 74
     0
 49
-1.693333333333333
 74
     0
 49
1.693333333333333
 74
     0
 49
-1.693333333333333
 74
     0
 49
1.693333333333333
 74
     0
 49
-1.693333333333333
 74
     0
 49
1.693333333333333
 74
     0
 49
-1.693333333333333
 74
     0
  0
LTYPE
  5
71
330
5
100
AcDbSymbolTableRecord
100
AcDbLinetypeTableRecord
  2
JWW_PHANTOM1
 70
     0
  3
----  -  -  --------  -  -  ----
 72
    65
 73
    12
 40
13.54666666666667
 49
3.386666666666667
 74
     0
 49
-0.8466666666666667
 74
     0
 49
0.4233333333333333
 74
     0
 49
-0.8466666666666667
 74
     0
 49
0.4233333333333333
 74
     0
 49
-0.8466666666666667
 74
     0
 49
3.386666666666667
 74
     0
 49
-0.8466666666666667
 74
     0
 49
0.4233333333333333
 74
     0
 49
-0.8466666666666667
 74
     0
 49
0.4233333333333333
 74
     0
 49
-0.8466666666666667
 74
     0
  0
LTYPE
  5
72
330
5
100
AcDbSymbolTableRecord
100
AcDbLinetypeTableRecord
  2
JWW_DASHED1
 70
     0
  3
-  --  --  --  --  --  --  --  -
 72
    65
 73
    12
 40
10.16
 49
0.8466666666666667
 74
     0
 49
-0.8466666666666667
 74
     0
 49
0.8466666666666667
 74
     0
 49
-0.8466666666666667
 74
     0
 49
0.8466666666666667
 74
     0
 49
-0.8466666666666667
 74
     0
 49
0.8466666666666667
 74
     0
 49
-0.8466666666666667
 74
     0
 49
0.8466666666666667
 74
     0
 49
-0.8466666666666667
 74
     0
 49
0.8466666666666667
 74
     0
 49
-0.8466666666666667
 74
     0
  0
LTYPE
  5
73
330
5
100
AcDbSymbolTableRecord
100
AcDbLinetypeTableRecord
  2
JWW_CENTER2
 70
     0
  3
-------------  --  -------------
 72
    65
 73
     4
 40
13.54666666666667
 49
11.00666666666667
 74
     0
 49
-0.8466666666666667
 74
     0
 49
0.8466666666666667
 74
     0
 49
-0.8466666666666667
 74
     0
  0
LTYPE
  5
74
330
5
100
AcDbSymbolTableRecord
100
AcDbLinetypeTableRecord
  2
JWW_DASHED3
 70
     0
  3
---  ------  ------  ------  ---
 72
    65
 73
     8
 40
13.54666666666667
 49
2.54
 74
     0
 49
-0.8466666666666667
 74
     0
 49
2.54
 74
     0
 49
-0.8466666666666667
 74
     0
 49
2.54
 74
     0
 49
-0.8466666666666667
 74
     0
 49
2.54
 74
     0
 49
-0.8466666666666667
 74
     0
  0
ENDTAB
  0
TABLE
  2
LAYER
  5
2
330
0
100
AcDbSymbolTable
 70
    11
  0
LAYER
  5
10
330
2
100
AcDbSymbolTableRecord
100
AcDbLayerTableRecord
  2
0
 70
     0
 62
     7
  6
Continuous
370
    -3
390
F
  0
LAYER
  5
75
330
2
100
AcDbSymbolTableRecord
100
AcDbLayerTableRecord
  2
F-5ﾚｲﾔ
 70
     0
 62
     7
  6
Continuous
370
    -3
390
F
  0
LAYER
  5
76
330
2
100
AcDbSymbolTableRecord
100
AcDbLayerTableRecord
  2
A-F
 70
     0
 62
     7
  6
Continuous
370
    -3
390
F
  0
LAYER
  5
77
330
2
100
AcDbSymbolTableRecord
100
AcDbLayerTableRecord
  2
A-3
 70
     0
 62
     7
  6
Continuous
370
    -3
390
F
  0
LAYER
  5
78
330
2
100
AcDbSymbolTableRecord
100
AcDbLayerTableRecord
  2
A-4
 70
     0
 62
     7
  6
Continuous
370
    -3
390
F
  0
LAYER
  5
79
330
2
100
AcDbSymbolTableRecord
100
AcDbLayerTableRecord
  2
A-5
 70
     0
 62
     7
  6
Continuous
370
    -3
390
F
  0
LAYER
  5
7A
330
2
100
AcDbSymbolTableRecord
100
AcDbLayerTableRecord
  2
A-E
 70
     0
 62
     7
  6
Continuous
370
    -3
390
F
  0
LAYER
  5
7B
330
2
100
AcDbSymbolTableRecord
100
AcDbLayerTableRecord
  2
A-1
 70
     0
 62
     7
  6
Continuous
370
    -3
390
F
  0
LAYER
  5
7C
330
2
100
AcDbSymbolTableRecord
100
AcDbLayerTableRecord
  2
A-6
 70
     0
 62
     7
  6
Continuous
370
    -3
390
F
  0
LAYER
  5
7D
330
2
100
AcDbSymbolTableRecord
100
AcDbLayerTableRecord
  2
A-0
 70
     0
 62
     7
  6
Continuous
370
    -3
390
F
  0
LAYER
  5
7E
330
2
100
AcDbSymbolTableRecord
100
AcDbLayerTableRecord
  2
A-D
 70
     0
 62
     7
  6
Continuous
370
    -3
390
F
  0
ENDTAB
  0
TABLE
  2
STYLE
  5
3
330
0
100
AcDbSymbolTable
 70
     2
  0
STYLE
  5
11
330
3
100
AcDbSymbolTableRecord
100
AcDbTextStyleTableRecord
  2
Standard
 70
     0
 40
0.0
 41
1.0
 50
0.0
 71
     0
 42
2.5
  3
txt
  4

  0
STYLE
  5
6E
330
3
100
AcDbSymbolTableRecord
100
AcDbTextStyleTableRecord
  2
ＭＳ ゴシック
 70
     0
 40
0.0
 41
1.0
 50
0.0
 71
     0
 42
2.5
  3

  4

1001
ACAD
1000
MS Gothic
1071
    32817
  0
ENDTAB
  0
TABLE
  2
VIEW
  5
6
330
0
100
AcDbSymbolTable
 70
     0
  0
ENDTAB
  0
TABLE
  2
UCS
  5
7
330
0
100
AcDbSymbolTable
 70
     0
  0
ENDTAB
  0
TABLE
  2
APPID
  5
9
330
0
100
AcDbSymbolTable
 70
     2
  0
APPID
  5
12
330
9
100
AcDbSymbolTableRecord
100
AcDbRegAppTableRecord
  2
ACAD
 70
     0
  0
APPID
  5
3B1
330
9
100
AcDbSymbolTableRecord
100
AcDbRegAppTableRecord
  2
ACAD_MLEADERVER
 70
     0
  0
ENDTAB
  0
TABLE
  2
DIMSTYLE
  5
A
330
0
100
AcDbSymbolTable
 70
     2
100
AcDbDimStyleTable
  0
DIMSTYLE
105
27
330
A
100
AcDbSymbolTableRecord
100
AcDbDimStyleTableRecord
  2
ISO-25
 70
     0
 41
2.5
 42
0.625
 43
3.75
 44
1.25
 73
     0
 74
     0
 77
     1
 78
     8
140
2.5
141
2.5
143
0.03937007874016
147
0.625
171
     3
172
     1
178
     0
271
     2
272
     2
274
     3
278
    44
283
     0
284
     8
340
11
  0
DIMSTYLE
105
7F
330
A
100
AcDbSymbolTableRecord
100
AcDbDimStyleTableRecord
  2
JWAC_DIMSTYLE
 70
     0
  3
x
  4
mm
 41
0.0
 42
0.625
 43
3.75
 44
1.25
 73
     0
 74
     0
 75
     1
 76
     1
 77
     1
 78
     8
140
2.5
141
2.5
143
0.03937007874016
147
0.625
171
     3
172
     1
173
     1
178
     0
271
     2
272
     2
274
     3
278
    32
283
     0
284
     8
340
11
371
     0
372
     0
  0
ENDTAB
  0
TABLE
  2
BLOCK_RECORD
  5
1
330
0
100
AcDbSymbolTable
 70
     1
  0
BLOCK_RECORD
  5
1F
330
1
100
AcDbSymbolTableRecord
100
AcDbBlockTableRecord
  2
*Model_Space
340
22
  0
BLOCK_RECORD
  5
1B
330
1
100
AcDbSymbolTableRecord
100
AcDbBlockTableRecord
  2
*Paper_Space
340
1E
  0
BLOCK_RECORD
  5
23
330
1
100
AcDbSymbolTableRecord
100
AcDbBlockTableRecord
  2
*Paper_Space0
340
26
  0
ENDTAB
  0
ENDSEC
  0
SECTION
  2
BLOCKS
  0
BLOCK
  5
20
330
1F
100
AcDbEntity
  8
0
100
AcDbBlockBegin
  2
*Model_Space
 70
     0
 10
0.0
 20
0.0
 30
0.0
  3
*Model_Space
  1

  0
ENDBLK
  5
21
330
1F
100
AcDbEntity
  8
0
100
AcDbBlockEnd
  0
BLOCK
  5
1C
330
1B
100
AcDbEntity
 67
     1
  8
0
100
AcDbBlockBegin
  2
*Paper_Space
 70
     0
 10
0.0
 20
0.0
 30
0.0
  3
*Paper_Space
  1

  0
ENDBLK
  5
1D
330
1B
100
AcDbEntity
 67
     1
  8
0
100
AcDbBlockEnd
  0
BLOCK
  5
24
330
23
100
AcDbEntity
  8
0
100
AcDbBlockBegin
  2
*Paper_Space0
 70
     0
 10
0.0
 20
0.0
 30
0.0
  3
*Paper_Space0
  1

  0
ENDBLK
  5
25
330
23
100
AcDbEntity
  8
0
100
AcDbBlockEnd
  0
ENDSEC
  0
SECTION
  2
ENTITIES
  0
TEXT
  5
80
330
1F
100
AcDbEntity
  8
F-5ﾚｲﾔ
  6
Continuous
 62
     2
370
     9
100
AcDbText
 10
-370.1048385556594
 20
-676.5256519184746
 30
0.0
 40
15.24
  1
外壁-外壁用　ＷＡＸ２２－５００Ｇ
 41
1.117424242424242
  7
ＭＳ ゴシック
100
AcDbText
  0
LINE
  5
81
330
1F
100
AcDbEntity
  8
A-F
  6
Continuous
 62
    30
370
     5
100
AcDbLine
 10
-157.6008896378985
 20
95.1826603025965
 30
0.0
 11
-157.5847469784017
 21
95.1665176431008
 31
0.0
  0
LINE
  5
82
330
1F
100
AcDbEntity
  8
A-3
  6
Continuous
 62
     4
370
     9
100
AcDbLine
 10
-156.8029604542923
 20
97.32897634511443
 30
0.0
 11
-156.3009256037898
 21
111.5083124070339
 31
0.0
  0
LINE
  5
83
330
1F
100
AcDbEntity
  8
A-3
  6
Continuous
 62
     4
370
     9
100
AcDbLine
 10
-157.6009604542921
 20
97.32897634511443
 30
0.0
 11
-157.0989256037896
 21
111.7467887643521
 31
0.0
  0
LINE
  5
84
330
1F
100
AcDbEntity
  8
A-3
  6
Continuous
 62
     4
370
     9
100
AcDbLine
 10
-156.8029604542923
 20
97.32897634511443
 30
0.0
 11
-157.6009604542921
 21
97.32897634511443
 31
0.0
  0
LINE
  5
85
330
1F
100
AcDbEntity
  8
A-3
  6
Continuous
 62
     4
370
     9
100
AcDbLine
 10
-155.4011542853172
 20
97.30886155165234
 30
0.0
 11
-155.4011542853172
 21
111.3844314015936
 31
0.0
  0
LINE
  5
86
330
1F
100
AcDbEntity
  8
A-3
  6
Continuous
 62
     4
370
     9
100
AcDbLine
 10
-155.4011542853172
 20
111.3844314015936
 30
0.0
 11
-149.2515592059996
 21
98.1604162738837
 31
0.0
  0
LINE
  5
87
330
1F
100
AcDbEntity
  8
A-3
  6
Continuous
 62
     4
370
     9
100
AcDbLine
 10
-157.0989256037896
 20
111.7467887643521
 30
0.0
 11
-156.8508959581422
 21
113.0056190834786
 31
0.0
  0
LINE
  5
88
330
1F
100
AcDbEntity
  8
A-3
  6
Continuous
 62
     4
370
     9
100
AcDbLine
 10
-156.3009256037898
 20
97.30886155165234
 30
0.0
 11
-156.3009256037898
 21
111.5083124070339
 31
0.0
  0
LINE
  5
89
330
1F
100
AcDbEntity
  8
A-3
  6
Continuous
 62
     4
370
     9
100
AcDbLine
 10
-155.6389793034154
 20
119.5116197348353
 30
0.0
 11
-154.8511839309649
 21
118.7238243623837
 31
0.0
  0
LINE
  5
8A
330
1F
100
AcDbEntity
  8
A-3
  6
Continuous
 62
     4
370
     9
100
AcDbLine
 10
-156.0631005856894
 20
119.5116197348353
 30
0.0
 11
-156.8508959581422
 21
118.7238243623837
 31
0.0
  0
LINE
  5
8B
330
1F
100
AcDbEntity
  8
A-3
  6
Continuous
 62
     4
370
     9
100
AcDbLine
 10
-154.8511839309649
 20
118.7238243623837
 30
0.0
 11
-154.7570448612996
 21
118.6158121666643
 31
0.0
  0
LINE
  5
8C
330
1F
100
AcDbEntity
  8
A-3
  6
Continuous
 62
     4
370
     9
100
AcDbLine
 10
-154.7570448612996
 20
118.6158121666643
 30
0.0
 11
-154.5994857868104
 21
118.4265430897609
 31
0.0
  0
LINE
  5
8D
330
1F
100
AcDbEntity
  8
A-3
  6
Continuous
 62
     4
370
     9
100
AcDbLine
 10
-154.5994857868104
 20
118.4265430897609
 30
0.0
 11
-154.4518360880724
 21
118.2323193249807
 31
0.0
  0
LINE
  5
8E
330
1F
100
AcDbEntity
  8
A-3
  6
Continuous
 62
     4
370
     9
100
AcDbLine
 10
-154.4518360880724
 20
118.2323193249807
 30
0.0
 11
-154.3220232656958
 21
118.0281861844459
 31
0.0
  0
LINE
  5
8F
330
1F
100
AcDbEntity
  8
A-3
  6
Continuous
 62
     4
370
     9
100
AcDbLine
 10
-154.3220232656958
 20
118.0281861844459
 30
0.0
 11
-154.2576123232934
 21
117.90431898752
 31
0.0
  0
LINE
  5
90
330
1F
100
AcDbEntity
  8
A-3
  6
Continuous
 62
     4
370
     9
100
AcDbLine
 10
-154.2576123232934
 20
117.90431898752
 30
0.0
 11
-154.2318479463333
 21
117.8498174208722
 31
0.0
  0
LINE
  5
91
330
1F
100
AcDbEntity
  8
A-3
  6
Continuous
 62
     4
370
     9
100
AcDbLine
 10
-154.2318479463333
 20
117.8498174208722
 30
0.0
 11
-154.1922104433169
 21
117.7536964760567
 31
0.0
  0
LINE
  5
92
330
1F
100
AcDbEntity
  8
A-3
  6
Continuous
 62
     4
370
     9
100
AcDbLine
 10
-154.1922104433169
 20
117.7536964760567
 30
0.0
 11
-154.1555457530248
 21
117.656089124879
 31
0.0
  0
LINE
  5
93
330
1F
100
AcDbEntity
  8
A-3
  6
Continuous
 62
     4
370
     9
100
AcDbLine
 10
-154.1555457530248
 20
117.656089124879
 30
0.0
 11
-154.1208629378875
 21
117.5569953673381
 31
0.0
  0
LINE
  5
94
330
1F
100
AcDbEntity
  8
A-3
  6
Continuous
 62
     4
370
     9
100
AcDbLine
 10
-154.1208629378875
 20
117.5569953673381
 30
0.0
 11
-154.1010441863781
 21
117.499520987965
 31
0.0
  0
LINE
  5
95
330
1F
100
AcDbEntity
  8
A-3
  6
Continuous
 62
     4
370
     9
100
AcDbLine
 10
-156.8508959581422
 20
118.7238243623837
 30
0.0
 11
-156.9450350278052
 21
118.6158121666643
 31
0.0
  0
LINE
  5
96
330
1F
100
AcDbEntity
  8
A-3
  6
Continuous
 62
     4
370
     9
100
AcDbLine
 10
-156.9450350278052
 20
118.6158121666643
 30
0.0
 11
-157.1035850398707
 21
118.4265430897609
 31
0.0
  0
LINE
  5
97
330
1F
100
AcDbEntity
  8
A-3
  6
Continuous
 62
     4
370
     9
100
AcDbLine
 10
-157.1035850398707
 20
118.4265430897609
 30
0.0
 11
-157.2502438010324
 21
118.2323193249807
 31
0.0
  0
LINE
  5
98
330
1F
100
AcDbEntity
  8
A-3
  6
Continuous
 62
     4
370
     9
100
AcDbLine
 10
-157.2502438010324
 20
118.2323193249807
 30
0.0
 11
-157.3810475609852
 21
118.0281861844459
 31
0.0
  0
LINE
  5
99
330
1F
100
AcDbEntity
  8
A-3
  6
Continuous
 62
     4
370
     9
100
AcDbLine
 10
-157.3810475609852
 20
118.0281861844459
 30
0.0
 11
-157.4454585033877
 21
117.90431898752
 31
0.0
  0
LINE
  5
9A
330
1F
100
AcDbEntity
  8
A-3
  6
Continuous
 62
     4
370
     9
100
AcDbLine
 10
-157.4454585033877
 20
117.90431898752
 30
0.0
 11
-157.4702319427738
 21
117.8498174208722
 31
0.0
  0
LINE
  5
9B
330
1F
100
AcDbEntity
  8
A-3
  6
Continuous
 62
     4
370
     9
100
AcDbLine
 10
-157.4702319427738
 20
117.8498174208722
 30
0.0
 11
-157.5098694457901
 21
117.7536964760567
 31
0.0
  0
LINE
  5
9C
330
1F
100
AcDbEntity
  8
A-3
  6
Continuous
 62
     4
370
     9
100
AcDbLine
 10
-157.5098694457901
 20
117.7536964760567
 30
0.0
 11
-157.547525073654
 21
117.656089124879
 31
0.0
  0
LINE
  5
9D
330
1F
100
AcDbEntity
  8
A-3
  6
Continuous
 62
     4
370
     9
100
AcDbLine
 10
-157.547525073654
 20
117.656089124879
 30
0.0
 11
-157.5812169512196
 21
117.5569953673381
 31
0.0
  0
LINE
  5
9E
330
1F
100
AcDbEntity
  8
A-3
  6
Continuous
 62
     4
370
     9
100
AcDbLine
 10
-154.8511839309649
 20
117.5991102142929
 30
0.0
 11
-154.741189860093
 21
117.4593880161605
 31
0.0
  0
LINE
  5
9F
330
1F
100
AcDbEntity
  8
A-3
  6
Continuous
 62
     4
370
     9
100
AcDbLine
 10
-154.741189860093
 20
117.4593880161605
 30
0.0
 11
-154.5568754710675
 21
117.2151219038223
 31
0.0
  0
LINE
  5
A0
330
1F
100
AcDbEntity
  8
A-3
  6
Continuous
 62
     4
370
     9
100
AcDbLine
 10
-154.5568754710675
 20
117.2151219038223
 30
0.0
 11
-154.3884160832462
 21
116.9634237596678
 31
0.0
  0
LINE
  5
A1
330
1F
100
AcDbEntity
  8
A-3
  6
Continuous
 62
     4
370
     9
100
AcDbLine
 10
-154.3884160832462
 20
116.9634237596678
 30
0.0
 11
-154.2496848226901
 21
116.6993388958202
 31
0.0
  0
LINE
  5
A2
330
1F
100
AcDbEntity
  8
A-3
  6
Continuous
 62
     4
370
     9
100
AcDbLine
 10
-154.2496848226901
 20
116.6993388958202
 30
0.0
 11
-154.1842829427137
 21
116.5383115398164
 31
0.0
  0
LINE
  5
A3
330
1F
100
AcDbEntity
  8
A-3
  6
Continuous
 62
     4
370
     9
100
AcDbLine
 10
-154.1842829427137
 20
116.5383115398164
 30
0.0
 11
-154.1714007542313
 21
116.4991695055882
 31
0.0
  0
LINE
  5
A4
330
1F
100
AcDbEntity
  8
A-3
  6
Continuous
 62
     4
370
     9
100
AcDbLine
 10
-154.1714007542313
 20
116.4991695055882
 30
0.0
 11
-154.150591065148
 21
116.4298038753089
 31
0.0
  0
LINE
  5
A5
330
1F
100
AcDbEntity
  8
A-3
  6
Continuous
 62
     4
370
     9
100
AcDbLine
 10
-154.150591065148
 20
116.4298038753089
 30
0.0
 11
-154.130772313641
 21
116.3604382450309
 31
0.0
  0
LINE
  5
A6
330
1F
100
AcDbEntity
  8
A-3
  6
Continuous
 62
     4
370
     9
100
AcDbLine
 10
-154.130772313641
 20
116.3604382450309
 30
0.0
 11
-154.1119444997079
 21
116.2900816771765
 31
0.0
  0
LINE
  5
A7
330
1F
100
AcDbEntity
  8
A-3
  6
Continuous
 62
     4
370
     9
100
AcDbLine
 10
-154.1119444997079
 20
116.2900816771765
 30
0.0
 11
-154.1010441863781
 21
116.2494532365851
 31
0.0
  0
LINE
  5
A8
330
1F
100
AcDbEntity
  8
A-3
  6
Continuous
 62
     4
370
     9
100
AcDbLine
 10
-154.8511839309649
 20
116.3495379317011
 30
0.0
 11
-154.741189860093
 21
116.2093202647806
 31
0.0
  0
LINE
  5
A9
330
1F
100
AcDbEntity
  8
A-3
  6
Continuous
 62
     4
370
     9
100
AcDbLine
 10
-154.741189860093
 20
116.2093202647806
 30
0.0
 11
-154.5568754710675
 21
115.9650541524412
 31
0.0
  0
LINE
  5
AA
330
1F
100
AcDbEntity
  8
A-3
  6
Continuous
 62
     4
370
     9
100
AcDbLine
 10
-154.5568754710675
 20
115.9650541524412
 30
0.0
 11
-154.3884160832462
 21
115.7133560082879
 31
0.0
  0
LINE
  5
AB
330
1F
100
AcDbEntity
  8
A-3
  6
Continuous
 62
     4
370
     9
100
AcDbLine
 10
-154.3884160832462
 20
115.7133560082879
 30
0.0
 11
-154.2496848226901
 21
115.4492711444403
 31
0.0
  0
LINE
  5
AC
330
1F
100
AcDbEntity
  8
A-3
  6
Continuous
 62
     4
370
     9
100
AcDbLine
 10
-154.2496848226901
 20
115.4492711444403
 30
0.0
 11
-154.1842829427137
 21
115.2882437884365
 31
0.0
  0
LINE
  5
AD
330
1F
100
AcDbEntity
  8
A-3
  6
Continuous
 62
     4
370
     9
100
AcDbLine
 10
-154.1842829427137
 20
115.2882437884365
 30
0.0
 11
-154.1714007542313
 21
115.2486062854201
 31
0.0
  0
LINE
  5
AE
330
1F
100
AcDbEntity
  8
A-3
  6
Continuous
 62
     4
370
     9
100
AcDbLine
 10
-154.1714007542313
 20
115.2486062854201
 30
0.0
 11
-154.150591065148
 21
115.179736123929
 31
0.0
  0
LINE
  5
AF
330
1F
100
AcDbEntity
  8
A-3
  6
Continuous
 62
     4
370
     9
100
AcDbLine
 10
-154.150591065148
 20
115.179736123929
 30
0.0
 11
-154.130772313641
 21
115.110370493651
 31
0.0
  0
LINE
  5
B0
330
1F
100
AcDbEntity
  8
A-3
  6
Continuous
 62
     4
370
     9
100
AcDbLine
 10
-154.130772313641
 20
115.110370493651
 30
0.0
 11
-154.1119444997079
 21
115.0400139257966
 31
0.0
  0
LINE
  5
B1
330
1F
100
AcDbEntity
  8
A-3
  6
Continuous
 62
     4
370
     9
100
AcDbLine
 10
-154.1119444997079
 20
115.0400139257966
 30
0.0
 11
-154.1010441863781
 21
114.999385485204
 31
0.0
  0
LINE
  5
B2
330
1F
100
AcDbEntity
  8
A-3
  6
Continuous
 62
     4
370
     9
100
AcDbLine
 10
-156.8508959581422
 20
117.5991102142929
 30
0.0
 11
-156.961880966588
 21
117.4593880161605
 31
0.0
  0
LINE
  5
B3
330
1F
100
AcDbEntity
  8
A-3
  6
Continuous
 62
     4
370
     9
100
AcDbLine
 10
-156.961880966588
 20
117.4593880161605
 30
0.0
 11
-157.1461953556135
 21
117.2151219038223
 31
0.0
  0
LINE
  5
B4
330
1F
100
AcDbEntity
  8
A-3
  6
Continuous
 62
     4
370
     9
100
AcDbLine
 10
-157.1461953556135
 20
117.2151219038223
 30
0.0
 11
-157.3136638058585
 21
116.9634237596678
 31
0.0
  0
LINE
  5
B5
330
1F
100
AcDbEntity
  8
A-3
  6
Continuous
 62
     4
370
     9
100
AcDbLine
 10
-157.3136638058585
 20
116.9634237596678
 30
0.0
 11
-157.4533860039909
 21
116.6993388958202
 31
0.0
  0
LINE
  5
B6
330
1F
100
AcDbEntity
  8
A-3
  6
Continuous
 62
     4
370
     9
100
AcDbLine
 10
-157.4533860039909
 20
116.6993388958202
 30
0.0
 11
-157.5177969463934
 21
116.5383115398164
 31
0.0
  0
LINE
  5
B7
330
1F
100
AcDbEntity
  8
A-3
  6
Continuous
 62
     4
370
     9
100
AcDbLine
 10
-157.5177969463934
 20
116.5383115398164
 30
0.0
 11
-157.5306791348734
 21
116.4991695055882
 31
0.0
  0
LINE
  5
B8
330
1F
100
AcDbEntity
  8
A-3
  6
Continuous
 62
     4
370
     9
100
AcDbLine
 10
-157.5306791348734
 20
116.4991695055882
 30
0.0
 11
-157.552479761533
 21
116.4298038753089
 31
0.0
  0
LINE
  5
B9
330
1F
100
AcDbEntity
  8
A-3
  6
Continuous
 62
     4
370
     9
100
AcDbLine
 10
-157.552479761533
 20
116.4298038753089
 30
0.0
 11
-157.5713075754638
 21
116.3604382450309
 31
0.0
  0
LINE
  5
BA
330
1F
100
AcDbEntity
  8
A-3
  6
Continuous
 62
     4
370
     9
100
AcDbLine
 10
-157.5713075754638
 20
116.3604382450309
 30
0.0
 11
-157.5911263269731
 21
116.2900816771765
 31
0.0
  0
LINE
  5
BB
330
1F
100
AcDbEntity
  8
A-3
  6
Continuous
 62
     4
370
     9
100
AcDbLine
 10
-156.8508959581422
 20
116.3495379317011
 30
0.0
 11
-156.961880966588
 21
116.2093202647806
 31
0.0
  0
LINE
  5
BC
330
1F
100
AcDbEntity
  8
A-3
  6
Continuous
 62
     4
370
     9
100
AcDbLine
 10
-156.961880966588
 20
116.2093202647806
 30
0.0
 11
-157.1461953556135
 21
115.9650541524412
 31
0.0
  0
LINE
  5
BD
330
1F
100
AcDbEntity
  8
A-3
  6
Continuous
 62
     4
370
     9
100
AcDbLine
 10
-157.1461953556135
 20
115.9650541524412
 30
0.0
 11
-157.3136638058585
 21
115.7133560082879
 31
0.0
  0
LINE
  5
BE
330
1F
100
AcDbEntity
  8
A-3
  6
Continuous
 62
     4
370
     9
100
AcDbLine
 10
-157.3136638058585
 20
115.7133560082879
 30
0.0
 11
-157.4533860039909
 21
115.4492711444403
 31
0.0
  0
LINE
  5
BF
330
1F
100
AcDbEntity
  8
A-3
  6
Continuous
 62
     4
370
     9
100
AcDbLine
 10
-157.4533860039909
 20
115.4492711444403
 30
0.0
 11
-157.5177969463934
 21
115.2882437884365
 31
0.0
  0
LINE
  5
C0
330
1F
100
AcDbEntity
  8
A-3
  6
Continuous
 62
     4
370
     9
100
AcDbLine
 10
-157.5177969463934
 20
115.2882437884365
 30
0.0
 11
-157.5306791348734
 21
115.2486062854201
 31
0.0
  0
LINE
  5
C1
330
1F
100
AcDbEntity
  8
A-3
  6
Continuous
 62
     4
370
     9
100
AcDbLine
 10
-157.5306791348734
 20
115.2486062854201
 30
0.0
 11
-157.552479761533
 21
115.179736123929
 31
0.0
  0
LINE
  5
C2
330
1F
100
AcDbEntity
  8
A-3
  6
Continuous
 62
     4
370
     9
100
AcDbLine
 10
-157.552479761533
 20
115.179736123929
 30
0.0
 11
-157.5713075754638
 21
115.110370493651
 31
0.0
  0
LINE
  5
C3
330
1F
100
AcDbEntity
  8
A-3
  6
Continuous
 62
     4
370
     9
100
AcDbLine
 10
-157.5713075754638
 20
115.110370493651
 30
0.0
 11
-157.6010357027266
 21
114.9998809539921
 31
0.0
  0
LINE
  5
C4
330
1F
100
AcDbEntity
  8
A-3
  6
Continuous
 62
     4
370
     9
100
AcDbLine
 10
-154.8511839309649
 20
115.0994701803212
 30
0.0
 11
-154.8511839309649
 21
112.0994066707659
 31
0.0
  0
LINE
  5
C5
330
1F
100
AcDbEntity
  8
A-3
  6
Continuous
 62
     4
370
     9
100
AcDbLine
 10
-156.8508959581422
 20
115.0994701803212
 30
0.0
 11
-156.8508959581422
 21
113.0056190834786
 31
0.0
  0
ARC
  5
C6
330
1F
100
AcDbEntity
  8
A-3
  6
Continuous
 62
     4
370
     9
100
AcDbCircle
 10
-155.8510399445535
 20
119.2995590936972
 30
0.0
 40
0.3000001213063834
100
AcDbArc
 50
45.0
 51
135.0
  0
ARC
  5
C7
330
1F
100
AcDbEntity
  8
A-3
  6
Continuous
 62
     4
370
     9
100
AcDbCircle
 10
-154.8442473679356
 20
114.7888112504303
 30
0.0
 40
2.810700080684712
100
AcDbArc
 50
74.66914367675783
 51
90.139892578125
  0
ARC
  5
C8
330
1F
100
AcDbEntity
  8
A-3
  6
Continuous
 62
     4
370
     9
100
AcDbCircle
 10
-156.8578325211692
 20
114.7888112504303
 30
0.0
 40
2.810700080684712
100
AcDbArc
 50
89.86010742187501
 51
105.3308563232422
  0
ARC
  5
C9
330
1F
100
AcDbEntity
  8
A-3
  6
Continuous
 62
     4
370
     9
100
AcDbCircle
 10
-154.8442473679356
 20
113.5387434990492
 30
0.0
 40
2.810700080684712
100
AcDbArc
 50
74.66914367675783
 51
90.139892578125
  0
ARC
  5
CA
330
1F
100
AcDbEntity
  8
A-3
  6
Continuous
 62
     4
370
     9
100
AcDbCircle
 10
-156.8578325211692
 20
113.5387434990492
 30
0.0
 40
2.810700080684712
100
AcDbArc
 50
89.86010742187501
 51
105.3308563232422
  0
ARC
  5
CB
330
1F
100
AcDbEntity
  8
A-3
  6
Continuous
 62
     4
370
     9
100
AcDbCircle
 10
-156.8578325211692
 20
112.2886757476693
 30
0.0
 40
2.810700080684712
100
AcDbArc
 50
89.86010742187501
 51
105.3308563232422
  0
ARC
  5
CC
330
1F
100
AcDbEntity
  8
A-3
  6
Continuous
 62
     4
370
     9
100
AcDbCircle
 10
-154.8442473679356
 20
112.2886757476693
 30
0.0
 40
2.810700080684712
100
AcDbArc
 50
74.66914367675783
 51
90.139892578125
  0
LINE
  5
CD
330
1F
100
AcDbEntity
  8
A-3
  6
Continuous
 62
     4
370
     9
100
AcDbLine
 10
-154.8511839309649
 20
112.0994066707659
 30
0.0
 11
-148.5269660680009
 21
98.49784020888774
 31
0.0
  0
LINE
  5
CE
330
1F
100
AcDbEntity
  8
A-3
  6
Continuous
 62
     4
370
     9
100
AcDbLine
 10
-148.5269660680009
 20
98.49784020888774
 30
0.0
 11
-149.2515592059996
 21
98.1604162738837
 31
0.0
  0
LINE
  5
CF
330
1F
100
AcDbEntity
  8
A-3
  6
Continuous
 62
     4
370
     9
100
AcDbLine
 10
-155.4011542853172
 20
97.30886155165234
 30
0.0
 11
-155.3853753309974
 21
97.3779723487898
 31
0.0
  0
LINE
  5
D0
330
1F
100
AcDbEntity
  8
A-3
  6
Continuous
 62
     4
370
     9
100
AcDbLine
 10
-155.4289403853178
 20
97.19001109052539
 30
0.0
 11
-155.4011542853172
 21
97.30886155165234
 31
0.0
  0
LINE
  5
D1
330
1F
100
AcDbEntity
  8
A-3
  6
Continuous
 62
     4
370
     9
100
AcDbLine
 10
-155.4583403918363
 20
97.07201086734668
 30
0.0
 11
-155.4289403853178
 21
97.19001109052539
 31
0.0
  0
LINE
  5
D2
330
1F
100
AcDbEntity
  8
A-3
  6
Continuous
 62
     4
370
     9
100
AcDbLine
 10
-155.4903757646932
 20
96.95539900739942
 30
0.0
 11
-155.4583403918363
 21
97.07201086734668
 31
0.0
  0
LINE
  5
D3
330
1F
100
AcDbEntity
  8
A-3
  6
Continuous
 62
     4
370
     9
100
AcDbLine
 10
-155.5260679637101
 20
96.84071363596797
 30
0.0
 11
-155.4903757646932
 21
96.9553990073997
 31
0.0
  0
LINE
  5
D4
330
1F
100
AcDbEntity
  8
A-3
  6
Continuous
 62
     4
370
     9
100
AcDbLine
 10
-155.5664384487099
 20
96.72849287833554
 30
0.0
 11
-155.5260679637101
 21
96.84071363596797
 31
0.0
  0
LINE
  5
D5
330
1F
100
AcDbEntity
  8
A-3
  6
Continuous
 62
     4
370
     9
100
AcDbLine
 10
-155.5923994289307
 20
96.66474617429583
 30
0.0
 11
-155.5664384487099
 21
96.72849287833554
 31
0.0
  0
LINE
  5
D6
330
1F
100
AcDbEntity
  8
A-3
  6
Continuous
 62
     4
370
     9
100
AcDbLine
 10
-155.6604850538199
 20
96.52108970748299
 30
0.0
 11
-155.5923994289307
 21
96.66474617429554
 31
0.0
  0
LINE
  5
D7
330
1F
100
AcDbEntity
  8
A-3
  6
Continuous
 62
     4
370
     9
100
AcDbLine
 10
-155.8014763190133
 20
96.28584028077708
 30
0.0
 11
-155.6604850538199
 21
96.52108970748299
 31
0.0
  0
LINE
  5
D8
330
1F
100
AcDbEntity
  8
A-3
  6
Continuous
 62
     4
370
     9
100
AcDbLine
 10
-155.9676207711001
 20
96.06384205157224
 30
0.0
 11
-155.8014763190133
 21
96.28584028077708
 31
0.0
  0
LINE
  5
D9
330
1F
100
AcDbEntity
  8
A-3
  6
Continuous
 62
     4
370
     9
100
AcDbLine
 10
-156.1534264478766
 20
95.85220174530474
 30
0.0
 11
-155.9676207711001
 21
96.06384205157224
 31
0.0
  0
LINE
  5
DA
330
1F
100
AcDbEntity
  8
A-3
  6
Continuous
 62
     4
370
     9
100
AcDbLine
 10
-156.3534013871364
 20
95.64802608741144
 30
0.0
 11
-156.1534264478766
 21
95.85220174530474
 31
0.0
  0
LINE
  5
DB
330
1F
100
AcDbEntity
  8
A-3
  6
Continuous
 62
     4
370
     9
100
AcDbLine
 10
-156.5620536266803
 20
95.44842180332833
 30
0.0
 11
-156.3534013871364
 21
95.64802608741144
 31
0.0
  0
LINE
  5
DC
330
1F
100
AcDbEntity
  8
A-3
  6
Continuous
 62
     4
370
     9
100
AcDbLine
 10
-156.6848837459131
 20
95.33360582141182
 30
0.0
 11
-156.5620536266803
 21
95.44842180332833
 31
0.0
  0
LINE
  5
DD
330
1F
100
AcDbEntity
  8
A-3
  6
Continuous
 62
     4
370
     9
100
AcDbLine
 10
-156.3167045581096
 20
97.23975075451517
 30
0.0
 11
-156.3009256037898
 21
97.30886155165234
 31
0.0
  0
LINE
  5
DE
330
1F
100
AcDbEntity
  8
A-3
  6
Continuous
 62
     4
370
     9
100
AcDbLine
 10
-156.3444906581103
 20
97.12090029338822
 30
0.0
 11
-156.3167045581096
 21
97.23975075451517
 31
0.0
  0
LINE
  5
DF
330
1F
100
AcDbEntity
  8
A-3
  6
Continuous
 62
     4
370
     9
100
AcDbLine
 10
-156.3738906646287
 20
97.00290007020936
 30
0.0
 11
-156.3444906581103
 21
97.12090029338822
 31
0.0
  0
LINE
  5
E0
330
1F
100
AcDbEntity
  8
A-3
  6
Continuous
 62
     4
370
     9
100
AcDbLine
 10
-156.4059260374856
 20
96.88628821026239
 30
0.0
 11
-156.3738906646287
 21
97.00290007020936
 31
0.0
  0
LINE
  5
E1
330
1F
100
AcDbEntity
  8
A-3
  6
Continuous
 62
     4
370
     9
100
AcDbLine
 10
-156.4416182365036
 20
96.7716028388308
 30
0.0
 11
-156.4059260374856
 21
96.88628821026239
 31
0.0
  0
LINE
  5
E2
330
1F
100
AcDbEntity
  8
A-3
  6
Continuous
 62
     4
370
     9
100
AcDbLine
 10
-156.4819887215023
 20
96.65938208119837
 30
0.0
 11
-156.4416182365036
 21
96.7716028388308
 31
0.0
  0
LINE
  5
E3
330
1F
100
AcDbEntity
  8
A-3
  6
Continuous
 62
     4
370
     9
100
AcDbLine
 10
-156.5079497017243
 20
96.59563537715852
 30
0.0
 11
-156.4819887215023
 21
96.65938208119837
 31
0.0
  0
LINE
  5
E4
330
1F
100
AcDbEntity
  8
A-3
  6
Continuous
 62
     4
370
     9
100
AcDbLine
 10
-156.5760353266123
 20
96.45197891034582
 30
0.0
 11
-156.5079497017243
 21
96.59563537715852
 31
0.0
  0
LINE
  5
E5
330
1F
100
AcDbEntity
  8
A-3
  6
Continuous
 62
     4
370
     9
100
AcDbLine
 10
-156.7170265918068
 20
96.21672948363977
 30
0.0
 11
-156.5760353266123
 21
96.45197891034582
 31
0.0
  0
LINE
  5
E6
330
1F
100
AcDbEntity
  8
A-3
  6
Continuous
 62
     4
370
     9
100
AcDbLine
 10
-156.8831710438937
 20
95.99473125443492
 30
0.0
 11
-156.7170265918068
 21
96.21672948363977
 31
0.0
  0
LINE
  5
E7
330
1F
100
AcDbEntity
  8
A-3
  6
Continuous
 62
     4
370
     9
100
AcDbLine
 10
-157.0689767206679
 20
95.78309094816757
 30
0.0
 11
-156.8831710438937
 21
95.99473125443492
 31
0.0
  0
LINE
  5
E8
330
1F
100
AcDbEntity
  8
A-3
  6
Continuous
 62
     4
370
     9
100
AcDbLine
 10
-157.26895165993
 20
95.57891529027398
 30
0.0
 11
-157.0689767206679
 21
95.78309094816757
 31
0.0
  0
LINE
  5
E9
330
1F
100
AcDbEntity
  8
A-3
  6
Continuous
 62
     4
370
     9
100
AcDbLine
 10
-157.4776038994716
 20
95.37931100619102
 30
0.0
 11
-157.26895165993
 21
95.57891529027398
 31
0.0
  0
LINE
  5
EA
330
1F
100
AcDbEntity
  8
A-3
  6
Continuous
 62
     4
370
     9
100
AcDbLine
 10
-157.6004340187055
 20
95.26449502427437
 30
0.0
 11
-157.4776038994716
 21
95.37931100619102
 31
0.0
  0
LINE
  5
EB
330
1F
100
AcDbEntity
  8
A-4
  6
Continuous
 62
     7
370
     9
100
AcDbLine
 10
325.2960399890155
 20
15.0580165238851
 30
0.0
 11
277.6707495784655
 21
21.04397620721994
 31
0.0
  0
LINE
  5
EC
330
1F
100
AcDbEntity
  8
A-F
  6
Continuous
 62
     7
370
     9
100
AcDbLine
 10
325.2960399890155
 20
15.0580165238851
 30
0.0
 11
339.6311309855498
 21
129.1103837152917
 31
0.0
  0
LINE
  5
ED
330
1F
100
AcDbEntity
  8
A-F
  6
Continuous
 62
     7
370
     9
100
AcDbLine
 10
322.319459338369
 20
15.43213900409197
 30
0.0
 11
336.6545503349032
 21
129.4845061954986
 31
0.0
  0
LINE
  5
EE
330
1F
100
AcDbEntity
  8
A-4
  6
Continuous
 62
     3
370
     9
100
AcDbLine
 10
325.2960399890155
 20
15.0580165238851
 30
0.0
 11
310.4131367356518
 21
16.92862892388004
 31
0.0
  0
LINE
  5
EF
330
1F
100
AcDbEntity
  8
A-4
  6
Continuous
 62
     3
370
     9
100
AcDbLine
 10
326.5431149223456
 20
24.97995202612739
 30
0.0
 11
325.2960399890155
 21
15.0580165238851
 31
0.0
  0
LINE
  5
F0
330
1F
100
AcDbEntity
  8
A-4
  6
Continuous
 62
     3
370
     9
100
AcDbLine
 10
306.4498289311948
 20
25.48971479233938
 30
0.0
 11
326.2936999356796
 21
22.99556492567913
 31
0.0
  0
LINE
  5
F1
330
1F
100
AcDbEntity
  8
A-4
  6
Continuous
 62
     3
370
     9
100
AcDbLine
 10
305.4521689845307
 20
17.55216639054521
 30
0.0
 11
306.4498289311948
 21
25.48971479233938
 31
0.0
  0
ARC
  5
F2
330
1F
100
AcDbEntity
  8
A-4
  6
Continuous
 62
     7
370
     9
100
AcDbCircle
 10
320.754844623675
 20
160.2091118354953
 30
0.0
 40
2.0
100
AcDbArc
 50
38.49999999999986
 51
90.00000000000006
  0
ARC
  5
F3
330
1F
100
AcDbEntity
  8
A-4
  6
Continuous
 62
     7
370
     9
100
AcDbCircle
 10
320.7548446236751
 20
160.2091118354953
 30
0.0
 40
4.0
100
AcDbArc
 50
38.49999999999986
 51
90.00000000000006
  0
LWPOLYLINE
  5
F4
330
1F
100
AcDbEntity
  8
A-4
  6
Continuous
 62
     3
370
     9
100
AcDbPolyline
 90
        4
 70
     1
 43
1.0
 10
342.8990860434048
 20
138.3968955164191
 42
0.4142135623731
 10
342.3990860434048
 20
138.8968955164191
 42
0.4142135623731
 10
341.8990860434048
 20
138.3968955164191
 42
0.4142135623731
 10
342.3990860434048
 20
137.8968955164191
 42
0.4142135623731
  0
LINE
  5
F5
330
1F
100
AcDbEntity
  8
A-4
  6
Continuous
 62
     7
370
     9
100
AcDbLine
 10
338.7628900972147
 20
124.1863449502308
 30
0.0
 11
336.0487823471138
 21
124.6649153751235
 31
0.0
  0
LINE
  5
F6
330
1F
100
AcDbEntity
  8
A-4
  6
Continuous
 62
     7
370
     9
100
AcDbLine
 10
339.6311309855498
 20
129.1103837152917
 30
0.0
 11
336.6730845032641
 21
129.6319671203086
 31
0.0
  0
ARC
  5
F7
330
1F
100
AcDbEntity
  8
A-5
  6
Continuous
 62
     3
370
     9
100
AcDbCircle
 10
339.3831117033585
 20
138.3968955164191
 30
0.0
 40
3.0
100
AcDbArc
 50
253.5
 51
38.5
  0
LINE
  5
F8
330
1F
100
AcDbEntity
  8
A-5
  6
Continuous
 62
     3
370
     9
100
AcDbLine
 10
338.5310656692471
 20
135.5204363118144
 30
0.0
 11
310.1574084189155
 21
143.9250964907914
 31
0.0
  0
LWPOLYLINE
  5
F9
330
1F
100
AcDbEntity
  8
A-4
  6
Continuous
 62
     7
370
     9
100
AcDbPolyline
 90
        4
 70
     1
 43
1.0
 10
342.8831117033585
 20
138.3968955164191
 42
0.4142135623731
 10
342.3831117033585
 20
138.8968955164191
 42
0.4142135623731
 10
341.8831117033585
 20
138.3968955164191
 42
0.4142135623731
 10
342.3831117033585
 20
137.8968955164191
 42
0.4142135623731
  0
ELLIPSE
  5
FA
330
1F
100
AcDbEntity
  8
A-E
  6
Continuous
 62
     4
370
     9
100
AcDbEllipse
 10
312.0939634445903
 20
139.0229767162235
 30
0.0
 11
-5.69545374114293
 21
1.961101993289439
 31
0.0
210
0.0
220
0.0
230
1.0
 40
0.6758999999999998
 41
5.777516263620245
 42
9.987412552677732
  0
LINE
  5
FB
330
1F
100
AcDbEntity
  8
A-E
  6
Continuous
 62
     4
370
     9
100
AcDbLine
 10
319.3116771331086
 20
145.5722728997487
 30
0.0
 11
318.1010718544628
 21
143.9762939903751
 31
0.0
  0
LINE
  5
FC
330
1F
100
AcDbEntity
  8
A-E
  6
Continuous
 62
     4
370
     9
100
AcDbLine
 10
318.0430383815399
 20
146.4278348921483
 30
0.0
 11
319.3116771331086
 21
145.5722728997487
 31
0.0
  0
LINE
  5
FD
330
1F
100
AcDbEntity
  8
A-E
  6
Continuous
 62
     4
370
     9
100
AcDbLine
 10
310.568378958422
 20
145.3428885967047
 30
0.0
 11
310.0799869845298
 21
143.9244953135578
 31
0.0
  0
LINE
  5
FE
330
1F
100
AcDbEntity
  8
A-E
  6
Continuous
 62
     4
370
     9
100
AcDbLine
 10
315.2401161990678
 20
141.7407197023963
 30
0.0
 11
315.4196070756318
 21
142.2081943801707
 31
0.0
  0
LINE
  5
FF
330
1F
100
AcDbEntity
  8
A-E
  6
Continuous
 62
     4
370
     9
100
AcDbLine
 10
313.9052268457047
 20
142.1697935748346
 30
0.0
 11
314.084684375415
 21
142.6373120108731
 31
0.0
  0
LINE
  5
100
330
1F
100
AcDbEntity
  8
A-E
  6
Continuous
 62
     4
370
     9
100
AcDbLine
 10
315.2401161990678
 20
141.7407197023963
 30
0.0
 11
314.084684375415
 21
142.6373120108731
 31
0.0
  0
LINE
  5
101
330
1F
100
AcDbEntity
  8
A-E
  6
Continuous
 62
     4
370
     9
100
AcDbLine
 10
312.5703618553614
 20
142.5988913344339
 30
0.0
 11
312.749852731926
 21
143.066366012208
 31
0.0
  0
LINE
  5
102
330
1F
100
AcDbEntity
  8
A-E
  6
Continuous
 62
     4
370
     9
100
AcDbLine
 10
313.9052268457047
 20
142.1697935748346
 30
0.0
 11
312.749852731926
 21
143.066366012208
 31
0.0
  0
LINE
  5
103
330
1F
100
AcDbEntity
  8
A-E
  6
Continuous
 62
     4
370
     9
100
AcDbLine
 10
311.2355351796485
 20
143.0279597632373
 30
0.0
 11
311.4149345236258
 21
143.4954498201976
 31
0.0
  0
LINE
  5
104
330
1F
100
AcDbEntity
  8
A-E
  6
Continuous
 62
     4
370
     9
100
AcDbLine
 10
312.5703618553614
 20
142.5988913344339
 30
0.0
 11
311.4149345236258
 21
143.4954498201976
 31
0.0
  0
LINE
  5
105
330
1F
100
AcDbEntity
  8
A-E
  6
Continuous
 62
     4
370
     9
100
AcDbLine
 10
311.2355351796485
 20
143.0279597632373
 30
0.0
 11
310.0800118234091
 21
143.9245674509
 31
0.0
  0
LINE
  5
106
330
1F
100
AcDbEntity
  8
A-E
  6
Continuous
 62
     4
370
     9
100
AcDbLine
 10
316.5750344073679
 20
141.3116358944067
 30
0.0
 11
315.4196070756318
 21
142.2081943801707
 31
0.0
  0
LINE
  5
107
330
1F
100
AcDbEntity
  8
A-E
  6
Continuous
 62
     4
370
     9
100
AcDbLine
 10
316.7545248080731
 20
141.7790623219997
 30
0.0
 11
316.5750344073679
 21
141.3116358944067
 31
0.0
  0
LINE
  5
108
330
1F
100
AcDbEntity
  8
A-E
  6
Continuous
 62
     4
370
     9
100
AcDbLine
 10
309.0935693235526
 20
142.1409326127197
 30
0.0
 11
316.2145636220474
 21
139.8518908615268
 31
0.0
  0
ELLIPSE
  5
109
330
1F
100
AcDbEntity
  8
A-E
  6
Continuous
 62
     4
370
     9
100
AcDbEllipse
 10
312.0939634445903
 20
139.0229767162235
 30
0.0
 11
-4.749935165543611
 21
1.635533838832282
 31
0.0
210
0.0
220
0.0
230
1.0
 40
0.6113000000000001
 41
5.586205157237203
 42
10.18912916207193
  0
ARC
  5
10A
330
1F
100
AcDbEntity
  8
A-E
  6
Continuous
 62
     4
370
     9
100
AcDbCircle
 10
317.6463663509473
 20
139.9168210954194
 30
0.0
 40
0.5000000000000003
100
AcDbArc
 50
266.8085784912109
 51
338.9999999999999
  0
LINE
  5
10B
330
1F
100
AcDbEntity
  8
A-E
  6
Continuous
 62
     4
370
     9
100
AcDbLine
 10
318.1131444941755
 20
139.7376507449873
 30
0.0
 11
318.661524599783
 21
141.1660829546132
 31
0.0
  0
LINE
  5
10C
330
1F
100
AcDbEntity
  8
A-E
  6
Continuous
 62
     4
370
     9
100
AcDbLine
 10
318.661524599783
 20
141.1660829546132
 30
0.0
 11
316.7545248080731
 21
141.7790623219997
 31
0.0
  0
LINE
  5
10D
330
1F
100
AcDbEntity
  8
A-E
  6
Continuous
 62
     4
370
     9
100
AcDbLine
 10
316.3462962881176
 20
144.6705396301679
 30
0.0
 11
316.2251773232559
 21
144.1845963841207
 31
0.0
  0
LINE
  5
10E
330
1F
100
AcDbEntity
  8
A-E
  6
Continuous
 62
     4
370
     9
100
AcDbLine
 10
317.6859096288883
 20
144.256346879917
 30
0.0
 11
316.2251773232559
 21
144.1845963841207
 31
0.0
  0
LINE
  5
10F
330
1F
100
AcDbEntity
  8
A-E
  6
Continuous
 62
     4
370
     9
100
AcDbLine
 10
317.6859096288883
 20
144.256346879917
 30
0.0
 11
318.1010718544628
 21
143.9762939903751
 31
0.0
  0
LINE
  5
110
330
1F
100
AcDbEntity
  8
A-E
  6
Continuous
 62
     4
370
     9
100
AcDbLine
 10
317.3650507270049
 20
146.3155487794694
 30
0.0
 11
317.1254878476698
 21
145.9996858396484
 31
0.0
  0
ARC
  5
111
330
1F
100
AcDbEntity
  8
A-E
  6
Continuous
 62
     4
370
     9
100
AcDbCircle
 10
317.7633969283714
 20
146.0133325008648
 30
0.0
 40
0.5000000000000002
100
AcDbArc
 50
55.9999999999999
 51
142.8223876953124
  0
LINE
  5
112
330
1F
100
AcDbEntity
  8
A-E
  6
Continuous
 62
     4
370
     9
100
AcDbLine
 10
316.3462962881176
 20
144.6705396301679
 30
0.0
 11
314.8855451089037
 21
144.5987786725744
 31
0.0
  0
LINE
  5
113
330
1F
100
AcDbEntity
  8
A-E
  6
Continuous
 62
     4
370
     9
100
AcDbLine
 10
315.0067038709421
 20
145.0846946332552
 30
0.0
 11
314.8855451089037
 21
144.5987786725744
 31
0.0
  0
LINE
  5
114
330
1F
100
AcDbEntity
  8
A-E
  6
Continuous
 62
     4
370
     9
100
AcDbLine
 10
315.0067038709421
 20
145.0846946332552
 30
0.0
 11
313.5460323919472
 21
145.01299019054
 31
0.0
  0
LINE
  5
115
330
1F
100
AcDbEntity
  8
A-E
  6
Continuous
 62
     4
370
     9
100
AcDbLine
 10
313.6671303273476
 20
145.4988600981399
 30
0.0
 11
313.5460323919472
 21
145.01299019054
 31
0.0
  0
LINE
  5
116
330
1F
100
AcDbEntity
  8
A-E
  6
Continuous
 62
     4
370
     9
100
AcDbLine
 10
313.6671303273476
 20
145.4988600981399
 30
0.0
 11
312.2064148452844
 21
145.4271682731013
 31
0.0
  0
LINE
  5
117
330
1F
100
AcDbEntity
  8
A-E
  6
Continuous
 62
     4
370
     9
100
AcDbLine
 10
312.3276049927142
 20
145.9130276130371
 30
0.0
 11
312.2064148452844
 21
145.4271682731013
 31
0.0
  0
LINE
  5
118
330
1F
100
AcDbEntity
  8
A-E
  6
Continuous
 62
     4
370
     9
100
AcDbLine
 10
312.3276049927142
 20
145.9130276130371
 30
0.0
 11
310.8667784250401
 21
145.8413358938655
 31
0.0
  0
LINE
  5
119
330
1F
100
AcDbEntity
  8
A-E
  6
Continuous
 62
     4
370
     9
100
AcDbLine
 10
317.1254878476698
 20
145.9996858396484
 30
0.0
 11
309.9426621206419
 21
148.2203667580195
 31
0.0
  0
ARC
  5
11A
330
1F
100
AcDbEntity
  8
A-E
  6
Continuous
 62
     4
370
     9
100
AcDbCircle
 10
309.7949239846388
 20
147.7426755111463
 30
0.0
 40
0.5000000000000002
100
AcDbArc
 50
72.82011413574212
 51
165.9999999999999
  0
LINE
  5
11B
330
1F
100
AcDbEntity
  8
A-E
  6
Continuous
 62
     4
370
     9
100
AcDbLine
 10
307.6728000409229
 20
143.0763425717292
 30
0.0
 11
309.3281508569012
 21
147.8838304178629
 31
0.0
  0
LINE
  5
11C
330
1F
100
AcDbEntity
  8
A-4
  6
Continuous
 62
     3
370
     9
100
AcDbLine
 10
310.1574084189155
 20
143.9250964907914
 30
0.0
 11
310.7487193680345
 21
145.9213288001758
 31
0.0
  0
ARC
  5
11D
330
1F
100
AcDbEntity
  8
A-E
  6
Continuous
 62
     4
370
     9
100
AcDbCircle
 10
308.1455593287224
 20
142.9135833333798
 30
0.0
 40
0.5000000000000001
100
AcDbArc
 50
161.0
 51
218.3493499755859
  0
LINE
  5
11E
330
1F
100
AcDbEntity
  8
A-4
  6
Continuous
 62
     3
370
     9
100
AcDbLine
 10
322.3200609373798
 20
161.4541411087707
 30
0.0
 11
340.1655556310985
 21
139.0192795193219
 31
0.0
  0
ARC
  5
11F
330
1F
100
AcDbEntity
  8
A-4
  6
Continuous
 62
     3
370
     9
100
AcDbCircle
 10
320.754844623675
 20
160.2091118354953
 30
0.0
 40
2.0
100
AcDbArc
 50
38.49999999999986
 51
90.00000000000006
  0
LINE
  5
120
330
1F
100
AcDbEntity
  8
A-5
  6
Continuous
 62
     3
370
     9
100
AcDbLine
 10
323.8852772510847
 20
162.6991703820458
 30
0.0
 11
341.7307719448035
 21
140.2643087925973
 31
0.0
  0
ARC
  5
121
330
1F
100
AcDbEntity
  8
A-4
  6
Continuous
 62
     3
370
     9
100
AcDbCircle
 10
320.7548446236751
 20
160.2091118354953
 30
0.0
 40
4.0
100
AcDbArc
 50
38.49999999999986
 51
90.00000000000006
  0
ARC
  5
122
330
1F
100
AcDbEntity
  8
A-4
  6
Continuous
 62
     3
370
     9
100
AcDbCircle
 10
339.3831117033585
 20
138.3968955164191
 30
0.0
 40
0.9999999999999999
100
AcDbArc
 50
253.5
 51
38.5
  0
LINE
  5
123
330
1F
100
AcDbEntity
  8
A-4
  6
Continuous
 62
     3
370
     9
100
AcDbLine
 10
339.0990963586549
 20
137.438075781551
 30
0.0
 11
310.7254391083233
 21
145.8427359605279
 31
0.0
  0
LINE
  5
124
330
1F
100
AcDbEntity
  8
A-4
  6
Continuous
 62
     7
370
     9
100
AcDbLine
 10
277.8674132389457
 20
144.2091118354953
 30
0.0
 11
277.8674132389457
 21
147.2091118354952
 31
0.0
  0
LINE
  5
125
330
1F
100
AcDbEntity
  8
A-4
  6
Continuous
 62
     7
370
     9
100
AcDbLine
 10
192.8523852837986
 20
144.2091118354953
 30
0.0
 11
277.8674132389457
 21
144.2091118354953
 31
0.0
  0
ARC
  5
126
330
1F
100
AcDbEntity
  8
A-4
  6
Continuous
 62
     7
370
     9
100
AcDbCircle
 10
337.8674132389457
 20
130.8193642041384
 30
0.0
 40
130.0
100
AcDbArc
 50
207.5134917061958
 51
230.0427673610095
  0
LINE
  5
127
330
1F
100
AcDbEntity
  8
A-4
  6
Continuous
 62
     7
370
     9
100
AcDbLine
 10
295.4538667386147
 20
96.07133741357725
 30
0.0
 11
337.1066197857098
 21
129.399381984994
 31
0.0
  0
ARC
  5
128
330
1F
100
AcDbEntity
  8
A-4
  6
Continuous
 62
     7
370
     9
100
AcDbCircle
 10
337.8674132389457
 20
130.8193642041387
 30
0.0
 40
60.0
100
AcDbArc
 50
179.9999981203058
 51
214.1110780682279
  0
ARC
  5
129
330
1F
100
AcDbEntity
  8
A-4
  6
Continuous
 62
     7
370
     9
100
AcDbCircle
 10
292.330057623118
 20
99.97541433519896
 30
0.0
 40
5.0
100
AcDbArc
 50
214.1110780682273
 51
308.6647080371723
  0
ARC
  5
12A
330
1F
100
AcDbEntity
  8
A-4
  6
Continuous
 62
     7
370
     9
100
AcDbCircle
 10
283.2790845910627
 20
65.66482195702616
 30
0.0
 40
45.0
100
AcDbArc
 50
230.0427673610095
 51
262.8361357859998
  0
LINE
  5
12B
330
1F
100
AcDbEntity
  8
A-4
  6
Continuous
 62
     7
370
     9
100
AcDbLine
 10
193.4178748914293
 20
126.7336975973377
 30
0.0
 11
222.5701430373516
 21
70.76489322936038
 31
0.0
  0
ARC
  5
12C
330
1F
100
AcDbEntity
  8
A-4
  6
Continuous
 62
     7
370
     9
100
AcDbCircle
 10
197.8523852837986
 20
129.0434849425214
 30
0.0
 40
5.0
100
AcDbArc
 50
180.0
 51
207.5134917061954
  0
LINE
  5
12D
330
1F
100
AcDbEntity
  8
A-4
  6
Continuous
 62
     7
370
     9
100
AcDbLine
 10
277.8674132389456
 20
144.2091118354953
 30
0.0
 11
277.8674132389456
 21
130.8193661725501
 31
0.0
  0
LINE
  5
12E
330
1F
100
AcDbEntity
  8
A-4
  6
Continuous
 62
     7
370
     9
100
AcDbLine
 10
337.1066197857098
 20
129.399381984994
 30
0.0
 11
339.6276287945112
 21
129.0825197011544
 31
0.0
  0
LINE
  5
12F
330
1F
100
AcDbEntity
  8
A-4
  6
Continuous
 62
     7
370
     9
100
AcDbLine
 10
330.4156734739759
 20
79.84696467055468
 30
0.0
 11
333.3922541246226
 21
79.47284219034796
 31
0.0
  0
LINE
  5
130
330
1F
100
AcDbEntity
  8
A-4
  6
Continuous
 62
     3
370
     9
100
AcDbLine
 10
192.8523852837986
 20
127.2091118354952
 30
0.0
 11
192.8523852837986
 21
147.2091118354952
 31
0.0
  0
LINE
  5
131
330
1F
100
AcDbEntity
  8
A-4
  6
Continuous
 62
     3
370
     9
100
AcDbLine
 10
192.8523852837986
 20
147.2091118354952
 30
0.0
 11
202.8523852837986
 21
147.2091118354952
 31
0.0
  0
LINE
  5
132
330
1F
100
AcDbEntity
  8
A-4
  6
Continuous
 62
     3
370
     9
100
AcDbLine
 10
200.8523852837986
 20
147.2091118354952
 30
0.0
 11
200.8523852837986
 21
127.2091118354952
 31
0.0
  0
LINE
  5
133
330
1F
100
AcDbEntity
  8
A-F
  6
Continuous
 62
     3
370
     9
100
AcDbLine
 10
200.8523852837986
 20
127.2091118354952
 30
0.0
 11
192.8523852837986
 21
127.2091118354952
 31
0.0
  0
LINE
  5
134
330
1F
100
AcDbEntity
  8
A-1
  6
Continuous
 62
     2
370
     9
100
AcDbLine
 10
302.8831117033586
 20
147.2091118354952
 30
0.0
 11
302.8831117033586
 21
162.2091118354952
 31
0.0
  0
LINE
  5
135
330
1F
100
AcDbEntity
  8
A-E
  6
Continuous
 62
     2
370
     9
100
AcDbLine
 10
277.6830689787491
 20
164.2091118354953
 30
0.0
 11
287.0831849455459
 21
164.2091118354953
 31
0.0
  0
LINE
  5
136
330
1F
100
AcDbEntity
  8
A-E
  6
Continuous
 62
     2
370
     9
100
AcDbLine
 10
277.6830689787491
 20
164.4975792427219
 30
0.0
 11
277.6830689787491
 21
164.2091118354953
 31
0.0
  0
LINE
  5
137
330
1F
100
AcDbEntity
  8
A-E
  6
Continuous
 62
     2
370
     9
100
AcDbLine
 10
287.0831849455459
 20
164.4975792427219
 30
0.0
 11
287.0831849455459
 21
164.2091118354953
 31
0.0
  0
LINE
  5
138
330
1F
100
AcDbEntity
  8
A-E
  6
Continuous
 62
     2
370
     9
100
AcDbLine
 10
277.6830689787491
 20
164.4975792427219
 30
0.0
 11
287.0831849455459
 21
164.4975792427219
 31
0.0
  0
LINE
  5
139
330
1F
100
AcDbEntity
  8
A-E
  6
Continuous
 62
     2
370
     9
100
AcDbLine
 10
281.883020150624
 20
166.2885948677218
 30
0.0
 11
282.8830811857803
 21
166.2885948677218
 31
0.0
  0
LINE
  5
13A
330
1F
100
AcDbEntity
  8
A-E
  6
Continuous
 62
     2
370
     9
100
AcDbLine
 10
282.8830811857803
 20
166.6886345405733
 30
0.0
 11
282.8830811857803
 21
166.2885948677218
 31
0.0
  0
LINE
  5
13B
330
1F
100
AcDbEntity
  8
A-E
  6
Continuous
 62
     2
370
     9
100
AcDbLine
 10
281.883020150624
 20
166.6886345405733
 30
0.0
 11
281.883020150624
 21
166.2885948677218
 31
0.0
  0
ARC
  5
13C
330
1F
100
AcDbEntity
  8
A-E
  6
Continuous
 62
     2
370
     9
100
AcDbCircle
 10
282.3830506682021
 20
160.6091362495577
 30
0.0
 40
6.099999904632569
100
AcDbArc
 50
39.60198974609384
 51
85.2985382080079
  0
ARC
  5
13D
330
1F
100
AcDbEntity
  8
A-E
  6
Continuous
 62
     2
370
     9
100
AcDbCircle
 10
282.3830506682021
 20
160.6091362495577
 30
0.0
 40
6.099999904632569
100
AcDbArc
 50
94.70191955566406
 51
140.3980102539062
  0
LINE
  5
13E
330
1F
100
AcDbEntity
  8
A-E
  6
Continuous
 62
     2
370
     9
100
AcDbLine
 10
280.3831117033585
 20
164.2091118354953
 30
0.0
 11
280.3831117033585
 21
155.6732079048312
 31
0.0
  0
LINE
  5
13F
330
1F
100
AcDbEntity
  8
A-E
  6
Continuous
 62
     2
370
     9
100
AcDbLine
 10
280.983087289296
 20
164.2091118354953
 30
0.0
 11
280.983087289296
 21
154.6339622993623
 31
0.0
  0
LINE
  5
140
330
1F
100
AcDbEntity
  8
A-E
  6
JWW_CENTER1
 62
     2
370
     9
100
AcDbLine
 10
282.3831117033585
 20
168.1149193306125
 30
0.0
 11
282.3831117033585
 21
150.5884148140109
 31
0.0
  0
LINE
  5
141
330
1F
100
AcDbEntity
  8
A-E
  6
Continuous
 62
     2
370
     9
100
AcDbLine
 10
283.7831055998429
 20
164.2091118354953
 30
0.0
 11
283.7831055998429
 21
154.6340080757296
 31
0.0
  0
LINE
  5
142
330
1F
100
AcDbEntity
  8
A-E
  6
Continuous
 62
     2
370
     9
100
AcDbLine
 10
284.3831727385146
 20
161.1760701874503
 30
0.0
 11
284.3831727385146
 21
155.6732994575655
 31
0.0
  0
LINE
  5
143
330
1F
100
AcDbEntity
  8
A-E
  6
Continuous
 62
     2
370
     9
100
AcDbLine
 10
282.3831117033585
 20
152.2090965767061
 30
0.0
 11
284.3831727385146
 21
155.6732994575655
 31
0.0
  0
LINE
  5
144
330
1F
100
AcDbEntity
  8
A-E
  6
Continuous
 62
     2
370
     9
100
AcDbLine
 10
282.3831117033585
 20
152.2090965767061
 30
0.0
 11
280.3831117033585
 21
155.6732079048312
 31
0.0
  0
LINE
  5
145
330
1F
100
AcDbEntity
  8
A-E
  6
Continuous
 62
     2
370
     9
100
AcDbLine
 10
284.3831727385146
 20
164.2091118354953
 30
0.0
 11
284.3831727385146
 21
161.1760701874503
 31
0.0
  0
LWPOLYLINE
  5
146
330
1F
100
AcDbEntity
  8
A-6
  6
Continuous
 62
     6
370
     5
100
AcDbPolyline
 90
        4
 70
     1
 43
1.0
 10
339.8831117033585
 20
138.3968955164191
 42
0.4142135623731
 10
339.3831117033585
 20
138.8968955164191
 42
0.4142135623731
 10
338.8831117033585
 20
138.3968955164191
 42
0.4142135623731
 10
339.3831117033585
 20
137.8968955164191
 42
0.4142135623731
  0
ARC
  5
147
330
1F
100
AcDbEntity
  8
A-F
  6
Continuous
 62
     2
370
     9
100
AcDbCircle
 10
340.483111703358
 20
-55.79091868014176
 30
0.0
 40
0.9999999999999991
100
AcDbArc
 50
0.0
 51
180.0
  0
LINE
  5
148
330
1F
100
AcDbEntity
  8
A-5
  6
JWW_CENTER1
 62
     7
370
     9
100
AcDbLine
 10
321.8222600633742
 20
-45.30248329596236
 30
0.0
 11
194.7396900666206
 21
152.8074474007196
 31
0.0
  0
LINE
  5
149
330
1F
100
AcDbEntity
  8
A-4
  6
Continuous
 62
    30
370
     5
100
AcDbLine
 10
317.3831117033585
 20
-29.29091868014257
 30
0.0
 11
338.3831117033586
 21
-29.29091868014257
 31
0.0
  0
LINE
  5
14A
330
1F
100
AcDbEntity
  8
A-4
  6
Continuous
 62
    30
370
     5
100
AcDbLine
 10
296.3831117033584
 20
142.7090813198576
 30
0.0
 11
296.3831117033584
 21
135.7090813198574
 31
0.0
  0
ARC
  5
14B
330
1F
100
AcDbEntity
  8
A-4
  6
Continuous
 62
    30
370
     5
100
AcDbCircle
 10
299.3831117033585
 20
135.7090813198574
 30
0.0
 40
3.0
100
AcDbArc
 50
180.0
 51
270.0
  0
LINE
  5
14C
330
1F
100
AcDbEntity
  8
A-4
  6
Continuous
 62
    30
370
     5
100
AcDbLine
 10
339.8831117033585
 20
132.7090813198576
 30
0.0
 11
299.3831117033585
 21
132.7090813198576
 31
0.0
  0
ARC
  5
14D
330
1F
100
AcDbEntity
  8
A-4
  6
Continuous
 62
    30
370
     5
100
AcDbCircle
 10
338.3831117033586
 20
-27.79091868014251
 30
0.0
 40
1.5
100
AcDbArc
 50
270.0
 51
0.0
  0
LINE
  5
14E
330
1F
100
AcDbEntity
  8
A-4
  6
Continuous
 62
    30
370
     5
100
AcDbLine
 10
317.3831117033585
 20
132.7090813198576
 30
0.0
 11
317.3831117033585
 21
-29.29091868014257
 31
0.0
  0
LINE
  5
14F
330
1F
100
AcDbEntity
  8
A-F
  6
Continuous
 62
    30
370
     5
100
AcDbLine
 10
342.3831117033585
 20
131.2090813198575
 30
0.0
 11
342.3831117033585
 21
50.20908131985746
 31
0.0
  0
LINE
  5
150
330
1F
100
AcDbEntity
  8
A-1
  6
Continuous
 62
     6
370
     5
100
AcDbLine
 10
340.3831117033586
 20
135.2090813198576
 30
0.0
 11
310.3831117033586
 21
135.2090813198576
 31
0.0
  0
ARC
  5
151
330
1F
100
AcDbEntity
  8
A-4
  6
Continuous
 62
     6
370
     5
100
AcDbCircle
 10
340.3831117033586
 20
133.2090813198574
 30
0.0
 40
1.0
100
AcDbArc
 50
0.0
 51
90.0
  0
ARC
  5
152
330
1F
100
AcDbEntity
  8
A-4
  6
Continuous
 62
     6
370
     5
100
AcDbCircle
 10
340.3831117033586
 20
133.2090813198574
 30
0.0
 40
2.0
100
AcDbArc
 50
0.0
 51
90.0
  0
LINE
  5
153
330
1F
100
AcDbEntity
  8
A-4
  6
Continuous
 62
     6
370
     5
100
AcDbLine
 10
340.3831117033586
 20
134.2090813198575
 30
0.0
 11
310.3831117033586
 21
134.2090813198575
 31
0.0
  0
ARC
  5
154
330
1F
100
AcDbEntity
  8
A-4
  6
Continuous
 62
    30
370
     5
100
AcDbCircle
 10
338.3831117033586
 20
131.2090813198575
 30
0.0
 40
3.0
100
AcDbArc
 50
0.0
 51
90.0
  0
LINE
  5
155
330
1F
100
AcDbEntity
  8
A-4
  6
Continuous
 62
     7
370
     9
100
AcDbLine
 10
339.0830648276186
 20
69.50791539347375
 30
0.0
 11
338.7477928368987
 21
71.32098252527666
 31
0.0
  0
LINE
  5
156
330
1F
100
AcDbEntity
  8
A-4
  6
Continuous
 62
     7
370
     9
100
AcDbLine
 10
338.7477928368987
 20
71.32098252527666
 30
0.0
 11
338.1376646345423
 21
74.41963251607544
 31
0.0
  0
LINE
  5
157
330
1F
100
AcDbEntity
  8
A-4
  6
Continuous
 62
     7
370
     9
100
AcDbLine
 10
338.1376646345423
 20
74.41963251607544
 30
0.0
 11
337.4384446378979
 21
77.44237188838935
 31
0.0
  0
LINE
  5
158
330
1F
100
AcDbEntity
  8
A-4
  6
Continuous
 62
     7
370
     9
100
AcDbLine
 10
337.4384446378979
 20
77.44237188838935
 30
0.0
 11
336.5937456353893
 21
80.34115594697508
 31
0.0
  0
LINE
  5
159
330
1F
100
AcDbEntity
  8
A-4
  6
Continuous
 62
     7
370
     9
100
AcDbLine
 10
336.5937456353893
 20
80.34115594697508
 30
0.0
 11
335.5471804154429
 21
83.06793999658919
 31
0.0
  0
LINE
  5
15A
330
1F
100
AcDbEntity
  8
A-4
  6
Continuous
 62
     7
370
     9
100
AcDbLine
 10
335.5471804154429
 20
83.06793999658919
 30
0.0
 11
334.2423617664825
 21
85.57467934198738
 31
0.0
  0
LINE
  5
15B
330
1F
100
AcDbEntity
  8
A-4
  6
Continuous
 62
     7
370
     9
100
AcDbLine
 10
334.2423617664825
 20
85.57467934198738
 30
0.0
 11
333.3450157354162
 21
86.90883157059699
 31
0.0
  0
LINE
  5
15C
330
1F
100
AcDbEntity
  8
A-4
  6
Continuous
 62
     7
370
     9
100
AcDbLine
 10
333.3450157354162
 20
86.90883157059699
 30
0.0
 11
331.5763032038064
 21
88.94536908629189
 31
0.0
  0
LINE
  5
15D
330
1F
100
AcDbEntity
  8
A-4
  6
Continuous
 62
     7
370
     9
100
AcDbLine
 10
331.5763032038064
 20
88.94536908629189
 30
0.0
 11
327.8849641657177
 21
91.92535342933621
 31
0.0
  0
LINE
  5
15E
330
1F
100
AcDbEntity
  8
A-4
  6
Continuous
 62
     7
370
     9
100
AcDbLine
 10
327.8849641657177
 20
91.92535342933621
 30
0.0
 11
323.5929075898264
 21
94.43679579266043
 31
0.0
  0
LINE
  5
15F
330
1F
100
AcDbEntity
  8
A-4
  6
Continuous
 62
     7
370
     9
100
AcDbLine
 10
323.5929075898264
 20
94.43679579266043
 30
0.0
 11
318.9463327966813
 21
96.71687467458864
 31
0.0
  0
LINE
  5
160
330
1F
100
AcDbEntity
  8
A-4
  6
Continuous
 62
     7
370
     9
100
AcDbLine
 10
318.9463327966813
 20
96.71687467458864
 30
0.0
 11
314.1914391068302
 21
99.00276857344434
 31
0.0
  0
LINE
  5
161
330
1F
100
AcDbEntity
  8
A-4
  6
Continuous
 62
     7
370
     9
100
AcDbLine
 10
314.1914391068302
 20
99.00276857344434
 30
0.0
 11
309.5744258408229
 21
101.5316559875512
 31
0.0
  0
LINE
  5
162
330
1F
100
AcDbEntity
  8
A-4
  6
Continuous
 62
     7
370
     9
100
AcDbLine
 10
309.5744258408229
 20
101.5316559875512
 30
0.0
 11
307.0567502914043
 21
103.2032109780426
 31
0.0
  0
LINE
  5
163
330
1F
100
AcDbEntity
  8
A-4
  6
Continuous
 62
     7
370
     9
100
AcDbLine
 10
307.0567502914043
 20
103.2032109780426
 30
0.0
 11
305.3460881720638
 21
104.530739910617
 31
0.0
  0
LINE
  5
164
330
1F
100
AcDbEntity
  8
A-4
  6
Continuous
 62
     7
370
     9
100
AcDbLine
 10
305.3460881720638
 20
104.530739910617
 30
0.0
 11
302.6225429994963
 21
107.0531420844776
 31
0.0
  0
LINE
  5
165
330
1F
100
AcDbEntity
  8
A-4
  6
Continuous
 62
     7
370
     9
100
AcDbLine
 10
302.6225429994963
 20
107.0531420844776
 30
0.0
 11
300.199213667767
 21
109.8406854265771
 31
0.0
  0
LINE
  5
166
330
1F
100
AcDbEntity
  8
A-4
  6
Continuous
 62
     7
370
     9
100
AcDbLine
 10
300.199213667767
 20
109.8406854265771
 30
0.0
 11
298.0927299085413
 21
112.8579008998908
 31
0.0
  0
LINE
  5
167
330
1F
100
AcDbEntity
  8
A-4
  6
Continuous
 62
     7
370
     9
100
AcDbLine
 10
298.0927299085413
 20
112.8579008998908
 30
0.0
 11
296.3197214534827
 21
116.0693194673935
 31
0.0
  0
LINE
  5
168
330
1F
100
AcDbEntity
  8
A-4
  6
Continuous
 62
     7
370
     9
100
AcDbLine
 10
296.3197214534827
 20
116.0693194673935
 30
0.0
 11
294.8968180342578
 21
119.43947209206
 31
0.0
  0
LINE
  5
169
330
1F
100
AcDbEntity
  8
A-4
  6
Continuous
 62
     7
370
     9
100
AcDbLine
 10
294.8968180342578
 20
119.43947209206
 30
0.0
 11
294.2385051575473
 21
121.4529159143815
 31
0.0
  0
LINE
  5
16A
330
1F
100
AcDbEntity
  8
A-4
  6
Continuous
 62
     7
370
     9
100
AcDbLine
 10
294.2385051575473
 20
121.4529159143815
 30
0.0
 11
293.8378466733127
 21
122.9462720749433
 31
0.0
  0
LINE
  5
16B
330
1F
100
AcDbEntity
  8
A-4
  6
Continuous
 62
     7
370
     9
100
AcDbLine
 10
293.8378466733127
 20
122.9462720749433
 30
0.0
 11
293.3176021873157
 21
125.5568452519031
 31
0.0
  0
LINE
  5
16C
330
1F
100
AcDbEntity
  8
A-4
  6
Continuous
 62
     7
370
     9
100
AcDbLine
 10
293.3176021873157
 20
125.5568452519031
 30
0.0
 11
293.031103889645
 21
128.2014411554661
 31
0.0
  0
LINE
  5
16D
330
1F
100
AcDbEntity
  8
A-4
  6
Continuous
 62
     7
370
     9
100
AcDbLine
 10
293.031103889645
 20
128.2014411554661
 30
0.0
 11
292.9991252344013
 21
130.8668963738345
 31
0.0
  0
LINE
  5
16E
330
1F
100
AcDbEntity
  8
A-4
  6
Continuous
 62
     7
370
     9
100
AcDbLine
 10
292.9991252344013
 20
130.8668963738345
 30
0.0
 11
293.2424396756866
 21
133.5400474952114
 31
0.0
  0
LINE
  5
16F
330
1F
100
AcDbEntity
  8
A-4
  6
Continuous
 62
     7
370
     9
100
AcDbLine
 10
293.2424396756866
 20
133.5400474952114
 30
0.0
 11
293.7818206676018
 21
136.207731107799
 31
0.0
  0
LINE
  5
170
330
1F
100
AcDbEntity
  8
A-4
  6
Continuous
 62
     7
370
     9
100
AcDbLine
 10
293.7818206676018
 20
136.207731107799
 30
0.0
 11
294.2385051575473
 21
137.7472953218269
 31
0.0
  0
LINE
  5
171
330
1F
100
AcDbEntity
  8
A-4
  6
Continuous
 62
     7
370
     9
100
AcDbLine
 10
294.2385051575473
 20
137.7472953218269
 30
0.0
 11
294.8514778621727
 21
139.3901801462432
 31
0.0
  0
LINE
  5
172
330
1F
100
AcDbEntity
  8
A-4
  6
Continuous
 62
     7
370
     9
100
AcDbLine
 10
294.8514778621727
 20
139.3901801462432
 30
0.0
 11
296.1926583721312
 21
142.1382218094912
 31
0.0
  0
LINE
  5
173
330
1F
100
AcDbEntity
  8
A-4
  6
Continuous
 62
     7
370
     9
100
AcDbLine
 10
296.1926583721312
 20
142.1382218094912
 30
0.0
 11
297.8692807541199
 21
144.6877768131729
 31
0.0
  0
LINE
  5
174
330
1F
100
AcDbEntity
  8
A-4
  6
Continuous
 62
     7
370
     9
100
AcDbLine
 10
297.8692807541199
 20
144.6877768131729
 30
0.0
 11
299.8528905772881
 21
146.9324482155644
 31
0.0
  0
LINE
  5
175
330
1F
100
AcDbEntity
  8
A-4
  6
Continuous
 62
     7
370
     9
100
AcDbLine
 10
299.8528905772881
 20
146.9324482155644
 30
0.0
 11
302.1150334107831
 21
148.7658390749419
 31
0.0
  0
LINE
  5
176
330
1F
100
AcDbEntity
  8
A-4
  6
Continuous
 62
     7
370
     9
100
AcDbLine
 10
302.1150334107831
 20
148.7658390749419
 30
0.0
 11
304.6272548237538
 21
150.081552449581
 31
0.0
  0
LINE
  5
177
330
1F
100
AcDbEntity
  8
A-4
  6
Continuous
 62
     7
370
     9
100
AcDbLine
 10
304.6272548237538
 20
150.081552449581
 30
0.0
 11
306.1877167230067
 21
150.565540455684
 31
0.0
  0
LINE
  5
178
330
1F
100
AcDbEntity
  8
A-4
  6
Continuous
 62
     7
370
     9
100
AcDbLine
 10
306.1877167230067
 20
150.565540455684
 30
0.0
 11
307.7039126188117
 21
150.8141785953275
 31
0.0
  0
LINE
  5
179
330
1F
100
AcDbEntity
  8
A-4
  6
Continuous
 62
     7
370
     9
100
AcDbLine
 10
307.7039126188117
 20
150.8141785953275
 30
0.0
 11
310.4039570508783
 21
150.8033385487378
 31
0.0
  0
LINE
  5
17A
330
1F
100
AcDbEntity
  8
A-4
  6
Continuous
 62
     7
370
     9
100
AcDbLine
 10
310.4039570508783
 20
150.8033385487378
 30
0.0
 11
313.1292781753343
 21
150.2849638505694
 31
0.0
  0
LINE
  5
17B
330
1F
100
AcDbEntity
  8
A-4
  6
Continuous
 62
     7
370
     9
100
AcDbLine
 10
313.1292781753343
 20
150.2849638505694
 30
0.0
 11
315.782812421028
 21
149.3158312442783
 31
0.0
  0
LINE
  5
17C
330
1F
100
AcDbEntity
  8
A-4
  6
Continuous
 62
     7
370
     9
100
AcDbLine
 10
315.782812421028
 20
149.3158312442783
 30
0.0
 11
318.2674962168065
 21
147.9527174733194
 31
0.0
  0
LINE
  5
17D
330
1F
100
AcDbEntity
  8
A-4
  6
Continuous
 62
     7
370
     9
100
AcDbLine
 10
318.2674962168065
 20
147.9527174733194
 30
0.0
 11
320.4862659915169
 21
146.2523992811488
 31
0.0
  0
LINE
  5
17E
330
1F
100
AcDbEntity
  8
A-4
  6
Continuous
 62
     7
370
     9
100
AcDbLine
 10
320.4862659915169
 20
146.2523992811488
 30
0.0
 11
321.6130625620552
 21
145.1340806532023
 31
0.0
  0
LINE
  5
17F
330
1F
100
AcDbEntity
  8
A-4
  6
Continuous
 62
     7
370
     9
100
AcDbLine
 10
321.6130625620552
 20
145.1340806532023
 30
0.0
 11
322.0976551223274
 21
144.5770210852647
 31
0.0
  0
LINE
  5
180
330
1F
100
AcDbEntity
  8
A-4
  6
Continuous
 62
     7
370
     9
100
AcDbLine
 10
322.0976551223274
 20
144.5770210852647
 30
0.0
 11
322.8680593539346
 21
143.5781450017974
 31
0.0
  0
LINE
  5
181
330
1F
100
AcDbEntity
  8
A-4
  6
Continuous
 62
     7
370
     9
100
AcDbLine
 10
322.8680593539346
 20
143.5781450017974
 30
0.0
 11
323.5690855986285
 21
142.5383151835389
 31
0.0
  0
LINE
  5
182
330
1F
100
AcDbEntity
  8
A-4
  6
Continuous
 62
     7
370
     9
100
AcDbLine
 10
323.5690855986285
 20
142.5383151835389
 30
0.0
 11
324.2158818884843
 21
141.4664734939812
 31
0.0
  0
LINE
  5
183
330
1F
100
AcDbEntity
  8
A-4
  6
Continuous
 62
     7
370
     9
100
AcDbLine
 10
324.2158818884843
 20
141.4664734939812
 30
0.0
 11
324.8235962555808
 21
140.3715617966152
 31
0.0
  0
LINE
  5
184
330
1F
100
AcDbEntity
  8
A-4
  6
Continuous
 62
     7
370
     9
100
AcDbLine
 10
324.8235962555808
 20
140.3715617966152
 30
0.0
 11
325.4073767319959
 21
139.262521954933
 31
0.0
  0
LINE
  5
185
330
1F
100
AcDbEntity
  8
A-4
  6
Continuous
 62
     7
370
     9
100
AcDbLine
 10
325.4073767319959
 20
139.262521954933
 30
0.0
 11
325.740972011941
 21
138.6163288902243
 31
0.0
  0
LINE
  5
186
330
1F
100
AcDbEntity
  8
A-4
  6
Continuous
 62
    30
370
     5
100
AcDbLine
 10
339.8831117033585
 20
124.2090813198575
 30
0.0
 11
326.8831117033585
 21
124.2090813198575
 31
0.0
  0
LINE
  5
187
330
1F
100
AcDbEntity
  8
A-4
  6
Continuous
 62
    30
370
     5
100
AcDbLine
 10
326.8831117033585
 20
132.7090813198576
 30
0.0
 11
326.8831117033585
 21
124.2090813198575
 31
0.0
  0
LINE
  5
188
330
1F
100
AcDbEntity
  8
A-4
  6
Continuous
 62
    30
370
     5
100
AcDbLine
 10
297.8831117033586
 20
142.7090813198576
 30
0.0
 11
297.8831117033586
 21
135.7090813198574
 31
0.0
  0
LINE
  5
189
330
1F
100
AcDbEntity
  8
A-4
  6
Continuous
 62
    30
370
     5
100
AcDbLine
 10
297.8831117033586
 20
142.7090813198576
 30
0.0
 11
296.3831117033584
 21
142.7090813198576
 31
0.0
  0
ARC
  5
18A
330
1F
100
AcDbEntity
  8
A-4
  6
Continuous
 62
    30
370
     5
100
AcDbCircle
 10
299.3831117033585
 20
135.7090813198574
 30
0.0
 40
1.5
100
AcDbArc
 50
180.0
 51
270.0
  0
LINE
  5
18B
330
1F
100
AcDbEntity
  8
A-1
  6
Continuous
 62
     6
370
     5
100
AcDbLine
 10
341.3831117033585
 20
134.2090813198575
 30
0.0
 11
341.3831117033585
 21
46.40908131985751
 31
0.0
  0
LINE
  5
18C
330
1F
100
AcDbEntity
  8
A-1
  6
Continuous
 62
    30
370
     5
100
AcDbLine
 10
299.3831117033585
 20
134.2090813198575
 30
0.0
 11
341.3831117033585
 21
134.2090813198575
 31
0.0
  0
LINE
  5
18D
330
1F
100
AcDbEntity
  8
A-0
  6
Continuous
 62
     2
370
     9
100
AcDbLine
 10
342.3831117033585
 20
133.2090813198574
 30
0.0
 11
342.3831117033585
 21
23.63326928239044
 31
0.0
  0
LINE
  5
18E
330
1F
100
AcDbEntity
  8
A-4
  6
Continuous
 62
     6
370
     5
100
AcDbLine
 10
338.3831117033586
 20
135.2090813198576
 30
0.0
 11
307.3831117033585
 21
135.2090813198576
 31
0.0
  0
LINE
  5
18F
330
1F
100
AcDbEntity
  8
A-4
  6
Continuous
 62
    30
370
     5
100
AcDbLine
 10
317.3831117033585
 20
-40.79091868014262
 30
0.0
 11
318.8831117033585
 21
-40.79091868014262
 31
0.0
  0
LINE
  5
190
330
1F
100
AcDbEntity
  8
A-4
  6
Continuous
 62
    30
370
     5
100
AcDbLine
 10
318.8831117033585
 20
-32.29091868014268
 30
0.0
 11
318.8831117033585
 21
-40.79091868014262
 31
0.0
  0
ARC
  5
191
330
1F
100
AcDbEntity
  8
A-4
  6
Continuous
 62
    30
370
     5
100
AcDbCircle
 10
320.3831117033586
 20
-32.29091868014268
 30
0.0
 40
1.5
100
AcDbArc
 50
90.0
 51
180.0
  0
LINE
  5
192
330
1F
100
AcDbEntity
  8
A-4
  6
Continuous
 62
    30
370
     5
100
AcDbLine
 10
317.3831117033585
 20
-32.29094072714207
 30
0.0
 11
317.3831117033585
 21
-40.79091868014262
 31
0.0
  0
ARC
  5
193
330
1F
100
AcDbEntity
  8
A-4
  6
Continuous
 62
    30
370
     5
100
AcDbCircle
 10
320.3831117033586
 20
-32.29094072714207
 30
0.0
 40
3.0
100
AcDbArc
 50
90.0
 51
180.0
  0
LINE
  5
194
330
1F
100
AcDbEntity
  8
A-4
  6
Continuous
 62
    30
370
     5
100
AcDbLine
 10
320.3831117033586
 20
-30.79091868014262
 30
0.0
 11
338.3831117033586
 21
-30.79091868014262
 31
0.0
  0
ARC
  5
195
330
1F
100
AcDbEntity
  8
A-4
  6
Continuous
 62
    30
370
     5
100
AcDbCircle
 10
338.3831117033586
 20
-27.79091868014251
 30
0.0
 40
3.0
100
AcDbArc
 50
270.0
 51
0.0
  0
LINE
  5
196
330
1F
100
AcDbEntity
  8
A-F
  6
JWW_DASHED2
 62
    30
370
     5
100
AcDbLine
 10
337.3831117033585
 20
-30.79091868014262
 30
0.0
 11
337.3831117033585
 21
-29.29091868014257
 31
0.0
  0
LINE
  5
197
330
1F
100
AcDbEntity
  8
A-1
  6
Continuous
 62
    30
370
     5
100
AcDbLine
 10
341.3831117033585
 20
131.2090813198575
 30
0.0
 11
341.3831117033585
 21
-27.79091868014251
 31
0.0
  0
LINE
  5
198
330
1F
100
AcDbEntity
  8
A-5
  6
JWW_PHANTOM1
 62
     7
370
     9
100
AcDbLine
 10
314.2917959177601
 20
-3.007644350050098
 30
0.0
 11
286.7974864365193
 21
-21.25765657332596
 31
0.0
  0
LINE
  5
199
330
1F
100
AcDbEntity
  8
A-5
  6
JWW_PHANTOM1
 62
     7
370
     9
100
AcDbLine
 10
286.7974864365193
 20
-21.25765657332596
 30
0.0
 11
201.5901396321648
 21
111.5726880655182
 31
0.0
  0
ARC
  5
19A
330
1F
100
AcDbEntity
  8
A-5
  6
JWW_PHANTOM1
 62
     7
370
     9
100
AcDbCircle
 10
310.0221341196837
 20
-25.88764852002458
 30
0.0
 40
16.5
100
AcDbArc
 50
123.5751793022231
 51
74.13500009071964
  0
LINE
  5
19B
330
1F
100
AcDbEntity
  8
A-5
  6
JWW_PHANTOM1
 62
     7
370
     9
100
AcDbLine
 10
229.0844491134064
 20
129.8227002887942
 30
0.0
 11
314.2917959177601
 21
-3.007644350050098
 31
0.0
  0
ARC
  5
19C
330
1F
100
AcDbEntity
  8
A-5
  6
JWW_PHANTOM1
 62
     7
370
     9
100
AcDbCircle
 10
205.7519851873455
 20
134.1279528425553
 30
0.0
 40
16.5
100
AcDbArc
 50
301.6345308946536
 51
269.1699101248917
  0
LINE
  5
19D
330
1F
100
AcDbEntity
  8
A-5
  6
JWW_PHANTOM1
 62
     7
370
     9
100
AcDbLine
 10
229.0844491134064
 20
129.8227002887942
 30
0.0
 11
201.5901396321648
 21
111.5726880655182
 31
0.0
  0
LINE
  5
19E
330
1F
100
AcDbEntity
  8
A-4
  6
Continuous
 62
     6
370
     5
100
AcDbLine
 10
341.3831117033585
 20
49.20908131985752
 30
0.0
 11
342.3831117033585
 21
49.20908131985752
 31
0.0
  0
LINE
  5
19F
330
1F
100
AcDbEntity
  8
A-4
  6
Continuous
 62
     6
370
     5
100
AcDbLine
 10
307.3831117033585
 20
135.2090813198576
 30
0.0
 11
307.3831117033585
 21
134.2090813198575
 31
0.0
  0
LINE
  5
1A0
330
1F
100
AcDbEntity
  8
A-F
  6
JWW_DASHED2
 62
    30
370
     5
100
AcDbLine
 10
327.3831117033585
 20
-30.79091868014262
 30
0.0
 11
327.3831117033585
 21
-29.29091868014257
 31
0.0
  0
LINE
  5
1A1
330
1F
100
AcDbEntity
  8
A-4
  6
Continuous
 62
     3
370
     9
100
AcDbLine
 10
313.1331117033585
 20
134.2090813198575
 30
0.0
 11
298.1331117033585
 21
134.2090813198575
 31
0.0
  0
LINE
  5
1A2
330
1F
100
AcDbEntity
  8
A-4
  6
Continuous
 62
     3
370
     9
100
AcDbLine
 10
313.1331117033585
 20
134.2090813198575
 30
0.0
 11
313.1331117033585
 21
132.7090813198576
 31
0.0
  0
LINE
  5
1A3
330
1F
100
AcDbEntity
  8
A-4
  6
Continuous
 62
     3
370
     9
100
AcDbLine
 10
296.3831117033584
 20
142.7090813198576
 30
0.0
 11
296.3831117033584
 21
132.7090813198576
 31
0.0
  0
LINE
  5
1A4
330
1F
100
AcDbEntity
  8
A-4
  6
Continuous
 62
     3
370
     9
100
AcDbLine
 10
298.1331117033585
 20
132.7090813198576
 30
0.0
 11
296.3831117033584
 21
132.7090813198576
 31
0.0
  0
LINE
  5
1A5
330
1F
100
AcDbEntity
  8
A-4
  6
Continuous
 62
     3
370
     9
100
AcDbLine
 10
333.8831117033585
 20
132.7090813198576
 30
0.0
 11
313.1331117033585
 21
132.7090813198576
 31
0.0
  0
LINE
  5
1A6
330
1F
100
AcDbEntity
  8
A-4
  6
Continuous
 62
     3
370
     9
100
AcDbLine
 10
339.8831117033585
 20
126.7090813198575
 30
0.0
 11
333.8831117033585
 21
132.7090813198576
 31
0.0
  0
LINE
  5
1A7
330
1F
100
AcDbEntity
  8
A-4
  6
Continuous
 62
     3
370
     9
100
AcDbLine
 10
298.1331117033585
 20
134.2090813198575
 30
0.0
 11
298.1331117033585
 21
132.7090813198576
 31
0.0
  0
LINE
  5
1A8
330
1F
100
AcDbEntity
  8
A-4
  6
Continuous
 62
     3
370
     9
100
AcDbLine
 10
341.3831117033585
 20
62.70908131985746
 30
0.0
 11
341.3831117033585
 21
47.70908131985746
 31
0.0
  0
LINE
  5
1A9
330
1F
100
AcDbEntity
  8
A-4
  6
Continuous
 62
     3
370
     9
100
AcDbLine
 10
341.3831117033585
 20
47.70908131985746
 30
0.0
 11
339.8831117033585
 21
47.70908131985746
 31
0.0
  0
LINE
  5
1AA
330
1F
100
AcDbEntity
  8
A-4
  6
Continuous
 62
     3
370
     9
100
AcDbLine
 10
339.8831117033585
 20
126.7090813198575
 30
0.0
 11
339.8831117033585
 21
62.70908131985746
 31
0.0
  0
LINE
  5
1AB
330
1F
100
AcDbEntity
  8
A-4
  6
Continuous
 62
     3
370
     9
100
AcDbLine
 10
339.8831117033585
 20
42.70908131985746
 30
0.0
 11
339.8831117033585
 21
47.70908131985746
 31
0.0
  0
LINE
  5
1AC
330
1F
100
AcDbEntity
  8
A-4
  6
JWW_DASHED1
 62
     7
370
     9
100
AcDbLine
 10
192.8523852837986
 20
144.2091118354953
 30
0.0
 11
277.8674132389457
 21
144.2091118354953
 31
0.0
  0
CIRCLE
  5
1AD
330
1F
100
AcDbEntity
  8
A-4
  6
Continuous
 62
     7
370
     9
100
AcDbCircle
 10
308.6598395368127
 20
36.9342023758696
 30
0.0
 40
4.0
  0
LINE
  5
1AE
330
1F
100
AcDbEntity
  8
A-4
  6
JWW_CENTER2
 62
     7
370
     9
100
AcDbLine
 10
313.6483632698466
 20
36.9342023758696
 30
0.0
 11
303.0554906177483
 21
36.9342023758696
 31
0.0
  0
LINE
  5
1AF
330
1F
100
AcDbEntity
  8
A-4
  6
JWW_CENTER2
 62
     7
370
     9
100
AcDbLine
 10
308.6598395368127
 20
42.1116397757194
 30
0.0
 11
308.6598395368127
 21
31.87186287869108
 31
0.0
  0
LINE
  5
1B0
330
1F
100
AcDbEntity
  8
A-4
  6
Continuous
 62
     3
370
     9
100
AcDbLine
 10
294.750749211635
 20
42.70908131985746
 30
0.0
 11
339.8831117033585
 21
42.70908131985746
 31
0.0
  0
ARC
  5
1B1
330
1F
100
AcDbEntity
  8
A-4
  6
Continuous
 62
     3
370
     9
100
AcDbCircle
 10
294.750749211635
 20
62.70908131985746
 30
0.0
 40
20.0
100
AcDbArc
 50
217.4782072656779
 51
270.0
  0
LINE
  5
1B2
330
1F
100
AcDbEntity
  8
A-4
  6
Continuous
 62
    30
370
     5
100
AcDbLine
 10
339.8831117033585
 20
-27.79091868014251
 30
0.0
 11
339.8831117033585
 21
132.7090813198576
 31
0.0
  0
ARC
  5
1B3
330
1F
100
AcDbEntity
  8
A-F
  6
Continuous
 62
     2
370
     9
100
AcDbCircle
 10
338.4831574797249
 20
-83.89098581881439
 30
0.0
 40
2.899999856948853
100
AcDbArc
 50
90.00000000000001
 51
180.0
  0
LINE
  5
1B4
330
1F
100
AcDbEntity
  8
A-F
  6
JWW_CENTER1
 62
     2
370
     9
100
AcDbLine
 10
367.0073216795543
 20
-84.79091868014262
 30
0.0
 11
327.4813979506114
 21
-84.79091868014262
 31
0.0
  0
LINE
  5
1B5
330
1F
100
AcDbEntity
  8
A-F
  6
Continuous
 62
    30
370
     5
100
AcDbLine
 10
336.3451862573224
 20
-84.42793120993184
 30
0.0
 11
336.1740336175187
 21
-84.25677857012698
 31
0.0
  0
LINE
  5
1B6
330
1F
100
AcDbEntity
  8
A-F
  6
Continuous
 62
     2
370
     9
100
AcDbLine
 10
339.483187997303
 20
-92.79104837984957
 30
0.0
 11
339.483187997303
 21
-68.79085764499096
 31
0.0
  0
ARC
  5
1B7
330
1F
100
AcDbEntity
  8
A-F
  6
Continuous
 62
     2
370
     9
100
AcDbCircle
 10
340.483111703358
 20
-91.79097971530251
 30
0.0
 40
0.9999999999999991
100
AcDbArc
 50
180.7077590440263
 51
359.9999999999999
  0
ARC
  5
1B8
330
1F
100
AcDbEntity
  8
A-F
  6
Continuous
 62
     2
370
     9
100
AcDbCircle
 10
335.9832032560921
 20
-68.79085764499096
 30
0.0
 40
3.500000000000001
100
AcDbArc
 50
0.0000000000000254
 51
92.60691833496097
  0
ARC
  5
1B9
330
1F
100
AcDbEntity
  8
A-F
  6
Continuous
 62
     2
370
     9
100
AcDbCircle
 10
335.7330354094124
 20
-63.29650339694
 30
0.0
 40
1.999999999999998
100
AcDbArc
 50
179.9999999999999
 51
272.6069793701172
  0
ARC
  5
1BA
330
1F
100
AcDbEntity
  8
A-F
  6
Continuous
 62
     2
370
     9
100
AcDbCircle
 10
334.7330354094122
 20
-55.79091868014176
 30
0.0
 40
0.9999999999999991
100
AcDbArc
 50
0.0
 51
180.0
  0
LINE
  5
1BB
330
1F
100
AcDbEntity
  8
A-F
  6
Continuous
 62
     2
370
     9
100
AcDbLine
 10
333.7330506682013
 20
-63.29650339694
 30
0.0
 11
333.7330506682013
 21
-55.79091868014176
 31
0.0
  0
LINE
  5
1BC
330
1F
100
AcDbEntity
  8
A-F
  6
Continuous
 62
     2
370
     9
100
AcDbLine
 10
335.7330354094124
 20
-63.29091868014176
 30
0.0
 11
335.7330354094124
 21
-55.79091868014176
 31
0.0
  0
LINE
  5
1BD
330
1F
100
AcDbEntity
  8
A-F
  6
Continuous
 62
     2
370
     9
100
AcDbLine
 10
341.4830964445689
 20
-91.79097971530251
 30
0.0
 11
341.4830964445689
 21
-55.79091868014176
 31
0.0
  0
LINE
  5
1BE
330
1F
100
AcDbEntity
  8
A-F
  6
Continuous
 62
     2
370
     9
100
AcDbLine
 10
335.7330354094124
 20
-63.29091868014176
 30
0.0
 11
339.483187997303
 21
-63.29091868014176
 31
0.0
  0
LINE
  5
1BF
330
1F
100
AcDbEntity
  8
A-F
  6
Continuous
 62
     2
370
     9
100
AcDbLine
 10
339.483187997303
 20
-55.79091868014176
 30
0.0
 11
339.483187997303
 21
-63.29091868014176
 31
0.0
  0
LINE
  5
1C0
330
1F
100
AcDbEntity
  8
A-F
  6
Continuous
 62
     2
370
     9
100
AcDbLine
 10
335.5832551359749
 20
-83.89098581881439
 30
0.0
 11
335.5832551359749
 21
-85.69111094088481
 31
0.0
  0
LINE
  5
1C1
330
1F
100
AcDbEntity
  8
A-F
  6
JWW_DASHED1
 62
     2
370
     9
100
AcDbLine
 10
337.217547738514
 20
-85.28684458346288
 30
0.0
 11
337.217547738514
 21
-84.2954505404941
 31
0.0
  0
LINE
  5
1C2
330
1F
100
AcDbEntity
  8
A-F
  6
JWW_DASHED1
 62
     2
370
     9
100
AcDbLine
 10
336.0672486662485
 20
-84.2954505404941
 30
0.0
 11
337.217547738514
 21
-84.2954505404941
 31
0.0
  0
LINE
  5
1C3
330
1F
100
AcDbEntity
  8
A-F
  6
JWW_DASHED1
 62
     2
370
     9
100
AcDbLine
 10
336.0672486662485
 20
-85.28684458346288
 30
0.0
 11
337.217547738514
 21
-85.28684458346288
 31
0.0
  0
LINE
  5
1C4
330
1F
100
AcDbEntity
  8
A-F
  6
Continuous
 62
     2
370
     9
100
AcDbLine
 10
338.4831574797249
 20
-76.79094156832622
 30
0.0
 11
339.483187997303
 21
-76.79094156832622
 31
0.0
  0
LINE
  5
1C5
330
1F
100
AcDbEntity
  8
A-F
  6
Continuous
 62
     2
370
     9
100
AcDbLine
 10
338.4831574797249
 20
-81.54109415621673
 30
0.0
 11
339.483187997303
 21
-81.54109415621673
 31
0.0
  0
LINE
  5
1C6
330
1F
100
AcDbEntity
  8
A-F
  6
Continuous
 62
     2
370
     9
100
AcDbLine
 10
338.4831574797249
 20
-88.04109415621679
 30
0.0
 11
339.483187997303
 21
-88.04109415621679
 31
0.0
  0
LINE
  5
1C7
330
1F
100
AcDbEntity
  8
A-F
  6
Continuous
 62
     2
370
     9
100
AcDbLine
 10
338.4831574797249
 20
-76.79094156832622
 30
0.0
 11
338.4831574797249
 21
-92.79104837984957
 31
0.0
  0
LINE
  5
1C8
330
1F
100
AcDbEntity
  8
A-F
  6
Continuous
 62
     2
370
     9
100
AcDbLine
 10
338.4831574797249
 20
-88.04079660983004
 30
0.0
 11
339.483187997303
 21
-88.04079660983004
 31
0.0
  0
LINE
  5
1C9
330
1F
100
AcDbEntity
  8
A-F
  6
Continuous
 62
     2
370
     9
100
AcDbLine
 10
338.4831574797249
 20
-81.54089579195895
 30
0.0
 11
339.483187997303
 21
-81.54089579195895
 31
0.0
  0
LINE
  5
1CA
330
1F
100
AcDbEntity
  8
A-F
  6
Continuous
 62
     2
370
     9
100
AcDbLine
 10
339.483187997303
 20
-81.54089579195895
 30
0.0
 11
341.4830659269905
 21
-81.54089579195895
 31
0.0
  0
LINE
  5
1CB
330
1F
100
AcDbEntity
  8
A-F
  6
Continuous
 62
     2
370
     9
100
AcDbLine
 10
339.483187997303
 20
-88.04079660983004
 30
0.0
 11
341.4830659269905
 21
-88.04079660983004
 31
0.0
  0
LINE
  5
1CC
330
1F
100
AcDbEntity
  8
A-F
  6
Continuous
 62
     2
370
     9
100
AcDbLine
 10
341.4830659269905
 20
-82.24085459322848
 30
0.0
 11
338.4831574797249
 21
-82.24085459322848
 31
0.0
  0
LINE
  5
1CD
330
1F
100
AcDbEntity
  8
A-F
  6
Continuous
 62
     2
370
     9
100
AcDbLine
 10
341.4830659269905
 20
-87.34083780856051
 30
0.0
 11
338.4831574797249
 21
-87.34083780856051
 31
0.0
  0
ARC
  5
1CE
330
1F
100
AcDbEntity
  8
A-F
  6
Continuous
 62
     2
370
     9
100
AcDbCircle
 10
338.4831574797249
 20
-85.69111094088481
 30
0.0
 40
2.899999856948853
100
AcDbArc
 50
180.0
 51
270.0
  0
ARC
  5
1CF
330
1F
100
AcDbEntity
  8
A-F
  6
JWW_DASHED1
 62
     2
370
     9
100
AcDbCircle
 10
336.0672486662485
 20
-83.79527506441985
 30
0.0
 40
0.5000000000000001
100
AcDbArc
 50
165.5855102539063
 51
270.0
  0
ARC
  5
1D0
330
1F
100
AcDbEntity
  8
A-F
  6
JWW_DASHED1
 62
     2
370
     9
100
AcDbCircle
 10
336.0672486662485
 20
-85.78666910738872
 30
0.0
 40
0.5000000000000001
100
AcDbArc
 50
90.00000000000006
 51
194.4144897460938
  0
LINE
  5
1D1
330
1F
100
AcDbEntity
  8
A-F
  6
Continuous
 62
     2
370
     9
100
AcDbLine
 10
338.4831574797249
 20
-92.79104837984957
 30
0.0
 11
339.483187997303
 21
-92.79104837984957
 31
0.0
  0
LINE
  5
1D2
330
1F
100
AcDbEntity
  8
A-D
  6
Continuous
 62
     2
370
     9
100
AcDbLine
 10
302.8831117033586
 20
152.2091060618977
 30
0.0
 11
290.3833698655741
 21
152.2091060618977
 31
0.0
  0
LINE
  5
1D3
330
1F
100
AcDbEntity
  8
A-4
  6
Continuous
 62
     3
370
     9
100
AcDbLine
 10
341.3831117033585
 20
62.70908131985746
 30
0.0
 11
339.8831117033585
 21
62.70908131985746
 31
0.0
  0
LINE
  5
1D4
330
1F
100
AcDbEntity
  8
A-4
  6
Continuous
 62
    30
370
     5
100
AcDbLine
 10
341.3831117033585
 20
58.20908131985757
 30
0.0
 11
339.8831117033585
 21
58.20908131985757
 31
0.0
  0
LINE
  5
1D5
330
1F
100
AcDbEntity
  8
A-F
  6
JWW_DASHED3
 62
     2
370
     9
100
AcDbLine
 10
339.8831117033585
 20
62.20911183743564
 30
0.0
 11
366.8416605159972
 21
62.20911183743564
 31
0.0
  0
LINE
  5
1D6
330
1F
100
AcDbEntity
  8
A-F
  6
Continuous
 62
     2
370
     9
100
AcDbLine
 10
342.3831117033585
 20
61.20905080227939
 30
0.0
 11
367.0804993986711
 21
61.20905080227939
 31
0.0
  0
LINE
  5
1D7
330
1F
100
AcDbEntity
  8
A-4
  6
Continuous
 62
     3
370
     9
100
AcDbLine
 10
339.8831117033585
 20
57.95908131985752
 30
0.0
 11
341.3831117033585
 21
57.95908131985752
 31
0.0
  0
LINE
  5
1D8
330
1F
100
AcDbEntity
  8
A-4
  6
Continuous
 62
    30
370
     5
100
AcDbLine
 10
341.3831117033585
 20
72.20908131985749
 30
0.0
 11
339.8831117033585
 21
72.20908131985749
 31
0.0
  0
LINE
  5
1D9
330
1F
100
AcDbEntity
  8
A-F
  6
JWW_DASHED3
 62
     2
370
     9
100
AcDbLine
 10
339.8831117033585
 20
68.20903554349027
 30
0.0
 11
365.4083122803684
 21
68.20903554349027
 31
0.0
  0
LINE
  5
1DA
330
1F
100
AcDbEntity
  8
A-F
  6
Continuous
 62
     2
370
     9
100
AcDbLine
 10
342.3831117033585
 20
69.20909657864652
 30
0.0
 11
365.1693818449601
 21
69.20909657864652
 31
0.0
  0
LINE
  5
1DB
330
1F
100
AcDbEntity
  8
A-F
  6
JWW_CENTER1
 62
     2
370
     9
100
AcDbLine
 10
334.8830961465462
 20
65.20908131985746
 30
0.0
 11
369.2578370451554
 21
65.20908131985746
 31
0.0
  0
LINE
  5
1DC
330
1F
100
AcDbEntity
  8
A-F
  6
Continuous
 62
     2
370
     9
100
AcDbLine
 10
364.3332764982804
 20
72.70908131985746
 30
0.0
 11
367.9166962980851
 21
57.70906606106846
 31
0.0
  0
LINE
  5
1DD
330
1F
100
AcDbEntity
  8
A-4
  6
Continuous
 62
     3
370
     9
100
AcDbLine
 10
339.8831117033585
 20
72.45908131985755
 30
0.0
 11
341.3831117033585
 21
72.45908131985755
 31
0.0
  0
LINE
  5
1DE
330
1F
100
AcDbEntity
  8
A-F
  6
Continuous
 62
     2
370
     9
100
AcDbLine
 10
338.8831117033585
 20
57.20908131985749
 30
0.0
 11
339.8831117033585
 21
57.20908131985749
 31
0.0
  0
LINE
  5
1DF
330
1F
100
AcDbEntity
  8
A-F
  6
Continuous
 62
     2
370
     9
100
AcDbLine
 10
338.8831117033585
 20
73.20908131985757
 30
0.0
 11
339.8831117033585
 21
73.20908131985757
 31
0.0
  0
LINE
  5
1E0
330
1F
100
AcDbEntity
  8
A-F
  6
Continuous
 62
     2
370
     9
100
AcDbLine
 10
337.0830971646699
 20
64.70905080227934
 30
0.0
 11
335.5831124234589
 21
64.70905080227934
 31
0.0
  0
LINE
  5
1E1
330
1F
100
AcDbEntity
  8
A-F
  6
Continuous
 62
     2
370
     9
100
AcDbLine
 10
337.0830971646699
 20
65.70909657864658
 30
0.0
 11
337.0830971646699
 21
64.70905080227934
 31
0.0
  0
LINE
  5
1E2
330
1F
100
AcDbEntity
  8
A-F
  6
Continuous
 62
     2
370
     9
100
AcDbLine
 10
335.5831124234589
 20
65.70909657864658
 30
0.0
 11
337.0830971646699
 21
65.70909657864658
 31
0.0
  0
ARC
  5
1E3
330
1F
100
AcDbEntity
  8
A-F
  6
Continuous
 62
     2
370
     9
100
AcDbCircle
 10
340.0331093717011
 20
65.20908131985746
 30
0.0
 40
4.449995040893554
100
AcDbArc
 50
104.9766540527344
 51
255.0232696533203
  0
LINE
  5
1E4
330
1F
100
AcDbEntity
  8
A-F
  6
Continuous
 62
     7
370
     9
100
AcDbLine
 10
342.3831117033585
 20
70.2090355434903
 30
0.0
 11
341.3831117033585
 21
70.2090355434903
 31
0.0
  0
LINE
  5
1E5
330
1F
100
AcDbEntity
  8
A-F
  6
Continuous
 62
     7
370
     9
100
AcDbLine
 10
341.3831117033585
 20
60.20911183743561
 30
0.0
 11
342.3831117033585
 21
60.20911183743561
 31
0.0
  0
LINE
  5
1E6
330
1F
100
AcDbEntity
  8
A-F
  6
Continuous
 62
     2
370
     9
100
AcDbLine
 10
338.8831117033585
 20
57.20908131985749
 30
0.0
 11
338.8831117033585
 21
73.20908131985757
 31
0.0
  0
LINE
  5
1E7
330
1F
100
AcDbEntity
  8
A-4
  6
Continuous
 62
     3
370
     9
100
AcDbLine
 10
220.5432533876198
 20
126.6244850288798
 30
0.0
 11
278.8790526450018
 21
50.53988873790243
 31
0.0
  0
ARC
  5
1E8
330
1F
100
AcDbEntity
  8
A-4
  6
Continuous
 62
     3
370
     9
100
AcDbCircle
 10
228.4791016709366
 20
132.7090813198576
 30
0.0
 40
10.0
100
AcDbArc
 50
90.0
 51
217.4782072656778
  0
LINE
  5
1E9
330
1F
100
AcDbEntity
  8
A-4
  6
Continuous
 62
     3
370
     9
100
AcDbLine
 10
228.4791016709366
 20
142.7090813198576
 30
0.0
 11
296.3831117033584
 21
142.7090813198576
 31
0.0
  0
LWPOLYLINE
  5
1EA
330
1F
100
AcDbEntity
  8
A-4
  6
Continuous
 62
     7
370
     9
100
AcDbPolyline
 90
        4
 70
     1
 43
1.0
 10
462.6606781563399
 20
135.2090813198575
 42
0.4142135623731
 10
462.1606781563399
 20
135.7090813198575
 42
0.4142135623731
 10
461.6606781563399
 20
135.2090813198575
 42
0.4142135623731
 10
462.1606781563399
 20
134.7090813198574
 42
0.4142135623731
  0
LWPOLYLINE
  5
1EB
330
1F
100
AcDbEntity
  8
A-4
  6
Continuous
 62
     7
370
     9
100
AcDbPolyline
 90
        4
 70
     1
 43
1.0
 10
462.6606781563399
 20
164.2091118354953
 42
0.4142135623731
 10
462.1606781563399
 20
164.7091118354953
 42
0.4142135623731
 10
461.6606781563399
 20
164.2091118354953
 42
0.4142135623731
 10
462.1606781563399
 20
163.7091118354953
 42
0.4142135623731
  0
LINE
  5
1EC
330
1F
100
AcDbEntity
  8
A-4
  6
Continuous
 62
     7
370
     9
100
AcDbLine
 10
462.1606781563399
 20
164.2091118354953
 30
0.0
 11
462.1606781563399
 21
135.2090813198575
 31
0.0
  0
LINE
  5
1ED
330
1F
100
AcDbEntity
  8
A-4
  6
Continuous
 62
     7
370
     9
100
AcDbLine
 10
341.7046231520308
 20
99.30552508987543
 30
0.0
 11
347.4448746375072
 21
113.1637180775448
 31
0.0
  0
LINE
  5
1EE
330
1F
100
AcDbEntity
  8
A-4
  6
Continuous
 62
     7
370
     9
100
AcDbLine
 10
341.7046231520308
 20
99.30552508987543
 30
0.0
 11
350.8360445871617
 21
111.205825194244
 31
0.0
  0
LINE
  5
1EF
330
1F
100
AcDbEntity
  8
A-4
  6
Continuous
 62
     7
370
     9
100
AcDbLine
 10
206.2885491262287
 20
231.2948531928597
 30
0.0
 11
244.9401572763723
 21
164.3483040825676
 31
0.0
  0
LINE
  5
1F0
330
1F
100
AcDbEntity
  8
A-4
  6
Continuous
 62
     7
370
     9
100
AcDbLine
 10
244.9401572763723
 20
164.3483040825676
 30
0.0
 11
235.8087358412416
 21
176.2486041869361
 31
0.0
  0
LINE
  5
1F1
330
1F
100
AcDbEntity
  8
A-4
  6
Continuous
 62
     7
370
     9
100
AcDbLine
 10
244.9401572763723
 20
164.3483040825676
 30
0.0
 11
239.199905790896
 21
178.2064970702369
 31
0.0
  0
LINE
  5
1F2
330
1F
100
AcDbEntity
  8
A-4
  6
Continuous
 62
     7
370
     9
100
AcDbLine
 10
421.2036717491407
 20
-185.9965860867283
 30
0.0
 11
364.9665336664493
 21
-88.59100565524028
 31
0.0
  0
LINE
  5
1F3
330
1F
100
AcDbEntity
  8
A-4
  6
Continuous
 62
     7
370
     9
100
AcDbLine
 10
364.9665336664493
 20
-88.5910056552402
 30
0.0
 11
374.0979551015802
 21
-100.4913057596088
 31
0.0
  0
LINE
  5
1F4
330
1F
100
AcDbEntity
  8
A-4
  6
Continuous
 62
     7
370
     9
100
AcDbLine
 10
364.9665336664493
 20
-88.5910056552402
 30
0.0
 11
370.7067851519257
 21
-102.4491986429095
 31
0.0
  0
LINE
  5
1F5
330
1F
100
AcDbEntity
  8
A-F
  6
Continuous
 62
     2
370
     9
100
AcDbLine
 10
341.4831117033577
 20
-80.99089274020113
 30
0.0
 11
366.0469391980798
 21
-80.99089274020113
 31
0.0
  0
LINE
  5
1F6
330
1F
100
AcDbEntity
  8
A-F
  6
Continuous
 62
     2
370
     9
100
AcDbLine
 10
366.0469391980804
 20
-88.59100565524028
 30
0.0
 11
341.4831117033577
 21
-88.59100565524028
 31
0.0
  0
LINE
  5
1F7
330
1F
100
AcDbEntity
  8
A-F
  6
JWW_DASHED1
 62
     2
370
     9
100
AcDbLine
 10
341.4831117033577
 20
-82.24105295748626
 30
0.0
 11
366.6151612439784
 21
-82.24105295748626
 31
0.0
  0
LINE
  5
1F8
330
1F
100
AcDbEntity
  8
A-F
  6
JWW_DASHED1
 62
     2
370
     9
100
AcDbLine
 10
341.4831117033577
 20
-87.34103617281829
 30
0.0
 11
366.6151612439788
 21
-87.34103617281829
 31
0.0
  0
LINE
  5
1F9
330
1F
100
AcDbEntity
  8
A-5
  6
Continuous
 62
     7
370
     9
100
AcDbLine
 10
207.8026343608241
 20
40.9961867620103
 30
0.0
 11
253.3107370704823
 21
103.3354526511839
 31
0.0
  0
LINE
  5
1FA
330
1F
100
AcDbEntity
  8
A-5
  6
Continuous
 62
     7
370
     9
100
AcDbLine
 10
253.3107370704823
 20
103.3354526511839
 30
0.0
 11
247.3213993648179
 21
92.36376937797982
 31
0.0
  0
LINE
  5
1FB
330
1F
100
AcDbEntity
  8
A-5
  6
Continuous
 62
     7
370
     9
100
AcDbLine
 10
253.3107370704823
 20
103.3354526511839
 30
0.0
 11
244.6858005102762
 21
94.28777508550891
 31
0.0
  0
LWPOLYLINE
  5
1FC
330
1F
100
AcDbEntity
  8
A-4
  6
Continuous
 62
     7
370
     9
100
AcDbPolyline
 90
        4
 70
     1
 43
1.0
 10
342.8831117033585
 20
298.0247160764929
 42
0.4142135623731
 10
342.3831117033585
 20
298.524716076493
 42
0.4142135623731
 10
341.8831117033585
 20
298.0247160764929
 42
0.4142135623731
 10
342.3831117033585
 20
297.5247160764929
 42
0.4142135623731
  0
LINE
  5
1FD
330
1F
100
AcDbEntity
  8
A-4
  6
Continuous
 62
     7
370
     9
100
AcDbLine
 10
462.1606781563399
 20
135.2090813198575
 30
0.0
 11
462.1606781563399
 21
-40.79091868014262
 31
0.0
  0
LWPOLYLINE
  5
1FE
330
1F
100
AcDbEntity
  8
A-4
  6
Continuous
 62
     7
370
     9
100
AcDbPolyline
 90
        4
 70
     1
 43
1.0
 10
462.6606781563399
 20
135.2090813198575
 42
0.4142135623731
 10
462.1606781563399
 20
135.7090813198575
 42
0.4142135623731
 10
461.6606781563399
 20
135.2090813198575
 42
0.4142135623731
 10
462.1606781563399
 20
134.7090813198574
 42
0.4142135623731
  0
LWPOLYLINE
  5
1FF
330
1F
100
AcDbEntity
  8
A-4
  6
Continuous
 62
     7
370
     9
100
AcDbPolyline
 90
        4
 70
     1
 43
1.0
 10
462.6606781563399
 20
-40.79091868014262
 42
0.4142135623731
 10
462.1606781563399
 20
-40.29091868014262
 42
0.4142135623731
 10
461.6606781563399
 20
-40.79091868014262
 42
0.4142135623731
 10
462.1606781563399
 20
-41.29091868014262
 42
0.4142135623731
  0
LINE
  5
200
330
1F
100
AcDbEntity
  8
A-4
  6
Continuous
 62
     7
370
     9
100
AcDbLine
 10
463.6606781563398
 20
-40.79091868014262
 30
0.0
 11
328.8831117033585
 21
-40.79091868014262
 31
0.0
  0
LWPOLYLINE
  5
201
330
1F
100
AcDbEntity
  8
A-4
  6
Continuous
 62
     7
370
     9
100
AcDbPolyline
 90
        4
 70
     1
 43
1.0
 10
342.8831117033585
 20
-323.2800576634343
 42
0.4142135623731
 10
342.3831117033585
 20
-322.7800576634343
 42
0.4142135623731
 10
341.8831117033585
 20
-323.2800576634343
 42
0.4142135623731
 10
342.3831117033585
 20
-323.7800576634342
 42
0.4142135623731
  0
LINE
  5
202
330
1F
100
AcDbEntity
  8
A-4
  6
Continuous
 62
     7
370
     9
100
AcDbLine
 10
342.3831117033585
 20
-323.2800576634343
 30
0.0
 11
342.3831117033585
 21
-224.7371677896726
 31
0.0
  0
LWPOLYLINE
  5
203
330
1F
100
AcDbEntity
  8
A-4
  6
Continuous
 62
     7
370
     9
100
AcDbPolyline
 90
        4
 70
     1
 43
1.0
 10
192.8831117033585
 20
-252.9570662132312
 42
0.4142135623731
 10
192.3831117033585
 20
-252.4570662132311
 42
0.4142135623731
 10
191.8831117033585
 20
-252.9570662132312
 42
0.4142135623731
 10
192.3831117033585
 20
-253.4570662132312
 42
0.4142135623731
  0
LWPOLYLINE
  5
204
330
1F
100
AcDbEntity
  8
A-4
  6
Continuous
 62
     7
370
     9
100
AcDbPolyline
 90
        4
 70
     1
 43
1.0
 10
342.8831117033585
 20
-252.9570662132312
 42
0.4142135623731
 10
342.3831117033585
 20
-252.4570662132311
 42
0.4142135623731
 10
341.8831117033585
 20
-252.9570662132312
 42
0.4142135623731
 10
342.3831117033585
 20
-253.4570662132312
 42
0.4142135623731
  0
LINE
  5
205
330
1F
100
AcDbEntity
  8
A-4
  6
Continuous
 62
     7
370
     9
100
AcDbLine
 10
192.3831117033585
 20
-252.9570662132312
 30
0.0
 11
342.3831117033585
 21
-252.9570662132312
 31
0.0
  0
LINE
  5
206
330
1F
100
AcDbEntity
  8
A-4
  6
Continuous
 62
     7
370
     9
100
AcDbLine
 10
192.3831117033585
 20
-252.9570662132312
 30
0.0
 11
192.3831117033585
 21
-107.1897262922257
 31
0.0
  0
LINE
  5
207
330
1F
100
AcDbEntity
  8
A-5
  6
Continuous
 62
     7
370
     9
100
AcDbLine
 10
357.1530458782766
 20
60.98815791848065
 30
0.0
 11
364.0053619790546
 21
50.53369647587058
 31
0.0
  0
LINE
  5
208
330
1F
100
AcDbEntity
  8
A-5
  6
Continuous
 62
     7
370
     9
100
AcDbLine
 10
357.1530458782766
 20
60.98815791848065
 30
0.0
 11
361.066061242277
 21
49.11641370117633
 31
0.0
  0
LINE
  5
209
330
1F
100
AcDbEntity
  8
A-D
  6
Continuous
 62
     2
370
     9
100
AcDbLine
 10
-164.4127196816925
 20
162.2090813179171
 30
0.0
 11
298.7524718422036
 21
162.2090813179171
 31
0.0
  0
LINE
  5
20A
330
1F
100
AcDbEntity
  8
A-F
  6
Continuous
 62
    30
370
     5
100
AcDbLine
 10
-151.5629641918636
 20
65.57206879006824
 30
0.0
 11
-151.3918115520599
 21
65.7432214298731
 31
0.0
  0
LINE
  5
20B
330
1F
100
AcDbEntity
  8
A-F
  6
Continuous
 62
     2
370
     9
100
AcDbLine
 10
-154.7009659318442
 20
57.20895162015051
 30
0.0
 11
-154.7009659318442
 21
81.20914235500916
 31
0.0
  0
LINE
  5
20C
330
1F
100
AcDbEntity
  8
A-F
  6
Continuous
 62
     2
370
     9
100
AcDbLine
 10
-156.7008743791101
 20
58.20902028469757
 30
0.0
 11
-156.7008743791101
 21
94.20908131985851
 31
0.0
  0
LINE
  5
20D
330
1F
100
AcDbEntity
  8
A-F
  6
Continuous
 62
     2
370
     9
100
AcDbLine
 10
-150.8010330705162
 20
66.1090141811857
 30
0.0
 11
-150.8010330705162
 21
64.30888905911527
 31
0.0
  0
LINE
  5
20E
330
1F
100
AcDbEntity
  8
A-F
  6
Continuous
 62
     2
370
     9
100
AcDbLine
 10
-153.7009354142663
 20
73.20905843167392
 30
0.0
 11
-154.7009659318442
 21
73.20905843167392
 31
0.0
  0
LINE
  5
20F
330
1F
100
AcDbEntity
  8
A-F
  6
Continuous
 62
     2
370
     9
100
AcDbLine
 10
-153.7009354142663
 20
68.45890584378336
 30
0.0
 11
-154.7009659318442
 21
68.45890584378336
 31
0.0
  0
LINE
  5
210
330
1F
100
AcDbEntity
  8
A-F
  6
Continuous
 62
     2
370
     9
100
AcDbLine
 10
-153.7009354142663
 20
61.9589058437833
 30
0.0
 11
-154.7009659318442
 21
61.9589058437833
 31
0.0
  0
LINE
  5
211
330
1F
100
AcDbEntity
  8
A-F
  6
Continuous
 62
     2
370
     9
100
AcDbLine
 10
-153.7009354142663
 20
73.20905843167392
 30
0.0
 11
-153.7009354142663
 21
57.20895162015051
 31
0.0
  0
LINE
  5
212
330
1F
100
AcDbEntity
  8
A-F
  6
Continuous
 62
     2
370
     9
100
AcDbLine
 10
-156.7008896378991
 20
69.00910725979895
 30
0.0
 11
-169.7009659318442
 21
69.00910725979895
 31
0.0
  0
LINE
  5
213
330
1F
100
AcDbEntity
  8
A-F
  6
Continuous
 62
     2
370
     9
100
AcDbLine
 10
-169.7009659318448
 20
61.4089943447598
 30
0.0
 11
-156.7008896378991
 21
61.4089943447598
 31
0.0
  0
LINE
  5
214
330
1F
100
AcDbEntity
  8
A-F
  6
Continuous
 62
     2
370
     9
100
AcDbLine
 10
-153.7009354142663
 20
61.95920339017005
 30
0.0
 11
-154.7009659318442
 21
61.95920339017005
 31
0.0
  0
LINE
  5
215
330
1F
100
AcDbEntity
  8
A-F
  6
Continuous
 62
     2
370
     9
100
AcDbLine
 10
-153.7009354142663
 20
68.45910420804114
 30
0.0
 11
-154.7009659318442
 21
68.45910420804114
 31
0.0
  0
LINE
  5
216
330
1F
100
AcDbEntity
  8
A-F
  6
Continuous
 62
     2
370
     9
100
AcDbLine
 10
-154.7009659318442
 20
68.45910420804114
 30
0.0
 11
-156.7008438615318
 21
68.45910420804114
 31
0.0
  0
LINE
  5
217
330
1F
100
AcDbEntity
  8
A-F
  6
Continuous
 62
     2
370
     9
100
AcDbLine
 10
-154.7009659318442
 20
61.95920339017005
 30
0.0
 11
-156.7008438615318
 21
61.95920339017005
 31
0.0
  0
LINE
  5
218
330
1F
100
AcDbEntity
  8
A-F
  6
Continuous
 62
     2
370
     9
100
AcDbLine
 10
-156.7008438615318
 20
67.75914540677161
 30
0.0
 11
-153.7009354142663
 21
67.75914540677161
 31
0.0
  0
LINE
  5
219
330
1F
100
AcDbEntity
  8
A-F
  6
Continuous
 62
     2
370
     9
100
AcDbLine
 10
-156.7008438615318
 20
62.65916219143958
 30
0.0
 11
-153.7009354142663
 21
62.65916219143958
 31
0.0
  0
LINE
  5
21A
330
1F
100
AcDbEntity
  8
A-F
  6
Continuous
 62
     2
370
     9
100
AcDbLine
 10
-153.7009354142663
 20
57.20895162015051
 30
0.0
 11
-154.7009659318442
 21
57.20895162015051
 31
0.0
  0
LINE
  5
21B
330
1F
100
AcDbEntity
  8
A-6
  6
Continuous
 62
     6
370
     5
100
AcDbLine
 10
-157.6008896378997
 20
135.2090813198576
 30
0.0
 11
-157.6008896378997
 21
-199.7371677896728
 31
0.0
  0
ARC
  5
21C
330
1F
100
AcDbEntity
  8
A-F
  6
Continuous
 62
     2
370
     9
100
AcDbCircle
 10
-153.7009354142663
 20
66.1090141811857
 30
0.0
 40
2.899999856948852
100
AcDbArc
 50
0.0000000000000254
 51
90.00000000000001
  0
LINE
  5
21D
330
1F
100
AcDbEntity
  8
A-F
  6
JWW_CENTER1
 62
     2
370
     9
100
AcDbLine
 10
-182.2250996140954
 20
65.20908131985746
 30
0.0
 11
-142.6991758851526
 21
65.20908131985746
 31
0.0
  0
ARC
  5
21E
330
1F
100
AcDbEntity
  8
A-F
  6
Continuous
 62
     2
370
     9
100
AcDbCircle
 10
-155.7008896378991
 20
58.20902028469757
 30
0.0
 40
0.9999999999999992
100
AcDbArc
 50
180.0
 51
359.2922409559736
  0
ARC
  5
21F
330
1F
100
AcDbEntity
  8
A-F
  6
Continuous
 62
     2
370
     9
100
AcDbCircle
 10
-151.2009811906333
 20
81.20914235500916
 30
0.0
 40
3.500000000000001
100
AcDbArc
 50
87.39308166503903
 51
179.9999999999999
  0
ARC
  5
220
330
1F
100
AcDbEntity
  8
A-F
  6
Continuous
 62
     2
370
     9
100
AcDbCircle
 10
-150.9508133439536
 20
86.70349660306027
 30
0.0
 40
1.999999999999998
100
AcDbArc
 50
267.3930206298829
 51
0.0000000000000568
  0
ARC
  5
221
330
1F
100
AcDbEntity
  8
A-F
  6
Continuous
 62
     2
370
     9
100
AcDbCircle
 10
-149.9508133439534
 20
94.20908131985851
 30
0.0
 40
0.9999999999999992
100
AcDbArc
 50
0.0
 51
180.0
  0
ARC
  5
222
330
1F
100
AcDbEntity
  8
A-F
  6
Continuous
 62
     2
370
     9
100
AcDbCircle
 10
-155.7008896378991
 20
94.20908131985851
 30
0.0
 40
0.9999999999999992
100
AcDbArc
 50
0.0
 51
180.0
  0
LINE
  5
223
330
1F
100
AcDbEntity
  8
A-F
  6
Continuous
 62
     2
370
     9
100
AcDbLine
 10
-148.9508286027424
 20
86.70349660306027
 30
0.0
 11
-148.9508286027424
 21
94.20908131985851
 31
0.0
  0
LINE
  5
224
330
1F
100
AcDbEntity
  8
A-F
  6
Continuous
 62
     2
370
     9
100
AcDbLine
 10
-150.9508133439536
 20
86.70908131985851
 30
0.0
 11
-150.9508133439536
 21
94.20908131985851
 31
0.0
  0
LINE
  5
225
330
1F
100
AcDbEntity
  8
A-F
  6
Continuous
 62
     2
370
     9
100
AcDbLine
 10
-150.9508133439536
 20
86.70908131985851
 30
0.0
 11
-154.7009659318442
 21
86.70908131985851
 31
0.0
  0
LINE
  5
226
330
1F
100
AcDbEntity
  8
A-F
  6
Continuous
 62
     2
370
     9
100
AcDbLine
 10
-154.7009659318442
 20
94.20908131985851
 30
0.0
 11
-154.7009659318442
 21
86.70908131985851
 31
0.0
  0
LINE
  5
227
330
1F
100
AcDbEntity
  8
A-F
  6
JWW_DASHED1
 62
     2
370
     9
100
AcDbLine
 10
-152.4353256730552
 20
64.7131554165372
 30
0.0
 11
-152.4353256730552
 21
65.70454945950598
 31
0.0
  0
LINE
  5
228
330
1F
100
AcDbEntity
  8
A-F
  6
JWW_DASHED1
 62
     2
370
     9
100
AcDbLine
 10
-151.2850266007896
 20
65.70454945950598
 30
0.0
 11
-152.4353256730552
 21
65.70454945950598
 31
0.0
  0
LINE
  5
229
330
1F
100
AcDbEntity
  8
A-F
  6
JWW_DASHED1
 62
     2
370
     9
100
AcDbLine
 10
-151.2850266007896
 20
64.7131554165372
 30
0.0
 11
-152.4353256730552
 21
64.7131554165372
 31
0.0
  0
LINE
  5
22A
330
1F
100
AcDbEntity
  8
A-F
  6
JWW_DASHED1
 62
     2
370
     9
100
AcDbLine
 10
-156.7008896378991
 20
67.75894704251382
 30
0.0
 11
-170.2691879777427
 21
67.75894704251382
 31
0.0
  0
LINE
  5
22B
330
1F
100
AcDbEntity
  8
A-F
  6
JWW_DASHED1
 62
     2
370
     9
100
AcDbLine
 10
-156.7008896378991
 20
62.65896382718179
 30
0.0
 11
-170.2691879777433
 21
62.65896382718179
 31
0.0
  0
ARC
  5
22C
330
1F
100
AcDbEntity
  8
A-F
  6
Continuous
 62
     2
370
     9
100
AcDbCircle
 10
-153.7009354142663
 20
64.30888905911527
 30
0.0
 40
2.899999856948852
100
AcDbArc
 50
270.0
 51
0.0
  0
ARC
  5
22D
330
1F
100
AcDbEntity
  8
A-F
  6
JWW_DASHED1
 62
     2
370
     9
100
AcDbCircle
 10
-151.2850266007896
 20
66.20472493558023
 30
0.0
 40
0.4999999999999999
100
AcDbArc
 50
270.0
 51
14.41448974609369
  0
ARC
  5
22E
330
1F
100
AcDbEntity
  8
A-F
  6
JWW_DASHED1
 62
     2
370
     9
100
AcDbCircle
 10
-151.2850266007896
 20
64.21333089261137
 30
0.0
 40
0.4999999999999999
100
AcDbArc
 50
345.5855102539062
 51
89.99999999999997
  0
LINE
  5
22F
330
1F
100
AcDbEntity
  8
A-6
  6
Continuous
 62
     6
370
     5
100
AcDbLine
 10
-157.6008896378997
 20
135.2090813198576
 30
0.0
 11
-695.6555317236621
 21
135.2090813198576
 31
0.0
  0
LINE
  5
230
330
1F
100
AcDbEntity
  8
A-4
  6
Continuous
 62
     7
370
     9
100
AcDbLine
 10
-154.079282821881
 20
65.15892115811891
 30
0.0
 11
-144.9478613867501
 21
53.25862105375035
 31
0.0
  0
LINE
  5
231
330
1F
100
AcDbEntity
  8
A-4
  6
Continuous
 62
     7
370
     9
100
AcDbLine
 10
-154.079282821881
 20
65.15892115811891
 30
0.0
 11
-148.3390313364046
 21
51.30072817044959
 31
0.0
  0
LINE
  5
232
330
1F
100
AcDbEntity
  8
A-4
  6
Continuous
 62
     7
370
     9
100
AcDbLine
 10
-163.0861105631305
 20
61.38088508862023
 30
0.0
 11
-168.8263620486069
 21
47.52269210095091
 31
0.0
  0
LINE
  5
233
330
1F
100
AcDbEntity
  8
A-4
  6
Continuous
 62
     7
370
     9
100
AcDbLine
 10
-163.0861105631305
 20
61.38088508862023
 30
0.0
 11
-172.2175319982614
 21
49.48058498425166
 31
0.0
  0
LINE
  5
234
330
1F
100
AcDbEntity
  8
A-4
  6
Continuous
 62
     7
370
     9
100
AcDbLine
 10
-209.6844058872273
 20
-19.32972995881445
 30
0.0
 11
-163.0861105631305
 21
61.38088508862023
 31
0.0
  0
LINE
  5
235
330
1F
100
AcDbEntity
  8
A-4
  6
Continuous
 62
     7
370
     9
100
AcDbLine
 10
-79.56610748469728
 20
-63.90168435917148
 30
0.0
 11
-154.079282821881
 21
65.15892115811891
 31
0.0
  0
LINE
  5
236
330
1F
100
AcDbEntity
  8
A-E
  6
Continuous
 62
     3
370
     9
100
AcDbLine
 10
-368.1168882966415
 20
162.2091118354952
 30
0.0
 11
320.754844623675
 21
162.2091118354952
 31
0.0
  0
LINE
  5
237
330
1F
100
AcDbEntity
  8
A-4
  6
Continuous
 62
     7
370
     9
100
AcDbLine
 10
342.3831117033585
 20
-323.2800576634343
 30
0.0
 11
-157.6008896378997
 21
-323.2800576634343
 31
0.0
  0
LWPOLYLINE
  5
238
330
1F
100
AcDbEntity
  8
A-4
  6
Continuous
 62
     7
370
     9
100
AcDbPolyline
 90
        4
 70
     1
 43
1.0
 10
-157.1008896378997
 20
-323.2800576634343
 42
0.4142135623731
 10
-157.6008896378997
 20
-322.7800576634343
 42
0.4142135623731
 10
-158.1008896378997
 20
-323.2800576634343
 42
0.4142135623731
 10
-157.6008896378997
 20
-323.7800576634342
 42
0.4142135623731
  0
LINE
  5
239
330
1F
100
AcDbEntity
  8
A-4
  6
Continuous
 62
     7
370
     9
100
AcDbLine
 10
-157.6008896378997
 20
-323.2800576634343
 30
0.0
 11
-157.6008896378997
 21
-224.7371677896726
 31
0.0
  0
LINE
  5
23A
330
1F
100
AcDbEntity
  8
A-4
  6
Continuous
 62
     7
370
     9
100
AcDbLine
 10
-609.9646464749492
 20
65.20908131985746
 30
0.0
 11
-257.2250996140954
 21
65.20908131985746
 31
0.0
  0
LWPOLYLINE
  5
23B
330
1F
100
AcDbEntity
  8
A-4
  6
Continuous
 62
     7
370
     9
100
AcDbPolyline
 90
        4
 70
     1
 43
1.0
 10
-609.4646464749492
 20
135.2090813198576
 42
0.4142135623731
 10
-609.9646464749492
 20
135.7090813198576
 42
0.4142135623731
 10
-610.4646464749492
 20
135.2090813198576
 42
0.4142135623731
 10
-609.9646464749492
 20
134.7090813198576
 42
0.4142135623731
  0
LWPOLYLINE
  5
23C
330
1F
100
AcDbEntity
  8
A-4
  6
Continuous
 62
     7
370
     9
100
AcDbPolyline
 90
        4
 70
     1
 43
1.0
 10
-609.4646464749492
 20
164.2091118354953
 42
0.4142135623731
 10
-609.9646464749492
 20
164.7091118354953
 42
0.4142135623731
 10
-610.4646464749492
 20
164.2091118354953
 42
0.4142135623731
 10
-609.9646464749492
 20
163.7091118354953
 42
0.4142135623731
  0
LINE
  5
23D
330
1F
100
AcDbEntity
  8
A-4
  6
Continuous
 62
     7
370
     9
100
AcDbLine
 10
-609.9646464749492
 20
135.2090813198576
 30
0.0
 11
-609.9646464749492
 21
65.20908131985746
 31
0.0
  0
LWPOLYLINE
  5
23E
330
1F
100
AcDbEntity
  8
A-4
  6
Continuous
 62
     7
370
     9
100
AcDbPolyline
 90
        4
 70
     1
 43
1.0
 10
-609.4646464749492
 20
135.2090813198576
 42
0.4142135623731
 10
-609.9646464749492
 20
135.7090813198576
 42
0.4142135623731
 10
-610.4646464749492
 20
135.2090813198576
 42
0.4142135623731
 10
-609.9646464749492
 20
134.7090813198576
 42
0.4142135623731
  0
LWPOLYLINE
  5
23F
330
1F
100
AcDbEntity
  8
A-4
  6
Continuous
 62
     7
370
     9
100
AcDbPolyline
 90
        4
 70
     1
 43
1.0
 10
-609.4646464749492
 20
65.20908131985746
 42
0.4142135623731
 10
-609.9646464749492
 20
65.70908131985746
 42
0.4142135623731
 10
-610.4646464749492
 20
65.20908131985746
 42
0.4142135623731
 10
-609.9646464749492
 20
64.70908131985746
 42
0.4142135623731
  0
LINE
  5
240
330
1F
100
AcDbEntity
  8
A-4
  6
Continuous
 62
     7
370
     9
100
AcDbLine
 10
-609.9646464749492
 20
135.2090813198576
 30
0.0
 11
-609.9646464749492
 21
164.2091118354953
 31
0.0
  0
LINE
  5
241
330
1F
100
AcDbEntity
  8
A-E
  6
Continuous
 62
     4
370
     9
100
AcDbLine
 10
-425.802155551705
 20
145.3428885967047
 30
0.0
 11
-425.3137635778128
 21
143.9244953135578
 31
0.0
  0
LINE
  5
242
330
1F
100
AcDbEntity
  8
A-E
  6
Continuous
 62
     4
370
     9
100
AcDbLine
 10
-430.4738927923506
 20
141.7407197023963
 30
0.0
 11
-430.6533836689147
 21
142.2081943801707
 31
0.0
  0
LINE
  5
243
330
1F
100
AcDbEntity
  8
A-E
  6
Continuous
 62
     4
370
     9
100
AcDbLine
 10
-429.1390034389875
 20
142.1697935748346
 30
0.0
 11
-429.318460968698
 21
142.6373120108731
 31
0.0
  0
LINE
  5
244
330
1F
100
AcDbEntity
  8
A-E
  6
Continuous
 62
     4
370
     9
100
AcDbLine
 10
-430.4738927923506
 20
141.7407197023963
 30
0.0
 11
-429.318460968698
 21
142.6373120108731
 31
0.0
  0
LINE
  5
245
330
1F
100
AcDbEntity
  8
A-E
  6
Continuous
 62
     4
370
     9
100
AcDbLine
 10
-427.8041384486443
 20
142.5988913344339
 30
0.0
 11
-427.9836293252089
 21
143.066366012208
 31
0.0
  0
LINE
  5
246
330
1F
100
AcDbEntity
  8
A-E
  6
Continuous
 62
     4
370
     9
100
AcDbLine
 10
-429.1390034389875
 20
142.1697935748346
 30
0.0
 11
-427.9836293252089
 21
143.066366012208
 31
0.0
  0
LINE
  5
247
330
1F
100
AcDbEntity
  8
A-E
  6
Continuous
 62
     4
370
     9
100
AcDbLine
 10
-426.4693117729314
 20
143.0279597632373
 30
0.0
 11
-426.6487111169087
 21
143.4954498201976
 31
0.0
  0
LINE
  5
248
330
1F
100
AcDbEntity
  8
A-E
  6
Continuous
 62
     4
370
     9
100
AcDbLine
 10
-427.8041384486443
 20
142.5988913344339
 30
0.0
 11
-426.6487111169087
 21
143.4954498201976
 31
0.0
  0
LINE
  5
249
330
1F
100
AcDbEntity
  8
A-E
  6
Continuous
 62
     4
370
     9
100
AcDbLine
 10
-426.4693117729314
 20
143.0279597632373
 30
0.0
 11
-425.3137884166918
 21
143.9245674509
 31
0.0
  0
LINE
  5
24A
330
1F
100
AcDbEntity
  8
A-E
  6
Continuous
 62
     4
370
     9
100
AcDbLine
 10
-431.8088110006508
 20
141.3116358944067
 30
0.0
 11
-430.6533836689147
 21
142.2081943801707
 31
0.0
  0
LINE
  5
24B
330
1F
100
AcDbEntity
  8
A-E
  6
Continuous
 62
     4
370
     9
100
AcDbLine
 10
-431.9883014013558
 20
141.7790623219997
 30
0.0
 11
-431.8088110006508
 21
141.3116358944067
 31
0.0
  0
LINE
  5
24C
330
1F
100
AcDbEntity
  8
A-E
  6
Continuous
 62
     4
370
     9
100
AcDbLine
 10
-424.3273459168356
 20
142.1409326127197
 30
0.0
 11
-431.4483402153303
 21
139.8518908615268
 31
0.0
  0
ELLIPSE
  5
24D
330
1F
100
AcDbEntity
  8
A-E
  6
Continuous
 62
     4
370
     9
100
AcDbEllipse
 10
-427.3277400378731
 20
139.0229767162235
 30
0.0
 11
4.749935165543612
 21
1.635533838832282
 31
0.0
210
0.0
220
0.0
230
1.0
 40
0.6113
 41
2.377241452287241
 42
6.980165457121968
  0
ARC
  5
24E
330
1F
100
AcDbEntity
  8
A-E
  6
Continuous
 62
     4
370
     9
100
AcDbCircle
 10
-432.8801429442302
 20
139.9168210954194
 30
0.0
 40
0.5000000000000002
100
AcDbArc
 50
201.0
 51
273.1914215087891
  0
LINE
  5
24F
330
1F
100
AcDbEntity
  8
A-E
  6
Continuous
 62
     4
370
     9
100
AcDbLine
 10
-433.3469210874583
 20
139.7376507449873
 30
0.0
 11
-433.8953011930658
 21
141.1660829546132
 31
0.0
  0
LINE
  5
250
330
1F
100
AcDbEntity
  8
A-E
  6
Continuous
 62
     4
370
     9
100
AcDbLine
 10
-433.8953011930658
 20
141.1660829546132
 30
0.0
 11
-431.9883014013558
 21
141.7790623219997
 31
0.0
  0
ELLIPSE
  5
251
330
1F
100
AcDbEntity
  8
A-E
  6
Continuous
 62
     4
370
     9
100
AcDbEllipse
 10
-427.3277400378731
 20
139.0229767162235
 30
0.0
 11
5.69545374114293
 21
1.961101993289439
 31
0.0
210
0.0
220
0.0
230
1.0
 40
0.6758999999999998
 41
2.578958061681439
 42
6.788854350738927
  0
ARC
  5
252
330
1F
100
AcDbEntity
  8
A-5
  6
Continuous
 62
     3
370
     9
100
AcDbCircle
 10
-454.6168882966415
 20
138.3968955164191
 30
0.0
 40
3.0
100
AcDbArc
 50
141.5000000000001
 51
286.5000000000001
  0
LINE
  5
253
330
1F
100
AcDbEntity
  8
A-5
  6
Continuous
 62
     3
370
     9
100
AcDbLine
 10
-453.7648422625298
 20
135.5204363118144
 30
0.0
 11
-425.3911850121983
 21
143.9250964907914
 31
0.0
  0
LWPOLYLINE
  5
254
330
1F
100
AcDbEntity
  8
A-4
  6
Continuous
 62
     7
370
     9
100
AcDbPolyline
 90
        4
 70
     1
 43
1.0
 10
-457.1168882966414
 20
138.3968955164191
 42
0.4142135623731
 10
-457.6168882966414
 20
138.8968955164191
 42
0.4142135623731
 10
-458.1168882966414
 20
138.3968955164191
 42
0.4142135623731
 10
-457.6168882966414
 20
137.8968955164191
 42
0.4142135623731
  0
LINE
  5
255
330
1F
100
AcDbEntity
  8
A-5
  6
Continuous
 62
     3
370
     9
100
AcDbLine
 10
-439.1190538443678
 20
162.6991703820458
 30
0.0
 11
-456.9645485380863
 21
140.2643087925973
 31
0.0
  0
LINE
  5
256
330
1F
100
AcDbEntity
  8
A-E
  6
Continuous
 62
     4
370
     9
100
AcDbLine
 10
-431.5800728814006
 20
144.6705396301679
 30
0.0
 11
-431.4589539165388
 21
144.1845963841207
 31
0.0
  0
LINE
  5
257
330
1F
100
AcDbEntity
  8
A-E
  6
Continuous
 62
     4
370
     9
100
AcDbLine
 10
-432.9196862221713
 20
144.256346879917
 30
0.0
 11
-431.4589539165388
 21
144.1845963841207
 31
0.0
  0
LINE
  5
258
330
1F
100
AcDbEntity
  8
A-E
  6
Continuous
 62
     4
370
     9
100
AcDbLine
 10
-432.9196862221713
 20
144.256346879917
 30
0.0
 11
-433.3348484477457
 21
143.9762939903751
 31
0.0
  0
LINE
  5
259
330
1F
100
AcDbEntity
  8
A-E
  6
Continuous
 62
     4
370
     9
100
AcDbLine
 10
-432.5988273202879
 20
146.3155487794694
 30
0.0
 11
-432.3592644409527
 21
145.9996858396484
 31
0.0
  0
ARC
  5
25A
330
1F
100
AcDbEntity
  8
A-E
  6
Continuous
 62
     4
370
     9
100
AcDbCircle
 10
-432.9971735216543
 20
146.0133325008648
 30
0.0
 40
0.5000000000000001
100
AcDbArc
 50
37.17761230468755
 51
124.0
  0
LINE
  5
25B
330
1F
100
AcDbEntity
  8
A-E
  6
Continuous
 62
     4
370
     9
100
AcDbLine
 10
-434.5454537263916
 20
145.5722728997487
 30
0.0
 11
-433.3348484477457
 21
143.9762939903751
 31
0.0
  0
LINE
  5
25C
330
1F
100
AcDbEntity
  8
A-E
  6
Continuous
 62
     4
370
     9
100
AcDbLine
 10
-433.2768149748227
 20
146.4278348921483
 30
0.0
 11
-434.5454537263916
 21
145.5722728997487
 31
0.0
  0
LINE
  5
25D
330
1F
100
AcDbEntity
  8
A-E
  6
Continuous
 62
     4
370
     9
100
AcDbLine
 10
-431.5800728814006
 20
144.6705396301679
 30
0.0
 11
-430.1193217021867
 21
144.5987786725744
 31
0.0
  0
LINE
  5
25E
330
1F
100
AcDbEntity
  8
A-E
  6
Continuous
 62
     4
370
     9
100
AcDbLine
 10
-430.2404804642251
 20
145.0846946332552
 30
0.0
 11
-430.1193217021867
 21
144.5987786725744
 31
0.0
  0
LINE
  5
25F
330
1F
100
AcDbEntity
  8
A-E
  6
Continuous
 62
     4
370
     9
100
AcDbLine
 10
-430.2404804642251
 20
145.0846946332552
 30
0.0
 11
-428.7798089852302
 21
145.01299019054
 31
0.0
  0
LINE
  5
260
330
1F
100
AcDbEntity
  8
A-E
  6
Continuous
 62
     4
370
     9
100
AcDbLine
 10
-428.9009069206307
 20
145.4988600981399
 30
0.0
 11
-428.7798089852302
 21
145.01299019054
 31
0.0
  0
LINE
  5
261
330
1F
100
AcDbEntity
  8
A-E
  6
Continuous
 62
     4
370
     9
100
AcDbLine
 10
-428.9009069206307
 20
145.4988600981399
 30
0.0
 11
-427.4401914385672
 21
145.4271682731013
 31
0.0
  0
LINE
  5
262
330
1F
100
AcDbEntity
  8
A-E
  6
Continuous
 62
     4
370
     9
100
AcDbLine
 10
-427.5613815859973
 20
145.9130276130371
 30
0.0
 11
-427.4401914385672
 21
145.4271682731013
 31
0.0
  0
LINE
  5
263
330
1F
100
AcDbEntity
  8
A-E
  6
Continuous
 62
     4
370
     9
100
AcDbLine
 10
-427.5613815859973
 20
145.9130276130371
 30
0.0
 11
-426.1005550183231
 21
145.8413358938655
 31
0.0
  0
LINE
  5
264
330
1F
100
AcDbEntity
  8
A-E
  6
Continuous
 62
     4
370
     9
100
AcDbLine
 10
-432.3592644409527
 20
145.9996858396484
 30
0.0
 11
-425.1764387139249
 21
148.2203667580195
 31
0.0
  0
ARC
  5
265
330
1F
100
AcDbEntity
  8
A-E
  6
Continuous
 62
     4
370
     9
100
AcDbCircle
 10
-425.0287005779217
 20
147.7426755111463
 30
0.0
 40
0.5000000000000001
100
AcDbArc
 50
14.00000000000004
 51
107.1798858642578
  0
LINE
  5
266
330
1F
100
AcDbEntity
  8
A-E
  6
Continuous
 62
     4
370
     9
100
AcDbLine
 10
-422.9065766342057
 20
143.0763425717292
 30
0.0
 11
-424.561927450184
 21
147.8838304178629
 31
0.0
  0
LINE
  5
267
330
1F
100
AcDbEntity
  8
A-4
  6
Continuous
 62
     3
370
     9
100
AcDbLine
 10
-425.3911850121983
 20
143.9250964907914
 30
0.0
 11
-425.9824959613175
 21
145.9213288001758
 31
0.0
  0
ARC
  5
268
330
1F
100
AcDbEntity
  8
A-E
  6
Continuous
 62
     4
370
     9
100
AcDbCircle
 10
-423.3793359220053
 20
142.9135833333798
 30
0.0
 40
0.5
100
AcDbArc
 50
321.650650024414
 51
18.99999999999996
  0
ARC
  5
269
330
1F
100
AcDbEntity
  8
A-4
  6
Continuous
 62
     3
370
     9
100
AcDbCircle
 10
-454.6168882966415
 20
138.3968955164191
 30
0.0
 40
1.0
100
AcDbArc
 50
141.5000000000001
 51
286.5000000000001
  0
LINE
  5
26A
330
1F
100
AcDbEntity
  8
A-4
  6
Continuous
 62
     3
370
     9
100
AcDbLine
 10
-454.3328729519376
 20
137.438075781551
 30
0.0
 11
-425.9592157016061
 21
145.8427359605279
 31
0.0
  0
LINE
  5
26B
330
1F
100
AcDbEntity
  8
A-4
  6
Continuous
 62
     3
370
     9
100
AcDbLine
 10
-437.5538375306627
 20
161.4541411087707
 30
0.0
 11
-455.3993322243812
 21
139.0192795193219
 31
0.0
  0
ARC
  5
26C
330
1F
100
AcDbEntity
  8
A-4
  6
Continuous
 62
     3
370
     9
100
AcDbCircle
 10
-435.9886212169579
 20
160.2091118354953
 30
0.0
 40
2.0
100
AcDbArc
 50
90.0
 51
141.5000000000002
  0
ARC
  5
26D
330
1F
100
AcDbEntity
  8
A-4
  6
Continuous
 62
     3
370
     9
100
AcDbCircle
 10
-435.9886212169582
 20
160.2091118354953
 30
0.0
 40
4.0
100
AcDbArc
 50
90.0
 51
141.5000000000002
  0
LINE
  5
26E
330
1F
100
AcDbEntity
  8
A-1
  6
Continuous
 62
     2
370
     9
100
AcDbLine
 10
-410.1169035554304
 20
149.2088231557015
 30
0.0
 11
-417.1168882966415
 21
149.2088231557015
 31
0.0
  0
LINE
  5
26F
330
1F
100
AcDbEntity
  8
A-1
  6
Continuous
 62
     2
370
     9
100
AcDbLine
 10
-418.2348082185163
 20
135.2088841908578
 30
0.0
 11
-418.6168577790633
 21
135.2088841908578
 31
0.0
  0
LINE
  5
270
330
1F
100
AcDbEntity
  8
A-1
  6
Continuous
 62
     2
370
     9
100
AcDbLine
 10
-406.6169035554304
 20
149.2088231557015
 30
0.0
 11
-409.1168882966414
 21
149.2088231557015
 31
0.0
  0
LINE
  5
271
330
1F
100
AcDbEntity
  8
A-1
  6
Continuous
 62
     2
370
     9
100
AcDbLine
 10
-410.1169035554304
 20
149.032462071717
 30
0.0
 11
-410.1169035554304
 21
149.2088231557015
 31
0.0
  0
LINE
  5
272
330
1F
100
AcDbEntity
  8
A-1
  6
Continuous
 62
     2
370
     9
100
AcDbLine
 10
-409.8274443269148
 20
148.8536900990608
 30
0.0
 11
-409.1168882966414
 21
149.2088231557015
 31
0.0
  0
LINE
  5
273
330
1F
100
AcDbEntity
  8
A-1
  6
Continuous
 62
     2
370
     9
100
AcDbLine
 10
-419.6168730378523
 20
152.2090062611703
 30
0.0
 11
-406.6169035554304
 21
152.2090062611703
 31
0.0
  0
LINE
  5
274
330
1F
100
AcDbEntity
  8
A-1
  6
Continuous
 62
     2
370
     9
100
AcDbLine
 10
-416.7973997712508
 20
136.280264806092
 30
0.0
 11
-415.9168608308212
 21
139.2324742787484
 31
0.0
  0
LINE
  5
275
330
1F
100
AcDbEntity
  8
A-1
  6
Continuous
 62
     2
370
     9
100
AcDbLine
 10
-410.0194914460556
 20
148.9440526478888
 30
0.0
 11
-410.2163450837509
 21
149.1705846303108
 31
0.0
  0
ARC
  5
276
330
1F
100
AcDbEntity
  8
A-1
  6
Continuous
 62
     2
370
     9
100
AcDbCircle
 10
-418.6168577790633
 20
136.7089452260138
 30
0.0
 40
1.5
100
AcDbArc
 50
180.0
 51
270.0
  0
ARC
  5
277
330
1F
100
AcDbEntity
  8
A-1
  6
Continuous
 62
     2
370
     9
100
AcDbCircle
 10
-418.2348082185163
 20
136.7089452260138
 30
0.0
 40
1.5
100
AcDbArc
 50
270.0
 51
343.3929595947266
  0
ARC
  5
278
330
1F
100
AcDbEntity
  8
A-1
  6
Continuous
 62
     2
370
     9
100
AcDbCircle
 10
-409.9168760896103
 20
149.032462071717
 30
0.0
 40
0.2000000029802323
100
AcDbArc
 50
180.0
 51
296.5650482177734
  0
ARC
  5
279
330
1F
100
AcDbEntity
  8
A-1
  6
Continuous
 62
     2
370
     9
100
AcDbCircle
 10
-419.6168730378523
 20
151.7089757435921
 30
0.0
 40
0.5
100
AcDbArc
 50
89.99999999999997
 51
180.0
  0
LINE
  5
27A
330
1F
100
AcDbEntity
  8
A-1
  6
Continuous
 62
     2
370
     9
100
AcDbLine
 10
-415.9168608308212
 20
141.209189366639
 30
0.0
 11
-415.9168608308212
 21
139.2324742787484
 31
0.0
  0
ARC
  5
27B
330
1F
100
AcDbEntity
  8
A-1
  6
Continuous
 62
     2
370
     9
100
AcDbCircle
 10
-406.6169035554304
 20
150.7091283314827
 30
0.0
 40
1.5
100
AcDbArc
 50
270.0
 51
90.0
  0
LINE
  5
27C
330
1F
100
AcDbEntity
  8
A-1
  6
Continuous
 62
     2
370
     9
100
AcDbLine
 10
-417.1168882966415
 20
141.209189366639
 30
0.0
 11
-417.1168882966415
 21
149.2091060618973
 31
0.0
  0
LINE
  5
27D
330
1F
100
AcDbEntity
  8
A-D
  6
Continuous
 62
     2
370
     9
100
AcDbLine
 10
-420.1168882966419
 20
151.7089757435921
 30
0.0
 11
-420.1168882966419
 21
136.709081317917
 31
0.0
  0
LINE
  5
27E
330
1F
100
AcDbEntity
  8
A-1
  6
Continuous
 62
     2
370
     9
100
AcDbLine
 10
-415.9168608308212
 20
141.209189366639
 30
0.0
 11
-417.1168882966415
 21
141.209189366639
 31
0.0
  0
LINE
  5
27F
330
1F
100
AcDbEntity
  8
A-1
  6
Continuous
 62
     2
370
     9
100
AcDbLine
 10
-417.1168882966415
 20
152.2091283314826
 30
0.0
 11
-417.1168882966415
 21
162.2091118354952
 31
0.0
  0
LINE
  5
280
330
1F
100
AcDbEntity
  8
A-1
  6
Continuous
 62
     2
370
     9
100
AcDbLine
 10
-410.1169035554304
 20
149.2091060618973
 30
0.0
 11
-417.1168882966415
 21
149.2091060618973
 31
0.0
  0
LINE
  5
281
330
1F
100
AcDbEntity
  8
A-E
  6
Continuous
 62
     2
370
     9
100
AcDbLine
 10
-392.9168455720321
 20
164.2091118354953
 30
0.0
 11
-402.3169615388289
 21
164.2091118354953
 31
0.0
  0
LINE
  5
282
330
1F
100
AcDbEntity
  8
A-E
  6
Continuous
 62
     2
370
     9
100
AcDbLine
 10
-392.9168455720321
 20
164.4975792427219
 30
0.0
 11
-392.9168455720321
 21
164.2091118354953
 31
0.0
  0
LINE
  5
283
330
1F
100
AcDbEntity
  8
A-E
  6
Continuous
 62
     2
370
     9
100
AcDbLine
 10
-402.3169615388289
 20
164.4975792427219
 30
0.0
 11
-402.3169615388289
 21
164.2091118354953
 31
0.0
  0
LINE
  5
284
330
1F
100
AcDbEntity
  8
A-E
  6
Continuous
 62
     2
370
     9
100
AcDbLine
 10
-392.9168455720321
 20
164.4975792427219
 30
0.0
 11
-402.3169615388289
 21
164.4975792427219
 31
0.0
  0
LINE
  5
285
330
1F
100
AcDbEntity
  8
A-E
  6
Continuous
 62
     2
370
     9
100
AcDbLine
 10
-397.1167967439069
 20
166.2885948677218
 30
0.0
 11
-398.1168577790632
 21
166.2885948677218
 31
0.0
  0
LINE
  5
286
330
1F
100
AcDbEntity
  8
A-E
  6
Continuous
 62
     2
370
     9
100
AcDbLine
 10
-398.1168577790632
 20
166.6886345405733
 30
0.0
 11
-398.1168577790632
 21
166.2885948677218
 31
0.0
  0
LINE
  5
287
330
1F
100
AcDbEntity
  8
A-E
  6
Continuous
 62
     2
370
     9
100
AcDbLine
 10
-397.1167967439069
 20
166.6886345405733
 30
0.0
 11
-397.1167967439069
 21
166.2885948677218
 31
0.0
  0
ARC
  5
288
330
1F
100
AcDbEntity
  8
A-E
  6
Continuous
 62
     2
370
     9
100
AcDbCircle
 10
-397.6168272614851
 20
160.6091362495577
 30
0.0
 40
6.099999904632568
100
AcDbArc
 50
94.70146179199214
 51
140.3980102539062
  0
ARC
  5
289
330
1F
100
AcDbEntity
  8
A-E
  6
Continuous
 62
     2
370
     9
100
AcDbCircle
 10
-397.6168272614851
 20
160.6091362495577
 30
0.0
 40
6.099999904632568
100
AcDbArc
 50
39.60198974609376
 51
85.29808044433597
  0
LINE
  5
28A
330
1F
100
AcDbEntity
  8
A-E
  6
Continuous
 62
     2
370
     9
100
AcDbLine
 10
-397.6168882966414
 20
152.2090965767061
 30
0.0
 11
-399.6169493317976
 21
155.6732994575655
 31
0.0
  0
LINE
  5
28B
330
1F
100
AcDbEntity
  8
A-E
  6
Continuous
 62
     2
370
     9
100
AcDbLine
 10
-397.6168882966414
 20
152.2090965767061
 30
0.0
 11
-395.6168882966415
 21
155.6732079048312
 31
0.0
  0
LINE
  5
28C
330
1F
100
AcDbEntity
  8
A-E
  6
Continuous
 62
     2
370
     9
100
AcDbLine
 10
-396.216863882579
 20
164.2091118354953
 30
0.0
 11
-396.216863882579
 21
154.6339622993623
 31
0.0
  0
LINE
  5
28D
330
1F
100
AcDbEntity
  8
A-E
  6
Continuous
 62
     2
370
     9
100
AcDbLine
 10
-395.6168882966415
 20
164.2091118354953
 30
0.0
 11
-395.6168882966415
 21
155.6732079048312
 31
0.0
  0
LINE
  5
28E
330
1F
100
AcDbEntity
  8
A-E
  6
Continuous
 62
     2
370
     9
100
AcDbLine
 10
-399.6169493317976
 20
161.1760701874503
 30
0.0
 11
-399.6169493317976
 21
155.6732994575655
 31
0.0
  0
LINE
  5
28F
330
1F
100
AcDbEntity
  8
A-E
  6
Continuous
 62
     2
370
     9
100
AcDbLine
 10
-399.0168821931258
 20
164.2091118354953
 30
0.0
 11
-399.0168821931258
 21
154.6340080757296
 31
0.0
  0
LINE
  5
290
330
1F
100
AcDbEntity
  8
A-E
  6
Continuous
 62
     2
370
     9
100
AcDbLine
 10
-399.6169493317976
 20
164.2091118354953
 30
0.0
 11
-399.6169493317976
 21
161.1760701874503
 31
0.0
  0
LINE
  5
291
330
1F
100
AcDbEntity
  8
A-D
  6
Continuous
 62
     2
370
     9
100
AcDbLine
 10
-399.6170041680708
 20
158.5091911811984
 30
0.0
 11
-399.6170041680708
 21
158.1271111030734
 31
0.0
  0
LINE
  5
292
330
1F
100
AcDbEntity
  8
A-E
  6
JWW_CENTER1
 62
     2
370
     9
100
AcDbLine
 10
-397.6168882966414
 20
168.1149193306125
 30
0.0
 11
-397.6168882966414
 21
150.5884148140109
 31
0.0
  0
LINE
  5
293
330
1F
100
AcDbEntity
  8
A-4
  6
Continuous
 62
     7
370
     9
100
AcDbLine
 10
-609.9646464749492
 20
164.2091118354953
 30
0.0
 11
-460.9886212169582
 21
164.2091118354953
 31
0.0
  0
LWPOLYLINE
  5
294
330
1F
100
AcDbEntity
  8
A-4
  6
Continuous
 62
     7
370
     9
100
AcDbPolyline
 90
        4
 70
     1
 43
1.0
 10
-457.1168882966414
 20
298.0247160764929
 42
0.4142135623731
 10
-457.6168882966414
 20
298.524716076493
 42
0.4142135623731
 10
-458.1168882966414
 20
298.0247160764929
 42
0.4142135623731
 10
-457.6168882966414
 20
297.5247160764929
 42
0.4142135623731
  0
LINE
  5
295
330
1F
100
AcDbEntity
  8
A-4
  6
Continuous
 62
     7
370
     9
100
AcDbLine
 10
-457.6168882966414
 20
298.0247160764929
 30
0.0
 11
-457.6168882966414
 21
163.3968955164191
 31
0.0
  0
LINE
  5
296
330
1F
100
AcDbEntity
  8
A-D
  6
Continuous
 62
     2
370
     9
100
AcDbLine
 10
-417.1168882966415
 20
162.2090813179171
 30
0.0
 11
-168.4127807168488
 21
162.2090813179171
 31
0.0
  0
LINE
  5
297
330
1F
100
AcDbEntity
  8
A-1
  6
Continuous
 62
     2
370
     9
100
AcDbLine
 10
302.8831117033586
 20
154.2091225578866
 30
0.0
 11
-417.1168882966415
 21
154.2091225578866
 31
0.0
  0
LINE
  5
298
330
1F
100
AcDbEntity
  8
A-1
  6
Continuous
 62
     2
370
     9
100
AcDbLine
 10
302.8831117033586
 20
152.2091283314826
 30
0.0
 11
-417.1168882966415
 21
152.2091283314826
 31
0.0
  0
LINE
  5
299
330
1F
100
AcDbEntity
  8
A-1
  6
Continuous
 62
     2
370
     9
100
AcDbLine
 10
302.9614068214038
 20
149.2091060618973
 30
0.0
 11
-417.1168882966415
 21
149.2091060618973
 31
0.0
  0
LINE
  5
29A
330
1F
100
AcDbEntity
  8
A-1
  6
Continuous
 62
     2
370
     9
100
AcDbLine
 10
302.8831117033586
 20
147.2091118354952
 30
0.0
 11
-417.1168882966415
 21
147.2091118354952
 31
0.0
  0
LINE
  5
29B
330
1F
100
AcDbEntity
  8
A-1
  6
Continuous
 62
     2
370
     9
100
AcDbLine
 10
302.8831117033586
 20
160.2091176090896
 30
0.0
 11
-417.1168882966415
 21
160.2091176090896
 31
0.0
  0
LINE
  5
29C
330
1F
100
AcDbEntity
  8
A-4
  6
Continuous
 62
     3
370
     9
100
AcDbLine
 10
-435.9886212169582
 20
164.2091118354953
 30
0.0
 11
320.7548446236751
 21
164.2091118354953
 31
0.0
  0
LINE
  5
29D
330
1F
100
AcDbEntity
  8
A-E
  6
Continuous
 62
     3
370
     9
100
AcDbLine
 10
-435.9886212169579
 20
162.2091118354952
 30
0.0
 11
-417.1168882966415
 21
162.2091118354952
 31
0.0
  0
LINE
  5
29E
330
1F
100
AcDbEntity
  8
A-5
  6
Continuous
 62
     7
370
     9
100
AcDbLine
 10
-520.3506804512463
 20
-19.32972995881445
 30
0.0
 11
-427.1992676682436
 21
136.7977531234945
 31
0.0
  0
LINE
  5
29F
330
1F
100
AcDbEntity
  8
A-5
  6
Continuous
 62
     7
370
     9
100
AcDbLine
 10
-427.1992676682436
 20
136.7977531234945
 30
0.0
 11
-432.1479662901768
 21
125.3190606043408
 31
0.0
  0
LINE
  5
2A0
330
1F
100
AcDbEntity
  8
A-5
  6
Continuous
 62
     7
370
     9
100
AcDbLine
 10
-427.1992676682436
 20
136.7977531234945
 30
0.0
 11
-434.950247710523
 21
126.9910050190418
 31
0.0
  0
LINE
  5
2A1
330
1F
100
AcDbEntity
  8
A-4
  6
Continuous
 62
     7
370
     9
100
AcDbLine
 10
342.3831117033585
 20
298.0247160764929
 30
0.0
 11
-457.6168882966414
 21
298.0247160764929
 31
0.0
  0
LWPOLYLINE
  5
2A2
330
1F
100
AcDbEntity
  8
A-4
  6
Continuous
 62
     7
370
     9
100
AcDbPolyline
 90
        4
 70
     1
 43
1.0
 10
342.8831117033585
 20
298.0247160764929
 42
0.4142135623731
 10
342.3831117033585
 20
298.524716076493
 42
0.4142135623731
 10
341.8831117033585
 20
298.0247160764929
 42
0.4142135623731
 10
342.3831117033585
 20
297.5247160764929
 42
0.4142135623731
  0
LWPOLYLINE
  5
2A3
330
1F
100
AcDbEntity
  8
A-4
  6
Continuous
 62
     7
370
     9
100
AcDbPolyline
 90
        4
 70
     1
 43
1.0
 10
-457.1168882966414
 20
298.0247160764929
 42
0.4142135623731
 10
-457.6168882966414
 20
298.524716076493
 42
0.4142135623731
 10
-458.1168882966414
 20
298.0247160764929
 42
0.4142135623731
 10
-457.6168882966414
 20
297.5247160764929
 42
0.4142135623731
  0
ARC
  5
2A4
330
1F
100
AcDbEntity
  8
A-3
  6
Continuous
 62
     4
370
     9
100
AcDbCircle
 10
115.4804347731231
 20
71.40231483631138
 30
0.0
 40
279.926901040219
100
AcDbArc
 50
193.5089276927388
 51
323.8394454571647
  0
ARC
  5
2A5
330
1F
100
AcDbEntity
  8
A-3
  6
Continuous
 62
     4
370
     9
100
AcDbCircle
 10
115.4804347731231
 20
71.40231483631138
 30
0.0
 40
280.826901040219
100
AcDbArc
 50
193.5089276927388
 51
323.8990933742181
  0
LINE
  5
2A6
330
1F
100
AcDbEntity
  8
A-5
  6
Continuous
 62
     7
370
     9
100
AcDbLine
 10
-170.6058325282862
 20
-244.3579786534161
 30
0.0
 11
-74.22958326840075
 21
-135.0904404717982
 31
0.0
  0
LINE
  5
2A7
330
1F
100
AcDbEntity
  8
A-5
  6
Continuous
 62
     7
370
     9
100
AcDbLine
 10
-74.22958326840075
 20
-135.0904404717982
 30
0.0
 11
-81.20374488991573
 21
-145.4640160210959
 31
0.0
  0
LINE
  5
2A8
330
1F
100
AcDbEntity
  8
A-5
  6
Continuous
 62
     7
370
     9
100
AcDbLine
 10
-74.22958326840075
 20
-135.0904404717982
 30
0.0
 11
-83.65098501330422
 21
-143.3054991545544
 31
0.0
  0
LINE
  5
2A9
330
1F
100
AcDbEntity
  8
A-4
  6
Continuous
 62
     7
370
     9
100
AcDbLine
 10
276.5757055357517
 20
0.7575105707495045
 30
0.0
 11
267.444284100621
 21
-11.14278953361906
 31
0.0
  0
LINE
  5
2AA
330
1F
100
AcDbEntity
  8
A-4
  6
Continuous
 62
     7
370
     9
100
AcDbLine
 10
276.5757055357517
 20
0.7575105707495045
 30
0.0
 11
270.8354540502754
 21
-13.10068241691982
 31
0.0
  0
LINE
  5
2AB
330
1F
100
AcDbEntity
  8
A-4
  6
Continuous
 62
     7
370
     9
100
AcDbLine
 10
249.3768067542392
 20
-46.35236402875353
 30
0.0
 11
276.5757055357517
 21
0.7575105707495045
 31
0.0
  0
LINE
  5
2AC
330
1F
100
AcDbEntity
  8
A-E
  6
Continuous
 62
     2
370
     9
100
AcDbLine
 10
-62.31693102125092
 20
164.2091118354953
 30
0.0
 11
-52.9168150544541
 21
164.2091118354953
 31
0.0
  0
LINE
  5
2AD
330
1F
100
AcDbEntity
  8
A-E
  6
Continuous
 62
     2
370
     9
100
AcDbLine
 10
-62.31693102125092
 20
164.4975792427219
 30
0.0
 11
-62.31693102125092
 21
164.2091118354953
 31
0.0
  0
LINE
  5
2AE
330
1F
100
AcDbEntity
  8
A-E
  6
Continuous
 62
     2
370
     9
100
AcDbLine
 10
-52.9168150544541
 20
164.4975792427219
 30
0.0
 11
-52.9168150544541
 21
164.2091118354953
 31
0.0
  0
LINE
  5
2AF
330
1F
100
AcDbEntity
  8
A-E
  6
Continuous
 62
     2
370
     9
100
AcDbLine
 10
-62.31693102125092
 20
164.4975792427219
 30
0.0
 11
-52.9168150544541
 21
164.4975792427219
 31
0.0
  0
LINE
  5
2B0
330
1F
100
AcDbEntity
  8
A-E
  6
Continuous
 62
     2
370
     9
100
AcDbLine
 10
-58.11697984937595
 20
166.2885948677218
 30
0.0
 11
-57.1169188142197
 21
166.2885948677218
 31
0.0
  0
LINE
  5
2B1
330
1F
100
AcDbEntity
  8
A-E
  6
Continuous
 62
     2
370
     9
100
AcDbLine
 10
-57.1169188142197
 20
166.6886345405733
 30
0.0
 11
-57.1169188142197
 21
166.2885948677218
 31
0.0
  0
LINE
  5
2B2
330
1F
100
AcDbEntity
  8
A-E
  6
Continuous
 62
     2
370
     9
100
AcDbLine
 10
-58.11697984937595
 20
166.6886345405733
 30
0.0
 11
-58.11697984937595
 21
166.2885948677218
 31
0.0
  0
ARC
  5
2B3
330
1F
100
AcDbEntity
  8
A-E
  6
Continuous
 62
     2
370
     9
100
AcDbCircle
 10
-57.61694933179783
 20
160.6091362495577
 30
0.0
 40
6.099999904632569
100
AcDbArc
 50
39.60198974609384
 51
85.2985382080079
  0
ARC
  5
2B4
330
1F
100
AcDbEntity
  8
A-E
  6
Continuous
 62
     2
370
     9
100
AcDbCircle
 10
-57.61694933179783
 20
160.6091362495577
 30
0.0
 40
6.099999904632569
100
AcDbArc
 50
94.70191955566406
 51
140.3980102539062
  0
LINE
  5
2B5
330
1F
100
AcDbEntity
  8
A-E
  6
Continuous
 62
     2
370
     9
100
AcDbLine
 10
-59.61688829664155
 20
164.2091118354953
 30
0.0
 11
-59.61688829664155
 21
155.6732079048312
 31
0.0
  0
LINE
  5
2B6
330
1F
100
AcDbEntity
  8
A-E
  6
Continuous
 62
     2
370
     9
100
AcDbLine
 10
-59.01691271070405
 20
164.2091118354953
 30
0.0
 11
-59.01691271070405
 21
154.6339622993623
 31
0.0
  0
LINE
  5
2B7
330
1F
100
AcDbEntity
  8
A-E
  6
JWW_CENTER1
 62
     2
370
     9
100
AcDbLine
 10
-57.61688829664152
 20
168.1149193306125
 30
0.0
 11
-57.61688829664152
 21
150.5884148140109
 31
0.0
  0
LINE
  5
2B8
330
1F
100
AcDbEntity
  8
A-E
  6
Continuous
 62
     2
370
     9
100
AcDbLine
 10
-56.21689440015714
 20
164.2091118354953
 30
0.0
 11
-56.21689440015714
 21
154.6340080757296
 31
0.0
  0
LINE
  5
2B9
330
1F
100
AcDbEntity
  8
A-E
  6
Continuous
 62
     2
370
     9
100
AcDbLine
 10
-55.61682726148533
 20
161.1760701874503
 30
0.0
 11
-55.61682726148533
 21
155.6732994575655
 31
0.0
  0
LINE
  5
2BA
330
1F
100
AcDbEntity
  8
A-E
  6
Continuous
 62
     2
370
     9
100
AcDbLine
 10
-57.61688829664152
 20
152.2090965767061
 30
0.0
 11
-55.61682726148533
 21
155.6732994575655
 31
0.0
  0
LINE
  5
2BB
330
1F
100
AcDbEntity
  8
A-E
  6
Continuous
 62
     2
370
     9
100
AcDbLine
 10
-57.61688829664152
 20
152.2090965767061
 30
0.0
 11
-59.61688829664155
 21
155.6732079048312
 31
0.0
  0
LINE
  5
2BC
330
1F
100
AcDbEntity
  8
A-E
  6
Continuous
 62
     2
370
     9
100
AcDbLine
 10
-55.61682726148533
 20
164.2091118354953
 30
0.0
 11
-55.61682726148533
 21
161.1760701874503
 31
0.0
  0
LINE
  5
2BD
330
1F
100
AcDbEntity
  8
A-4
  6
Continuous
 62
     7
370
     9
100
AcDbLine
 10
-94.45683485893142
 20
231.2948531928597
 30
0.0
 11
-57.3224439229611
 21
166.9762013836342
 31
0.0
  0
LINE
  5
2BE
330
1F
100
AcDbEntity
  8
A-4
  6
Continuous
 62
     7
370
     9
100
AcDbLine
 10
-57.3224439229611
 20
166.9762013836342
 30
0.0
 11
-66.45386535809195
 21
178.8765014880026
 31
0.0
  0
LINE
  5
2BF
330
1F
100
AcDbEntity
  8
A-4
  6
Continuous
 62
     7
370
     9
100
AcDbLine
 10
-57.3224439229611
 20
166.9762013836342
 30
0.0
 11
-63.06269540843743
 21
180.8343943713033
 31
0.0
  0
ARC
  5
2C0
330
1F
100
AcDbEntity
  8
A-F
  6
Continuous
 62
     4
370
     9
100
AcDbCircle
 10
340.6332620100126
 20
-30.70044090630293
 30
0.0
 40
0.3000001213063833
100
AcDbArc
 50
44.99999999999997
 51
135.0
  0
LINE
  5
2C1
330
1F
100
AcDbEntity
  8
A-3
  6
Continuous
 62
     4
370
     9
100
AcDbLine
 10
341.5851825197514
 20
-52.67102365488584
 30
0.0
 11
341.0831476692489
 21
-38.4916875929662
 31
0.0
  0
LINE
  5
2C2
330
1F
100
AcDbEntity
  8
A-3
  6
Continuous
 62
     4
370
     9
100
AcDbLine
 10
342.3831825197511
 20
-52.67102365488584
 30
0.0
 11
341.8811476692487
 21
-38.25321123564808
 31
0.0
  0
LINE
  5
2C3
330
1F
100
AcDbEntity
  8
A-3
  6
Continuous
 62
     4
370
     9
100
AcDbLine
 10
341.5851825197514
 20
-52.67102365488584
 30
0.0
 11
342.3831825197511
 21
-52.67102365488584
 31
0.0
  0
LINE
  5
2C4
330
1F
100
AcDbEntity
  8
A-3
  6
Continuous
 62
     4
370
     9
100
AcDbLine
 10
340.1833763507763
 20
-52.69113844834764
 30
0.0
 11
340.1833763507763
 21
-38.6155685984065
 31
0.0
  0
LINE
  5
2C5
330
1F
100
AcDbEntity
  8
A-3
  6
Continuous
 62
     4
370
     9
100
AcDbLine
 10
340.1833763507763
 20
-38.6155685984065
 30
0.0
 11
334.0337812714587
 21
-51.83958372611657
 31
0.0
  0
LINE
  5
2C6
330
1F
100
AcDbEntity
  8
A-3
  6
Continuous
 62
     4
370
     9
100
AcDbLine
 10
341.8811476692487
 20
-38.25321123564808
 30
0.0
 11
341.6331180236012
 21
-36.99438091652158
 31
0.0
  0
LINE
  5
2C7
330
1F
100
AcDbEntity
  8
A-3
  6
Continuous
 62
     4
370
     9
100
AcDbLine
 10
341.0831476692489
 20
-52.69113844834764
 30
0.0
 11
341.0831476692489
 21
-38.4916875929662
 31
0.0
  0
LINE
  5
2C8
330
1F
100
AcDbEntity
  8
A-3
  6
Continuous
 62
     4
370
     9
100
AcDbLine
 10
340.4212013688744
 20
-30.48838026516481
 30
0.0
 11
339.6334059964239
 21
-31.27617563761649
 31
0.0
  0
LINE
  5
2C9
330
1F
100
AcDbEntity
  8
A-3
  6
Continuous
 62
     4
370
     9
100
AcDbLine
 10
340.8453226511484
 20
-30.48838026516481
 30
0.0
 11
341.6331180236012
 21
-31.27617563761649
 31
0.0
  0
LINE
  5
2CA
330
1F
100
AcDbEntity
  8
A-3
  6
Continuous
 62
     4
370
     9
100
AcDbLine
 10
339.6334059964239
 20
-31.27617563761649
 30
0.0
 11
339.5392669267586
 21
-31.3841878333358
 31
0.0
  0
LINE
  5
2CB
330
1F
100
AcDbEntity
  8
A-3
  6
Continuous
 62
     4
370
     9
100
AcDbLine
 10
339.5392669267586
 20
-31.3841878333358
 30
0.0
 11
339.3817078522694
 21
-31.57345691023923
 31
0.0
  0
LINE
  5
2CC
330
1F
100
AcDbEntity
  8
A-3
  6
Continuous
 62
     4
370
     9
100
AcDbLine
 10
339.3817078522694
 20
-31.57345691023923
 30
0.0
 11
339.2340581535315
 21
-31.76768067501942
 31
0.0
  0
LINE
  5
2CD
330
1F
100
AcDbEntity
  8
A-3
  6
Continuous
 62
     4
370
     9
100
AcDbLine
 10
339.2340581535315
 20
-31.76768067501942
 30
0.0
 11
339.1042453311549
 21
-31.97181381555427
 31
0.0
  0
LINE
  5
2CE
330
1F
100
AcDbEntity
  8
A-3
  6
Continuous
 62
     4
370
     9
100
AcDbLine
 10
339.1042453311549
 20
-31.97181381555427
 30
0.0
 11
339.0398343887524
 21
-32.09568101248013
 31
0.0
  0
LINE
  5
2CF
330
1F
100
AcDbEntity
  8
A-3
  6
Continuous
 62
     4
370
     9
100
AcDbLine
 10
339.0398343887524
 20
-32.09568101248013
 30
0.0
 11
339.0140700117923
 21
-32.15018257912791
 31
0.0
  0
LINE
  5
2D0
330
1F
100
AcDbEntity
  8
A-3
  6
Continuous
 62
     4
370
     9
100
AcDbLine
 10
339.0140700117923
 20
-32.15018257912791
 30
0.0
 11
338.974432508776
 21
-32.24630352394345
 31
0.0
  0
LINE
  5
2D1
330
1F
100
AcDbEntity
  8
A-3
  6
Continuous
 62
     4
370
     9
100
AcDbLine
 10
338.974432508776
 20
-32.24630352394345
 30
0.0
 11
338.9377678184838
 21
-32.34391087512111
 31
0.0
  0
LINE
  5
2D2
330
1F
100
AcDbEntity
  8
A-3
  6
Continuous
 62
     4
370
     9
100
AcDbLine
 10
338.9377678184838
 20
-32.34391087512111
 30
0.0
 11
338.9030850033465
 21
-32.44300463266202
 31
0.0
  0
LINE
  5
2D3
330
1F
100
AcDbEntity
  8
A-3
  6
Continuous
 62
     4
370
     9
100
AcDbLine
 10
338.9030850033465
 20
-32.44300463266202
 30
0.0
 11
338.8832662518372
 21
-32.50047901203519
 31
0.0
  0
LINE
  5
2D4
330
1F
100
AcDbEntity
  8
A-3
  6
Continuous
 62
     4
370
     9
100
AcDbLine
 10
341.6331180236012
 20
-31.27617563761649
 30
0.0
 11
341.7272570932643
 21
-31.3841878333358
 31
0.0
  0
LINE
  5
2D5
330
1F
100
AcDbEntity
  8
A-3
  6
Continuous
 62
     4
370
     9
100
AcDbLine
 10
341.7272570932643
 20
-31.3841878333358
 30
0.0
 11
341.8858071053297
 21
-31.57345691023923
 31
0.0
  0
LINE
  5
2D6
330
1F
100
AcDbEntity
  8
A-3
  6
Continuous
 62
     4
370
     9
100
AcDbLine
 10
341.8858071053297
 20
-31.57345691023923
 30
0.0
 11
342.0324658664914
 21
-31.76768067501942
 31
0.0
  0
LINE
  5
2D7
330
1F
100
AcDbEntity
  8
A-3
  6
Continuous
 62
     4
370
     9
100
AcDbLine
 10
342.0324658664914
 20
-31.76768067501942
 30
0.0
 11
342.1632696264443
 21
-31.97181381555427
 31
0.0
  0
LINE
  5
2D8
330
1F
100
AcDbEntity
  8
A-3
  6
Continuous
 62
     4
370
     9
100
AcDbLine
 10
342.1632696264443
 20
-31.97181381555427
 30
0.0
 11
342.2276805688467
 21
-32.09568101248013
 31
0.0
  0
LINE
  5
2D9
330
1F
100
AcDbEntity
  8
A-3
  6
Continuous
 62
     4
370
     9
100
AcDbLine
 10
342.2276805688467
 20
-32.09568101248013
 30
0.0
 11
342.2524540082328
 21
-32.15018257912791
 31
0.0
  0
LINE
  5
2DA
330
1F
100
AcDbEntity
  8
A-3
  6
Continuous
 62
     4
370
     9
100
AcDbLine
 10
342.2524540082328
 20
-32.15018257912791
 30
0.0
 11
342.2920915112492
 21
-32.24630352394345
 31
0.0
  0
LINE
  5
2DB
330
1F
100
AcDbEntity
  8
A-3
  6
Continuous
 62
     4
370
     9
100
AcDbLine
 10
342.2920915112492
 20
-32.24630352394345
 30
0.0
 11
342.329747139113
 21
-32.34391087512111
 31
0.0
  0
LINE
  5
2DC
330
1F
100
AcDbEntity
  8
A-3
  6
Continuous
 62
     4
370
     9
100
AcDbLine
 10
342.329747139113
 20
-32.34391087512111
 30
0.0
 11
342.3634390166786
 21
-32.44300463266202
 31
0.0
  0
LINE
  5
2DD
330
1F
100
AcDbEntity
  8
A-3
  6
Continuous
 62
     4
370
     9
100
AcDbLine
 10
339.6334059964239
 20
-32.40088978570728
 30
0.0
 11
339.5234119255521
 21
-32.54061198383968
 31
0.0
  0
LINE
  5
2DE
330
1F
100
AcDbEntity
  8
A-3
  6
Continuous
 62
     4
370
     9
100
AcDbLine
 10
339.5234119255521
 20
-32.54061198383968
 30
0.0
 11
339.3390975365265
 21
-32.78487809617789
 31
0.0
  0
LINE
  5
2DF
330
1F
100
AcDbEntity
  8
A-3
  6
Continuous
 62
     4
370
     9
100
AcDbLine
 10
339.3390975365265
 20
-32.78487809617789
 30
0.0
 11
339.1706381487053
 21
-33.03657624033238
 31
0.0
  0
LINE
  5
2E0
330
1F
100
AcDbEntity
  8
A-3
  6
Continuous
 62
     4
370
     9
100
AcDbLine
 10
339.1706381487053
 20
-33.03657624033238
 30
0.0
 11
339.0319068881491
 21
-33.30066110417991
 31
0.0
  0
LINE
  5
2E1
330
1F
100
AcDbEntity
  8
A-3
  6
Continuous
 62
     4
370
     9
100
AcDbLine
 10
339.0319068881491
 20
-33.30066110417991
 30
0.0
 11
338.9665050081727
 21
-33.46168846018375
 31
0.0
  0
LINE
  5
2E2
330
1F
100
AcDbEntity
  8
A-3
  6
Continuous
 62
     4
370
     9
100
AcDbLine
 10
338.9665050081727
 20
-33.46168846018375
 30
0.0
 11
338.9536228196904
 21
-33.50083049441199
 31
0.0
  0
LINE
  5
2E3
330
1F
100
AcDbEntity
  8
A-3
  6
Continuous
 62
     4
370
     9
100
AcDbLine
 10
338.9536228196904
 20
-33.50083049441199
 30
0.0
 11
338.9328131306071
 21
-33.57019612469119
 31
0.0
  0
LINE
  5
2E4
330
1F
100
AcDbEntity
  8
A-3
  6
Continuous
 62
     4
370
     9
100
AcDbLine
 10
338.9328131306071
 20
-33.57019612469119
 30
0.0
 11
338.9129943791
 21
-33.63956175496926
 31
0.0
  0
LINE
  5
2E5
330
1F
100
AcDbEntity
  8
A-3
  6
Continuous
 62
     4
370
     9
100
AcDbLine
 10
338.9129943791
 20
-33.63956175496926
 30
0.0
 11
338.894166565167
 21
-33.7099183228236
 31
0.0
  0
LINE
  5
2E6
330
1F
100
AcDbEntity
  8
A-3
  6
Continuous
 62
     4
370
     9
100
AcDbLine
 10
338.894166565167
 20
-33.7099183228236
 30
0.0
 11
338.8832662518372
 21
-33.75054676341509
 31
0.0
  0
LINE
  5
2E7
330
1F
100
AcDbEntity
  8
A-3
  6
Continuous
 62
     4
370
     9
100
AcDbLine
 10
339.6334059964239
 20
-33.65046206829905
 30
0.0
 11
339.5234119255521
 21
-33.79067973521958
 31
0.0
  0
LINE
  5
2E8
330
1F
100
AcDbEntity
  8
A-3
  6
Continuous
 62
     4
370
     9
100
AcDbLine
 10
339.5234119255521
 20
-33.79067973521958
 30
0.0
 11
339.3390975365265
 21
-34.03494584755893
 31
0.0
  0
LINE
  5
2E9
330
1F
100
AcDbEntity
  8
A-3
  6
Continuous
 62
     4
370
     9
100
AcDbLine
 10
339.3390975365265
 20
-34.03494584755893
 30
0.0
 11
339.1706381487053
 21
-34.28664399171228
 31
0.0
  0
LINE
  5
2EA
330
1F
100
AcDbEntity
  8
A-3
  6
Continuous
 62
     4
370
     9
100
AcDbLine
 10
339.1706381487053
 20
-34.28664399171228
 30
0.0
 11
339.0319068881491
 21
-34.55072885555981
 31
0.0
  0
LINE
  5
2EB
330
1F
100
AcDbEntity
  8
A-3
  6
Continuous
 62
     4
370
     9
100
AcDbLine
 10
339.0319068881491
 20
-34.55072885555981
 30
0.0
 11
338.9665050081727
 21
-34.71175621156365
 31
0.0
  0
LINE
  5
2EC
330
1F
100
AcDbEntity
  8
A-3
  6
Continuous
 62
     4
370
     9
100
AcDbLine
 10
338.9665050081727
 20
-34.71175621156365
 30
0.0
 11
338.9536228196904
 21
-34.75139371458002
 31
0.0
  0
LINE
  5
2ED
330
1F
100
AcDbEntity
  8
A-3
  6
Continuous
 62
     4
370
     9
100
AcDbLine
 10
338.9536228196904
 20
-34.75139371458002
 30
0.0
 11
338.9328131306071
 21
-34.8202638760711
 31
0.0
  0
LINE
  5
2EE
330
1F
100
AcDbEntity
  8
A-3
  6
Continuous
 62
     4
370
     9
100
AcDbLine
 10
338.9328131306071
 20
-34.8202638760711
 30
0.0
 11
338.9129943791
 21
-34.88962950634917
 31
0.0
  0
LINE
  5
2EF
330
1F
100
AcDbEntity
  8
A-3
  6
Continuous
 62
     4
370
     9
100
AcDbLine
 10
338.9129943791
 20
-34.88962950634917
 30
0.0
 11
338.894166565167
 21
-34.9599860742035
 31
0.0
  0
LINE
  5
2F0
330
1F
100
AcDbEntity
  8
A-3
  6
Continuous
 62
     4
370
     9
100
AcDbLine
 10
338.894166565167
 20
-34.9599860742035
 30
0.0
 11
338.8832662518372
 21
-35.00061451479613
 31
0.0
  0
LINE
  5
2F1
330
1F
100
AcDbEntity
  8
A-3
  6
Continuous
 62
     4
370
     9
100
AcDbLine
 10
341.6331180236012
 20
-32.40088978570728
 30
0.0
 11
341.7441030320471
 21
-32.54061198383968
 31
0.0
  0
LINE
  5
2F2
330
1F
100
AcDbEntity
  8
A-3
  6
Continuous
 62
     4
370
     9
100
AcDbLine
 10
341.7441030320471
 20
-32.54061198383968
 30
0.0
 11
341.9284174210726
 21
-32.78487809617789
 31
0.0
  0
LINE
  5
2F3
330
1F
100
AcDbEntity
  8
A-3
  6
Continuous
 62
     4
370
     9
100
AcDbLine
 10
341.9284174210726
 20
-32.78487809617789
 30
0.0
 11
342.0958858713176
 21
-33.03657624033238
 31
0.0
  0
LINE
  5
2F4
330
1F
100
AcDbEntity
  8
A-3
  6
Continuous
 62
     4
370
     9
100
AcDbLine
 10
342.0958858713176
 20
-33.03657624033238
 30
0.0
 11
342.23560806945
 21
-33.30066110417991
 31
0.0
  0
LINE
  5
2F5
330
1F
100
AcDbEntity
  8
A-3
  6
Continuous
 62
     4
370
     9
100
AcDbLine
 10
342.23560806945
 20
-33.30066110417991
 30
0.0
 11
342.3000190118524
 21
-33.46168846018375
 31
0.0
  0
LINE
  5
2F6
330
1F
100
AcDbEntity
  8
A-3
  6
Continuous
 62
     4
370
     9
100
AcDbLine
 10
342.3000190118524
 20
-33.46168846018375
 30
0.0
 11
342.3129012003325
 21
-33.50083049441199
 31
0.0
  0
LINE
  5
2F7
330
1F
100
AcDbEntity
  8
A-3
  6
Continuous
 62
     4
370
     9
100
AcDbLine
 10
342.3129012003325
 20
-33.50083049441199
 30
0.0
 11
342.334701826992
 21
-33.57019612469119
 31
0.0
  0
LINE
  5
2F8
330
1F
100
AcDbEntity
  8
A-3
  6
Continuous
 62
     4
370
     9
100
AcDbLine
 10
342.334701826992
 20
-33.57019612469119
 30
0.0
 11
342.3535296409228
 21
-33.63956175496926
 31
0.0
  0
LINE
  5
2F9
330
1F
100
AcDbEntity
  8
A-3
  6
Continuous
 62
     4
370
     9
100
AcDbLine
 10
342.3535296409228
 20
-33.63956175496926
 30
0.0
 11
342.3733483924321
 21
-33.7099183228236
 31
0.0
  0
LINE
  5
2FA
330
1F
100
AcDbEntity
  8
A-3
  6
Continuous
 62
     4
370
     9
100
AcDbLine
 10
341.6331180236012
 20
-33.65046206829905
 30
0.0
 11
341.7441030320471
 21
-33.79067973521958
 31
0.0
  0
LINE
  5
2FB
330
1F
100
AcDbEntity
  8
A-3
  6
Continuous
 62
     4
370
     9
100
AcDbLine
 10
341.7441030320471
 20
-33.79067973521958
 30
0.0
 11
341.9284174210726
 21
-34.03494584755893
 31
0.0
  0
LINE
  5
2FC
330
1F
100
AcDbEntity
  8
A-3
  6
Continuous
 62
     4
370
     9
100
AcDbLine
 10
341.9284174210726
 20
-34.03494584755893
 30
0.0
 11
342.0958858713176
 21
-34.28664399171228
 31
0.0
  0
LINE
  5
2FD
330
1F
100
AcDbEntity
  8
A-3
  6
Continuous
 62
     4
370
     9
100
AcDbLine
 10
342.0958858713176
 20
-34.28664399171228
 30
0.0
 11
342.23560806945
 21
-34.55072885555981
 31
0.0
  0
LINE
  5
2FE
330
1F
100
AcDbEntity
  8
A-3
  6
Continuous
 62
     4
370
     9
100
AcDbLine
 10
342.23560806945
 20
-34.55072885555981
 30
0.0
 11
342.3000190118524
 21
-34.71175621156365
 31
0.0
  0
LINE
  5
2FF
330
1F
100
AcDbEntity
  8
A-3
  6
Continuous
 62
     4
370
     9
100
AcDbLine
 10
342.3000190118524
 20
-34.71175621156365
 30
0.0
 11
342.3129012003325
 21
-34.75139371458002
 31
0.0
  0
LINE
  5
300
330
1F
100
AcDbEntity
  8
A-3
  6
Continuous
 62
     4
370
     9
100
AcDbLine
 10
342.3129012003325
 20
-34.75139371458002
 30
0.0
 11
342.334701826992
 21
-34.8202638760711
 31
0.0
  0
LINE
  5
301
330
1F
100
AcDbEntity
  8
A-3
  6
Continuous
 62
     4
370
     9
100
AcDbLine
 10
342.334701826992
 20
-34.8202638760711
 30
0.0
 11
342.3535296409228
 21
-34.88962950634917
 31
0.0
  0
LINE
  5
302
330
1F
100
AcDbEntity
  8
A-3
  6
Continuous
 62
     4
370
     9
100
AcDbLine
 10
342.3535296409228
 20
-34.88962950634917
 30
0.0
 11
342.3832577681857
 21
-35.000119046008
 31
0.0
  0
LINE
  5
303
330
1F
100
AcDbEntity
  8
A-3
  6
Continuous
 62
     4
370
     9
100
AcDbLine
 10
339.6334059964239
 20
-34.90052981967895
 30
0.0
 11
339.6334059964239
 21
-37.90059332923423
 31
0.0
  0
LINE
  5
304
330
1F
100
AcDbEntity
  8
A-3
  6
Continuous
 62
     4
370
     9
100
AcDbLine
 10
341.6331180236012
 20
-34.90052981967895
 30
0.0
 11
341.6331180236012
 21
-36.99438091652158
 31
0.0
  0
ARC
  5
305
330
1F
100
AcDbEntity
  8
A-3
  6
Continuous
 62
     4
370
     9
100
AcDbCircle
 10
339.6264694333946
 20
-35.21118874956986
 30
0.0
 40
2.810700080684713
100
AcDbArc
 50
89.86010742187501
 51
105.3308563232422
  0
ARC
  5
306
330
1F
100
AcDbEntity
  8
A-3
  6
Continuous
 62
     4
370
     9
100
AcDbCircle
 10
341.6400545866283
 20
-35.21118874956986
 30
0.0
 40
2.810700080684713
100
AcDbArc
 50
74.66914367675783
 51
90.139892578125
  0
ARC
  5
307
330
1F
100
AcDbEntity
  8
A-3
  6
Continuous
 62
     4
370
     9
100
AcDbCircle
 10
339.6264694333946
 20
-36.4612565009509
 30
0.0
 40
2.810700080684713
100
AcDbArc
 50
89.86010742187501
 51
105.3308563232422
  0
ARC
  5
308
330
1F
100
AcDbEntity
  8
A-3
  6
Continuous
 62
     4
370
     9
100
AcDbCircle
 10
341.6400545866283
 20
-36.4612565009509
 30
0.0
 40
2.810700080684713
100
AcDbArc
 50
74.66914367675783
 51
90.139892578125
  0
ARC
  5
309
330
1F
100
AcDbEntity
  8
A-3
  6
Continuous
 62
     4
370
     9
100
AcDbCircle
 10
341.6400545866283
 20
-37.7113242523308
 30
0.0
 40
2.810700080684713
100
AcDbArc
 50
74.66914367675783
 51
90.139892578125
  0
ARC
  5
30A
330
1F
100
AcDbEntity
  8
A-3
  6
Continuous
 62
     4
370
     9
100
AcDbCircle
 10
339.6264694333946
 20
-37.7113242523308
 30
0.0
 40
2.810700080684713
100
AcDbArc
 50
89.86010742187501
 51
105.3308563232422
  0
LINE
  5
30B
330
1F
100
AcDbEntity
  8
A-3
  6
Continuous
 62
     4
370
     9
100
AcDbLine
 10
340.1833763507763
 20
-52.69113844834764
 30
0.0
 11
340.1675973964565
 21
-52.62202765121047
 31
0.0
  0
LINE
  5
30C
330
1F
100
AcDbEntity
  8
A-3
  6
Continuous
 62
     4
370
     9
100
AcDbLine
 10
340.2111624507769
 20
-52.8099889094746
 30
0.0
 11
340.1833763507763
 21
-52.69113844834764
 31
0.0
  0
LINE
  5
30D
330
1F
100
AcDbEntity
  8
A-3
  6
Continuous
 62
     4
370
     9
100
AcDbLine
 10
340.2405624572954
 20
-52.92798913265345
 30
0.0
 11
340.2111624507769
 21
-52.8099889094746
 31
0.0
  0
LINE
  5
30E
330
1F
100
AcDbEntity
  8
A-3
  6
Continuous
 62
     4
370
     9
100
AcDbLine
 10
340.2725978301522
 20
-53.04460099260056
 30
0.0
 11
340.2405624572954
 21
-52.92798913265345
 31
0.0
  0
LINE
  5
30F
330
1F
100
AcDbEntity
  8
A-3
  6
Continuous
 62
     4
370
     9
100
AcDbLine
 10
340.3082900291691
 20
-53.1592863640323
 30
0.0
 11
340.2725978301522
 21
-53.04460099260056
 31
0.0
  0
LINE
  5
310
330
1F
100
AcDbEntity
  8
A-3
  6
Continuous
 62
     4
370
     9
100
AcDbLine
 10
340.348660514169
 20
-53.27150712166473
 30
0.0
 11
340.3082900291691
 21
-53.1592863640323
 31
0.0
  0
LINE
  5
311
330
1F
100
AcDbEntity
  8
A-3
  6
Continuous
 62
     4
370
     9
100
AcDbLine
 10
340.3746214943898
 20
-53.33525382570444
 30
0.0
 11
340.348660514169
 21
-53.27150712166473
 31
0.0
  0
LINE
  5
312
330
1F
100
AcDbEntity
  8
A-3
  6
Continuous
 62
     4
370
     9
100
AcDbLine
 10
340.4427071192789
 20
-53.47891029251728
 30
0.0
 11
340.3746214943898
 21
-53.33525382570444
 31
0.0
  0
LINE
  5
313
330
1F
100
AcDbEntity
  8
A-3
  6
Continuous
 62
     4
370
     9
100
AcDbLine
 10
340.5836983844723
 20
-53.71415971922305
 30
0.0
 11
340.4427071192789
 21
-53.47891029251728
 31
0.0
  0
LINE
  5
314
330
1F
100
AcDbEntity
  8
A-3
  6
Continuous
 62
     4
370
     9
100
AcDbLine
 10
340.7498428365592
 20
-53.93615794842803
 30
0.0
 11
340.5836983844723
 21
-53.71415971922305
 31
0.0
  0
LINE
  5
315
330
1F
100
AcDbEntity
  8
A-3
  6
Continuous
 62
     4
370
     9
100
AcDbLine
 10
340.9356485133357
 20
-54.14779825469553
 30
0.0
 11
340.7498428365592
 21
-53.93615794842803
 31
0.0
  0
LINE
  5
316
330
1F
100
AcDbEntity
  8
A-3
  6
Continuous
 62
     4
370
     9
100
AcDbLine
 10
341.1356234525955
 20
-54.35197391258883
 30
0.0
 11
340.9356485133357
 21
-54.14779825469553
 31
0.0
  0
LINE
  5
317
330
1F
100
AcDbEntity
  8
A-3
  6
Continuous
 62
     4
370
     9
100
AcDbLine
 10
341.3442756921394
 20
-54.5515781966718
 30
0.0
 11
341.1356234525955
 21
-54.35197391258883
 31
0.0
  0
LINE
  5
318
330
1F
100
AcDbEntity
  8
A-3
  6
Continuous
 62
     4
370
     9
100
AcDbLine
 10
341.4671058113721
 20
-54.66639417858845
 30
0.0
 11
341.3442756921394
 21
-54.5515781966718
 31
0.0
  0
LINE
  5
319
330
1F
100
AcDbEntity
  8
A-3
  6
Continuous
 62
     4
370
     9
100
AcDbLine
 10
339.6334059964239
 20
-37.90059332923423
 30
0.0
 11
333.30918813346
 21
-51.50215979111253
 31
0.0
  0
LINE
  5
31A
330
1F
100
AcDbEntity
  8
A-3
  6
Continuous
 62
     4
370
     9
100
AcDbLine
 10
333.30918813346
 20
-51.50215979111253
 30
0.0
 11
334.0337812714587
 21
-51.83958372611657
 31
0.0
  0
LINE
  5
31B
330
1F
100
AcDbEntity
  8
A-3
  6
Continuous
 62
     4
370
     9
100
AcDbLine
 10
341.0989266235687
 20
-52.7602492454851
 30
0.0
 11
341.0831476692489
 21
-52.69113844834764
 31
0.0
  0
LINE
  5
31C
330
1F
100
AcDbEntity
  8
A-3
  6
Continuous
 62
     4
370
     9
100
AcDbLine
 10
341.1267127235693
 20
-52.87909970661205
 30
0.0
 11
341.0989266235687
 21
-52.7602492454851
 31
0.0
  0
LINE
  5
31D
330
1F
100
AcDbEntity
  8
A-3
  6
Continuous
 62
     4
370
     9
100
AcDbLine
 10
341.1561127300878
 20
-52.99709992979091
 30
0.0
 11
341.1267127235693
 21
-52.87909970661205
 31
0.0
  0
LINE
  5
31E
330
1F
100
AcDbEntity
  8
A-3
  6
Continuous
 62
     4
370
     9
100
AcDbLine
 10
341.1881481029446
 20
-53.11371178973774
 30
0.0
 11
341.1561127300878
 21
-52.99709992979091
 31
0.0
  0
LINE
  5
31F
330
1F
100
AcDbEntity
  8
A-3
  6
Continuous
 62
     4
370
     9
100
AcDbLine
 10
341.2238403019627
 20
-53.22839716116947
 30
0.0
 11
341.1881481029446
 21
-53.11371178973774
 31
0.0
  0
LINE
  5
320
330
1F
100
AcDbEntity
  8
A-3
  6
Continuous
 62
     4
370
     9
100
AcDbLine
 10
341.2642107869614
 20
-53.3406179188019
 30
0.0
 11
341.2238403019627
 21
-53.22839716116947
 31
0.0
  0
LINE
  5
321
330
1F
100
AcDbEntity
  8
A-3
  6
Continuous
 62
     4
370
     9
100
AcDbLine
 10
341.2901717671833
 20
-53.40436462284161
 30
0.0
 11
341.2642107869614
 21
-53.3406179188019
 31
0.0
  0
LINE
  5
322
330
1F
100
AcDbEntity
  8
A-3
  6
Continuous
 62
     4
370
     9
100
AcDbLine
 10
341.3582573920713
 20
-53.54802108965445
 30
0.0
 11
341.2901717671833
 21
-53.40436462284161
 31
0.0
  0
LINE
  5
323
330
1F
100
AcDbEntity
  8
A-3
  6
Continuous
 62
     4
370
     9
100
AcDbLine
 10
341.4992486572659
 20
-53.7832705163605
 30
0.0
 11
341.3582573920713
 21
-53.54802108965445
 31
0.0
  0
LINE
  5
324
330
1F
100
AcDbEntity
  8
A-3
  6
Continuous
 62
     4
370
     9
100
AcDbLine
 10
341.6653931093527
 20
-54.0052687455652
 30
0.0
 11
341.4992486572659
 21
-53.7832705163605
 31
0.0
  0
LINE
  5
325
330
1F
100
AcDbEntity
  8
A-3
  6
Continuous
 62
     4
370
     9
100
AcDbLine
 10
341.8511987861269
 20
-54.2169090518327
 30
0.0
 11
341.6653931093527
 21
-54.0052687455652
 31
0.0
  0
LINE
  5
326
330
1F
100
AcDbEntity
  8
A-3
  6
Continuous
 62
     4
370
     9
100
AcDbLine
 10
342.051173725389
 20
-54.421084709726
 30
0.0
 11
341.8511987861269
 21
-54.2169090518327
 31
0.0
  0
LINE
  5
327
330
1F
100
AcDbEntity
  8
A-3
  6
Continuous
 62
     4
370
     9
100
AcDbLine
 10
342.2598259649307
 20
-54.62068899380925
 30
0.0
 11
342.051173725389
 21
-54.421084709726
 31
0.0
  0
LINE
  5
328
330
1F
100
AcDbEntity
  8
A-3
  6
Continuous
 62
     4
370
     9
100
AcDbLine
 10
342.3826560841645
 20
-54.73550497572562
 30
0.0
 11
342.2598259649307
 21
-54.62068899380925
 31
0.0
  0
LINE
  5
329
330
1F
100
AcDbEntity
  8
A-3
  6
Continuous
 62
     4
370
     9
100
AcDbLine
 10
342.3831117033585
 20
-94.0634627424561
 30
0.0
 11
342.3831117033585
 21
-54.73550497572562
 31
0.0
  0
LINE
  5
32A
330
1F
100
AcDbEntity
  8
A-3
  6
Continuous
 62
     4
370
     9
100
AcDbLine
 10
341.4841001555696
 20
-93.7685456678334
 30
0.0
 11
341.4841001555696
 21
-54.66639417858845
 31
0.0
  0
LINE
  5
32B
330
1F
100
AcDbEntity
  8
A-3
  6
Continuous
 62
     4
370
     9
100
AcDbLine
 10
-156.7018780901108
 20
6.012265972579174
 30
0.0
 11
-156.7018780901108
 21
95.33360582141182
 31
0.0
  0
LINE
  5
32C
330
1F
100
AcDbEntity
  8
A-3
  6
Continuous
 62
     4
370
     9
100
AcDbLine
 10
-157.5769782704316
 20
5.802028786518578
 30
0.0
 11
-157.5769782704316
 21
95.26449502427437
 31
0.0
  0
LINE
  5
32D
330
1F
100
AcDbEntity
  8
A-4
  6
Continuous
 62
     7
370
     9
100
AcDbLine
 10
341.7046231520308
 20
99.30552508987543
 30
0.0
 11
413.0517707660101
 21
222.8824097324043
 31
0.0
  0
LINE
  5
32E
330
1F
100
AcDbEntity
  8
A-4
  6
Continuous
 62
     7
370
     9
100
AcDbLine
 10
-520.3506804512463
 20
-19.32972995881445
 30
0.0
 11
-722.1486358330054
 21
-19.32972995881445
 31
0.0
  0
TEXT
  5
32F
330
1F
100
AcDbEntity
  8
A-4
  6
Continuous
 62
     2
370
     9
100
AcDbText
 10
-721.193681033057
 20
-41.08322470864265
 30
0.0
 40
15.24
  1
軟質ポリ塩化ビニル
 41
1.111111111111108
  7
ＭＳ ゴシック
100
AcDbText
  0
TEXT
  5
330
330
1F
100
AcDbEntity
  8
A-4
  6
Continuous
 62
     2
370
     9
100
AcDbText
 10
-721.193681033057
 20
-11.93623520898625
 30
0.0
 40
15.24
  1
パッキン
 41
1.09375
  7
ＭＳ ゴシック
100
AcDbText
  0
TEXT
  5
331
330
1F
100
AcDbEntity
  8
A-4
  6
Continuous
 62
     2
370
     9
100
AcDbText
 10
-455.5274064690383
 20
-11.93623520898625
 30
0.0
 40
15.24
  1
ナイロンプラグ　呼び８
 41
1.113636363636364
  7
ＭＳ ゴシック
100
AcDbText
  0
LINE
  5
332
330
1F
100
AcDbEntity
  8
A-4
  6
Continuous
 62
     7
370
     9
100
AcDbLine
 10
-209.6844058872273
 20
-19.32972995881445
 30
0.0
 11
-450.3780394187575
 21
-19.32972995881445
 31
0.0
  0
LINE
  5
333
330
1F
100
AcDbEntity
  8
A-4
  6
Continuous
 62
     7
370
     9
100
AcDbLine
 10
-170.6058325282862
 20
-244.3579786534161
 30
0.0
 11
-371.2446249341244
 21
-244.3579786534161
 31
0.0
  0
TEXT
  5
334
330
1F
100
AcDbEntity
  8
A-4
  6
Continuous
 62
     2
370
     9
100
AcDbText
 10
-371.4488331100972
 20
-266.1114734032442
 30
0.0
 40
15.24
  1
軟質ポリ塩化ビニル
 41
1.111111111111111
  7
ＭＳ ゴシック
100
AcDbText
  0
TEXT
  5
335
330
1F
100
AcDbEntity
  8
A-4
  6
Continuous
 62
     2
370
     9
100
AcDbText
 10
-371.4488331100972
 20
-236.9644839035878
 30
0.0
 40
15.24
  1
補助シート：t=0.9
 41
1.117647058823529
  7
ＭＳ ゴシック
100
AcDbText
  0
LINE
  5
336
330
1F
100
AcDbEntity
  8
A-4
  6
Continuous
 62
     7
370
     9
100
AcDbLine
 10
-94.45683485893142
 20
231.2948531928597
 30
0.0
 11
-370.3471146320723
 21
231.2948531928597
 31
0.0
  0
TEXT
  5
337
330
1F
100
AcDbEntity
  8
A-4
  6
Continuous
 62
     2
370
     9
100
AcDbText
 10
-364.0792015116492
 20
235.3740295824359
 30
0.0
 40
15.24
  1
ドリルねじ　M4×16　@450
 41
1.119791666666666
  7
ＭＳ ゴシック
100
AcDbText
  0
TEXT
  5
338
330
1F
100
AcDbEntity
  8
A-4
  6
Continuous
 62
     2
370
     9
100
AcDbText
 10
-359.8747723132971
 20
210.1681576707968
 30
0.0
 40
15.24
  1
SUS
 41
1.083333333333333
  7
ＭＳ ゴシック
100
AcDbText
  0
TEXT
  5
339
330
1F
100
AcDbEntity
  8
A-4
  6
Continuous
 62
     2
370
     9
100
AcDbText
 10
60.44554854441785
 20
238.6883479426879
 30
0.0
 40
15.24
  1
カバー：t=2.0
 41
1.115384615384615
  7
ＭＳ ゴシック
100
AcDbText
  0
LINE
  5
33A
330
1F
100
AcDbEntity
  8
A-4
  6
Continuous
 62
     7
370
     9
100
AcDbLine
 10
206.2885491262287
 20
231.2948531928597
 30
0.0
 11
52.82206362615952
 21
231.2948531928597
 31
0.0
  0
TEXT
  5
33B
330
1F
100
AcDbEntity
  8
A-4
  6
Continuous
 62
     2
370
     9
100
AcDbText
 10
60.44554854441785
 20
209.5413584430315
 30
0.0
 40
15.24
  1
アルミ
 41
1.083333333333333
  7
ＭＳ ゴシック
100
AcDbText
  0
LINE
  5
33C
330
1F
100
AcDbEntity
  8
A-4
  6
Continuous
 62
     7
370
     9
100
AcDbLine
 10
207.8026343608241
 20
40.99618676201029
 30
0.0
 11
15.46870199949325
 21
40.99618676201029
 31
0.0
  0
TEXT
  5
33D
330
1F
100
AcDbEntity
  8
A-4
  6
Continuous
 62
     2
370
     9
100
AcDbText
 10
18.61372835154924
 20
49.07939756389624
 30
0.0
 40
15.24
  1
ホルダー　＠４５０
 41
1.111111111111111
  7
ＭＳ ゴシック
100
AcDbText
  0
TEXT
  5
33E
330
1F
100
AcDbEntity
  8
A-4
  6
Continuous
 62
     2
370
     9
100
AcDbText
 10
20.10608513796115
 20
19.24269201218209
 30
0.0
 40
15.24
  1
A6063S､SUS304
 41
1.115384615384615
  7
ＭＳ ゴシック
100
AcDbText
  0
LINE
  5
33F
330
1F
100
AcDbEntity
  8
A-6
  6
Continuous
 62
     6
370
     5
100
AcDbLine
 10
-585.3638473068959
 20
5.386805040215465
 30
0.0
 11
-455.5415710272535
 21
135.2090813198576
 31
0.0
  0
LINE
  5
340
330
1F
100
AcDbEntity
  8
A-6
  6
Continuous
 62
     6
370
     5
100
AcDbLine
 10
-578.2927794950292
 20
5.386805040215465
 30
0.0
 11
-448.4705032153869
 21
135.2090813198576
 31
0.0
  0
LINE
  5
341
330
1F
100
AcDbEntity
  8
A-6
  6
Continuous
 62
     6
370
     5
100
AcDbLine
 10
-571.2217116831625
 20
5.386805040215465
 30
0.0
 11
-441.3994354035202
 21
135.2090813198576
 31
0.0
  0
LINE
  5
342
330
1F
100
AcDbEntity
  8
A-6
  6
Continuous
 62
     6
370
     5
100
AcDbLine
 10
-422.7922939197808
 20
-199.7371677896727
 30
0.0
 11
-260.0753911836659
 21
-37.02026505355772
 31
0.0
  0
LINE
  5
343
330
1F
100
AcDbEntity
  8
A-6
  6
Continuous
 62
     6
370
     5
100
AcDbLine
 10
-436.934429543513
 20
-199.7371677896716
 30
0.0
 11
-273.5249094784734
 21
-36.32764772463197
 31
0.0
  0
LINE
  5
344
330
1F
100
AcDbEntity
  8
A-6
  6
Continuous
 62
     6
370
     5
100
AcDbLine
 10
-429.8633617316469
 20
-199.7371677896721
 30
0.0
 11
-266.4538416666068
 21
-36.32764772463197
 31
0.0
  0
LINE
  5
345
330
1F
100
AcDbEntity
  8
A-6
  6
Continuous
 62
     6
370
     5
100
AcDbLine
 10
-695.6555317236621
 20
-104.9048793765503
 30
0.0
 11
-646.9753069754291
 21
-56.22465462831769
 31
0.0
  0
LINE
  5
346
330
1F
100
AcDbEntity
  8
A-6
  6
Continuous
 62
     6
370
     5
100
AcDbLine
 10
-695.6555317236609
 20
-111.9759471884164
 30
0.0
 11
-639.9042391635628
 21
-56.22465462831769
 31
0.0
  0
LINE
  5
347
330
1F
100
AcDbEntity
  8
A-6
  6
Continuous
 62
     6
370
     5
100
AcDbLine
 10
-695.6555317236604
 20
-119.0470150002824
 30
0.0
 11
-632.8331713516957
 21
-56.22465462831769
 31
0.0
  0
LINE
  5
348
330
1F
100
AcDbEntity
  8
A-6
  6
Continuous
 62
     6
370
     5
100
AcDbLine
 10
-211.6079194617922
 20
11.44720666831594
 30
0.0
 11
-157.6008896379003
 21
65.45423649220768
 31
0.0
  0
LINE
  5
349
330
1F
100
AcDbEntity
  8
A-6
  6
Continuous
 62
     6
370
     5
100
AcDbLine
 10
-218.6789872736588
 20
11.44720666831594
 30
0.0
 11
-157.6008896379008
 21
72.52530430407379
 31
0.0
  0
LINE
  5
34A
330
1F
100
AcDbEntity
  8
A-6
  6
Continuous
 62
     6
370
     5
100
AcDbLine
 10
-225.7500550855255
 20
11.44720666831594
 30
0.0
 11
-157.6008896378991
 21
79.59637211594202
 31
0.0
  0
LINE
  5
34B
330
1F
100
AcDbEntity
  8
A-4
  6
Continuous
 62
     7
370
     9
100
AcDbLine
 10
120.1892459563412
 20
-63.90168435917148
 30
0.0
 11
-79.56610748469728
 21
-63.90168435917148
 31
0.0
  0
TEXT
  5
34C
330
1F
100
AcDbEntity
  8
A-4
  6
Continuous
 62
     2
370
     9
100
AcDbText
 10
-81.3459978070722
 20
-58.83830699993037
 30
0.0
 40
15.24
  1
シート受けフレーム
 41
1.111111111111111
  7
ＭＳ ゴシック
100
AcDbText
  0
TEXT
  5
34D
330
1F
100
AcDbEntity
  8
A-4
  6
Continuous
 62
     2
370
     9
100
AcDbText
 10
-77.4446383997843
 20
-82.68973001902108
 30
0.0
 40
15.24
  1
A6063S
 41
1.104166666666667
  7
ＭＳ ゴシック
100
AcDbText
  0
TEXT
  5
34E
330
1F
100
AcDbEntity
  8
A-4
  6
Continuous
 62
     2
370
     9
100
AcDbText
 10
138.5338061724282
 20
-38.95886927892548
 30
0.0
 40
15.24
  1
スプリング
 41
1.1
  7
ＭＳ ゴシック
100
AcDbText
  0
LINE
  5
34F
330
1F
100
AcDbEntity
  8
A-4
  6
Continuous
 62
     7
370
     9
100
AcDbLine
 10
249.3768067542392
 20
-46.35236402875353
 30
0.0
 11
139.7310520371246
 21
-46.35236402875353
 31
0.0
  0
TEXT
  5
350
330
1F
100
AcDbEntity
  8
A-4
  6
Continuous
 62
     2
370
     9
100
AcDbText
 10
141.2332186466976
 20
-68.1058587785817
 30
0.0
 40
15.24
  1
SUS304WPB
 41
1.111111111111111
  7
ＭＳ ゴシック
100
AcDbText
  0
TEXT
  5
351
330
1F
100
AcDbEntity
  8
A-4
  6
Continuous
 62
     2
370
     9
100
AcDbText
 10
421.7120775146731
 20
201.1289149825761
 30
0.0
 40
15.24
  1
A1100P
 41
1.104166666666667
  7
ＭＳ ゴシック
100
AcDbText
  0
TEXT
  5
352
330
1F
100
AcDbEntity
  8
A-4
  6
Continuous
 62
     2
370
     9
100
AcDbText
 10
419.6389330095093
 20
230.2759044822324
 30
0.0
 40
15.24
  1
位置決めフレーム：t=1.0
 41
1.119565217391304
  7
ＭＳ ゴシック
100
AcDbText
  0
LINE
  5
353
330
1F
100
AcDbEntity
  8
A-4
  6
Continuous
 62
     7
370
     9
100
AcDbLine
 10
677.9819335913204
 20
222.8824097324043
 30
0.0
 11
413.0517707660101
 21
222.8824097324043
 31
0.0
  0
LINE
  5
354
330
1F
100
AcDbEntity
  8
A-4
  6
Continuous
 62
     7
370
     9
100
AcDbLine
 10
668.9664630449874
 20
-185.9965860867283
 30
0.0
 11
421.2036717491407
 21
-185.9965860867283
 31
0.0
  0
TEXT
  5
355
330
1F
100
AcDbEntity
  8
A-4
  6
Continuous
 62
     2
370
     9
100
AcDbText
 10
423.1234624631765
 20
-178.6030913369001
 30
0.0
 40
15.24
  1
ナイロンプラグ　呼び８
 41
1.113636363636364
  7
ＭＳ ゴシック
100
AcDbText
  0
TEXT
  5
356
330
1F
100
AcDbEntity
  8
A-4
  6
Continuous
 62
     2
370
     9
100
AcDbText
 10
449.324472630803
 20
-122.9996726916353
 30
0.0
 40
15.24
  1
ナイロンプラグ　呼び８
 41
1.113636363636364
  7
ＭＳ ゴシック
100
AcDbText
  0
LINE
  5
357
330
1F
100
AcDbEntity
  8
A-5
  6
Continuous
 62
     7
370
     9
100
AcDbLine
 10
357.1530458782766
 20
60.98815791848065
 30
0.0
 11
449.4339929882241
 21
-130.3931674414634
 31
0.0
  0
LINE
  5
358
330
1F
100
AcDbEntity
  8
A-4
  6
Continuous
 62
     7
370
     9
100
AcDbLine
 10
695.167473212614
 20
-130.3931674414634
 30
0.0
 11
449.4339929882241
 21
-130.3931674414634
 31
0.0
  0
TEXT
  5
359
330
1F
100
AcDbEntity
  8
A-4
  6
Continuous
 62
     2
370
   211
100
AcDbText
 10
-73.86688829664152
 20
304.3330901540538
 30
0.0
 40
15.24
  1
800
 41
1.083333333333333
  7
ＭＳ ゴシック
100
AcDbText
  0
TEXT
  5
35A
330
1F
100
AcDbEntity
  8
A-4
  6
Continuous
 62
     2
370
   211
100
AcDbText
 10
76.14111103272933
 20
-316.9716835858734
 30
0.0
 40
15.24
  1
500
 41
1.083333333333333
  7
ＭＳ ゴシック
100
AcDbText
  0
TEXT
  5
35B
330
1F
100
AcDbEntity
  8
A-4
  6
Continuous
 62
     2
370
   211
100
AcDbText
 10
251.1331117033585
 20
-246.6486921356703
 30
0.0
 40
15.24
  1
150
 41
1.083333333333333
  7
ＭＳ ゴシック
100
AcDbText
  0
TEXT
  5
35C
330
1F
100
AcDbEntity
  8
A-4
  6
Continuous
 62
     2
370
   211
100
AcDbText
 10
-615.6261405164558
 20
139.0840965776765
 30
0.0
 40
15.24
  1
29
 50
90.0
 41
1.0625
  7
ＭＳ ゴシック
100
AcDbText
  0
TEXT
  5
35D
330
1F
100
AcDbEntity
  8
A-4
  6
Continuous
 62
     2
370
   211
100
AcDbText
 10
-615.6261405164558
 20
89.58408131985746
 30
0.0
 40
15.24
  1
70
 50
90.0
 41
1.0625
  7
ＭＳ ゴシック
100
AcDbText
  0
TEXT
  5
35E
330
1F
100
AcDbEntity
  8
A-4
  6
Continuous
 62
     2
370
   211
100
AcDbText
 10
456.4991841148332
 20
139.0840965776763
 30
0.0
 40
15.24
  1
29
 50
90.0
 41
1.0625
  7
ＭＳ ゴシック
100
AcDbText
  0
TEXT
  5
35F
330
1F
100
AcDbEntity
  8
A-4
  6
Continuous
 62
     2
370
   211
100
AcDbText
 10
456.9991841148332
 20
30.95908131985749
 30
0.0
 40
15.24
  1
176
 50
90.0
 41
1.083333333333333
  7
ＭＳ ゴシック
100
AcDbText
  0
LINE
  5
360
330
1F
100
AcDbEntity
  8
A-4
  6
Continuous
 62
     7
370
     9
100
AcDbLine
 10
429.0159704200862
 20
135.2090813198575
 30
0.0
 11
429.0159704200862
 21
65.20908131985746
 31
0.0
  0
LWPOLYLINE
  5
361
330
1F
100
AcDbEntity
  8
A-4
  6
Continuous
 62
     7
370
     9
100
AcDbPolyline
 90
        4
 70
     1
 43
1.0
 10
429.5159704200861
 20
135.2090813198575
 42
0.4142135623731
 10
429.0159704200862
 20
135.7090813198575
 42
0.4142135623731
 10
428.5159704200862
 20
135.2090813198575
 42
0.4142135623731
 10
429.0159704200862
 20
134.7090813198574
 42
0.4142135623731
  0
LWPOLYLINE
  5
362
330
1F
100
AcDbEntity
  8
A-4
  6
Continuous
 62
     7
370
     9
100
AcDbPolyline
 90
        4
 70
     1
 43
1.0
 10
429.5159704200861
 20
65.20908131985746
 42
0.4142135623731
 10
429.0159704200862
 20
65.70908131985746
 42
0.4142135623731
 10
428.5159704200862
 20
65.20908131985746
 42
0.4142135623731
 10
429.0159704200862
 20
64.70908131985746
 42
0.4142135623731
  0
LINE
  5
363
330
1F
100
AcDbEntity
  8
A-4
  6
Continuous
 62
     7
370
     9
100
AcDbLine
 10
429.0159704200862
 20
65.20908131985746
 30
0.0
 11
394.2578370451554
 21
65.20908131985746
 31
0.0
  0
TEXT
  5
364
330
1F
100
AcDbEntity
  8
A-4
  6
Continuous
 62
     2
370
   211
100
AcDbText
 10
423.3544763785795
 20
89.58408131985746
 30
0.0
 40
15.24
  1
70
 50
90.0
 41
1.0625
  7
ＭＳ ゴシック
100
AcDbText
  0
LINE
  5
365
330
1F
100
AcDbEntity
  8
A-4
  6
Continuous
 62
     7
370
     9
100
AcDbLine
 10
498.0520134876991
 20
135.2090813198575
 30
0.0
 11
498.0520134876991
 21
-84.79091868014262
 31
0.0
  0
LWPOLYLINE
  5
366
330
1F
100
AcDbEntity
  8
A-4
  6
Continuous
 62
     7
370
     9
100
AcDbPolyline
 90
        4
 70
     1
 43
1.0
 10
498.552013487699
 20
135.2090813198575
 42
0.4142135623731
 10
498.0520134876991
 20
135.7090813198575
 42
0.4142135623731
 10
497.5520134876991
 20
135.2090813198575
 42
0.4142135623731
 10
498.0520134876991
 20
134.7090813198574
 42
0.4142135623731
  0
LWPOLYLINE
  5
367
330
1F
100
AcDbEntity
  8
A-4
  6
Continuous
 62
     7
370
     9
100
AcDbPolyline
 90
        4
 70
     1
 43
1.0
 10
498.552013487699
 20
-84.79091868014262
 42
0.4142135623731
 10
498.0520134876991
 20
-84.29091868014261
 42
0.4142135623731
 10
497.5520134876991
 20
-84.79091868014262
 42
0.4142135623731
 10
498.0520134876991
 20
-85.29091868014262
 42
0.4142135623731
  0
LINE
  5
368
330
1F
100
AcDbEntity
  8
A-4
  6
Continuous
 62
     7
370
     9
100
AcDbLine
 10
498.0520134876991
 20
135.2090813198575
 30
0.0
 11
461.4255879571928
 21
135.2090813198575
 31
0.0
  0
LINE
  5
369
330
1F
100
AcDbEntity
  8
A-4
  6
Continuous
 62
     7
370
     9
100
AcDbLine
 10
498.0520134876991
 20
-84.79091868014262
 30
0.0
 11
392.0073216795543
 21
-84.79091868014262
 31
0.0
  0
TEXT
  5
36A
330
1F
100
AcDbEntity
  8
A-4
  6
Continuous
 62
     2
370
   211
100
AcDbText
 10
492.3905194461924
 20
8.959081319857463
 30
0.0
 40
15.24
  1
220
 50
90.0
 41
1.083333333333333
  7
ＭＳ ゴシック
100
AcDbText
  0
LINE
  5
36B
330
1F
100
AcDbEntity
  8
A-6
  6
Continuous
 62
     6
370
     5
100
AcDbLine
 10
733.3531039936734
 20
135.2090813198575
 30
0.0
 11
342.3990860434048
 21
135.2090813198575
 31
0.0
  0
LINE
  5
36C
330
1F
100
AcDbEntity
  8
A-6
  6
Continuous
 62
     6
370
     5
100
AcDbLine
 10
342.3831117033578
 20
-179.1697234069608
 30
0.0
 11
656.7619164301759
 21
135.2090813198575
 31
0.0
  0
LINE
  5
36D
330
1F
100
AcDbEntity
  8
A-6
  6
Continuous
 62
     6
370
     5
100
AcDbLine
 10
342.3831117033575
 20
-172.0986555950947
 30
0.0
 11
649.6908486183092
 21
135.2090813198574
 31
0.0
  0
LINE
  5
36E
330
1F
100
AcDbEntity
  8
A-6
  6
Continuous
 62
     6
370
     5
100
AcDbLine
 10
342.3831117033586
 20
-165.027587783236
 30
0.0
 11
642.6197808064503
 21
135.2090813198575
 31
0.0
  0
LINE
  5
36F
330
1F
100
AcDbEntity
  8
A-6
  6
Continuous
 62
     6
370
     5
100
AcDbLine
 10
342.3831117033585
 20
-199.7371677896728
 30
0.0
 11
342.3831117033585
 21
135.2090813198575
 31
0.0
  0
LINE
  5
370
330
1F
100
AcDbEntity
  8
A-5
  6
Continuous
 62
     7
370
     9
100
AcDbLine
 10
342.3831117033585
 20
298.0247160764929
 30
0.0
 11
342.3831117033585
 21
159.9717962987372
 31
0.0
  0
LINE
  5
371
330
1F
100
AcDbEntity
  8
A-4
  6
Continuous
 62
     7
370
     9
100
AcDbLine
 10
462.1606781563399
 20
164.2091118354953
 30
0.0
 11
337.6794614569756
 21
164.2091118354953
 31
0.0
  0
ENDSEC
  0
SECTION
  2
OBJECTS
  0
DICTIONARY
  5
C
330
0
100
AcDbDictionary
281
     1
  3
ACAD_DETAILVIEWSTYLE
350
3B7
  3
ACAD_GROUP
350
D
  3
ACAD_LAYOUT
350
1A
  3
ACAD_MATERIAL
350
43
  3
ACAD_MLEADERSTYLE
350
6B
  3
ACAD_MLINESTYLE
350
17
  3
ACAD_PLOTSETTINGS
350
19
  3
ACAD_PLOTSTYLENAME
350
E
  3
ACAD_SCALELIST
350
47
  3
ACAD_SECTIONVIEWSTYLE
350
3B8
  3
ACAD_TABLESTYLE
350
69
  3
ACAD_VISUALSTYLE
350
2A
  3
ACDB_RECOMPOSE_DATA
350
3B4
  3
AcDbVariableDictionary
350
374
  0
DICTIONARY
  5
372
330
8
100
AcDbDictionary
280
     1
281
     1
  3
ACAD_XREC_ROUNDTRIP
360
373
  0
DICTIONARY
  5
3B7
102
{ACAD_REACTORS
330
C
102
}
330
C
100
AcDbDictionary
281
     1
  0
DICTIONARY
  5
D
102
{ACAD_REACTORS
330
C
102
}
330
C
100
AcDbDictionary
281
     1
  0
DICTIONARY
  5
1A
102
{ACAD_REACTORS
330
C
102
}
330
C
100
AcDbDictionary
281
     1
  3
Layout1
350
1E
  3
Layout2
350
26
  3
Model
350
22
  0
DICTIONARY
  5
43
102
{ACAD_REACTORS
330
C
102
}
330
C
100
AcDbDictionary
281
     1
  3
ByBlock
350
45
  3
ByLayer
350
44
  3
Global
350
46
  0
DICTIONARY
  5
6B
102
{ACAD_REACTORS
330
C
102
}
330
C
100
AcDbDictionary
281
     1
  3
Standard
350
6C
  0
DICTIONARY
  5
17
102
{ACAD_REACTORS
330
C
102
}
330
C
100
AcDbDictionary
281
     1
  3
Standard
350
18
  0
DICTIONARY
  5
19
102
{ACAD_REACTORS
330
C
102
}
330
C
100
AcDbDictionary
281
     1
  0
ACDBDICTIONARYWDFLT
  5
E
102
{ACAD_REACTORS
330
C
102
}
330
C
100
AcDbDictionary
281
     1
  3
Normal
350
F
100
AcDbDictionaryWithDefault
340
F
  0
DICTIONARY
  5
47
102
{ACAD_REACTORS
330
C
102
}
330
C
100
AcDbDictionary
281
     1
  3
A0
350
48
  3
A1
350
49
  3
A2
350
4A
  3
A3
350
4B
  3
A4
350
4C
  3
A5
350
4D
  3
A6
350
4E
  3
A7
350
4F
  3
A8
350
50
  3
A9
350
51
  3
B0
350
52
  3
B1
350
53
  3
B2
350
54
  3
B3
350
55
  3
B4
350
56
  3
B5
350
57
  3
B6
350
58
  3
B7
350
59
  3
B8
350
5A
  3
B9
350
5B
  3
C0
350
5C
  3
C1
350
5D
  3
C2
350
5E
  3
C3
350
5F
  3
C4
350
60
  3
C5
350
61
  3
C6
350
62
  3
C7
350
63
  3
C8
350
64
  3
C9
350
65
  3
D0
350
66
  3
D1
350
67
  3
D2
350
68
  0
DICTIONARY
  5
3B8
102
{ACAD_REACTORS
330
C
102
}
330
C
100
AcDbDictionary
281
     1
  0
DICTIONARY
  5
69
102
{ACAD_REACTORS
330
C
102
}
330
C
100
AcDbDictionary
281
     1
  3
Standard
350
6A
  0
DICTIONARY
  5
2A
102
{ACAD_REACTORS
330
C
102
}
330
C
100
AcDbDictionary
281
     1
  3
2dWireframe
350
2F
  3
Basic
350
32
  3
Brighten
350
36
  3
ColorChange
350
3A
  3
Conceptual
350
34
  3
Dim
350
35
  3
EdgeColorOff
350
3D
  3
Facepattern
350
39
  3
Flat
350
2B
  3
FlatWithEdges
350
2C
  3
Gouraud
350
2D
  3
GouraudWithEdges
350
2E
  3
Hidden
350
31
  3
JitterOff
350
3B
  3
Linepattern
350
38
  3
OverhangOff
350
3C
  3
Realistic
350
33
  3
Shaded
350
42
  3
Shaded with edges
350
41
  3
Shades of Gray
350
3E
  3
Sketchy
350
3F
  3
Thicken
350
37
  3
Wireframe
350
30
  3
X-Ray
350
40
  0
XRECORD
  5
3B4
102
{ACAD_REACTORS
330
C
102
}
330
C
100
AcDbXrecord
280
     1
 90
        1
330
6A
  0
DICTIONARY
  5
374
102
{ACAD_REACTORS
330
C
102
}
330
C
100
AcDbDictionary
281
     1
  3
CANNOSCALE
350
375
  3
CENTEREXE
350
3B9
  3
CENTERLTYPEFILE
350
3BA
  3
CMLEADERSTYLE
350
3B6
  3
CTABLESTYLE
350
3B5
  3
MSLTSCALE
350
376
  3
XCLIPFRAME
350
377
  0
XRECORD
  5
373
102
{ACAD_REACTORS
330
372
102
}
330
372
100
AcDbXrecord
280
     1
102
VTR_0.000_0.000_1.000_1.000_VISUALSTYLE
340
2F
102
VTR_0.000_0.000_1.000_1.000_GRIDDISPLAY
 70
     3
102
VTR_0.000_0.000_1.000_1.000_GRIDMAJOR
 70
     5
102
VTR_0.000_0.000_1.000_1.000_DEFAULTLIGHTING
280
     1
102
VTR_0.000_0.000_1.000_1.000_DEFAULTLIGHTINGTYPE
 70
     1
102
VTR_0.000_0.000_1.000_1.000_BRIGHTNESS
141
0.0
102
VTR_0.000_0.000_1.000_1.000_CONTRAST
142
0.0
  0
LAYOUT
  5
1E
102
{ACAD_REACTORS
330
1A
102
}
330
1A
100
AcDbPlotSettings
  1

  2
none_device
  4

  6

 40
0.0
 41
0.0
 42
0.0
 43
0.0
 44
0.0
 45
0.0
 46
0.0
 47
0.0
 48
0.0
 49
0.0
140
0.0
141
0.0
142
1.0
143
1.0
 70
   688
 72
     1
 73
     0
 74
     5
  7

 75
    16
 76
     0
 77
     5
 78
   300
147
1.0
148
0.0
149
0.0
100
AcDbLayout
  1
Layout1
 70
     1
 71
     1
 10
0.0
 20
0.0
 11
420.0
 21
297.0
 12
0.0
 22
0.0
 32
0.0
 14
1.000000000000000E+20
 24
1.000000000000000E+20
 34
1.000000000000000E+20
 15
-1.000000000000000E+20
 25
-1.000000000000000E+20
 35
-1.000000000000000E+20
146
0.0
 13
0.0
 23
0.0
 33
0.0
 16
1.0
 26
0.0
 36
0.0
 17
0.0
 27
1.0
 37
0.0
 76
     0
330
1B
  0
LAYOUT
  5
26
102
{ACAD_REACTORS
330
1A
102
}
330
1A
100
AcDbPlotSettings
  1

  2
none_device
  4

  6

 40
0.0
 41
0.0
 42
0.0
 43
0.0
 44
0.0
 45
0.0
 46
0.0
 47
0.0
 48
0.0
 49
0.0
140
0.0
141
0.0
142
1.0
143
1.0
 70
   688
 72
     1
 73
     0
 74
     5
  7

 75
    16
 76
     0
 77
     5
 78
   300
147
1.0
148
0.0
149
0.0
100
AcDbLayout
  1
Layout2
 70
     1
 71
     2
 10
0.0
 20
0.0
 11
0.0
 21
0.0
 12
0.0
 22
0.0
 32
0.0
 14
0.0
 24
0.0
 34
0.0
 15
0.0
 25
0.0
 35
0.0
146
0.0
 13
0.0
 23
0.0
 33
0.0
 16
1.0
 26
0.0
 36
0.0
 17
0.0
 27
1.0
 37
0.0
 76
     0
330
23
  0
LAYOUT
  5
22
102
{ACAD_REACTORS
330
1A
102
}
330
1A
100
AcDbPlotSettings
  1

  2
none_device
  4
Letter_(8.50_x_11.00_Inches)
  6

 40
6.35
 41
6.35
 42
6.35000508
 43
6.35000508
 44
215.9
 45
279.4
 46
0.0
 47
0.0
 48
0.0
 49
0.0
140
0.0
141
0.0
142
1.0
143
1.0
 70
  1712
 72
     1
 73
     0
 74
     0
  7

 75
     0
 76
     0
 77
     5
 78
   300
147
1.0
148
0.0
149
0.0
100
AcDbLayout
  1
Model
 70
     1
 71
     0
 10
-1050.0
 20
-742.5
 11
1050.0
 21
742.5
 12
0.0
 22
0.0
 32
0.0
 14
-1050.0
 24
-742.5
 34
0.0
 15
1050.0
 25
742.5
 35
0.0
146
0.0
 13
0.0
 23
0.0
 33
0.0
 16
1.0
 26
0.0
 36
0.0
 17
0.0
 27
1.0
 37
0.0
 76
     0
330
1F
331
29
  0
MATERIAL
  5
45
102
{ACAD_REACTORS
330
43
102
}
102
{ACAD_XDICTIONARY
360
3AA
102
}
330
43
100
AcDbMaterial
  1
ByBlock
  0
MATERIAL
  5
44
102
{ACAD_REACTORS
330
43
102
}
102
{ACAD_XDICTIONARY
360
3A8
102
}
330
43
100
AcDbMaterial
  1
ByLayer
  0
MATERIAL
  5
46
102
{ACAD_REACTORS
330
43
102
}
102
{ACAD_XDICTIONARY
360
3AC
102
}
330
43
100
AcDbMaterial
  1
Global
  0
MLEADERSTYLE
  5
6C
102
{ACAD_REACTORS
330
6B
102
}
102
{ACAD_XDICTIONARY
360
3B2
102
}
330
6B
100
AcDbMLeaderStyle
170
     2
171
     1
172
     0
 90
        2
 40
0.0
 41
0.0
173
     1
 91
-1056964608
340
14
 92
       -2
290
     1
 42
2.0
291
     1
 43
8.0
  3
Standard
341
0
 44
4.0
300

342
11
174
     1
178
     6
175
     1
176
     0
 93
-1056964608
 45
4.0
292
     0
297
     0
 46
4.0
343
0
 94
-1056964608
 47
1.0
 49
1.0
140
1.0
293
     1
141
0.0
294
     1
177
     0
142
1.0
295
     0
296
     0
143
3.75
1001
ACAD_MLEADERVER
1070
     2
  0
MLINESTYLE
  5
18
102
{ACAD_REACTORS
330
17
102
}
330
17
100
AcDbMlineStyle
  2
Standard
 70
     0
  3

 62
   256
 51
90.0
 52
90.0
 71
     2
 49
0.5
 62
   256
  6
BYLAYER
 49
-0.5
 62
   256
  6
BYLAYER
  0
ACDBPLACEHOLDER
  5
F
102
{ACAD_REACTORS
330
E
102
}
330
E
  0
SCALE
  5
48
102
{ACAD_REACTORS
330
47
102
}
330
47
100
AcDbScale
 70
     0
300
1:1
140
1.0
141
1.0
290
     1
  0
SCALE
  5
49
102
{ACAD_REACTORS
330
47
102
}
330
47
100
AcDbScale
 70
     0
300
1:2
140
1.0
141
2.0
290
     0
  0
SCALE
  5
4A
102
{ACAD_REACTORS
330
47
102
}
330
47
100
AcDbScale
 70
     0
300
1:4
140
1.0
141
4.0
290
     0
  0
SCALE
  5
4B
102
{ACAD_REACTORS
330
47
102
}
330
47
100
AcDbScale
 70
     0
300
1:5
140
1.0
141
5.0
290
     0
  0
SCALE
  5
4C
102
{ACAD_REACTORS
330
47
102
}
330
47
100
AcDbScale
 70
     0
300
1:8
140
1.0
141
8.0
290
     0
  0
SCALE
  5
4D
102
{ACAD_REACTORS
330
47
102
}
330
47
100
AcDbScale
 70
     0
300
1:10
140
1.0
141
10.0
290
     0
  0
SCALE
  5
4E
102
{ACAD_REACTORS
330
47
102
}
330
47
100
AcDbScale
 70
     0
300
1:16
140
1.0
141
16.0
290
     0
  0
SCALE
  5
4F
102
{ACAD_REACTORS
330
47
102
}
330
47
100
AcDbScale
 70
     0
300
1:20
140
1.0
141
20.0
290
     0
  0
SCALE
  5
50
102
{ACAD_REACTORS
330
47
102
}
330
47
100
AcDbScale
 70
     0
300
1:30
140
1.0
141
30.0
290
     0
  0
SCALE
  5
51
102
{ACAD_REACTORS
330
47
102
}
330
47
100
AcDbScale
 70
     0
300
1:40
140
1.0
141
40.0
290
     0
  0
SCALE
  5
52
102
{ACAD_REACTORS
330
47
102
}
330
47
100
AcDbScale
 70
     0
300
1:50
140
1.0
141
50.0
290
     0
  0
SCALE
  5
53
102
{ACAD_REACTORS
330
47
102
}
330
47
100
AcDbScale
 70
     0
300
1:100
140
1.0
141
100.0
290
     0
  0
SCALE
  5
54
102
{ACAD_REACTORS
330
47
102
}
330
47
100
AcDbScale
 70
     0
300
2:1
140
2.0
141
1.0
290
     0
  0
SCALE
  5
55
102
{ACAD_REACTORS
330
47
102
}
330
47
100
AcDbScale
 70
     0
300
4:1
140
4.0
141
1.0
290
     0
  0
SCALE
  5
56
102
{ACAD_REACTORS
330
47
102
}
330
47
100
AcDbScale
 70
     0
300
8:1
140
8.0
141
1.0
290
     0
  0
SCALE
  5
57
102
{ACAD_REACTORS
330
47
102
}
330
47
100
AcDbScale
 70
     0
300
10:1
140
10.0
141
1.0
290
     0
  0
SCALE
  5
58
102
{ACAD_REACTORS
330
47
102
}
330
47
100
AcDbScale
 70
     0
300
100:1
140
100.0
141
1.0
290
     0
  0
SCALE
  5
59
102
{ACAD_REACTORS
330
47
102
}
330
47
100
AcDbScale
 70
     0
300
1/128" = 1'-0"
140
0.0078125
141
12.0
290
     0
  0
SCALE
  5
5A
102
{ACAD_REACTORS
330
47
102
}
330
47
100
AcDbScale
 70
     0
300
1/64" = 1'-0"
140
0.015625
141
12.0
290
     0
  0
SCALE
  5
5B
102
{ACAD_REACTORS
330
47
102
}
330
47
100
AcDbScale
 70
     0
300
1/32" = 1'-0"
140
0.03125
141
12.0
290
     0
  0
SCALE
  5
5C
102
{ACAD_REACTORS
330
47
102
}
330
47
100
AcDbScale
 70
     0
300
1/16" = 1'-0"
140
0.0625
141
12.0
290
     0
  0
SCALE
  5
5D
102
{ACAD_REACTORS
330
47
102
}
330
47
100
AcDbScale
 70
     0
300
3/32" = 1'-0"
140
0.09375
141
12.0
290
     0
  0
SCALE
  5
5E
102
{ACAD_REACTORS
330
47
102
}
330
47
100
AcDbScale
 70
     0
300
1/8" = 1'-0"
140
0.125
141
12.0
290
     0
  0
SCALE
  5
5F
102
{ACAD_REACTORS
330
47
102
}
330
47
100
AcDbScale
 70
     0
300
3/16" = 1'-0"
140
0.1875
141
12.0
290
     0
  0
SCALE
  5
60
102
{ACAD_REACTORS
330
47
102
}
330
47
100
AcDbScale
 70
     0
300
1/4" = 1'-0"
140
0.25
141
12.0
290
     0
  0
SCALE
  5
61
102
{ACAD_REACTORS
330
47
102
}
330
47
100
AcDbScale
 70
     0
300
3/8" = 1'-0"
140
0.375
141
12.0
290
     0
  0
SCALE
  5
62
102
{ACAD_REACTORS
330
47
102
}
330
47
100
AcDbScale
 70
     0
300
1/2" = 1'-0"
140
0.5
141
12.0
290
     0
  0
SCALE
  5
63
102
{ACAD_REACTORS
330
47
102
}
330
47
100
AcDbScale
 70
     0
300
3/4" = 1'-0"
140
0.75
141
12.0
290
     0
  0
SCALE
  5
64
102
{ACAD_REACTORS
330
47
102
}
330
47
100
AcDbScale
 70
     0
300
1" = 1'-0"
140
1.0
141
12.0
290
     0
  0
SCALE
  5
65
102
{ACAD_REACTORS
330
47
102
}
330
47
100
AcDbScale
 70
     0
300
1-1/2" = 1'-0"
140
1.5
141
12.0
290
     0
  0
SCALE
  5
66
102
{ACAD_REACTORS
330
47
102
}
330
47
100
AcDbScale
 70
     0
300
3" = 1'-0"
140
3.0
141
12.0
290
     0
  0
SCALE
  5
67
102
{ACAD_REACTORS
330
47
102
}
330
47
100
AcDbScale
 70
     0
300
6" = 1'-0"
140
6.0
141
12.0
290
     0
  0
SCALE
  5
68
102
{ACAD_REACTORS
330
47
102
}
330
47
100
AcDbScale
 70
     0
300
1'-0" = 1'-0"
140
12.0
141
12.0
290
     0
  0
TABLESTYLE
  5
6A
102
{ACAD_REACTORS
330
69
102
}
102
{ACAD_XDICTIONARY
360
3AE
102
}
330
69
100
AcDbTableStyle
  3
Standard
 70
     0
 71
     0
 40
0.06
 41
0.06
280
     0
281
     0
  7
Standard
140
4.5
170
     2
 62
     0
 63
   257
283
     0
274
    -2
284
     1
 64
     0
275
    -2
285
     1
 65
     0
276
    -2
286
     1
 66
     0
277
    -2
287
     1
 67
     0
278
    -2
288
     1
 68
     0
279
    -2
289
     1
 69
     0
  7
Standard
140
6.0
170
     5
 62
     0
 63
   257
283
     0
274
    -2
284
     1
 64
     0
275
    -2
285
     1
 65
     0
276
    -2
286
     1
 66
     0
277
    -2
287
     1
 67
     0
278
    -2
288
     1
 68
     0
279
    -2
289
     1
 69
     0
  7
Standard
140
4.5
170
     5
 62
     0
 63
   257
283
     0
274
    -2
284
     1
 64
     0
275
    -2
285
     1
 65
     0
276
    -2
286
     1
 66
     0
277
    -2
287
     1
 67
     0
278
    -2
288
     1
 68
     0
279
    -2
289
     1
 69
     0
  0
VISUALSTYLE
  5
2F
102
{ACAD_REACTORS
330
2A
102
}
102
{ACAD_XDICTIONARY
360
380
102
}
330
2A
100
AcDbVisualStyle
  2
2dWireframe
 70
     4
 71
     0
 72
     2
 73
     0
 90
        0
 40
0.6
 41
30.0
 62
     5
 63
     7
421
 16777215
 74
     1
 91
        4
 64
     7
 65
   257
 75
     1
175
     1
 42
1.0
 92
        0
 66
   257
 43
1.0
 76
     1
 77
     6
 78
     2
 67
     7
 79
     5
170
     0
171
     0
290
     0
174
     0
 93
        1
 44
0.0
173
     0
291
     0
 45
0.0
1001
ACAD
1000
AcDbSavedByObjectVersion
1070
     0
  0
VISUALSTYLE
  5
32
102
{ACAD_REACTORS
330
2A
102
}
102
{ACAD_XDICTIONARY
360
386
102
}
330
2A
100
AcDbVisualStyle
  2
Basic
 70
     7
 71
     1
 72
     0
 73
     1
 90
        0
 40
0.6
 41
30.0
 62
     5
 63
     7
421
 16777215
 74
     0
 91
        4
 64
     7
 65
   257
 75
     1
175
     1
 42
1.0
 92
        8
 66
     7
 43
1.0
 76
     1
 77
     6
 78
     2
 67
     7
 79
     5
170
     0
171
     0
290
     0
174
     0
 93
        1
 44
0.0
173
     0
291
     1
 45
0.0
1001
ACAD
1000
AcDbSavedByObjectVersion
1070
     0
  0
VISUALSTYLE
  5
36
102
{ACAD_REACTORS
330
2A
102
}
102
{ACAD_XDICTIONARY
360
38E
102
}
330
2A
100
AcDbVisualStyle
  2
Brighten
 70
    12
 71
     2
 72
     2
 73
     0
 90
        0
 40
0.6
 41
30.0
 62
     5
 63
     7
421
 16777215
 74
     1
 91
        4
 64
     7
 65
   257
 75
     1
175
     1
 42
1.0
 92
        8
 66
     7
 43
1.0
 76
     1
 77
     6
 78
     2
 67
     7
 79
     5
170
     0
171
     0
290
     0
174
     0
 93
        1
 44
50.0
173
     0
291
     1
 45
0.0
1001
ACAD
1000
AcDbSavedByObjectVersion
1070
     0
  0
VISUALSTYLE
  5
3A
102
{ACAD_REACTORS
330
2A
102
}
102
{ACAD_XDICTIONARY
360
396
102
}
330
2A
100
AcDbVisualStyle
  2
ColorChange
 70
    16
 71
     2
 72
     2
 73
     3
 90
        0
 40
0.6
 41
30.0
 62
     5
 63
     8
421
  8421504
 74
     1
 91
        4
 64
     7
 65
   257
 75
     1
175
     1
 42
1.0
 92
        8
 66
     8
424
  8421504
 43
1.0
 76
     1
 77
     6
 78
     2
 67
     7
 79
     5
170
     0
171
     0
290
     0
174
     0
 93
        1
 44
0.0
173
     0
291
     1
 45
0.0
1001
ACAD
1000
AcDbSavedByObjectVersion
1070
     0
  0
VISUALSTYLE
  5
34
102
{ACAD_REACTORS
330
2A
102
}
102
{ACAD_XDICTIONARY
360
38A
102
}
330
2A
100
AcDbVisualStyle
  2
Conceptual
 70
     9
 71
     3
 72
     2
 73
     0
 90
        0
 40
0.6
 41
30.0
 62
     5
 63
     7
421
 16777215
 74
     2
 91
        2
 64
     7
 65
   257
 75
     1
175
     1
 42
179.0
 92
        8
 66
     7
 43
1.0
 76
     1
 77
     6
 78
     2
 67
     7
 79
     3
170
     0
171
     0
290
     0
174
     0
 93
        1
 44
0.0
173
     0
291
     0
 45
0.0
1001
ACAD
1000
AcDbSavedByObjectVersion
1070
     0
  0
VISUALSTYLE
  5
35
102
{ACAD_REACTORS
330
2A
102
}
102
{ACAD_XDICTIONARY
360
38C
102
}
330
2A
100
AcDbVisualStyle
  2
Dim
 70
    11
 71
     2
 72
     2
 73
     0
 90
        0
 40
0.6
 41
30.0
 62
     5
 63
     7
421
 16777215
 74
     1
 91
        4
 64
     7
 65
   257
 75
     1
175
     1
 42
1.0
 92
        8
 66
     7
 43
1.0
 76
     1
 77
     6
 78
     2
 67
     7
 79
     5
170
     0
171
     0
290
     0
174
     0
 93
        1
 44
-50.0
173
     0
291
     1
 45
0.0
1001
ACAD
1000
AcDbSavedByObjectVersion
1070
     0
  0
VISUALSTYLE
  5
3D
102
{ACAD_REACTORS
330
2A
102
}
102
{ACAD_XDICTIONARY
360
39C
102
}
330
2A
100
AcDbVisualStyle
  2
EdgeColorOff
 70
    22
 71
     2
 72
     2
 73
     0
 90
        0
 40
0.6
 41
30.0
 62
     5
 63
     7
421
 16777215
 74
     1
 91
        4
 64
     7
 65
   257
 75
     1
175
     1
 42
1.0
 92
        8
 66
     7
 43
1.0
 76
     1
 77
     6
 78
     2
 67
     7
 79
     5
170
     0
171
     0
290
     0
174
     0
 93
        1
 44
0.0
173
     0
291
     1
 45
0.0
1001
ACAD
1000
AcDbSavedByObjectVersion
1070
     0
  0
VISUALSTYLE
  5
39
102
{ACAD_REACTORS
330
2A
102
}
102
{ACAD_XDICTIONARY
360
394
102
}
330
2A
100
AcDbVisualStyle
  2
Facepattern
 70
    15
 71
     2
 72
     2
 73
     0
 90
        0
 40
0.6
 41
30.0
 62
     5
 63
     7
421
 16777215
 74
     1
 91
        4
 64
     7
 65
   257
 75
     1
175
     1
 42
1.0
 92
        8
 66
     7
 43
1.0
 76
     1
 77
     6
 78
     2
 67
     7
 79
     5
170
     0
171
     0
290
     0
174
     0
 93
        1
 44
0.0
173
     0
291
     1
 45
0.0
1001
ACAD
1000
AcDbSavedByObjectVersion
1070
     0
  0
VISUALSTYLE
  5
2B
102
{ACAD_REACTORS
330
2A
102
}
102
{ACAD_XDICTIONARY
360
378
102
}
330
2A
100
AcDbVisualStyle
  2
Flat
 70
     0
 71
     2
 72
     1
 73
     1
 90
        2
 40
0.6
 41
30.0
 62
     5
 63
     7
421
 16777215
 74
     0
 91
        0
 64
     7
 65
   257
 75
     1
175
     1
 42
1.0
 92
        8
 66
     7
 43
1.0
 76
     1
 77
     6
 78
     2
 67
     7
 79
     5
170
     0
171
     0
290
     0
174
     0
 93
       13
 44
0.0
173
     0
291
     1
 45
0.0
1001
ACAD
1000
AcDbSavedByObjectVersion
1070
     0
  0
VISUALSTYLE
  5
2C
102
{ACAD_REACTORS
330
2A
102
}
102
{ACAD_XDICTIONARY
360
37A
102
}
330
2A
100
AcDbVisualStyle
  2
FlatWithEdges
 70
     1
 71
     2
 72
     1
 73
     1
 90
        2
 40
0.6
 41
30.0
 62
     5
 63
     7
421
 16777215
 74
     1
 91
        0
 64
     7
 65
   257
 75
     1
175
     1
 42
1.0
 92
        0
 66
   257
 43
1.0
 76
     1
 77
     6
 78
     2
 67
     7
 79
     5
170
     0
171
     0
290
     0
174
     0
 93
       13
 44
0.0
173
     0
291
     1
 45
0.0
1001
ACAD
1000
AcDbSavedByObjectVersion
1070
     0
  0
VISUALSTYLE
  5
2D
102
{ACAD_REACTORS
330
2A
102
}
102
{ACAD_XDICTIONARY
360
37C
102
}
330
2A
100
AcDbVisualStyle
  2
Gouraud
 70
     2
 71
     2
 72
     2
 73
     1
 90
        2
 40
0.6
 41
30.0
 62
     5
 63
     7
421
 16777215
 74
     0
 91
        0
 64
     7
 65
   257
 75
     1
175
     1
 42
1.0
 92
        0
 66
     7
 43
1.0
 76
     1
 77
     6
 78
     2
 67
     7
 79
     5
170
     0
171
     0
290
     0
174
     0
 93
       13
 44
0.0
173
     0
291
     1
 45
0.0
1001
ACAD
1000
AcDbSavedByObjectVersion
1070
     0
  0
VISUALSTYLE
  5
2E
102
{ACAD_REACTORS
330
2A
102
}
102
{ACAD_XDICTIONARY
360
37E
102
}
330
2A
100
AcDbVisualStyle
  2
GouraudWithEdges
 70
     3
 71
     2
 72
     2
 73
     1
 90
        2
 40
0.6
 41
30.0
 62
     5
 63
     7
421
 16777215
 74
     1
 91
        0
 64
     7
 65
   257
 75
     1
175
     1
 42
1.0
 92
        0
 66
   257
 43
1.0
 76
     1
 77
     6
 78
     2
 67
     7
 79
     5
170
     0
171
     0
290
     0
174
     0
 93
       13
 44
0.0
173
     0
291
     1
 45
0.0
1001
ACAD
1000
AcDbSavedByObjectVersion
1070
     0
  0
VISUALSTYLE
  5
31
102
{ACAD_REACTORS
330
2A
102
}
102
{ACAD_XDICTIONARY
360
384
102
}
330
2A
100
AcDbVisualStyle
  2
Hidden
 70
     6
 71
     1
 72
     2
 73
     2
 90
        0
 40
0.6
 41
30.0
 62
     5
 63
     7
421
 16777215
 74
     2
 91
        2
 64
     7
 65
   257
 75
     2
175
     1
 42
40.0
 92
        0
 66
   257
 43
1.0
 76
     1
 77
     6
 78
     2
 67
     7
 79
     3
170
     0
171
     0
290
     0
174
     0
 93
        1
 44
0.0
173
     0
291
     0
 45
0.0
1001
ACAD
1000
AcDbSavedByObjectVersion
1070
     0
  0
VISUALSTYLE
  5
3B
102
{ACAD_REACTORS
330
2A
102
}
102
{ACAD_XDICTIONARY
360
398
102
}
330
2A
100
AcDbVisualStyle
  2
JitterOff
 70
    20
 71
     2
 72
     2
 73
     0
 90
        0
 40
0.6
 41
30.0
 62
     5
 63
     7
421
 16777215
 74
     1
 91
        4
 64
     7
 65
   257
 75
     1
175
     1
 42
1.0
 92
       10
 66
     7
 43
1.0
 76
     1
 77
     6
 78
     2
 67
     7
 79
     5
170
     0
171
     0
290
     0
174
     0
 93
        1
 44
0.0
173
     0
291
     1
 45
0.0
1001
ACAD
1000
AcDbSavedByObjectVersion
1070
     0
  0
VISUALSTYLE
  5
38
102
{ACAD_REACTORS
330
2A
102
}
102
{ACAD_XDICTIONARY
360
392
102
}
330
2A
100
AcDbVisualStyle
  2
Linepattern
 70
    14
 71
     2
 72
     2
 73
     0
 90
        0
 40
0.6
 41
30.0
 62
     5
 63
     7
421
 16777215
 74
     1
 91
        4
 64
     7
 65
   257
 75
     7
175
     7
 42
1.0
 92
        8
 66
     7
 43
1.0
 76
     1
 77
     6
 78
     2
 67
     7
 79
     5
170
     0
171
     0
290
     0
174
     0
 93
        1
 44
0.0
173
     0
291
     1
 45
0.0
1001
ACAD
1000
AcDbSavedByObjectVersion
1070
     0
  0
VISUALSTYLE
  5
3C
102
{ACAD_REACTORS
330
2A
102
}
102
{ACAD_XDICTIONARY
360
39A
102
}
330
2A
100
AcDbVisualStyle
  2
OverhangOff
 70
    21
 71
     2
 72
     2
 73
     0
 90
        0
 40
0.6
 41
30.0
 62
     5
 63
     7
421
 16777215
 74
     1
 91
        4
 64
     7
 65
   257
 75
     1
175
     1
 42
1.0
 92
        9
 66
     7
 43
1.0
 76
     1
 77
     6
 78
     2
 67
     7
 79
     5
170
     0
171
     0
290
     0
174
     0
 93
        1
 44
0.0
173
     0
291
     1
 45
0.0
1001
ACAD
1000
AcDbSavedByObjectVersion
1070
     0
  0
VISUALSTYLE
  5
33
102
{ACAD_REACTORS
330
2A
102
}
102
{ACAD_XDICTIONARY
360
388
102
}
330
2A
100
AcDbVisualStyle
  2
Realistic
 70
     8
 71
     2
 72
     3
 73
     0
 90
        2
 40
0.6
 41
30.0
 62
     5
 63
     7
421
 16777215
 74
     0
 91
        0
 64
     7
 65
   257
 75
     1
175
     1
 42
1.0
 92
        8
 66
   257
 43
1.0
 76
     1
 77
     6
 78
     2
 67
     7
 79
     3
170
     0
171
     0
290
     0
174
     0
 93
       13
 44
0.0
173
     0
291
     0
 45
0.0
1001
ACAD
1000
AcDbSavedByObjectVersion
1070
     0
  0
VISUALSTYLE
  5
42
102
{ACAD_REACTORS
330
2A
102
}
102
{ACAD_XDICTIONARY
360
3A6
102
}
330
2A
100
AcDbVisualStyle
  2
Shaded
 70
    27
 71
     2
 72
     2
 73
     1
 90
        2
 40
0.6
 41
30.0
 62
     5
 63
     7
421
 16777215
 74
     0
 91
        4
 64
     7
 65
   257
 75
     1
175
     1
 42
1.0
 92
        8
 66
   257
 43
1.0
 76
     1
 77
     6
 78
     2
 67
     8
425
  7895160
 79
     3
170
     0
171
     0
290
     0
174
     0
 93
        5
 44
0.0
173
     0
291
     0
 45
0.0
1001
ACAD
1000
AcDbSavedByObjectVersion
1070
     0
  0
VISUALSTYLE
  5
41
102
{ACAD_REACTORS
330
2A
102
}
102
{ACAD_XDICTIONARY
360
3A4
102
}
330
2A
100
AcDbVisualStyle
  2
Shaded with edges
 70
    26
 71
     2
 72
     2
 73
     1
 90
        2
 40
0.6
 41
30.0
 62
     5
 63
     7
421
 16777215
 74
     1
 91
       10
 64
     7
 65
   257
 75
     2
175
     1
 42
1.0
 92
        8
 66
   257
 43
1.0
 76
     1
 77
     6
 78
     2
 67
     7
 79
     3
170
     0
171
     0
290
     0
174
     0
 93
        5
 44
0.0
173
     0
291
     0
 45
0.0
1001
ACAD
1000
AcDbSavedByObjectVersion
1070
     0
  0
VISUALSTYLE
  5
3E
102
{ACAD_REACTORS
330
2A
102
}
102
{ACAD_XDICTIONARY
360
39E
102
}
330
2A
100
AcDbVisualStyle
  2
Shades of Gray
 70
    23
 71
     2
 72
     2
 73
     3
 90
        0
 40
0.6
 41
30.0
 62
     5
 63
     7
421
 16777215
 74
     2
 91
        2
 64
     7
 65
     7
 75
     1
175
     1
 42
40.0
 92
        8
 66
     7
 43
1.0
 76
     1
 77
     6
 78
     2
 67
     7
 79
     3
170
     0
171
     0
290
     0
174
     0
 93
        1
 44
0.0
173
     0
291
     0
 45
0.0
1001
ACAD
1000
AcDbSavedByObjectVersion
1070
     0
  0
VISUALSTYLE
  5
3F
102
{ACAD_REACTORS
330
2A
102
}
102
{ACAD_XDICTIONARY
360
3A0
102
}
330
2A
100
AcDbVisualStyle
  2
Sketchy
 70
    24
 71
     1
 72
     2
 73
     2
 90
        0
 40
0.6
 41
30.0
 62
     5
 63
     7
421
 16777215
 74
     2
 91
        2
 64
     7
 65
     7
 75
     1
175
     1
 42
40.0
 92
       11
 66
     7
 43
1.0
 76
     1
 77
     6
 78
     2
 67
     7
 79
     6
170
     0
171
     0
290
     0
174
     0
 93
        1
 44
0.0
173
     0
291
     0
 45
0.0
1001
ACAD
1000
AcDbSavedByObjectVersion
1070
     0
  0
VISUALSTYLE
  5
37
102
{ACAD_REACTORS
330
2A
102
}
102
{ACAD_XDICTIONARY
360
390
102
}
330
2A
100
AcDbVisualStyle
  2
Thicken
 70
    13
 71
     2
 72
     2
 73
     0
 90
        0
 40
0.6
 41
30.0
 62
     5
 63
     7
421
 16777215
 74
     1
 91
        4
 64
     7
 65
   257
 75
     1
175
     1
 42
1.0
 92
       12
 66
     7
 43
1.0
 76
     1
 77
     6
 78
     2
 67
     7
 79
     5
170
     0
171
     0
290
     0
174
     0
 93
        1
 44
0.0
173
     0
291
     1
 45
0.0
1001
ACAD
1000
AcDbSavedByObjectVersion
1070
     0
  0
VISUALSTYLE
  5
30
102
{ACAD_REACTORS
330
2A
102
}
102
{ACAD_XDICTIONARY
360
382
102
}
330
2A
100
AcDbVisualStyle
  2
Wireframe
 70
     5
 71
     0
 72
     2
 73
     0
 90
        0
 40
0.6
 41
30.0
 62
     5
 63
     7
421
 16777215
 74
     1
 91
        4
 64
     7
 65
   257
 75
     1
175
     1
 42
1.0
 92
        0
 66
   257
 43
1.0
 76
     1
 77
     6
 78
     2
 67
     7
 79
     3
170
     0
171
     0
290
     0
174
     0
 93
        1
 44
0.0
173
     0
291
     0
 45
0.0
1001
ACAD
1000
AcDbSavedByObjectVersion
1070
     0
  0
VISUALSTYLE
  5
40
102
{ACAD_REACTORS
330
2A
102
}
102
{ACAD_XDICTIONARY
360
3A2
102
}
330
2A
100
AcDbVisualStyle
  2
X-Ray
 70
    25
 71
     2
 72
     2
 73
     1
 90
        1
 40
0.5
 41
30.0
 62
     5
 63
     7
421
 16777215
 74
     1
 91
        0
 64
     7
 65
   257
 75
     1
175
     1
 42
1.0
 92
        8
 66
     7
 43
1.0
 76
     1
 77
     6
 78
     2
 67
     7
 79
     3
170
     0
171
     0
290
     0
174
     0
 93
       13
 44
0.0
173
     0
291
     0
 45
0.0
1001
ACAD
1000
AcDbSavedByObjectVersion
1070
     0
  0
DICTIONARYVAR
  5
375
102
{ACAD_REACTORS
330
374
102
}
330
374
100
DictionaryVariables
280
     0
  1
1:1
  0
DICTIONARYVAR
  5
3B9
102
{ACAD_REACTORS
330
374
102
}
330
374
100
DictionaryVariables
280
     0
  1
3.500000
  0
DICTIONARYVAR
  5
3BA
102
{ACAD_REACTORS
330
374
102
}
330
374
100
DictionaryVariables
280
     0
  1
acadiso.lin
  0
DICTIONARYVAR
  5
3B6
102
{ACAD_REACTORS
330
374
102
}
330
374
100
DictionaryVariables
280
     0
  1
Standard
  0
DICTIONARYVAR
  5
3B5
102
{ACAD_REACTORS
330
374
102
}
330
374
100
DictionaryVariables
280
     0
  1
Standard
  0
DICTIONARYVAR
  5
376
102
{ACAD_REACTORS
330
374
102
}
330
374
100
DictionaryVariables
280
     0
  1
1
  0
DICTIONARYVAR
  5
377
102
{ACAD_REACTORS
330
374
102
}
330
374
100
DictionaryVariables
280
     0
  1
2
  0
DICTIONARY
  5
3AA
330
45
100
AcDbDictionary
280
     1
281
     1
  3
ACAD_XREC_ROUNDTRIP
360
3AB
  0
DICTIONARY
  5
3A8
330
44
100
AcDbDictionary
280
     1
281
     1
  3
ACAD_XREC_ROUNDTRIP
360
3A9
  0
DICTIONARY
  5
3AC
330
46
100
AcDbDictionary
280
     1
281
     1
  3
ACAD_XREC_ROUNDTRIP
360
3AD
  0
DICTIONARY
  5
3B2
330
6C
100
AcDbDictionary
280
     1
281
     1
  3
ACAD_XREC_ROUNDTRIP
360
3B3
  0
DICTIONARY
  5
3AE
330
6A
100
AcDbDictionary
280
     1
281
     1
  3
ACAD_ROUNDTRIP_2008_TABLESTYLE_CELLSTYLEMAP
360
3B0
  3
ACAD_XREC_ROUNDTRIP
360
3AF
  0
DICTIONARY
  5
380
330
2F
100
AcDbDictionary
280
     1
281
     1
  3
ACAD_XREC_ROUNDTRIP
360
381
  0
DICTIONARY
  5
386
330
32
100
AcDbDictionary
280
     1
281
     1
  3
ACAD_XREC_ROUNDTRIP
360
387
  0
DICTIONARY
  5
38E
330
36
100
AcDbDictionary
280
     1
281
     1
  3
ACAD_XREC_ROUNDTRIP
360
38F
  0
DICTIONARY
  5
396
330
3A
100
AcDbDictionary
280
     1
281
     1
  3
ACAD_XREC_ROUNDTRIP
360
397
  0
DICTIONARY
  5
38A
330
34
100
AcDbDictionary
280
     1
281
     1
  3
ACAD_XREC_ROUNDTRIP
360
38B
  0
DICTIONARY
  5
38C
330
35
100
AcDbDictionary
280
     1
281
     1
  3
ACAD_XREC_ROUNDTRIP
360
38D
  0
DICTIONARY
  5
39C
330
3D
100
AcDbDictionary
280
     1
281
     1
  3
ACAD_XREC_ROUNDTRIP
360
39D
  0
DICTIONARY
  5
394
330
39
100
AcDbDictionary
280
     1
281
     1
  3
ACAD_XREC_ROUNDTRIP
360
395
  0
DICTIONARY
  5
378
330
2B
100
AcDbDictionary
280
     1
281
     1
  3
ACAD_XREC_ROUNDTRIP
360
379
  0
DICTIONARY
  5
37A
330
2C
100
AcDbDictionary
280
     1
281
     1
  3
ACAD_XREC_ROUNDTRIP
360
37B
  0
DICTIONARY
  5
37C
330
2D
100
AcDbDictionary
280
     1
281
     1
  3
ACAD_XREC_ROUNDTRIP
360
37D
  0
DICTIONARY
  5
37E
330
2E
100
AcDbDictionary
280
     1
281
     1
  3
ACAD_XREC_ROUNDTRIP
360
37F
  0
DICTIONARY
  5
384
330
31
100
AcDbDictionary
280
     1
281
     1
  3
ACAD_XREC_ROUNDTRIP
360
385
  0
DICTIONARY
  5
398
330
3B
100
AcDbDictionary
280
     1
281
     1
  3
ACAD_XREC_ROUNDTRIP
360
399
  0
DICTIONARY
  5
392
330
38
100
AcDbDictionary
280
     1
281
     1
  3
ACAD_XREC_ROUNDTRIP
360
393
  0
DICTIONARY
  5
39A
330
3C
100
AcDbDictionary
280
     1
281
     1
  3
ACAD_XREC_ROUNDTRIP
360
39B
  0
DICTIONARY
  5
388
330
33
100
AcDbDictionary
280
     1
281
     1
  3
ACAD_XREC_ROUNDTRIP
360
389
  0
DICTIONARY
  5
3A6
330
42
100
AcDbDictionary
280
     1
281
     1
  3
ACAD_XREC_ROUNDTRIP
360
3A7
  0
DICTIONARY
  5
3A4
330
41
100
AcDbDictionary
280
     1
281
     1
  3
ACAD_XREC_ROUNDTRIP
360
3A5
  0
DICTIONARY
  5
39E
330
3E
100
AcDbDictionary
280
     1
281
     1
  3
ACAD_XREC_ROUNDTRIP
360
39F
  0
DICTIONARY
  5
3A0
330
3F
100
AcDbDictionary
280
     1
281
     1
  3
ACAD_XREC_ROUNDTRIP
360
3A1
  0
DICTIONARY
  5
390
330
37
100
AcDbDictionary
280
     1
281
     1
  3
ACAD_XREC_ROUNDTRIP
360
391
  0
DICTIONARY
  5
382
330
30
100
AcDbDictionary
280
     1
281
     1
  3
ACAD_XREC_ROUNDTRIP
360
383
  0
DICTIONARY
  5
3A2
330
40
100
AcDbDictionary
280
     1
281
     1
  3
ACAD_XREC_ROUNDTRIP
360
3A3
  0
XRECORD
  5
3AB
102
{ACAD_REACTORS
330
3AA
102
}
330
3AA
100
AcDbXrecord
280
     1
102
MATERIAL
148
0.0
149
0.0
149
0.0
 93
        0
 94
      127
282
     0
 72
     1
 77
     1
171
     1
175
     1
179
     1
273
     0
  0
XRECORD
  5
3A9
102
{ACAD_REACTORS
330
3A8
102
}
330
3A8
100
AcDbXrecord
280
     1
102
MATERIAL
148
0.0
149
0.0
149
0.0
 93
        0
 94
      127
282
     0
 72
     1
 77
     1
171
     1
175
     1
179
     1
273
     0
  0
XRECORD
  5
3AD
102
{ACAD_REACTORS
330
3AC
102
}
330
3AC
100
AcDbXrecord
280
     1
102
MATERIAL
148
0.0
149
0.0
149
0.0
 93
        0
 94
      127
282
     0
 72
     1
 77
     1
171
     1
175
     1
179
     1
273
     0
  0
XRECORD
  5
3B3
102
{ACAD_REACTORS
330
3B2
102
}
330
3B2
100
AcDbXrecord
280
     1
102
ACAD_ROUNDTRIP_2010_MLEADER_STYLE
  0
CELLSTYLEMAP
  5
3B0
102
{ACAD_REACTORS
330
3AE
102
}
330
3AE
100
AcDbCellStyleMap
 90
        3
300
CELLSTYLE
  1
TABLEFORMAT_BEGIN
 90
        5
170
     1
 91
        0
 92
    32768
 62
   257
 93
        1
300
CONTENTFORMAT
  1
CONTENTFORMAT_BEGIN
 90
        0
 91
        0
 92
        4
 93
        0
300

 40
0.0
140
1.0
 94
        5
 62
     0
340
11
144
6.0
309
CONTENTFORMAT_END
171
     1
301
MARGIN
  1
CELLMARGIN_BEGIN
 40
1.5
 40
1.5
 40
1.5
 40
1.5
 40
1.5
 40
1.5
309
CELLMARGIN_END
 94
        6
 95
        1
302
GRIDFORMAT
  1
GRIDFORMAT_BEGIN
 90
        0
 91
        1
 62
     0
 92
       -2
340
14
 93
        0
 40
0.045
309
GRIDFORMAT_END
 95
        2
302
GRIDFORMAT
  1
GRIDFORMAT_BEGIN
 90
        0
 91
        1
 62
     0
 92
       -2
340
14
 93
        0
 40
0.045
309
GRIDFORMAT_END
 95
        4
302
GRIDFORMAT
  1
GRIDFORMAT_BEGIN
 90
        0
 91
        1
 62
     0
 92
       -2
340
14
 93
        0
 40
0.045
309
GRIDFORMAT_END
 95
        8
302
GRIDFORMAT
  1
GRIDFORMAT_BEGIN
 90
        0
 91
        1
 62
     0
 92
       -2
340
14
 93
        0
 40
0.045
309
GRIDFORMAT_END
 95
       16
302
GRIDFORMAT
  1
GRIDFORMAT_BEGIN
 90
        0
 91
        1
 62
     0
 92
       -2
340
14
 93
        0
 40
0.045
309
GRIDFORMAT_END
 95
       32
302
GRIDFORMAT
  1
GRIDFORMAT_BEGIN
 90
        0
 91
        1
 62
     0
 92
       -2
340
14
 93
        0
 40
0.045
309
GRIDFORMAT_END
309
TABLEFORMAT_END
  1
CELLSTYLE_BEGIN
 90
        1
 91
        1
300
_TITLE
309
CELLSTYLE_END
300
CELLSTYLE
  1
TABLEFORMAT_BEGIN
 90
        5
170
     1
 91
        0
 92
        0
 62
   257
 93
        1
300
CONTENTFORMAT
  1
CONTENTFORMAT_BEGIN
 90
        0
 91
        0
 92
        4
 93
        0
300

 40
0.0
140
1.0
 94
        5
 62
     0
340
11
144
4.5
309
CONTENTFORMAT_END
171
     1
301
MARGIN
  1
CELLMARGIN_BEGIN
 40
1.5
 40
1.5
 40
1.5
 40
1.5
 40
1.5
 40
1.5
309
CELLMARGIN_END
 94
        6
 95
        1
302
GRIDFORMAT
  1
GRIDFORMAT_BEGIN
 90
        0
 91
        1
 62
     0
 92
       -2
340
14
 93
        0
 40
0.045
309
GRIDFORMAT_END
 95
        2
302
GRIDFORMAT
  1
GRIDFORMAT_BEGIN
 90
        0
 91
        1
 62
     0
 92
       -2
340
14
 93
        0
 40
0.045
309
GRIDFORMAT_END
 95
        4
302
GRIDFORMAT
  1
GRIDFORMAT_BEGIN
 90
        0
 91
        1
 62
     0
 92
       -2
340
14
 93
        0
 40
0.045
309
GRIDFORMAT_END
 95
        8
302
GRIDFORMAT
  1
GRIDFORMAT_BEGIN
 90
        0
 91
        1
 62
     0
 92
       -2
340
14
 93
        0
 40
0.045
309
GRIDFORMAT_END
 95
       16
302
GRIDFORMAT
  1
GRIDFORMAT_BEGIN
 90
        0
 91
        1
 62
     0
 92
       -2
340
14
 93
        0
 40
0.045
309
GRIDFORMAT_END
 95
       32
302
GRIDFORMAT
  1
GRIDFORMAT_BEGIN
 90
        0
 91
        1
 62
     0
 92
       -2
340
14
 93
        0
 40
0.045
309
GRIDFORMAT_END
309
TABLEFORMAT_END
  1
CELLSTYLE_BEGIN
 90
        2
 91
        1
300
_HEADER
309
CELLSTYLE_END
300
CELLSTYLE
  1
TABLEFORMAT_BEGIN
 90
        5
170
     1
 91
        0
 92
        0
 62
   257
 93
        1
300
CONTENTFORMAT
  1
CONTENTFORMAT_BEGIN
 90
        0
 91
        0
 92
        4
 93
        0
300

 40
0.0
140
1.0
 94
        2
 62
     0
340
11
144
4.5
309
CONTENTFORMAT_END
171
     1
301
MARGIN
  1
CELLMARGIN_BEGIN
 40
1.5
 40
1.5
 40
1.5
 40
1.5
 40
1.5
 40
1.5
309
CELLMARGIN_END
 94
        6
 95
        1
302
GRIDFORMAT
  1
GRIDFORMAT_BEGIN
 90
        0
 91
        1
 62
     0
 92
       -2
340
14
 93
        0
 40
0.045
309
GRIDFORMAT_END
 95
        2
302
GRIDFORMAT
  1
GRIDFORMAT_BEGIN
 90
        0
 91
        1
 62
     0
 92
       -2
340
14
 93
        0
 40
0.045
309
GRIDFORMAT_END
 95
        4
302
GRIDFORMAT
  1
GRIDFORMAT_BEGIN
 90
        0
 91
        1
 62
     0
 92
       -2
340
14
 93
        0
 40
0.045
309
GRIDFORMAT_END
 95
        8
302
GRIDFORMAT
  1
GRIDFORMAT_BEGIN
 90
        0
 91
        1
 62
     0
 92
       -2
340
14
 93
        0
 40
0.045
309
GRIDFORMAT_END
 95
       16
302
GRIDFORMAT
  1
GRIDFORMAT_BEGIN
 90
        0
 91
        1
 62
     0
 92
       -2
340
14
 93
        0
 40
0.045
309
GRIDFORMAT_END
 95
       32
302
GRIDFORMAT
  1
GRIDFORMAT_BEGIN
 90
        0
 91
        1
 62
     0
 92
       -2
340
14
 93
        0
 40
0.045
309
GRIDFORMAT_END
309
TABLEFORMAT_END
  1
CELLSTYLE_BEGIN
 90
        3
 91
        2
300
_DATA
309
CELLSTYLE_END
  0
XRECORD
  5
3AF
102
{ACAD_REACTORS
330
3AE
102
}
330
3AE
100
AcDbXrecord
280
     1
102
ACAD_ROUNDTRIP_PRE2007_TABLESTYLE
 90
        4
 91
        0
  1

 92
        4
 93
        0
  2

 94
        4
 95
        0
  3

  0
XRECORD
  5
381
102
{ACAD_REACTORS
330
380
102
}
330
380
100
AcDbXrecord
280
     1
102
RTVSPropertyOp0
 70
     1
102
RTVSPropertyOp1
 70
     1
102
RTVSPropertyOp2
 70
     1
102
RTVSPropertyOp3
 70
     1
102
RTVSPropertyOp4
 70
     1
102
RTVSPropertyOp5
 70
     1
102
RTVSPropertyOp6
 70
     1
102
RTVSPropertyOp7
 70
     1
102
RTVSPropertyOp8
 70
     1
102
RTVSPropertyOp9
 70
     1
102
RTVSPropertyOp10
 70
     1
102
RTVSPropertyOp11
 70
     1
102
RTVSPropertyOp12
 70
     1
102
RTVSPropertyOp13
 70
     1
102
RTVSPropertyOp14
 70
     1
102
RTVSPropertyOp15
 70
     1
102
RTVSPropertyOp16
 70
     1
102
RTVSPropertyOp17
 70
     1
102
RTVSPropertyOp18
 70
     1
102
RTVSPropertyOp19
 70
     1
102
RTVSPropertyOp20
 70
     1
102
RTVSPropertyOp21
 70
     1
102
RTVSPropertyOp22
 70
     1
102
RTVSPropertyOp23
 70
     1
102
RTVSPropertyOp24
 70
     1
102
RTVSPropertyOp25
 70
     1
102
RTVSPropertyOp26
 70
     1
102
RTVSPropertyOp27
 70
     1
102
RTVSPropertyOp28
 70
     1
102
RTVSPropertyOp29
 70
     1
102
RTVSPropertyOp30
 70
     1
102
RTVSPropertyOp31
 70
     1
102
RTVSPropertyOp32
 70
     1
102
RTVSPropertyOp33
 70
     1
102
RTVSPropertyOp34
 70
     1
102
RTVSPropertyOp35
 70
     1
102
RTVSPropertyOp36
 70
     1
102
RTVSPropertyOp37
 70
     1
102
RTVSPropertyOp38
 70
     1
102
RTVSPropertyOp39
 70
     1
102
RTVSPropertyOp40
 70
     1
102
RTVSPropertyOp41
 70
     1
102
RTVSPropertyOp42
 70
     1
102
RTVSPropertyOp43
 70
     1
102
RTVSPropertyOp44
 70
     1
102
RTVSPropertyOp45
 70
     1
102
RTVSPropertyOp46
 70
     1
102
RTVSPropertyOp47
 70
     1
102
RTVSPropertyOp48
 70
     1
102
RTVSPropertyOp49
 70
     1
102
RTVSPropertyOp50
 70
     1
102
RTVSPropertyOp51
 70
     0
102
RTVSPropertyOp52
 70
     0
102
RTVSPropertyOp53
 70
     1
102
RTVSPropertyOp54
 70
     1
102
RTVSPropertyOp55
 70
     1
102
RTVSPropertyOp56
 70
     1
102
RTVSPropertyOp57
 70
     1
102
RTVSPost2010Prop28
280
     1
102
RTVSPost2010PropOp28
 70
     1
102
RTVSPost2010Prop29
280
     1
102
RTVSPost2010PropOp29
 70
     1
102
RTVSPost2010Prop30
280
     0
102
RTVSPost2010PropOp30
 70
     1
102
RTVSPost2010Prop31
280
     0
102
RTVSPost2010PropOp31
 70
     1
102
RTVSPost2010Prop32
280
     0
102
RTVSPost2010PropOp32
 70
     1
102
RTVSPost2010Prop33
280
     0
102
RTVSPost2010PropOp33
 70
     1
102
RTVSPost2010Prop34
280
     0
102
RTVSPost2010PropOp34
 70
     1
102
RTVSPost2010Prop35
280
     0
102
RTVSPost2010PropOp35
 70
     1
102
RTVSPost2010Prop36
280
     0
102
RTVSPost2010PropOp36
 70
     1
102
RTVSPost2010Prop37
 90
       50
102
RTVSPost2010PropOp37
 70
     1
102
RTVSPost2010Prop38
140
0.0
102
RTVSPost2010PropOp38
 70
     1
102
RTVSPost2010Prop39
140
1.0
102
RTVSPost2010PropOp39
 70
     1
102
RTVSPost2010Prop40
 90
        0
102
RTVSPost2010PropOp40
 70
     1
102
RTVSPost2010Prop41ColorIndex
 90
       18
102
RTVSPost2010Prop41ColorRGB
 90
        0
102
RTVSPost2010PropOp41
 70
     1
102
RTVSPost2010Prop42
 90
       50
102
RTVSPost2010PropOp42
 70
     1
102
RTVSPost2010Prop43
 90
        3
102
RTVSPost2010PropOp43
 70
     1
102
RTVSPost2010Prop44ColorIndex
 90
        5
102
RTVSPost2010Prop44ColorRGB
 90
      255
102
RTVSPost2010PropOp44
 70
     1
102
RTVSPost2010Prop45
280
     0
102
RTVSPost2010PropOp45
 70
     1
102
RTVSPost2010Prop46
 90
       50
102
RTVSPost2010PropOp46
 70
     1
102
RTVSPost2010Prop47
 90
       50
102
RTVSPost2010PropOp47
 70
     1
102
RTVSPost2010Prop48
 90
       50
102
RTVSPost2010PropOp48
 70
     1
102
RTVSPost2010Prop49
280
     0
102
RTVSPost2010PropOp49
 70
     1
102
RTVSPost2010Prop50
 90
       50
102
RTVSPost2010PropOp50
 70
     1
102
RTVSPost2010Prop51ColorIndex
 90
      256
102
RTVSPost2010Prop51ColorRGB
 90
-16777216
102
RTVSPost2010PropOp51
 70
     0
102
RTVSPost2010Prop52
140
1.0
102
RTVSPost2010PropOp52
 70
     0
102
RTVSPost2010Prop53
 90
        2
102
RTVSPost2010PropOp53
 70
     1
102
RTVSPost2010Prop54
  1
strokes_ogs.tif
102
RTVSPost2010PropOp54
 70
     1
102
RTVSPost2010Prop55
280
     0
102
RTVSPost2010PropOp55
 70
     1
102
RTVSPost2010Prop56
140
1.0
102
RTVSPost2010PropOp56
 70
     1
102
RTVSPost2010Prop57
140
1.0
102
RTVSPost2010PropOp57
 70
     1
  0
XRECORD
  5
387
102
{ACAD_REACTORS
330
386
102
}
330
386
100
AcDbXrecord
280
     1
102
RTVSPropertyOp0
 70
     1
102
RTVSPropertyOp1
 70
     1
102
RTVSPropertyOp2
 70
     1
102
RTVSPropertyOp3
 70
     1
102
RTVSPropertyOp4
 70
     1
102
RTVSPropertyOp5
 70
     1
102
RTVSPropertyOp6
 70
     1
102
RTVSPropertyOp7
 70
     1
102
RTVSPropertyOp8
 70
     1
102
RTVSPropertyOp9
 70
     1
102
RTVSPropertyOp10
 70
     1
102
RTVSPropertyOp11
 70
     1
102
RTVSPropertyOp12
 70
     1
102
RTVSPropertyOp13
 70
     1
102
RTVSPropertyOp14
 70
     1
102
RTVSPropertyOp15
 70
     1
102
RTVSPropertyOp16
 70
     1
102
RTVSPropertyOp17
 70
     1
102
RTVSPropertyOp18
 70
     1
102
RTVSPropertyOp19
 70
     1
102
RTVSPropertyOp20
 70
     1
102
RTVSPropertyOp21
 70
     1
102
RTVSPropertyOp22
 70
     1
102
RTVSPropertyOp23
 70
     1
102
RTVSPropertyOp24
 70
     1
102
RTVSPropertyOp25
 70
     1
102
RTVSPropertyOp26
 70
     1
102
RTVSPropertyOp27
 70
     1
102
RTVSPropertyOp28
 70
     1
102
RTVSPropertyOp29
 70
     1
102
RTVSPropertyOp30
 70
     1
102
RTVSPropertyOp31
 70
     1
102
RTVSPropertyOp32
 70
     1
102
RTVSPropertyOp33
 70
     1
102
RTVSPropertyOp34
 70
     1
102
RTVSPropertyOp35
 70
     1
102
RTVSPropertyOp36
 70
     1
102
RTVSPropertyOp37
 70
     1
102
RTVSPropertyOp38
 70
     1
102
RTVSPropertyOp39
 70
     1
102
RTVSPropertyOp40
 70
     1
102
RTVSPropertyOp41
 70
     1
102
RTVSPropertyOp42
 70
     1
102
RTVSPropertyOp43
 70
     1
102
RTVSPropertyOp44
 70
     1
102
RTVSPropertyOp45
 70
     1
102
RTVSPropertyOp46
 70
     1
102
RTVSPropertyOp47
 70
     1
102
RTVSPropertyOp48
 70
     1
102
RTVSPropertyOp49
 70
     1
102
RTVSPropertyOp50
 70
     1
102
RTVSPropertyOp51
 70
     0
102
RTVSPropertyOp52
 70
     0
102
RTVSPropertyOp53
 70
     1
102
RTVSPropertyOp54
 70
     1
102
RTVSPropertyOp55
 70
     1
102
RTVSPropertyOp56
 70
     1
102
RTVSPropertyOp57
 70
     1
102
RTVSPost2010Prop28
280
     0
102
RTVSPost2010PropOp28
 70
     1
102
RTVSPost2010Prop29
280
     1
102
RTVSPost2010PropOp29
 70
     1
102
RTVSPost2010Prop30
280
     1
102
RTVSPost2010PropOp30
 70
     1
102
RTVSPost2010Prop31
280
     0
102
RTVSPost2010PropOp31
 70
     1
102
RTVSPost2010Prop32
280
     0
102
RTVSPost2010PropOp32
 70
     1
102
RTVSPost2010Prop33
280
     0
102
RTVSPost2010PropOp33
 70
     1
102
RTVSPost2010Prop34
280
     0
102
RTVSPost2010PropOp34
 70
     1
102
RTVSPost2010Prop35
280
     0
102
RTVSPost2010PropOp35
 70
     1
102
RTVSPost2010Prop36
280
     0
102
RTVSPost2010PropOp36
 70
     1
102
RTVSPost2010Prop37
 90
       50
102
RTVSPost2010PropOp37
 70
     1
102
RTVSPost2010Prop38
140
0.0
102
RTVSPost2010PropOp38
 70
     1
102
RTVSPost2010Prop39
140
1.0
102
RTVSPost2010PropOp39
 70
     1
102
RTVSPost2010Prop40
 90
        0
102
RTVSPost2010PropOp40
 70
     1
102
RTVSPost2010Prop41ColorIndex
 90
       18
102
RTVSPost2010Prop41ColorRGB
 90
        0
102
RTVSPost2010PropOp41
 70
     1
102
RTVSPost2010Prop42
 90
       50
102
RTVSPost2010PropOp42
 70
     1
102
RTVSPost2010Prop43
 90
        3
102
RTVSPost2010PropOp43
 70
     1
102
RTVSPost2010Prop44ColorIndex
 90
        5
102
RTVSPost2010Prop44ColorRGB
 90
      255
102
RTVSPost2010PropOp44
 70
     1
102
RTVSPost2010Prop45
280
     0
102
RTVSPost2010PropOp45
 70
     1
102
RTVSPost2010Prop46
 90
       50
102
RTVSPost2010PropOp46
 70
     1
102
RTVSPost2010Prop47
 90
       50
102
RTVSPost2010PropOp47
 70
     1
102
RTVSPost2010Prop48
 90
       50
102
RTVSPost2010PropOp48
 70
     1
102
RTVSPost2010Prop49
280
     0
102
RTVSPost2010PropOp49
 70
     1
102
RTVSPost2010Prop50
 90
       50
102
RTVSPost2010PropOp50
 70
     1
102
RTVSPost2010Prop51ColorIndex
 90
      256
102
RTVSPost2010Prop51ColorRGB
 90
-16777216
102
RTVSPost2010PropOp51
 70
     0
102
RTVSPost2010Prop52
140
1.0
102
RTVSPost2010PropOp52
 70
     0
102
RTVSPost2010Prop53
 90
        2
102
RTVSPost2010PropOp53
 70
     1
102
RTVSPost2010Prop54
  1
strokes_ogs.tif
102
RTVSPost2010PropOp54
 70
     1
102
RTVSPost2010Prop55
280
     0
102
RTVSPost2010PropOp55
 70
     1
102
RTVSPost2010Prop56
140
1.0
102
RTVSPost2010PropOp56
 70
     1
102
RTVSPost2010Prop57
140
1.0
102
RTVSPost2010PropOp57
 70
     1
  0
XRECORD
  5
38F
102
{ACAD_REACTORS
330
38E
102
}
330
38E
100
AcDbXrecord
280
     1
102
RTVSPropertyOp0
 70
     1
102
RTVSPropertyOp1
 70
     1
102
RTVSPropertyOp2
 70
     1
102
RTVSPropertyOp3
 70
     1
102
RTVSPropertyOp4
 70
     1
102
RTVSPropertyOp5
 70
     1
102
RTVSPropertyOp6
 70
     1
102
RTVSPropertyOp7
 70
     1
102
RTVSPropertyOp8
 70
     1
102
RTVSPropertyOp9
 70
     1
102
RTVSPropertyOp10
 70
     1
102
RTVSPropertyOp11
 70
     1
102
RTVSPropertyOp12
 70
     1
102
RTVSPropertyOp13
 70
     1
102
RTVSPropertyOp14
 70
     1
102
RTVSPropertyOp15
 70
     1
102
RTVSPropertyOp16
 70
     1
102
RTVSPropertyOp17
 70
     1
102
RTVSPropertyOp18
 70
     1
102
RTVSPropertyOp19
 70
     1
102
RTVSPropertyOp20
 70
     1
102
RTVSPropertyOp21
 70
     1
102
RTVSPropertyOp22
 70
     1
102
RTVSPropertyOp23
 70
     1
102
RTVSPropertyOp24
 70
     1
102
RTVSPropertyOp25
 70
     1
102
RTVSPropertyOp26
 70
     1
102
RTVSPropertyOp27
 70
     1
102
RTVSPropertyOp28
 70
     1
102
RTVSPropertyOp29
 70
     1
102
RTVSPropertyOp30
 70
     1
102
RTVSPropertyOp31
 70
     1
102
RTVSPropertyOp32
 70
     1
102
RTVSPropertyOp33
 70
     1
102
RTVSPropertyOp34
 70
     1
102
RTVSPropertyOp35
 70
     1
102
RTVSPropertyOp36
 70
     1
102
RTVSPropertyOp37
 70
     1
102
RTVSPropertyOp38
 70
     1
102
RTVSPropertyOp39
 70
     1
102
RTVSPropertyOp40
 70
     1
102
RTVSPropertyOp41
 70
     1
102
RTVSPropertyOp42
 70
     1
102
RTVSPropertyOp43
 70
     1
102
RTVSPropertyOp44
 70
     1
102
RTVSPropertyOp45
 70
     1
102
RTVSPropertyOp46
 70
     1
102
RTVSPropertyOp47
 70
     1
102
RTVSPropertyOp48
 70
     1
102
RTVSPropertyOp49
 70
     1
102
RTVSPropertyOp50
 70
     1
102
RTVSPropertyOp51
 70
     0
102
RTVSPropertyOp52
 70
     0
102
RTVSPropertyOp53
 70
     1
102
RTVSPropertyOp54
 70
     1
102
RTVSPropertyOp55
 70
     1
102
RTVSPropertyOp56
 70
     1
102
RTVSPropertyOp57
 70
     1
102
RTVSPost2010Prop28
280
     0
102
RTVSPost2010PropOp28
 70
     1
102
RTVSPost2010Prop29
280
     1
102
RTVSPost2010PropOp29
 70
     1
102
RTVSPost2010Prop30
280
     1
102
RTVSPost2010PropOp30
 70
     1
102
RTVSPost2010Prop31
280
     0
102
RTVSPost2010PropOp31
 70
     1
102
RTVSPost2010Prop32
280
     0
102
RTVSPost2010PropOp32
 70
     1
102
RTVSPost2010Prop33
280
     0
102
RTVSPost2010PropOp33
 70
     1
102
RTVSPost2010Prop34
280
     0
102
RTVSPost2010PropOp34
 70
     1
102
RTVSPost2010Prop35
280
     0
102
RTVSPost2010PropOp35
 70
     1
102
RTVSPost2010Prop36
280
     0
102
RTVSPost2010PropOp36
 70
     1
102
RTVSPost2010Prop37
 90
       50
102
RTVSPost2010PropOp37
 70
     1
102
RTVSPost2010Prop38
140
0.0
102
RTVSPost2010PropOp38
 70
     1
102
RTVSPost2010Prop39
140
1.0
102
RTVSPost2010PropOp39
 70
     1
102
RTVSPost2010Prop40
 90
        0
102
RTVSPost2010PropOp40
 70
     1
102
RTVSPost2010Prop41ColorIndex
 90
       18
102
RTVSPost2010Prop41ColorRGB
 90
        0
102
RTVSPost2010PropOp41
 70
     1
102
RTVSPost2010Prop42
 90
       50
102
RTVSPost2010PropOp42
 70
     1
102
RTVSPost2010Prop43
 90
        3
102
RTVSPost2010PropOp43
 70
     1
102
RTVSPost2010Prop44ColorIndex
 90
        5
102
RTVSPost2010Prop44ColorRGB
 90
      255
102
RTVSPost2010PropOp44
 70
     1
102
RTVSPost2010Prop45
280
     0
102
RTVSPost2010PropOp45
 70
     1
102
RTVSPost2010Prop46
 90
       50
102
RTVSPost2010PropOp46
 70
     1
102
RTVSPost2010Prop47
 90
       50
102
RTVSPost2010PropOp47
 70
     1
102
RTVSPost2010Prop48
 90
       50
102
RTVSPost2010PropOp48
 70
     1
102
RTVSPost2010Prop49
280
     0
102
RTVSPost2010PropOp49
 70
     1
102
RTVSPost2010Prop50
 90
       50
102
RTVSPost2010PropOp50
 70
     1
102
RTVSPost2010Prop51ColorIndex
 90
      256
102
RTVSPost2010Prop51ColorRGB
 90
-16777216
102
RTVSPost2010PropOp51
 70
     0
102
RTVSPost2010Prop52
140
1.0
102
RTVSPost2010PropOp52
 70
     0
102
RTVSPost2010Prop53
 90
        2
102
RTVSPost2010PropOp53
 70
     1
102
RTVSPost2010Prop54
  1
strokes_ogs.tif
102
RTVSPost2010PropOp54
 70
     1
102
RTVSPost2010Prop55
280
     0
102
RTVSPost2010PropOp55
 70
     1
102
RTVSPost2010Prop56
140
1.0
102
RTVSPost2010PropOp56
 70
     1
102
RTVSPost2010Prop57
140
1.0
102
RTVSPost2010PropOp57
 70
     1
  0
XRECORD
  5
397
102
{ACAD_REACTORS
330
396
102
}
330
396
100
AcDbXrecord
280
     1
102
RTVSPropertyOp0
 70
     1
102
RTVSPropertyOp1
 70
     1
102
RTVSPropertyOp2
 70
     1
102
RTVSPropertyOp3
 70
     1
102
RTVSPropertyOp4
 70
     1
102
RTVSPropertyOp5
 70
     1
102
RTVSPropertyOp6
 70
     1
102
RTVSPropertyOp7
 70
     1
102
RTVSPropertyOp8
 70
     1
102
RTVSPropertyOp9
 70
     1
102
RTVSPropertyOp10
 70
     1
102
RTVSPropertyOp11
 70
     1
102
RTVSPropertyOp12
 70
     1
102
RTVSPropertyOp13
 70
     1
102
RTVSPropertyOp14
 70
     1
102
RTVSPropertyOp15
 70
     1
102
RTVSPropertyOp16
 70
     1
102
RTVSPropertyOp17
 70
     1
102
RTVSPropertyOp18
 70
     1
102
RTVSPropertyOp19
 70
     1
102
RTVSPropertyOp20
 70
     1
102
RTVSPropertyOp21
 70
     1
102
RTVSPropertyOp22
 70
     1
102
RTVSPropertyOp23
 70
     1
102
RTVSPropertyOp24
 70
     1
102
RTVSPropertyOp25
 70
     1
102
RTVSPropertyOp26
 70
     1
102
RTVSPropertyOp27
 70
     1
102
RTVSPropertyOp28
 70
     1
102
RTVSPropertyOp29
 70
     1
102
RTVSPropertyOp30
 70
     1
102
RTVSPropertyOp31
 70
     1
102
RTVSPropertyOp32
 70
     1
102
RTVSPropertyOp33
 70
     1
102
RTVSPropertyOp34
 70
     1
102
RTVSPropertyOp35
 70
     1
102
RTVSPropertyOp36
 70
     1
102
RTVSPropertyOp37
 70
     1
102
RTVSPropertyOp38
 70
     1
102
RTVSPropertyOp39
 70
     1
102
RTVSPropertyOp40
 70
     1
102
RTVSPropertyOp41
 70
     1
102
RTVSPropertyOp42
 70
     1
102
RTVSPropertyOp43
 70
     1
102
RTVSPropertyOp44
 70
     1
102
RTVSPropertyOp45
 70
     1
102
RTVSPropertyOp46
 70
     1
102
RTVSPropertyOp47
 70
     1
102
RTVSPropertyOp48
 70
     1
102
RTVSPropertyOp49
 70
     1
102
RTVSPropertyOp50
 70
     1
102
RTVSPropertyOp51
 70
     0
102
RTVSPropertyOp52
 70
     0
102
RTVSPropertyOp53
 70
     1
102
RTVSPropertyOp54
 70
     1
102
RTVSPropertyOp55
 70
     1
102
RTVSPropertyOp56
 70
     1
102
RTVSPropertyOp57
 70
     1
102
RTVSPost2010Prop28
280
     0
102
RTVSPost2010PropOp28
 70
     1
102
RTVSPost2010Prop29
280
     1
102
RTVSPost2010PropOp29
 70
     1
102
RTVSPost2010Prop30
280
     1
102
RTVSPost2010PropOp30
 70
     1
102
RTVSPost2010Prop31
280
     0
102
RTVSPost2010PropOp31
 70
     1
102
RTVSPost2010Prop32
280
     0
102
RTVSPost2010PropOp32
 70
     1
102
RTVSPost2010Prop33
280
     0
102
RTVSPost2010PropOp33
 70
     1
102
RTVSPost2010Prop34
280
     0
102
RTVSPost2010PropOp34
 70
     1
102
RTVSPost2010Prop35
280
     0
102
RTVSPost2010PropOp35
 70
     1
102
RTVSPost2010Prop36
280
     0
102
RTVSPost2010PropOp36
 70
     1
102
RTVSPost2010Prop37
 90
       50
102
RTVSPost2010PropOp37
 70
     1
102
RTVSPost2010Prop38
140
0.0
102
RTVSPost2010PropOp38
 70
     1
102
RTVSPost2010Prop39
140
1.0
102
RTVSPost2010PropOp39
 70
     1
102
RTVSPost2010Prop40
 90
        0
102
RTVSPost2010PropOp40
 70
     1
102
RTVSPost2010Prop41ColorIndex
 90
       18
102
RTVSPost2010Prop41ColorRGB
 90
        0
102
RTVSPost2010PropOp41
 70
     1
102
RTVSPost2010Prop42
 90
       50
102
RTVSPost2010PropOp42
 70
     1
102
RTVSPost2010Prop43
 90
        3
102
RTVSPost2010PropOp43
 70
     1
102
RTVSPost2010Prop44ColorIndex
 90
        5
102
RTVSPost2010Prop44ColorRGB
 90
      255
102
RTVSPost2010PropOp44
 70
     1
102
RTVSPost2010Prop45
280
     0
102
RTVSPost2010PropOp45
 70
     1
102
RTVSPost2010Prop46
 90
       50
102
RTVSPost2010PropOp46
 70
     1
102
RTVSPost2010Prop47
 90
       50
102
RTVSPost2010PropOp47
 70
     1
102
RTVSPost2010Prop48
 90
       50
102
RTVSPost2010PropOp48
 70
     1
102
RTVSPost2010Prop49
280
     0
102
RTVSPost2010PropOp49
 70
     1
102
RTVSPost2010Prop50
 90
       50
102
RTVSPost2010PropOp50
 70
     1
102
RTVSPost2010Prop51ColorIndex
 90
      256
102
RTVSPost2010Prop51ColorRGB
 90
-16777216
102
RTVSPost2010PropOp51
 70
     0
102
RTVSPost2010Prop52
140
1.0
102
RTVSPost2010PropOp52
 70
     0
102
RTVSPost2010Prop53
 90
        2
102
RTVSPost2010PropOp53
 70
     1
102
RTVSPost2010Prop54
  1
strokes_ogs.tif
102
RTVSPost2010PropOp54
 70
     1
102
RTVSPost2010Prop55
280
     0
102
RTVSPost2010PropOp55
 70
     1
102
RTVSPost2010Prop56
140
1.0
102
RTVSPost2010PropOp56
 70
     1
102
RTVSPost2010Prop57
140
1.0
102
RTVSPost2010PropOp57
 70
     1
  0
XRECORD
  5
38B
102
{ACAD_REACTORS
330
38A
102
}
330
38A
100
AcDbXrecord
280
     1
102
RTVSPropertyOp0
 70
     1
102
RTVSPropertyOp1
 70
     1
102
RTVSPropertyOp2
 70
     1
102
RTVSPropertyOp3
 70
     1
102
RTVSPropertyOp4
 70
     1
102
RTVSPropertyOp5
 70
     1
102
RTVSPropertyOp6
 70
     1
102
RTVSPropertyOp7
 70
     1
102
RTVSPropertyOp8
 70
     1
102
RTVSPropertyOp9
 70
     1
102
RTVSPropertyOp10
 70
     1
102
RTVSPropertyOp11
 70
     1
102
RTVSPropertyOp12
 70
     1
102
RTVSPropertyOp13
 70
     1
102
RTVSPropertyOp14
 70
     1
102
RTVSPropertyOp15
 70
     1
102
RTVSPropertyOp16
 70
     1
102
RTVSPropertyOp17
 70
     1
102
RTVSPropertyOp18
 70
     1
102
RTVSPropertyOp19
 70
     1
102
RTVSPropertyOp20
 70
     1
102
RTVSPropertyOp21
 70
     1
102
RTVSPropertyOp22
 70
     1
102
RTVSPropertyOp23
 70
     1
102
RTVSPropertyOp24
 70
     1
102
RTVSPropertyOp25
 70
     1
102
RTVSPropertyOp26
 70
     1
102
RTVSPropertyOp27
 70
     1
102
RTVSPropertyOp28
 70
     1
102
RTVSPropertyOp29
 70
     1
102
RTVSPropertyOp30
 70
     1
102
RTVSPropertyOp31
 70
     1
102
RTVSPropertyOp32
 70
     1
102
RTVSPropertyOp33
 70
     1
102
RTVSPropertyOp34
 70
     1
102
RTVSPropertyOp35
 70
     1
102
RTVSPropertyOp36
 70
     1
102
RTVSPropertyOp37
 70
     1
102
RTVSPropertyOp38
 70
     1
102
RTVSPropertyOp39
 70
     1
102
RTVSPropertyOp40
 70
     1
102
RTVSPropertyOp41
 70
     1
102
RTVSPropertyOp42
 70
     1
102
RTVSPropertyOp43
 70
     1
102
RTVSPropertyOp44
 70
     1
102
RTVSPropertyOp45
 70
     1
102
RTVSPropertyOp46
 70
     1
102
RTVSPropertyOp47
 70
     1
102
RTVSPropertyOp48
 70
     1
102
RTVSPropertyOp49
 70
     1
102
RTVSPropertyOp50
 70
     1
102
RTVSPropertyOp51
 70
     0
102
RTVSPropertyOp52
 70
     0
102
RTVSPropertyOp53
 70
     1
102
RTVSPropertyOp54
 70
     1
102
RTVSPropertyOp55
 70
     1
102
RTVSPropertyOp56
 70
     1
102
RTVSPropertyOp57
 70
     1
102
RTVSPost2010Prop28
280
     0
102
RTVSPost2010PropOp28
 70
     1
102
RTVSPost2010Prop29
280
     1
102
RTVSPost2010PropOp29
 70
     1
102
RTVSPost2010Prop30
280
     1
102
RTVSPost2010PropOp30
 70
     1
102
RTVSPost2010Prop31
280
     0
102
RTVSPost2010PropOp31
 70
     1
102
RTVSPost2010Prop32
280
     0
102
RTVSPost2010PropOp32
 70
     1
102
RTVSPost2010Prop33
280
     0
102
RTVSPost2010PropOp33
 70
     1
102
RTVSPost2010Prop34
280
     0
102
RTVSPost2010PropOp34
 70
     1
102
RTVSPost2010Prop35
280
     0
102
RTVSPost2010PropOp35
 70
     1
102
RTVSPost2010Prop36
280
     0
102
RTVSPost2010PropOp36
 70
     1
102
RTVSPost2010Prop37
 90
       50
102
RTVSPost2010PropOp37
 70
     1
102
RTVSPost2010Prop38
140
0.0
102
RTVSPost2010PropOp38
 70
     1
102
RTVSPost2010Prop39
140
1.0
102
RTVSPost2010PropOp39
 70
     1
102
RTVSPost2010Prop40
 90
        0
102
RTVSPost2010PropOp40
 70
     1
102
RTVSPost2010Prop41ColorIndex
 90
       18
102
RTVSPost2010Prop41ColorRGB
 90
        0
102
RTVSPost2010PropOp41
 70
     1
102
RTVSPost2010Prop42
 90
       50
102
RTVSPost2010PropOp42
 70
     1
102
RTVSPost2010Prop43
 90
        3
102
RTVSPost2010PropOp43
 70
     1
102
RTVSPost2010Prop44ColorIndex
 90
        5
102
RTVSPost2010Prop44ColorRGB
 90
      255
102
RTVSPost2010PropOp44
 70
     1
102
RTVSPost2010Prop45
280
     0
102
RTVSPost2010PropOp45
 70
     1
102
RTVSPost2010Prop46
 90
       50
102
RTVSPost2010PropOp46
 70
     1
102
RTVSPost2010Prop47
 90
       50
102
RTVSPost2010PropOp47
 70
     1
102
RTVSPost2010Prop48
 90
       50
102
RTVSPost2010PropOp48
 70
     1
102
RTVSPost2010Prop49
280
     0
102
RTVSPost2010PropOp49
 70
     1
102
RTVSPost2010Prop50
 90
       50
102
RTVSPost2010PropOp50
 70
     1
102
RTVSPost2010Prop51ColorIndex
 90
      256
102
RTVSPost2010Prop51ColorRGB
 90
-16777216
102
RTVSPost2010PropOp51
 70
     0
102
RTVSPost2010Prop52
140
1.0
102
RTVSPost2010PropOp52
 70
     0
102
RTVSPost2010Prop53
 90
        2
102
RTVSPost2010PropOp53
 70
     1
102
RTVSPost2010Prop54
  1
strokes_ogs.tif
102
RTVSPost2010PropOp54
 70
     1
102
RTVSPost2010Prop55
280
     0
102
RTVSPost2010PropOp55
 70
     1
102
RTVSPost2010Prop56
140
1.0
102
RTVSPost2010PropOp56
 70
     1
102
RTVSPost2010Prop57
140
1.0
102
RTVSPost2010PropOp57
 70
     1
  0
XRECORD
  5
38D
102
{ACAD_REACTORS
330
38C
102
}
330
38C
100
AcDbXrecord
280
     1
102
RTVSPropertyOp0
 70
     1
102
RTVSPropertyOp1
 70
     1
102
RTVSPropertyOp2
 70
     1
102
RTVSPropertyOp3
 70
     1
102
RTVSPropertyOp4
 70
     1
102
RTVSPropertyOp5
 70
     1
102
RTVSPropertyOp6
 70
     1
102
RTVSPropertyOp7
 70
     1
102
RTVSPropertyOp8
 70
     1
102
RTVSPropertyOp9
 70
     1
102
RTVSPropertyOp10
 70
     1
102
RTVSPropertyOp11
 70
     1
102
RTVSPropertyOp12
 70
     1
102
RTVSPropertyOp13
 70
     1
102
RTVSPropertyOp14
 70
     1
102
RTVSPropertyOp15
 70
     1
102
RTVSPropertyOp16
 70
     1
102
RTVSPropertyOp17
 70
     1
102
RTVSPropertyOp18
 70
     1
102
RTVSPropertyOp19
 70
     1
102
RTVSPropertyOp20
 70
     1
102
RTVSPropertyOp21
 70
     1
102
RTVSPropertyOp22
 70
     1
102
RTVSPropertyOp23
 70
     1
102
RTVSPropertyOp24
 70
     1
102
RTVSPropertyOp25
 70
     1
102
RTVSPropertyOp26
 70
     1
102
RTVSPropertyOp27
 70
     1
102
RTVSPropertyOp28
 70
     1
102
RTVSPropertyOp29
 70
     1
102
RTVSPropertyOp30
 70
     1
102
RTVSPropertyOp31
 70
     1
102
RTVSPropertyOp32
 70
     1
102
RTVSPropertyOp33
 70
     1
102
RTVSPropertyOp34
 70
     1
102
RTVSPropertyOp35
 70
     1
102
RTVSPropertyOp36
 70
     1
102
RTVSPropertyOp37
 70
     1
102
RTVSPropertyOp38
 70
     1
102
RTVSPropertyOp39
 70
     1
102
RTVSPropertyOp40
 70
     1
102
RTVSPropertyOp41
 70
     1
102
RTVSPropertyOp42
 70
     1
102
RTVSPropertyOp43
 70
     1
102
RTVSPropertyOp44
 70
     1
102
RTVSPropertyOp45
 70
     1
102
RTVSPropertyOp46
 70
     1
102
RTVSPropertyOp47
 70
     1
102
RTVSPropertyOp48
 70
     1
102
RTVSPropertyOp49
 70
     1
102
RTVSPropertyOp50
 70
     1
102
RTVSPropertyOp51
 70
     0
102
RTVSPropertyOp52
 70
     0
102
RTVSPropertyOp53
 70
     1
102
RTVSPropertyOp54
 70
     1
102
RTVSPropertyOp55
 70
     1
102
RTVSPropertyOp56
 70
     1
102
RTVSPropertyOp57
 70
     1
102
RTVSPost2010Prop28
280
     0
102
RTVSPost2010PropOp28
 70
     1
102
RTVSPost2010Prop29
280
     1
102
RTVSPost2010PropOp29
 70
     1
102
RTVSPost2010Prop30
280
     1
102
RTVSPost2010PropOp30
 70
     1
102
RTVSPost2010Prop31
280
     0
102
RTVSPost2010PropOp31
 70
     1
102
RTVSPost2010Prop32
280
     0
102
RTVSPost2010PropOp32
 70
     1
102
RTVSPost2010Prop33
280
     0
102
RTVSPost2010PropOp33
 70
     1
102
RTVSPost2010Prop34
280
     0
102
RTVSPost2010PropOp34
 70
     1
102
RTVSPost2010Prop35
280
     0
102
RTVSPost2010PropOp35
 70
     1
102
RTVSPost2010Prop36
280
     0
102
RTVSPost2010PropOp36
 70
     1
102
RTVSPost2010Prop37
 90
       50
102
RTVSPost2010PropOp37
 70
     1
102
RTVSPost2010Prop38
140
0.0
102
RTVSPost2010PropOp38
 70
     1
102
RTVSPost2010Prop39
140
1.0
102
RTVSPost2010PropOp39
 70
     1
102
RTVSPost2010Prop40
 90
        0
102
RTVSPost2010PropOp40
 70
     1
102
RTVSPost2010Prop41ColorIndex
 90
       18
102
RTVSPost2010Prop41ColorRGB
 90
        0
102
RTVSPost2010PropOp41
 70
     1
102
RTVSPost2010Prop42
 90
       50
102
RTVSPost2010PropOp42
 70
     1
102
RTVSPost2010Prop43
 90
        3
102
RTVSPost2010PropOp43
 70
     1
102
RTVSPost2010Prop44ColorIndex
 90
        5
102
RTVSPost2010Prop44ColorRGB
 90
      255
102
RTVSPost2010PropOp44
 70
     1
102
RTVSPost2010Prop45
280
     0
102
RTVSPost2010PropOp45
 70
     1
102
RTVSPost2010Prop46
 90
       50
102
RTVSPost2010PropOp46
 70
     1
102
RTVSPost2010Prop47
 90
       50
102
RTVSPost2010PropOp47
 70
     1
102
RTVSPost2010Prop48
 90
       50
102
RTVSPost2010PropOp48
 70
     1
102
RTVSPost2010Prop49
280
     0
102
RTVSPost2010PropOp49
 70
     1
102
RTVSPost2010Prop50
 90
       50
102
RTVSPost2010PropOp50
 70
     1
102
RTVSPost2010Prop51ColorIndex
 90
      256
102
RTVSPost2010Prop51ColorRGB
 90
-16777216
102
RTVSPost2010PropOp51
 70
     0
102
RTVSPost2010Prop52
140
1.0
102
RTVSPost2010PropOp52
 70
     0
102
RTVSPost2010Prop53
 90
        2
102
RTVSPost2010PropOp53
 70
     1
102
RTVSPost2010Prop54
  1
strokes_ogs.tif
102
RTVSPost2010PropOp54
 70
     1
102
RTVSPost2010Prop55
280
     0
102
RTVSPost2010PropOp55
 70
     1
102
RTVSPost2010Prop56
140
1.0
102
RTVSPost2010PropOp56
 70
     1
102
RTVSPost2010Prop57
140
1.0
102
RTVSPost2010PropOp57
 70
     1
  0
XRECORD
  5
39D
102
{ACAD_REACTORS
330
39C
102
}
330
39C
100
AcDbXrecord
280
     1
102
RTVSPropertyOp0
 70
     0
102
RTVSPropertyOp1
 70
     0
102
RTVSPropertyOp2
 70
     0
102
RTVSPropertyOp3
 70
     0
102
RTVSPropertyOp4
 70
     0
102
RTVSPropertyOp5
 70
     0
102
RTVSPropertyOp6
 70
     0
102
RTVSPropertyOp7
 70
     0
102
RTVSPropertyOp8
 70
     0
102
RTVSPropertyOp9
 70
     0
102
RTVSPropertyOp10
 70
     0
102
RTVSPropertyOp11
 70
     0
102
RTVSPropertyOp12
 70
     0
102
RTVSPropertyOp13
 70
     0
102
RTVSPropertyOp14
 70
     2
102
RTVSPropertyOp15
 70
     0
102
RTVSPropertyOp16
 70
     0
102
RTVSPropertyOp17
 70
     0
102
RTVSPropertyOp18
 70
     0
102
RTVSPropertyOp19
 70
     0
102
RTVSPropertyOp20
 70
     0
102
RTVSPropertyOp21
 70
     0
102
RTVSPropertyOp22
 70
     0
102
RTVSPropertyOp23
 70
     0
102
RTVSPropertyOp24
 70
     0
102
RTVSPropertyOp25
 70
     0
102
RTVSPropertyOp26
 70
     0
102
RTVSPropertyOp27
 70
     0
102
RTVSPropertyOp28
 70
     0
102
RTVSPropertyOp29
 70
     0
102
RTVSPropertyOp30
 70
     0
102
RTVSPropertyOp31
 70
     0
102
RTVSPropertyOp32
 70
     0
102
RTVSPropertyOp33
 70
     0
102
RTVSPropertyOp34
 70
     0
102
RTVSPropertyOp35
 70
     0
102
RTVSPropertyOp36
 70
     0
102
RTVSPropertyOp37
 70
     0
102
RTVSPropertyOp38
 70
     0
102
RTVSPropertyOp39
 70
     0
102
RTVSPropertyOp40
 70
     0
102
RTVSPropertyOp41
 70
     0
102
RTVSPropertyOp42
 70
     0
102
RTVSPropertyOp43
 70
     0
102
RTVSPropertyOp44
 70
     0
102
RTVSPropertyOp45
 70
     0
102
RTVSPropertyOp46
 70
     0
102
RTVSPropertyOp47
 70
     0
102
RTVSPropertyOp48
 70
     0
102
RTVSPropertyOp49
 70
     0
102
RTVSPropertyOp50
 70
     0
102
RTVSPropertyOp51
 70
     0
102
RTVSPropertyOp52
 70
     0
102
RTVSPropertyOp53
 70
     0
102
RTVSPropertyOp54
 70
     0
102
RTVSPropertyOp55
 70
     0
102
RTVSPropertyOp56
 70
     0
102
RTVSPropertyOp57
 70
     0
102
RTVSPost2010Prop28
280
     0
102
RTVSPost2010PropOp28
 70
     0
102
RTVSPost2010Prop29
280
     1
102
RTVSPost2010PropOp29
 70
     0
102
RTVSPost2010Prop30
280
     1
102
RTVSPost2010PropOp30
 70
     0
102
RTVSPost2010Prop31
280
     0
102
RTVSPost2010PropOp31
 70
     0
102
RTVSPost2010Prop32
280
     0
102
RTVSPost2010PropOp32
 70
     0
102
RTVSPost2010Prop33
280
     0
102
RTVSPost2010PropOp33
 70
     0
102
RTVSPost2010Prop34
280
     0
102
RTVSPost2010PropOp34
 70
     0
102
RTVSPost2010Prop35
280
     0
102
RTVSPost2010PropOp35
 70
     0
102
RTVSPost2010Prop36
280
     0
102
RTVSPost2010PropOp36
 70
     0
102
RTVSPost2010Prop37
 90
       50
102
RTVSPost2010PropOp37
 70
     0
102
RTVSPost2010Prop38
140
0.0
102
RTVSPost2010PropOp38
 70
     0
102
RTVSPost2010Prop39
140
1.0
102
RTVSPost2010PropOp39
 70
     0
102
RTVSPost2010Prop40
 90
        0
102
RTVSPost2010PropOp40
 70
     0
102
RTVSPost2010Prop41ColorIndex
 90
       18
102
RTVSPost2010Prop41ColorRGB
 90
        0
102
RTVSPost2010PropOp41
 70
     0
102
RTVSPost2010Prop42
 90
       50
102
RTVSPost2010PropOp42
 70
     0
102
RTVSPost2010Prop43
 90
        3
102
RTVSPost2010PropOp43
 70
     0
102
RTVSPost2010Prop44ColorIndex
 90
        5
102
RTVSPost2010Prop44ColorRGB
 90
      255
102
RTVSPost2010PropOp44
 70
     0
102
RTVSPost2010Prop45
280
     0
102
RTVSPost2010PropOp45
 70
     0
102
RTVSPost2010Prop46
 90
       50
102
RTVSPost2010PropOp46
 70
     0
102
RTVSPost2010Prop47
 90
       50
102
RTVSPost2010PropOp47
 70
     0
102
RTVSPost2010Prop48
 90
       50
102
RTVSPost2010PropOp48
 70
     0
102
RTVSPost2010Prop49
280
     0
102
RTVSPost2010PropOp49
 70
     0
102
RTVSPost2010Prop50
 90
       50
102
RTVSPost2010PropOp50
 70
     0
102
RTVSPost2010Prop51ColorIndex
 90
      256
102
RTVSPost2010Prop51ColorRGB
 90
-16777216
102
RTVSPost2010PropOp51
 70
     0
102
RTVSPost2010Prop52
140
1.0
102
RTVSPost2010PropOp52
 70
     0
102
RTVSPost2010Prop53
 90
        2
102
RTVSPost2010PropOp53
 70
     0
102
RTVSPost2010Prop54
  1
strokes_ogs.tif
102
RTVSPost2010PropOp54
 70
     0
102
RTVSPost2010Prop55
280
     0
102
RTVSPost2010PropOp55
 70
     0
102
RTVSPost2010Prop56
140
1.0
102
RTVSPost2010PropOp56
 70
     0
102
RTVSPost2010Prop57
140
1.0
102
RTVSPost2010PropOp57
 70
     0
  0
XRECORD
  5
395
102
{ACAD_REACTORS
330
394
102
}
330
394
100
AcDbXrecord
280
     1
102
RTVSPropertyOp0
 70
     1
102
RTVSPropertyOp1
 70
     1
102
RTVSPropertyOp2
 70
     1
102
RTVSPropertyOp3
 70
     1
102
RTVSPropertyOp4
 70
     1
102
RTVSPropertyOp5
 70
     1
102
RTVSPropertyOp6
 70
     1
102
RTVSPropertyOp7
 70
     1
102
RTVSPropertyOp8
 70
     1
102
RTVSPropertyOp9
 70
     1
102
RTVSPropertyOp10
 70
     1
102
RTVSPropertyOp11
 70
     1
102
RTVSPropertyOp12
 70
     1
102
RTVSPropertyOp13
 70
     1
102
RTVSPropertyOp14
 70
     1
102
RTVSPropertyOp15
 70
     1
102
RTVSPropertyOp16
 70
     1
102
RTVSPropertyOp17
 70
     1
102
RTVSPropertyOp18
 70
     1
102
RTVSPropertyOp19
 70
     1
102
RTVSPropertyOp20
 70
     1
102
RTVSPropertyOp21
 70
     1
102
RTVSPropertyOp22
 70
     1
102
RTVSPropertyOp23
 70
     1
102
RTVSPropertyOp24
 70
     1
102
RTVSPropertyOp25
 70
     1
102
RTVSPropertyOp26
 70
     1
102
RTVSPropertyOp27
 70
     1
102
RTVSPropertyOp28
 70
     1
102
RTVSPropertyOp29
 70
     1
102
RTVSPropertyOp30
 70
     1
102
RTVSPropertyOp31
 70
     1
102
RTVSPropertyOp32
 70
     1
102
RTVSPropertyOp33
 70
     1
102
RTVSPropertyOp34
 70
     1
102
RTVSPropertyOp35
 70
     1
102
RTVSPropertyOp36
 70
     1
102
RTVSPropertyOp37
 70
     1
102
RTVSPropertyOp38
 70
     1
102
RTVSPropertyOp39
 70
     1
102
RTVSPropertyOp40
 70
     1
102
RTVSPropertyOp41
 70
     1
102
RTVSPropertyOp42
 70
     1
102
RTVSPropertyOp43
 70
     1
102
RTVSPropertyOp44
 70
     1
102
RTVSPropertyOp45
 70
     1
102
RTVSPropertyOp46
 70
     1
102
RTVSPropertyOp47
 70
     1
102
RTVSPropertyOp48
 70
     1
102
RTVSPropertyOp49
 70
     1
102
RTVSPropertyOp50
 70
     1
102
RTVSPropertyOp51
 70
     0
102
RTVSPropertyOp52
 70
     0
102
RTVSPropertyOp53
 70
     1
102
RTVSPropertyOp54
 70
     1
102
RTVSPropertyOp55
 70
     1
102
RTVSPropertyOp56
 70
     1
102
RTVSPropertyOp57
 70
     1
102
RTVSPost2010Prop28
280
     0
102
RTVSPost2010PropOp28
 70
     1
102
RTVSPost2010Prop29
280
     1
102
RTVSPost2010PropOp29
 70
     1
102
RTVSPost2010Prop30
280
     1
102
RTVSPost2010PropOp30
 70
     1
102
RTVSPost2010Prop31
280
     0
102
RTVSPost2010PropOp31
 70
     1
102
RTVSPost2010Prop32
280
     0
102
RTVSPost2010PropOp32
 70
     1
102
RTVSPost2010Prop33
280
     0
102
RTVSPost2010PropOp33
 70
     1
102
RTVSPost2010Prop34
280
     0
102
RTVSPost2010PropOp34
 70
     1
102
RTVSPost2010Prop35
280
     0
102
RTVSPost2010PropOp35
 70
     1
102
RTVSPost2010Prop36
280
     0
102
RTVSPost2010PropOp36
 70
     1
102
RTVSPost2010Prop37
 90
       50
102
RTVSPost2010PropOp37
 70
     1
102
RTVSPost2010Prop38
140
0.0
102
RTVSPost2010PropOp38
 70
     1
102
RTVSPost2010Prop39
140
1.0
102
RTVSPost2010PropOp39
 70
     1
102
RTVSPost2010Prop40
 90
        0
102
RTVSPost2010PropOp40
 70
     1
102
RTVSPost2010Prop41ColorIndex
 90
       18
102
RTVSPost2010Prop41ColorRGB
 90
        0
102
RTVSPost2010PropOp41
 70
     1
102
RTVSPost2010Prop42
 90
       50
102
RTVSPost2010PropOp42
 70
     1
102
RTVSPost2010Prop43
 90
        3
102
RTVSPost2010PropOp43
 70
     1
102
RTVSPost2010Prop44ColorIndex
 90
        5
102
RTVSPost2010Prop44ColorRGB
 90
      255
102
RTVSPost2010PropOp44
 70
     1
102
RTVSPost2010Prop45
280
     0
102
RTVSPost2010PropOp45
 70
     1
102
RTVSPost2010Prop46
 90
       50
102
RTVSPost2010PropOp46
 70
     1
102
RTVSPost2010Prop47
 90
       50
102
RTVSPost2010PropOp47
 70
     1
102
RTVSPost2010Prop48
 90
       50
102
RTVSPost2010PropOp48
 70
     1
102
RTVSPost2010Prop49
280
     0
102
RTVSPost2010PropOp49
 70
     1
102
RTVSPost2010Prop50
 90
       50
102
RTVSPost2010PropOp50
 70
     1
102
RTVSPost2010Prop51ColorIndex
 90
      256
102
RTVSPost2010Prop51ColorRGB
 90
-16777216
102
RTVSPost2010PropOp51
 70
     0
102
RTVSPost2010Prop52
140
1.0
102
RTVSPost2010PropOp52
 70
     0
102
RTVSPost2010Prop53
 90
        2
102
RTVSPost2010PropOp53
 70
     1
102
RTVSPost2010Prop54
  1
strokes_ogs.tif
102
RTVSPost2010PropOp54
 70
     1
102
RTVSPost2010Prop55
280
     0
102
RTVSPost2010PropOp55
 70
     1
102
RTVSPost2010Prop56
140
1.0
102
RTVSPost2010PropOp56
 70
     1
102
RTVSPost2010Prop57
140
1.0
102
RTVSPost2010PropOp57
 70
     1
  0
XRECORD
  5
379
102
{ACAD_REACTORS
330
378
102
}
330
378
100
AcDbXrecord
280
     1
102
RTVSPropertyOp0
 70
     1
102
RTVSPropertyOp1
 70
     1
102
RTVSPropertyOp2
 70
     1
102
RTVSPropertyOp3
 70
     1
102
RTVSPropertyOp4
 70
     1
102
RTVSPropertyOp5
 70
     1
102
RTVSPropertyOp6
 70
     1
102
RTVSPropertyOp7
 70
     1
102
RTVSPropertyOp8
 70
     1
102
RTVSPropertyOp9
 70
     1
102
RTVSPropertyOp10
 70
     1
102
RTVSPropertyOp11
 70
     1
102
RTVSPropertyOp12
 70
     1
102
RTVSPropertyOp13
 70
     1
102
RTVSPropertyOp14
 70
     1
102
RTVSPropertyOp15
 70
     1
102
RTVSPropertyOp16
 70
     1
102
RTVSPropertyOp17
 70
     1
102
RTVSPropertyOp18
 70
     1
102
RTVSPropertyOp19
 70
     1
102
RTVSPropertyOp20
 70
     1
102
RTVSPropertyOp21
 70
     1
102
RTVSPropertyOp22
 70
     1
102
RTVSPropertyOp23
 70
     1
102
RTVSPropertyOp24
 70
     1
102
RTVSPropertyOp25
 70
     1
102
RTVSPropertyOp26
 70
     1
102
RTVSPropertyOp27
 70
     1
102
RTVSPropertyOp28
 70
     1
102
RTVSPropertyOp29
 70
     1
102
RTVSPropertyOp30
 70
     1
102
RTVSPropertyOp31
 70
     1
102
RTVSPropertyOp32
 70
     1
102
RTVSPropertyOp33
 70
     1
102
RTVSPropertyOp34
 70
     1
102
RTVSPropertyOp35
 70
     1
102
RTVSPropertyOp36
 70
     1
102
RTVSPropertyOp37
 70
     1
102
RTVSPropertyOp38
 70
     1
102
RTVSPropertyOp39
 70
     1
102
RTVSPropertyOp40
 70
     1
102
RTVSPropertyOp41
 70
     1
102
RTVSPropertyOp42
 70
     1
102
RTVSPropertyOp43
 70
     1
102
RTVSPropertyOp44
 70
     1
102
RTVSPropertyOp45
 70
     1
102
RTVSPropertyOp46
 70
     1
102
RTVSPropertyOp47
 70
     1
102
RTVSPropertyOp48
 70
     1
102
RTVSPropertyOp49
 70
     1
102
RTVSPropertyOp50
 70
     1
102
RTVSPropertyOp51
 70
     0
102
RTVSPropertyOp52
 70
     0
102
RTVSPropertyOp53
 70
     1
102
RTVSPropertyOp54
 70
     1
102
RTVSPropertyOp55
 70
     1
102
RTVSPropertyOp56
 70
     1
102
RTVSPropertyOp57
 70
     1
102
RTVSPost2010Prop28
280
     0
102
RTVSPost2010PropOp28
 70
     1
102
RTVSPost2010Prop29
280
     1
102
RTVSPost2010PropOp29
 70
     1
102
RTVSPost2010Prop30
280
     1
102
RTVSPost2010PropOp30
 70
     1
102
RTVSPost2010Prop31
280
     0
102
RTVSPost2010PropOp31
 70
     1
102
RTVSPost2010Prop32
280
     0
102
RTVSPost2010PropOp32
 70
     1
102
RTVSPost2010Prop33
280
     0
102
RTVSPost2010PropOp33
 70
     1
102
RTVSPost2010Prop34
280
     0
102
RTVSPost2010PropOp34
 70
     1
102
RTVSPost2010Prop35
280
     0
102
RTVSPost2010PropOp35
 70
     1
102
RTVSPost2010Prop36
280
     0
102
RTVSPost2010PropOp36
 70
     1
102
RTVSPost2010Prop37
 90
       50
102
RTVSPost2010PropOp37
 70
     1
102
RTVSPost2010Prop38
140
0.0
102
RTVSPost2010PropOp38
 70
     1
102
RTVSPost2010Prop39
140
1.0
102
RTVSPost2010PropOp39
 70
     1
102
RTVSPost2010Prop40
 90
        0
102
RTVSPost2010PropOp40
 70
     1
102
RTVSPost2010Prop41ColorIndex
 90
       18
102
RTVSPost2010Prop41ColorRGB
 90
        0
102
RTVSPost2010PropOp41
 70
     1
102
RTVSPost2010Prop42
 90
       50
102
RTVSPost2010PropOp42
 70
     1
102
RTVSPost2010Prop43
 90
        3
102
RTVSPost2010PropOp43
 70
     1
102
RTVSPost2010Prop44ColorIndex
 90
        5
102
RTVSPost2010Prop44ColorRGB
 90
      255
102
RTVSPost2010PropOp44
 70
     1
102
RTVSPost2010Prop45
280
     0
102
RTVSPost2010PropOp45
 70
     1
102
RTVSPost2010Prop46
 90
       50
102
RTVSPost2010PropOp46
 70
     1
102
RTVSPost2010Prop47
 90
       50
102
RTVSPost2010PropOp47
 70
     1
102
RTVSPost2010Prop48
 90
       50
102
RTVSPost2010PropOp48
 70
     1
102
RTVSPost2010Prop49
280
     0
102
RTVSPost2010PropOp49
 70
     1
102
RTVSPost2010Prop50
 90
       50
102
RTVSPost2010PropOp50
 70
     1
102
RTVSPost2010Prop51ColorIndex
 90
      256
102
RTVSPost2010Prop51ColorRGB
 90
-16777216
102
RTVSPost2010PropOp51
 70
     0
102
RTVSPost2010Prop52
140
1.0
102
RTVSPost2010PropOp52
 70
     0
102
RTVSPost2010Prop53
 90
        2
102
RTVSPost2010PropOp53
 70
     1
102
RTVSPost2010Prop54
  1
strokes_ogs.tif
102
RTVSPost2010PropOp54
 70
     1
102
RTVSPost2010Prop55
280
     0
102
RTVSPost2010PropOp55
 70
     1
102
RTVSPost2010Prop56
140
1.0
102
RTVSPost2010PropOp56
 70
     1
102
RTVSPost2010Prop57
140
1.0
102
RTVSPost2010PropOp57
 70
     1
  0
XRECORD
  5
37B
102
{ACAD_REACTORS
330
37A
102
}
330
37A
100
AcDbXrecord
280
     1
102
RTVSPropertyOp0
 70
     1
102
RTVSPropertyOp1
 70
     1
102
RTVSPropertyOp2
 70
     1
102
RTVSPropertyOp3
 70
     1
102
RTVSPropertyOp4
 70
     1
102
RTVSPropertyOp5
 70
     1
102
RTVSPropertyOp6
 70
     1
102
RTVSPropertyOp7
 70
     1
102
RTVSPropertyOp8
 70
     1
102
RTVSPropertyOp9
 70
     1
102
RTVSPropertyOp10
 70
     1
102
RTVSPropertyOp11
 70
     1
102
RTVSPropertyOp12
 70
     1
102
RTVSPropertyOp13
 70
     1
102
RTVSPropertyOp14
 70
     1
102
RTVSPropertyOp15
 70
     1
102
RTVSPropertyOp16
 70
     1
102
RTVSPropertyOp17
 70
     1
102
RTVSPropertyOp18
 70
     1
102
RTVSPropertyOp19
 70
     1
102
RTVSPropertyOp20
 70
     1
102
RTVSPropertyOp21
 70
     1
102
RTVSPropertyOp22
 70
     1
102
RTVSPropertyOp23
 70
     1
102
RTVSPropertyOp24
 70
     1
102
RTVSPropertyOp25
 70
     1
102
RTVSPropertyOp26
 70
     1
102
RTVSPropertyOp27
 70
     1
102
RTVSPropertyOp28
 70
     1
102
RTVSPropertyOp29
 70
     1
102
RTVSPropertyOp30
 70
     1
102
RTVSPropertyOp31
 70
     1
102
RTVSPropertyOp32
 70
     1
102
RTVSPropertyOp33
 70
     1
102
RTVSPropertyOp34
 70
     1
102
RTVSPropertyOp35
 70
     1
102
RTVSPropertyOp36
 70
     1
102
RTVSPropertyOp37
 70
     1
102
RTVSPropertyOp38
 70
     1
102
RTVSPropertyOp39
 70
     1
102
RTVSPropertyOp40
 70
     1
102
RTVSPropertyOp41
 70
     1
102
RTVSPropertyOp42
 70
     1
102
RTVSPropertyOp43
 70
     1
102
RTVSPropertyOp44
 70
     1
102
RTVSPropertyOp45
 70
     1
102
RTVSPropertyOp46
 70
     1
102
RTVSPropertyOp47
 70
     1
102
RTVSPropertyOp48
 70
     1
102
RTVSPropertyOp49
 70
     1
102
RTVSPropertyOp50
 70
     1
102
RTVSPropertyOp51
 70
     0
102
RTVSPropertyOp52
 70
     0
102
RTVSPropertyOp53
 70
     1
102
RTVSPropertyOp54
 70
     1
102
RTVSPropertyOp55
 70
     1
102
RTVSPropertyOp56
 70
     1
102
RTVSPropertyOp57
 70
     1
102
RTVSPost2010Prop28
280
     0
102
RTVSPost2010PropOp28
 70
     1
102
RTVSPost2010Prop29
280
     1
102
RTVSPost2010PropOp29
 70
     1
102
RTVSPost2010Prop30
280
     1
102
RTVSPost2010PropOp30
 70
     1
102
RTVSPost2010Prop31
280
     0
102
RTVSPost2010PropOp31
 70
     1
102
RTVSPost2010Prop32
280
     0
102
RTVSPost2010PropOp32
 70
     1
102
RTVSPost2010Prop33
280
     0
102
RTVSPost2010PropOp33
 70
     1
102
RTVSPost2010Prop34
280
     0
102
RTVSPost2010PropOp34
 70
     1
102
RTVSPost2010Prop35
280
     0
102
RTVSPost2010PropOp35
 70
     1
102
RTVSPost2010Prop36
280
     0
102
RTVSPost2010PropOp36
 70
     1
102
RTVSPost2010Prop37
 90
       50
102
RTVSPost2010PropOp37
 70
     1
102
RTVSPost2010Prop38
140
0.0
102
RTVSPost2010PropOp38
 70
     1
102
RTVSPost2010Prop39
140
1.0
102
RTVSPost2010PropOp39
 70
     1
102
RTVSPost2010Prop40
 90
        0
102
RTVSPost2010PropOp40
 70
     1
102
RTVSPost2010Prop41ColorIndex
 90
       18
102
RTVSPost2010Prop41ColorRGB
 90
        0
102
RTVSPost2010PropOp41
 70
     1
102
RTVSPost2010Prop42
 90
       50
102
RTVSPost2010PropOp42
 70
     1
102
RTVSPost2010Prop43
 90
        3
102
RTVSPost2010PropOp43
 70
     1
102
RTVSPost2010Prop44ColorIndex
 90
        5
102
RTVSPost2010Prop44ColorRGB
 90
      255
102
RTVSPost2010PropOp44
 70
     1
102
RTVSPost2010Prop45
280
     0
102
RTVSPost2010PropOp45
 70
     1
102
RTVSPost2010Prop46
 90
       50
102
RTVSPost2010PropOp46
 70
     1
102
RTVSPost2010Prop47
 90
       50
102
RTVSPost2010PropOp47
 70
     1
102
RTVSPost2010Prop48
 90
       50
102
RTVSPost2010PropOp48
 70
     1
102
RTVSPost2010Prop49
280
     0
102
RTVSPost2010PropOp49
 70
     1
102
RTVSPost2010Prop50
 90
       50
102
RTVSPost2010PropOp50
 70
     1
102
RTVSPost2010Prop51ColorIndex
 90
      256
102
RTVSPost2010Prop51ColorRGB
 90
-16777216
102
RTVSPost2010PropOp51
 70
     0
102
RTVSPost2010Prop52
140
1.0
102
RTVSPost2010PropOp52
 70
     0
102
RTVSPost2010Prop53
 90
        2
102
RTVSPost2010PropOp53
 70
     1
102
RTVSPost2010Prop54
  1
strokes_ogs.tif
102
RTVSPost2010PropOp54
 70
     1
102
RTVSPost2010Prop55
280
     0
102
RTVSPost2010PropOp55
 70
     1
102
RTVSPost2010Prop56
140
1.0
102
RTVSPost2010PropOp56
 70
     1
102
RTVSPost2010Prop57
140
1.0
102
RTVSPost2010PropOp57
 70
     1
  0
XRECORD
  5
37D
102
{ACAD_REACTORS
330
37C
102
}
330
37C
100
AcDbXrecord
280
     1
102
RTVSPropertyOp0
 70
     1
102
RTVSPropertyOp1
 70
     1
102
RTVSPropertyOp2
 70
     1
102
RTVSPropertyOp3
 70
     1
102
RTVSPropertyOp4
 70
     1
102
RTVSPropertyOp5
 70
     1
102
RTVSPropertyOp6
 70
     1
102
RTVSPropertyOp7
 70
     1
102
RTVSPropertyOp8
 70
     1
102
RTVSPropertyOp9
 70
     1
102
RTVSPropertyOp10
 70
     1
102
RTVSPropertyOp11
 70
     1
102
RTVSPropertyOp12
 70
     1
102
RTVSPropertyOp13
 70
     1
102
RTVSPropertyOp14
 70
     1
102
RTVSPropertyOp15
 70
     1
102
RTVSPropertyOp16
 70
     1
102
RTVSPropertyOp17
 70
     1
102
RTVSPropertyOp18
 70
     1
102
RTVSPropertyOp19
 70
     1
102
RTVSPropertyOp20
 70
     1
102
RTVSPropertyOp21
 70
     1
102
RTVSPropertyOp22
 70
     1
102
RTVSPropertyOp23
 70
     1
102
RTVSPropertyOp24
 70
     1
102
RTVSPropertyOp25
 70
     1
102
RTVSPropertyOp26
 70
     1
102
RTVSPropertyOp27
 70
     1
102
RTVSPropertyOp28
 70
     1
102
RTVSPropertyOp29
 70
     1
102
RTVSPropertyOp30
 70
     1
102
RTVSPropertyOp31
 70
     1
102
RTVSPropertyOp32
 70
     1
102
RTVSPropertyOp33
 70
     1
102
RTVSPropertyOp34
 70
     1
102
RTVSPropertyOp35
 70
     1
102
RTVSPropertyOp36
 70
     1
102
RTVSPropertyOp37
 70
     1
102
RTVSPropertyOp38
 70
     1
102
RTVSPropertyOp39
 70
     1
102
RTVSPropertyOp40
 70
     1
102
RTVSPropertyOp41
 70
     1
102
RTVSPropertyOp42
 70
     1
102
RTVSPropertyOp43
 70
     1
102
RTVSPropertyOp44
 70
     1
102
RTVSPropertyOp45
 70
     1
102
RTVSPropertyOp46
 70
     1
102
RTVSPropertyOp47
 70
     1
102
RTVSPropertyOp48
 70
     1
102
RTVSPropertyOp49
 70
     1
102
RTVSPropertyOp50
 70
     1
102
RTVSPropertyOp51
 70
     0
102
RTVSPropertyOp52
 70
     0
102
RTVSPropertyOp53
 70
     1
102
RTVSPropertyOp54
 70
     1
102
RTVSPropertyOp55
 70
     1
102
RTVSPropertyOp56
 70
     1
102
RTVSPropertyOp57
 70
     1
102
RTVSPost2010Prop28
280
     0
102
RTVSPost2010PropOp28
 70
     1
102
RTVSPost2010Prop29
280
     1
102
RTVSPost2010PropOp29
 70
     1
102
RTVSPost2010Prop30
280
     1
102
RTVSPost2010PropOp30
 70
     1
102
RTVSPost2010Prop31
280
     0
102
RTVSPost2010PropOp31
 70
     1
102
RTVSPost2010Prop32
280
     0
102
RTVSPost2010PropOp32
 70
     1
102
RTVSPost2010Prop33
280
     0
102
RTVSPost2010PropOp33
 70
     1
102
RTVSPost2010Prop34
280
     0
102
RTVSPost2010PropOp34
 70
     1
102
RTVSPost2010Prop35
280
     0
102
RTVSPost2010PropOp35
 70
     1
102
RTVSPost2010Prop36
280
     0
102
RTVSPost2010PropOp36
 70
     1
102
RTVSPost2010Prop37
 90
       50
102
RTVSPost2010PropOp37
 70
     1
102
RTVSPost2010Prop38
140
0.0
102
RTVSPost2010PropOp38
 70
     1
102
RTVSPost2010Prop39
140
1.0
102
RTVSPost2010PropOp39
 70
     1
102
RTVSPost2010Prop40
 90
        0
102
RTVSPost2010PropOp40
 70
     1
102
RTVSPost2010Prop41ColorIndex
 90
       18
102
RTVSPost2010Prop41ColorRGB
 90
        0
102
RTVSPost2010PropOp41
 70
     1
102
RTVSPost2010Prop42
 90
       50
102
RTVSPost2010PropOp42
 70
     1
102
RTVSPost2010Prop43
 90
        3
102
RTVSPost2010PropOp43
 70
     1
102
RTVSPost2010Prop44ColorIndex
 90
        5
102
RTVSPost2010Prop44ColorRGB
 90
      255
102
RTVSPost2010PropOp44
 70
     1
102
RTVSPost2010Prop45
280
     0
102
RTVSPost2010PropOp45
 70
     1
102
RTVSPost2010Prop46
 90
       50
102
RTVSPost2010PropOp46
 70
     1
102
RTVSPost2010Prop47
 90
       50
102
RTVSPost2010PropOp47
 70
     1
102
RTVSPost2010Prop48
 90
       50
102
RTVSPost2010PropOp48
 70
     1
102
RTVSPost2010Prop49
280
     0
102
RTVSPost2010PropOp49
 70
     1
102
RTVSPost2010Prop50
 90
       50
102
RTVSPost2010PropOp50
 70
     1
102
RTVSPost2010Prop51ColorIndex
 90
      256
102
RTVSPost2010Prop51ColorRGB
 90
-16777216
102
RTVSPost2010PropOp51
 70
     0
102
RTVSPost2010Prop52
140
1.0
102
RTVSPost2010PropOp52
 70
     0
102
RTVSPost2010Prop53
 90
        2
102
RTVSPost2010PropOp53
 70
     1
102
RTVSPost2010Prop54
  1
strokes_ogs.tif
102
RTVSPost2010PropOp54
 70
     1
102
RTVSPost2010Prop55
280
     0
102
RTVSPost2010PropOp55
 70
     1
102
RTVSPost2010Prop56
140
1.0
102
RTVSPost2010PropOp56
 70
     1
102
RTVSPost2010Prop57
140
1.0
102
RTVSPost2010PropOp57
 70
     1
  0
XRECORD
  5
37F
102
{ACAD_REACTORS
330
37E
102
}
330
37E
100
AcDbXrecord
280
     1
102
RTVSPropertyOp0
 70
     1
102
RTVSPropertyOp1
 70
     1
102
RTVSPropertyOp2
 70
     1
102
RTVSPropertyOp3
 70
     1
102
RTVSPropertyOp4
 70
     1
102
RTVSPropertyOp5
 70
     1
102
RTVSPropertyOp6
 70
     1
102
RTVSPropertyOp7
 70
     1
102
RTVSPropertyOp8
 70
     1
102
RTVSPropertyOp9
 70
     1
102
RTVSPropertyOp10
 70
     1
102
RTVSPropertyOp11
 70
     1
102
RTVSPropertyOp12
 70
     1
102
RTVSPropertyOp13
 70
     1
102
RTVSPropertyOp14
 70
     1
102
RTVSPropertyOp15
 70
     1
102
RTVSPropertyOp16
 70
     1
102
RTVSPropertyOp17
 70
     1
102
RTVSPropertyOp18
 70
     1
102
RTVSPropertyOp19
 70
     1
102
RTVSPropertyOp20
 70
     1
102
RTVSPropertyOp21
 70
     1
102
RTVSPropertyOp22
 70
     1
102
RTVSPropertyOp23
 70
     1
102
RTVSPropertyOp24
 70
     1
102
RTVSPropertyOp25
 70
     1
102
RTVSPropertyOp26
 70
     1
102
RTVSPropertyOp27
 70
     1
102
RTVSPropertyOp28
 70
     1
102
RTVSPropertyOp29
 70
     1
102
RTVSPropertyOp30
 70
     1
102
RTVSPropertyOp31
 70
     1
102
RTVSPropertyOp32
 70
     1
102
RTVSPropertyOp33
 70
     1
102
RTVSPropertyOp34
 70
     1
102
RTVSPropertyOp35
 70
     1
102
RTVSPropertyOp36
 70
     1
102
RTVSPropertyOp37
 70
     1
102
RTVSPropertyOp38
 70
     1
102
RTVSPropertyOp39
 70
     1
102
RTVSPropertyOp40
 70
     1
102
RTVSPropertyOp41
 70
     1
102
RTVSPropertyOp42
 70
     1
102
RTVSPropertyOp43
 70
     1
102
RTVSPropertyOp44
 70
     1
102
RTVSPropertyOp45
 70
     1
102
RTVSPropertyOp46
 70
     1
102
RTVSPropertyOp47
 70
     1
102
RTVSPropertyOp48
 70
     1
102
RTVSPropertyOp49
 70
     1
102
RTVSPropertyOp50
 70
     1
102
RTVSPropertyOp51
 70
     0
102
RTVSPropertyOp52
 70
     0
102
RTVSPropertyOp53
 70
     1
102
RTVSPropertyOp54
 70
     1
102
RTVSPropertyOp55
 70
     1
102
RTVSPropertyOp56
 70
     1
102
RTVSPropertyOp57
 70
     1
102
RTVSPost2010Prop28
280
     0
102
RTVSPost2010PropOp28
 70
     1
102
RTVSPost2010Prop29
280
     1
102
RTVSPost2010PropOp29
 70
     1
102
RTVSPost2010Prop30
280
     1
102
RTVSPost2010PropOp30
 70
     1
102
RTVSPost2010Prop31
280
     0
102
RTVSPost2010PropOp31
 70
     1
102
RTVSPost2010Prop32
280
     0
102
RTVSPost2010PropOp32
 70
     1
102
RTVSPost2010Prop33
280
     0
102
RTVSPost2010PropOp33
 70
     1
102
RTVSPost2010Prop34
280
     0
102
RTVSPost2010PropOp34
 70
     1
102
RTVSPost2010Prop35
280
     0
102
RTVSPost2010PropOp35
 70
     1
102
RTVSPost2010Prop36
280
     0
102
RTVSPost2010PropOp36
 70
     1
102
RTVSPost2010Prop37
 90
       50
102
RTVSPost2010PropOp37
 70
     1
102
RTVSPost2010Prop38
140
0.0
102
RTVSPost2010PropOp38
 70
     1
102
RTVSPost2010Prop39
140
1.0
102
RTVSPost2010PropOp39
 70
     1
102
RTVSPost2010Prop40
 90
        0
102
RTVSPost2010PropOp40
 70
     1
102
RTVSPost2010Prop41ColorIndex
 90
       18
102
RTVSPost2010Prop41ColorRGB
 90
        0
102
RTVSPost2010PropOp41
 70
     1
102
RTVSPost2010Prop42
 90
       50
102
RTVSPost2010PropOp42
 70
     1
102
RTVSPost2010Prop43
 90
        3
102
RTVSPost2010PropOp43
 70
     1
102
RTVSPost2010Prop44ColorIndex
 90
        5
102
RTVSPost2010Prop44ColorRGB
 90
      255
102
RTVSPost2010PropOp44
 70
     1
102
RTVSPost2010Prop45
280
     0
102
RTVSPost2010PropOp45
 70
     1
102
RTVSPost2010Prop46
 90
       50
102
RTVSPost2010PropOp46
 70
     1
102
RTVSPost2010Prop47
 90
       50
102
RTVSPost2010PropOp47
 70
     1
102
RTVSPost2010Prop48
 90
       50
102
RTVSPost2010PropOp48
 70
     1
102
RTVSPost2010Prop49
280
     0
102
RTVSPost2010PropOp49
 70
     1
102
RTVSPost2010Prop50
 90
       50
102
RTVSPost2010PropOp50
 70
     1
102
RTVSPost2010Prop51ColorIndex
 90
      256
102
RTVSPost2010Prop51ColorRGB
 90
-16777216
102
RTVSPost2010PropOp51
 70
     0
102
RTVSPost2010Prop52
140
1.0
102
RTVSPost2010PropOp52
 70
     0
102
RTVSPost2010Prop53
 90
        2
102
RTVSPost2010PropOp53
 70
     1
102
RTVSPost2010Prop54
  1
strokes_ogs.tif
102
RTVSPost2010PropOp54
 70
     1
102
RTVSPost2010Prop55
280
     0
102
RTVSPost2010PropOp55
 70
     1
102
RTVSPost2010Prop56
140
1.0
102
RTVSPost2010PropOp56
 70
     1
102
RTVSPost2010Prop57
140
1.0
102
RTVSPost2010PropOp57
 70
     1
  0
XRECORD
  5
385
102
{ACAD_REACTORS
330
384
102
}
330
384
100
AcDbXrecord
280
     1
102
RTVSPropertyOp0
 70
     1
102
RTVSPropertyOp1
 70
     1
102
RTVSPropertyOp2
 70
     1
102
RTVSPropertyOp3
 70
     1
102
RTVSPropertyOp4
 70
     1
102
RTVSPropertyOp5
 70
     1
102
RTVSPropertyOp6
 70
     1
102
RTVSPropertyOp7
 70
     1
102
RTVSPropertyOp8
 70
     1
102
RTVSPropertyOp9
 70
     1
102
RTVSPropertyOp10
 70
     1
102
RTVSPropertyOp11
 70
     1
102
RTVSPropertyOp12
 70
     1
102
RTVSPropertyOp13
 70
     1
102
RTVSPropertyOp14
 70
     1
102
RTVSPropertyOp15
 70
     1
102
RTVSPropertyOp16
 70
     1
102
RTVSPropertyOp17
 70
     1
102
RTVSPropertyOp18
 70
     1
102
RTVSPropertyOp19
 70
     1
102
RTVSPropertyOp20
 70
     1
102
RTVSPropertyOp21
 70
     1
102
RTVSPropertyOp22
 70
     1
102
RTVSPropertyOp23
 70
     1
102
RTVSPropertyOp24
 70
     1
102
RTVSPropertyOp25
 70
     1
102
RTVSPropertyOp26
 70
     1
102
RTVSPropertyOp27
 70
     1
102
RTVSPropertyOp28
 70
     1
102
RTVSPropertyOp29
 70
     1
102
RTVSPropertyOp30
 70
     1
102
RTVSPropertyOp31
 70
     1
102
RTVSPropertyOp32
 70
     1
102
RTVSPropertyOp33
 70
     1
102
RTVSPropertyOp34
 70
     1
102
RTVSPropertyOp35
 70
     1
102
RTVSPropertyOp36
 70
     1
102
RTVSPropertyOp37
 70
     1
102
RTVSPropertyOp38
 70
     1
102
RTVSPropertyOp39
 70
     1
102
RTVSPropertyOp40
 70
     1
102
RTVSPropertyOp41
 70
     1
102
RTVSPropertyOp42
 70
     1
102
RTVSPropertyOp43
 70
     1
102
RTVSPropertyOp44
 70
     1
102
RTVSPropertyOp45
 70
     1
102
RTVSPropertyOp46
 70
     1
102
RTVSPropertyOp47
 70
     1
102
RTVSPropertyOp48
 70
     1
102
RTVSPropertyOp49
 70
     1
102
RTVSPropertyOp50
 70
     1
102
RTVSPropertyOp51
 70
     0
102
RTVSPropertyOp52
 70
     0
102
RTVSPropertyOp53
 70
     1
102
RTVSPropertyOp54
 70
     1
102
RTVSPropertyOp55
 70
     1
102
RTVSPropertyOp56
 70
     1
102
RTVSPropertyOp57
 70
     1
102
RTVSPost2010Prop28
280
     0
102
RTVSPost2010PropOp28
 70
     1
102
RTVSPost2010Prop29
280
     1
102
RTVSPost2010PropOp29
 70
     1
102
RTVSPost2010Prop30
280
     1
102
RTVSPost2010PropOp30
 70
     1
102
RTVSPost2010Prop31
280
     0
102
RTVSPost2010PropOp31
 70
     1
102
RTVSPost2010Prop32
280
     0
102
RTVSPost2010PropOp32
 70
     1
102
RTVSPost2010Prop33
280
     0
102
RTVSPost2010PropOp33
 70
     1
102
RTVSPost2010Prop34
280
     0
102
RTVSPost2010PropOp34
 70
     1
102
RTVSPost2010Prop35
280
     0
102
RTVSPost2010PropOp35
 70
     1
102
RTVSPost2010Prop36
280
     0
102
RTVSPost2010PropOp36
 70
     1
102
RTVSPost2010Prop37
 90
       50
102
RTVSPost2010PropOp37
 70
     1
102
RTVSPost2010Prop38
140
0.0
102
RTVSPost2010PropOp38
 70
     1
102
RTVSPost2010Prop39
140
1.0
102
RTVSPost2010PropOp39
 70
     1
102
RTVSPost2010Prop40
 90
        0
102
RTVSPost2010PropOp40
 70
     1
102
RTVSPost2010Prop41ColorIndex
 90
       18
102
RTVSPost2010Prop41ColorRGB
 90
        0
102
RTVSPost2010PropOp41
 70
     1
102
RTVSPost2010Prop42
 90
       50
102
RTVSPost2010PropOp42
 70
     1
102
RTVSPost2010Prop43
 90
        3
102
RTVSPost2010PropOp43
 70
     1
102
RTVSPost2010Prop44ColorIndex
 90
        5
102
RTVSPost2010Prop44ColorRGB
 90
      255
102
RTVSPost2010PropOp44
 70
     1
102
RTVSPost2010Prop45
280
     0
102
RTVSPost2010PropOp45
 70
     1
102
RTVSPost2010Prop46
 90
       50
102
RTVSPost2010PropOp46
 70
     1
102
RTVSPost2010Prop47
 90
       50
102
RTVSPost2010PropOp47
 70
     1
102
RTVSPost2010Prop48
 90
       50
102
RTVSPost2010PropOp48
 70
     1
102
RTVSPost2010Prop49
280
     0
102
RTVSPost2010PropOp49
 70
     1
102
RTVSPost2010Prop50
 90
       50
102
RTVSPost2010PropOp50
 70
     1
102
RTVSPost2010Prop51ColorIndex
 90
      256
102
RTVSPost2010Prop51ColorRGB
 90
-16777216
102
RTVSPost2010PropOp51
 70
     0
102
RTVSPost2010Prop52
140
1.0
102
RTVSPost2010PropOp52
 70
     0
102
RTVSPost2010Prop53
 90
        2
102
RTVSPost2010PropOp53
 70
     1
102
RTVSPost2010Prop54
  1
strokes_ogs.tif
102
RTVSPost2010PropOp54
 70
     1
102
RTVSPost2010Prop55
280
     0
102
RTVSPost2010PropOp55
 70
     1
102
RTVSPost2010Prop56
140
1.0
102
RTVSPost2010PropOp56
 70
     1
102
RTVSPost2010Prop57
140
1.0
102
RTVSPost2010PropOp57
 70
     1
  0
XRECORD
  5
399
102
{ACAD_REACTORS
330
398
102
}
330
398
100
AcDbXrecord
280
     1
102
RTVSPropertyOp0
 70
     0
102
RTVSPropertyOp1
 70
     0
102
RTVSPropertyOp2
 70
     0
102
RTVSPropertyOp3
 70
     0
102
RTVSPropertyOp4
 70
     0
102
RTVSPropertyOp5
 70
     0
102
RTVSPropertyOp6
 70
     0
102
RTVSPropertyOp7
 70
     0
102
RTVSPropertyOp8
 70
     0
102
RTVSPropertyOp9
 70
     0
102
RTVSPropertyOp10
 70
     0
102
RTVSPropertyOp11
 70
     0
102
RTVSPropertyOp12
 70
     0
102
RTVSPropertyOp13
 70
     0
102
RTVSPropertyOp14
 70
     2
102
RTVSPropertyOp15
 70
     0
102
RTVSPropertyOp16
 70
     0
102
RTVSPropertyOp17
 70
     0
102
RTVSPropertyOp18
 70
     0
102
RTVSPropertyOp19
 70
     0
102
RTVSPropertyOp20
 70
     0
102
RTVSPropertyOp21
 70
     0
102
RTVSPropertyOp22
 70
     0
102
RTVSPropertyOp23
 70
     0
102
RTVSPropertyOp24
 70
     0
102
RTVSPropertyOp25
 70
     0
102
RTVSPropertyOp26
 70
     0
102
RTVSPropertyOp27
 70
     0
102
RTVSPropertyOp28
 70
     0
102
RTVSPropertyOp29
 70
     0
102
RTVSPropertyOp30
 70
     0
102
RTVSPropertyOp31
 70
     0
102
RTVSPropertyOp32
 70
     0
102
RTVSPropertyOp33
 70
     0
102
RTVSPropertyOp34
 70
     0
102
RTVSPropertyOp35
 70
     0
102
RTVSPropertyOp36
 70
     0
102
RTVSPropertyOp37
 70
     0
102
RTVSPropertyOp38
 70
     0
102
RTVSPropertyOp39
 70
     0
102
RTVSPropertyOp40
 70
     0
102
RTVSPropertyOp41
 70
     0
102
RTVSPropertyOp42
 70
     0
102
RTVSPropertyOp43
 70
     0
102
RTVSPropertyOp44
 70
     0
102
RTVSPropertyOp45
 70
     0
102
RTVSPropertyOp46
 70
     0
102
RTVSPropertyOp47
 70
     0
102
RTVSPropertyOp48
 70
     0
102
RTVSPropertyOp49
 70
     0
102
RTVSPropertyOp50
 70
     0
102
RTVSPropertyOp51
 70
     0
102
RTVSPropertyOp52
 70
     0
102
RTVSPropertyOp53
 70
     0
102
RTVSPropertyOp54
 70
     0
102
RTVSPropertyOp55
 70
     0
102
RTVSPropertyOp56
 70
     0
102
RTVSPropertyOp57
 70
     0
102
RTVSPost2010Prop28
280
     0
102
RTVSPost2010PropOp28
 70
     0
102
RTVSPost2010Prop29
280
     1
102
RTVSPost2010PropOp29
 70
     0
102
RTVSPost2010Prop30
280
     1
102
RTVSPost2010PropOp30
 70
     0
102
RTVSPost2010Prop31
280
     0
102
RTVSPost2010PropOp31
 70
     0
102
RTVSPost2010Prop32
280
     0
102
RTVSPost2010PropOp32
 70
     0
102
RTVSPost2010Prop33
280
     0
102
RTVSPost2010PropOp33
 70
     0
102
RTVSPost2010Prop34
280
     0
102
RTVSPost2010PropOp34
 70
     0
102
RTVSPost2010Prop35
280
     0
102
RTVSPost2010PropOp35
 70
     0
102
RTVSPost2010Prop36
280
     0
102
RTVSPost2010PropOp36
 70
     0
102
RTVSPost2010Prop37
 90
       50
102
RTVSPost2010PropOp37
 70
     0
102
RTVSPost2010Prop38
140
0.0
102
RTVSPost2010PropOp38
 70
     0
102
RTVSPost2010Prop39
140
1.0
102
RTVSPost2010PropOp39
 70
     0
102
RTVSPost2010Prop40
 90
        0
102
RTVSPost2010PropOp40
 70
     0
102
RTVSPost2010Prop41ColorIndex
 90
       18
102
RTVSPost2010Prop41ColorRGB
 90
        0
102
RTVSPost2010PropOp41
 70
     0
102
RTVSPost2010Prop42
 90
       50
102
RTVSPost2010PropOp42
 70
     0
102
RTVSPost2010Prop43
 90
        3
102
RTVSPost2010PropOp43
 70
     0
102
RTVSPost2010Prop44ColorIndex
 90
        5
102
RTVSPost2010Prop44ColorRGB
 90
      255
102
RTVSPost2010PropOp44
 70
     0
102
RTVSPost2010Prop45
280
     0
102
RTVSPost2010PropOp45
 70
     0
102
RTVSPost2010Prop46
 90
       50
102
RTVSPost2010PropOp46
 70
     0
102
RTVSPost2010Prop47
 90
       50
102
RTVSPost2010PropOp47
 70
     0
102
RTVSPost2010Prop48
 90
       50
102
RTVSPost2010PropOp48
 70
     0
102
RTVSPost2010Prop49
280
     0
102
RTVSPost2010PropOp49
 70
     0
102
RTVSPost2010Prop50
 90
       50
102
RTVSPost2010PropOp50
 70
     0
102
RTVSPost2010Prop51ColorIndex
 90
      256
102
RTVSPost2010Prop51ColorRGB
 90
-16777216
102
RTVSPost2010PropOp51
 70
     0
102
RTVSPost2010Prop52
140
1.0
102
RTVSPost2010PropOp52
 70
     0
102
RTVSPost2010Prop53
 90
        2
102
RTVSPost2010PropOp53
 70
     0
102
RTVSPost2010Prop54
  1
strokes_ogs.tif
102
RTVSPost2010PropOp54
 70
     0
102
RTVSPost2010Prop55
280
     0
102
RTVSPost2010PropOp55
 70
     0
102
RTVSPost2010Prop56
140
1.0
102
RTVSPost2010PropOp56
 70
     0
102
RTVSPost2010Prop57
140
1.0
102
RTVSPost2010PropOp57
 70
     0
  0
XRECORD
  5
393
102
{ACAD_REACTORS
330
392
102
}
330
392
100
AcDbXrecord
280
     1
102
RTVSPropertyOp0
 70
     1
102
RTVSPropertyOp1
 70
     1
102
RTVSPropertyOp2
 70
     1
102
RTVSPropertyOp3
 70
     1
102
RTVSPropertyOp4
 70
     1
102
RTVSPropertyOp5
 70
     1
102
RTVSPropertyOp6
 70
     1
102
RTVSPropertyOp7
 70
     1
102
RTVSPropertyOp8
 70
     1
102
RTVSPropertyOp9
 70
     1
102
RTVSPropertyOp10
 70
     1
102
RTVSPropertyOp11
 70
     1
102
RTVSPropertyOp12
 70
     1
102
RTVSPropertyOp13
 70
     1
102
RTVSPropertyOp14
 70
     1
102
RTVSPropertyOp15
 70
     1
102
RTVSPropertyOp16
 70
     1
102
RTVSPropertyOp17
 70
     1
102
RTVSPropertyOp18
 70
     1
102
RTVSPropertyOp19
 70
     1
102
RTVSPropertyOp20
 70
     1
102
RTVSPropertyOp21
 70
     1
102
RTVSPropertyOp22
 70
     1
102
RTVSPropertyOp23
 70
     1
102
RTVSPropertyOp24
 70
     1
102
RTVSPropertyOp25
 70
     1
102
RTVSPropertyOp26
 70
     1
102
RTVSPropertyOp27
 70
     1
102
RTVSPropertyOp28
 70
     1
102
RTVSPropertyOp29
 70
     1
102
RTVSPropertyOp30
 70
     1
102
RTVSPropertyOp31
 70
     1
102
RTVSPropertyOp32
 70
     1
102
RTVSPropertyOp33
 70
     1
102
RTVSPropertyOp34
 70
     1
102
RTVSPropertyOp35
 70
     1
102
RTVSPropertyOp36
 70
     1
102
RTVSPropertyOp37
 70
     1
102
RTVSPropertyOp38
 70
     1
102
RTVSPropertyOp39
 70
     1
102
RTVSPropertyOp40
 70
     1
102
RTVSPropertyOp41
 70
     1
102
RTVSPropertyOp42
 70
     1
102
RTVSPropertyOp43
 70
     1
102
RTVSPropertyOp44
 70
     1
102
RTVSPropertyOp45
 70
     1
102
RTVSPropertyOp46
 70
     1
102
RTVSPropertyOp47
 70
     1
102
RTVSPropertyOp48
 70
     1
102
RTVSPropertyOp49
 70
     1
102
RTVSPropertyOp50
 70
     1
102
RTVSPropertyOp51
 70
     0
102
RTVSPropertyOp52
 70
     0
102
RTVSPropertyOp53
 70
     1
102
RTVSPropertyOp54
 70
     1
102
RTVSPropertyOp55
 70
     1
102
RTVSPropertyOp56
 70
     1
102
RTVSPropertyOp57
 70
     1
102
RTVSPost2010Prop28
280
     0
102
RTVSPost2010PropOp28
 70
     1
102
RTVSPost2010Prop29
280
     1
102
RTVSPost2010PropOp29
 70
     1
102
RTVSPost2010Prop30
280
     1
102
RTVSPost2010PropOp30
 70
     1
102
RTVSPost2010Prop31
280
     0
102
RTVSPost2010PropOp31
 70
     1
102
RTVSPost2010Prop32
280
     0
102
RTVSPost2010PropOp32
 70
     1
102
RTVSPost2010Prop33
280
     0
102
RTVSPost2010PropOp33
 70
     1
102
RTVSPost2010Prop34
280
     0
102
RTVSPost2010PropOp34
 70
     1
102
RTVSPost2010Prop35
280
     0
102
RTVSPost2010PropOp35
 70
     1
102
RTVSPost2010Prop36
280
     0
102
RTVSPost2010PropOp36
 70
     1
102
RTVSPost2010Prop37
 90
       50
102
RTVSPost2010PropOp37
 70
     1
102
RTVSPost2010Prop38
140
0.0
102
RTVSPost2010PropOp38
 70
     1
102
RTVSPost2010Prop39
140
1.0
102
RTVSPost2010PropOp39
 70
     1
102
RTVSPost2010Prop40
 90
        0
102
RTVSPost2010PropOp40
 70
     1
102
RTVSPost2010Prop41ColorIndex
 90
       18
102
RTVSPost2010Prop41ColorRGB
 90
        0
102
RTVSPost2010PropOp41
 70
     1
102
RTVSPost2010Prop42
 90
       50
102
RTVSPost2010PropOp42
 70
     1
102
RTVSPost2010Prop43
 90
        3
102
RTVSPost2010PropOp43
 70
     1
102
RTVSPost2010Prop44ColorIndex
 90
        5
102
RTVSPost2010Prop44ColorRGB
 90
      255
102
RTVSPost2010PropOp44
 70
     1
102
RTVSPost2010Prop45
280
     0
102
RTVSPost2010PropOp45
 70
     1
102
RTVSPost2010Prop46
 90
       50
102
RTVSPost2010PropOp46
 70
     1
102
RTVSPost2010Prop47
 90
       50
102
RTVSPost2010PropOp47
 70
     1
102
RTVSPost2010Prop48
 90
       50
102
RTVSPost2010PropOp48
 70
     1
102
RTVSPost2010Prop49
280
     0
102
RTVSPost2010PropOp49
 70
     1
102
RTVSPost2010Prop50
 90
       50
102
RTVSPost2010PropOp50
 70
     1
102
RTVSPost2010Prop51ColorIndex
 90
      256
102
RTVSPost2010Prop51ColorRGB
 90
-16777216
102
RTVSPost2010PropOp51
 70
     0
102
RTVSPost2010Prop52
140
1.0
102
RTVSPost2010PropOp52
 70
     0
102
RTVSPost2010Prop53
 90
        2
102
RTVSPost2010PropOp53
 70
     1
102
RTVSPost2010Prop54
  1
strokes_ogs.tif
102
RTVSPost2010PropOp54
 70
     1
102
RTVSPost2010Prop55
280
     0
102
RTVSPost2010PropOp55
 70
     1
102
RTVSPost2010Prop56
140
1.0
102
RTVSPost2010PropOp56
 70
     1
102
RTVSPost2010Prop57
140
1.0
102
RTVSPost2010PropOp57
 70
     1
  0
XRECORD
  5
39B
102
{ACAD_REACTORS
330
39A
102
}
330
39A
100
AcDbXrecord
280
     1
102
RTVSPropertyOp0
 70
     0
102
RTVSPropertyOp1
 70
     0
102
RTVSPropertyOp2
 70
     0
102
RTVSPropertyOp3
 70
     0
102
RTVSPropertyOp4
 70
     0
102
RTVSPropertyOp5
 70
     0
102
RTVSPropertyOp6
 70
     0
102
RTVSPropertyOp7
 70
     0
102
RTVSPropertyOp8
 70
     0
102
RTVSPropertyOp9
 70
     0
102
RTVSPropertyOp10
 70
     0
102
RTVSPropertyOp11
 70
     0
102
RTVSPropertyOp12
 70
     0
102
RTVSPropertyOp13
 70
     0
102
RTVSPropertyOp14
 70
     2
102
RTVSPropertyOp15
 70
     0
102
RTVSPropertyOp16
 70
     0
102
RTVSPropertyOp17
 70
     0
102
RTVSPropertyOp18
 70
     0
102
RTVSPropertyOp19
 70
     0
102
RTVSPropertyOp20
 70
     0
102
RTVSPropertyOp21
 70
     0
102
RTVSPropertyOp22
 70
     0
102
RTVSPropertyOp23
 70
     0
102
RTVSPropertyOp24
 70
     0
102
RTVSPropertyOp25
 70
     0
102
RTVSPropertyOp26
 70
     0
102
RTVSPropertyOp27
 70
     0
102
RTVSPropertyOp28
 70
     0
102
RTVSPropertyOp29
 70
     0
102
RTVSPropertyOp30
 70
     0
102
RTVSPropertyOp31
 70
     0
102
RTVSPropertyOp32
 70
     0
102
RTVSPropertyOp33
 70
     0
102
RTVSPropertyOp34
 70
     0
102
RTVSPropertyOp35
 70
     0
102
RTVSPropertyOp36
 70
     0
102
RTVSPropertyOp37
 70
     0
102
RTVSPropertyOp38
 70
     0
102
RTVSPropertyOp39
 70
     0
102
RTVSPropertyOp40
 70
     0
102
RTVSPropertyOp41
 70
     0
102
RTVSPropertyOp42
 70
     0
102
RTVSPropertyOp43
 70
     0
102
RTVSPropertyOp44
 70
     0
102
RTVSPropertyOp45
 70
     0
102
RTVSPropertyOp46
 70
     0
102
RTVSPropertyOp47
 70
     0
102
RTVSPropertyOp48
 70
     0
102
RTVSPropertyOp49
 70
     0
102
RTVSPropertyOp50
 70
     0
102
RTVSPropertyOp51
 70
     0
102
RTVSPropertyOp52
 70
     0
102
RTVSPropertyOp53
 70
     0
102
RTVSPropertyOp54
 70
     0
102
RTVSPropertyOp55
 70
     0
102
RTVSPropertyOp56
 70
     0
102
RTVSPropertyOp57
 70
     0
102
RTVSPost2010Prop28
280
     0
102
RTVSPost2010PropOp28
 70
     0
102
RTVSPost2010Prop29
280
     1
102
RTVSPost2010PropOp29
 70
     0
102
RTVSPost2010Prop30
280
     1
102
RTVSPost2010PropOp30
 70
     0
102
RTVSPost2010Prop31
280
     0
102
RTVSPost2010PropOp31
 70
     0
102
RTVSPost2010Prop32
280
     0
102
RTVSPost2010PropOp32
 70
     0
102
RTVSPost2010Prop33
280
     0
102
RTVSPost2010PropOp33
 70
     0
102
RTVSPost2010Prop34
280
     0
102
RTVSPost2010PropOp34
 70
     0
102
RTVSPost2010Prop35
280
     0
102
RTVSPost2010PropOp35
 70
     0
102
RTVSPost2010Prop36
280
     0
102
RTVSPost2010PropOp36
 70
     0
102
RTVSPost2010Prop37
 90
       50
102
RTVSPost2010PropOp37
 70
     0
102
RTVSPost2010Prop38
140
0.0
102
RTVSPost2010PropOp38
 70
     0
102
RTVSPost2010Prop39
140
1.0
102
RTVSPost2010PropOp39
 70
     0
102
RTVSPost2010Prop40
 90
        0
102
RTVSPost2010PropOp40
 70
     0
102
RTVSPost2010Prop41ColorIndex
 90
       18
102
RTVSPost2010Prop41ColorRGB
 90
        0
102
RTVSPost2010PropOp41
 70
     0
102
RTVSPost2010Prop42
 90
       50
102
RTVSPost2010PropOp42
 70
     0
102
RTVSPost2010Prop43
 90
        3
102
RTVSPost2010PropOp43
 70
     0
102
RTVSPost2010Prop44ColorIndex
 90
        5
102
RTVSPost2010Prop44ColorRGB
 90
      255
102
RTVSPost2010PropOp44
 70
     0
102
RTVSPost2010Prop45
280
     0
102
RTVSPost2010PropOp45
 70
     0
102
RTVSPost2010Prop46
 90
       50
102
RTVSPost2010PropOp46
 70
     0
102
RTVSPost2010Prop47
 90
       50
102
RTVSPost2010PropOp47
 70
     0
102
RTVSPost2010Prop48
 90
       50
102
RTVSPost2010PropOp48
 70
     0
102
RTVSPost2010Prop49
280
     0
102
RTVSPost2010PropOp49
 70
     0
102
RTVSPost2010Prop50
 90
       50
102
RTVSPost2010PropOp50
 70
     0
102
RTVSPost2010Prop51ColorIndex
 90
      256
102
RTVSPost2010Prop51ColorRGB
 90
-16777216
102
RTVSPost2010PropOp51
 70
     0
102
RTVSPost2010Prop52
140
1.0
102
RTVSPost2010PropOp52
 70
     0
102
RTVSPost2010Prop53
 90
        2
102
RTVSPost2010PropOp53
 70
     0
102
RTVSPost2010Prop54
  1
strokes_ogs.tif
102
RTVSPost2010PropOp54
 70
     0
102
RTVSPost2010Prop55
280
     0
102
RTVSPost2010PropOp55
 70
     0
102
RTVSPost2010Prop56
140
1.0
102
RTVSPost2010PropOp56
 70
     0
102
RTVSPost2010Prop57
140
1.0
102
RTVSPost2010PropOp57
 70
     0
  0
XRECORD
  5
389
102
{ACAD_REACTORS
330
388
102
}
330
388
100
AcDbXrecord
280
     1
102
RTVSPropertyOp0
 70
     1
102
RTVSPropertyOp1
 70
     1
102
RTVSPropertyOp2
 70
     1
102
RTVSPropertyOp3
 70
     1
102
RTVSPropertyOp4
 70
     1
102
RTVSPropertyOp5
 70
     1
102
RTVSPropertyOp6
 70
     1
102
RTVSPropertyOp7
 70
     1
102
RTVSPropertyOp8
 70
     1
102
RTVSPropertyOp9
 70
     1
102
RTVSPropertyOp10
 70
     1
102
RTVSPropertyOp11
 70
     1
102
RTVSPropertyOp12
 70
     1
102
RTVSPropertyOp13
 70
     1
102
RTVSPropertyOp14
 70
     1
102
RTVSPropertyOp15
 70
     1
102
RTVSPropertyOp16
 70
     1
102
RTVSPropertyOp17
 70
     1
102
RTVSPropertyOp18
 70
     1
102
RTVSPropertyOp19
 70
     1
102
RTVSPropertyOp20
 70
     1
102
RTVSPropertyOp21
 70
     1
102
RTVSPropertyOp22
 70
     1
102
RTVSPropertyOp23
 70
     1
102
RTVSPropertyOp24
 70
     1
102
RTVSPropertyOp25
 70
     1
102
RTVSPropertyOp26
 70
     1
102
RTVSPropertyOp27
 70
     1
102
RTVSPropertyOp28
 70
     1
102
RTVSPropertyOp29
 70
     1
102
RTVSPropertyOp30
 70
     1
102
RTVSPropertyOp31
 70
     1
102
RTVSPropertyOp32
 70
     1
102
RTVSPropertyOp33
 70
     1
102
RTVSPropertyOp34
 70
     1
102
RTVSPropertyOp35
 70
     1
102
RTVSPropertyOp36
 70
     1
102
RTVSPropertyOp37
 70
     1
102
RTVSPropertyOp38
 70
     1
102
RTVSPropertyOp39
 70
     1
102
RTVSPropertyOp40
 70
     1
102
RTVSPropertyOp41
 70
     1
102
RTVSPropertyOp42
 70
     1
102
RTVSPropertyOp43
 70
     1
102
RTVSPropertyOp44
 70
     1
102
RTVSPropertyOp45
 70
     1
102
RTVSPropertyOp46
 70
     1
102
RTVSPropertyOp47
 70
     1
102
RTVSPropertyOp48
 70
     1
102
RTVSPropertyOp49
 70
     1
102
RTVSPropertyOp50
 70
     1
102
RTVSPropertyOp51
 70
     0
102
RTVSPropertyOp52
 70
     0
102
RTVSPropertyOp53
 70
     1
102
RTVSPropertyOp54
 70
     1
102
RTVSPropertyOp55
 70
     1
102
RTVSPropertyOp56
 70
     1
102
RTVSPropertyOp57
 70
     1
102
RTVSPost2010Prop28
280
     0
102
RTVSPost2010PropOp28
 70
     1
102
RTVSPost2010Prop29
280
     1
102
RTVSPost2010PropOp29
 70
     1
102
RTVSPost2010Prop30
280
     1
102
RTVSPost2010PropOp30
 70
     1
102
RTVSPost2010Prop31
280
     0
102
RTVSPost2010PropOp31
 70
     1
102
RTVSPost2010Prop32
280
     0
102
RTVSPost2010PropOp32
 70
     1
102
RTVSPost2010Prop33
280
     0
102
RTVSPost2010PropOp33
 70
     1
102
RTVSPost2010Prop34
280
     0
102
RTVSPost2010PropOp34
 70
     1
102
RTVSPost2010Prop35
280
     0
102
RTVSPost2010PropOp35
 70
     1
102
RTVSPost2010Prop36
280
     0
102
RTVSPost2010PropOp36
 70
     1
102
RTVSPost2010Prop37
 90
       50
102
RTVSPost2010PropOp37
 70
     1
102
RTVSPost2010Prop38
140
0.0
102
RTVSPost2010PropOp38
 70
     1
102
RTVSPost2010Prop39
140
1.0
102
RTVSPost2010PropOp39
 70
     1
102
RTVSPost2010Prop40
 90
        0
102
RTVSPost2010PropOp40
 70
     1
102
RTVSPost2010Prop41ColorIndex
 90
       18
102
RTVSPost2010Prop41ColorRGB
 90
        0
102
RTVSPost2010PropOp41
 70
     1
102
RTVSPost2010Prop42
 90
       50
102
RTVSPost2010PropOp42
 70
     1
102
RTVSPost2010Prop43
 90
        3
102
RTVSPost2010PropOp43
 70
     1
102
RTVSPost2010Prop44ColorIndex
 90
        5
102
RTVSPost2010Prop44ColorRGB
 90
      255
102
RTVSPost2010PropOp44
 70
     1
102
RTVSPost2010Prop45
280
     0
102
RTVSPost2010PropOp45
 70
     1
102
RTVSPost2010Prop46
 90
       50
102
RTVSPost2010PropOp46
 70
     1
102
RTVSPost2010Prop47
 90
       50
102
RTVSPost2010PropOp47
 70
     1
102
RTVSPost2010Prop48
 90
       50
102
RTVSPost2010PropOp48
 70
     1
102
RTVSPost2010Prop49
280
     0
102
RTVSPost2010PropOp49
 70
     1
102
RTVSPost2010Prop50
 90
       50
102
RTVSPost2010PropOp50
 70
     1
102
RTVSPost2010Prop51ColorIndex
 90
      256
102
RTVSPost2010Prop51ColorRGB
 90
-16777216
102
RTVSPost2010PropOp51
 70
     0
102
RTVSPost2010Prop52
140
1.0
102
RTVSPost2010PropOp52
 70
     0
102
RTVSPost2010Prop53
 90
        2
102
RTVSPost2010PropOp53
 70
     1
102
RTVSPost2010Prop54
  1
strokes_ogs.tif
102
RTVSPost2010PropOp54
 70
     1
102
RTVSPost2010Prop55
280
     0
102
RTVSPost2010PropOp55
 70
     1
102
RTVSPost2010Prop56
140
1.0
102
RTVSPost2010PropOp56
 70
     1
102
RTVSPost2010Prop57
140
1.0
102
RTVSPost2010PropOp57
 70
     1
  0
XRECORD
  5
3A7
102
{ACAD_REACTORS
330
3A6
102
}
330
3A6
100
AcDbXrecord
280
     1
102
RTVSPropertyOp0
 70
     1
102
RTVSPropertyOp1
 70
     1
102
RTVSPropertyOp2
 70
     1
102
RTVSPropertyOp3
 70
     1
102
RTVSPropertyOp4
 70
     1
102
RTVSPropertyOp5
 70
     1
102
RTVSPropertyOp6
 70
     1
102
RTVSPropertyOp7
 70
     1
102
RTVSPropertyOp8
 70
     1
102
RTVSPropertyOp9
 70
     1
102
RTVSPropertyOp10
 70
     1
102
RTVSPropertyOp11
 70
     1
102
RTVSPropertyOp12
 70
     1
102
RTVSPropertyOp13
 70
     1
102
RTVSPropertyOp14
 70
     1
102
RTVSPropertyOp15
 70
     1
102
RTVSPropertyOp16
 70
     1
102
RTVSPropertyOp17
 70
     1
102
RTVSPropertyOp18
 70
     1
102
RTVSPropertyOp19
 70
     1
102
RTVSPropertyOp20
 70
     1
102
RTVSPropertyOp21
 70
     1
102
RTVSPropertyOp22
 70
     1
102
RTVSPropertyOp23
 70
     1
102
RTVSPropertyOp24
 70
     1
102
RTVSPropertyOp25
 70
     1
102
RTVSPropertyOp26
 70
     1
102
RTVSPropertyOp27
 70
     1
102
RTVSPropertyOp28
 70
     1
102
RTVSPropertyOp29
 70
     1
102
RTVSPropertyOp30
 70
     1
102
RTVSPropertyOp31
 70
     1
102
RTVSPropertyOp32
 70
     1
102
RTVSPropertyOp33
 70
     1
102
RTVSPropertyOp34
 70
     1
102
RTVSPropertyOp35
 70
     1
102
RTVSPropertyOp36
 70
     1
102
RTVSPropertyOp37
 70
     1
102
RTVSPropertyOp38
 70
     1
102
RTVSPropertyOp39
 70
     1
102
RTVSPropertyOp40
 70
     1
102
RTVSPropertyOp41
 70
     1
102
RTVSPropertyOp42
 70
     1
102
RTVSPropertyOp43
 70
     1
102
RTVSPropertyOp44
 70
     1
102
RTVSPropertyOp45
 70
     1
102
RTVSPropertyOp46
 70
     1
102
RTVSPropertyOp47
 70
     1
102
RTVSPropertyOp48
 70
     1
102
RTVSPropertyOp49
 70
     1
102
RTVSPropertyOp50
 70
     1
102
RTVSPropertyOp51
 70
     0
102
RTVSPropertyOp52
 70
     0
102
RTVSPropertyOp53
 70
     1
102
RTVSPropertyOp54
 70
     1
102
RTVSPropertyOp55
 70
     1
102
RTVSPropertyOp56
 70
     1
102
RTVSPropertyOp57
 70
     1
102
RTVSPost2010Prop28
280
     0
102
RTVSPost2010PropOp28
 70
     1
102
RTVSPost2010Prop29
280
     1
102
RTVSPost2010PropOp29
 70
     1
102
RTVSPost2010Prop30
280
     1
102
RTVSPost2010PropOp30
 70
     1
102
RTVSPost2010Prop31
280
     0
102
RTVSPost2010PropOp31
 70
     1
102
RTVSPost2010Prop32
280
     0
102
RTVSPost2010PropOp32
 70
     1
102
RTVSPost2010Prop33
280
     0
102
RTVSPost2010PropOp33
 70
     1
102
RTVSPost2010Prop34
280
     0
102
RTVSPost2010PropOp34
 70
     1
102
RTVSPost2010Prop35
280
     0
102
RTVSPost2010PropOp35
 70
     1
102
RTVSPost2010Prop36
280
     0
102
RTVSPost2010PropOp36
 70
     1
102
RTVSPost2010Prop37
 90
       50
102
RTVSPost2010PropOp37
 70
     1
102
RTVSPost2010Prop38
140
0.0
102
RTVSPost2010PropOp38
 70
     1
102
RTVSPost2010Prop39
140
1.0
102
RTVSPost2010PropOp39
 70
     1
102
RTVSPost2010Prop40
 90
        0
102
RTVSPost2010PropOp40
 70
     1
102
RTVSPost2010Prop41ColorIndex
 90
       18
102
RTVSPost2010Prop41ColorRGB
 90
        0
102
RTVSPost2010PropOp41
 70
     1
102
RTVSPost2010Prop42
 90
       50
102
RTVSPost2010PropOp42
 70
     1
102
RTVSPost2010Prop43
 90
        3
102
RTVSPost2010PropOp43
 70
     1
102
RTVSPost2010Prop44ColorIndex
 90
        5
102
RTVSPost2010Prop44ColorRGB
 90
      255
102
RTVSPost2010PropOp44
 70
     1
102
RTVSPost2010Prop45
280
     0
102
RTVSPost2010PropOp45
 70
     1
102
RTVSPost2010Prop46
 90
       50
102
RTVSPost2010PropOp46
 70
     1
102
RTVSPost2010Prop47
 90
       50
102
RTVSPost2010PropOp47
 70
     1
102
RTVSPost2010Prop48
 90
       50
102
RTVSPost2010PropOp48
 70
     1
102
RTVSPost2010Prop49
280
     0
102
RTVSPost2010PropOp49
 70
     1
102
RTVSPost2010Prop50
 90
       50
102
RTVSPost2010PropOp50
 70
     1
102
RTVSPost2010Prop51ColorIndex
 90
      256
102
RTVSPost2010Prop51ColorRGB
 90
-16777216
102
RTVSPost2010PropOp51
 70
     0
102
RTVSPost2010Prop52
140
1.0
102
RTVSPost2010PropOp52
 70
     0
102
RTVSPost2010Prop53
 90
        2
102
RTVSPost2010PropOp53
 70
     1
102
RTVSPost2010Prop54
  1
strokes_ogs.tif
102
RTVSPost2010PropOp54
 70
     1
102
RTVSPost2010Prop55
280
     0
102
RTVSPost2010PropOp55
 70
     1
102
RTVSPost2010Prop56
140
1.0
102
RTVSPost2010PropOp56
 70
     1
102
RTVSPost2010Prop57
140
1.0
102
RTVSPost2010PropOp57
 70
     1
  0
XRECORD
  5
3A5
102
{ACAD_REACTORS
330
3A4
102
}
330
3A4
100
AcDbXrecord
280
     1
102
RTVSPropertyOp0
 70
     1
102
RTVSPropertyOp1
 70
     1
102
RTVSPropertyOp2
 70
     1
102
RTVSPropertyOp3
 70
     1
102
RTVSPropertyOp4
 70
     1
102
RTVSPropertyOp5
 70
     1
102
RTVSPropertyOp6
 70
     1
102
RTVSPropertyOp7
 70
     1
102
RTVSPropertyOp8
 70
     1
102
RTVSPropertyOp9
 70
     1
102
RTVSPropertyOp10
 70
     1
102
RTVSPropertyOp11
 70
     1
102
RTVSPropertyOp12
 70
     1
102
RTVSPropertyOp13
 70
     1
102
RTVSPropertyOp14
 70
     1
102
RTVSPropertyOp15
 70
     1
102
RTVSPropertyOp16
 70
     1
102
RTVSPropertyOp17
 70
     1
102
RTVSPropertyOp18
 70
     1
102
RTVSPropertyOp19
 70
     1
102
RTVSPropertyOp20
 70
     1
102
RTVSPropertyOp21
 70
     1
102
RTVSPropertyOp22
 70
     1
102
RTVSPropertyOp23
 70
     1
102
RTVSPropertyOp24
 70
     1
102
RTVSPropertyOp25
 70
     1
102
RTVSPropertyOp26
 70
     1
102
RTVSPropertyOp27
 70
     1
102
RTVSPropertyOp28
 70
     1
102
RTVSPropertyOp29
 70
     1
102
RTVSPropertyOp30
 70
     1
102
RTVSPropertyOp31
 70
     1
102
RTVSPropertyOp32
 70
     1
102
RTVSPropertyOp33
 70
     1
102
RTVSPropertyOp34
 70
     1
102
RTVSPropertyOp35
 70
     1
102
RTVSPropertyOp36
 70
     1
102
RTVSPropertyOp37
 70
     1
102
RTVSPropertyOp38
 70
     1
102
RTVSPropertyOp39
 70
     1
102
RTVSPropertyOp40
 70
     1
102
RTVSPropertyOp41
 70
     1
102
RTVSPropertyOp42
 70
     1
102
RTVSPropertyOp43
 70
     1
102
RTVSPropertyOp44
 70
     1
102
RTVSPropertyOp45
 70
     1
102
RTVSPropertyOp46
 70
     1
102
RTVSPropertyOp47
 70
     1
102
RTVSPropertyOp48
 70
     1
102
RTVSPropertyOp49
 70
     1
102
RTVSPropertyOp50
 70
     1
102
RTVSPropertyOp51
 70
     0
102
RTVSPropertyOp52
 70
     0
102
RTVSPropertyOp53
 70
     1
102
RTVSPropertyOp54
 70
     1
102
RTVSPropertyOp55
 70
     1
102
RTVSPropertyOp56
 70
     1
102
RTVSPropertyOp57
 70
     1
102
RTVSPost2010Prop28
280
     0
102
RTVSPost2010PropOp28
 70
     1
102
RTVSPost2010Prop29
280
     1
102
RTVSPost2010PropOp29
 70
     1
102
RTVSPost2010Prop30
280
     1
102
RTVSPost2010PropOp30
 70
     1
102
RTVSPost2010Prop31
280
     0
102
RTVSPost2010PropOp31
 70
     1
102
RTVSPost2010Prop32
280
     0
102
RTVSPost2010PropOp32
 70
     1
102
RTVSPost2010Prop33
280
     0
102
RTVSPost2010PropOp33
 70
     1
102
RTVSPost2010Prop34
280
     0
102
RTVSPost2010PropOp34
 70
     1
102
RTVSPost2010Prop35
280
     0
102
RTVSPost2010PropOp35
 70
     1
102
RTVSPost2010Prop36
280
     0
102
RTVSPost2010PropOp36
 70
     1
102
RTVSPost2010Prop37
 90
       50
102
RTVSPost2010PropOp37
 70
     1
102
RTVSPost2010Prop38
140
0.0
102
RTVSPost2010PropOp38
 70
     1
102
RTVSPost2010Prop39
140
1.0
102
RTVSPost2010PropOp39
 70
     1
102
RTVSPost2010Prop40
 90
        0
102
RTVSPost2010PropOp40
 70
     1
102
RTVSPost2010Prop41ColorIndex
 90
       18
102
RTVSPost2010Prop41ColorRGB
 90
        0
102
RTVSPost2010PropOp41
 70
     1
102
RTVSPost2010Prop42
 90
       50
102
RTVSPost2010PropOp42
 70
     1
102
RTVSPost2010Prop43
 90
        3
102
RTVSPost2010PropOp43
 70
     1
102
RTVSPost2010Prop44ColorIndex
 90
        5
102
RTVSPost2010Prop44ColorRGB
 90
      255
102
RTVSPost2010PropOp44
 70
     1
102
RTVSPost2010Prop45
280
     0
102
RTVSPost2010PropOp45
 70
     1
102
RTVSPost2010Prop46
 90
       50
102
RTVSPost2010PropOp46
 70
     1
102
RTVSPost2010Prop47
 90
       50
102
RTVSPost2010PropOp47
 70
     1
102
RTVSPost2010Prop48
 90
       50
102
RTVSPost2010PropOp48
 70
     1
102
RTVSPost2010Prop49
280
     0
102
RTVSPost2010PropOp49
 70
     1
102
RTVSPost2010Prop50
 90
       50
102
RTVSPost2010PropOp50
 70
     1
102
RTVSPost2010Prop51ColorIndex
 90
      256
102
RTVSPost2010Prop51ColorRGB
 90
-16777216
102
RTVSPost2010PropOp51
 70
     0
102
RTVSPost2010Prop52
140
1.0
102
RTVSPost2010PropOp52
 70
     0
102
RTVSPost2010Prop53
 90
        2
102
RTVSPost2010PropOp53
 70
     1
102
RTVSPost2010Prop54
  1
strokes_ogs.tif
102
RTVSPost2010PropOp54
 70
     1
102
RTVSPost2010Prop55
280
     0
102
RTVSPost2010PropOp55
 70
     1
102
RTVSPost2010Prop56
140
1.0
102
RTVSPost2010PropOp56
 70
     1
102
RTVSPost2010Prop57
140
1.0
102
RTVSPost2010PropOp57
 70
     1
  0
XRECORD
  5
39F
102
{ACAD_REACTORS
330
39E
102
}
330
39E
100
AcDbXrecord
280
     1
102
RTVSPropertyOp0
 70
     1
102
RTVSPropertyOp1
 70
     1
102
RTVSPropertyOp2
 70
     1
102
RTVSPropertyOp3
 70
     1
102
RTVSPropertyOp4
 70
     1
102
RTVSPropertyOp5
 70
     1
102
RTVSPropertyOp6
 70
     1
102
RTVSPropertyOp7
 70
     1
102
RTVSPropertyOp8
 70
     1
102
RTVSPropertyOp9
 70
     1
102
RTVSPropertyOp10
 70
     1
102
RTVSPropertyOp11
 70
     1
102
RTVSPropertyOp12
 70
     1
102
RTVSPropertyOp13
 70
     1
102
RTVSPropertyOp14
 70
     1
102
RTVSPropertyOp15
 70
     1
102
RTVSPropertyOp16
 70
     1
102
RTVSPropertyOp17
 70
     1
102
RTVSPropertyOp18
 70
     1
102
RTVSPropertyOp19
 70
     1
102
RTVSPropertyOp20
 70
     1
102
RTVSPropertyOp21
 70
     1
102
RTVSPropertyOp22
 70
     1
102
RTVSPropertyOp23
 70
     1
102
RTVSPropertyOp24
 70
     1
102
RTVSPropertyOp25
 70
     1
102
RTVSPropertyOp26
 70
     1
102
RTVSPropertyOp27
 70
     1
102
RTVSPropertyOp28
 70
     1
102
RTVSPropertyOp29
 70
     1
102
RTVSPropertyOp30
 70
     1
102
RTVSPropertyOp31
 70
     1
102
RTVSPropertyOp32
 70
     1
102
RTVSPropertyOp33
 70
     1
102
RTVSPropertyOp34
 70
     1
102
RTVSPropertyOp35
 70
     1
102
RTVSPropertyOp36
 70
     1
102
RTVSPropertyOp37
 70
     1
102
RTVSPropertyOp38
 70
     1
102
RTVSPropertyOp39
 70
     1
102
RTVSPropertyOp40
 70
     1
102
RTVSPropertyOp41
 70
     1
102
RTVSPropertyOp42
 70
     1
102
RTVSPropertyOp43
 70
     1
102
RTVSPropertyOp44
 70
     1
102
RTVSPropertyOp45
 70
     1
102
RTVSPropertyOp46
 70
     1
102
RTVSPropertyOp47
 70
     1
102
RTVSPropertyOp48
 70
     1
102
RTVSPropertyOp49
 70
     1
102
RTVSPropertyOp50
 70
     1
102
RTVSPropertyOp51
 70
     0
102
RTVSPropertyOp52
 70
     0
102
RTVSPropertyOp53
 70
     1
102
RTVSPropertyOp54
 70
     1
102
RTVSPropertyOp55
 70
     1
102
RTVSPropertyOp56
 70
     1
102
RTVSPropertyOp57
 70
     1
102
RTVSPost2010Prop28
280
     0
102
RTVSPost2010PropOp28
 70
     1
102
RTVSPost2010Prop29
280
     1
102
RTVSPost2010PropOp29
 70
     1
102
RTVSPost2010Prop30
280
     1
102
RTVSPost2010PropOp30
 70
     1
102
RTVSPost2010Prop31
280
     0
102
RTVSPost2010PropOp31
 70
     1
102
RTVSPost2010Prop32
280
     0
102
RTVSPost2010PropOp32
 70
     1
102
RTVSPost2010Prop33
280
     0
102
RTVSPost2010PropOp33
 70
     1
102
RTVSPost2010Prop34
280
     0
102
RTVSPost2010PropOp34
 70
     1
102
RTVSPost2010Prop35
280
     0
102
RTVSPost2010PropOp35
 70
     1
102
RTVSPost2010Prop36
280
     0
102
RTVSPost2010PropOp36
 70
     1
102
RTVSPost2010Prop37
 90
       50
102
RTVSPost2010PropOp37
 70
     1
102
RTVSPost2010Prop38
140
0.0
102
RTVSPost2010PropOp38
 70
     1
102
RTVSPost2010Prop39
140
1.0
102
RTVSPost2010PropOp39
 70
     1
102
RTVSPost2010Prop40
 90
        0
102
RTVSPost2010PropOp40
 70
     1
102
RTVSPost2010Prop41ColorIndex
 90
       18
102
RTVSPost2010Prop41ColorRGB
 90
        0
102
RTVSPost2010PropOp41
 70
     1
102
RTVSPost2010Prop42
 90
       50
102
RTVSPost2010PropOp42
 70
     1
102
RTVSPost2010Prop43
 90
        3
102
RTVSPost2010PropOp43
 70
     1
102
RTVSPost2010Prop44ColorIndex
 90
        5
102
RTVSPost2010Prop44ColorRGB
 90
      255
102
RTVSPost2010PropOp44
 70
     1
102
RTVSPost2010Prop45
280
     0
102
RTVSPost2010PropOp45
 70
     1
102
RTVSPost2010Prop46
 90
       50
102
RTVSPost2010PropOp46
 70
     1
102
RTVSPost2010Prop47
 90
       50
102
RTVSPost2010PropOp47
 70
     1
102
RTVSPost2010Prop48
 90
       50
102
RTVSPost2010PropOp48
 70
     1
102
RTVSPost2010Prop49
280
     0
102
RTVSPost2010PropOp49
 70
     1
102
RTVSPost2010Prop50
 90
       50
102
RTVSPost2010PropOp50
 70
     1
102
RTVSPost2010Prop51ColorIndex
 90
      256
102
RTVSPost2010Prop51ColorRGB
 90
-16777216
102
RTVSPost2010PropOp51
 70
     0
102
RTVSPost2010Prop52
140
1.0
102
RTVSPost2010PropOp52
 70
     0
102
RTVSPost2010Prop53
 90
        2
102
RTVSPost2010PropOp53
 70
     1
102
RTVSPost2010Prop54
  1
strokes_ogs.tif
102
RTVSPost2010PropOp54
 70
     1
102
RTVSPost2010Prop55
280
     0
102
RTVSPost2010PropOp55
 70
     1
102
RTVSPost2010Prop56
140
1.0
102
RTVSPost2010PropOp56
 70
     1
102
RTVSPost2010Prop57
140
1.0
102
RTVSPost2010PropOp57
 70
     1
  0
XRECORD
  5
3A1
102
{ACAD_REACTORS
330
3A0
102
}
330
3A0
100
AcDbXrecord
280
     1
102
RTVSPropertyOp0
 70
     1
102
RTVSPropertyOp1
 70
     1
102
RTVSPropertyOp2
 70
     1
102
RTVSPropertyOp3
 70
     1
102
RTVSPropertyOp4
 70
     1
102
RTVSPropertyOp5
 70
     1
102
RTVSPropertyOp6
 70
     1
102
RTVSPropertyOp7
 70
     1
102
RTVSPropertyOp8
 70
     1
102
RTVSPropertyOp9
 70
     1
102
RTVSPropertyOp10
 70
     1
102
RTVSPropertyOp11
 70
     1
102
RTVSPropertyOp12
 70
     1
102
RTVSPropertyOp13
 70
     1
102
RTVSPropertyOp14
 70
     1
102
RTVSPropertyOp15
 70
     1
102
RTVSPropertyOp16
 70
     1
102
RTVSPropertyOp17
 70
     1
102
RTVSPropertyOp18
 70
     1
102
RTVSPropertyOp19
 70
     1
102
RTVSPropertyOp20
 70
     1
102
RTVSPropertyOp21
 70
     1
102
RTVSPropertyOp22
 70
     1
102
RTVSPropertyOp23
 70
     1
102
RTVSPropertyOp24
 70
     1
102
RTVSPropertyOp25
 70
     1
102
RTVSPropertyOp26
 70
     1
102
RTVSPropertyOp27
 70
     1
102
RTVSPropertyOp28
 70
     1
102
RTVSPropertyOp29
 70
     1
102
RTVSPropertyOp30
 70
     1
102
RTVSPropertyOp31
 70
     1
102
RTVSPropertyOp32
 70
     1
102
RTVSPropertyOp33
 70
     1
102
RTVSPropertyOp34
 70
     1
102
RTVSPropertyOp35
 70
     1
102
RTVSPropertyOp36
 70
     1
102
RTVSPropertyOp37
 70
     1
102
RTVSPropertyOp38
 70
     1
102
RTVSPropertyOp39
 70
     1
102
RTVSPropertyOp40
 70
     1
102
RTVSPropertyOp41
 70
     1
102
RTVSPropertyOp42
 70
     1
102
RTVSPropertyOp43
 70
     1
102
RTVSPropertyOp44
 70
     1
102
RTVSPropertyOp45
 70
     1
102
RTVSPropertyOp46
 70
     1
102
RTVSPropertyOp47
 70
     1
102
RTVSPropertyOp48
 70
     1
102
RTVSPropertyOp49
 70
     1
102
RTVSPropertyOp50
 70
     1
102
RTVSPropertyOp51
 70
     0
102
RTVSPropertyOp52
 70
     0
102
RTVSPropertyOp53
 70
     1
102
RTVSPropertyOp54
 70
     1
102
RTVSPropertyOp55
 70
     1
102
RTVSPropertyOp56
 70
     1
102
RTVSPropertyOp57
 70
     1
102
RTVSPost2010Prop28
280
     0
102
RTVSPost2010PropOp28
 70
     1
102
RTVSPost2010Prop29
280
     1
102
RTVSPost2010PropOp29
 70
     1
102
RTVSPost2010Prop30
280
     1
102
RTVSPost2010PropOp30
 70
     1
102
RTVSPost2010Prop31
280
     0
102
RTVSPost2010PropOp31
 70
     1
102
RTVSPost2010Prop32
280
     0
102
RTVSPost2010PropOp32
 70
     1
102
RTVSPost2010Prop33
280
     0
102
RTVSPost2010PropOp33
 70
     1
102
RTVSPost2010Prop34
280
     0
102
RTVSPost2010PropOp34
 70
     1
102
RTVSPost2010Prop35
280
     0
102
RTVSPost2010PropOp35
 70
     1
102
RTVSPost2010Prop36
280
     0
102
RTVSPost2010PropOp36
 70
     1
102
RTVSPost2010Prop37
 90
       50
102
RTVSPost2010PropOp37
 70
     1
102
RTVSPost2010Prop38
140
0.0
102
RTVSPost2010PropOp38
 70
     1
102
RTVSPost2010Prop39
140
1.0
102
RTVSPost2010PropOp39
 70
     1
102
RTVSPost2010Prop40
 90
        0
102
RTVSPost2010PropOp40
 70
     1
102
RTVSPost2010Prop41ColorIndex
 90
       18
102
RTVSPost2010Prop41ColorRGB
 90
        0
102
RTVSPost2010PropOp41
 70
     1
102
RTVSPost2010Prop42
 90
       50
102
RTVSPost2010PropOp42
 70
     1
102
RTVSPost2010Prop43
 90
        3
102
RTVSPost2010PropOp43
 70
     1
102
RTVSPost2010Prop44ColorIndex
 90
        5
102
RTVSPost2010Prop44ColorRGB
 90
      255
102
RTVSPost2010PropOp44
 70
     1
102
RTVSPost2010Prop45
280
     0
102
RTVSPost2010PropOp45
 70
     1
102
RTVSPost2010Prop46
 90
       50
102
RTVSPost2010PropOp46
 70
     1
102
RTVSPost2010Prop47
 90
       50
102
RTVSPost2010PropOp47
 70
     1
102
RTVSPost2010Prop48
 90
       50
102
RTVSPost2010PropOp48
 70
     1
102
RTVSPost2010Prop49
280
     0
102
RTVSPost2010PropOp49
 70
     1
102
RTVSPost2010Prop50
 90
       50
102
RTVSPost2010PropOp50
 70
     1
102
RTVSPost2010Prop51ColorIndex
 90
      256
102
RTVSPost2010Prop51ColorRGB
 90
-16777216
102
RTVSPost2010PropOp51
 70
     0
102
RTVSPost2010Prop52
140
1.0
102
RTVSPost2010PropOp52
 70
     0
102
RTVSPost2010Prop53
 90
        2
102
RTVSPost2010PropOp53
 70
     1
102
RTVSPost2010Prop54
  1
strokes_ogs.tif
102
RTVSPost2010PropOp54
 70
     1
102
RTVSPost2010Prop55
280
     0
102
RTVSPost2010PropOp55
 70
     1
102
RTVSPost2010Prop56
140
1.0
102
RTVSPost2010PropOp56
 70
     1
102
RTVSPost2010Prop57
140
1.0
102
RTVSPost2010PropOp57
 70
     1
  0
XRECORD
  5
391
102
{ACAD_REACTORS
330
390
102
}
330
390
100
AcDbXrecord
280
     1
102
RTVSPropertyOp0
 70
     1
102
RTVSPropertyOp1
 70
     1
102
RTVSPropertyOp2
 70
     1
102
RTVSPropertyOp3
 70
     1
102
RTVSPropertyOp4
 70
     1
102
RTVSPropertyOp5
 70
     1
102
RTVSPropertyOp6
 70
     1
102
RTVSPropertyOp7
 70
     1
102
RTVSPropertyOp8
 70
     1
102
RTVSPropertyOp9
 70
     1
102
RTVSPropertyOp10
 70
     1
102
RTVSPropertyOp11
 70
     1
102
RTVSPropertyOp12
 70
     1
102
RTVSPropertyOp13
 70
     1
102
RTVSPropertyOp14
 70
     1
102
RTVSPropertyOp15
 70
     1
102
RTVSPropertyOp16
 70
     1
102
RTVSPropertyOp17
 70
     1
102
RTVSPropertyOp18
 70
     1
102
RTVSPropertyOp19
 70
     1
102
RTVSPropertyOp20
 70
     1
102
RTVSPropertyOp21
 70
     1
102
RTVSPropertyOp22
 70
     1
102
RTVSPropertyOp23
 70
     1
102
RTVSPropertyOp24
 70
     1
102
RTVSPropertyOp25
 70
     1
102
RTVSPropertyOp26
 70
     1
102
RTVSPropertyOp27
 70
     1
102
RTVSPropertyOp28
 70
     1
102
RTVSPropertyOp29
 70
     1
102
RTVSPropertyOp30
 70
     1
102
RTVSPropertyOp31
 70
     1
102
RTVSPropertyOp32
 70
     1
102
RTVSPropertyOp33
 70
     1
102
RTVSPropertyOp34
 70
     1
102
RTVSPropertyOp35
 70
     1
102
RTVSPropertyOp36
 70
     1
102
RTVSPropertyOp37
 70
     1
102
RTVSPropertyOp38
 70
     1
102
RTVSPropertyOp39
 70
     1
102
RTVSPropertyOp40
 70
     1
102
RTVSPropertyOp41
 70
     1
102
RTVSPropertyOp42
 70
     1
102
RTVSPropertyOp43
 70
     1
102
RTVSPropertyOp44
 70
     1
102
RTVSPropertyOp45
 70
     1
102
RTVSPropertyOp46
 70
     1
102
RTVSPropertyOp47
 70
     1
102
RTVSPropertyOp48
 70
     1
102
RTVSPropertyOp49
 70
     1
102
RTVSPropertyOp50
 70
     1
102
RTVSPropertyOp51
 70
     0
102
RTVSPropertyOp52
 70
     0
102
RTVSPropertyOp53
 70
     1
102
RTVSPropertyOp54
 70
     1
102
RTVSPropertyOp55
 70
     1
102
RTVSPropertyOp56
 70
     1
102
RTVSPropertyOp57
 70
     1
102
RTVSPost2010Prop28
280
     0
102
RTVSPost2010PropOp28
 70
     1
102
RTVSPost2010Prop29
280
     1
102
RTVSPost2010PropOp29
 70
     1
102
RTVSPost2010Prop30
280
     1
102
RTVSPost2010PropOp30
 70
     1
102
RTVSPost2010Prop31
280
     0
102
RTVSPost2010PropOp31
 70
     1
102
RTVSPost2010Prop32
280
     0
102
RTVSPost2010PropOp32
 70
     1
102
RTVSPost2010Prop33
280
     0
102
RTVSPost2010PropOp33
 70
     1
102
RTVSPost2010Prop34
280
     0
102
RTVSPost2010PropOp34
 70
     1
102
RTVSPost2010Prop35
280
     0
102
RTVSPost2010PropOp35
 70
     1
102
RTVSPost2010Prop36
280
     0
102
RTVSPost2010PropOp36
 70
     1
102
RTVSPost2010Prop37
 90
       50
102
RTVSPost2010PropOp37
 70
     1
102
RTVSPost2010Prop38
140
0.0
102
RTVSPost2010PropOp38
 70
     1
102
RTVSPost2010Prop39
140
1.0
102
RTVSPost2010PropOp39
 70
     1
102
RTVSPost2010Prop40
 90
        0
102
RTVSPost2010PropOp40
 70
     1
102
RTVSPost2010Prop41ColorIndex
 90
       18
102
RTVSPost2010Prop41ColorRGB
 90
        0
102
RTVSPost2010PropOp41
 70
     1
102
RTVSPost2010Prop42
 90
       50
102
RTVSPost2010PropOp42
 70
     1
102
RTVSPost2010Prop43
 90
        3
102
RTVSPost2010PropOp43
 70
     1
102
RTVSPost2010Prop44ColorIndex
 90
        5
102
RTVSPost2010Prop44ColorRGB
 90
      255
102
RTVSPost2010PropOp44
 70
     1
102
RTVSPost2010Prop45
280
     0
102
RTVSPost2010PropOp45
 70
     1
102
RTVSPost2010Prop46
 90
       50
102
RTVSPost2010PropOp46
 70
     1
102
RTVSPost2010Prop47
 90
       50
102
RTVSPost2010PropOp47
 70
     1
102
RTVSPost2010Prop48
 90
       50
102
RTVSPost2010PropOp48
 70
     1
102
RTVSPost2010Prop49
280
     0
102
RTVSPost2010PropOp49
 70
     1
102
RTVSPost2010Prop50
 90
       50
102
RTVSPost2010PropOp50
 70
     1
102
RTVSPost2010Prop51ColorIndex
 90
      256
102
RTVSPost2010Prop51ColorRGB
 90
-16777216
102
RTVSPost2010PropOp51
 70
     0
102
RTVSPost2010Prop52
140
1.0
102
RTVSPost2010PropOp52
 70
     0
102
RTVSPost2010Prop53
 90
        2
102
RTVSPost2010PropOp53
 70
     1
102
RTVSPost2010Prop54
  1
strokes_ogs.tif
102
RTVSPost2010PropOp54
 70
     1
102
RTVSPost2010Prop55
280
     0
102
RTVSPost2010PropOp55
 70
     1
102
RTVSPost2010Prop56
140
1.0
102
RTVSPost2010PropOp56
 70
     1
102
RTVSPost2010Prop57
140
1.0
102
RTVSPost2010PropOp57
 70
     1
  0
XRECORD
  5
383
102
{ACAD_REACTORS
330
382
102
}
330
382
100
AcDbXrecord
280
     1
102
RTVSPropertyOp0
 70
     1
102
RTVSPropertyOp1
 70
     1
102
RTVSPropertyOp2
 70
     1
102
RTVSPropertyOp3
 70
     1
102
RTVSPropertyOp4
 70
     1
102
RTVSPropertyOp5
 70
     1
102
RTVSPropertyOp6
 70
     1
102
RTVSPropertyOp7
 70
     1
102
RTVSPropertyOp8
 70
     1
102
RTVSPropertyOp9
 70
     1
102
RTVSPropertyOp10
 70
     1
102
RTVSPropertyOp11
 70
     1
102
RTVSPropertyOp12
 70
     1
102
RTVSPropertyOp13
 70
     1
102
RTVSPropertyOp14
 70
     1
102
RTVSPropertyOp15
 70
     1
102
RTVSPropertyOp16
 70
     1
102
RTVSPropertyOp17
 70
     1
102
RTVSPropertyOp18
 70
     1
102
RTVSPropertyOp19
 70
     1
102
RTVSPropertyOp20
 70
     1
102
RTVSPropertyOp21
 70
     1
102
RTVSPropertyOp22
 70
     1
102
RTVSPropertyOp23
 70
     1
102
RTVSPropertyOp24
 70
     1
102
RTVSPropertyOp25
 70
     1
102
RTVSPropertyOp26
 70
     1
102
RTVSPropertyOp27
 70
     1
102
RTVSPropertyOp28
 70
     1
102
RTVSPropertyOp29
 70
     1
102
RTVSPropertyOp30
 70
     1
102
RTVSPropertyOp31
 70
     1
102
RTVSPropertyOp32
 70
     1
102
RTVSPropertyOp33
 70
     1
102
RTVSPropertyOp34
 70
     1
102
RTVSPropertyOp35
 70
     1
102
RTVSPropertyOp36
 70
     1
102
RTVSPropertyOp37
 70
     1
102
RTVSPropertyOp38
 70
     1
102
RTVSPropertyOp39
 70
     1
102
RTVSPropertyOp40
 70
     1
102
RTVSPropertyOp41
 70
     1
102
RTVSPropertyOp42
 70
     1
102
RTVSPropertyOp43
 70
     1
102
RTVSPropertyOp44
 70
     1
102
RTVSPropertyOp45
 70
     1
102
RTVSPropertyOp46
 70
     1
102
RTVSPropertyOp47
 70
     1
102
RTVSPropertyOp48
 70
     1
102
RTVSPropertyOp49
 70
     1
102
RTVSPropertyOp50
 70
     1
102
RTVSPropertyOp51
 70
     0
102
RTVSPropertyOp52
 70
     0
102
RTVSPropertyOp53
 70
     1
102
RTVSPropertyOp54
 70
     1
102
RTVSPropertyOp55
 70
     1
102
RTVSPropertyOp56
 70
     1
102
RTVSPropertyOp57
 70
     1
102
RTVSPost2010Prop28
280
     0
102
RTVSPost2010PropOp28
 70
     1
102
RTVSPost2010Prop29
280
     1
102
RTVSPost2010PropOp29
 70
     1
102
RTVSPost2010Prop30
280
     1
102
RTVSPost2010PropOp30
 70
     1
102
RTVSPost2010Prop31
280
     0
102
RTVSPost2010PropOp31
 70
     1
102
RTVSPost2010Prop32
280
     0
102
RTVSPost2010PropOp32
 70
     1
102
RTVSPost2010Prop33
280
     0
102
RTVSPost2010PropOp33
 70
     1
102
RTVSPost2010Prop34
280
     0
102
RTVSPost2010PropOp34
 70
     1
102
RTVSPost2010Prop35
280
     0
102
RTVSPost2010PropOp35
 70
     1
102
RTVSPost2010Prop36
280
     0
102
RTVSPost2010PropOp36
 70
     1
102
RTVSPost2010Prop37
 90
       50
102
RTVSPost2010PropOp37
 70
     1
102
RTVSPost2010Prop38
140
0.0
102
RTVSPost2010PropOp38
 70
     1
102
RTVSPost2010Prop39
140
1.0
102
RTVSPost2010PropOp39
 70
     1
102
RTVSPost2010Prop40
 90
        0
102
RTVSPost2010PropOp40
 70
     1
102
RTVSPost2010Prop41ColorIndex
 90
       18
102
RTVSPost2010Prop41ColorRGB
 90
        0
102
RTVSPost2010PropOp41
 70
     1
102
RTVSPost2010Prop42
 90
       50
102
RTVSPost2010PropOp42
 70
     1
102
RTVSPost2010Prop43
 90
        3
102
RTVSPost2010PropOp43
 70
     1
102
RTVSPost2010Prop44ColorIndex
 90
        5
102
RTVSPost2010Prop44ColorRGB
 90
      255
102
RTVSPost2010PropOp44
 70
     1
102
RTVSPost2010Prop45
280
     0
102
RTVSPost2010PropOp45
 70
     1
102
RTVSPost2010Prop46
 90
       50
102
RTVSPost2010PropOp46
 70
     1
102
RTVSPost2010Prop47
 90
       50
102
RTVSPost2010PropOp47
 70
     1
102
RTVSPost2010Prop48
 90
       50
102
RTVSPost2010PropOp48
 70
     1
102
RTVSPost2010Prop49
280
     0
102
RTVSPost2010PropOp49
 70
     1
102
RTVSPost2010Prop50
 90
       50
102
RTVSPost2010PropOp50
 70
     1
102
RTVSPost2010Prop51ColorIndex
 90
      256
102
RTVSPost2010Prop51ColorRGB
 90
-16777216
102
RTVSPost2010PropOp51
 70
     0
102
RTVSPost2010Prop52
140
1.0
102
RTVSPost2010PropOp52
 70
     0
102
RTVSPost2010Prop53
 90
        2
102
RTVSPost2010PropOp53
 70
     1
102
RTVSPost2010Prop54
  1
strokes_ogs.tif
102
RTVSPost2010PropOp54
 70
     1
102
RTVSPost2010Prop55
280
     0
102
RTVSPost2010PropOp55
 70
     1
102
RTVSPost2010Prop56
140
1.0
102
RTVSPost2010PropOp56
 70
     1
102
RTVSPost2010Prop57
140
1.0
102
RTVSPost2010PropOp57
 70
     1
  0
XRECORD
  5
3A3
102
{ACAD_REACTORS
330
3A2
102
}
330
3A2
100
AcDbXrecord
280
     1
102
RTVSPropertyOp0
 70
     1
102
RTVSPropertyOp1
 70
     1
102
RTVSPropertyOp2
 70
     1
102
RTVSPropertyOp3
 70
     1
102
RTVSPropertyOp4
 70
     1
102
RTVSPropertyOp5
 70
     1
102
RTVSPropertyOp6
 70
     1
102
RTVSPropertyOp7
 70
     1
102
RTVSPropertyOp8
 70
     1
102
RTVSPropertyOp9
 70
     1
102
RTVSPropertyOp10
 70
     1
102
RTVSPropertyOp11
 70
     1
102
RTVSPropertyOp12
 70
     1
102
RTVSPropertyOp13
 70
     1
102
RTVSPropertyOp14
 70
     1
102
RTVSPropertyOp15
 70
     1
102
RTVSPropertyOp16
 70
     1
102
RTVSPropertyOp17
 70
     1
102
RTVSPropertyOp18
 70
     1
102
RTVSPropertyOp19
 70
     1
102
RTVSPropertyOp20
 70
     1
102
RTVSPropertyOp21
 70
     1
102
RTVSPropertyOp22
 70
     1
102
RTVSPropertyOp23
 70
     1
102
RTVSPropertyOp24
 70
     1
102
RTVSPropertyOp25
 70
     1
102
RTVSPropertyOp26
 70
     1
102
RTVSPropertyOp27
 70
     1
102
RTVSPropertyOp28
 70
     1
102
RTVSPropertyOp29
 70
     1
102
RTVSPropertyOp30
 70
     1
102
RTVSPropertyOp31
 70
     1
102
RTVSPropertyOp32
 70
     1
102
RTVSPropertyOp33
 70
     1
102
RTVSPropertyOp34
 70
     1
102
RTVSPropertyOp35
 70
     1
102
RTVSPropertyOp36
 70
     1
102
RTVSPropertyOp37
 70
     1
102
RTVSPropertyOp38
 70
     1
102
RTVSPropertyOp39
 70
     1
102
RTVSPropertyOp40
 70
     1
102
RTVSPropertyOp41
 70
     1
102
RTVSPropertyOp42
 70
     1
102
RTVSPropertyOp43
 70
     1
102
RTVSPropertyOp44
 70
     1
102
RTVSPropertyOp45
 70
     1
102
RTVSPropertyOp46
 70
     1
102
RTVSPropertyOp47
 70
     1
102
RTVSPropertyOp48
 70
     1
102
RTVSPropertyOp49
 70
     1
102
RTVSPropertyOp50
 70
     1
102
RTVSPropertyOp51
 70
     0
102
RTVSPropertyOp52
 70
     0
102
RTVSPropertyOp53
 70
     1
102
RTVSPropertyOp54
 70
     1
102
RTVSPropertyOp55
 70
     1
102
RTVSPropertyOp56
 70
     1
102
RTVSPropertyOp57
 70
     1
102
RTVSPost2010Prop28
280
     0
102
RTVSPost2010PropOp28
 70
     1
102
RTVSPost2010Prop29
280
     1
102
RTVSPost2010PropOp29
 70
     1
102
RTVSPost2010Prop30
280
     1
102
RTVSPost2010PropOp30
 70
     1
102
RTVSPost2010Prop31
280
     0
102
RTVSPost2010PropOp31
 70
     1
102
RTVSPost2010Prop32
280
     0
102
RTVSPost2010PropOp32
 70
     1
102
RTVSPost2010Prop33
280
     0
102
RTVSPost2010PropOp33
 70
     1
102
RTVSPost2010Prop34
280
     0
102
RTVSPost2010PropOp34
 70
     1
102
RTVSPost2010Prop35
280
     0
102
RTVSPost2010PropOp35
 70
     1
102
RTVSPost2010Prop36
280
     0
102
RTVSPost2010PropOp36
 70
     1
102
RTVSPost2010Prop37
 90
       50
102
RTVSPost2010PropOp37
 70
     1
102
RTVSPost2010Prop38
140
0.0
102
RTVSPost2010PropOp38
 70
     1
102
RTVSPost2010Prop39
140
1.0
102
RTVSPost2010PropOp39
 70
     1
102
RTVSPost2010Prop40
 90
        0
102
RTVSPost2010PropOp40
 70
     1
102
RTVSPost2010Prop41ColorIndex
 90
       18
102
RTVSPost2010Prop41ColorRGB
 90
        0
102
RTVSPost2010PropOp41
 70
     1
102
RTVSPost2010Prop42
 90
       50
102
RTVSPost2010PropOp42
 70
     1
102
RTVSPost2010Prop43
 90
        3
102
RTVSPost2010PropOp43
 70
     1
102
RTVSPost2010Prop44ColorIndex
 90
        5
102
RTVSPost2010Prop44ColorRGB
 90
      255
102
RTVSPost2010PropOp44
 70
     1
102
RTVSPost2010Prop45
280
     0
102
RTVSPost2010PropOp45
 70
     1
102
RTVSPost2010Prop46
 90
       50
102
RTVSPost2010PropOp46
 70
     1
102
RTVSPost2010Prop47
 90
       50
102
RTVSPost2010PropOp47
 70
     1
102
RTVSPost2010Prop48
 90
       50
102
RTVSPost2010PropOp48
 70
     1
102
RTVSPost2010Prop49
280
     0
102
RTVSPost2010PropOp49
 70
     1
102
RTVSPost2010Prop50
 90
       50
102
RTVSPost2010PropOp50
 70
     1
102
RTVSPost2010Prop51ColorIndex
 90
      256
102
RTVSPost2010Prop51ColorRGB
 90
-16777216
102
RTVSPost2010PropOp51
 70
     0
102
RTVSPost2010Prop52
140
1.0
102
RTVSPost2010PropOp52
 70
     0
102
RTVSPost2010Prop53
 90
        2
102
RTVSPost2010PropOp53
 70
     1
102
RTVSPost2010Prop54
  1
strokes_ogs.tif
102
RTVSPost2010PropOp54
 70
     1
102
RTVSPost2010Prop55
280
     0
102
RTVSPost2010PropOp55
 70
     1
102
RTVSPost2010Prop56
140
1.0
102
RTVSPost2010PropOp56
 70
     1
102
RTVSPost2010Prop57
140
1.0
102
RTVSPost2010PropOp57
 70
     1
  0
ENDSEC
  0
EOF
