  0
SECTION
  2
HEADER
  9
$ACADVER
  1
AC1018
  9
$ACADMAINTVER
 70
     0
  9
$DWGCODEPAGE
  3
ANSI_932
  9
$LASTSAVEDBY
  1
m.murai
  9
$INSBASE
 10
0.0
 20
0.0
 30
0.0
  9
$EXTMIN
 10
-1050.0
 20
-742.5
 30
0.0
  9
$EXTMAX
 10
1050.0
 20
742.5
 30
0.0
  9
$LIMMIN
 10
-1050.0
 20
-742.5
  9
$LIMMAX
 10
1050.0
 20
742.5
  9
$ORTHOMODE
 70
     0
  9
$REGENMODE
 70
     1
  9
$FILLMODE
 70
     1
  9
$QTEXTMODE
 70
     0
  9
$MIRRTEXT
 70
     1
  9
$LTSCALE
 40
5.0
  9
$ATTMODE
 70
     1
  9
$TEXTSIZE
 40
2.5
  9
$TRACEWID
 40
1.0
  9
$TEXTSTYLE
  7
Standard
  9
$CLAYER
  8
0
  9
$CELTYPE
  6
ByLayer
  9
$CECOLOR
 62
   256
  9
$CELTSCALE
 40
1.0
  9
$DISPSILH
 70
     0
  9
$DIMSCALE
 40
1.0
  9
$DIMASZ
 40
2.5
  9
$DIMEXO
 40
0.625
  9
$DIMDLI
 40
3.75
  9
$DIMRND
 40
0.0
  9
$DIMDLE
 40
0.0
  9
$DIMEXE
 40
1.25
  9
$DIMTP
 40
0.0
  9
$DIMTM
 40
0.0
  9
$DIMTXT
 40
2.5
  9
$DIMCEN
 40
2.5
  9
$DIMTSZ
 40
0.0
  9
$DIMTOL
 70
     0
  9
$DIMLIM
 70
     0
  9
$DIMTIH
 70
     0
  9
$DIMTOH
 70
     0
  9
$DIMSE1
 70
     0
  9
$DIMSE2
 70
     0
  9
$DIMTAD
 70
     1
  9
$DIMZIN
 70
     8
  9
$DIMBLK
  1

  9
$DIMASO
 70
     1
  9
$DIMSHO
 70
     1
  9
$DIMPOST
  1

  9
$DIMAPOST
  1

  9
$DIMALT
 70
     0
  9
$DIMALTD
 70
     3
  9
$DIMALTF
 40
0.03937007874016
  9
$DIMLFAC
 40
1.0
  9
$DIMTOFL
 70
     1
  9
$DIMTVP
 40
0.0
  9
$DIMTIX
 70
     0
  9
$DIMSOXD
 70
     0
  9
$DIMSAH
 70
     0
  9
$DIMBLK1
  1

  9
$DIMBLK2
  1

  9
$DIMSTYLE
  2
ISO-25
  9
$DIMCLRD
 70
     0
  9
$DIMCLRE
 70
     0
  9
$DIMCLRT
 70
     0
  9
$DIMTFAC
 40
1.0
  9
$DIMGAP
 40
0.625
  9
$DIMJUST
 70
     0
  9
$DIMSD1
 70
     0
  9
$DIMSD2
 70
     0
  9
$DIMTOLJ
 70
     0
  9
$DIMTZIN
 70
     8
  9
$DIMALTZ
 70
     0
  9
$DIMALTTZ
 70
     0
  9
$DIMUPT
 70
     0
  9
$DIMDEC
 70
     2
  9
$DIMTDEC
 70
     2
  9
$DIMALTU
 70
     2
  9
$DIMALTTD
 70
     3
  9
$DIMTXSTY
  7
Standard
  9
$DIMAUNIT
 70
     0
  9
$DIMADEC
 70
     0
  9
$DIMALTRND
 40
0.0
  9
$DIMAZIN
 70
     0
  9
$DIMDSEP
 70
    44
  9
$DIMATFIT
 70
     3
  9
$DIMFRAC
 70
     0
  9
$DIMLDRBLK
  1

  9
$DIMLUNIT
 70
     2
  9
$DIMLWD
 70
    -2
  9
$DIMLWE
 70
    -2
  9
$DIMTMOVE
 70
     0
  9
$LUNITS
 70
     2
  9
$LUPREC
 70
     4
  9
$SKETCHINC
 40
1.0
  9
$FILLETRAD
 40
10.0
  9
$AUNITS
 70
     0
  9
$AUPREC
 70
     0
  9
$MENU
  1
.
  9
$ELEVATION
 40
0.0
  9
$PELEVATION
 40
0.0
  9
$THICKNESS
 40
0.0
  9
$LIMCHECK
 70
     0
  9
$CHAMFERA
 40
0.0
  9
$CHAMFERB
 40
0.0
  9
$CHAMFERC
 40
0.0
  9
$CHAMFERD
 40
0.0
  9
$SKPOLY
 70
     0
  9
$TDCREATE
 40
2460290.57291412
  9
$TDUCREATE
 40
2460290.19791412
  9
$TDUPDATE
 40
2460290.572914271
  9
$TDUUPDATE
 40
2460290.197914271
  9
$TDINDWG
 40
0.0000000116
  9
$TDUSRTIMER
 40
0.0000000116
  9
$USRTIMER
 70
     1
  9
$ANGBASE
 50
0.0
  9
$ANGDIR
 70
     0
  9
$PDMODE
 70
     0
  9
$PDSIZE
 40
0.0
  9
$PLINEWID
 40
0.0
  9
$SPLFRAME
 70
     0
  9
$SPLINETYPE
 70
     6
  9
$SPLINESEGS
 70
     8
  9
$HANDSEED
  5
3E2
  9
$SURFTAB1
 70
     6
  9
$SURFTAB2
 70
     6
  9
$SURFTYPE
 70
     6
  9
$SURFU
 70
     6
  9
$SURFV
 70
     6
  9
$UCSBASE
  2

  9
$UCSNAME
  2

  9
$UCSORG
 10
0.0
 20
0.0
 30
0.0
  9
$UCSXDIR
 10
1.0
 20
0.0
 30
0.0
  9
$UCSYDIR
 10
0.0
 20
1.0
 30
0.0
  9
$UCSORTHOREF
  2

  9
$UCSORTHOVIEW
 70
     0
  9
$UCSORGTOP
 10
0.0
 20
0.0
 30
0.0
  9
$UCSORGBOTTOM
 10
0.0
 20
0.0
 30
0.0
  9
$UCSORGLEFT
 10
0.0
 20
0.0
 30
0.0
  9
$UCSORGRIGHT
 10
0.0
 20
0.0
 30
0.0
  9
$UCSORGFRONT
 10
0.0
 20
0.0
 30
0.0
  9
$UCSORGBACK
 10
0.0
 20
0.0
 30
0.0
  9
$PUCSBASE
  2

  9
$PUCSNAME
  2

  9
$PUCSORG
 10
0.0
 20
0.0
 30
0.0
  9
$PUCSXDIR
 10
1.0
 20
0.0
 30
0.0
  9
$PUCSYDIR
 10
0.0
 20
1.0
 30
0.0
  9
$PUCSORTHOREF
  2

  9
$PUCSORTHOVIEW
 70
     0
  9
$PUCSORGTOP
 10
0.0
 20
0.0
 30
0.0
  9
$PUCSORGBOTTOM
 10
0.0
 20
0.0
 30
0.0
  9
$PUCSORGLEFT
 10
0.0
 20
0.0
 30
0.0
  9
$PUCSORGRIGHT
 10
0.0
 20
0.0
 30
0.0
  9
$PUCSORGFRONT
 10
0.0
 20
0.0
 30
0.0
  9
$PUCSORGBACK
 10
0.0
 20
0.0
 30
0.0
  9
$USERI1
 70
     0
  9
$USERI2
 70
     0
  9
$USERI3
 70
     0
  9
$USERI4
 70
     0
  9
$USERI5
 70
     0
  9
$USERR1
 40
0.0
  9
$USERR2
 40
0.0
  9
$USERR3
 40
0.0
  9
$USERR4
 40
0.0
  9
$USERR5
 40
0.0
  9
$WORLDVIEW
 70
     1
  9
$SHADEDGE
 70
     3
  9
$SHADEDIF
 70
    70
  9
$TILEMODE
 70
     1
  9
$MAXACTVP
 70
    64
  9
$PINSBASE
 10
0.0
 20
0.0
 30
0.0
  9
$PLIMCHECK
 70
     0
  9
$PEXTMIN
 10
1.000000000000000E+20
 20
1.000000000000000E+20
 30
1.000000000000000E+20
  9
$PEXTMAX
 10
-1.000000000000000E+20
 20
-1.000000000000000E+20
 30
-1.000000000000000E+20
  9
$PLIMMIN
 10
0.0
 20
0.0
  9
$PLIMMAX
 10
420.0
 20
297.0
  9
$UNITMODE
 70
     0
  9
$VISRETAIN
 70
     1
  9
$PLINEGEN
 70
     0
  9
$PSLTSCALE
 70
     1
  9
$TREEDEPTH
 70
  3020
  9
$CMLSTYLE
  2
Standard
  9
$CMLJUST
 70
     0
  9
$CMLSCALE
 40
20.0
  9
$PROXYGRAPHICS
 70
     1
  9
$MEASUREMENT
 70
     1
  9
$CELWEIGHT
370
    -1
  9
$ENDCAPS
280
     0
  9
$JOINSTYLE
280
     0
  9
$LWDISPLAY
290
     0
  9
$INSUNITS
 70
     4
  9
$HYPERLINKBASE
  1

  9
$STYLESHEET
  1

  9
$XEDIT
290
     1
  9
$CEPSNTYPE
380
     0
  9
$PSTYLEMODE
290
     1
  9
$FINGERPRINTGUID
  2
{91bade24-2583-4d6d-adee-0d9f5b74339e}
  9
$VERSIONGUID
  2
{FAEB1C32-E019-11D5-929B-00C0DF256EC4}
  9
$EXTNAMES
290
     1
  9
$PSVPSCALE
 40
0.0
  9
$OLESTARTUP
290
     0
  9
$SORTENTS
280
   127
  9
$INDEXCTL
280
     0
  9
$HIDETEXT
280
     1
  9
$XCLIPFRAME
290
     0
  9
$HALOGAP
280
     0
  9
$OBSCOLOR
 70
   257
  9
$OBSLTYPE
280
     0
  9
$INTERSECTIONDISPLAY
280
     0
  9
$INTERSECTIONCOLOR
 70
   257
  9
$DIMASSOC
280
     2
  9
$PROJECTNAME
  1

  0
ENDSEC
  0
SECTION
  2
CLASSES
  0
CLASS
  1
ACDBDICTIONARYWDFLT
  2
AcDbDictionaryWithDefault
  3
ObjectDBX Classes
 90
        0
 91
        3
280
     0
281
     0
  0
CLASS
  1
VISUALSTYLE
  2
AcDbVisualStyle
  3
ObjectDBX Classes
 90
     4095
 91
        3
280
     0
281
     0
  0
CLASS
  1
MATERIAL
  2
AcDbMaterial
  3
ObjectDBX Classes
 90
     1153
 91
        3
280
     0
281
     0
  0
CLASS
  1
SCALE
  2
AcDbScale
  3
ObjectDBX Classes
 90
     1153
 91
        3
280
     0
281
     0
  0
CLASS
  1
TABLESTYLE
  2
AcDbTableStyle
  3
ObjectDBX Classes
 90
     4095
 91
        3
280
     0
281
     0
  0
CLASS
  1
MLEADERSTYLE
  2
AcDbMLeaderStyle
  3
ACDB_MLEADERSTYLE_CLASS
 90
     4095
 91
        3
280
     0
281
     0
  0
CLASS
  1
SUN
  2
AcDbSun
  3
SCENEOE
 90
     1153
 91
        3
280
     0
281
     0
  0
CLASS
  1
DICTIONARYVAR
  2
AcDbDictionaryVar
  3
ObjectDBX Classes
 90
        0
 91
        3
280
     0
281
     0
  0
CLASS
  1
CELLSTYLEMAP
  2
AcDbCellStyleMap
  3
ObjectDBX Classes
 90
     1152
 91
        3
280
     0
281
     0
  0
ENDSEC
  0
SECTION
  2
TABLES
  0
TABLE
  2
VPORT
  5
8
102
{ACAD_XDICTIONARY
360
399
102
}
330
0
100
AcDbSymbolTable
 70
     1
  0
VPORT
  5
29
330
8
100
AcDbSymbolTableRecord
100
AcDbViewportTableRecord
  2
*Active
 70
     0
 10
0.0
 20
0.0
 11
1.0
 21
1.0
 12
0.0
 22
0.0
 13
0.0
 23
0.0
 14
10.0
 24
10.0
 15
10.0
 25
10.0
 16
0.0
 26
0.0
 36
1.0
 17
0.0
 27
0.0
 37
0.0
 40
1633.5
 41
1.414141414141414
 42
50.0
 43
0.0
 44
0.0
 50
0.0
 51
0.0
 71
     0
 72
 10000
 73
     1
 74
     3
 75
     0
 76
     0
 77
     0
 78
     0
281
     0
 65
     1
110
0.0
120
0.0
130
0.0
111
1.0
121
0.0
131
0.0
112
0.0
122
1.0
132
0.0
 79
     0
146
0.0
  0
ENDTAB
  0
TABLE
  2
LTYPE
  5
5
330
0
100
AcDbSymbolTable
 70
     7
  0
LTYPE
  5
14
330
5
100
AcDbSymbolTableRecord
100
AcDbLinetypeTableRecord
  2
ByBlock
 70
     0
  3

 72
    65
 73
     0
 40
0.0
  0
LTYPE
  5
15
330
5
100
AcDbSymbolTableRecord
100
AcDbLinetypeTableRecord
  2
ByLayer
 70
     0
  3

 72
    65
 73
     0
 40
0.0
  0
LTYPE
  5
16
330
5
100
AcDbSymbolTableRecord
100
AcDbLinetypeTableRecord
  2
Continuous
 70
     0
  3
Solid line
 72
    65
 73
     0
 40
0.0
  0
LTYPE
  5
6F
330
5
100
AcDbSymbolTableRecord
100
AcDbLinetypeTableRecord
  2
JWW_CENTER1
 70
     0
  3
-----  --  ----------  --  -----
 72
    65
 73
     8
 40
13.54666666666667
 49
4.233333333333333
 74
     0
 49
-0.8466666666666667
 74
     0
 49
0.8466666666666667
 74
     0
 49
-0.8466666666666667
 74
     0
 49
4.233333333333333
 74
     0
 49
-0.8466666666666667
 74
     0
 49
0.8466666666666667
 74
     0
 49
-0.8466666666666667
 74
     0
  0
LTYPE
  5
70
330
5
100
AcDbSymbolTableRecord
100
AcDbLinetypeTableRecord
  2
JWW_DASHED2
 70
     0
  3
--    ----    ----    ----    --
 72
    65
 73
     8
 40
13.54666666666667
 49
1.693333333333333
 74
     0
 49
-1.693333333333333
 74
     0
 49
1.693333333333333
 74
     0
 49
-1.693333333333333
 74
     0
 49
1.693333333333333
 74
     0
 49
-1.693333333333333
 74
     0
 49
1.693333333333333
 74
     0
 49
-1.693333333333333
 74
     0
  0
LTYPE
  5
71
330
5
100
AcDbSymbolTableRecord
100
AcDbLinetypeTableRecord
  2
JWW_PHANTOM1
 70
     0
  3
----  -  -  --------  -  -  ----
 72
    65
 73
    12
 40
13.54666666666667
 49
3.386666666666667
 74
     0
 49
-0.8466666666666667
 74
     0
 49
0.4233333333333333
 74
     0
 49
-0.8466666666666667
 74
     0
 49
0.4233333333333333
 74
     0
 49
-0.8466666666666667
 74
     0
 49
3.386666666666667
 74
     0
 49
-0.8466666666666667
 74
     0
 49
0.4233333333333333
 74
     0
 49
-0.8466666666666667
 74
     0
 49
0.4233333333333333
 74
     0
 49
-0.8466666666666667
 74
     0
  0
LTYPE
  5
72
330
5
100
AcDbSymbolTableRecord
100
AcDbLinetypeTableRecord
  2
JWW_DASHED1
 70
     0
  3
-  --  --  --  --  --  --  --  -
 72
    65
 73
    12
 40
10.16
 49
0.8466666666666667
 74
     0
 49
-0.8466666666666667
 74
     0
 49
0.8466666666666667
 74
     0
 49
-0.8466666666666667
 74
     0
 49
0.8466666666666667
 74
     0
 49
-0.8466666666666667
 74
     0
 49
0.8466666666666667
 74
     0
 49
-0.8466666666666667
 74
     0
 49
0.8466666666666667
 74
     0
 49
-0.8466666666666667
 74
     0
 49
0.8466666666666667
 74
     0
 49
-0.8466666666666667
 74
     0
  0
LTYPE
  5
73
330
5
100
AcDbSymbolTableRecord
100
AcDbLinetypeTableRecord
  2
JWW_CENTER2
 70
     0
  3
-------------  --  -------------
 72
    65
 73
     4
 40
13.54666666666667
 49
11.00666666666667
 74
     0
 49
-0.8466666666666667
 74
     0
 49
0.8466666666666667
 74
     0
 49
-0.8466666666666667
 74
     0
  0
LTYPE
  5
74
330
5
100
AcDbSymbolTableRecord
100
AcDbLinetypeTableRecord
  2
JWW_DASHED3
 70
     0
  3
---  ------  ------  ------  ---
 72
    65
 73
     8
 40
13.54666666666667
 49
2.54
 74
     0
 49
-0.8466666666666667
 74
     0
 49
2.54
 74
     0
 49
-0.8466666666666667
 74
     0
 49
2.54
 74
     0
 49
-0.8466666666666667
 74
     0
 49
2.54
 74
     0
 49
-0.8466666666666667
 74
     0
  0
ENDTAB
  0
TABLE
  2
LAYER
  5
2
330
0
100
AcDbSymbolTable
 70
    11
  0
LAYER
  5
10
330
2
100
AcDbSymbolTableRecord
100
AcDbLayerTableRecord
  2
0
 70
     0
 62
     7
  6
Continuous
370
    -3
390
F
  0
LAYER
  5
75
330
2
100
AcDbSymbolTableRecord
100
AcDbLayerTableRecord
  2
F-5ﾚｲﾔ
 70
     0
 62
     7
  6
Continuous
370
    -3
390
F
  0
LAYER
  5
76
330
2
100
AcDbSymbolTableRecord
100
AcDbLayerTableRecord
  2
A-4
 70
     0
 62
     7
  6
Continuous
370
    -3
390
F
  0
LAYER
  5
77
330
2
100
AcDbSymbolTableRecord
100
AcDbLayerTableRecord
  2
A-F
 70
     0
 62
     7
  6
Continuous
370
    -3
390
F
  0
LAYER
  5
78
330
2
100
AcDbSymbolTableRecord
100
AcDbLayerTableRecord
  2
A-5
 70
     0
 62
     7
  6
Continuous
370
    -3
390
F
  0
LAYER
  5
79
330
2
100
AcDbSymbolTableRecord
100
AcDbLayerTableRecord
  2
A-E
 70
     0
 62
     7
  6
Continuous
370
    -3
390
F
  0
LAYER
  5
7A
330
2
100
AcDbSymbolTableRecord
100
AcDbLayerTableRecord
  2
A-1
 70
     0
 62
     7
  6
Continuous
370
    -3
390
F
  0
LAYER
  5
7B
330
2
100
AcDbSymbolTableRecord
100
AcDbLayerTableRecord
  2
A-6
 70
     0
 62
     7
  6
Continuous
370
    -3
390
F
  0
LAYER
  5
7C
330
2
100
AcDbSymbolTableRecord
100
AcDbLayerTableRecord
  2
A-0
 70
     0
 62
     7
  6
Continuous
370
    -3
390
F
  0
LAYER
  5
7D
330
2
100
AcDbSymbolTableRecord
100
AcDbLayerTableRecord
  2
A-D
 70
     0
 62
     7
  6
Continuous
370
    -3
390
F
  0
LAYER
  5
7E
330
2
100
AcDbSymbolTableRecord
100
AcDbLayerTableRecord
  2
A-3
 70
     0
 62
     7
  6
Continuous
370
    -3
390
F
  0
ENDTAB
  0
TABLE
  2
STYLE
  5
3
330
0
100
AcDbSymbolTable
 70
     2
  0
STYLE
  5
11
330
3
100
AcDbSymbolTableRecord
100
AcDbTextStyleTableRecord
  2
Standard
 70
     0
 40
0.0
 41
1.0
 50
0.0
 71
     0
 42
2.5
  3
txt
  4

  0
STYLE
  5
6E
330
3
100
AcDbSymbolTableRecord
100
AcDbTextStyleTableRecord
  2
ＭＳ ゴシック
 70
     0
 40
0.0
 41
1.0
 50
0.0
 71
     0
 42
2.5
  3

  4

1001
ACAD
1000
MS Gothic
1071
    32817
  0
ENDTAB
  0
TABLE
  2
VIEW
  5
6
330
0
100
AcDbSymbolTable
 70
     0
  0
ENDTAB
  0
TABLE
  2
UCS
  5
7
330
0
100
AcDbSymbolTable
 70
     0
  0
ENDTAB
  0
TABLE
  2
APPID
  5
9
330
0
100
AcDbSymbolTable
 70
     2
  0
APPID
  5
12
330
9
100
AcDbSymbolTableRecord
100
AcDbRegAppTableRecord
  2
ACAD
 70
     0
  0
APPID
  5
3D8
330
9
100
AcDbSymbolTableRecord
100
AcDbRegAppTableRecord
  2
ACAD_MLEADERVER
 70
     0
  0
ENDTAB
  0
TABLE
  2
DIMSTYLE
  5
A
330
0
100
AcDbSymbolTable
 70
     2
100
AcDbDimStyleTable
  0
DIMSTYLE
105
27
330
A
100
AcDbSymbolTableRecord
100
AcDbDimStyleTableRecord
  2
ISO-25
 70
     0
 41
2.5
 42
0.625
 43
3.75
 44
1.25
 73
     0
 74
     0
 77
     1
 78
     8
140
2.5
141
2.5
143
0.03937007874016
147
0.625
171
     3
172
     1
178
     0
271
     2
272
     2
274
     3
278
    44
283
     0
284
     8
340
11
  0
DIMSTYLE
105
7F
330
A
100
AcDbSymbolTableRecord
100
AcDbDimStyleTableRecord
  2
JWAC_DIMSTYLE
 70
     0
  3
x
  4
mm
 41
0.0
 42
0.625
 43
3.75
 44
1.25
 73
     0
 74
     0
 75
     1
 76
     1
 77
     1
 78
     8
140
2.5
141
2.5
143
0.03937007874016
147
0.625
171
     3
172
     1
173
     1
178
     0
271
     2
272
     2
274
     3
278
    32
283
     0
284
     8
340
11
371
     0
372
     0
  0
ENDTAB
  0
TABLE
  2
BLOCK_RECORD
  5
1
330
0
100
AcDbSymbolTable
 70
     1
  0
BLOCK_RECORD
  5
1F
330
1
100
AcDbSymbolTableRecord
100
AcDbBlockTableRecord
  2
*Model_Space
340
22
  0
BLOCK_RECORD
  5
1B
330
1
100
AcDbSymbolTableRecord
100
AcDbBlockTableRecord
  2
*Paper_Space
340
1E
  0
BLOCK_RECORD
  5
23
330
1
100
AcDbSymbolTableRecord
100
AcDbBlockTableRecord
  2
*Paper_Space0
340
26
  0
ENDTAB
  0
ENDSEC
  0
SECTION
  2
BLOCKS
  0
BLOCK
  5
20
330
1F
100
AcDbEntity
  8
0
100
AcDbBlockBegin
  2
*Model_Space
 70
     0
 10
0.0
 20
0.0
 30
0.0
  3
*Model_Space
  1

  0
ENDBLK
  5
21
330
1F
100
AcDbEntity
  8
0
100
AcDbBlockEnd
  0
BLOCK
  5
1C
330
1B
100
AcDbEntity
 67
     1
  8
0
100
AcDbBlockBegin
  2
*Paper_Space
 70
     0
 10
0.0
 20
0.0
 30
0.0
  3
*Paper_Space
  1

  0
ENDBLK
  5
1D
330
1B
100
AcDbEntity
 67
     1
  8
0
100
AcDbBlockEnd
  0
BLOCK
  5
24
330
23
100
AcDbEntity
  8
0
100
AcDbBlockBegin
  2
*Paper_Space0
 70
     0
 10
0.0
 20
0.0
 30
0.0
  3
*Paper_Space0
  1

  0
ENDBLK
  5
25
330
23
100
AcDbEntity
  8
0
100
AcDbBlockEnd
  0
ENDSEC
  0
SECTION
  2
ENTITIES
  0
TEXT
  5
80
330
1F
100
AcDbEntity
  8
F-5ﾚｲﾔ
  6
Continuous
 62
     2
370
     9
100
AcDbText
 10
-370.1048385556594
 20
-676.5256519184746
 30
0.0
 40
15.24
  1
外壁-外壁用　ＷＡＸ２２－６００Ｇ
 41
1.117424242424242
  7
ＭＳ ゴシック
100
AcDbText
  0
LINE
  5
81
330
1F
100
AcDbEntity
  8
A-4
  6
Continuous
 62
     7
370
     9
100
AcDbLine
 10
334.6950047070831
 20
-7.819099747688876
 30
0.0
 11
287.0697142965331
 21
-1.833140064354035
 31
0.0
  0
LINE
  5
82
330
1F
100
AcDbEntity
  8
A-F
  6
Continuous
 62
     7
370
     9
100
AcDbLine
 10
334.6950047070831
 20
-7.819099747688876
 30
0.0
 11
349.0300957036175
 21
106.2332674437177
 31
0.0
  0
LINE
  5
83
330
1F
100
AcDbEntity
  8
A-F
  6
Continuous
 62
     7
370
     9
100
AcDbLine
 10
331.7184240564364
 20
-7.444977267482011
 30
0.0
 11
346.0535150529708
 21
106.6073899239246
 31
0.0
  0
LINE
  5
84
330
1F
100
AcDbEntity
  8
A-4
  6
Continuous
 62
     3
370
     9
100
AcDbLine
 10
334.6950047070831
 20
-7.819099747688876
 30
0.0
 11
319.8121014537193
 21
-5.948487347693936
 31
0.0
  0
LINE
  5
85
330
1F
100
AcDbEntity
  8
A-4
  6
Continuous
 62
     3
370
     9
100
AcDbLine
 10
335.9420796404132
 20
2.102835754553416
 30
0.0
 11
334.6950047070831
 21
-7.819099747688876
 31
0.0
  0
LINE
  5
86
330
1F
100
AcDbEntity
  8
A-4
  6
Continuous
 62
     3
370
     9
100
AcDbLine
 10
315.8487936492622
 20
2.612598520765408
 30
0.0
 11
335.6926646537471
 21
0.1184486541051566
 31
0.0
  0
LINE
  5
87
330
1F
100
AcDbEntity
  8
A-4
  6
Continuous
 62
     3
370
     9
100
AcDbLine
 10
314.8511337025982
 20
-5.324949881028767
 30
0.0
 11
315.8487936492622
 21
2.612598520765408
 31
0.0
  0
ARC
  5
88
330
1F
100
AcDbEntity
  8
A-4
  6
Continuous
 62
     7
370
     9
100
AcDbCircle
 10
330.1538093417426
 20
137.3319955639213
 30
0.0
 40
2.0
100
AcDbArc
 50
38.49999999999986
 51
90.00000000000006
  0
ARC
  5
89
330
1F
100
AcDbEntity
  8
A-4
  6
Continuous
 62
     7
370
     9
100
AcDbCircle
 10
330.1538093417426
 20
137.3319955639213
 30
0.0
 40
4.0
100
AcDbArc
 50
38.49999999999986
 51
90.00000000000006
  0
LWPOLYLINE
  5
8A
330
1F
100
AcDbEntity
  8
A-4
  6
Continuous
 62
     3
370
     9
100
AcDbPolyline
 90
        4
 70
     1
 43
1.0
 10
352.2980507614723
 20
115.5197792448451
 42
0.4142135623731
 10
351.7980507614723
 20
116.0197792448451
 42
0.4142135623731
 10
351.2980507614724
 20
115.5197792448451
 42
0.4142135623731
 10
351.7980507614723
 20
115.0197792448451
 42
0.4142135623731
  0
LINE
  5
8B
330
1F
100
AcDbEntity
  8
A-4
  6
Continuous
 62
     7
370
     9
100
AcDbLine
 10
348.1618548152824
 20
101.3092286786569
 30
0.0
 11
345.4477470651813
 21
101.7877991035495
 31
0.0
  0
LINE
  5
8C
330
1F
100
AcDbEntity
  8
A-4
  6
Continuous
 62
     7
370
     9
100
AcDbLine
 10
349.0300957036175
 20
106.2332674437177
 30
0.0
 11
346.0720492213318
 21
106.7548508487346
 31
0.0
  0
ARC
  5
8D
330
1F
100
AcDbEntity
  8
A-5
  6
Continuous
 62
     3
370
     9
100
AcDbCircle
 10
348.782076421426
 20
115.5197792448451
 30
0.0
 40
3.0
100
AcDbArc
 50
253.5
 51
38.5
  0
LINE
  5
8E
330
1F
100
AcDbEntity
  8
A-5
  6
Continuous
 62
     3
370
     9
100
AcDbLine
 10
347.9300303873146
 20
112.6433200402405
 30
0.0
 11
319.556373136983
 21
121.0479802192175
 31
0.0
  0
LWPOLYLINE
  5
8F
330
1F
100
AcDbEntity
  8
A-4
  6
Continuous
 62
     7
370
     9
100
AcDbPolyline
 90
        4
 70
     1
 43
1.0
 10
352.282076421426
 20
115.5197792448451
 42
0.4142135623731
 10
351.7820764214261
 20
116.0197792448451
 42
0.4142135623731
 10
351.2820764214262
 20
115.5197792448451
 42
0.4142135623731
 10
351.7820764214261
 20
115.0197792448451
 42
0.4142135623731
  0
ELLIPSE
  5
90
330
1F
100
AcDbEntity
  8
A-E
  6
Continuous
 62
     4
370
     9
100
AcDbEllipse
 10
321.4929281626578
 20
116.1458604446495
 30
0.0
 11
-5.69545374114293
 21
1.961101993289439
 31
0.0
210
0.0
220
0.0
230
1.0
 40
0.6758999999999998
 41
5.777516263620245
 42
9.987412552677732
  0
LINE
  5
91
330
1F
100
AcDbEntity
  8
A-E
  6
Continuous
 62
     4
370
     9
100
AcDbLine
 10
328.710641851176
 20
122.6951566281748
 30
0.0
 11
327.5000365725305
 21
121.0991777188011
 31
0.0
  0
LINE
  5
92
330
1F
100
AcDbEntity
  8
A-E
  6
Continuous
 62
     4
370
     9
100
AcDbLine
 10
327.4420030996075
 20
123.5507186205744
 30
0.0
 11
328.710641851176
 21
122.6951566281748
 31
0.0
  0
LINE
  5
93
330
1F
100
AcDbEntity
  8
A-E
  6
Continuous
 62
     4
370
     9
100
AcDbLine
 10
319.9673436764897
 20
122.4657723251307
 30
0.0
 11
319.4789517025973
 21
121.0473790419838
 31
0.0
  0
LINE
  5
94
330
1F
100
AcDbEntity
  8
A-E
  6
Continuous
 62
     4
370
     9
100
AcDbLine
 10
324.6390809171353
 20
118.8636034308224
 30
0.0
 11
324.8185717936994
 21
119.3310781085967
 31
0.0
  0
LINE
  5
95
330
1F
100
AcDbEntity
  8
A-E
  6
Continuous
 62
     4
370
     9
100
AcDbLine
 10
323.3041915637722
 20
119.2926773032607
 30
0.0
 11
323.4836490934825
 21
119.7601957392991
 31
0.0
  0
LINE
  5
96
330
1F
100
AcDbEntity
  8
A-E
  6
Continuous
 62
     4
370
     9
100
AcDbLine
 10
324.6390809171353
 20
118.8636034308224
 30
0.0
 11
323.4836490934825
 21
119.7601957392991
 31
0.0
  0
LINE
  5
97
330
1F
100
AcDbEntity
  8
A-E
  6
Continuous
 62
     4
370
     9
100
AcDbLine
 10
321.969326573429
 20
119.7217750628599
 30
0.0
 11
322.1488174499936
 21
120.189249740634
 31
0.0
  0
LINE
  5
98
330
1F
100
AcDbEntity
  8
A-E
  6
Continuous
 62
     4
370
     9
100
AcDbLine
 10
323.3041915637722
 20
119.2926773032607
 30
0.0
 11
322.1488174499936
 21
120.189249740634
 31
0.0
  0
LINE
  5
99
330
1F
100
AcDbEntity
  8
A-E
  6
Continuous
 62
     4
370
     9
100
AcDbLine
 10
320.6344998977161
 20
120.1508434916634
 30
0.0
 11
320.8138992416934
 21
120.6183335486237
 31
0.0
  0
LINE
  5
9A
330
1F
100
AcDbEntity
  8
A-E
  6
Continuous
 62
     4
370
     9
100
AcDbLine
 10
321.969326573429
 20
119.7217750628599
 30
0.0
 11
320.8138992416934
 21
120.6183335486237
 31
0.0
  0
LINE
  5
9B
330
1F
100
AcDbEntity
  8
A-E
  6
Continuous
 62
     4
370
     9
100
AcDbLine
 10
320.6344998977161
 20
120.1508434916634
 30
0.0
 11
319.4789765414765
 21
121.047451179326
 31
0.0
  0
LINE
  5
9C
330
1F
100
AcDbEntity
  8
A-E
  6
Continuous
 62
     4
370
     9
100
AcDbLine
 10
325.9739991254355
 20
118.4345196228328
 30
0.0
 11
324.8185717936994
 21
119.3310781085967
 31
0.0
  0
LINE
  5
9D
330
1F
100
AcDbEntity
  8
A-E
  6
Continuous
 62
     4
370
     9
100
AcDbLine
 10
326.1534895261406
 20
118.9019460504257
 30
0.0
 11
325.9739991254355
 21
118.4345196228328
 31
0.0
  0
LINE
  5
9E
330
1F
100
AcDbEntity
  8
A-E
  6
Continuous
 62
     4
370
     9
100
AcDbLine
 10
318.4925340416203
 20
119.2638163411457
 30
0.0
 11
325.613528340115
 21
116.9747745899529
 31
0.0
  0
ELLIPSE
  5
9F
330
1F
100
AcDbEntity
  8
A-E
  6
Continuous
 62
     4
370
     9
100
AcDbEllipse
 10
321.4929281626578
 20
116.1458604446495
 30
0.0
 11
-4.749935165543611
 21
1.635533838832282
 31
0.0
210
0.0
220
0.0
230
1.0
 40
0.6113000000000001
 41
5.586205157237203
 42
10.18912916207193
  0
ARC
  5
A0
330
1F
100
AcDbEntity
  8
A-E
  6
Continuous
 62
     4
370
     9
100
AcDbCircle
 10
327.0453310690149
 20
117.0397048238454
 30
0.0
 40
0.5000000000000003
100
AcDbArc
 50
266.8085784912109
 51
338.9999999999999
  0
LINE
  5
A1
330
1F
100
AcDbEntity
  8
A-E
  6
Continuous
 62
     4
370
     9
100
AcDbLine
 10
327.512109212243
 20
116.8605344734133
 30
0.0
 11
328.0604893178506
 21
118.2889666830392
 31
0.0
  0
LINE
  5
A2
330
1F
100
AcDbEntity
  8
A-E
  6
Continuous
 62
     4
370
     9
100
AcDbLine
 10
328.0604893178506
 20
118.2889666830392
 30
0.0
 11
326.1534895261406
 21
118.9019460504257
 31
0.0
  0
LINE
  5
A3
330
1F
100
AcDbEntity
  8
A-E
  6
Continuous
 62
     4
370
     9
100
AcDbLine
 10
325.7452610061853
 20
121.793423358594
 30
0.0
 11
325.6241420413235
 21
121.3074801125467
 31
0.0
  0
LINE
  5
A4
330
1F
100
AcDbEntity
  8
A-E
  6
Continuous
 62
     4
370
     9
100
AcDbLine
 10
327.084874346956
 20
121.379230608343
 30
0.0
 11
325.6241420413235
 21
121.3074801125467
 31
0.0
  0
LINE
  5
A5
330
1F
100
AcDbEntity
  8
A-E
  6
Continuous
 62
     4
370
     9
100
AcDbLine
 10
327.084874346956
 20
121.379230608343
 30
0.0
 11
327.5000365725305
 21
121.0991777188011
 31
0.0
  0
LINE
  5
A6
330
1F
100
AcDbEntity
  8
A-E
  6
Continuous
 62
     4
370
     9
100
AcDbLine
 10
326.7640154450726
 20
123.4384325078954
 30
0.0
 11
326.5244525657374
 21
123.1225695680744
 31
0.0
  0
ARC
  5
A7
330
1F
100
AcDbEntity
  8
A-E
  6
Continuous
 62
     4
370
     9
100
AcDbCircle
 10
327.162361646439
 20
123.1362162292908
 30
0.0
 40
0.5000000000000002
100
AcDbArc
 50
55.9999999999999
 51
142.8223876953124
  0
LINE
  5
A8
330
1F
100
AcDbEntity
  8
A-E
  6
Continuous
 62
     4
370
     9
100
AcDbLine
 10
325.7452610061853
 20
121.793423358594
 30
0.0
 11
324.2845098269711
 21
121.7216624010005
 31
0.0
  0
LINE
  5
A9
330
1F
100
AcDbEntity
  8
A-E
  6
Continuous
 62
     4
370
     9
100
AcDbLine
 10
324.4056685890098
 20
122.2075783616813
 30
0.0
 11
324.2845098269711
 21
121.7216624010005
 31
0.0
  0
LINE
  5
AA
330
1F
100
AcDbEntity
  8
A-E
  6
Continuous
 62
     4
370
     9
100
AcDbLine
 10
324.4056685890098
 20
122.2075783616813
 30
0.0
 11
322.9449971100146
 21
122.135873918966
 31
0.0
  0
LINE
  5
AB
330
1F
100
AcDbEntity
  8
A-E
  6
Continuous
 62
     4
370
     9
100
AcDbLine
 10
323.0660950454151
 20
122.6217438265659
 30
0.0
 11
322.9449971100146
 21
122.135873918966
 31
0.0
  0
LINE
  5
AC
330
1F
100
AcDbEntity
  8
A-E
  6
Continuous
 62
     4
370
     9
100
AcDbLine
 10
323.0660950454151
 20
122.6217438265659
 30
0.0
 11
321.6053795633519
 21
122.5500520015273
 31
0.0
  0
LINE
  5
AD
330
1F
100
AcDbEntity
  8
A-E
  6
Continuous
 62
     4
370
     9
100
AcDbLine
 10
321.7265697107817
 20
123.0359113414631
 30
0.0
 11
321.6053795633519
 21
122.5500520015273
 31
0.0
  0
LINE
  5
AE
330
1F
100
AcDbEntity
  8
A-E
  6
Continuous
 62
     4
370
     9
100
AcDbLine
 10
321.7265697107817
 20
123.0359113414631
 30
0.0
 11
320.2657431431078
 21
122.9642196222915
 31
0.0
  0
LINE
  5
AF
330
1F
100
AcDbEntity
  8
A-E
  6
Continuous
 62
     4
370
     9
100
AcDbLine
 10
326.5244525657374
 20
123.1225695680744
 30
0.0
 11
319.3416268387094
 21
125.3432504864455
 31
0.0
  0
ARC
  5
B0
330
1F
100
AcDbEntity
  8
A-E
  6
Continuous
 62
     4
370
     9
100
AcDbCircle
 10
319.1938887027064
 20
124.8655592395723
 30
0.0
 40
0.5000000000000002
100
AcDbArc
 50
72.82011413574212
 51
165.9999999999999
  0
LINE
  5
B1
330
1F
100
AcDbEntity
  8
A-E
  6
Continuous
 62
     4
370
     9
100
AcDbLine
 10
317.0717647589905
 20
120.1992263001552
 30
0.0
 11
318.7271155749687
 21
125.0067141462889
 31
0.0
  0
LINE
  5
B2
330
1F
100
AcDbEntity
  8
A-4
  6
Continuous
 62
     3
370
     9
100
AcDbLine
 10
319.556373136983
 20
121.0479802192175
 30
0.0
 11
320.1476840861019
 21
123.0442125286019
 31
0.0
  0
ARC
  5
B3
330
1F
100
AcDbEntity
  8
A-E
  6
Continuous
 62
     4
370
     9
100
AcDbCircle
 10
317.54452404679
 20
120.0364670618058
 30
0.0
 40
0.5000000000000001
100
AcDbArc
 50
161.0
 51
218.3493499755859
  0
LINE
  5
B4
330
1F
100
AcDbEntity
  8
A-4
  6
Continuous
 62
     3
370
     9
100
AcDbLine
 10
331.7190256554474
 20
138.5770248371967
 30
0.0
 11
349.5645203491659
 21
116.1421632477479
 31
0.0
  0
ARC
  5
B5
330
1F
100
AcDbEntity
  8
A-4
  6
Continuous
 62
     3
370
     9
100
AcDbCircle
 10
330.1538093417426
 20
137.3319955639213
 30
0.0
 40
2.0
100
AcDbArc
 50
38.49999999999986
 51
90.00000000000006
  0
LINE
  5
B6
330
1F
100
AcDbEntity
  8
A-5
  6
Continuous
 62
     3
370
     9
100
AcDbLine
 10
333.2842419691522
 20
139.8220541104718
 30
0.0
 11
351.129736662871
 21
117.3871925210234
 31
0.0
  0
ARC
  5
B7
330
1F
100
AcDbEntity
  8
A-4
  6
Continuous
 62
     3
370
     9
100
AcDbCircle
 10
330.1538093417426
 20
137.3319955639213
 30
0.0
 40
4.0
100
AcDbArc
 50
38.49999999999986
 51
90.00000000000006
  0
ARC
  5
B8
330
1F
100
AcDbEntity
  8
A-4
  6
Continuous
 62
     3
370
     9
100
AcDbCircle
 10
348.782076421426
 20
115.5197792448451
 30
0.0
 40
0.9999999999999999
100
AcDbArc
 50
253.5
 51
38.5
  0
LINE
  5
B9
330
1F
100
AcDbEntity
  8
A-4
  6
Continuous
 62
     3
370
     9
100
AcDbLine
 10
348.4980610767224
 20
114.560959509977
 30
0.0
 11
320.1244038263908
 21
122.965619688954
 31
0.0
  0
LINE
  5
BA
330
1F
100
AcDbEntity
  8
A-4
  6
Continuous
 62
     7
370
     9
100
AcDbLine
 10
287.2663779570133
 20
121.3319955639214
 30
0.0
 11
287.2663779570133
 21
124.3319955639212
 31
0.0
  0
LINE
  5
BB
330
1F
100
AcDbEntity
  8
A-4
  6
Continuous
 62
     7
370
     9
100
AcDbLine
 10
202.2513500018661
 20
121.3319955639214
 30
0.0
 11
287.2663779570133
 21
121.3319955639214
 31
0.0
  0
ARC
  5
BC
330
1F
100
AcDbEntity
  8
A-4
  6
Continuous
 62
     7
370
     9
100
AcDbCircle
 10
347.2663779570132
 20
107.9422479325644
 30
0.0
 40
130.0
100
AcDbArc
 50
207.5134917061958
 51
230.0427673610095
  0
LINE
  5
BD
330
1F
100
AcDbEntity
  8
A-4
  6
Continuous
 62
     7
370
     9
100
AcDbLine
 10
304.8528314566823
 20
73.19422114200327
 30
0.0
 11
346.5055845037773
 21
106.5222657134201
 31
0.0
  0
ARC
  5
BE
330
1F
100
AcDbEntity
  8
A-4
  6
Continuous
 62
     7
370
     9
100
AcDbCircle
 10
347.2663779570132
 20
107.9422479325647
 30
0.0
 40
60.0
100
AcDbArc
 50
179.9999981203058
 51
214.1110780682279
  0
ARC
  5
BF
330
1F
100
AcDbEntity
  8
A-4
  6
Continuous
 62
     7
370
     9
100
AcDbCircle
 10
301.7290223411857
 20
77.09829806362498
 30
0.0
 40
5.0
100
AcDbArc
 50
214.1110780682273
 51
308.6647080371723
  0
ARC
  5
C0
330
1F
100
AcDbEntity
  8
A-4
  6
Continuous
 62
     7
370
     9
100
AcDbCircle
 10
292.6780493091303
 20
42.78770568545219
 30
0.0
 40
45.0
100
AcDbArc
 50
230.0427673610095
 51
262.8361357859998
  0
LINE
  5
C1
330
1F
100
AcDbEntity
  8
A-4
  6
Continuous
 62
     7
370
     9
100
AcDbLine
 10
202.8168396094969
 20
103.8565813257637
 30
0.0
 11
231.9691077554192
 21
47.88777695778641
 31
0.0
  0
ARC
  5
C2
330
1F
100
AcDbEntity
  8
A-4
  6
Continuous
 62
     7
370
     9
100
AcDbCircle
 10
207.2513500018661
 20
106.1663686709475
 30
0.0
 40
5.0
100
AcDbArc
 50
180.0
 51
207.5134917061954
  0
LINE
  5
C3
330
1F
100
AcDbEntity
  8
A-4
  6
Continuous
 62
     7
370
     9
100
AcDbLine
 10
287.2663779570132
 20
121.3319955639214
 30
0.0
 11
287.2663779570132
 21
107.9422499009761
 31
0.0
  0
LINE
  5
C4
330
1F
100
AcDbEntity
  8
A-4
  6
Continuous
 62
     7
370
     9
100
AcDbLine
 10
346.5055845037773
 20
106.5222657134201
 30
0.0
 11
349.0265935125788
 21
106.2054034295804
 31
0.0
  0
LINE
  5
C5
330
1F
100
AcDbEntity
  8
A-4
  6
Continuous
 62
     7
370
     9
100
AcDbLine
 10
339.8146381920435
 20
56.96984839898071
 30
0.0
 11
342.7912188426902
 21
56.59572591877399
 31
0.0
  0
LINE
  5
C6
330
1F
100
AcDbEntity
  8
A-4
  6
Continuous
 62
     3
370
     9
100
AcDbLine
 10
202.2513500018661
 20
104.3319955639212
 30
0.0
 11
202.2513500018661
 21
124.3319955639212
 31
0.0
  0
LINE
  5
C7
330
1F
100
AcDbEntity
  8
A-4
  6
Continuous
 62
     3
370
     9
100
AcDbLine
 10
202.2513500018661
 20
124.3319955639212
 30
0.0
 11
212.2513500018661
 21
124.3319955639212
 31
0.0
  0
LINE
  5
C8
330
1F
100
AcDbEntity
  8
A-4
  6
Continuous
 62
     3
370
     9
100
AcDbLine
 10
210.2513500018662
 20
124.3319955639212
 30
0.0
 11
210.2513500018662
 21
104.3319955639212
 31
0.0
  0
LINE
  5
C9
330
1F
100
AcDbEntity
  8
A-F
  6
Continuous
 62
     3
370
     9
100
AcDbLine
 10
210.2513500018662
 20
104.3319955639212
 30
0.0
 11
202.2513500018661
 21
104.3319955639212
 31
0.0
  0
LINE
  5
CA
330
1F
100
AcDbEntity
  8
A-1
  6
Continuous
 62
     2
370
     9
100
AcDbLine
 10
312.2820764214262
 20
124.3319955639212
 30
0.0
 11
312.2820764214262
 21
139.3319955639212
 31
0.0
  0
LINE
  5
CB
330
1F
100
AcDbEntity
  8
A-E
  6
Continuous
 62
     2
370
     9
100
AcDbLine
 10
287.0820336968167
 20
141.3319955639213
 30
0.0
 11
296.4821496636135
 21
141.3319955639213
 31
0.0
  0
LINE
  5
CC
330
1F
100
AcDbEntity
  8
A-E
  6
Continuous
 62
     2
370
     9
100
AcDbLine
 10
287.0820336968167
 20
141.6204629711479
 30
0.0
 11
287.0820336968167
 21
141.3319955639213
 31
0.0
  0
LINE
  5
CD
330
1F
100
AcDbEntity
  8
A-E
  6
Continuous
 62
     2
370
     9
100
AcDbLine
 10
296.4821496636135
 20
141.6204629711479
 30
0.0
 11
296.4821496636135
 21
141.3319955639213
 31
0.0
  0
LINE
  5
CE
330
1F
100
AcDbEntity
  8
A-E
  6
Continuous
 62
     2
370
     9
100
AcDbLine
 10
287.0820336968167
 20
141.6204629711479
 30
0.0
 11
296.4821496636135
 21
141.6204629711479
 31
0.0
  0
LINE
  5
CF
330
1F
100
AcDbEntity
  8
A-E
  6
Continuous
 62
     2
370
     9
100
AcDbLine
 10
291.2819848686917
 20
143.4114785961478
 30
0.0
 11
292.2820459038479
 21
143.4114785961478
 31
0.0
  0
LINE
  5
D0
330
1F
100
AcDbEntity
  8
A-E
  6
Continuous
 62
     2
370
     9
100
AcDbLine
 10
292.2820459038479
 20
143.8115182689993
 30
0.0
 11
292.2820459038479
 21
143.4114785961478
 31
0.0
  0
LINE
  5
D1
330
1F
100
AcDbEntity
  8
A-E
  6
Continuous
 62
     2
370
     9
100
AcDbLine
 10
291.2819848686917
 20
143.8115182689993
 30
0.0
 11
291.2819848686917
 21
143.4114785961478
 31
0.0
  0
ARC
  5
D2
330
1F
100
AcDbEntity
  8
A-E
  6
Continuous
 62
     2
370
     9
100
AcDbCircle
 10
291.7820153862698
 20
137.7320199779837
 30
0.0
 40
6.099999904632569
100
AcDbArc
 50
39.60198974609384
 51
85.2985382080079
  0
ARC
  5
D3
330
1F
100
AcDbEntity
  8
A-E
  6
Continuous
 62
     2
370
     9
100
AcDbCircle
 10
291.7820153862698
 20
137.7320199779837
 30
0.0
 40
6.099999904632569
100
AcDbArc
 50
94.70191955566406
 51
140.3980102539062
  0
LINE
  5
D4
330
1F
100
AcDbEntity
  8
A-E
  6
Continuous
 62
     2
370
     9
100
AcDbLine
 10
289.782076421426
 20
141.3319955639213
 30
0.0
 11
289.782076421426
 21
132.7960916332572
 31
0.0
  0
LINE
  5
D5
330
1F
100
AcDbEntity
  8
A-E
  6
Continuous
 62
     2
370
     9
100
AcDbLine
 10
290.3820520073635
 20
141.3319955639213
 30
0.0
 11
290.3820520073635
 21
131.7568460277884
 31
0.0
  0
LINE
  5
D6
330
1F
100
AcDbEntity
  8
A-E
  6
JWW_CENTER1
 62
     2
370
     9
100
AcDbLine
 10
291.7820764214261
 20
145.2378030590385
 30
0.0
 11
291.7820764214261
 21
127.7112985424369
 31
0.0
  0
LINE
  5
D7
330
1F
100
AcDbEntity
  8
A-E
  6
Continuous
 62
     2
370
     9
100
AcDbLine
 10
293.1820703179105
 20
141.3319955639213
 30
0.0
 11
293.1820703179105
 21
131.7568918041557
 31
0.0
  0
LINE
  5
D8
330
1F
100
AcDbEntity
  8
A-E
  6
Continuous
 62
     2
370
     9
100
AcDbLine
 10
293.7821374565823
 20
138.2989539158763
 30
0.0
 11
293.7821374565823
 21
132.7961831859915
 31
0.0
  0
LINE
  5
D9
330
1F
100
AcDbEntity
  8
A-E
  6
Continuous
 62
     2
370
     9
100
AcDbLine
 10
291.7820764214261
 20
129.3319803051322
 30
0.0
 11
293.7821374565823
 21
132.7961831859915
 31
0.0
  0
LINE
  5
DA
330
1F
100
AcDbEntity
  8
A-E
  6
Continuous
 62
     2
370
     9
100
AcDbLine
 10
291.7820764214261
 20
129.3319803051322
 30
0.0
 11
289.782076421426
 21
132.7960916332572
 31
0.0
  0
LINE
  5
DB
330
1F
100
AcDbEntity
  8
A-E
  6
Continuous
 62
     2
370
     9
100
AcDbLine
 10
293.7821374565823
 20
141.3319955639213
 30
0.0
 11
293.7821374565823
 21
138.2989539158763
 31
0.0
  0
LWPOLYLINE
  5
DC
330
1F
100
AcDbEntity
  8
A-6
  6
Continuous
 62
     6
370
     5
100
AcDbPolyline
 90
        4
 70
     1
 43
1.0
 10
349.2820764214259
 20
115.5197792448451
 42
0.4142135623731
 10
348.782076421426
 20
116.0197792448451
 42
0.4142135623731
 10
348.282076421426
 20
115.5197792448451
 42
0.4142135623731
 10
348.782076421426
 20
115.0197792448451
 42
0.4142135623731
  0
ARC
  5
DD
330
1F
100
AcDbEntity
  8
A-F
  6
Continuous
 62
     2
370
     9
100
AcDbCircle
 10
349.8820764214256
 20
-78.66803495171561
 30
0.0
 40
0.9999999999999991
100
AcDbArc
 50
0.0
 51
180.0
  0
LINE
  5
DE
330
1F
100
AcDbEntity
  8
A-5
  6
JWW_CENTER1
 62
     7
370
     9
100
AcDbLine
 10
331.2212247814418
 20
-68.1795995675362
 30
0.0
 11
204.1386547846881
 21
129.9303311291457
 31
0.0
  0
LINE
  5
DF
330
1F
100
AcDbEntity
  8
A-4
  6
Continuous
 62
    30
370
     5
100
AcDbLine
 10
326.7820764214261
 20
-52.1680349517164
 30
0.0
 11
347.782076421426
 21
-52.1680349517164
 31
0.0
  0
LINE
  5
E0
330
1F
100
AcDbEntity
  8
A-4
  6
Continuous
 62
    30
370
     5
100
AcDbLine
 10
305.782076421426
 20
119.8319650482836
 30
0.0
 11
305.782076421426
 21
112.8319650482835
 31
0.0
  0
ARC
  5
E1
330
1F
100
AcDbEntity
  8
A-4
  6
Continuous
 62
    30
370
     5
100
AcDbCircle
 10
308.782076421426
 20
112.8319650482835
 30
0.0
 40
3.0
100
AcDbArc
 50
180.0
 51
270.0
  0
LINE
  5
E2
330
1F
100
AcDbEntity
  8
A-4
  6
Continuous
 62
    30
370
     5
100
AcDbLine
 10
349.2820764214261
 20
109.8319650482836
 30
0.0
 11
308.782076421426
 21
109.8319650482836
 31
0.0
  0
ARC
  5
E3
330
1F
100
AcDbEntity
  8
A-4
  6
Continuous
 62
    30
370
     5
100
AcDbCircle
 10
347.782076421426
 20
-50.66803495171649
 30
0.0
 40
1.5
100
AcDbArc
 50
270.0
 51
0.0
  0
LINE
  5
E4
330
1F
100
AcDbEntity
  8
A-4
  6
Continuous
 62
    30
370
     5
100
AcDbLine
 10
326.7820764214261
 20
109.8319650482836
 30
0.0
 11
326.7820764214261
 21
-52.1680349517164
 31
0.0
  0
LINE
  5
E5
330
1F
100
AcDbEntity
  8
A-F
  6
Continuous
 62
    30
370
     5
100
AcDbLine
 10
351.7820764214261
 20
108.3319650482836
 30
0.0
 11
351.7820764214261
 21
27.33196504828349
 31
0.0
  0
LINE
  5
E6
330
1F
100
AcDbEntity
  8
A-1
  6
Continuous
 62
     6
370
     5
100
AcDbLine
 10
349.7820764214262
 20
112.3319650482836
 30
0.0
 11
319.7820764214262
 21
112.3319650482836
 31
0.0
  0
ARC
  5
E7
330
1F
100
AcDbEntity
  8
A-4
  6
Continuous
 62
     6
370
     5
100
AcDbCircle
 10
349.7820764214262
 20
110.3319650482835
 30
0.0
 40
1.0
100
AcDbArc
 50
0.0
 51
90.0
  0
ARC
  5
E8
330
1F
100
AcDbEntity
  8
A-4
  6
Continuous
 62
     6
370
     5
100
AcDbCircle
 10
349.7820764214262
 20
110.3319650482835
 30
0.0
 40
2.0
100
AcDbArc
 50
0.0
 51
90.0
  0
LINE
  5
E9
330
1F
100
AcDbEntity
  8
A-4
  6
Continuous
 62
     6
370
     5
100
AcDbLine
 10
349.7820764214262
 20
111.3319650482835
 30
0.0
 11
319.7820764214262
 21
111.3319650482835
 31
0.0
  0
ARC
  5
EA
330
1F
100
AcDbEntity
  8
A-4
  6
Continuous
 62
    30
370
     5
100
AcDbCircle
 10
347.782076421426
 20
108.3319650482836
 30
0.0
 40
3.0
100
AcDbArc
 50
0.0
 51
90.0
  0
LINE
  5
EB
330
1F
100
AcDbEntity
  8
A-4
  6
Continuous
 62
     7
370
     9
100
AcDbLine
 10
348.4820295456862
 20
46.63079912189978
 30
0.0
 11
348.1467575549664
 21
48.44386625370269
 31
0.0
  0
LINE
  5
EC
330
1F
100
AcDbEntity
  8
A-4
  6
Continuous
 62
     7
370
     9
100
AcDbLine
 10
348.1467575549664
 20
48.44386625370269
 30
0.0
 11
347.5366293526099
 21
51.54251624450146
 31
0.0
  0
LINE
  5
ED
330
1F
100
AcDbEntity
  8
A-4
  6
Continuous
 62
     7
370
     9
100
AcDbLine
 10
347.5366293526099
 20
51.54251624450146
 30
0.0
 11
346.8374093559655
 21
54.56525561681537
 31
0.0
  0
LINE
  5
EE
330
1F
100
AcDbEntity
  8
A-4
  6
Continuous
 62
     7
370
     9
100
AcDbLine
 10
346.8374093559655
 20
54.56525561681537
 30
0.0
 11
345.9927103534568
 21
57.4640396754011
 31
0.0
  0
LINE
  5
EF
330
1F
100
AcDbEntity
  8
A-4
  6
Continuous
 62
     7
370
     9
100
AcDbLine
 10
345.9927103534568
 20
57.4640396754011
 30
0.0
 11
344.9461451335105
 21
60.19082372501521
 31
0.0
  0
LINE
  5
F0
330
1F
100
AcDbEntity
  8
A-4
  6
Continuous
 62
     7
370
     9
100
AcDbLine
 10
344.9461451335105
 20
60.19082372501521
 30
0.0
 11
343.6413264845501
 21
62.6975630704134
 31
0.0
  0
LINE
  5
F1
330
1F
100
AcDbEntity
  8
A-4
  6
Continuous
 62
     7
370
     9
100
AcDbLine
 10
343.6413264845501
 20
62.6975630704134
 30
0.0
 11
342.7439804534836
 21
64.031715299023
 31
0.0
  0
LINE
  5
F2
330
1F
100
AcDbEntity
  8
A-4
  6
Continuous
 62
     7
370
     9
100
AcDbLine
 10
342.7439804534836
 20
64.031715299023
 30
0.0
 11
340.9752679218741
 21
66.06825281471791
 31
0.0
  0
LINE
  5
F3
330
1F
100
AcDbEntity
  8
A-4
  6
Continuous
 62
     7
370
     9
100
AcDbLine
 10
340.9752679218741
 20
66.06825281471791
 30
0.0
 11
337.2839288837852
 21
69.04823715776223
 31
0.0
  0
LINE
  5
F4
330
1F
100
AcDbEntity
  8
A-4
  6
Continuous
 62
     7
370
     9
100
AcDbLine
 10
337.2839288837852
 20
69.04823715776223
 30
0.0
 11
332.9918723078939
 21
71.55967952108645
 31
0.0
  0
LINE
  5
F5
330
1F
100
AcDbEntity
  8
A-4
  6
Continuous
 62
     7
370
     9
100
AcDbLine
 10
332.9918723078939
 20
71.55967952108645
 30
0.0
 11
328.3452975147489
 21
73.83975840301466
 31
0.0
  0
LINE
  5
F6
330
1F
100
AcDbEntity
  8
A-4
  6
Continuous
 62
     7
370
     9
100
AcDbLine
 10
328.3452975147489
 20
73.83975840301466
 30
0.0
 11
323.5904038248978
 21
76.12565230187036
 31
0.0
  0
LINE
  5
F7
330
1F
100
AcDbEntity
  8
A-4
  6
Continuous
 62
     7
370
     9
100
AcDbLine
 10
323.5904038248978
 20
76.12565230187036
 30
0.0
 11
318.9733905588903
 21
78.65453971597722
 31
0.0
  0
LINE
  5
F8
330
1F
100
AcDbEntity
  8
A-4
  6
Continuous
 62
     7
370
     9
100
AcDbLine
 10
318.9733905588903
 20
78.65453971597722
 30
0.0
 11
316.455715009472
 21
80.32609470646868
 31
0.0
  0
LINE
  5
F9
330
1F
100
AcDbEntity
  8
A-4
  6
Continuous
 62
     7
370
     9
100
AcDbLine
 10
316.455715009472
 20
80.32609470646868
 30
0.0
 11
314.7450528901314
 21
81.653623639043
 31
0.0
  0
LINE
  5
FA
330
1F
100
AcDbEntity
  8
A-4
  6
Continuous
 62
     7
370
     9
100
AcDbLine
 10
314.7450528901314
 20
81.653623639043
 30
0.0
 11
312.0215077175638
 21
84.1760258129036
 31
0.0
  0
LINE
  5
FB
330
1F
100
AcDbEntity
  8
A-4
  6
Continuous
 62
     7
370
     9
100
AcDbLine
 10
312.0215077175638
 20
84.1760258129036
 30
0.0
 11
309.5981783858346
 21
86.9635691550031
 31
0.0
  0
LINE
  5
FC
330
1F
100
AcDbEntity
  8
A-4
  6
Continuous
 62
     7
370
     9
100
AcDbLine
 10
309.5981783858346
 20
86.9635691550031
 30
0.0
 11
307.4916946266089
 21
89.98078462831678
 31
0.0
  0
LINE
  5
FD
330
1F
100
AcDbEntity
  8
A-4
  6
Continuous
 62
     7
370
     9
100
AcDbLine
 10
307.4916946266089
 20
89.98078462831678
 30
0.0
 11
305.7186861715503
 21
93.19220319581952
 31
0.0
  0
LINE
  5
FE
330
1F
100
AcDbEntity
  8
A-4
  6
Continuous
 62
     7
370
     9
100
AcDbLine
 10
305.7186861715503
 20
93.19220319581952
 30
0.0
 11
304.2957827523254
 21
96.56235582048602
 31
0.0
  0
LINE
  5
FF
330
1F
100
AcDbEntity
  8
A-4
  6
Continuous
 62
     7
370
     9
100
AcDbLine
 10
304.2957827523254
 20
96.56235582048602
 30
0.0
 11
303.6374698756148
 21
98.57579964280752
 31
0.0
  0
LINE
  5
100
330
1F
100
AcDbEntity
  8
A-4
  6
Continuous
 62
     7
370
     9
100
AcDbLine
 10
303.6374698756148
 20
98.57579964280752
 30
0.0
 11
303.2368113913802
 21
100.0691558033693
 31
0.0
  0
LINE
  5
101
330
1F
100
AcDbEntity
  8
A-4
  6
Continuous
 62
     7
370
     9
100
AcDbLine
 10
303.2368113913802
 20
100.0691558033693
 30
0.0
 11
302.7165669053832
 21
102.6797289803292
 31
0.0
  0
LINE
  5
102
330
1F
100
AcDbEntity
  8
A-4
  6
Continuous
 62
     7
370
     9
100
AcDbLine
 10
302.7165669053832
 20
102.6797289803292
 30
0.0
 11
302.4300686077126
 21
105.3243248838921
 31
0.0
  0
LINE
  5
103
330
1F
100
AcDbEntity
  8
A-4
  6
Continuous
 62
     7
370
     9
100
AcDbLine
 10
302.4300686077126
 20
105.3243248838921
 30
0.0
 11
302.3980899524689
 21
107.9897801022606
 31
0.0
  0
LINE
  5
104
330
1F
100
AcDbEntity
  8
A-4
  6
Continuous
 62
     7
370
     9
100
AcDbLine
 10
302.3980899524689
 20
107.9897801022606
 30
0.0
 11
302.6414043937542
 21
110.6629312236374
 31
0.0
  0
LINE
  5
105
330
1F
100
AcDbEntity
  8
A-4
  6
Continuous
 62
     7
370
     9
100
AcDbLine
 10
302.6414043937542
 20
110.6629312236374
 30
0.0
 11
303.1807853856694
 21
113.3306148362251
 31
0.0
  0
LINE
  5
106
330
1F
100
AcDbEntity
  8
A-4
  6
Continuous
 62
     7
370
     9
100
AcDbLine
 10
303.1807853856694
 20
113.3306148362251
 30
0.0
 11
303.6374698756148
 21
114.8701790502529
 31
0.0
  0
LINE
  5
107
330
1F
100
AcDbEntity
  8
A-4
  6
Continuous
 62
     7
370
     9
100
AcDbLine
 10
303.6374698756148
 20
114.8701790502529
 30
0.0
 11
304.2504425802403
 21
116.5130638746692
 31
0.0
  0
LINE
  5
108
330
1F
100
AcDbEntity
  8
A-4
  6
Continuous
 62
     7
370
     9
100
AcDbLine
 10
304.2504425802403
 20
116.5130638746692
 30
0.0
 11
305.5916230901988
 21
119.2611055379172
 31
0.0
  0
LINE
  5
109
330
1F
100
AcDbEntity
  8
A-4
  6
Continuous
 62
     7
370
     9
100
AcDbLine
 10
305.5916230901988
 20
119.2611055379172
 30
0.0
 11
307.2682454721874
 21
121.8106605415989
 31
0.0
  0
LINE
  5
10A
330
1F
100
AcDbEntity
  8
A-4
  6
Continuous
 62
     7
370
     9
100
AcDbLine
 10
307.2682454721874
 20
121.8106605415989
 30
0.0
 11
309.2518552953555
 21
124.0553319439905
 31
0.0
  0
LINE
  5
10B
330
1F
100
AcDbEntity
  8
A-4
  6
Continuous
 62
     7
370
     9
100
AcDbLine
 10
309.2518552953555
 20
124.0553319439905
 30
0.0
 11
311.5139981288507
 21
125.8887228033679
 31
0.0
  0
LINE
  5
10C
330
1F
100
AcDbEntity
  8
A-4
  6
Continuous
 62
     7
370
     9
100
AcDbLine
 10
311.5139981288507
 20
125.8887228033679
 30
0.0
 11
314.0262195418214
 21
127.204436178007
 31
0.0
  0
LINE
  5
10D
330
1F
100
AcDbEntity
  8
A-4
  6
Continuous
 62
     7
370
     9
100
AcDbLine
 10
314.0262195418214
 20
127.204436178007
 30
0.0
 11
315.5866814410743
 21
127.68842418411
 31
0.0
  0
LINE
  5
10E
330
1F
100
AcDbEntity
  8
A-4
  6
Continuous
 62
     7
370
     9
100
AcDbLine
 10
315.5866814410743
 20
127.68842418411
 30
0.0
 11
317.1028773368792
 21
127.9370623237535
 31
0.0
  0
LINE
  5
10F
330
1F
100
AcDbEntity
  8
A-4
  6
Continuous
 62
     7
370
     9
100
AcDbLine
 10
317.1028773368792
 20
127.9370623237535
 30
0.0
 11
319.8029217689458
 21
127.9262222771639
 31
0.0
  0
LINE
  5
110
330
1F
100
AcDbEntity
  8
A-4
  6
Continuous
 62
     7
370
     9
100
AcDbLine
 10
319.8029217689458
 20
127.9262222771639
 30
0.0
 11
322.528242893402
 21
127.4078475789954
 31
0.0
  0
LINE
  5
111
330
1F
100
AcDbEntity
  8
A-4
  6
Continuous
 62
     7
370
     9
100
AcDbLine
 10
322.528242893402
 20
127.4078475789954
 30
0.0
 11
325.1817771390955
 21
126.4387149727043
 31
0.0
  0
LINE
  5
112
330
1F
100
AcDbEntity
  8
A-4
  6
Continuous
 62
     7
370
     9
100
AcDbLine
 10
325.1817771390955
 20
126.4387149727043
 30
0.0
 11
327.666460934874
 21
125.0756012017454
 31
0.0
  0
LINE
  5
113
330
1F
100
AcDbEntity
  8
A-4
  6
Continuous
 62
     7
370
     9
100
AcDbLine
 10
327.666460934874
 20
125.0756012017454
 30
0.0
 11
329.8852307095845
 21
123.3752830095748
 31
0.0
  0
LINE
  5
114
330
1F
100
AcDbEntity
  8
A-4
  6
Continuous
 62
     7
370
     9
100
AcDbLine
 10
329.8852307095845
 20
123.3752830095748
 30
0.0
 11
331.0120272801228
 21
122.2569643816284
 31
0.0
  0
LINE
  5
115
330
1F
100
AcDbEntity
  8
A-4
  6
Continuous
 62
     7
370
     9
100
AcDbLine
 10
331.0120272801228
 20
122.2569643816284
 30
0.0
 11
331.4966198403948
 21
121.6999048136908
 31
0.0
  0
LINE
  5
116
330
1F
100
AcDbEntity
  8
A-4
  6
Continuous
 62
     7
370
     9
100
AcDbLine
 10
331.4966198403948
 20
121.6999048136908
 30
0.0
 11
332.2670240720021
 21
120.7010287302234
 31
0.0
  0
LINE
  5
117
330
1F
100
AcDbEntity
  8
A-4
  6
Continuous
 62
     7
370
     9
100
AcDbLine
 10
332.2670240720021
 20
120.7010287302234
 30
0.0
 11
332.9680503166961
 21
119.6611989119649
 31
0.0
  0
LINE
  5
118
330
1F
100
AcDbEntity
  8
A-4
  6
Continuous
 62
     7
370
     9
100
AcDbLine
 10
332.9680503166961
 20
119.6611989119649
 30
0.0
 11
333.6148466065518
 21
118.5893572224072
 31
0.0
  0
LINE
  5
119
330
1F
100
AcDbEntity
  8
A-4
  6
Continuous
 62
     7
370
     9
100
AcDbLine
 10
333.6148466065518
 20
118.5893572224072
 30
0.0
 11
334.2225609736482
 21
117.4944455250412
 31
0.0
  0
LINE
  5
11A
330
1F
100
AcDbEntity
  8
A-4
  6
Continuous
 62
     7
370
     9
100
AcDbLine
 10
334.2225609736482
 20
117.4944455250412
 30
0.0
 11
334.8063414500635
 21
116.3854056833591
 31
0.0
  0
LINE
  5
11B
330
1F
100
AcDbEntity
  8
A-4
  6
Continuous
 62
     7
370
     9
100
AcDbLine
 10
334.8063414500635
 20
116.3854056833591
 30
0.0
 11
335.1399367300087
 21
115.7392126186503
 31
0.0
  0
LINE
  5
11C
330
1F
100
AcDbEntity
  8
A-4
  6
Continuous
 62
    30
370
     5
100
AcDbLine
 10
349.2820764214261
 20
101.3319650482835
 30
0.0
 11
336.282076421426
 21
101.3319650482835
 31
0.0
  0
LINE
  5
11D
330
1F
100
AcDbEntity
  8
A-4
  6
Continuous
 62
    30
370
     5
100
AcDbLine
 10
336.282076421426
 20
109.8319650482836
 30
0.0
 11
336.282076421426
 21
101.3319650482835
 31
0.0
  0
LINE
  5
11E
330
1F
100
AcDbEntity
  8
A-4
  6
Continuous
 62
    30
370
     5
100
AcDbLine
 10
307.2820764214262
 20
119.8319650482836
 30
0.0
 11
307.2820764214262
 21
112.8319650482835
 31
0.0
  0
LINE
  5
11F
330
1F
100
AcDbEntity
  8
A-4
  6
Continuous
 62
    30
370
     5
100
AcDbLine
 10
307.2820764214262
 20
119.8319650482836
 30
0.0
 11
305.782076421426
 21
119.8319650482836
 31
0.0
  0
ARC
  5
120
330
1F
100
AcDbEntity
  8
A-4
  6
Continuous
 62
    30
370
     5
100
AcDbCircle
 10
308.782076421426
 20
112.8319650482835
 30
0.0
 40
1.5
100
AcDbArc
 50
180.0
 51
270.0
  0
LINE
  5
121
330
1F
100
AcDbEntity
  8
A-1
  6
Continuous
 62
     6
370
     5
100
AcDbLine
 10
350.7820764214262
 20
111.3319650482835
 30
0.0
 11
350.7820764214262
 21
23.53196504828353
 31
0.0
  0
LINE
  5
122
330
1F
100
AcDbEntity
  8
A-1
  6
Continuous
 62
    30
370
     5
100
AcDbLine
 10
308.782076421426
 20
111.3319650482835
 30
0.0
 11
350.7820764214262
 21
111.3319650482835
 31
0.0
  0
LINE
  5
123
330
1F
100
AcDbEntity
  8
A-0
  6
Continuous
 62
     2
370
     9
100
AcDbLine
 10
351.7820764214261
 20
110.3319650482835
 30
0.0
 11
351.7820764214261
 21
0.7561530108164671
 31
0.0
  0
LINE
  5
124
330
1F
100
AcDbEntity
  8
A-4
  6
Continuous
 62
     6
370
     5
100
AcDbLine
 10
347.782076421426
 20
112.3319650482836
 30
0.0
 11
316.7820764214261
 21
112.3319650482836
 31
0.0
  0
LINE
  5
125
330
1F
100
AcDbEntity
  8
A-4
  6
Continuous
 62
    30
370
     5
100
AcDbLine
 10
326.7820764214261
 20
-63.66803495171646
 30
0.0
 11
328.2820764214262
 21
-63.66803495171646
 31
0.0
  0
LINE
  5
126
330
1F
100
AcDbEntity
  8
A-4
  6
Continuous
 62
    30
370
     5
100
AcDbLine
 10
328.2820764214262
 20
-55.16803495171651
 30
0.0
 11
328.2820764214262
 21
-63.66803495171646
 31
0.0
  0
ARC
  5
127
330
1F
100
AcDbEntity
  8
A-4
  6
Continuous
 62
    30
370
     5
100
AcDbCircle
 10
329.7820764214262
 20
-55.16803495171651
 30
0.0
 40
1.5
100
AcDbArc
 50
90.0
 51
180.0
  0
LINE
  5
128
330
1F
100
AcDbEntity
  8
A-4
  6
Continuous
 62
    30
370
     5
100
AcDbLine
 10
326.7820764214261
 20
-55.1680569987159
 30
0.0
 11
326.7820764214261
 21
-63.66803495171646
 31
0.0
  0
ARC
  5
129
330
1F
100
AcDbEntity
  8
A-4
  6
Continuous
 62
    30
370
     5
100
AcDbCircle
 10
329.7820764214262
 20
-55.1680569987159
 30
0.0
 40
3.0
100
AcDbArc
 50
90.0
 51
180.0
  0
LINE
  5
12A
330
1F
100
AcDbEntity
  8
A-4
  6
Continuous
 62
    30
370
     5
100
AcDbLine
 10
329.7820764214262
 20
-53.66803495171646
 30
0.0
 11
347.782076421426
 21
-53.66803495171646
 31
0.0
  0
ARC
  5
12B
330
1F
100
AcDbEntity
  8
A-4
  6
Continuous
 62
    30
370
     5
100
AcDbCircle
 10
347.782076421426
 20
-50.66803495171649
 30
0.0
 40
3.0
100
AcDbArc
 50
270.0
 51
0.0
  0
LINE
  5
12C
330
1F
100
AcDbEntity
  8
A-F
  6
JWW_DASHED2
 62
    30
370
     5
100
AcDbLine
 10
346.7820764214261
 20
-53.66803495171646
 30
0.0
 11
346.7820764214261
 21
-52.1680349517164
 31
0.0
  0
LINE
  5
12D
330
1F
100
AcDbEntity
  8
A-1
  6
Continuous
 62
    30
370
     5
100
AcDbLine
 10
350.7820764214262
 20
108.3319650482836
 30
0.0
 11
350.7820764214262
 21
-50.66803495171649
 31
0.0
  0
LINE
  5
12E
330
1F
100
AcDbEntity
  8
A-5
  6
JWW_PHANTOM1
 62
     7
370
     9
100
AcDbLine
 10
323.6907606358275
 20
-25.88476062162393
 30
0.0
 11
296.196451154587
 21
-44.13477284489979
 31
0.0
  0
LINE
  5
12F
330
1F
100
AcDbEntity
  8
A-5
  6
JWW_PHANTOM1
 62
     7
370
     9
100
AcDbLine
 10
296.196451154587
 20
-44.13477284489979
 30
0.0
 11
210.9891043502324
 21
88.69557179394427
 31
0.0
  0
ARC
  5
130
330
1F
100
AcDbEntity
  8
A-5
  6
JWW_PHANTOM1
 62
     7
370
     9
100
AcDbCircle
 10
319.4210988377512
 20
-48.76476479159856
 30
0.0
 40
16.5
100
AcDbArc
 50
123.5751793022231
 51
74.13500009071964
  0
LINE
  5
131
330
1F
100
AcDbEntity
  8
A-5
  6
JWW_PHANTOM1
 62
     7
370
     9
100
AcDbLine
 10
238.483413831474
 20
106.9455840172203
 30
0.0
 11
323.6907606358275
 21
-25.88476062162393
 31
0.0
  0
ARC
  5
132
330
1F
100
AcDbEntity
  8
A-5
  6
JWW_PHANTOM1
 62
     7
370
     9
100
AcDbCircle
 10
215.1509499054131
 20
111.2508365709814
 30
0.0
 40
16.5
100
AcDbArc
 50
301.6345308946536
 51
269.1699101248917
  0
LINE
  5
133
330
1F
100
AcDbEntity
  8
A-5
  6
JWW_PHANTOM1
 62
     7
370
     9
100
AcDbLine
 10
238.483413831474
 20
106.9455840172203
 30
0.0
 11
210.9891043502324
 21
88.69557179394427
 31
0.0
  0
LINE
  5
134
330
1F
100
AcDbEntity
  8
A-4
  6
Continuous
 62
     6
370
     5
100
AcDbLine
 10
350.7820764214262
 20
26.33196504828354
 30
0.0
 11
351.7820764214261
 21
26.33196504828354
 31
0.0
  0
LINE
  5
135
330
1F
100
AcDbEntity
  8
A-4
  6
Continuous
 62
     6
370
     5
100
AcDbLine
 10
316.7820764214261
 20
112.3319650482836
 30
0.0
 11
316.7820764214261
 21
111.3319650482835
 31
0.0
  0
LINE
  5
136
330
1F
100
AcDbEntity
  8
A-F
  6
JWW_DASHED2
 62
    30
370
     5
100
AcDbLine
 10
336.7820764214261
 20
-53.66803495171646
 30
0.0
 11
336.7820764214261
 21
-52.1680349517164
 31
0.0
  0
LINE
  5
137
330
1F
100
AcDbEntity
  8
A-4
  6
Continuous
 62
     3
370
     9
100
AcDbLine
 10
322.532076421426
 20
111.3319650482835
 30
0.0
 11
307.532076421426
 21
111.3319650482835
 31
0.0
  0
LINE
  5
138
330
1F
100
AcDbEntity
  8
A-4
  6
Continuous
 62
     3
370
     9
100
AcDbLine
 10
322.532076421426
 20
111.3319650482835
 30
0.0
 11
322.532076421426
 21
109.8319650482836
 31
0.0
  0
LINE
  5
139
330
1F
100
AcDbEntity
  8
A-4
  6
Continuous
 62
     3
370
     9
100
AcDbLine
 10
305.782076421426
 20
119.8319650482836
 30
0.0
 11
305.782076421426
 21
109.8319650482836
 31
0.0
  0
LINE
  5
13A
330
1F
100
AcDbEntity
  8
A-4
  6
Continuous
 62
     3
370
     9
100
AcDbLine
 10
307.532076421426
 20
109.8319650482836
 30
0.0
 11
305.782076421426
 21
109.8319650482836
 31
0.0
  0
LINE
  5
13B
330
1F
100
AcDbEntity
  8
A-4
  6
Continuous
 62
     3
370
     9
100
AcDbLine
 10
343.2820764214262
 20
109.8319650482836
 30
0.0
 11
322.532076421426
 21
109.8319650482836
 31
0.0
  0
LINE
  5
13C
330
1F
100
AcDbEntity
  8
A-4
  6
Continuous
 62
     3
370
     9
100
AcDbLine
 10
349.2820764214261
 20
103.8319650482835
 30
0.0
 11
343.2820764214262
 21
109.8319650482836
 31
0.0
  0
LINE
  5
13D
330
1F
100
AcDbEntity
  8
A-4
  6
Continuous
 62
     3
370
     9
100
AcDbLine
 10
307.532076421426
 20
111.3319650482835
 30
0.0
 11
307.532076421426
 21
109.8319650482836
 31
0.0
  0
LINE
  5
13E
330
1F
100
AcDbEntity
  8
A-4
  6
Continuous
 62
     3
370
     9
100
AcDbLine
 10
350.7820764214262
 20
39.83196504828349
 30
0.0
 11
350.7820764214262
 21
24.83196504828349
 31
0.0
  0
LINE
  5
13F
330
1F
100
AcDbEntity
  8
A-4
  6
Continuous
 62
     3
370
     9
100
AcDbLine
 10
350.7820764214262
 20
24.83196504828349
 30
0.0
 11
349.2820764214261
 21
24.83196504828349
 31
0.0
  0
LINE
  5
140
330
1F
100
AcDbEntity
  8
A-4
  6
Continuous
 62
     3
370
     9
100
AcDbLine
 10
349.2820764214261
 20
103.8319650482835
 30
0.0
 11
349.2820764214261
 21
39.83196504828349
 31
0.0
  0
LINE
  5
141
330
1F
100
AcDbEntity
  8
A-4
  6
Continuous
 62
     3
370
     9
100
AcDbLine
 10
349.2820764214261
 20
19.83196504828349
 30
0.0
 11
349.2820764214261
 21
24.83196504828349
 31
0.0
  0
LINE
  5
142
330
1F
100
AcDbEntity
  8
A-4
  6
JWW_DASHED1
 62
     7
370
     9
100
AcDbLine
 10
202.2513500018661
 20
121.3319955639214
 30
0.0
 11
287.2663779570133
 21
121.3319955639214
 31
0.0
  0
CIRCLE
  5
143
330
1F
100
AcDbEntity
  8
A-4
  6
Continuous
 62
     7
370
     9
100
AcDbCircle
 10
318.0588042548803
 20
14.05708610429563
 30
0.0
 40
4.0
  0
LINE
  5
144
330
1F
100
AcDbEntity
  8
A-4
  6
JWW_CENTER2
 62
     7
370
     9
100
AcDbLine
 10
323.0473279879141
 20
14.05708610429563
 30
0.0
 11
312.4544553358157
 21
14.05708610429563
 31
0.0
  0
LINE
  5
145
330
1F
100
AcDbEntity
  8
A-4
  6
JWW_CENTER2
 62
     7
370
     9
100
AcDbLine
 10
318.0588042548803
 20
19.23452350414542
 30
0.0
 11
318.0588042548803
 21
8.994746607117099
 31
0.0
  0
LINE
  5
146
330
1F
100
AcDbEntity
  8
A-4
  6
Continuous
 62
     3
370
     9
100
AcDbLine
 10
304.1497139297026
 20
19.83196504828349
 30
0.0
 11
349.2820764214261
 21
19.83196504828349
 31
0.0
  0
ARC
  5
147
330
1F
100
AcDbEntity
  8
A-4
  6
Continuous
 62
     3
370
     9
100
AcDbCircle
 10
304.1497139297026
 20
39.83196504828349
 30
0.0
 40
20.0
100
AcDbArc
 50
217.4782072656779
 51
270.0
  0
LINE
  5
148
330
1F
100
AcDbEntity
  8
A-4
  6
Continuous
 62
    30
370
     5
100
AcDbLine
 10
349.2820764214261
 20
-50.66803495171649
 30
0.0
 11
349.2820764214261
 21
109.8319650482836
 31
0.0
  0
ARC
  5
149
330
1F
100
AcDbEntity
  8
A-F
  6
Continuous
 62
     2
370
     9
100
AcDbCircle
 10
347.8821221977924
 20
-106.7681020903883
 30
0.0
 40
2.899999856948853
100
AcDbArc
 50
90.00000000000001
 51
180.0
  0
LINE
  5
14A
330
1F
100
AcDbEntity
  8
A-F
  6
JWW_CENTER1
 62
     2
370
     9
100
AcDbLine
 10
376.4062863976218
 20
-107.6680349517165
 30
0.0
 11
336.880362668679
 21
-107.6680349517165
 31
0.0
  0
LINE
  5
14B
330
1F
100
AcDbEntity
  8
A-F
  6
Continuous
 62
    30
370
     5
100
AcDbLine
 10
345.74415097539
 20
-107.3050474815057
 30
0.0
 11
345.5729983355863
 21
-107.1338948417009
 31
0.0
  0
LINE
  5
14C
330
1F
100
AcDbEntity
  8
A-F
  6
Continuous
 62
     2
370
     9
100
AcDbLine
 10
348.8821527153706
 20
-115.6681646514235
 30
0.0
 11
348.8821527153706
 21
-91.6679739165648
 31
0.0
  0
ARC
  5
14D
330
1F
100
AcDbEntity
  8
A-F
  6
Continuous
 62
     2
370
     9
100
AcDbCircle
 10
349.8820764214256
 20
-114.6680959868764
 30
0.0
 40
0.9999999999999991
100
AcDbArc
 50
180.7077590440263
 51
359.9999999999999
  0
ARC
  5
14E
330
1F
100
AcDbEntity
  8
A-F
  6
Continuous
 62
     2
370
     9
100
AcDbCircle
 10
345.3821679741597
 20
-91.6679739165648
 30
0.0
 40
3.500000000000001
100
AcDbArc
 50
0.0000000000000254
 51
92.60691833496097
  0
ARC
  5
14F
330
1F
100
AcDbEntity
  8
A-F
  6
Continuous
 62
     2
370
     9
100
AcDbCircle
 10
345.13200012748
 20
-86.17361966851384
 30
0.0
 40
1.999999999999998
100
AcDbArc
 50
179.9999999999999
 51
272.6069793701172
  0
ARC
  5
150
330
1F
100
AcDbEntity
  8
A-F
  6
Continuous
 62
     2
370
     9
100
AcDbCircle
 10
344.1320001274798
 20
-78.66803495171561
 30
0.0
 40
0.9999999999999991
100
AcDbArc
 50
0.0
 51
180.0
  0
LINE
  5
151
330
1F
100
AcDbEntity
  8
A-F
  6
Continuous
 62
     2
370
     9
100
AcDbLine
 10
343.1320153862688
 20
-86.17361966851384
 30
0.0
 11
343.1320153862688
 21
-78.66803495171561
 31
0.0
  0
LINE
  5
152
330
1F
100
AcDbEntity
  8
A-F
  6
Continuous
 62
     2
370
     9
100
AcDbLine
 10
345.13200012748
 20
-86.1680349517156
 30
0.0
 11
345.13200012748
 21
-78.66803495171561
 31
0.0
  0
LINE
  5
153
330
1F
100
AcDbEntity
  8
A-F
  6
Continuous
 62
     2
370
     9
100
AcDbLine
 10
350.8820611626365
 20
-114.6680959868764
 30
0.0
 11
350.8820611626365
 21
-78.66803495171561
 31
0.0
  0
LINE
  5
154
330
1F
100
AcDbEntity
  8
A-F
  6
Continuous
 62
     2
370
     9
100
AcDbLine
 10
345.13200012748
 20
-86.1680349517156
 30
0.0
 11
348.8821527153706
 21
-86.1680349517156
 31
0.0
  0
LINE
  5
155
330
1F
100
AcDbEntity
  8
A-F
  6
Continuous
 62
     2
370
     9
100
AcDbLine
 10
348.8821527153706
 20
-78.66803495171561
 30
0.0
 11
348.8821527153706
 21
-86.1680349517156
 31
0.0
  0
LINE
  5
156
330
1F
100
AcDbEntity
  8
A-F
  6
Continuous
 62
     2
370
     9
100
AcDbLine
 10
344.9822198540426
 20
-106.7681020903883
 30
0.0
 11
344.9822198540426
 21
-108.5682272124587
 31
0.0
  0
LINE
  5
157
330
1F
100
AcDbEntity
  8
A-F
  6
JWW_DASHED1
 62
     2
370
     9
100
AcDbLine
 10
346.6165124565816
 20
-108.1639608550368
 30
0.0
 11
346.6165124565816
 21
-107.172566812068
 31
0.0
  0
LINE
  5
158
330
1F
100
AcDbEntity
  8
A-F
  6
JWW_DASHED1
 62
     2
370
     9
100
AcDbLine
 10
345.4662133843161
 20
-107.172566812068
 30
0.0
 11
346.6165124565816
 21
-107.172566812068
 31
0.0
  0
LINE
  5
159
330
1F
100
AcDbEntity
  8
A-F
  6
JWW_DASHED1
 62
     2
370
     9
100
AcDbLine
 10
345.4662133843161
 20
-108.1639608550368
 30
0.0
 11
346.6165124565816
 21
-108.1639608550368
 31
0.0
  0
LINE
  5
15A
330
1F
100
AcDbEntity
  8
A-F
  6
Continuous
 62
     2
370
     9
100
AcDbLine
 10
347.8821221977924
 20
-99.66805783990004
 30
0.0
 11
348.8821527153706
 21
-99.66805783990004
 31
0.0
  0
LINE
  5
15B
330
1F
100
AcDbEntity
  8
A-F
  6
Continuous
 62
     2
370
     9
100
AcDbLine
 10
347.8821221977924
 20
-104.4182104277906
 30
0.0
 11
348.8821527153706
 21
-104.4182104277906
 31
0.0
  0
LINE
  5
15C
330
1F
100
AcDbEntity
  8
A-F
  6
Continuous
 62
     2
370
     9
100
AcDbLine
 10
347.8821221977924
 20
-110.9182104277907
 30
0.0
 11
348.8821527153706
 21
-110.9182104277907
 31
0.0
  0
LINE
  5
15D
330
1F
100
AcDbEntity
  8
A-F
  6
Continuous
 62
     2
370
     9
100
AcDbLine
 10
347.8821221977924
 20
-99.66805783990004
 30
0.0
 11
347.8821221977924
 21
-115.6681646514235
 31
0.0
  0
LINE
  5
15E
330
1F
100
AcDbEntity
  8
A-F
  6
Continuous
 62
     2
370
     9
100
AcDbLine
 10
347.8821221977924
 20
-110.9179128814039
 30
0.0
 11
348.8821527153706
 21
-110.9179128814039
 31
0.0
  0
LINE
  5
15F
330
1F
100
AcDbEntity
  8
A-F
  6
Continuous
 62
     2
370
     9
100
AcDbLine
 10
347.8821221977924
 20
-104.4180120635328
 30
0.0
 11
348.8821527153706
 21
-104.4180120635328
 31
0.0
  0
LINE
  5
160
330
1F
100
AcDbEntity
  8
A-F
  6
Continuous
 62
     2
370
     9
100
AcDbLine
 10
348.8821527153706
 20
-104.4180120635328
 30
0.0
 11
350.8820306450582
 21
-104.4180120635328
 31
0.0
  0
LINE
  5
161
330
1F
100
AcDbEntity
  8
A-F
  6
Continuous
 62
     2
370
     9
100
AcDbLine
 10
348.8821527153706
 20
-110.9179128814039
 30
0.0
 11
350.8820306450582
 21
-110.9179128814039
 31
0.0
  0
LINE
  5
162
330
1F
100
AcDbEntity
  8
A-F
  6
Continuous
 62
     2
370
     9
100
AcDbLine
 10
350.8820306450582
 20
-105.1179708648024
 30
0.0
 11
347.8821221977924
 21
-105.1179708648024
 31
0.0
  0
LINE
  5
163
330
1F
100
AcDbEntity
  8
A-F
  6
Continuous
 62
     2
370
     9
100
AcDbLine
 10
350.8820306450582
 20
-110.2179540801344
 30
0.0
 11
347.8821221977924
 21
-110.2179540801344
 31
0.0
  0
ARC
  5
164
330
1F
100
AcDbEntity
  8
A-F
  6
Continuous
 62
     2
370
     9
100
AcDbCircle
 10
347.8821221977924
 20
-108.5682272124587
 30
0.0
 40
2.899999856948853
100
AcDbArc
 50
180.0
 51
270.0
  0
ARC
  5
165
330
1F
100
AcDbEntity
  8
A-F
  6
JWW_DASHED1
 62
     2
370
     9
100
AcDbCircle
 10
345.4662133843161
 20
-106.6723913359937
 30
0.0
 40
0.5000000000000001
100
AcDbArc
 50
165.5855102539063
 51
270.0
  0
ARC
  5
166
330
1F
100
AcDbEntity
  8
A-F
  6
JWW_DASHED1
 62
     2
370
     9
100
AcDbCircle
 10
345.4662133843161
 20
-108.6637853789626
 30
0.0
 40
0.5000000000000001
100
AcDbArc
 50
90.00000000000006
 51
194.4144897460938
  0
LINE
  5
167
330
1F
100
AcDbEntity
  8
A-F
  6
Continuous
 62
     2
370
     9
100
AcDbLine
 10
347.8821221977924
 20
-115.6681646514235
 30
0.0
 11
348.8821527153706
 21
-115.6681646514235
 31
0.0
  0
LINE
  5
168
330
1F
100
AcDbEntity
  8
A-D
  6
Continuous
 62
     2
370
     9
100
AcDbLine
 10
312.2820764214262
 20
129.3319897903237
 30
0.0
 11
299.7823345836417
 21
129.3319897903237
 31
0.0
  0
LINE
  5
169
330
1F
100
AcDbEntity
  8
A-4
  6
Continuous
 62
     3
370
     9
100
AcDbLine
 10
350.7820764214262
 20
39.83196504828349
 30
0.0
 11
349.2820764214261
 21
39.83196504828349
 31
0.0
  0
LINE
  5
16A
330
1F
100
AcDbEntity
  8
A-4
  6
Continuous
 62
    30
370
     5
100
AcDbLine
 10
350.7820764214262
 20
35.3319650482836
 30
0.0
 11
349.2820764214261
 21
35.3319650482836
 31
0.0
  0
LINE
  5
16B
330
1F
100
AcDbEntity
  8
A-F
  6
JWW_DASHED3
 62
     2
370
     9
100
AcDbLine
 10
349.2820764214261
 20
39.33199556586167
 30
0.0
 11
376.2406252340648
 21
39.33199556586167
 31
0.0
  0
LINE
  5
16C
330
1F
100
AcDbEntity
  8
A-F
  6
Continuous
 62
     2
370
     9
100
AcDbLine
 10
351.7820764214261
 20
38.33193453070542
 30
0.0
 11
376.4794641167387
 21
38.33193453070542
 31
0.0
  0
LINE
  5
16D
330
1F
100
AcDbEntity
  8
A-4
  6
Continuous
 62
     3
370
     9
100
AcDbLine
 10
349.2820764214261
 20
35.08196504828354
 30
0.0
 11
350.7820764214262
 21
35.08196504828354
 31
0.0
  0
LINE
  5
16E
330
1F
100
AcDbEntity
  8
A-4
  6
Continuous
 62
    30
370
     5
100
AcDbLine
 10
350.7820764214262
 20
49.33196504828351
 30
0.0
 11
349.2820764214261
 21
49.33196504828351
 31
0.0
  0
LINE
  5
16F
330
1F
100
AcDbEntity
  8
A-F
  6
JWW_DASHED3
 62
     2
370
     9
100
AcDbLine
 10
349.2820764214261
 20
45.3319192719163
 30
0.0
 11
374.8072769984358
 21
45.3319192719163
 31
0.0
  0
LINE
  5
170
330
1F
100
AcDbEntity
  8
A-F
  6
Continuous
 62
     2
370
     9
100
AcDbLine
 10
351.7820764214261
 20
46.33198030707255
 30
0.0
 11
374.5683465630276
 21
46.33198030707255
 31
0.0
  0
LINE
  5
171
330
1F
100
AcDbEntity
  8
A-F
  6
JWW_CENTER1
 62
     2
370
     9
100
AcDbLine
 10
344.2820608646139
 20
42.33196504828349
 30
0.0
 11
378.6568017632229
 21
42.33196504828349
 31
0.0
  0
LINE
  5
172
330
1F
100
AcDbEntity
  8
A-F
  6
Continuous
 62
     2
370
     9
100
AcDbLine
 10
373.7322412163479
 20
49.83196504828349
 30
0.0
 11
377.3156610161527
 21
34.83194978949448
 31
0.0
  0
LINE
  5
173
330
1F
100
AcDbEntity
  8
A-4
  6
Continuous
 62
     3
370
     9
100
AcDbLine
 10
349.2820764214261
 20
49.58196504828357
 30
0.0
 11
350.7820764214262
 21
49.58196504828357
 31
0.0
  0
LINE
  5
174
330
1F
100
AcDbEntity
  8
A-F
  6
Continuous
 62
     2
370
     9
100
AcDbLine
 10
348.2820764214262
 20
34.33196504828351
 30
0.0
 11
349.2820764214261
 21
34.33196504828351
 31
0.0
  0
LINE
  5
175
330
1F
100
AcDbEntity
  8
A-F
  6
Continuous
 62
     2
370
     9
100
AcDbLine
 10
348.2820764214262
 20
50.3319650482836
 30
0.0
 11
349.2820764214261
 21
50.3319650482836
 31
0.0
  0
LINE
  5
176
330
1F
100
AcDbEntity
  8
A-F
  6
Continuous
 62
     2
370
     9
100
AcDbLine
 10
346.4820618827375
 20
41.83193453070536
 30
0.0
 11
344.9820771415264
 21
41.83193453070536
 31
0.0
  0
LINE
  5
177
330
1F
100
AcDbEntity
  8
A-F
  6
Continuous
 62
     2
370
     9
100
AcDbLine
 10
346.4820618827375
 20
42.83198030707261
 30
0.0
 11
346.4820618827375
 21
41.83193453070536
 31
0.0
  0
LINE
  5
178
330
1F
100
AcDbEntity
  8
A-F
  6
Continuous
 62
     2
370
     9
100
AcDbLine
 10
344.9820771415264
 20
42.83198030707261
 30
0.0
 11
346.4820618827375
 21
42.83198030707261
 31
0.0
  0
ARC
  5
179
330
1F
100
AcDbEntity
  8
A-F
  6
Continuous
 62
     2
370
     9
100
AcDbCircle
 10
349.4320740897686
 20
42.33196504828349
 30
0.0
 40
4.449995040893554
100
AcDbArc
 50
104.9766540527344
 51
255.0232696533203
  0
LINE
  5
17A
330
1F
100
AcDbEntity
  8
A-F
  6
Continuous
 62
     7
370
     9
100
AcDbLine
 10
351.7820764214261
 20
47.33191927191633
 30
0.0
 11
350.7820764214262
 21
47.33191927191633
 31
0.0
  0
LINE
  5
17B
330
1F
100
AcDbEntity
  8
A-F
  6
Continuous
 62
     7
370
     9
100
AcDbLine
 10
350.7820764214262
 20
37.33199556586164
 30
0.0
 11
351.7820764214261
 21
37.33199556586164
 31
0.0
  0
LINE
  5
17C
330
1F
100
AcDbEntity
  8
A-F
  6
Continuous
 62
     2
370
     9
100
AcDbLine
 10
348.2820764214262
 20
34.33196504828351
 30
0.0
 11
348.2820764214262
 21
50.3319650482836
 31
0.0
  0
LINE
  5
17D
330
1F
100
AcDbEntity
  8
A-4
  6
Continuous
 62
     3
370
     9
100
AcDbLine
 10
229.9422181056875
 20
103.7473687573058
 30
0.0
 11
288.2780173630694
 21
27.66277246632846
 31
0.0
  0
ARC
  5
17E
330
1F
100
AcDbEntity
  8
A-4
  6
Continuous
 62
     3
370
     9
100
AcDbCircle
 10
237.8780663890042
 20
109.8319650482836
 30
0.0
 40
10.0
100
AcDbArc
 50
90.0
 51
217.4782072656778
  0
LINE
  5
17F
330
1F
100
AcDbEntity
  8
A-4
  6
Continuous
 62
     3
370
     9
100
AcDbLine
 10
237.8780663890042
 20
119.8319650482836
 30
0.0
 11
305.782076421426
 21
119.8319650482836
 31
0.0
  0
LWPOLYLINE
  5
180
330
1F
100
AcDbEntity
  8
A-4
  6
Continuous
 62
     7
370
     9
100
AcDbPolyline
 90
        4
 70
     1
 43
1.0
 10
472.0596428744075
 20
112.3319650482836
 42
0.4142135623731
 10
471.5596428744075
 20
112.8319650482836
 42
0.4142135623731
 10
471.0596428744076
 20
112.3319650482836
 42
0.4142135623731
 10
471.5596428744075
 20
111.8319650482836
 42
0.4142135623731
  0
LWPOLYLINE
  5
181
330
1F
100
AcDbEntity
  8
A-4
  6
Continuous
 62
     7
370
     9
100
AcDbPolyline
 90
        4
 70
     1
 43
1.0
 10
472.0596428744075
 20
141.3319955639213
 42
0.4142135623731
 10
471.5596428744075
 20
141.8319955639214
 42
0.4142135623731
 10
471.0596428744076
 20
141.3319955639213
 42
0.4142135623731
 10
471.5596428744075
 20
140.8319955639213
 42
0.4142135623731
  0
LINE
  5
182
330
1F
100
AcDbEntity
  8
A-4
  6
Continuous
 62
     7
370
     9
100
AcDbLine
 10
471.5596428744075
 20
141.3319955639213
 30
0.0
 11
471.5596428744075
 21
112.3319650482836
 31
0.0
  0
LINE
  5
183
330
1F
100
AcDbEntity
  8
A-4
  6
Continuous
 62
     7
370
     9
100
AcDbLine
 10
351.1035878700984
 20
76.42840881830159
 30
0.0
 11
356.8438393555748
 21
90.28660180597093
 31
0.0
  0
LINE
  5
184
330
1F
100
AcDbEntity
  8
A-4
  6
Continuous
 62
     7
370
     9
100
AcDbLine
 10
351.1035878700984
 20
76.42840881830159
 30
0.0
 11
360.2350093052293
 21
88.32870892267017
 31
0.0
  0
LINE
  5
185
330
1F
100
AcDbEntity
  8
A-4
  6
Continuous
 62
     7
370
     9
100
AcDbLine
 10
215.6875138442963
 20
208.4177369212859
 30
0.0
 11
254.3391219944399
 21
141.4711878109937
 31
0.0
  0
LINE
  5
186
330
1F
100
AcDbEntity
  8
A-4
  6
Continuous
 62
     7
370
     9
100
AcDbLine
 10
254.3391219944399
 20
141.4711878109937
 30
0.0
 11
245.2077005593091
 21
153.3714879153623
 31
0.0
  0
LINE
  5
187
330
1F
100
AcDbEntity
  8
A-4
  6
Continuous
 62
     7
370
     9
100
AcDbLine
 10
254.3391219944399
 20
141.4711878109937
 30
0.0
 11
248.5988705089636
 21
155.3293807986631
 31
0.0
  0
LINE
  5
188
330
1F
100
AcDbEntity
  8
A-4
  6
Continuous
 62
     7
370
     9
100
AcDbLine
 10
374.365498384517
 20
-111.4681219268141
 30
0.0
 11
383.4969198196478
 21
-123.3684220311827
 31
0.0
  0
LINE
  5
189
330
1F
100
AcDbEntity
  8
A-4
  6
Continuous
 62
     7
370
     9
100
AcDbLine
 10
374.365498384517
 20
-111.4681219268141
 30
0.0
 11
380.1057498699933
 21
-125.3263149144834
 31
0.0
  0
LINE
  5
18A
330
1F
100
AcDbEntity
  8
A-F
  6
Continuous
 62
     2
370
     9
100
AcDbLine
 10
350.8820764214252
 20
-103.868009011775
 30
0.0
 11
375.4459039161475
 21
-103.868009011775
 31
0.0
  0
LINE
  5
18B
330
1F
100
AcDbEntity
  8
A-F
  6
Continuous
 62
     2
370
     9
100
AcDbLine
 10
375.445903916148
 20
-111.4681219268142
 30
0.0
 11
350.8820764214252
 21
-111.4681219268142
 31
0.0
  0
LINE
  5
18C
330
1F
100
AcDbEntity
  8
A-F
  6
JWW_DASHED1
 62
     2
370
     9
100
AcDbLine
 10
350.8820764214252
 20
-105.1181692290601
 30
0.0
 11
376.014125962046
 21
-105.1181692290601
 31
0.0
  0
LINE
  5
18D
330
1F
100
AcDbEntity
  8
A-F
  6
JWW_DASHED1
 62
     2
370
     9
100
AcDbLine
 10
350.8820764214252
 20
-110.2181524443922
 30
0.0
 11
376.0141259620464
 21
-110.2181524443922
 31
0.0
  0
LINE
  5
18E
330
1F
100
AcDbEntity
  8
A-5
  6
Continuous
 62
     7
370
     9
100
AcDbLine
 10
217.2015990788915
 20
18.11907049043646
 30
0.0
 11
262.70970178855
 21
80.45833637961003
 31
0.0
  0
LINE
  5
18F
330
1F
100
AcDbEntity
  8
A-5
  6
Continuous
 62
     7
370
     9
100
AcDbLine
 10
262.70970178855
 20
80.45833637961003
 30
0.0
 11
256.7203640828855
 21
69.48665310640598
 31
0.0
  0
LINE
  5
190
330
1F
100
AcDbEntity
  8
A-5
  6
Continuous
 62
     7
370
     9
100
AcDbLine
 10
262.70970178855
 20
80.45833637961003
 30
0.0
 11
254.0847652283438
 21
71.41065881393493
 31
0.0
  0
LWPOLYLINE
  5
191
330
1F
100
AcDbEntity
  8
A-4
  6
Continuous
 62
     7
370
     9
100
AcDbPolyline
 90
        4
 70
     1
 43
1.0
 10
352.282076421426
 20
275.1475998049191
 42
0.4142135623731
 10
351.7820764214261
 20
275.6475998049191
 42
0.4142135623731
 10
351.2820764214262
 20
275.1475998049191
 42
0.4142135623731
 10
351.7820764214261
 20
274.6475998049191
 42
0.4142135623731
  0
LINE
  5
192
330
1F
100
AcDbEntity
  8
A-4
  6
Continuous
 62
     7
370
     9
100
AcDbLine
 10
471.5596428744075
 20
112.3319650482836
 30
0.0
 11
471.5596428744075
 21
-63.66803495171646
 31
0.0
  0
LWPOLYLINE
  5
193
330
1F
100
AcDbEntity
  8
A-4
  6
Continuous
 62
     7
370
     9
100
AcDbPolyline
 90
        4
 70
     1
 43
1.0
 10
472.0596428744075
 20
112.3319650482836
 42
0.4142135623731
 10
471.5596428744075
 20
112.8319650482836
 42
0.4142135623731
 10
471.0596428744076
 20
112.3319650482836
 42
0.4142135623731
 10
471.5596428744075
 20
111.8319650482836
 42
0.4142135623731
  0
LWPOLYLINE
  5
194
330
1F
100
AcDbEntity
  8
A-4
  6
Continuous
 62
     7
370
     9
100
AcDbPolyline
 90
        4
 70
     1
 43
1.0
 10
472.0596428744075
 20
-63.66803495171646
 42
0.4142135623731
 10
471.5596428744075
 20
-63.16803495171646
 42
0.4142135623731
 10
471.0596428744076
 20
-63.66803495171646
 42
0.4142135623731
 10
471.5596428744075
 20
-64.16803495171646
 42
0.4142135623731
  0
LINE
  5
195
330
1F
100
AcDbEntity
  8
A-4
  6
Continuous
 62
     7
370
     9
100
AcDbLine
 10
473.0596428744075
 20
-63.66803495171646
 30
0.0
 11
338.2820764214262
 21
-63.66803495171646
 31
0.0
  0
LWPOLYLINE
  5
196
330
1F
100
AcDbEntity
  8
A-4
  6
Continuous
 62
     7
370
     9
100
AcDbPolyline
 90
        4
 70
     1
 43
1.0
 10
202.2820764214261
 20
-275.8341824848051
 42
0.4142135623731
 10
201.7820764214261
 20
-275.3341824848051
 42
0.4142135623731
 10
201.2820764214261
 20
-275.8341824848051
 42
0.4142135623731
 10
201.7820764214261
 20
-276.3341824848051
 42
0.4142135623731
  0
LWPOLYLINE
  5
197
330
1F
100
AcDbEntity
  8
A-4
  6
Continuous
 62
     7
370
     9
100
AcDbPolyline
 90
        4
 70
     1
 43
1.0
 10
352.282076421426
 20
-275.8341824848051
 42
0.4142135623731
 10
351.7820764214261
 20
-275.3341824848051
 42
0.4142135623731
 10
351.2820764214262
 20
-275.8341824848051
 42
0.4142135623731
 10
351.7820764214261
 20
-276.3341824848051
 42
0.4142135623731
  0
LINE
  5
198
330
1F
100
AcDbEntity
  8
A-4
  6
Continuous
 62
     7
370
     9
100
AcDbLine
 10
201.7820764214261
 20
-275.8341824848051
 30
0.0
 11
351.7820764214261
 21
-275.8341824848051
 31
0.0
  0
LINE
  5
199
330
1F
100
AcDbEntity
  8
A-4
  6
Continuous
 62
     7
370
     9
100
AcDbLine
 10
201.7820764214261
 20
-275.8341824848051
 30
0.0
 11
201.7820764214261
 21
-130.0668425637995
 31
0.0
  0
LINE
  5
19A
330
1F
100
AcDbEntity
  8
A-5
  6
Continuous
 62
     7
370
     9
100
AcDbLine
 10
366.5520105963444
 20
38.11104164690682
 30
0.0
 11
373.4043266971221
 21
27.65658020429675
 31
0.0
  0
LINE
  5
19B
330
1F
100
AcDbEntity
  8
A-5
  6
Continuous
 62
     7
370
     9
100
AcDbLine
 10
366.5520105963444
 20
38.11104164690682
 30
0.0
 11
370.4650259603446
 21
26.23929742960249
 31
0.0
  0
LINE
  5
19C
330
1F
100
AcDbEntity
  8
A-D
  6
Continuous
 62
     2
370
     9
100
AcDbLine
 10
-155.0137549636248
 20
139.3319650463432
 30
0.0
 11
308.1514365602712
 21
139.3319650463432
 31
0.0
  0
LINE
  5
19D
330
1F
100
AcDbEntity
  8
A-6
  6
Continuous
 62
     6
370
     5
100
AcDbLine
 10
-148.201924919832
 20
112.3319650482836
 30
0.0
 11
-686.2565670055943
 21
112.3319650482836
 31
0.0
  0
LINE
  5
19E
330
1F
100
AcDbEntity
  8
A-E
  6
Continuous
 62
     3
370
     9
100
AcDbLine
 10
-358.717923578574
 20
139.3319955639212
 30
0.0
 11
330.1538093417426
 21
139.3319955639212
 31
0.0
  0
LINE
  5
19F
330
1F
100
AcDbEntity
  8
A-E
  6
Continuous
 62
     4
370
     9
100
AcDbLine
 10
-416.4031908336375
 20
122.4657723251307
 30
0.0
 11
-415.9147988597454
 21
121.0473790419838
 31
0.0
  0
LINE
  5
1A0
330
1F
100
AcDbEntity
  8
A-E
  6
Continuous
 62
     4
370
     9
100
AcDbLine
 10
-421.0749280742832
 20
118.8636034308224
 30
0.0
 11
-421.2544189508472
 21
119.3310781085967
 31
0.0
  0
LINE
  5
1A1
330
1F
100
AcDbEntity
  8
A-E
  6
Continuous
 62
     4
370
     9
100
AcDbLine
 10
-419.74003872092
 20
119.2926773032607
 30
0.0
 11
-419.9194962506306
 21
119.7601957392991
 31
0.0
  0
LINE
  5
1A2
330
1F
100
AcDbEntity
  8
A-E
  6
Continuous
 62
     4
370
     9
100
AcDbLine
 10
-421.0749280742832
 20
118.8636034308224
 30
0.0
 11
-419.9194962506306
 21
119.7601957392991
 31
0.0
  0
LINE
  5
1A3
330
1F
100
AcDbEntity
  8
A-E
  6
Continuous
 62
     4
370
     9
100
AcDbLine
 10
-418.4051737305768
 20
119.7217750628599
 30
0.0
 11
-418.5846646071414
 21
120.189249740634
 31
0.0
  0
LINE
  5
1A4
330
1F
100
AcDbEntity
  8
A-E
  6
Continuous
 62
     4
370
     9
100
AcDbLine
 10
-419.74003872092
 20
119.2926773032607
 30
0.0
 11
-418.5846646071414
 21
120.189249740634
 31
0.0
  0
LINE
  5
1A5
330
1F
100
AcDbEntity
  8
A-E
  6
Continuous
 62
     4
370
     9
100
AcDbLine
 10
-417.0703470548639
 20
120.1508434916634
 30
0.0
 11
-417.2497463988412
 21
120.6183335486237
 31
0.0
  0
LINE
  5
1A6
330
1F
100
AcDbEntity
  8
A-E
  6
Continuous
 62
     4
370
     9
100
AcDbLine
 10
-418.4051737305768
 20
119.7217750628599
 30
0.0
 11
-417.2497463988412
 21
120.6183335486237
 31
0.0
  0
LINE
  5
1A7
330
1F
100
AcDbEntity
  8
A-E
  6
Continuous
 62
     4
370
     9
100
AcDbLine
 10
-417.0703470548639
 20
120.1508434916634
 30
0.0
 11
-415.9148236986243
 21
121.047451179326
 31
0.0
  0
LINE
  5
1A8
330
1F
100
AcDbEntity
  8
A-E
  6
Continuous
 62
     4
370
     9
100
AcDbLine
 10
-422.4098462825833
 20
118.4345196228328
 30
0.0
 11
-421.2544189508472
 21
119.3310781085967
 31
0.0
  0
LINE
  5
1A9
330
1F
100
AcDbEntity
  8
A-E
  6
Continuous
 62
     4
370
     9
100
AcDbLine
 10
-422.5893366832884
 20
118.9019460504257
 30
0.0
 11
-422.4098462825833
 21
118.4345196228328
 31
0.0
  0
LINE
  5
1AA
330
1F
100
AcDbEntity
  8
A-E
  6
Continuous
 62
     4
370
     9
100
AcDbLine
 10
-414.9283811987681
 20
119.2638163411457
 30
0.0
 11
-422.0493754972628
 21
116.9747745899529
 31
0.0
  0
ELLIPSE
  5
1AB
330
1F
100
AcDbEntity
  8
A-E
  6
Continuous
 62
     4
370
     9
100
AcDbEllipse
 10
-417.9287753198057
 20
116.1458604446495
 30
0.0
 11
4.749935165543612
 21
1.635533838832282
 31
0.0
210
0.0
220
0.0
230
1.0
 40
0.6113
 41
2.377241452287241
 42
6.980165457121968
  0
ARC
  5
1AC
330
1F
100
AcDbEntity
  8
A-E
  6
Continuous
 62
     4
370
     9
100
AcDbCircle
 10
-423.4811782261627
 20
117.0397048238454
 30
0.0
 40
0.5000000000000002
100
AcDbArc
 50
201.0
 51
273.1914215087891
  0
LINE
  5
1AD
330
1F
100
AcDbEntity
  8
A-E
  6
Continuous
 62
     4
370
     9
100
AcDbLine
 10
-423.9479563693908
 20
116.8605344734133
 30
0.0
 11
-424.4963364749984
 21
118.2889666830392
 31
0.0
  0
LINE
  5
1AE
330
1F
100
AcDbEntity
  8
A-E
  6
Continuous
 62
     4
370
     9
100
AcDbLine
 10
-424.4963364749984
 20
118.2889666830392
 30
0.0
 11
-422.5893366832884
 21
118.9019460504257
 31
0.0
  0
ELLIPSE
  5
1AF
330
1F
100
AcDbEntity
  8
A-E
  6
Continuous
 62
     4
370
     9
100
AcDbEllipse
 10
-417.9287753198057
 20
116.1458604446495
 30
0.0
 11
5.69545374114293
 21
1.961101993289439
 31
0.0
210
0.0
220
0.0
230
1.0
 40
0.6758999999999998
 41
2.578958061681439
 42
6.788854350738927
  0
ARC
  5
1B0
330
1F
100
AcDbEntity
  8
A-5
  6
Continuous
 62
     3
370
     9
100
AcDbCircle
 10
-445.2179235785741
 20
115.5197792448451
 30
0.0
 40
3.0
100
AcDbArc
 50
141.5000000000001
 51
286.5000000000001
  0
LINE
  5
1B1
330
1F
100
AcDbEntity
  8
A-5
  6
Continuous
 62
     3
370
     9
100
AcDbLine
 10
-444.3658775444624
 20
112.6433200402405
 30
0.0
 11
-415.9922202941308
 21
121.0479802192175
 31
0.0
  0
LWPOLYLINE
  5
1B2
330
1F
100
AcDbEntity
  8
A-4
  6
Continuous
 62
     7
370
     9
100
AcDbPolyline
 90
        4
 70
     1
 43
1.0
 10
-447.717923578574
 20
115.5197792448451
 42
0.4142135623731
 10
-448.2179235785739
 20
116.0197792448451
 42
0.4142135623731
 10
-448.7179235785738
 20
115.5197792448451
 42
0.4142135623731
 10
-448.2179235785739
 20
115.0197792448451
 42
0.4142135623731
  0
LINE
  5
1B3
330
1F
100
AcDbEntity
  8
A-5
  6
Continuous
 62
     3
370
     9
100
AcDbLine
 10
-429.7200891263003
 20
139.8220541104718
 30
0.0
 11
-447.5655838200188
 21
117.3871925210234
 31
0.0
  0
LINE
  5
1B4
330
1F
100
AcDbEntity
  8
A-E
  6
Continuous
 62
     4
370
     9
100
AcDbLine
 10
-422.1811081633331
 20
121.793423358594
 30
0.0
 11
-422.0599891984713
 21
121.3074801125467
 31
0.0
  0
LINE
  5
1B5
330
1F
100
AcDbEntity
  8
A-E
  6
Continuous
 62
     4
370
     9
100
AcDbLine
 10
-423.5207215041038
 20
121.379230608343
 30
0.0
 11
-422.0599891984713
 21
121.3074801125467
 31
0.0
  0
LINE
  5
1B6
330
1F
100
AcDbEntity
  8
A-E
  6
Continuous
 62
     4
370
     9
100
AcDbLine
 10
-423.5207215041038
 20
121.379230608343
 30
0.0
 11
-423.9358837296783
 21
121.0991777188011
 31
0.0
  0
LINE
  5
1B7
330
1F
100
AcDbEntity
  8
A-E
  6
Continuous
 62
     4
370
     9
100
AcDbLine
 10
-423.1998626022204
 20
123.4384325078954
 30
0.0
 11
-422.9602997228852
 21
123.1225695680744
 31
0.0
  0
ARC
  5
1B8
330
1F
100
AcDbEntity
  8
A-E
  6
Continuous
 62
     4
370
     9
100
AcDbCircle
 10
-423.5982088035868
 20
123.1362162292908
 30
0.0
 40
0.5000000000000001
100
AcDbArc
 50
37.17761230468755
 51
124.0
  0
LINE
  5
1B9
330
1F
100
AcDbEntity
  8
A-E
  6
Continuous
 62
     4
370
     9
100
AcDbLine
 10
-425.1464890083241
 20
122.6951566281748
 30
0.0
 11
-423.9358837296783
 21
121.0991777188011
 31
0.0
  0
LINE
  5
1BA
330
1F
100
AcDbEntity
  8
A-E
  6
Continuous
 62
     4
370
     9
100
AcDbLine
 10
-423.8778502567553
 20
123.5507186205744
 30
0.0
 11
-425.1464890083241
 21
122.6951566281748
 31
0.0
  0
LINE
  5
1BB
330
1F
100
AcDbEntity
  8
A-E
  6
Continuous
 62
     4
370
     9
100
AcDbLine
 10
-422.1811081633331
 20
121.793423358594
 30
0.0
 11
-420.7203569841192
 21
121.7216624010005
 31
0.0
  0
LINE
  5
1BC
330
1F
100
AcDbEntity
  8
A-E
  6
Continuous
 62
     4
370
     9
100
AcDbLine
 10
-420.8415157461576
 20
122.2075783616813
 30
0.0
 11
-420.7203569841192
 21
121.7216624010005
 31
0.0
  0
LINE
  5
1BD
330
1F
100
AcDbEntity
  8
A-E
  6
Continuous
 62
     4
370
     9
100
AcDbLine
 10
-420.8415157461576
 20
122.2075783616813
 30
0.0
 11
-419.3808442671627
 21
122.135873918966
 31
0.0
  0
LINE
  5
1BE
330
1F
100
AcDbEntity
  8
A-E
  6
Continuous
 62
     4
370
     9
100
AcDbLine
 10
-419.5019422025632
 20
122.6217438265659
 30
0.0
 11
-419.3808442671627
 21
122.135873918966
 31
0.0
  0
LINE
  5
1BF
330
1F
100
AcDbEntity
  8
A-E
  6
Continuous
 62
     4
370
     9
100
AcDbLine
 10
-419.5019422025632
 20
122.6217438265659
 30
0.0
 11
-418.0412267204997
 21
122.5500520015273
 31
0.0
  0
LINE
  5
1C0
330
1F
100
AcDbEntity
  8
A-E
  6
Continuous
 62
     4
370
     9
100
AcDbLine
 10
-418.1624168679298
 20
123.0359113414631
 30
0.0
 11
-418.0412267204997
 21
122.5500520015273
 31
0.0
  0
LINE
  5
1C1
330
1F
100
AcDbEntity
  8
A-E
  6
Continuous
 62
     4
370
     9
100
AcDbLine
 10
-418.1624168679298
 20
123.0359113414631
 30
0.0
 11
-416.7015903002556
 21
122.9642196222915
 31
0.0
  0
LINE
  5
1C2
330
1F
100
AcDbEntity
  8
A-E
  6
Continuous
 62
     4
370
     9
100
AcDbLine
 10
-422.9602997228852
 20
123.1225695680744
 30
0.0
 11
-415.7774739958575
 21
125.3432504864455
 31
0.0
  0
ARC
  5
1C3
330
1F
100
AcDbEntity
  8
A-E
  6
Continuous
 62
     4
370
     9
100
AcDbCircle
 10
-415.6297358598542
 20
124.8655592395723
 30
0.0
 40
0.5000000000000001
100
AcDbArc
 50
14.00000000000004
 51
107.1798858642578
  0
LINE
  5
1C4
330
1F
100
AcDbEntity
  8
A-E
  6
Continuous
 62
     4
370
     9
100
AcDbLine
 10
-413.5076119161383
 20
120.1992263001552
 30
0.0
 11
-415.1629627321165
 21
125.0067141462889
 31
0.0
  0
LINE
  5
1C5
330
1F
100
AcDbEntity
  8
A-4
  6
Continuous
 62
     3
370
     9
100
AcDbLine
 10
-415.9922202941308
 20
121.0479802192175
 30
0.0
 11
-416.58353124325
 21
123.0442125286019
 31
0.0
  0
ARC
  5
1C6
330
1F
100
AcDbEntity
  8
A-E
  6
Continuous
 62
     4
370
     9
100
AcDbCircle
 10
-413.9803712039378
 20
120.0364670618058
 30
0.0
 40
0.5
100
AcDbArc
 50
321.650650024414
 51
18.99999999999996
  0
ARC
  5
1C7
330
1F
100
AcDbEntity
  8
A-4
  6
Continuous
 62
     3
370
     9
100
AcDbCircle
 10
-445.2179235785741
 20
115.5197792448451
 30
0.0
 40
1.0
100
AcDbArc
 50
141.5000000000001
 51
286.5000000000001
  0
LINE
  5
1C8
330
1F
100
AcDbEntity
  8
A-4
  6
Continuous
 62
     3
370
     9
100
AcDbLine
 10
-444.9339082338702
 20
114.560959509977
 30
0.0
 11
-416.5602509835387
 21
122.965619688954
 31
0.0
  0
LINE
  5
1C9
330
1F
100
AcDbEntity
  8
A-4
  6
Continuous
 62
     3
370
     9
100
AcDbLine
 10
-428.1548728125952
 20
138.5770248371967
 30
0.0
 11
-446.0003675063138
 21
116.1421632477479
 31
0.0
  0
ARC
  5
1CA
330
1F
100
AcDbEntity
  8
A-4
  6
Continuous
 62
     3
370
     9
100
AcDbCircle
 10
-426.5896564988904
 20
137.3319955639213
 30
0.0
 40
2.0
100
AcDbArc
 50
90.0
 51
141.5000000000002
  0
ARC
  5
1CB
330
1F
100
AcDbEntity
  8
A-4
  6
Continuous
 62
     3
370
     9
100
AcDbCircle
 10
-426.5896564988907
 20
137.3319955639213
 30
0.0
 40
4.0
100
AcDbArc
 50
90.0
 51
141.5000000000002
  0
LINE
  5
1CC
330
1F
100
AcDbEntity
  8
A-1
  6
Continuous
 62
     2
370
     9
100
AcDbLine
 10
-400.7179388373629
 20
126.3317068841275
 30
0.0
 11
-407.7179235785741
 21
126.3317068841275
 31
0.0
  0
LINE
  5
1CD
330
1F
100
AcDbEntity
  8
A-1
  6
Continuous
 62
     2
370
     9
100
AcDbLine
 10
-408.8358435004488
 20
112.3317679192838
 30
0.0
 11
-409.2178930609958
 21
112.3317679192838
 31
0.0
  0
LINE
  5
1CE
330
1F
100
AcDbEntity
  8
A-1
  6
Continuous
 62
     2
370
     9
100
AcDbLine
 10
-397.217938837363
 20
126.3317068841275
 30
0.0
 11
-399.717923578574
 21
126.3317068841275
 31
0.0
  0
LINE
  5
1CF
330
1F
100
AcDbEntity
  8
A-1
  6
Continuous
 62
     2
370
     9
100
AcDbLine
 10
-400.7179388373629
 20
126.1553458001431
 30
0.0
 11
-400.7179388373629
 21
126.3317068841275
 31
0.0
  0
LINE
  5
1D0
330
1F
100
AcDbEntity
  8
A-1
  6
Continuous
 62
     2
370
     9
100
AcDbLine
 10
-400.4284796088473
 20
125.9765738274869
 30
0.0
 11
-399.717923578574
 21
126.3317068841275
 31
0.0
  0
LINE
  5
1D1
330
1F
100
AcDbEntity
  8
A-1
  6
Continuous
 62
     2
370
     9
100
AcDbLine
 10
-410.2179083197848
 20
129.3318899895963
 30
0.0
 11
-397.217938837363
 21
129.3318899895963
 31
0.0
  0
LINE
  5
1D2
330
1F
100
AcDbEntity
  8
A-1
  6
Continuous
 62
     2
370
     9
100
AcDbLine
 10
-407.3984350531833
 20
113.4031485345181
 30
0.0
 11
-406.5178961127538
 21
116.3553580071744
 31
0.0
  0
LINE
  5
1D3
330
1F
100
AcDbEntity
  8
A-1
  6
Continuous
 62
     2
370
     9
100
AcDbLine
 10
-400.6205267279881
 20
126.0669363763149
 30
0.0
 11
-400.8173803656834
 21
126.2934683587368
 31
0.0
  0
ARC
  5
1D4
330
1F
100
AcDbEntity
  8
A-1
  6
Continuous
 62
     2
370
     9
100
AcDbCircle
 10
-409.2178930609958
 20
113.8318289544399
 30
0.0
 40
1.5
100
AcDbArc
 50
180.0
 51
270.0
  0
ARC
  5
1D5
330
1F
100
AcDbEntity
  8
A-1
  6
Continuous
 62
     2
370
     9
100
AcDbCircle
 10
-408.8358435004488
 20
113.8318289544399
 30
0.0
 40
1.5
100
AcDbArc
 50
270.0
 51
343.3929595947266
  0
ARC
  5
1D6
330
1F
100
AcDbEntity
  8
A-1
  6
Continuous
 62
     2
370
     9
100
AcDbCircle
 10
-400.5179113715428
 20
126.1553458001431
 30
0.0
 40
0.2000000029802323
100
AcDbArc
 50
180.0
 51
296.5650482177734
  0
ARC
  5
1D7
330
1F
100
AcDbEntity
  8
A-1
  6
Continuous
 62
     2
370
     9
100
AcDbCircle
 10
-410.2179083197848
 20
128.8318594720182
 30
0.0
 40
0.5
100
AcDbArc
 50
89.99999999999997
 51
180.0
  0
LINE
  5
1D8
330
1F
100
AcDbEntity
  8
A-1
  6
Continuous
 62
     2
370
     9
100
AcDbLine
 10
-406.5178961127538
 20
118.332073095065
 30
0.0
 11
-406.5178961127538
 21
116.3553580071744
 31
0.0
  0
ARC
  5
1D9
330
1F
100
AcDbEntity
  8
A-1
  6
Continuous
 62
     2
370
     9
100
AcDbCircle
 10
-397.217938837363
 20
127.8320120599087
 30
0.0
 40
1.5
100
AcDbArc
 50
270.0
 51
90.0
  0
LINE
  5
1DA
330
1F
100
AcDbEntity
  8
A-1
  6
Continuous
 62
     2
370
     9
100
AcDbLine
 10
-407.7179235785741
 20
118.332073095065
 30
0.0
 11
-407.7179235785741
 21
126.3319897903234
 31
0.0
  0
LINE
  5
1DB
330
1F
100
AcDbEntity
  8
A-D
  6
Continuous
 62
     2
370
     9
100
AcDbLine
 10
-410.7179235785745
 20
128.8318594720182
 30
0.0
 11
-410.7179235785745
 21
113.8319650463431
 31
0.0
  0
LINE
  5
1DC
330
1F
100
AcDbEntity
  8
A-1
  6
Continuous
 62
     2
370
     9
100
AcDbLine
 10
-406.5178961127538
 20
118.332073095065
 30
0.0
 11
-407.7179235785741
 21
118.332073095065
 31
0.0
  0
LINE
  5
1DD
330
1F
100
AcDbEntity
  8
A-1
  6
Continuous
 62
     2
370
     9
100
AcDbLine
 10
-407.7179235785741
 20
129.3320120599086
 30
0.0
 11
-407.7179235785741
 21
139.3319955639212
 31
0.0
  0
LINE
  5
1DE
330
1F
100
AcDbEntity
  8
A-1
  6
Continuous
 62
     2
370
     9
100
AcDbLine
 10
-400.7179388373629
 20
126.3319897903234
 30
0.0
 11
-407.7179235785741
 21
126.3319897903234
 31
0.0
  0
LINE
  5
1DF
330
1F
100
AcDbEntity
  8
A-E
  6
Continuous
 62
     2
370
     9
100
AcDbLine
 10
-383.5178808539646
 20
141.3319955639213
 30
0.0
 11
-392.9179968207615
 21
141.3319955639213
 31
0.0
  0
LINE
  5
1E0
330
1F
100
AcDbEntity
  8
A-E
  6
Continuous
 62
     2
370
     9
100
AcDbLine
 10
-383.5178808539646
 20
141.6204629711479
 30
0.0
 11
-383.5178808539646
 21
141.3319955639213
 31
0.0
  0
LINE
  5
1E1
330
1F
100
AcDbEntity
  8
A-E
  6
Continuous
 62
     2
370
     9
100
AcDbLine
 10
-392.9179968207615
 20
141.6204629711479
 30
0.0
 11
-392.9179968207615
 21
141.3319955639213
 31
0.0
  0
LINE
  5
1E2
330
1F
100
AcDbEntity
  8
A-E
  6
Continuous
 62
     2
370
     9
100
AcDbLine
 10
-383.5178808539646
 20
141.6204629711479
 30
0.0
 11
-392.9179968207615
 21
141.6204629711479
 31
0.0
  0
LINE
  5
1E3
330
1F
100
AcDbEntity
  8
A-E
  6
Continuous
 62
     2
370
     9
100
AcDbLine
 10
-387.7178320258395
 20
143.4114785961478
 30
0.0
 11
-388.7178930609957
 21
143.4114785961478
 31
0.0
  0
LINE
  5
1E4
330
1F
100
AcDbEntity
  8
A-E
  6
Continuous
 62
     2
370
     9
100
AcDbLine
 10
-388.7178930609957
 20
143.8115182689993
 30
0.0
 11
-388.7178930609957
 21
143.4114785961478
 31
0.0
  0
LINE
  5
1E5
330
1F
100
AcDbEntity
  8
A-E
  6
Continuous
 62
     2
370
     9
100
AcDbLine
 10
-387.7178320258395
 20
143.8115182689993
 30
0.0
 11
-387.7178320258395
 21
143.4114785961478
 31
0.0
  0
ARC
  5
1E6
330
1F
100
AcDbEntity
  8
A-E
  6
Continuous
 62
     2
370
     9
100
AcDbCircle
 10
-388.2178625434176
 20
137.7320199779837
 30
0.0
 40
6.099999904632568
100
AcDbArc
 50
94.70146179199214
 51
140.3980102539062
  0
ARC
  5
1E7
330
1F
100
AcDbEntity
  8
A-E
  6
Continuous
 62
     2
370
     9
100
AcDbCircle
 10
-388.2178625434176
 20
137.7320199779837
 30
0.0
 40
6.099999904632568
100
AcDbArc
 50
39.60198974609376
 51
85.29808044433597
  0
LINE
  5
1E8
330
1F
100
AcDbEntity
  8
A-E
  6
Continuous
 62
     2
370
     9
100
AcDbLine
 10
-388.2179235785739
 20
129.3319803051322
 30
0.0
 11
-390.2179846137301
 21
132.7961831859915
 31
0.0
  0
LINE
  5
1E9
330
1F
100
AcDbEntity
  8
A-E
  6
Continuous
 62
     2
370
     9
100
AcDbLine
 10
-388.2179235785739
 20
129.3319803051322
 30
0.0
 11
-386.217923578574
 21
132.7960916332572
 31
0.0
  0
LINE
  5
1EA
330
1F
100
AcDbEntity
  8
A-E
  6
Continuous
 62
     2
370
     9
100
AcDbLine
 10
-386.8178991645115
 20
141.3319955639213
 30
0.0
 11
-386.8178991645115
 21
131.7568460277884
 31
0.0
  0
LINE
  5
1EB
330
1F
100
AcDbEntity
  8
A-E
  6
Continuous
 62
     2
370
     9
100
AcDbLine
 10
-386.217923578574
 20
141.3319955639213
 30
0.0
 11
-386.217923578574
 21
132.7960916332572
 31
0.0
  0
LINE
  5
1EC
330
1F
100
AcDbEntity
  8
A-E
  6
Continuous
 62
     2
370
     9
100
AcDbLine
 10
-390.2179846137301
 20
138.2989539158763
 30
0.0
 11
-390.2179846137301
 21
132.7961831859915
 31
0.0
  0
LINE
  5
1ED
330
1F
100
AcDbEntity
  8
A-E
  6
Continuous
 62
     2
370
     9
100
AcDbLine
 10
-389.6179174750583
 20
141.3319955639213
 30
0.0
 11
-389.6179174750583
 21
131.7568918041557
 31
0.0
  0
LINE
  5
1EE
330
1F
100
AcDbEntity
  8
A-E
  6
Continuous
 62
     2
370
     9
100
AcDbLine
 10
-390.2179846137301
 20
141.3319955639213
 30
0.0
 11
-390.2179846137301
 21
138.2989539158763
 31
0.0
  0
LINE
  5
1EF
330
1F
100
AcDbEntity
  8
A-D
  6
Continuous
 62
     2
370
     9
100
AcDbLine
 10
-390.2180394500033
 20
135.6320749096245
 30
0.0
 11
-390.2180394500033
 21
135.2499948314995
 31
0.0
  0
LINE
  5
1F0
330
1F
100
AcDbEntity
  8
A-E
  6
JWW_CENTER1
 62
     2
370
     9
100
AcDbLine
 10
-388.2179235785739
 20
145.2378030590385
 30
0.0
 11
-388.2179235785739
 21
127.7112985424369
 31
0.0
  0
LWPOLYLINE
  5
1F1
330
1F
100
AcDbEntity
  8
A-4
  6
Continuous
 62
     7
370
     9
100
AcDbPolyline
 90
        4
 70
     1
 43
1.0
 10
-447.717923578574
 20
275.1475998049191
 42
0.4142135623731
 10
-448.2179235785739
 20
275.6475998049191
 42
0.4142135623731
 10
-448.7179235785738
 20
275.1475998049191
 42
0.4142135623731
 10
-448.2179235785739
 20
274.6475998049191
 42
0.4142135623731
  0
LINE
  5
1F2
330
1F
100
AcDbEntity
  8
A-4
  6
Continuous
 62
     7
370
     9
100
AcDbLine
 10
-448.2179235785739
 20
275.1475998049191
 30
0.0
 11
-448.2179235785739
 21
140.5197792448451
 31
0.0
  0
LINE
  5
1F3
330
1F
100
AcDbEntity
  8
A-D
  6
Continuous
 62
     2
370
     9
100
AcDbLine
 10
-407.7179235785741
 20
139.3319650463432
 30
0.0
 11
-159.013815998781
 21
139.3319650463432
 31
0.0
  0
LINE
  5
1F4
330
1F
100
AcDbEntity
  8
A-1
  6
Continuous
 62
     2
370
     9
100
AcDbLine
 10
312.2820764214262
 20
131.3320062863127
 30
0.0
 11
-407.7179235785741
 21
131.3320062863127
 31
0.0
  0
LINE
  5
1F5
330
1F
100
AcDbEntity
  8
A-1
  6
Continuous
 62
     2
370
     9
100
AcDbLine
 10
312.2820764214262
 20
129.3320120599086
 30
0.0
 11
-407.7179235785741
 21
129.3320120599086
 31
0.0
  0
LINE
  5
1F6
330
1F
100
AcDbEntity
  8
A-1
  6
Continuous
 62
     2
370
     9
100
AcDbLine
 10
312.3603715394714
 20
126.3319897903234
 30
0.0
 11
-407.7179235785741
 21
126.3319897903234
 31
0.0
  0
LINE
  5
1F7
330
1F
100
AcDbEntity
  8
A-1
  6
Continuous
 62
     2
370
     9
100
AcDbLine
 10
312.2820764214262
 20
124.3319955639212
 30
0.0
 11
-407.7179235785741
 21
124.3319955639212
 31
0.0
  0
LINE
  5
1F8
330
1F
100
AcDbEntity
  8
A-1
  6
Continuous
 62
     2
370
     9
100
AcDbLine
 10
312.2820764214262
 20
137.3320013375156
 30
0.0
 11
-407.7179235785741
 21
137.3320013375156
 31
0.0
  0
LINE
  5
1F9
330
1F
100
AcDbEntity
  8
A-4
  6
Continuous
 62
     3
370
     9
100
AcDbLine
 10
-426.5896564988907
 20
141.3319955639213
 30
0.0
 11
330.1538093417426
 21
141.3319955639213
 31
0.0
  0
LINE
  5
1FA
330
1F
100
AcDbEntity
  8
A-E
  6
Continuous
 62
     3
370
     9
100
AcDbLine
 10
-426.5896564988904
 20
139.3319955639212
 30
0.0
 11
-407.7179235785741
 21
139.3319955639212
 31
0.0
  0
LINE
  5
1FB
330
1F
100
AcDbEntity
  8
A-5
  6
Continuous
 62
     7
370
     9
100
AcDbLine
 10
-510.9517157331788
 20
-42.20684623038829
 30
0.0
 11
-417.8003029501758
 21
113.9206368519206
 31
0.0
  0
LINE
  5
1FC
330
1F
100
AcDbEntity
  8
A-5
  6
Continuous
 62
     7
370
     9
100
AcDbLine
 10
-417.8003029501758
 20
113.9206368519206
 30
0.0
 11
-422.7490015721094
 21
102.441944332767
 31
0.0
  0
LINE
  5
1FD
330
1F
100
AcDbEntity
  8
A-5
  6
Continuous
 62
     7
370
     9
100
AcDbLine
 10
-417.8003029501758
 20
113.9206368519206
 30
0.0
 11
-425.5512829924552
 21
104.113888747468
 31
0.0
  0
LINE
  5
1FE
330
1F
100
AcDbEntity
  8
A-4
  6
Continuous
 62
     7
370
     9
100
AcDbLine
 10
351.7820764214261
 20
275.1475998049191
 30
0.0
 11
-448.2179235785739
 21
275.1475998049191
 31
0.0
  0
LWPOLYLINE
  5
1FF
330
1F
100
AcDbEntity
  8
A-4
  6
Continuous
 62
     7
370
     9
100
AcDbPolyline
 90
        4
 70
     1
 43
1.0
 10
352.282076421426
 20
275.1475998049191
 42
0.4142135623731
 10
351.7820764214261
 20
275.6475998049191
 42
0.4142135623731
 10
351.2820764214262
 20
275.1475998049191
 42
0.4142135623731
 10
351.7820764214261
 20
274.6475998049191
 42
0.4142135623731
  0
LWPOLYLINE
  5
200
330
1F
100
AcDbEntity
  8
A-4
  6
Continuous
 62
     7
370
     9
100
AcDbPolyline
 90
        4
 70
     1
 43
1.0
 10
-447.717923578574
 20
275.1475998049191
 42
0.4142135623731
 10
-448.2179235785739
 20
275.6475998049191
 42
0.4142135623731
 10
-448.7179235785738
 20
275.1475998049191
 42
0.4142135623731
 10
-448.2179235785739
 20
274.6475998049191
 42
0.4142135623731
  0
LINE
  5
201
330
1F
100
AcDbEntity
  8
A-4
  6
Continuous
 62
     7
370
     9
100
AcDbLine
 10
285.9746702538195
 20
-22.11960570082433
 30
0.0
 11
276.8432488186886
 21
-34.0199058051929
 31
0.0
  0
LINE
  5
202
330
1F
100
AcDbEntity
  8
A-4
  6
Continuous
 62
     7
370
     9
100
AcDbLine
 10
285.9746702538195
 20
-22.11960570082433
 30
0.0
 11
280.2344187683431
 21
-35.97779868849366
 31
0.0
  0
LINE
  5
203
330
1F
100
AcDbEntity
  8
A-4
  6
Continuous
 62
     7
370
     9
100
AcDbLine
 10
258.7757714723068
 20
-69.22948030032737
 30
0.0
 11
285.9746702538195
 21
-22.11960570082433
 31
0.0
  0
LINE
  5
204
330
1F
100
AcDbEntity
  8
A-E
  6
Continuous
 62
     2
370
     9
100
AcDbLine
 10
-52.91796630318329
 20
141.3319955639213
 30
0.0
 11
-43.51785033638647
 21
141.3319955639213
 31
0.0
  0
LINE
  5
205
330
1F
100
AcDbEntity
  8
A-E
  6
Continuous
 62
     2
370
     9
100
AcDbLine
 10
-52.91796630318329
 20
141.6204629711479
 30
0.0
 11
-52.91796630318329
 21
141.3319955639213
 31
0.0
  0
LINE
  5
206
330
1F
100
AcDbEntity
  8
A-E
  6
Continuous
 62
     2
370
     9
100
AcDbLine
 10
-43.51785033638647
 20
141.6204629711479
 30
0.0
 11
-43.51785033638647
 21
141.3319955639213
 31
0.0
  0
LINE
  5
207
330
1F
100
AcDbEntity
  8
A-E
  6
Continuous
 62
     2
370
     9
100
AcDbLine
 10
-52.91796630318329
 20
141.6204629711479
 30
0.0
 11
-43.51785033638647
 21
141.6204629711479
 31
0.0
  0
LINE
  5
208
330
1F
100
AcDbEntity
  8
A-E
  6
Continuous
 62
     2
370
     9
100
AcDbLine
 10
-48.71801513130832
 20
143.4114785961478
 30
0.0
 11
-47.71795409615207
 21
143.4114785961478
 31
0.0
  0
LINE
  5
209
330
1F
100
AcDbEntity
  8
A-E
  6
Continuous
 62
     2
370
     9
100
AcDbLine
 10
-47.71795409615207
 20
143.8115182689993
 30
0.0
 11
-47.71795409615207
 21
143.4114785961478
 31
0.0
  0
LINE
  5
20A
330
1F
100
AcDbEntity
  8
A-E
  6
Continuous
 62
     2
370
     9
100
AcDbLine
 10
-48.71801513130832
 20
143.8115182689993
 30
0.0
 11
-48.71801513130832
 21
143.4114785961478
 31
0.0
  0
ARC
  5
20B
330
1F
100
AcDbEntity
  8
A-E
  6
Continuous
 62
     2
370
     9
100
AcDbCircle
 10
-48.2179846137302
 20
137.7320199779837
 30
0.0
 40
6.099999904632569
100
AcDbArc
 50
39.60198974609384
 51
85.2985382080079
  0
ARC
  5
20C
330
1F
100
AcDbEntity
  8
A-E
  6
Continuous
 62
     2
370
     9
100
AcDbCircle
 10
-48.2179846137302
 20
137.7320199779837
 30
0.0
 40
6.099999904632569
100
AcDbArc
 50
94.70191955566406
 51
140.3980102539062
  0
LINE
  5
20D
330
1F
100
AcDbEntity
  8
A-E
  6
Continuous
 62
     2
370
     9
100
AcDbLine
 10
-50.21792357857392
 20
141.3319955639213
 30
0.0
 11
-50.21792357857392
 21
132.7960916332572
 31
0.0
  0
LINE
  5
20E
330
1F
100
AcDbEntity
  8
A-E
  6
Continuous
 62
     2
370
     9
100
AcDbLine
 10
-49.61794799263642
 20
141.3319955639213
 30
0.0
 11
-49.61794799263642
 21
131.7568460277884
 31
0.0
  0
LINE
  5
20F
330
1F
100
AcDbEntity
  8
A-E
  6
JWW_CENTER1
 62
     2
370
     9
100
AcDbLine
 10
-48.21792357857389
 20
145.2378030590385
 30
0.0
 11
-48.21792357857389
 21
127.7112985424369
 31
0.0
  0
LINE
  5
210
330
1F
100
AcDbEntity
  8
A-E
  6
Continuous
 62
     2
370
     9
100
AcDbLine
 10
-46.81792968208951
 20
141.3319955639213
 30
0.0
 11
-46.81792968208951
 21
131.7568918041557
 31
0.0
  0
LINE
  5
211
330
1F
100
AcDbEntity
  8
A-E
  6
Continuous
 62
     2
370
     9
100
AcDbLine
 10
-46.2178625434177
 20
138.2989539158763
 30
0.0
 11
-46.2178625434177
 21
132.7961831859915
 31
0.0
  0
LINE
  5
212
330
1F
100
AcDbEntity
  8
A-E
  6
Continuous
 62
     2
370
     9
100
AcDbLine
 10
-48.21792357857389
 20
129.3319803051322
 30
0.0
 11
-46.2178625434177
 21
132.7961831859915
 31
0.0
  0
LINE
  5
213
330
1F
100
AcDbEntity
  8
A-E
  6
Continuous
 62
     2
370
     9
100
AcDbLine
 10
-48.21792357857389
 20
129.3319803051322
 30
0.0
 11
-50.21792357857392
 21
132.7960916332572
 31
0.0
  0
LINE
  5
214
330
1F
100
AcDbEntity
  8
A-E
  6
Continuous
 62
     2
370
     9
100
AcDbLine
 10
-46.2178625434177
 20
141.3319955639213
 30
0.0
 11
-46.2178625434177
 21
138.2989539158763
 31
0.0
  0
LINE
  5
215
330
1F
100
AcDbEntity
  8
A-4
  6
Continuous
 62
     7
370
     9
100
AcDbLine
 10
-525.9940203322933
 20
42.33196504828349
 30
0.0
 11
-247.826134896028
 21
42.33196504828349
 31
0.0
  0
LWPOLYLINE
  5
216
330
1F
100
AcDbEntity
  8
A-4
  6
Continuous
 62
     7
370
     9
100
AcDbPolyline
 90
        4
 70
     1
 43
1.0
 10
-525.4940203322933
 20
112.3319650482836
 42
0.4142135623731
 10
-525.9940203322933
 20
112.8319650482836
 42
0.4142135623731
 10
-526.4940203322932
 20
112.3319650482836
 42
0.4142135623731
 10
-525.9940203322933
 20
111.8319650482836
 42
0.4142135623731
  0
LWPOLYLINE
  5
217
330
1F
100
AcDbEntity
  8
A-4
  6
Continuous
 62
     7
370
     9
100
AcDbPolyline
 90
        4
 70
     1
 43
1.0
 10
-525.4940203322933
 20
141.3319955639213
 42
0.4142135623731
 10
-525.9940203322933
 20
141.8319955639214
 42
0.4142135623731
 10
-526.4940203322932
 20
141.3319955639213
 42
0.4142135623731
 10
-525.9940203322933
 20
140.8319955639213
 42
0.4142135623731
  0
LINE
  5
218
330
1F
100
AcDbEntity
  8
A-4
  6
Continuous
 62
     7
370
     9
100
AcDbLine
 10
-525.9940203322933
 20
112.3319650482836
 30
0.0
 11
-525.9940203322933
 21
42.33196504828349
 31
0.0
  0
LWPOLYLINE
  5
219
330
1F
100
AcDbEntity
  8
A-4
  6
Continuous
 62
     7
370
     9
100
AcDbPolyline
 90
        4
 70
     1
 43
1.0
 10
-525.4940203322933
 20
112.3319650482836
 42
0.4142135623731
 10
-525.9940203322933
 20
112.8319650482836
 42
0.4142135623731
 10
-526.4940203322932
 20
112.3319650482836
 42
0.4142135623731
 10
-525.9940203322933
 20
111.8319650482836
 42
0.4142135623731
  0
LWPOLYLINE
  5
21A
330
1F
100
AcDbEntity
  8
A-4
  6
Continuous
 62
     7
370
     9
100
AcDbPolyline
 90
        4
 70
     1
 43
1.0
 10
-525.4940203322933
 20
42.33196504828349
 42
0.4142135623731
 10
-525.9940203322933
 20
42.83196504828348
 42
0.4142135623731
 10
-526.4940203322932
 20
42.33196504828349
 42
0.4142135623731
 10
-525.9940203322933
 20
41.83196504828349
 42
0.4142135623731
  0
LINE
  5
21B
330
1F
100
AcDbEntity
  8
A-4
  6
Continuous
 62
     7
370
     9
100
AcDbLine
 10
-525.9940203322933
 20
112.3319650482836
 30
0.0
 11
-525.9940203322933
 21
141.3319955639213
 31
0.0
  0
LINE
  5
21C
330
1F
100
AcDbEntity
  8
A-4
  6
Continuous
 62
     7
370
     9
100
AcDbLine
 10
-525.9940203322933
 20
141.3319955639213
 30
0.0
 11
-451.5896564988907
 21
141.3319955639213
 31
0.0
  0
LINE
  5
21D
330
1F
100
AcDbEntity
  8
A-5
  6
Continuous
 62
     7
370
     9
100
AcDbLine
 10
-136.2735094573405
 20
367.7964813487028
 30
0.0
 11
-48.52410487188861
 21
143.0278630658474
 31
0.0
  0
LINE
  5
21E
330
1F
100
AcDbEntity
  8
A-5
  6
Continuous
 62
     7
370
     9
100
AcDbLine
 10
-48.52410487188861
 20
143.0278630658474
 30
0.0
 11
-54.55092231630799
 21
153.9790032572449
 31
0.0
  0
LINE
  5
21F
330
1F
100
AcDbEntity
  8
A-5
  6
Continuous
 62
     7
370
     9
100
AcDbLine
 10
-48.52410487188861
 20
143.0278630658474
 30
0.0
 11
-51.51119984466148
 21
155.1657073400023
 31
0.0
  0
LINE
  5
220
330
1F
100
AcDbEntity
  8
A-F
  6
Continuous
 62
    30
370
     5
100
AcDbLine
 10
-242.1799981325378
 20
42.69495251849427
 30
0.0
 11
-242.0088454927341
 21
42.86610515829913
 31
0.0
  0
LINE
  5
221
330
1F
100
AcDbEntity
  8
A-F
  6
Continuous
 62
     2
370
     9
100
AcDbLine
 10
-245.3179998725184
 20
34.33183534857654
 30
0.0
 11
-245.3179998725184
 21
58.33202608343519
 31
0.0
  0
LINE
  5
222
330
1F
100
AcDbEntity
  8
A-F
  6
Continuous
 62
     2
370
     9
100
AcDbLine
 10
-247.3179083197843
 20
35.3319040131236
 30
0.0
 11
-247.3179083197843
 21
71.33196504828453
 31
0.0
  0
LINE
  5
223
330
1F
100
AcDbEntity
  8
A-F
  6
Continuous
 62
     2
370
     9
100
AcDbLine
 10
-241.4180670111904
 20
43.23189790961172
 30
0.0
 11
-241.4180670111904
 21
41.4317727875413
 31
0.0
  0
LINE
  5
224
330
1F
100
AcDbEntity
  8
A-F
  6
Continuous
 62
     2
370
     9
100
AcDbLine
 10
-244.3179693549405
 20
50.33194216009995
 30
0.0
 11
-245.3179998725184
 21
50.33194216009995
 31
0.0
  0
LINE
  5
225
330
1F
100
AcDbEntity
  8
A-F
  6
Continuous
 62
     2
370
     9
100
AcDbLine
 10
-244.3179693549405
 20
45.58178957220938
 30
0.0
 11
-245.3179998725184
 21
45.58178957220938
 31
0.0
  0
LINE
  5
226
330
1F
100
AcDbEntity
  8
A-F
  6
Continuous
 62
     2
370
     9
100
AcDbLine
 10
-244.3179693549405
 20
39.08178957220932
 30
0.0
 11
-245.3179998725184
 21
39.08178957220932
 31
0.0
  0
LINE
  5
227
330
1F
100
AcDbEntity
  8
A-F
  6
Continuous
 62
     2
370
     9
100
AcDbLine
 10
-244.3179693549405
 20
50.33194216009995
 30
0.0
 11
-244.3179693549405
 21
34.33183534857654
 31
0.0
  0
LINE
  5
228
330
1F
100
AcDbEntity
  8
A-F
  6
Continuous
 62
     2
370
     9
100
AcDbLine
 10
-247.3179235785733
 20
46.13199098822498
 30
0.0
 11
-260.3179998725184
 21
46.13199098822498
 31
0.0
  0
LINE
  5
229
330
1F
100
AcDbEntity
  8
A-F
  6
Continuous
 62
     2
370
     9
100
AcDbLine
 10
-260.317999872519
 20
38.53187807318583
 30
0.0
 11
-247.3179235785733
 21
38.53187807318583
 31
0.0
  0
LINE
  5
22A
330
1F
100
AcDbEntity
  8
A-F
  6
Continuous
 62
     2
370
     9
100
AcDbLine
 10
-244.3179693549405
 20
39.08208711859607
 30
0.0
 11
-245.3179998725184
 21
39.08208711859607
 31
0.0
  0
LINE
  5
22B
330
1F
100
AcDbEntity
  8
A-F
  6
Continuous
 62
     2
370
     9
100
AcDbLine
 10
-244.3179693549405
 20
45.58198793646716
 30
0.0
 11
-245.3179998725184
 21
45.58198793646716
 31
0.0
  0
LINE
  5
22C
330
1F
100
AcDbEntity
  8
A-F
  6
Continuous
 62
     2
370
     9
100
AcDbLine
 10
-245.3179998725184
 20
45.58198793646716
 30
0.0
 11
-247.317877802206
 21
45.58198793646716
 31
0.0
  0
LINE
  5
22D
330
1F
100
AcDbEntity
  8
A-F
  6
Continuous
 62
     2
370
     9
100
AcDbLine
 10
-245.3179998725184
 20
39.08208711859607
 30
0.0
 11
-247.317877802206
 21
39.08208711859607
 31
0.0
  0
LINE
  5
22E
330
1F
100
AcDbEntity
  8
A-F
  6
Continuous
 62
     2
370
     9
100
AcDbLine
 10
-247.317877802206
 20
44.88202913519763
 30
0.0
 11
-244.3179693549405
 21
44.88202913519763
 31
0.0
  0
LINE
  5
22F
330
1F
100
AcDbEntity
  8
A-F
  6
Continuous
 62
     2
370
     9
100
AcDbLine
 10
-247.317877802206
 20
39.7820459198656
 30
0.0
 11
-244.3179693549405
 21
39.7820459198656
 31
0.0
  0
LINE
  5
230
330
1F
100
AcDbEntity
  8
A-F
  6
Continuous
 62
     2
370
     9
100
AcDbLine
 10
-244.3179693549405
 20
34.33183534857654
 30
0.0
 11
-245.3179998725184
 21
34.33183534857654
 31
0.0
  0
LINE
  5
231
330
1F
100
AcDbEntity
  8
A-6
  6
Continuous
 62
     6
370
     5
100
AcDbLine
 10
-248.2179235785739
 20
112.3319650482836
 30
0.0
 11
-248.2179235785739
 21
-222.6142840612466
 31
0.0
  0
ARC
  5
232
330
1F
100
AcDbEntity
  8
A-F
  6
Continuous
 62
     2
370
     9
100
AcDbCircle
 10
-244.3179693549405
 20
43.23189790961172
 30
0.0
 40
2.899999856948852
100
AcDbArc
 50
0.0000000000000254
 51
90.00000000000001
  0
LINE
  5
233
330
1F
100
AcDbEntity
  8
A-F
  6
JWW_CENTER1
 62
     2
370
     9
100
AcDbLine
 10
-272.8421335547696
 20
42.33196504828349
 30
0.0
 11
-233.3162098258268
 21
42.33196504828349
 31
0.0
  0
ARC
  5
234
330
1F
100
AcDbEntity
  8
A-F
  6
Continuous
 62
     2
370
     9
100
AcDbCircle
 10
-246.3179235785734
 20
35.3319040131236
 30
0.0
 40
0.9999999999999992
100
AcDbArc
 50
180.0
 51
359.2922409559736
  0
ARC
  5
235
330
1F
100
AcDbEntity
  8
A-F
  6
Continuous
 62
     2
370
     9
100
AcDbCircle
 10
-241.8180151313075
 20
58.33202608343519
 30
0.0
 40
3.500000000000001
100
AcDbArc
 50
87.39308166503903
 51
179.9999999999999
  0
ARC
  5
236
330
1F
100
AcDbEntity
  8
A-F
  6
Continuous
 62
     2
370
     9
100
AcDbCircle
 10
-241.5678472846278
 20
63.8263803314863
 30
0.0
 40
1.999999999999998
100
AcDbArc
 50
267.3930206298829
 51
0.0000000000000568
  0
ARC
  5
237
330
1F
100
AcDbEntity
  8
A-F
  6
Continuous
 62
     2
370
     9
100
AcDbCircle
 10
-240.5678472846276
 20
71.33196504828453
 30
0.0
 40
0.9999999999999992
100
AcDbArc
 50
0.0
 51
180.0
  0
ARC
  5
238
330
1F
100
AcDbEntity
  8
A-F
  6
Continuous
 62
     2
370
     9
100
AcDbCircle
 10
-246.3179235785734
 20
71.33196504828453
 30
0.0
 40
0.9999999999999992
100
AcDbArc
 50
0.0
 51
180.0
  0
LINE
  5
239
330
1F
100
AcDbEntity
  8
A-F
  6
Continuous
 62
     2
370
     9
100
AcDbLine
 10
-239.5678625434167
 20
63.8263803314863
 30
0.0
 11
-239.5678625434167
 21
71.33196504828453
 31
0.0
  0
LINE
  5
23A
330
1F
100
AcDbEntity
  8
A-F
  6
Continuous
 62
     2
370
     9
100
AcDbLine
 10
-241.5678472846278
 20
63.83196504828454
 30
0.0
 11
-241.5678472846278
 21
71.33196504828453
 31
0.0
  0
LINE
  5
23B
330
1F
100
AcDbEntity
  8
A-F
  6
Continuous
 62
     2
370
     9
100
AcDbLine
 10
-241.5678472846278
 20
63.83196504828454
 30
0.0
 11
-245.3179998725184
 21
63.83196504828454
 31
0.0
  0
LINE
  5
23C
330
1F
100
AcDbEntity
  8
A-F
  6
Continuous
 62
     2
370
     9
100
AcDbLine
 10
-245.3179998725184
 20
71.33196504828453
 30
0.0
 11
-245.3179998725184
 21
63.83196504828454
 31
0.0
  0
LINE
  5
23D
330
1F
100
AcDbEntity
  8
A-F
  6
JWW_DASHED1
 62
     2
370
     9
100
AcDbLine
 10
-243.0523596137294
 20
41.83603914496323
 30
0.0
 11
-243.0523596137294
 21
42.82743318793201
 31
0.0
  0
LINE
  5
23E
330
1F
100
AcDbEntity
  8
A-F
  6
JWW_DASHED1
 62
     2
370
     9
100
AcDbLine
 10
-241.9020605414639
 20
42.82743318793201
 30
0.0
 11
-243.0523596137294
 21
42.82743318793201
 31
0.0
  0
LINE
  5
23F
330
1F
100
AcDbEntity
  8
A-F
  6
JWW_DASHED1
 62
     2
370
     9
100
AcDbLine
 10
-241.9020605414639
 20
41.83603914496323
 30
0.0
 11
-243.0523596137294
 21
41.83603914496323
 31
0.0
  0
LINE
  5
240
330
1F
100
AcDbEntity
  8
A-F
  6
JWW_DASHED1
 62
     2
370
     9
100
AcDbLine
 10
-247.3179235785733
 20
44.88183077093985
 30
0.0
 11
-260.8862219184169
 21
44.88183077093985
 31
0.0
  0
LINE
  5
241
330
1F
100
AcDbEntity
  8
A-F
  6
JWW_DASHED1
 62
     2
370
     9
100
AcDbLine
 10
-247.3179235785733
 20
39.78184755560782
 30
0.0
 11
-260.8862219184175
 21
39.78184755560782
 31
0.0
  0
ARC
  5
242
330
1F
100
AcDbEntity
  8
A-F
  6
Continuous
 62
     2
370
     9
100
AcDbCircle
 10
-244.3179693549405
 20
41.4317727875413
 30
0.0
 40
2.899999856948852
100
AcDbArc
 50
270.0
 51
0.0
  0
ARC
  5
243
330
1F
100
AcDbEntity
  8
A-F
  6
JWW_DASHED1
 62
     2
370
     9
100
AcDbCircle
 10
-241.9020605414639
 20
43.32760866400626
 30
0.0
 40
0.4999999999999999
100
AcDbArc
 50
270.0
 51
14.41448974609369
  0
ARC
  5
244
330
1F
100
AcDbEntity
  8
A-F
  6
JWW_DASHED1
 62
     2
370
     9
100
AcDbCircle
 10
-241.9020605414639
 20
41.33621462103739
 30
0.0
 40
0.4999999999999999
100
AcDbArc
 50
345.5855102539062
 51
89.99999999999997
  0
LINE
  5
245
330
1F
100
AcDbEntity
  8
A-5
  6
Continuous
 62
     7
370
     9
100
AcDbLine
 10
-313.2179235785736
 20
112.3319650482836
 30
0.0
 11
-109.233922237316
 21
112.3319650482836
 31
0.0
  0
LINE
  5
246
330
1F
100
AcDbEntity
  8
A-5
  6
JWW_DASHED3
 62
     2
370
     9
100
AcDbLine
 10
-301.2178930609957
 20
113.9319650482836
 30
0.0
 11
-301.2178930609957
 21
87.97349947211167
 31
0.0
  0
LINE
  5
247
330
1F
100
AcDbEntity
  8
A-5
  6
JWW_DASHED3
 62
     2
370
     9
100
AcDbLine
 10
-295.2179693549408
 20
113.9319650482836
 30
0.0
 11
-295.2179693549408
 21
89.40678804633045
 31
0.0
  0
ARC
  5
248
330
1F
100
AcDbEntity
  8
A-5
  6
Continuous
 62
     2
370
     9
100
AcDbCircle
 10
-298.2179235785736
 20
113.5820199799242
 30
0.0
 40
4.449995040893555
100
AcDbArc
 50
14.9766540527344
 51
165.0232696533203
  0
LINE
  5
249
330
1F
100
AcDbEntity
  8
A-5
  6
Continuous
 62
     2
370
     9
100
AcDbLine
 10
-304.2178625434178
 20
113.9319650482836
 30
0.0
 11
-304.2178625434178
 21
114.7320443939866
 31
0.0
  0
LINE
  5
24A
330
1F
100
AcDbEntity
  8
A-5
  6
Continuous
 62
     2
370
     9
100
AcDbLine
 10
-304.2178625434178
 20
114.7320443939866
 30
0.0
 11
-292.2179998725193
 21
114.7320443939866
 31
0.0
  0
LINE
  5
24B
330
1F
100
AcDbEntity
  8
A-5
  6
Continuous
 62
     2
370
     9
100
AcDbLine
 10
-292.2179998725193
 20
114.7320443939866
 30
0.0
 11
-292.2179998725193
 21
113.9319650482836
 31
0.0
  0
LINE
  5
24C
330
1F
100
AcDbEntity
  8
A-5
  6
Continuous
 62
     2
370
     9
100
AcDbLine
 10
-294.2179083197846
 20
113.9319650482836
 30
0.0
 11
-294.2179083197846
 21
89.64569490668204
 31
0.0
  0
LINE
  5
24D
330
1F
100
AcDbEntity
  8
A-5
  6
Continuous
 62
     2
370
     9
100
AcDbLine
 10
-302.217954096152
 20
113.9319650482836
 30
0.0
 11
-302.217954096152
 21
87.73457735297107
 31
0.0
  0
LINE
  5
24E
330
1F
100
AcDbEntity
  8
A-5
  6
JWW_CENTER1
 62
     2
370
     9
100
AcDbLine
 10
-298.2179235785736
 20
119.9319806050959
 30
0.0
 11
-298.2179235785736
 21
85.55723970648664
 31
0.0
  0
LINE
  5
24F
330
1F
100
AcDbEntity
  8
A-5
  6
Continuous
 62
     7
370
     9
100
AcDbLine
 10
-293.2179235785736
 20
113.9319650482836
 30
0.0
 11
-293.2179235785736
 21
112.3319650482836
 31
0.0
  0
LINE
  5
250
330
1F
100
AcDbEntity
  8
A-5
  6
Continuous
 62
     7
370
     9
100
AcDbLine
 10
-303.2179235785736
 20
113.9319650482836
 30
0.0
 11
-303.2179235785736
 21
112.3319650482836
 31
0.0
  0
LINE
  5
251
330
1F
100
AcDbEntity
  8
A-5
  6
Continuous
 62
     7
370
     9
100
AcDbLine
 10
-313.2179235785736
 20
113.9319650482836
 30
0.0
 11
-313.2179235785736
 21
112.3319650482836
 31
0.0
  0
LINE
  5
252
330
1F
100
AcDbEntity
  8
A-5
  6
Continuous
 62
     2
370
     9
100
AcDbLine
 10
-297.7179083197848
 20
118.0320169281664
 30
0.0
 11
-297.7179083197848
 21
116.5320321869554
 31
0.0
  0
LINE
  5
253
330
1F
100
AcDbEntity
  8
A-5
  6
Continuous
 62
     2
370
     9
100
AcDbLine
 10
-297.7179083197848
 20
116.5320321869554
 30
0.0
 11
-298.7179540961517
 21
116.5320321869554
 31
0.0
  0
LINE
  5
254
330
1F
100
AcDbEntity
  8
A-5
  6
Continuous
 62
     2
370
     9
100
AcDbLine
 10
-298.7179540961517
 20
116.5320321869554
 30
0.0
 11
-298.7179540961517
 21
118.0320169281664
 31
0.0
  0
LINE
  5
255
330
1F
100
AcDbEntity
  8
A-5
  6
Continuous
 62
     7
370
     9
100
AcDbLine
 10
-106.2339222373161
 20
98.9319650482836
 30
0.0
 11
-107.7339222373162
 21
98.9319650482836
 31
0.0
  0
LINE
  5
256
330
1F
100
AcDbEntity
  8
A-5
  6
Continuous
 62
     7
370
     9
100
AcDbLine
 10
-107.7339222373162
 20
110.8319650482837
 30
0.0
 11
-107.7339222373162
 21
98.9319650482836
 31
0.0
  0
ARC
  5
257
330
1F
100
AcDbEntity
  8
A-5
  6
Continuous
 62
     7
370
     9
100
AcDbCircle
 10
-109.233922237316
 20
110.8319650482837
 30
0.0
 40
1.5
100
AcDbArc
 50
0.0
 51
90.0
  0
LINE
  5
258
330
1F
100
AcDbEntity
  8
A-5
  6
Continuous
 62
     7
370
     9
100
AcDbLine
 10
-106.2339222373161
 20
110.9319650482836
 30
0.0
 11
-106.2339222373161
 21
98.9319650482836
 31
0.0
  0
LINE
  5
259
330
1F
100
AcDbEntity
  8
A-5
  6
Continuous
 62
     7
370
     9
100
AcDbLine
 10
-109.233922237316
 20
113.9319650482836
 30
0.0
 11
-313.2179235785736
 21
113.9319650482836
 31
0.0
  0
ARC
  5
25A
330
1F
100
AcDbEntity
  8
A-5
  6
Continuous
 62
     7
370
     9
100
AcDbCircle
 10
-109.233922237316
 20
110.9319650482836
 30
0.0
 40
3.0
100
AcDbArc
 50
0.0
 51
90.0
  0
LINE
  5
25B
330
1F
100
AcDbEntity
  8
A-4
  6
Continuous
 62
     7
370
     9
100
AcDbLine
 10
-106.2339222373161
 20
71.52727543949246
 30
0.0
 11
-248.2179235785739
 21
71.52727543949246
 31
0.0
  0
LWPOLYLINE
  5
25C
330
1F
100
AcDbEntity
  8
A-4
  6
Continuous
 62
     7
370
     9
100
AcDbPolyline
 90
        4
 70
     1
 43
1.0
 10
-105.7339222373161
 20
71.52727543949246
 42
0.4142135623731
 10
-106.2339222373161
 20
72.02727543949246
 42
0.4142135623731
 10
-106.7339222373161
 20
71.52727543949246
 42
0.4142135623731
 10
-106.2339222373161
 20
71.02727543949246
 42
0.4142135623731
  0
LWPOLYLINE
  5
25D
330
1F
100
AcDbEntity
  8
A-4
  6
Continuous
 62
     7
370
     9
100
AcDbPolyline
 90
        4
 70
     1
 43
1.0
 10
-247.7179235785739
 20
71.52727543949246
 42
0.4142135623731
 10
-248.2179235785739
 20
72.02727543949246
 42
0.4142135623731
 10
-248.7179235785739
 20
71.52727543949246
 42
0.4142135623731
 10
-248.2179235785739
 20
71.02727543949246
 42
0.4142135623731
  0
LINE
  5
25E
330
1F
100
AcDbEntity
  8
A-4
  6
Continuous
 62
     7
370
     9
100
AcDbLine
 10
-106.2339222373161
 20
70.02727543949254
 30
0.0
 11
-106.2339222373161
 21
88.9319650482836
 31
0.0
  0
LINE
  5
25F
330
1F
100
AcDbEntity
  8
A-4
  6
Continuous
 62
     7
370
     9
100
AcDbLine
 10
-248.2179235785739
 20
70.02727543949254
 30
0.0
 11
-248.2179235785739
 21
62.30554403102366
 31
0.0
  0
LINE
  5
260
330
1F
100
AcDbEntity
  8
A-4
  6
Continuous
 62
     7
370
     9
100
AcDbLine
 10
-248.2179235785739
 20
71.52727543949246
 30
0.0
 11
-298.2179235785736
 21
71.52727543949246
 31
0.0
  0
LWPOLYLINE
  5
261
330
1F
100
AcDbEntity
  8
A-4
  6
Continuous
 62
     7
370
     9
100
AcDbPolyline
 90
        4
 70
     1
 43
1.0
 10
-297.7179235785736
 20
71.52727543949246
 42
0.4142135623731
 10
-298.2179235785736
 20
72.02727543949246
 42
0.4142135623731
 10
-298.7179235785736
 20
71.52727543949246
 42
0.4142135623731
 10
-298.2179235785736
 20
71.02727543949246
 42
0.4142135623731
  0
LINE
  5
262
330
1F
100
AcDbEntity
  8
A-4
  6
Continuous
 62
     7
370
     9
100
AcDbLine
 10
-298.2179235785736
 20
70.02727543949254
 30
0.0
 11
-298.2179235785736
 21
85.55723970648664
 31
0.0
  0
LINE
  5
263
330
1F
100
AcDbEntity
  8
A-5
  6
Continuous
 62
     7
370
     9
100
AcDbLine
 10
-191.3587961729169
 20
113.3690233454622
 30
0.0
 11
-200.1587098363045
 21
122.246608575519
 31
0.0
  0
LINE
  5
264
330
1F
100
AcDbEntity
  8
A-5
  6
Continuous
 62
     7
370
     9
100
AcDbLine
 10
-191.3587961729169
 20
113.3690233454622
 30
0.0
 11
-197.5611719174374
 21
124.221697445599
 31
0.0
  0
LINE
  5
265
330
1F
100
AcDbEntity
  8
A-5
  6
Continuous
 62
     7
370
     9
100
AcDbLine
 10
-337.4409122478943
 20
305.4889028715495
 30
0.0
 11
-191.3587961729169
 21
113.3690233454622
 31
0.0
  0
LINE
  5
266
330
1F
100
AcDbEntity
  8
A-5
  6
Continuous
 62
     7
370
     9
100
AcDbLine
 10
-395.1381669754772
 20
-124.3003248785188
 30
0.0
 11
-299.0149359422691
 21
105.942218096904
 31
0.0
  0
LINE
  5
267
330
1F
100
AcDbEntity
  8
A-5
  6
Continuous
 62
     7
370
     9
100
AcDbLine
 10
-299.0149359422691
 20
105.942218096904
 30
0.0
 11
-302.2838562127276
 21
93.87722077964845
 31
0.0
  0
LINE
  5
268
330
1F
100
AcDbEntity
  8
A-5
  6
Continuous
 62
     7
370
     9
100
AcDbLine
 10
-299.0149359422691
 20
105.942218096904
 30
0.0
 11
-305.2951215404013
 21
95.13438441697495
 31
0.0
  0
LINE
  5
269
330
1F
100
AcDbEntity
  8
A-5
  6
Continuous
 62
     7
370
     9
100
AcDbLine
 10
-395.1381669754772
 20
-124.3003248785188
 30
0.0
 11
-256.7732857324404
 21
37.61013687512224
 31
0.0
  0
LINE
  5
26A
330
1F
100
AcDbEntity
  8
A-5
  6
Continuous
 62
     7
370
     9
100
AcDbLine
 10
-256.7732857324404
 20
37.61013687512224
 30
0.0
 11
-263.5842783265065
 21
27.12870663476031
 31
0.0
  0
LINE
  5
26B
330
1F
100
AcDbEntity
  8
A-5
  6
Continuous
 62
     7
370
     9
100
AcDbLine
 10
-256.7732857324404
 20
37.61013687512224
 30
0.0
 11
-266.0649931478315
 21
29.24866730890592
 31
0.0
  0
LINE
  5
26C
330
1F
100
AcDbEntity
  8
A-4
  6
Continuous
 62
     7
370
     9
100
AcDbLine
 10
-110.835640884916
 20
-57.00218126992475
 30
0.0
 11
-240.2496426089596
 21
61.17025972664386
 31
0.0
  0
LINE
  5
26D
330
1F
100
AcDbEntity
  8
A-4
  6
Continuous
 62
     7
370
     9
100
AcDbLine
 10
-240.2496426089596
 20
61.17025972664386
 30
0.0
 11
-229.9977808815527
 21
54.01838367052199
 31
0.0
  0
LINE
  5
26E
330
1F
100
AcDbEntity
  8
A-4
  6
Continuous
 62
     7
370
     9
100
AcDbLine
 10
-240.2496426089596
 20
61.17025972664386
 30
0.0
 11
-232.1981463304499
 21
51.60870087480681
 31
0.0
  0
ARC
  5
26F
330
1F
100
AcDbEntity
  8
A-3
  6
Continuous
 62
     4
370
     9
100
AcDbCircle
 10
77.99784964118076
 20
95.74135333267968
 30
0.0
 40
344.2544880187805
100
AcDbArc
 50
199.0929502339278
 51
322.4330448826202
  0
LINE
  5
270
330
1F
100
AcDbEntity
  8
A-5
  6
Continuous
 62
     7
370
     9
100
AcDbLine
 10
-261.2228664689604
 20
-267.23509492499
 30
0.0
 11
-155.5491965204703
 21
-157.3257370321342
 31
0.0
  0
LINE
  5
271
330
1F
100
AcDbEntity
  8
A-5
  6
Continuous
 62
     7
370
     9
100
AcDbLine
 10
-155.5491965204703
 20
-157.3257370321342
 30
0.0
 11
-162.9624401008853
 21
-167.3902201096417
 31
0.0
  0
LINE
  5
272
330
1F
100
AcDbEntity
  8
A-5
  6
Continuous
 62
     7
370
     9
100
AcDbLine
 10
-155.5491965204703
 20
-157.3257370321342
 30
0.0
 11
-165.3147198509357
 21
-165.1285925403526
 31
0.0
  0
LINE
  5
273
330
1F
100
AcDbEntity
  8
A-3
  6
Continuous
 62
     4
370
     9
100
AcDbLine
 10
-247.4200096537555
 20
74.45186007354044
 30
0.0
 11
-246.9179748032531
 21
88.63119613545997
 31
0.0
  0
LINE
  5
274
330
1F
100
AcDbEntity
  8
A-3
  6
Continuous
 62
     4
370
     9
100
AcDbLine
 10
-248.2180096537553
 20
74.45186007354044
 30
0.0
 11
-247.7159748032528
 21
88.8696724927781
 31
0.0
  0
LINE
  5
275
330
1F
100
AcDbEntity
  8
A-3
  6
Continuous
 62
     4
370
     9
100
AcDbLine
 10
-247.4200096537555
 20
74.45186007354044
 30
0.0
 11
-248.2180096537553
 21
74.45186007354044
 31
0.0
  0
LINE
  5
276
330
1F
100
AcDbEntity
  8
A-3
  6
Continuous
 62
     4
370
     9
100
AcDbLine
 10
-246.0182034847804
 20
74.4317452800785
 30
0.0
 11
-246.0182034847804
 21
88.50731513001968
 31
0.0
  0
LINE
  5
277
330
1F
100
AcDbEntity
  8
A-3
  6
Continuous
 62
     4
370
     9
100
AcDbLine
 10
-246.0182034847804
 20
88.50731513001968
 30
0.0
 11
-239.8686084054629
 21
75.28330000230972
 31
0.0
  0
LINE
  5
278
330
1F
100
AcDbEntity
  8
A-3
  6
Continuous
 62
     4
370
     9
100
AcDbLine
 10
-247.7159748032528
 20
88.8696724927781
 30
0.0
 11
-247.4679451576054
 21
90.1285028119046
 31
0.0
  0
LINE
  5
279
330
1F
100
AcDbEntity
  8
A-3
  6
Continuous
 62
     4
370
     9
100
AcDbLine
 10
-246.9179748032531
 20
74.4317452800785
 30
0.0
 11
-246.9179748032531
 21
88.63119613545997
 31
0.0
  0
LINE
  5
27A
330
1F
100
AcDbEntity
  8
A-3
  6
Continuous
 62
     4
370
     9
100
AcDbLine
 10
-246.2560285028786
 20
96.63450346326137
 30
0.0
 11
-245.4682331304281
 21
95.84670809080968
 31
0.0
  0
LINE
  5
27B
330
1F
100
AcDbEntity
  8
A-3
  6
Continuous
 62
     4
370
     9
100
AcDbLine
 10
-246.6801497851526
 20
96.63450346326137
 30
0.0
 11
-247.4679451576054
 21
95.84670809080968
 31
0.0
  0
LINE
  5
27C
330
1F
100
AcDbEntity
  8
A-3
  6
Continuous
 62
     4
370
     9
100
AcDbLine
 10
-245.4682331304281
 20
95.84670809080968
 30
0.0
 11
-245.3740940607628
 21
95.73869589509037
 31
0.0
  0
LINE
  5
27D
330
1F
100
AcDbEntity
  8
A-3
  6
Continuous
 62
     4
370
     9
100
AcDbLine
 10
-245.3740940607628
 20
95.73869589509037
 30
0.0
 11
-245.2165349862736
 21
95.54942681818694
 31
0.0
  0
LINE
  5
27E
330
1F
100
AcDbEntity
  8
A-3
  6
Continuous
 62
     4
370
     9
100
AcDbLine
 10
-245.2165349862736
 20
95.54942681818694
 30
0.0
 11
-245.0688852875356
 21
95.35520305340675
 31
0.0
  0
LINE
  5
27F
330
1F
100
AcDbEntity
  8
A-3
  6
Continuous
 62
     4
370
     9
100
AcDbLine
 10
-245.0688852875356
 20
95.35520305340675
 30
0.0
 11
-244.939072465159
 21
95.1510699128719
 31
0.0
  0
LINE
  5
280
330
1F
100
AcDbEntity
  8
A-3
  6
Continuous
 62
     4
370
     9
100
AcDbLine
 10
-244.939072465159
 20
95.1510699128719
 30
0.0
 11
-244.8746615227566
 21
95.02720271594605
 31
0.0
  0
LINE
  5
281
330
1F
100
AcDbEntity
  8
A-3
  6
Continuous
 62
     4
370
     9
100
AcDbLine
 10
-244.8746615227566
 20
95.02720271594605
 30
0.0
 11
-244.8488971457965
 21
94.97270114929826
 31
0.0
  0
LINE
  5
282
330
1F
100
AcDbEntity
  8
A-3
  6
Continuous
 62
     4
370
     9
100
AcDbLine
 10
-244.8488971457965
 20
94.97270114929826
 30
0.0
 11
-244.8092596427801
 21
94.87658020448272
 31
0.0
  0
LINE
  5
283
330
1F
100
AcDbEntity
  8
A-3
  6
Continuous
 62
     4
370
     9
100
AcDbLine
 10
-244.8092596427801
 20
94.87658020448272
 30
0.0
 11
-244.772594952488
 21
94.77897285330506
 31
0.0
  0
LINE
  5
284
330
1F
100
AcDbEntity
  8
A-3
  6
Continuous
 62
     4
370
     9
100
AcDbLine
 10
-244.772594952488
 20
94.77897285330506
 30
0.0
 11
-244.7379121373507
 21
94.67987909576415
 31
0.0
  0
LINE
  5
285
330
1F
100
AcDbEntity
  8
A-3
  6
Continuous
 62
     4
370
     9
100
AcDbLine
 10
-244.7379121373507
 20
94.67987909576415
 30
0.0
 11
-244.7180933858414
 21
94.62240471639099
 31
0.0
  0
LINE
  5
286
330
1F
100
AcDbEntity
  8
A-3
  6
Continuous
 62
     4
370
     9
100
AcDbLine
 10
-247.4679451576054
 20
95.84670809080968
 30
0.0
 11
-247.5620842272684
 21
95.73869589509037
 31
0.0
  0
LINE
  5
287
330
1F
100
AcDbEntity
  8
A-3
  6
Continuous
 62
     4
370
     9
100
AcDbLine
 10
-247.5620842272684
 20
95.73869589509037
 30
0.0
 11
-247.7206342393339
 21
95.54942681818694
 31
0.0
  0
LINE
  5
288
330
1F
100
AcDbEntity
  8
A-3
  6
Continuous
 62
     4
370
     9
100
AcDbLine
 10
-247.7206342393339
 20
95.54942681818694
 30
0.0
 11
-247.8672930004956
 21
95.35520305340675
 31
0.0
  0
LINE
  5
289
330
1F
100
AcDbEntity
  8
A-3
  6
Continuous
 62
     4
370
     9
100
AcDbLine
 10
-247.8672930004956
 20
95.35520305340675
 30
0.0
 11
-247.9980967604484
 21
95.1510699128719
 31
0.0
  0
LINE
  5
28A
330
1F
100
AcDbEntity
  8
A-3
  6
Continuous
 62
     4
370
     9
100
AcDbLine
 10
-247.9980967604484
 20
95.1510699128719
 30
0.0
 11
-248.0625077028509
 21
95.02720271594605
 31
0.0
  0
LINE
  5
28B
330
1F
100
AcDbEntity
  8
A-3
  6
Continuous
 62
     4
370
     9
100
AcDbLine
 10
-248.0625077028509
 20
95.02720271594605
 30
0.0
 11
-248.087281142237
 21
94.97270114929826
 31
0.0
  0
LINE
  5
28C
330
1F
100
AcDbEntity
  8
A-3
  6
Continuous
 62
     4
370
     9
100
AcDbLine
 10
-248.087281142237
 20
94.97270114929826
 30
0.0
 11
-248.1269186452533
 21
94.87658020448272
 31
0.0
  0
LINE
  5
28D
330
1F
100
AcDbEntity
  8
A-3
  6
Continuous
 62
     4
370
     9
100
AcDbLine
 10
-248.1269186452533
 20
94.87658020448272
 30
0.0
 11
-248.1645742731172
 21
94.77897285330506
 31
0.0
  0
LINE
  5
28E
330
1F
100
AcDbEntity
  8
A-3
  6
Continuous
 62
     4
370
     9
100
AcDbLine
 10
-248.1645742731172
 20
94.77897285330506
 30
0.0
 11
-248.1982661506828
 21
94.67987909576415
 31
0.0
  0
LINE
  5
28F
330
1F
100
AcDbEntity
  8
A-3
  6
Continuous
 62
     4
370
     9
100
AcDbLine
 10
-245.4682331304281
 20
94.7219939427189
 30
0.0
 11
-245.3582390595562
 21
94.58227174458649
 31
0.0
  0
LINE
  5
290
330
1F
100
AcDbEntity
  8
A-3
  6
Continuous
 62
     4
370
     9
100
AcDbLine
 10
-245.3582390595562
 20
94.58227174458649
 30
0.0
 11
-245.1739246705307
 21
94.33800563224828
 31
0.0
  0
LINE
  5
291
330
1F
100
AcDbEntity
  8
A-3
  6
Continuous
 62
     4
370
     9
100
AcDbLine
 10
-245.1739246705307
 20
94.33800563224828
 30
0.0
 11
-245.0054652827095
 21
94.0863074880938
 31
0.0
  0
LINE
  5
292
330
1F
100
AcDbEntity
  8
A-3
  6
Continuous
 62
     4
370
     9
100
AcDbLine
 10
-245.0054652827095
 20
94.0863074880938
 30
0.0
 11
-244.8667340221533
 21
93.82222262424627
 31
0.0
  0
LINE
  5
293
330
1F
100
AcDbEntity
  8
A-3
  6
Continuous
 62
     4
370
     9
100
AcDbLine
 10
-244.8667340221533
 20
93.82222262424627
 30
0.0
 11
-244.8013321421769
 21
93.66119526824242
 31
0.0
  0
LINE
  5
294
330
1F
100
AcDbEntity
  8
A-3
  6
Continuous
 62
     4
370
     9
100
AcDbLine
 10
-244.8013321421769
 20
93.66119526824242
 30
0.0
 11
-244.7884499536946
 21
93.62205323401419
 31
0.0
  0
LINE
  5
295
330
1F
100
AcDbEntity
  8
A-3
  6
Continuous
 62
     4
370
     9
100
AcDbLine
 10
-244.7884499536946
 20
93.62205323401419
 30
0.0
 11
-244.7676402646113
 21
93.55268760373498
 31
0.0
  0
LINE
  5
296
330
1F
100
AcDbEntity
  8
A-3
  6
Continuous
 62
     4
370
     9
100
AcDbLine
 10
-244.7676402646113
 20
93.55268760373498
 30
0.0
 11
-244.7478215131042
 21
93.48332197345691
 31
0.0
  0
LINE
  5
297
330
1F
100
AcDbEntity
  8
A-3
  6
Continuous
 62
     4
370
     9
100
AcDbLine
 10
-244.7478215131042
 20
93.48332197345691
 30
0.0
 11
-244.7289936991712
 21
93.41296540560258
 31
0.0
  0
LINE
  5
298
330
1F
100
AcDbEntity
  8
A-3
  6
Continuous
 62
     4
370
     9
100
AcDbLine
 10
-244.7289936991712
 20
93.41296540560258
 30
0.0
 11
-244.7180933858414
 21
93.37233696501109
 31
0.0
  0
LINE
  5
299
330
1F
100
AcDbEntity
  8
A-3
  6
Continuous
 62
     4
370
     9
100
AcDbLine
 10
-245.4682331304281
 20
93.47242166012713
 30
0.0
 11
-245.3582390595562
 21
93.33220399320659
 31
0.0
  0
LINE
  5
29A
330
1F
100
AcDbEntity
  8
A-3
  6
Continuous
 62
     4
370
     9
100
AcDbLine
 10
-245.3582390595562
 20
93.33220399320659
 30
0.0
 11
-245.1739246705307
 21
93.08793788086724
 31
0.0
  0
LINE
  5
29B
330
1F
100
AcDbEntity
  8
A-3
  6
Continuous
 62
     4
370
     9
100
AcDbLine
 10
-245.1739246705307
 20
93.08793788086724
 30
0.0
 11
-245.0054652827095
 21
92.83623973671389
 31
0.0
  0
LINE
  5
29C
330
1F
100
AcDbEntity
  8
A-3
  6
Continuous
 62
     4
370
     9
100
AcDbLine
 10
-245.0054652827095
 20
92.83623973671389
 30
0.0
 11
-244.8667340221533
 21
92.57215487286636
 31
0.0
  0
LINE
  5
29D
330
1F
100
AcDbEntity
  8
A-3
  6
Continuous
 62
     4
370
     9
100
AcDbLine
 10
-244.8667340221533
 20
92.57215487286636
 30
0.0
 11
-244.8013321421769
 21
92.41112751686252
 31
0.0
  0
LINE
  5
29E
330
1F
100
AcDbEntity
  8
A-3
  6
Continuous
 62
     4
370
     9
100
AcDbLine
 10
-244.8013321421769
 20
92.41112751686252
 30
0.0
 11
-244.7884499536946
 21
92.37149001384616
 31
0.0
  0
LINE
  5
29F
330
1F
100
AcDbEntity
  8
A-3
  6
Continuous
 62
     4
370
     9
100
AcDbLine
 10
-244.7884499536946
 20
92.37149001384616
 30
0.0
 11
-244.7676402646113
 21
92.30261985235508
 31
0.0
  0
LINE
  5
2A0
330
1F
100
AcDbEntity
  8
A-3
  6
Continuous
 62
     4
370
     9
100
AcDbLine
 10
-244.7676402646113
 20
92.30261985235508
 30
0.0
 11
-244.7478215131042
 21
92.23325422207701
 31
0.0
  0
LINE
  5
2A1
330
1F
100
AcDbEntity
  8
A-3
  6
Continuous
 62
     4
370
     9
100
AcDbLine
 10
-244.7478215131042
 20
92.23325422207701
 30
0.0
 11
-244.7289936991712
 21
92.16289765422268
 31
0.0
  0
LINE
  5
2A2
330
1F
100
AcDbEntity
  8
A-3
  6
Continuous
 62
     4
370
     9
100
AcDbLine
 10
-244.7289936991712
 20
92.16289765422268
 30
0.0
 11
-244.7180933858414
 21
92.12226921363005
 31
0.0
  0
LINE
  5
2A3
330
1F
100
AcDbEntity
  8
A-3
  6
Continuous
 62
     4
370
     9
100
AcDbLine
 10
-247.4679451576054
 20
94.7219939427189
 30
0.0
 11
-247.5789301660512
 21
94.58227174458649
 31
0.0
  0
LINE
  5
2A4
330
1F
100
AcDbEntity
  8
A-3
  6
Continuous
 62
     4
370
     9
100
AcDbLine
 10
-247.5789301660512
 20
94.58227174458649
 30
0.0
 11
-247.7632445550768
 21
94.33800563224828
 31
0.0
  0
LINE
  5
2A5
330
1F
100
AcDbEntity
  8
A-3
  6
Continuous
 62
     4
370
     9
100
AcDbLine
 10
-247.7632445550768
 20
94.33800563224828
 30
0.0
 11
-247.9307130053218
 21
94.0863074880938
 31
0.0
  0
LINE
  5
2A6
330
1F
100
AcDbEntity
  8
A-3
  6
Continuous
 62
     4
370
     9
100
AcDbLine
 10
-247.9307130053218
 20
94.0863074880938
 30
0.0
 11
-248.0704352034542
 21
93.82222262424627
 31
0.0
  0
LINE
  5
2A7
330
1F
100
AcDbEntity
  8
A-3
  6
Continuous
 62
     4
370
     9
100
AcDbLine
 10
-248.0704352034542
 20
93.82222262424627
 30
0.0
 11
-248.1348461458566
 21
93.66119526824242
 31
0.0
  0
LINE
  5
2A8
330
1F
100
AcDbEntity
  8
A-3
  6
Continuous
 62
     4
370
     9
100
AcDbLine
 10
-248.1348461458566
 20
93.66119526824242
 30
0.0
 11
-248.1477283343366
 21
93.62205323401419
 31
0.0
  0
LINE
  5
2A9
330
1F
100
AcDbEntity
  8
A-3
  6
Continuous
 62
     4
370
     9
100
AcDbLine
 10
-248.1477283343366
 20
93.62205323401419
 30
0.0
 11
-248.1695289609962
 21
93.55268760373498
 31
0.0
  0
LINE
  5
2AA
330
1F
100
AcDbEntity
  8
A-3
  6
Continuous
 62
     4
370
     9
100
AcDbLine
 10
-248.1695289609962
 20
93.55268760373498
 30
0.0
 11
-248.188356774927
 21
93.48332197345691
 31
0.0
  0
LINE
  5
2AB
330
1F
100
AcDbEntity
  8
A-3
  6
Continuous
 62
     4
370
     9
100
AcDbLine
 10
-248.188356774927
 20
93.48332197345691
 30
0.0
 11
-248.2081755264363
 21
93.41296540560258
 31
0.0
  0
LINE
  5
2AC
330
1F
100
AcDbEntity
  8
A-3
  6
Continuous
 62
     4
370
     9
100
AcDbLine
 10
-247.4679451576054
 20
93.47242166012713
 30
0.0
 11
-247.5789301660512
 21
93.33220399320659
 31
0.0
  0
LINE
  5
2AD
330
1F
100
AcDbEntity
  8
A-3
  6
Continuous
 62
     4
370
     9
100
AcDbLine
 10
-247.5789301660512
 20
93.33220399320659
 30
0.0
 11
-247.7632445550768
 21
93.08793788086724
 31
0.0
  0
LINE
  5
2AE
330
1F
100
AcDbEntity
  8
A-3
  6
Continuous
 62
     4
370
     9
100
AcDbLine
 10
-247.7632445550768
 20
93.08793788086724
 30
0.0
 11
-247.9307130053218
 21
92.83623973671389
 31
0.0
  0
LINE
  5
2AF
330
1F
100
AcDbEntity
  8
A-3
  6
Continuous
 62
     4
370
     9
100
AcDbLine
 10
-247.9307130053218
 20
92.83623973671389
 30
0.0
 11
-248.0704352034542
 21
92.57215487286636
 31
0.0
  0
LINE
  5
2B0
330
1F
100
AcDbEntity
  8
A-3
  6
Continuous
 62
     4
370
     9
100
AcDbLine
 10
-248.0704352034542
 20
92.57215487286636
 30
0.0
 11
-248.1348461458566
 21
92.41112751686252
 31
0.0
  0
LINE
  5
2B1
330
1F
100
AcDbEntity
  8
A-3
  6
Continuous
 62
     4
370
     9
100
AcDbLine
 10
-248.1348461458566
 20
92.41112751686252
 30
0.0
 11
-248.1477283343366
 21
92.37149001384616
 31
0.0
  0
LINE
  5
2B2
330
1F
100
AcDbEntity
  8
A-3
  6
Continuous
 62
     4
370
     9
100
AcDbLine
 10
-248.1477283343366
 20
92.37149001384616
 30
0.0
 11
-248.1695289609962
 21
92.30261985235508
 31
0.0
  0
LINE
  5
2B3
330
1F
100
AcDbEntity
  8
A-3
  6
Continuous
 62
     4
370
     9
100
AcDbLine
 10
-248.1695289609962
 20
92.30261985235508
 30
0.0
 11
-248.188356774927
 21
92.23325422207701
 31
0.0
  0
LINE
  5
2B4
330
1F
100
AcDbEntity
  8
A-3
  6
Continuous
 62
     4
370
     9
100
AcDbLine
 10
-248.188356774927
 20
92.23325422207701
 30
0.0
 11
-248.2180849021898
 21
92.12276468241818
 31
0.0
  0
LINE
  5
2B5
330
1F
100
AcDbEntity
  8
A-3
  6
Continuous
 62
     4
370
     9
100
AcDbLine
 10
-245.4682331304281
 20
92.22235390874722
 30
0.0
 11
-245.4682331304281
 21
89.22229039919195
 31
0.0
  0
LINE
  5
2B6
330
1F
100
AcDbEntity
  8
A-3
  6
Continuous
 62
     4
370
     9
100
AcDbLine
 10
-247.4679451576054
 20
92.22235390874722
 30
0.0
 11
-247.4679451576054
 21
90.1285028119046
 31
0.0
  0
ARC
  5
2B7
330
1F
100
AcDbEntity
  8
A-3
  6
Continuous
 62
     4
370
     9
100
AcDbCircle
 10
-246.4680891440167
 20
96.42244282212324
 30
0.0
 40
0.3000001213063834
100
AcDbArc
 50
45.0
 51
135.0
  0
ARC
  5
2B8
330
1F
100
AcDbEntity
  8
A-3
  6
Continuous
 62
     4
370
     9
100
AcDbCircle
 10
-245.4612965673988
 20
91.91169497885632
 30
0.0
 40
2.810700080684712
100
AcDbArc
 50
74.66914367675783
 51
90.139892578125
  0
ARC
  5
2B9
330
1F
100
AcDbEntity
  8
A-3
  6
Continuous
 62
     4
370
     9
100
AcDbCircle
 10
-247.4748817206324
 20
91.91169497885632
 30
0.0
 40
2.810700080684712
100
AcDbArc
 50
89.86010742187501
 51
105.3308563232422
  0
ARC
  5
2BA
330
1F
100
AcDbEntity
  8
A-3
  6
Continuous
 62
     4
370
     9
100
AcDbCircle
 10
-245.4612965673988
 20
90.66162722747528
 30
0.0
 40
2.810700080684712
100
AcDbArc
 50
74.66914367675783
 51
90.139892578125
  0
ARC
  5
2BB
330
1F
100
AcDbEntity
  8
A-3
  6
Continuous
 62
     4
370
     9
100
AcDbCircle
 10
-247.4748817206324
 20
90.66162722747528
 30
0.0
 40
2.810700080684712
100
AcDbArc
 50
89.86010742187501
 51
105.3308563232422
  0
ARC
  5
2BC
330
1F
100
AcDbEntity
  8
A-3
  6
Continuous
 62
     4
370
     9
100
AcDbCircle
 10
-247.4748817206324
 20
89.41155947609538
 30
0.0
 40
2.810700080684712
100
AcDbArc
 50
89.86010742187501
 51
105.3308563232422
  0
ARC
  5
2BD
330
1F
100
AcDbEntity
  8
A-3
  6
Continuous
 62
     4
370
     9
100
AcDbCircle
 10
-245.4612965673988
 20
89.41155947609538
 30
0.0
 40
2.810700080684712
100
AcDbArc
 50
74.66914367675783
 51
90.139892578125
  0
LINE
  5
2BE
330
1F
100
AcDbEntity
  8
A-3
  6
Continuous
 62
     4
370
     9
100
AcDbLine
 10
-245.4682331304281
 20
89.22229039919195
 30
0.0
 11
-239.1440152674642
 21
75.62072393731376
 31
0.0
  0
LINE
  5
2BF
330
1F
100
AcDbEntity
  8
A-3
  6
Continuous
 62
     4
370
     9
100
AcDbLine
 10
-239.1440152674642
 20
75.62072393731376
 30
0.0
 11
-239.8686084054629
 21
75.28330000230972
 31
0.0
  0
LINE
  5
2C0
330
1F
100
AcDbEntity
  8
A-3
  6
Continuous
 62
     4
370
     9
100
AcDbLine
 10
-246.9337537575728
 20
74.36263448294119
 30
0.0
 11
-246.9179748032531
 21
74.4317452800785
 31
0.0
  0
LINE
  5
2C1
330
1F
100
AcDbEntity
  8
A-3
  6
Continuous
 62
     4
370
     9
100
AcDbLine
 10
-246.9615398575735
 20
74.24378402181424
 30
0.0
 11
-246.9337537575728
 21
74.36263448294119
 31
0.0
  0
LINE
  5
2C2
330
1F
100
AcDbEntity
  8
A-3
  6
Continuous
 62
     4
370
     9
100
AcDbLine
 10
-246.990939864092
 20
74.12578379863538
 30
0.0
 11
-246.9615398575735
 21
74.24378402181424
 31
0.0
  0
LINE
  5
2C3
330
1F
100
AcDbEntity
  8
A-3
  6
Continuous
 62
     4
370
     9
100
AcDbLine
 10
-247.0229752369488
 20
74.00917193868841
 30
0.0
 11
-246.990939864092
 21
74.12578379863538
 31
0.0
  0
LINE
  5
2C4
330
1F
100
AcDbEntity
  8
A-3
  6
Continuous
 62
     4
370
     9
100
AcDbLine
 10
-247.0586674359669
 20
73.89448656725682
 30
0.0
 11
-247.0229752369488
 21
74.00917193868841
 31
0.0
  0
LINE
  5
2C5
330
1F
100
AcDbEntity
  8
A-3
  6
Continuous
 62
     4
370
     9
100
AcDbLine
 10
-247.0990379209655
 20
73.78226580962439
 30
0.0
 11
-247.0586674359669
 21
73.89448656725682
 31
0.0
  0
LINE
  5
2C6
330
1F
100
AcDbEntity
  8
A-3
  6
Continuous
 62
     4
370
     9
100
AcDbLine
 10
-247.1249989011875
 20
73.71851910558453
 30
0.0
 11
-247.0990379209655
 21
73.78226580962439
 31
0.0
  0
LINE
  5
2C7
330
1F
100
AcDbEntity
  8
A-3
  6
Continuous
 62
     4
370
     9
100
AcDbLine
 10
-247.1930845260755
 20
73.57486263877183
 30
0.0
 11
-247.1249989011875
 21
73.71851910558453
 31
0.0
  0
LINE
  5
2C8
330
1F
100
AcDbEntity
  8
A-3
  6
Continuous
 62
     4
370
     9
100
AcDbLine
 10
-247.33407579127
 20
73.33961321206579
 30
0.0
 11
-247.1930845260755
 21
73.57486263877183
 31
0.0
  0
LINE
  5
2C9
330
1F
100
AcDbEntity
  8
A-3
  6
Continuous
 62
     4
370
     9
100
AcDbLine
 10
-247.5002202433569
 20
73.11761498286094
 30
0.0
 11
-247.33407579127
 21
73.33961321206579
 31
0.0
  0
LINE
  5
2CA
330
1F
100
AcDbEntity
  8
A-3
  6
Continuous
 62
     4
370
     9
100
AcDbLine
 10
-247.6860259201311
 20
72.90597467659359
 30
0.0
 11
-247.5002202433569
 21
73.11761498286094
 31
0.0
  0
LINE
  5
2CB
330
1F
100
AcDbEntity
  8
A-3
  6
Continuous
 62
     4
370
     9
100
AcDbLine
 10
-247.8860008593932
 20
72.70179901870014
 30
0.0
 11
-247.6860259201311
 21
72.90597467659359
 31
0.0
  0
LINE
  5
2CC
330
1F
100
AcDbEntity
  8
A-3
  6
Continuous
 62
     4
370
     9
100
AcDbLine
 10
-248.0946530989348
 20
72.50219473461704
 30
0.0
 11
-247.8860008593932
 21
72.70179901870014
 31
0.0
  0
LINE
  5
2CD
330
1F
100
AcDbEntity
  8
A-3
  6
Continuous
 62
     4
370
     9
100
AcDbLine
 10
-248.2174832181687
 20
72.38737875270053
 30
0.0
 11
-248.0946530989348
 21
72.50219473461704
 31
0.0
  0
LINE
  5
2CE
330
1F
100
AcDbEntity
  8
A-3
  6
Continuous
 62
     4
370
     9
100
AcDbLine
 10
-246.0182034847804
 20
74.4317452800785
 30
0.0
 11
-246.0024245304606
 21
74.50085607721581
 31
0.0
  0
LINE
  5
2CF
330
1F
100
AcDbEntity
  8
A-3
  6
Continuous
 62
     4
370
     9
100
AcDbLine
 10
-246.0459895847811
 20
74.31289481895155
 30
0.0
 11
-246.0182034847804
 21
74.4317452800785
 31
0.0
  0
LINE
  5
2D0
330
1F
100
AcDbEntity
  8
A-3
  6
Continuous
 62
     4
370
     9
100
AcDbLine
 10
-246.0753895912995
 20
74.1948945957727
 30
0.0
 11
-246.0459895847811
 21
74.31289481895155
 31
0.0
  0
LINE
  5
2D1
330
1F
100
AcDbEntity
  8
A-3
  6
Continuous
 62
     4
370
     9
100
AcDbLine
 10
-246.1074249641564
 20
74.07828273582558
 30
0.0
 11
-246.0753895912995
 21
74.1948945957727
 31
0.0
  0
LINE
  5
2D2
330
1F
100
AcDbEntity
  8
A-3
  6
Continuous
 62
     4
370
     9
100
AcDbLine
 10
-246.1431171631733
 20
73.96359736439399
 30
0.0
 11
-246.1074249641564
 21
74.07828273582572
 31
0.0
  0
LINE
  5
2D3
330
1F
100
AcDbEntity
  8
A-3
  6
Continuous
 62
     4
370
     9
100
AcDbLine
 10
-246.1834876481731
 20
73.85137660676156
 30
0.0
 11
-246.1431171631733
 21
73.96359736439399
 31
0.0
  0
LINE
  5
2D4
330
1F
100
AcDbEntity
  8
A-3
  6
Continuous
 62
     4
370
     9
100
AcDbLine
 10
-246.2094486283939
 20
73.78762990272185
 30
0.0
 11
-246.1834876481731
 21
73.85137660676156
 31
0.0
  0
LINE
  5
2D5
330
1F
100
AcDbEntity
  8
A-3
  6
Continuous
 62
     4
370
     9
100
AcDbLine
 10
-246.2775342532831
 20
73.643973435909
 30
0.0
 11
-246.2094486283939
 21
73.7876299027217
 31
0.0
  0
LINE
  5
2D6
330
1F
100
AcDbEntity
  8
A-3
  6
Continuous
 62
     4
370
     9
100
AcDbLine
 10
-246.4185255184765
 20
73.4087240092031
 30
0.0
 11
-246.2775342532831
 21
73.643973435909
 31
0.0
  0
LINE
  5
2D7
330
1F
100
AcDbEntity
  8
A-3
  6
Continuous
 62
     4
370
     9
100
AcDbLine
 10
-246.5846699705634
 20
73.18672577999826
 30
0.0
 11
-246.4185255184765
 21
73.4087240092031
 31
0.0
  0
LINE
  5
2D8
330
1F
100
AcDbEntity
  8
A-3
  6
Continuous
 62
     4
370
     9
100
AcDbLine
 10
-246.7704756473398
 20
72.97508547373076
 30
0.0
 11
-246.5846699705634
 21
73.18672577999826
 31
0.0
  0
LINE
  5
2D9
330
1F
100
AcDbEntity
  8
A-3
  6
Continuous
 62
     4
370
     9
100
AcDbLine
 10
-246.9704505865997
 20
72.77090981583746
 30
0.0
 11
-246.7704756473398
 21
72.97508547373076
 31
0.0
  0
LINE
  5
2DA
330
1F
100
AcDbEntity
  8
A-3
  6
Continuous
 62
     4
370
     9
100
AcDbLine
 10
-247.1791028261435
 20
72.57130553175435
 30
0.0
 11
-246.9704505865997
 21
72.77090981583746
 31
0.0
  0
LINE
  5
2DB
330
1F
100
AcDbEntity
  8
A-3
  6
Continuous
 62
     4
370
     9
100
AcDbLine
 10
-247.3019329453763
 20
72.45648954983784
 30
0.0
 11
-247.1791028261435
 21
72.57130553175435
 31
0.0
  0
LINE
  5
2DC
330
1F
100
AcDbEntity
  8
A-3
  6
Continuous
 62
     4
370
     9
100
AcDbLine
 10
-247.318912030785
 20
-16.86485029899466
 30
0.0
 11
-247.318912030785
 21
72.45648954983784
 31
0.0
  0
LINE
  5
2DD
330
1F
100
AcDbEntity
  8
A-3
  6
Continuous
 62
     4
370
     9
100
AcDbLine
 10
-248.2179235785739
 20
-17.01896726878069
 30
0.0
 11
-248.2179235785739
 21
72.38737875270053
 31
0.0
  0
LINE
  5
2DE
330
1F
100
AcDbEntity
  8
A-3
  6
Continuous
 62
     4
370
     9
100
AcDbLine
 10
350.984223531764
 20
-75.5481399264597
 30
0.0
 11
350.4821886812616
 21
-61.36880386454011
 31
0.0
  0
LINE
  5
2DF
330
1F
100
AcDbEntity
  8
A-3
  6
Continuous
 62
     4
370
     9
100
AcDbLine
 10
351.7822235317638
 20
-75.5481399264597
 30
0.0
 11
351.2801886812613
 21
-61.13032750722198
 31
0.0
  0
LINE
  5
2E0
330
1F
100
AcDbEntity
  8
A-3
  6
Continuous
 62
     4
370
     9
100
AcDbLine
 10
350.984223531764
 20
-75.5481399264597
 30
0.0
 11
351.7822235317638
 21
-75.5481399264597
 31
0.0
  0
LINE
  5
2E1
330
1F
100
AcDbEntity
  8
A-3
  6
Continuous
 62
     4
370
     9
100
AcDbLine
 10
349.5824173627889
 20
-75.5682547199215
 30
0.0
 11
349.5824173627889
 21
-61.4926848699804
 31
0.0
  0
LINE
  5
2E2
330
1F
100
AcDbEntity
  8
A-3
  6
Continuous
 62
     4
370
     9
100
AcDbLine
 10
349.5824173627889
 20
-61.4926848699804
 30
0.0
 11
343.4328222834714
 21
-74.71669999769043
 31
0.0
  0
LINE
  5
2E3
330
1F
100
AcDbEntity
  8
A-3
  6
Continuous
 62
     4
370
     9
100
AcDbLine
 10
351.2801886812613
 20
-61.13032750722198
 30
0.0
 11
351.0321590356139
 21
-59.87149718809548
 31
0.0
  0
LINE
  5
2E4
330
1F
100
AcDbEntity
  8
A-3
  6
Continuous
 62
     4
370
     9
100
AcDbLine
 10
350.4821886812616
 20
-75.5682547199215
 30
0.0
 11
350.4821886812616
 21
-61.36880386454011
 31
0.0
  0
LINE
  5
2E5
330
1F
100
AcDbEntity
  8
A-3
  6
Continuous
 62
     4
370
     9
100
AcDbLine
 10
349.8202423808871
 20
-53.36549653673871
 30
0.0
 11
349.0324470084366
 21
-54.15329190919039
 31
0.0
  0
LINE
  5
2E6
330
1F
100
AcDbEntity
  8
A-3
  6
Continuous
 62
     4
370
     9
100
AcDbLine
 10
350.2443636631611
 20
-53.36549653673871
 30
0.0
 11
351.0321590356139
 21
-54.15329190919039
 31
0.0
  0
LINE
  5
2E7
330
1F
100
AcDbEntity
  8
A-3
  6
Continuous
 62
     4
370
     9
100
AcDbLine
 10
349.0324470084366
 20
-54.15329190919039
 30
0.0
 11
348.9383079387713
 21
-54.2613041049097
 31
0.0
  0
LINE
  5
2E8
330
1F
100
AcDbEntity
  8
A-3
  6
Continuous
 62
     4
370
     9
100
AcDbLine
 10
348.9383079387713
 20
-54.2613041049097
 30
0.0
 11
348.7807488642821
 21
-54.45057318181313
 31
0.0
  0
LINE
  5
2E9
330
1F
100
AcDbEntity
  8
A-3
  6
Continuous
 62
     4
370
     9
100
AcDbLine
 10
348.7807488642821
 20
-54.45057318181313
 30
0.0
 11
348.6330991655441
 21
-54.64479694659332
 31
0.0
  0
LINE
  5
2EA
330
1F
100
AcDbEntity
  8
A-3
  6
Continuous
 62
     4
370
     9
100
AcDbLine
 10
348.6330991655441
 20
-54.64479694659332
 30
0.0
 11
348.5032863431675
 21
-54.84893008712817
 31
0.0
  0
LINE
  5
2EB
330
1F
100
AcDbEntity
  8
A-3
  6
Continuous
 62
     4
370
     9
100
AcDbLine
 10
348.5032863431675
 20
-54.84893008712817
 30
0.0
 11
348.4388754007651
 21
-54.97279728405403
 31
0.0
  0
LINE
  5
2EC
330
1F
100
AcDbEntity
  8
A-3
  6
Continuous
 62
     4
370
     9
100
AcDbLine
 10
348.4388754007651
 20
-54.97279728405403
 30
0.0
 11
348.413111023805
 21
-55.02729885070182
 31
0.0
  0
LINE
  5
2ED
330
1F
100
AcDbEntity
  8
A-3
  6
Continuous
 62
     4
370
     9
100
AcDbLine
 10
348.413111023805
 20
-55.02729885070182
 30
0.0
 11
348.3734735207887
 21
-55.12341979551736
 31
0.0
  0
LINE
  5
2EE
330
1F
100
AcDbEntity
  8
A-3
  6
Continuous
 62
     4
370
     9
100
AcDbLine
 10
348.3734735207887
 20
-55.12341979551736
 30
0.0
 11
348.3368088304965
 21
-55.22102714669501
 31
0.0
  0
LINE
  5
2EF
330
1F
100
AcDbEntity
  8
A-3
  6
Continuous
 62
     4
370
     9
100
AcDbLine
 10
348.3368088304965
 20
-55.22102714669501
 30
0.0
 11
348.3021260153592
 21
-55.32012090423593
 31
0.0
  0
LINE
  5
2F0
330
1F
100
AcDbEntity
  8
A-3
  6
Continuous
 62
     4
370
     9
100
AcDbLine
 10
348.3021260153592
 20
-55.32012090423593
 30
0.0
 11
348.2823072638499
 21
-55.37759528360909
 31
0.0
  0
LINE
  5
2F1
330
1F
100
AcDbEntity
  8
A-3
  6
Continuous
 62
     4
370
     9
100
AcDbLine
 10
351.0321590356139
 20
-54.15329190919039
 30
0.0
 11
351.1262981052769
 21
-54.2613041049097
 31
0.0
  0
LINE
  5
2F2
330
1F
100
AcDbEntity
  8
A-3
  6
Continuous
 62
     4
370
     9
100
AcDbLine
 10
351.1262981052769
 20
-54.2613041049097
 30
0.0
 11
351.2848481173424
 21
-54.45057318181313
 31
0.0
  0
LINE
  5
2F3
330
1F
100
AcDbEntity
  8
A-3
  6
Continuous
 62
     4
370
     9
100
AcDbLine
 10
351.2848481173424
 20
-54.45057318181313
 30
0.0
 11
351.4315068785041
 21
-54.64479694659332
 31
0.0
  0
LINE
  5
2F4
330
1F
100
AcDbEntity
  8
A-3
  6
Continuous
 62
     4
370
     9
100
AcDbLine
 10
351.4315068785041
 20
-54.64479694659332
 30
0.0
 11
351.5623106384569
 21
-54.84893008712817
 31
0.0
  0
LINE
  5
2F5
330
1F
100
AcDbEntity
  8
A-3
  6
Continuous
 62
     4
370
     9
100
AcDbLine
 10
351.5623106384569
 20
-54.84893008712817
 30
0.0
 11
351.6267215808594
 21
-54.97279728405403
 31
0.0
  0
LINE
  5
2F6
330
1F
100
AcDbEntity
  8
A-3
  6
Continuous
 62
     4
370
     9
100
AcDbLine
 10
351.6267215808594
 20
-54.97279728405403
 30
0.0
 11
351.6514950202455
 21
-55.02729885070182
 31
0.0
  0
LINE
  5
2F7
330
1F
100
AcDbEntity
  8
A-3
  6
Continuous
 62
     4
370
     9
100
AcDbLine
 10
351.6514950202455
 20
-55.02729885070182
 30
0.0
 11
351.6911325232618
 21
-55.12341979551736
 31
0.0
  0
LINE
  5
2F8
330
1F
100
AcDbEntity
  8
A-3
  6
Continuous
 62
     4
370
     9
100
AcDbLine
 10
351.6911325232618
 20
-55.12341979551736
 30
0.0
 11
351.7287881511257
 21
-55.22102714669501
 31
0.0
  0
LINE
  5
2F9
330
1F
100
AcDbEntity
  8
A-3
  6
Continuous
 62
     4
370
     9
100
AcDbLine
 10
351.7287881511257
 20
-55.22102714669501
 30
0.0
 11
351.7624800286913
 21
-55.32012090423593
 31
0.0
  0
LINE
  5
2FA
330
1F
100
AcDbEntity
  8
A-3
  6
Continuous
 62
     4
370
     9
100
AcDbLine
 10
349.0324470084366
 20
-55.27800605728118
 30
0.0
 11
348.9224529375647
 21
-55.41772825541359
 31
0.0
  0
LINE
  5
2FB
330
1F
100
AcDbEntity
  8
A-3
  6
Continuous
 62
     4
370
     9
100
AcDbLine
 10
348.9224529375647
 20
-55.41772825541359
 30
0.0
 11
348.7381385485392
 21
-55.6619943677518
 31
0.0
  0
LINE
  5
2FC
330
1F
100
AcDbEntity
  8
A-3
  6
Continuous
 62
     4
370
     9
100
AcDbLine
 10
348.7381385485392
 20
-55.6619943677518
 30
0.0
 11
348.569679160718
 21
-55.91369251190628
 31
0.0
  0
LINE
  5
2FD
330
1F
100
AcDbEntity
  8
A-3
  6
Continuous
 62
     4
370
     9
100
AcDbLine
 10
348.569679160718
 20
-55.91369251190628
 30
0.0
 11
348.4309479001618
 21
-56.17777737575381
 31
0.0
  0
LINE
  5
2FE
330
1F
100
AcDbEntity
  8
A-3
  6
Continuous
 62
     4
370
     9
100
AcDbLine
 10
348.4309479001618
 20
-56.17777737575381
 30
0.0
 11
348.3655460201854
 21
-56.33880473175766
 31
0.0
  0
LINE
  5
2FF
330
1F
100
AcDbEntity
  8
A-3
  6
Continuous
 62
     4
370
     9
100
AcDbLine
 10
348.3655460201854
 20
-56.33880473175766
 30
0.0
 11
348.3526638317031
 21
-56.37794676598589
 31
0.0
  0
LINE
  5
300
330
1F
100
AcDbEntity
  8
A-3
  6
Continuous
 62
     4
370
     9
100
AcDbLine
 10
348.3526638317031
 20
-56.37794676598589
 30
0.0
 11
348.3318541426198
 21
-56.4473123962651
 31
0.0
  0
LINE
  5
301
330
1F
100
AcDbEntity
  8
A-3
  6
Continuous
 62
     4
370
     9
100
AcDbLine
 10
348.3318541426198
 20
-56.4473123962651
 30
0.0
 11
348.3120353911127
 21
-56.51667802654317
 31
0.0
  0
LINE
  5
302
330
1F
100
AcDbEntity
  8
A-3
  6
Continuous
 62
     4
370
     9
100
AcDbLine
 10
348.3120353911127
 20
-56.51667802654317
 30
0.0
 11
348.2932075771797
 21
-56.5870345943975
 31
0.0
  0
LINE
  5
303
330
1F
100
AcDbEntity
  8
A-3
  6
Continuous
 62
     4
370
     9
100
AcDbLine
 10
348.2932075771797
 20
-56.5870345943975
 30
0.0
 11
348.2823072638499
 21
-56.62766303498899
 31
0.0
  0
LINE
  5
304
330
1F
100
AcDbEntity
  8
A-3
  6
Continuous
 62
     4
370
     9
100
AcDbLine
 10
349.0324470084366
 20
-56.52757833987295
 30
0.0
 11
348.9224529375647
 21
-56.66779600679349
 31
0.0
  0
LINE
  5
305
330
1F
100
AcDbEntity
  8
A-3
  6
Continuous
 62
     4
370
     9
100
AcDbLine
 10
348.9224529375647
 20
-56.66779600679349
 30
0.0
 11
348.7381385485392
 21
-56.91206211913283
 31
0.0
  0
LINE
  5
306
330
1F
100
AcDbEntity
  8
A-3
  6
Continuous
 62
     4
370
     9
100
AcDbLine
 10
348.7381385485392
 20
-56.91206211913283
 30
0.0
 11
348.569679160718
 21
-57.16376026328619
 31
0.0
  0
LINE
  5
307
330
1F
100
AcDbEntity
  8
A-3
  6
Continuous
 62
     4
370
     9
100
AcDbLine
 10
348.569679160718
 20
-57.16376026328619
 30
0.0
 11
348.4309479001618
 21
-57.42784512713371
 31
0.0
  0
LINE
  5
308
330
1F
100
AcDbEntity
  8
A-3
  6
Continuous
 62
     4
370
     9
100
AcDbLine
 10
348.4309479001618
 20
-57.42784512713371
 30
0.0
 11
348.3655460201854
 21
-57.58887248313756
 31
0.0
  0
LINE
  5
309
330
1F
100
AcDbEntity
  8
A-3
  6
Continuous
 62
     4
370
     9
100
AcDbLine
 10
348.3655460201854
 20
-57.58887248313756
 30
0.0
 11
348.3526638317031
 21
-57.62850998615392
 31
0.0
  0
LINE
  5
30A
330
1F
100
AcDbEntity
  8
A-3
  6
Continuous
 62
     4
370
     9
100
AcDbLine
 10
348.3526638317031
 20
-57.62850998615392
 30
0.0
 11
348.3318541426198
 21
-57.697380147645
 31
0.0
  0
LINE
  5
30B
330
1F
100
AcDbEntity
  8
A-3
  6
Continuous
 62
     4
370
     9
100
AcDbLine
 10
348.3318541426198
 20
-57.697380147645
 30
0.0
 11
348.3120353911127
 21
-57.76674577792307
 31
0.0
  0
LINE
  5
30C
330
1F
100
AcDbEntity
  8
A-3
  6
Continuous
 62
     4
370
     9
100
AcDbLine
 10
348.3120353911127
 20
-57.76674577792307
 30
0.0
 11
348.2932075771797
 21
-57.8371023457774
 31
0.0
  0
LINE
  5
30D
330
1F
100
AcDbEntity
  8
A-3
  6
Continuous
 62
     4
370
     9
100
AcDbLine
 10
348.2932075771797
 20
-57.8371023457774
 30
0.0
 11
348.2823072638499
 21
-57.87773078637003
 31
0.0
  0
LINE
  5
30E
330
1F
100
AcDbEntity
  8
A-3
  6
Continuous
 62
     4
370
     9
100
AcDbLine
 10
351.0321590356139
 20
-55.27800605728118
 30
0.0
 11
351.1431440440597
 21
-55.41772825541359
 31
0.0
  0
LINE
  5
30F
330
1F
100
AcDbEntity
  8
A-3
  6
Continuous
 62
     4
370
     9
100
AcDbLine
 10
351.1431440440597
 20
-55.41772825541359
 30
0.0
 11
351.3274584330853
 21
-55.6619943677518
 31
0.0
  0
LINE
  5
310
330
1F
100
AcDbEntity
  8
A-3
  6
Continuous
 62
     4
370
     9
100
AcDbLine
 10
351.3274584330853
 20
-55.6619943677518
 30
0.0
 11
351.4949268833303
 21
-55.91369251190628
 31
0.0
  0
LINE
  5
311
330
1F
100
AcDbEntity
  8
A-3
  6
Continuous
 62
     4
370
     9
100
AcDbLine
 10
351.4949268833303
 20
-55.91369251190628
 30
0.0
 11
351.6346490814627
 21
-56.17777737575381
 31
0.0
  0
LINE
  5
312
330
1F
100
AcDbEntity
  8
A-3
  6
Continuous
 62
     4
370
     9
100
AcDbLine
 10
351.6346490814627
 20
-56.17777737575381
 30
0.0
 11
351.6990600238651
 21
-56.33880473175766
 31
0.0
  0
LINE
  5
313
330
1F
100
AcDbEntity
  8
A-3
  6
Continuous
 62
     4
370
     9
100
AcDbLine
 10
351.6990600238651
 20
-56.33880473175766
 30
0.0
 11
351.7119422123451
 21
-56.37794676598589
 31
0.0
  0
LINE
  5
314
330
1F
100
AcDbEntity
  8
A-3
  6
Continuous
 62
     4
370
     9
100
AcDbLine
 10
351.7119422123451
 20
-56.37794676598589
 30
0.0
 11
351.7337428390047
 21
-56.4473123962651
 31
0.0
  0
LINE
  5
315
330
1F
100
AcDbEntity
  8
A-3
  6
Continuous
 62
     4
370
     9
100
AcDbLine
 10
351.7337428390047
 20
-56.4473123962651
 30
0.0
 11
351.7525706529355
 21
-56.51667802654317
 31
0.0
  0
LINE
  5
316
330
1F
100
AcDbEntity
  8
A-3
  6
Continuous
 62
     4
370
     9
100
AcDbLine
 10
351.7525706529355
 20
-56.51667802654317
 30
0.0
 11
351.7723894044448
 21
-56.5870345943975
 31
0.0
  0
LINE
  5
317
330
1F
100
AcDbEntity
  8
A-3
  6
Continuous
 62
     4
370
     9
100
AcDbLine
 10
351.0321590356139
 20
-56.52757833987295
 30
0.0
 11
351.1431440440597
 21
-56.66779600679349
 31
0.0
  0
LINE
  5
318
330
1F
100
AcDbEntity
  8
A-3
  6
Continuous
 62
     4
370
     9
100
AcDbLine
 10
351.1431440440597
 20
-56.66779600679349
 30
0.0
 11
351.3274584330853
 21
-56.91206211913283
 31
0.0
  0
LINE
  5
319
330
1F
100
AcDbEntity
  8
A-3
  6
Continuous
 62
     4
370
     9
100
AcDbLine
 10
351.3274584330853
 20
-56.91206211913283
 30
0.0
 11
351.4949268833303
 21
-57.16376026328619
 31
0.0
  0
LINE
  5
31A
330
1F
100
AcDbEntity
  8
A-3
  6
Continuous
 62
     4
370
     9
100
AcDbLine
 10
351.4949268833303
 20
-57.16376026328619
 30
0.0
 11
351.6346490814627
 21
-57.42784512713371
 31
0.0
  0
LINE
  5
31B
330
1F
100
AcDbEntity
  8
A-3
  6
Continuous
 62
     4
370
     9
100
AcDbLine
 10
351.6346490814627
 20
-57.42784512713371
 30
0.0
 11
351.6990600238651
 21
-57.58887248313756
 31
0.0
  0
LINE
  5
31C
330
1F
100
AcDbEntity
  8
A-3
  6
Continuous
 62
     4
370
     9
100
AcDbLine
 10
351.6990600238651
 20
-57.58887248313756
 30
0.0
 11
351.7119422123451
 21
-57.62850998615392
 31
0.0
  0
LINE
  5
31D
330
1F
100
AcDbEntity
  8
A-3
  6
Continuous
 62
     4
370
     9
100
AcDbLine
 10
351.7119422123451
 20
-57.62850998615392
 30
0.0
 11
351.7337428390047
 21
-57.697380147645
 31
0.0
  0
LINE
  5
31E
330
1F
100
AcDbEntity
  8
A-3
  6
Continuous
 62
     4
370
     9
100
AcDbLine
 10
351.7337428390047
 20
-57.697380147645
 30
0.0
 11
351.7525706529355
 21
-57.76674577792307
 31
0.0
  0
LINE
  5
31F
330
1F
100
AcDbEntity
  8
A-3
  6
Continuous
 62
     4
370
     9
100
AcDbLine
 10
351.7525706529355
 20
-57.76674577792307
 30
0.0
 11
351.7822987801983
 21
-57.8772353175819
 31
0.0
  0
LINE
  5
320
330
1F
100
AcDbEntity
  8
A-3
  6
Continuous
 62
     4
370
     9
100
AcDbLine
 10
349.0324470084366
 20
-57.77764609125285
 30
0.0
 11
349.0324470084366
 21
-60.77770960080813
 31
0.0
  0
LINE
  5
321
330
1F
100
AcDbEntity
  8
A-3
  6
Continuous
 62
     4
370
     9
100
AcDbLine
 10
351.0321590356139
 20
-57.77764609125285
 30
0.0
 11
351.0321590356139
 21
-59.87149718809548
 31
0.0
  0
ARC
  5
322
330
1F
100
AcDbEntity
  8
A-3
  6
Continuous
 62
     4
370
     9
100
AcDbCircle
 10
350.0323030220252
 20
-53.57755717787683
 30
0.0
 40
0.3000001213063833
100
AcDbArc
 50
44.99999999999997
 51
135.0
  0
ARC
  5
323
330
1F
100
AcDbEntity
  8
A-3
  6
Continuous
 62
     4
370
     9
100
AcDbCircle
 10
349.0255104454073
 20
-58.08830502114376
 30
0.0
 40
2.810700080684713
100
AcDbArc
 50
89.86010742187501
 51
105.3308563232422
  0
ARC
  5
324
330
1F
100
AcDbEntity
  8
A-3
  6
Continuous
 62
     4
370
     9
100
AcDbCircle
 10
351.0390955986409
 20
-58.08830502114376
 30
0.0
 40
2.810700080684713
100
AcDbArc
 50
74.66914367675783
 51
90.139892578125
  0
ARC
  5
325
330
1F
100
AcDbEntity
  8
A-3
  6
Continuous
 62
     4
370
     9
100
AcDbCircle
 10
349.0255104454073
 20
-59.3383727725248
 30
0.0
 40
2.810700080684713
100
AcDbArc
 50
89.86010742187501
 51
105.3308563232422
  0
ARC
  5
326
330
1F
100
AcDbEntity
  8
A-3
  6
Continuous
 62
     4
370
     9
100
AcDbCircle
 10
351.0390955986409
 20
-59.3383727725248
 30
0.0
 40
2.810700080684713
100
AcDbArc
 50
74.66914367675783
 51
90.139892578125
  0
ARC
  5
327
330
1F
100
AcDbEntity
  8
A-3
  6
Continuous
 62
     4
370
     9
100
AcDbCircle
 10
351.0390955986409
 20
-60.5884405239047
 30
0.0
 40
2.810700080684713
100
AcDbArc
 50
74.66914367675783
 51
90.139892578125
  0
ARC
  5
328
330
1F
100
AcDbEntity
  8
A-3
  6
Continuous
 62
     4
370
     9
100
AcDbCircle
 10
349.0255104454073
 20
-60.5884405239047
 30
0.0
 40
2.810700080684713
100
AcDbArc
 50
89.86010742187501
 51
105.3308563232422
  0
LINE
  5
329
330
1F
100
AcDbEntity
  8
A-3
  6
Continuous
 62
     4
370
     9
100
AcDbLine
 10
349.0324470084366
 20
-60.77770960080813
 30
0.0
 11
342.7082291454727
 21
-74.37927606268639
 31
0.0
  0
LINE
  5
32A
330
1F
100
AcDbEntity
  8
A-3
  6
Continuous
 62
     4
370
     9
100
AcDbLine
 10
342.7082291454727
 20
-74.37927606268639
 30
0.0
 11
343.4328222834714
 21
-74.71669999769043
 31
0.0
  0
LINE
  5
32B
330
1F
100
AcDbEntity
  8
A-3
  6
Continuous
 62
     4
370
     9
100
AcDbLine
 10
349.5824173627889
 20
-75.5682547199215
 30
0.0
 11
349.5666384084691
 21
-75.49914392278433
 31
0.0
  0
LINE
  5
32C
330
1F
100
AcDbEntity
  8
A-3
  6
Continuous
 62
     4
370
     9
100
AcDbLine
 10
349.6102034627896
 20
-75.68710518104845
 30
0.0
 11
349.5824173627889
 21
-75.5682547199215
 31
0.0
  0
LINE
  5
32D
330
1F
100
AcDbEntity
  8
A-3
  6
Continuous
 62
     4
370
     9
100
AcDbLine
 10
349.639603469308
 20
-75.8051054042273
 30
0.0
 11
349.6102034627896
 21
-75.68710518104845
 31
0.0
  0
LINE
  5
32E
330
1F
100
AcDbEntity
  8
A-3
  6
Continuous
 62
     4
370
     9
100
AcDbLine
 10
349.6716388421649
 20
-75.92171726417442
 30
0.0
 11
349.639603469308
 21
-75.8051054042273
 31
0.0
  0
LINE
  5
32F
330
1F
100
AcDbEntity
  8
A-3
  6
Continuous
 62
     4
370
     9
100
AcDbLine
 10
349.7073310411818
 20
-76.03640263560615
 30
0.0
 11
349.6716388421649
 21
-75.92171726417442
 31
0.0
  0
LINE
  5
330
330
1F
100
AcDbEntity
  8
A-3
  6
Continuous
 62
     4
370
     9
100
AcDbLine
 10
349.7477015261816
 20
-76.14862339323858
 30
0.0
 11
349.7073310411818
 21
-76.03640263560615
 31
0.0
  0
LINE
  5
331
330
1F
100
AcDbEntity
  8
A-3
  6
Continuous
 62
     4
370
     9
100
AcDbLine
 10
349.7736625064024
 20
-76.2123700972783
 30
0.0
 11
349.7477015261816
 21
-76.14862339323858
 31
0.0
  0
LINE
  5
332
330
1F
100
AcDbEntity
  8
A-3
  6
Continuous
 62
     4
370
     9
100
AcDbLine
 10
349.8417481312916
 20
-76.35602656409114
 30
0.0
 11
349.7736625064024
 21
-76.2123700972783
 31
0.0
  0
LINE
  5
333
330
1F
100
AcDbEntity
  8
A-3
  6
Continuous
 62
     4
370
     9
100
AcDbLine
 10
349.982739396485
 20
-76.5912759907969
 30
0.0
 11
349.8417481312916
 21
-76.35602656409114
 31
0.0
  0
LINE
  5
334
330
1F
100
AcDbEntity
  8
A-3
  6
Continuous
 62
     4
370
     9
100
AcDbLine
 10
350.1488838485719
 20
-76.81327422000189
 30
0.0
 11
349.982739396485
 21
-76.5912759907969
 31
0.0
  0
LINE
  5
335
330
1F
100
AcDbEntity
  8
A-3
  6
Continuous
 62
     4
370
     9
100
AcDbLine
 10
350.3346895253483
 20
-77.02491452626938
 30
0.0
 11
350.1488838485719
 21
-76.81327422000189
 31
0.0
  0
LINE
  5
336
330
1F
100
AcDbEntity
  8
A-3
  6
Continuous
 62
     4
370
     9
100
AcDbLine
 10
350.5346644646082
 20
-77.22909018416269
 30
0.0
 11
350.3346895253483
 21
-77.02491452626938
 31
0.0
  0
LINE
  5
337
330
1F
100
AcDbEntity
  8
A-3
  6
Continuous
 62
     4
370
     9
100
AcDbLine
 10
350.7433167041521
 20
-77.42869446824565
 30
0.0
 11
350.5346644646082
 21
-77.22909018416269
 31
0.0
  0
LINE
  5
338
330
1F
100
AcDbEntity
  8
A-3
  6
Continuous
 62
     4
370
     9
100
AcDbLine
 10
350.8661468233848
 20
-77.5435104501623
 30
0.0
 11
350.7433167041521
 21
-77.42869446824565
 31
0.0
  0
LINE
  5
339
330
1F
100
AcDbEntity
  8
A-3
  6
Continuous
 62
     4
370
     9
100
AcDbLine
 10
350.4979676355813
 20
-75.63736551705895
 30
0.0
 11
350.4821886812616
 21
-75.5682547199215
 31
0.0
  0
LINE
  5
33A
330
1F
100
AcDbEntity
  8
A-3
  6
Continuous
 62
     4
370
     9
100
AcDbLine
 10
350.525753735582
 20
-75.7562159781859
 30
0.0
 11
350.4979676355813
 21
-75.63736551705895
 31
0.0
  0
LINE
  5
33B
330
1F
100
AcDbEntity
  8
A-3
  6
Continuous
 62
     4
370
     9
100
AcDbLine
 10
350.5551537421005
 20
-75.87421620136476
 30
0.0
 11
350.525753735582
 21
-75.7562159781859
 31
0.0
  0
LINE
  5
33C
330
1F
100
AcDbEntity
  8
A-3
  6
Continuous
 62
     4
370
     9
100
AcDbLine
 10
350.5871891149573
 20
-75.99082806131159
 30
0.0
 11
350.5551537421005
 21
-75.87421620136476
 31
0.0
  0
LINE
  5
33D
330
1F
100
AcDbEntity
  8
A-3
  6
Continuous
 62
     4
370
     9
100
AcDbLine
 10
350.6228813139754
 20
-76.10551343274332
 30
0.0
 11
350.5871891149573
 21
-75.99082806131159
 31
0.0
  0
LINE
  5
33E
330
1F
100
AcDbEntity
  8
A-3
  6
Continuous
 62
     4
370
     9
100
AcDbLine
 10
350.663251798974
 20
-76.21773419037575
 30
0.0
 11
350.6228813139754
 21
-76.10551343274332
 31
0.0
  0
LINE
  5
33F
330
1F
100
AcDbEntity
  8
A-3
  6
Continuous
 62
     4
370
     9
100
AcDbLine
 10
350.689212779196
 20
-76.28148089441547
 30
0.0
 11
350.663251798974
 21
-76.21773419037575
 31
0.0
  0
LINE
  5
340
330
1F
100
AcDbEntity
  8
A-3
  6
Continuous
 62
     4
370
     9
100
AcDbLine
 10
350.757298404084
 20
-76.42513736122831
 30
0.0
 11
350.689212779196
 21
-76.28148089441547
 31
0.0
  0
LINE
  5
341
330
1F
100
AcDbEntity
  8
A-3
  6
Continuous
 62
     4
370
     9
100
AcDbLine
 10
350.8982896692785
 20
-76.66038678793436
 30
0.0
 11
350.757298404084
 21
-76.42513736122831
 31
0.0
  0
LINE
  5
342
330
1F
100
AcDbEntity
  8
A-3
  6
Continuous
 62
     4
370
     9
100
AcDbLine
 10
351.0644341213654
 20
-76.88238501713906
 30
0.0
 11
350.8982896692785
 21
-76.66038678793436
 31
0.0
  0
LINE
  5
343
330
1F
100
AcDbEntity
  8
A-3
  6
Continuous
 62
     4
370
     9
100
AcDbLine
 10
351.2502397981396
 20
-77.09402532340656
 30
0.0
 11
351.0644341213654
 21
-76.88238501713906
 31
0.0
  0
LINE
  5
344
330
1F
100
AcDbEntity
  8
A-3
  6
Continuous
 62
     4
370
     9
100
AcDbLine
 10
351.4502147374017
 20
-77.29820098129986
 30
0.0
 11
351.2502397981396
 21
-77.09402532340656
 31
0.0
  0
LINE
  5
345
330
1F
100
AcDbEntity
  8
A-3
  6
Continuous
 62
     4
370
     9
100
AcDbLine
 10
351.6588669769433
 20
-77.4978052653831
 30
0.0
 11
351.4502147374017
 21
-77.29820098129986
 31
0.0
  0
LINE
  5
346
330
1F
100
AcDbEntity
  8
A-3
  6
Continuous
 62
     4
370
     9
100
AcDbLine
 10
351.7816970961772
 20
-77.61262124729947
 30
0.0
 11
351.6588669769433
 21
-77.4978052653831
 31
0.0
  0
ARC
  5
347
330
1F
100
AcDbEntity
  8
A-3
  6
Continuous
 62
     4
370
     9
100
AcDbCircle
 10
77.99784964118076
 20
95.74135333267968
 30
0.0
 40
345.1544880187806
100
AcDbArc
 50
199.0683109157663
 51
322.4876656564722
  0
LINE
  5
348
330
1F
100
AcDbEntity
  8
A-3
  6
Continuous
 62
     4
370
     9
100
AcDbLine
 10
351.7820764214261
 20
-114.4343297656504
 30
0.0
 11
351.7820764214261
 21
-77.69445596897648
 31
0.0
  0
LINE
  5
349
330
1F
100
AcDbEntity
  8
A-3
  6
Continuous
 62
     4
370
     9
100
AcDbLine
 10
350.868211703463
 20
-114.1465168005696
 30
0.0
 11
350.868211703463
 21
-77.5435104501623
 31
0.0
  0
LINE
  5
34A
330
1F
100
AcDbEntity
  8
A-4
  6
Continuous
 62
     7
370
     9
100
AcDbLine
 10
351.1035878700984
 20
76.42840881830159
 30
0.0
 11
422.4507354840779
 21
200.0052934608305
 31
0.0
  0
TEXT
  5
34B
330
1F
100
AcDbEntity
  8
A-4
  6
Continuous
 62
     2
370
     9
100
AcDbText
 10
-405.9518453027727
 20
373.5246868770899
 30
0.0
 40
15.24
  1
ドリルねじ　M4×16　@450
 41
1.119791666666667
  7
ＭＳ ゴシック
100
AcDbText
  0
LINE
  5
34C
330
1F
100
AcDbEntity
  8
A-4
  6
Continuous
 62
     7
370
     9
100
AcDbLine
 10
-136.2735094573405
 20
367.7964813487028
 30
0.0
 11
-412.1637892304813
 21
367.7964813487028
 31
0.0
  0
TEXT
  5
34D
330
1F
100
AcDbEntity
  8
A-4
  6
Continuous
 62
     2
370
     9
100
AcDbText
 10
-400.4456681977555
 20
349.2444275995059
 30
0.0
 40
15.24
  1
SUS
 41
1.083333333333333
  7
ＭＳ ゴシック
100
AcDbText
  0
TEXT
  5
34E
330
1F
100
AcDbEntity
  8
A-5
  6
Continuous
 62
     2
370
     9
100
AcDbText
 10
-561.8503175448975
 20
309.922554167016
 30
0.0
 40
15.24
  1
ガイドフレーム：SPHC
 41
1.11875
  7
ＭＳ ゴシック
100
AcDbText
  0
LINE
  5
34F
330
1F
100
AcDbEntity
  8
A-4
  6
Continuous
 62
     7
370
     9
100
AcDbLine
 10
-337.4409122478943
 20
305.4889028715495
 30
0.0
 11
-563.5086924593961
 21
305.4889028715495
 31
0.0
  0
TEXT
  5
350
330
1F
100
AcDbEntity
  8
A-5
  6
Continuous
 62
     2
370
     9
100
AcDbText
 10
-561.8503175448975
 20
284.2771121491051
 30
0.0
 40
15.24
  1
溶融亜鉛合金めっき
 41
1.111111111111111
  7
ＭＳ ゴシック
100
AcDbText
  0
TEXT
  5
351
330
1F
100
AcDbEntity
  8
A-4
  6
Continuous
 62
     2
370
     9
100
AcDbText
 10
-711.7947163149893
 20
-63.96034098021649
 30
0.0
 40
15.24
  1
軟質ポリ塩化ビニル
 41
1.111111111111108
  7
ＭＳ ゴシック
100
AcDbText
  0
TEXT
  5
352
330
1F
100
AcDbEntity
  8
A-4
  6
Continuous
 62
     2
370
     9
100
AcDbText
 10
-711.7947163149893
 20
-36.31975226507504
 30
0.0
 40
15.24
  1
パッキン
 41
1.09375
  7
ＭＳ ゴシック
100
AcDbText
  0
TEXT
  5
353
330
1F
100
AcDbEntity
  8
A-4
  6
Continuous
 62
     2
370
     9
100
AcDbText
 10
-638.8459972580966
 20
-119.5849945619743
 30
0.0
 40
15.24
  1
ナイロンプラグ　呼び８
 41
1.113636363636364
  7
ＭＳ ゴシック
100
AcDbText
  0
TEXT
  5
354
330
1F
100
AcDbEntity
  8
A-4
  6
Continuous
 62
     2
370
     9
100
AcDbText
 10
-466.6464462317657
 20
-289.7979607135305
 30
0.0
 40
15.24
  1
軟質ポリ塩化ビニル
 41
1.111111111111111
  7
ＭＳ ゴシック
100
AcDbText
  0
LINE
  5
355
330
1F
100
AcDbEntity
  8
A-4
  6
Continuous
 62
     7
370
     9
100
AcDbLine
 10
-261.2228664689604
 20
-267.23509492499
 30
0.0
 11
-476.5746820772742
 21
-267.23509492499
 31
0.0
  0
TEXT
  5
356
330
1F
100
AcDbEntity
  8
A-4
  6
Continuous
 62
     2
370
     9
100
AcDbText
 10
-466.6464462317657
 20
-260.650971213874
 30
0.0
 40
15.24
  1
補助シート：t=0.9
 41
1.117647058823529
  7
ＭＳ ゴシック
100
AcDbText
  0
LINE
  5
357
330
1F
100
AcDbEntity
  8
A-4
  6
Continuous
 62
     7
370
     9
100
AcDbLine
 10
88.91971255612235
 20
-57.00218126992475
 30
0.0
 11
-110.835640884916
 21
-57.00218126992475
 31
0.0
  0
TEXT
  5
358
330
1F
100
AcDbEntity
  8
A-4
  6
Continuous
 62
     2
370
     9
100
AcDbText
 10
-112.6155312072909
 20
-51.93880391068366
 30
0.0
 40
15.24
  1
シート受けフレーム
 41
1.111111111111111
  7
ＭＳ ゴシック
100
AcDbText
  0
TEXT
  5
359
330
1F
100
AcDbEntity
  8
A-4
  6
Continuous
 62
     2
370
     9
100
AcDbText
 10
-109.1374394316489
 20
-75.79022692977435
 30
0.0
 40
15.24
  1
A6063S
 41
1.104166666666667
  7
ＭＳ ゴシック
100
AcDbText
  0
TEXT
  5
35A
330
1F
100
AcDbEntity
  8
A-4
  6
Continuous
 62
     2
370
     9
100
AcDbText
 10
147.9327708904958
 20
-61.83598555049917
 30
0.0
 40
15.24
  1
スプリング
 41
1.1
  7
ＭＳ ゴシック
100
AcDbText
  0
LINE
  5
35B
330
1F
100
AcDbEntity
  8
A-4
  6
Continuous
 62
     7
370
     9
100
AcDbLine
 10
258.7757714723068
 20
-69.22948030032735
 30
0.0
 11
149.1300167551921
 21
-69.22948030032735
 31
0.0
  0
TEXT
  5
35C
330
1F
100
AcDbEntity
  8
A-4
  6
Continuous
 62
     2
370
     9
100
AcDbText
 10
149.271466210484
 20
-90.98297505015549
 30
0.0
 40
15.24
  1
SUS304WPB
 41
1.111111111111111
  7
ＭＳ ゴシック
100
AcDbText
  0
LINE
  5
35D
330
1F
100
AcDbEntity
  8
A-4
  6
Continuous
 62
     7
370
     9
100
AcDbLine
 10
217.2015990788915
 20
18.11907049043646
 30
0.0
 11
24.86766671756088
 21
18.11907049043646
 31
0.0
  0
TEXT
  5
35E
330
1F
100
AcDbEntity
  8
A-4
  6
Continuous
 62
     2
370
     9
100
AcDbText
 10
28.01269306961673
 20
26.20228129232241
 30
0.0
 40
15.24
  1
ホルダー　＠４５０
 41
1.111111111111111
  7
ＭＳ ゴシック
100
AcDbText
  0
TEXT
  5
35F
330
1F
100
AcDbEntity
  8
A-4
  6
Continuous
 62
     2
370
     9
100
AcDbText
 10
29.6161445257147
 20
-3.634424259391738
 30
0.0
 40
15.24
  1
A6063S､SUS304
 41
1.115384615384615
  7
ＭＳ ゴシック
100
AcDbText
  0
TEXT
  5
360
330
1F
100
AcDbEntity
  8
A-4
  6
Continuous
 62
     2
370
     9
100
AcDbText
 10
456.0202842657379
 20
-145.0298646469438
 30
0.0
 40
15.24
  1
ナイロンプラグ　呼び８
 41
1.113636363636363
  7
ＭＳ ゴシック
100
AcDbText
  0
LINE
  5
361
330
1F
100
AcDbEntity
  8
A-5
  6
Continuous
 62
     7
370
     9
100
AcDbLine
 10
458.4245846433064
 20
-152.423359396772
 30
0.0
 11
366.5520105963444
 21
38.11104164690682
 31
0.0
  0
LINE
  5
362
330
1F
100
AcDbEntity
  8
A-4
  6
Continuous
 62
     7
370
     9
100
AcDbLine
 10
701.8632848475488
 20
-152.423359396772
 30
0.0
 11
458.4245846433064
 21
-152.423359396772
 31
0.0
  0
TEXT
  5
363
330
1F
100
AcDbEntity
  8
A-4
  6
Continuous
 62
     2
370
     9
100
AcDbText
 10
440.5200713634483
 20
-219.5491927181844
 30
0.0
 40
15.24
  1
ナイロンプラグ　呼び８
 41
1.113636363636364
  7
ＭＳ ゴシック
100
AcDbText
  0
LINE
  5
364
330
1F
100
AcDbEntity
  8
A-4
  6
Continuous
 62
     7
370
     9
100
AcDbLine
 10
374.365498384517
 20
-111.4681219268142
 30
0.0
 11
441.034769884283
 21
-226.9426874680127
 31
0.0
  0
LINE
  5
365
330
1F
100
AcDbEntity
  8
A-4
  6
Continuous
 62
     7
370
     9
100
AcDbLine
 10
686.3630719452592
 20
-226.9426874680127
 30
0.0
 11
441.034769884283
 21
-226.9426874680127
 31
0.0
  0
TEXT
  5
366
330
1F
100
AcDbEntity
  8
A-4
  6
Continuous
 62
     2
370
     9
100
AcDbText
 10
69.84451326248548
 20
215.811231671114
 30
0.0
 40
15.24
  1
カバー：t=2.0
 41
1.115384615384615
  7
ＭＳ ゴシック
100
AcDbText
  0
LINE
  5
367
330
1F
100
AcDbEntity
  8
A-4
  6
Continuous
 62
     7
370
     9
100
AcDbLine
 10
215.6875138442963
 20
208.4177369212859
 30
0.0
 11
62.22102834422715
 21
208.4177369212859
 31
0.0
  0
TEXT
  5
368
330
1F
100
AcDbEntity
  8
A-4
  6
Continuous
 62
     2
370
     9
100
AcDbText
 10
69.84451326248548
 20
186.8662215768668
 30
0.0
 40
15.24
  1
アルミ
 41
1.083333333333333
  7
ＭＳ ゴシック
100
AcDbText
  0
TEXT
  5
369
330
1F
100
AcDbEntity
  8
A-4
  6
Continuous
 62
     2
370
     9
100
AcDbText
 10
429.0378977275769
 20
207.3987882106586
 30
0.0
 40
15.24
  1
位置決めフレーム：t=1.0
 41
1.119565217391304
  7
ＭＳ ゴシック
100
AcDbText
  0
LINE
  5
36A
330
1F
100
AcDbEntity
  8
A-4
  6
Continuous
 62
     7
370
     9
100
AcDbLine
 10
687.380898309388
 20
200.0052934608304
 30
0.0
 11
422.4507354840779
 21
200.0052934608304
 31
0.0
  0
TEXT
  5
36B
330
1F
100
AcDbEntity
  8
A-4
  6
Continuous
 62
     2
370
     9
100
AcDbText
 10
429.5929120491581
 20
178.2517987110024
 30
0.0
 40
15.24
  1
A1100P
 41
1.104166666666667
  7
ＭＳ ゴシック
100
AcDbText
  0
TEXT
  5
36C
330
1F
100
AcDbEntity
  8
A-4
  6
Continuous
 62
     2
370
   211
100
AcDbText
 10
-64.46792357857389
 20
280.5910315050934
 30
0.0
 40
15.24
  1
800
 41
1.083333333333333
  7
ＭＳ ゴシック
100
AcDbText
  0
TEXT
  5
36D
330
1F
100
AcDbEntity
  8
A-4
  6
Continuous
 62
     2
370
   211
100
AcDbText
 10
260.5320764214261
 20
-270.3907507846305
 30
0.0
 40
15.24
  1
150
 41
1.083333333333333
  7
ＭＳ ゴシック
100
AcDbText
  0
TEXT
  5
36E
330
1F
100
AcDbEntity
  8
A-4
  6
Continuous
 62
     2
370
   211
100
AcDbText
 10
-193.4759229079449
 20
76.97070713966701
 30
0.0
 40
15.24
  1
142
 41
1.083333333333333
  7
ＭＳ ゴシック
100
AcDbText
  0
TEXT
  5
36F
330
1F
100
AcDbEntity
  8
A-4
  6
Continuous
 62
     2
370
   211
100
AcDbText
 10
-283.8429235785739
 20
76.97070713966701
 30
0.0
 40
15.24
  1
50
 41
1.0625
  7
ＭＳ ゴシック
100
AcDbText
  0
TEXT
  5
370
330
1F
100
AcDbEntity
  8
A-4
  6
Continuous
 62
     2
370
   211
100
AcDbText
 10
-533.4514511232546
 20
116.2069803061025
 30
0.0
 40
15.24
  1
29
 50
90.0
 41
1.0625
  7
ＭＳ ゴシック
100
AcDbText
  0
TEXT
  5
371
330
1F
100
AcDbEntity
  8
A-4
  6
Continuous
 62
     2
370
   211
100
AcDbText
 10
-533.4514511232546
 20
66.70696504828362
 30
0.0
 40
15.24
  1
70
 50
90.0
 41
1.0625
  7
ＭＳ ゴシック
100
AcDbText
  0
TEXT
  5
372
330
1F
100
AcDbEntity
  8
A-4
  6
Continuous
 62
     2
370
   211
100
AcDbText
 10
464.1022120834462
 20
116.2069803061025
 30
0.0
 40
15.24
  1
29
 50
90.0
 41
1.0625
  7
ＭＳ ゴシック
100
AcDbText
  0
TEXT
  5
373
330
1F
100
AcDbEntity
  8
A-4
  6
Continuous
 62
     2
370
   211
100
AcDbText
 10
464.6022120834462
 20
8.081965048283655
 30
0.0
 40
15.24
  1
176
 50
90.0
 41
1.083333333333333
  7
ＭＳ ゴシック
100
AcDbText
  0
LINE
  5
374
330
1F
100
AcDbEntity
  8
A-4
  6
Continuous
 62
     7
370
     9
100
AcDbLine
 10
437.7506837009915
 20
112.3319650482836
 30
0.0
 11
437.7506837009915
 21
42.33196504828349
 31
0.0
  0
LWPOLYLINE
  5
375
330
1F
100
AcDbEntity
  8
A-4
  6
Continuous
 62
     7
370
     9
100
AcDbPolyline
 90
        4
 70
     1
 43
1.0
 10
438.2506837009914
 20
112.3319650482836
 42
0.4142135623731
 10
437.7506837009915
 20
112.8319650482836
 42
0.4142135623731
 10
437.2506837009915
 20
112.3319650482836
 42
0.4142135623731
 10
437.7506837009915
 20
111.8319650482836
 42
0.4142135623731
  0
LWPOLYLINE
  5
376
330
1F
100
AcDbEntity
  8
A-4
  6
Continuous
 62
     7
370
     9
100
AcDbPolyline
 90
        4
 70
     1
 43
1.0
 10
438.2506837009914
 20
42.33196504828349
 42
0.4142135623731
 10
437.7506837009915
 20
42.83196504828348
 42
0.4142135623731
 10
437.2506837009915
 20
42.33196504828349
 42
0.4142135623731
 10
437.7506837009915
 20
41.83196504828349
 42
0.4142135623731
  0
LINE
  5
377
330
1F
100
AcDbEntity
  8
A-4
  6
Continuous
 62
     7
370
     9
100
AcDbLine
 10
437.7506837009915
 20
42.33196504828349
 30
0.0
 11
403.6568017632229
 21
42.33196504828349
 31
0.0
  0
TEXT
  5
378
330
1F
100
AcDbEntity
  8
A-4
  6
Continuous
 62
     2
370
   211
100
AcDbText
 10
430.2932529100302
 20
66.70696504828362
 30
0.0
 40
15.24
  1
70
 50
90.0
 41
1.0625
  7
ＭＳ ゴシック
100
AcDbText
  0
LINE
  5
379
330
1F
100
AcDbEntity
  8
A-4
  6
Continuous
 62
     7
370
     9
100
AcDbLine
 10
512.0159399948132
 20
112.3319650482836
 30
0.0
 11
512.0159399948132
 21
-107.6680349517165
 31
0.0
  0
LWPOLYLINE
  5
37A
330
1F
100
AcDbEntity
  8
A-4
  6
Continuous
 62
     7
370
     9
100
AcDbPolyline
 90
        4
 70
     1
 43
1.0
 10
512.5159399948132
 20
112.3319650482836
 42
0.4142135623731
 10
512.0159399948132
 20
112.8319650482836
 42
0.4142135623731
 10
511.5159399948132
 20
112.3319650482836
 42
0.4142135623731
 10
512.0159399948132
 20
111.8319650482836
 42
0.4142135623731
  0
LWPOLYLINE
  5
37B
330
1F
100
AcDbEntity
  8
A-4
  6
Continuous
 62
     7
370
     9
100
AcDbPolyline
 90
        4
 70
     1
 43
1.0
 10
512.5159399948132
 20
-107.6680349517165
 42
0.4142135623731
 10
512.0159399948132
 20
-107.1680349517165
 42
0.4142135623731
 10
511.5159399948132
 20
-107.6680349517165
 42
0.4142135623731
 10
512.0159399948132
 20
-108.1680349517165
 42
0.4142135623731
  0
LINE
  5
37C
330
1F
100
AcDbEntity
  8
A-4
  6
Continuous
 62
     7
370
     9
100
AcDbLine
 10
512.0159399948132
 20
112.3319650482836
 30
0.0
 11
470.8245526752603
 21
112.3319650482836
 31
0.0
  0
LINE
  5
37D
330
1F
100
AcDbEntity
  8
A-4
  6
Continuous
 62
     7
370
     9
100
AcDbLine
 10
512.0159399948132
 20
-107.6680349517165
 30
0.0
 11
401.4062863976218
 21
-107.6680349517165
 31
0.0
  0
TEXT
  5
37E
330
1F
100
AcDbEntity
  8
A-4
  6
Continuous
 62
     2
370
   211
100
AcDbText
 10
504.5585092038519
 20
-13.91803495171652
 30
0.0
 40
15.24
  1
220
 50
90.0
 41
1.083333333333333
  7
ＭＳ ゴシック
100
AcDbText
  0
LINE
  5
37F
330
1F
100
AcDbEntity
  8
A-4
  6
Continuous
 62
     7
370
     9
100
AcDbLine
 10
-510.9517157331788
 20
-42.20684623038829
 30
0.0
 11
-712.7496711149377
 21
-42.20684623038829
 31
0.0
  0
LINE
  5
380
330
1F
100
AcDbEntity
  8
A-6
  6
Continuous
 62
     6
370
     5
100
AcDbLine
 10
-665.0081819587796
 20
-13.58867975443553
 30
0.0
 11
-542.0119006626894
 21
109.4076015416542
 31
0.0
  0
LINE
  5
381
330
1F
100
AcDbEntity
  8
A-6
  6
Continuous
 62
     6
370
     5
100
AcDbLine
 10
-657.9371141469128
 20
-13.58867975443553
 30
0.0
 11
-536.5435724371391
 21
107.8048619553378
 31
0.0
  0
LINE
  5
382
330
1F
100
AcDbEntity
  8
A-6
  6
Continuous
 62
     6
370
     5
100
AcDbLine
 10
-672.0792497706461
 20
-13.58867975443553
 30
0.0
 11
-551.5360576206677
 21
106.9545123955425
 31
0.0
  0
LINE
  5
383
330
1F
100
AcDbEntity
  8
A-6
  6
Continuous
 62
     6
370
     5
100
AcDbLine
 10
-400.8371321990318
 20
-95.89995277609106
 30
0.0
 11
-248.2179235785725
 21
56.71925584436828
 31
0.0
  0
LINE
  5
384
330
1F
100
AcDbEntity
  8
A-6
  6
Continuous
 62
     6
370
     5
100
AcDbLine
 10
-393.766064387165
 20
-95.89995277609106
 30
0.0
 11
-248.2179235785739
 21
49.64818803250008
 31
0.0
  0
LINE
  5
385
330
1F
100
AcDbEntity
  8
A-6
  6
Continuous
 62
     6
370
     5
100
AcDbLine
 10
-386.6949965752981
 20
-95.89995277609106
 30
0.0
 11
-248.2179235785733
 21
42.57712022063359
 31
0.0
  0
LINE
  5
386
330
1F
100
AcDbEntity
  8
A-6
  6
Continuous
 62
     6
370
     5
100
AcDbLine
 10
-527.5514634841861
 20
-222.6142840612455
 30
0.0
 11
-441.0719024884468
 21
-136.1347230655062
 31
0.0
  0
LINE
  5
387
330
1F
100
AcDbEntity
  8
A-6
  6
Continuous
 62
     6
370
     5
100
AcDbLine
 10
-520.4803956723199
 20
-222.6142840612461
 30
0.0
 11
-434.0008346765802
 21
-136.1347230655062
 31
0.0
  0
LINE
  5
388
330
1F
100
AcDbEntity
  8
A-6
  6
Continuous
 62
     6
370
     5
100
AcDbLine
 10
-513.4093278604539
 20
-222.6142840612466
 30
0.0
 11
-426.9297668647133
 21
-136.1347230655062
 31
0.0
  0
LINE
  5
389
330
1F
100
AcDbEntity
  8
A-4
  6
Continuous
 62
     7
370
     9
100
AcDbLine
 10
-395.1381669754772
 20
-124.3003248785188
 30
0.0
 11
-647.0832977824111
 21
-124.3003248785188
 31
0.0
  0
LWPOLYLINE
  5
38A
330
1F
100
AcDbEntity
  8
A-4
  6
Continuous
 62
     7
370
     9
100
AcDbPolyline
 90
        4
 70
     1
 43
1.0
 10
352.282076421426
 20
-330.6161740596577
 42
0.4142135623731
 10
351.7820764214261
 20
-330.1161740596577
 42
0.4142135623731
 10
351.2820764214262
 20
-330.6161740596577
 42
0.4142135623731
 10
351.7820764214261
 20
-331.1161740596577
 42
0.4142135623731
  0
LINE
  5
38B
330
1F
100
AcDbEntity
  8
A-4
  6
Continuous
 62
     7
370
     9
100
AcDbLine
 10
351.7820764214261
 20
-330.6161740596577
 30
0.0
 11
351.7820764214261
 21
-247.6142840612465
 31
0.0
  0
LWPOLYLINE
  5
38C
330
1F
100
AcDbEntity
  8
A-4
  6
Continuous
 62
     7
370
     9
100
AcDbPolyline
 90
        4
 70
     1
 43
1.0
 10
-247.7179235785739
 20
-330.6161740596577
 42
0.4142135623731
 10
-248.2179235785739
 20
-330.1161740596577
 42
0.4142135623731
 10
-248.7179235785739
 20
-330.6161740596577
 42
0.4142135623731
 10
-248.2179235785739
 20
-331.1161740596577
 42
0.4142135623731
  0
LINE
  5
38D
330
1F
100
AcDbEntity
  8
A-4
  6
Continuous
 62
     7
370
     9
100
AcDbLine
 10
-248.2179235785739
 20
-330.6161740596577
 30
0.0
 11
-248.2179235785739
 21
-247.6142840612465
 31
0.0
  0
LINE
  5
38E
330
1F
100
AcDbEntity
  8
A-4
  6
Continuous
 62
     7
370
     9
100
AcDbLine
 10
351.7820764214261
 20
-330.6161740596577
 30
0.0
 11
-248.2179235785742
 21
-330.6161740596577
 31
0.0
  0
LWPOLYLINE
  5
38F
330
1F
100
AcDbEntity
  8
A-4
  6
Continuous
 62
     7
370
     9
100
AcDbPolyline
 90
        4
 70
     1
 43
1.0
 10
352.282076421426
 20
-330.6161740596577
 42
0.4142135623731
 10
351.7820764214261
 20
-330.1161740596577
 42
0.4142135623731
 10
351.2820764214262
 20
-330.6161740596577
 42
0.4142135623731
 10
351.7820764214261
 20
-331.1161740596577
 42
0.4142135623731
  0
LWPOLYLINE
  5
390
330
1F
100
AcDbEntity
  8
A-4
  6
Continuous
 62
     7
370
     9
100
AcDbPolyline
 90
        4
 70
     1
 43
1.0
 10
-247.7179235785742
 20
-330.6161740596577
 42
0.4142135623731
 10
-248.2179235785742
 20
-330.1161740596577
 42
0.4142135623731
 10
-248.7179235785742
 20
-330.6161740596577
 42
0.4142135623731
 10
-248.2179235785742
 20
-331.1161740596577
 42
0.4142135623731
  0
TEXT
  5
391
330
1F
100
AcDbEntity
  8
A-4
  6
Continuous
 62
     2
370
   211
100
AcDbText
 10
35.53207642142611
 20
-325.1727423594831
 30
0.0
 40
15.24
  1
600
 41
1.083333333333333
  7
ＭＳ ゴシック
100
AcDbText
  0
LINE
  5
392
330
1F
100
AcDbEntity
  8
A-6
  6
Continuous
 62
     6
370
     5
100
AcDbLine
 10
764.0382672114582
 20
112.3319650482836
 30
0.0
 11
351.7820764214261
 21
112.3319650482836
 31
0.0
  0
LINE
  5
393
330
1F
100
AcDbEntity
  8
A-6
  6
Continuous
 62
     6
370
     5
100
AcDbLine
 10
351.7820764214261
 20
-222.6142840612466
 30
0.0
 11
351.7820764214261
 21
112.3319650482836
 31
0.0
  0
LINE
  5
394
330
1F
100
AcDbEntity
  8
A-5
  6
Continuous
 62
     7
370
     9
100
AcDbLine
 10
351.7820764214261
 20
275.1475998049191
 30
0.0
 11
351.7820764214261
 21
135.1256901424952
 31
0.0
  0
LINE
  5
395
330
1F
100
AcDbEntity
  8
A-4
  6
Continuous
 62
     7
370
     9
100
AcDbLine
 10
471.5596428744075
 20
141.3319955639213
 30
0.0
 11
347.5370882943047
 21
141.3319955639213
 31
0.0
  0
LINE
  5
396
330
1F
100
AcDbEntity
  8
A-6
  6
Continuous
 62
     6
370
     5
100
AcDbLine
 10
351.7820764214267
 20
-200.7413444546593
 30
0.0
 11
664.8553859243693
 21
112.3319650482836
 31
0.0
  0
LINE
  5
397
330
1F
100
AcDbEntity
  8
A-6
  6
Continuous
 62
     6
370
     5
100
AcDbLine
 10
351.7820764214264
 20
-193.6702766427932
 30
0.0
 11
657.784318112503
 21
112.3319650482837
 31
0.0
  0
LINE
  5
398
330
1F
100
AcDbEntity
  8
A-6
  6
Continuous
 62
     6
370
     5
100
AcDbLine
 10
351.7820764214275
 20
-186.5992088309344
 30
0.0
 11
650.7132503006458
 21
112.3319650482837
 31
0.0
  0
ENDSEC
  0
SECTION
  2
OBJECTS
  0
DICTIONARY
  5
C
330
0
100
AcDbDictionary
281
     1
  3
ACAD_DETAILVIEWSTYLE
350
3DE
  3
ACAD_GROUP
350
D
  3
ACAD_LAYOUT
350
1A
  3
ACAD_MATERIAL
350
43
  3
ACAD_MLEADERSTYLE
350
6B
  3
ACAD_MLINESTYLE
350
17
  3
ACAD_PLOTSETTINGS
350
19
  3
ACAD_PLOTSTYLENAME
350
E
  3
ACAD_SCALELIST
350
47
  3
ACAD_SECTIONVIEWSTYLE
350
3DF
  3
ACAD_TABLESTYLE
350
69
  3
ACAD_VISUALSTYLE
350
2A
  3
ACDB_RECOMPOSE_DATA
350
3DB
  3
AcDbVariableDictionary
350
39B
  0
DICTIONARY
  5
399
330
8
100
AcDbDictionary
280
     1
281
     1
  3
ACAD_XREC_ROUNDTRIP
360
39A
  0
DICTIONARY
  5
3DE
102
{ACAD_REACTORS
330
C
102
}
330
C
100
AcDbDictionary
281
     1
  0
DICTIONARY
  5
D
102
{ACAD_REACTORS
330
C
102
}
330
C
100
AcDbDictionary
281
     1
  0
DICTIONARY
  5
1A
102
{ACAD_REACTORS
330
C
102
}
330
C
100
AcDbDictionary
281
     1
  3
Layout1
350
1E
  3
Layout2
350
26
  3
Model
350
22
  0
DICTIONARY
  5
43
102
{ACAD_REACTORS
330
C
102
}
330
C
100
AcDbDictionary
281
     1
  3
ByBlock
350
45
  3
ByLayer
350
44
  3
Global
350
46
  0
DICTIONARY
  5
6B
102
{ACAD_REACTORS
330
C
102
}
330
C
100
AcDbDictionary
281
     1
  3
Standard
350
6C
  0
DICTIONARY
  5
17
102
{ACAD_REACTORS
330
C
102
}
330
C
100
AcDbDictionary
281
     1
  3
Standard
350
18
  0
DICTIONARY
  5
19
102
{ACAD_REACTORS
330
C
102
}
330
C
100
AcDbDictionary
281
     1
  0
ACDBDICTIONARYWDFLT
  5
E
102
{ACAD_REACTORS
330
C
102
}
330
C
100
AcDbDictionary
281
     1
  3
Normal
350
F
100
AcDbDictionaryWithDefault
340
F
  0
DICTIONARY
  5
47
102
{ACAD_REACTORS
330
C
102
}
330
C
100
AcDbDictionary
281
     1
  3
A0
350
48
  3
A1
350
49
  3
A2
350
4A
  3
A3
350
4B
  3
A4
350
4C
  3
A5
350
4D
  3
A6
350
4E
  3
A7
350
4F
  3
A8
350
50
  3
A9
350
51
  3
B0
350
52
  3
B1
350
53
  3
B2
350
54
  3
B3
350
55
  3
B4
350
56
  3
B5
350
57
  3
B6
350
58
  3
B7
350
59
  3
B8
350
5A
  3
B9
350
5B
  3
C0
350
5C
  3
C1
350
5D
  3
C2
350
5E
  3
C3
350
5F
  3
C4
350
60
  3
C5
350
61
  3
C6
350
62
  3
C7
350
63
  3
C8
350
64
  3
C9
350
65
  3
D0
350
66
  3
D1
350
67
  3
D2
350
68
  0
DICTIONARY
  5
3DF
102
{ACAD_REACTORS
330
C
102
}
330
C
100
AcDbDictionary
281
     1
  0
DICTIONARY
  5
69
102
{ACAD_REACTORS
330
C
102
}
330
C
100
AcDbDictionary
281
     1
  3
Standard
350
6A
  0
DICTIONARY
  5
2A
102
{ACAD_REACTORS
330
C
102
}
330
C
100
AcDbDictionary
281
     1
  3
2dWireframe
350
2F
  3
Basic
350
32
  3
Brighten
350
36
  3
ColorChange
350
3A
  3
Conceptual
350
34
  3
Dim
350
35
  3
EdgeColorOff
350
3D
  3
Facepattern
350
39
  3
Flat
350
2B
  3
FlatWithEdges
350
2C
  3
Gouraud
350
2D
  3
GouraudWithEdges
350
2E
  3
Hidden
350
31
  3
JitterOff
350
3B
  3
Linepattern
350
38
  3
OverhangOff
350
3C
  3
Realistic
350
33
  3
Shaded
350
42
  3
Shaded with edges
350
41
  3
Shades of Gray
350
3E
  3
Sketchy
350
3F
  3
Thicken
350
37
  3
Wireframe
350
30
  3
X-Ray
350
40
  0
XRECORD
  5
3DB
102
{ACAD_REACTORS
330
C
102
}
330
C
100
AcDbXrecord
280
     1
 90
        1
330
6A
  0
DICTIONARY
  5
39B
102
{ACAD_REACTORS
330
C
102
}
330
C
100
AcDbDictionary
281
     1
  3
CANNOSCALE
350
39C
  3
CENTEREXE
350
3E0
  3
CENTERLTYPEFILE
350
3E1
  3
CMLEADERSTYLE
350
3DD
  3
CTABLESTYLE
350
3DC
  3
MSLTSCALE
350
39D
  3
XCLIPFRAME
350
39E
  0
XRECORD
  5
39A
102
{ACAD_REACTORS
330
399
102
}
330
399
100
AcDbXrecord
280
     1
102
VTR_0.000_0.000_1.000_1.000_VISUALSTYLE
340
2F
102
VTR_0.000_0.000_1.000_1.000_GRIDDISPLAY
 70
     3
102
VTR_0.000_0.000_1.000_1.000_GRIDMAJOR
 70
     5
102
VTR_0.000_0.000_1.000_1.000_DEFAULTLIGHTING
280
     1
102
VTR_0.000_0.000_1.000_1.000_DEFAULTLIGHTINGTYPE
 70
     1
102
VTR_0.000_0.000_1.000_1.000_BRIGHTNESS
141
0.0
102
VTR_0.000_0.000_1.000_1.000_CONTRAST
142
0.0
  0
LAYOUT
  5
1E
102
{ACAD_REACTORS
330
1A
102
}
330
1A
100
AcDbPlotSettings
  1

  2
none_device
  4

  6

 40
0.0
 41
0.0
 42
0.0
 43
0.0
 44
0.0
 45
0.0
 46
0.0
 47
0.0
 48
0.0
 49
0.0
140
0.0
141
0.0
142
1.0
143
1.0
 70
   688
 72
     1
 73
     0
 74
     5
  7

 75
    16
 76
     0
 77
     5
 78
   300
147
1.0
148
0.0
149
0.0
100
AcDbLayout
  1
Layout1
 70
     1
 71
     1
 10
0.0
 20
0.0
 11
420.0
 21
297.0
 12
0.0
 22
0.0
 32
0.0
 14
1.000000000000000E+20
 24
1.000000000000000E+20
 34
1.000000000000000E+20
 15
-1.000000000000000E+20
 25
-1.000000000000000E+20
 35
-1.000000000000000E+20
146
0.0
 13
0.0
 23
0.0
 33
0.0
 16
1.0
 26
0.0
 36
0.0
 17
0.0
 27
1.0
 37
0.0
 76
     0
330
1B
  0
LAYOUT
  5
26
102
{ACAD_REACTORS
330
1A
102
}
330
1A
100
AcDbPlotSettings
  1

  2
none_device
  4

  6

 40
0.0
 41
0.0
 42
0.0
 43
0.0
 44
0.0
 45
0.0
 46
0.0
 47
0.0
 48
0.0
 49
0.0
140
0.0
141
0.0
142
1.0
143
1.0
 70
   688
 72
     1
 73
     0
 74
     5
  7

 75
    16
 76
     0
 77
     5
 78
   300
147
1.0
148
0.0
149
0.0
100
AcDbLayout
  1
Layout2
 70
     1
 71
     2
 10
0.0
 20
0.0
 11
0.0
 21
0.0
 12
0.0
 22
0.0
 32
0.0
 14
0.0
 24
0.0
 34
0.0
 15
0.0
 25
0.0
 35
0.0
146
0.0
 13
0.0
 23
0.0
 33
0.0
 16
1.0
 26
0.0
 36
0.0
 17
0.0
 27
1.0
 37
0.0
 76
     0
330
23
  0
LAYOUT
  5
22
102
{ACAD_REACTORS
330
1A
102
}
330
1A
100
AcDbPlotSettings
  1

  2
none_device
  4
Letter_(8.50_x_11.00_Inches)
  6

 40
6.35
 41
6.35
 42
6.35000508
 43
6.35000508
 44
215.9
 45
279.4
 46
0.0
 47
0.0
 48
0.0
 49
0.0
140
0.0
141
0.0
142
1.0
143
1.0
 70
  1712
 72
     1
 73
     0
 74
     0
  7

 75
     0
 76
     0
 77
     5
 78
   300
147
1.0
148
0.0
149
0.0
100
AcDbLayout
  1
Model
 70
     1
 71
     0
 10
-1050.0
 20
-742.5
 11
1050.0
 21
742.5
 12
0.0
 22
0.0
 32
0.0
 14
-1050.0
 24
-742.5
 34
0.0
 15
1050.0
 25
742.5
 35
0.0
146
0.0
 13
0.0
 23
0.0
 33
0.0
 16
1.0
 26
0.0
 36
0.0
 17
0.0
 27
1.0
 37
0.0
 76
     0
330
1F
331
29
  0
MATERIAL
  5
45
102
{ACAD_REACTORS
330
43
102
}
102
{ACAD_XDICTIONARY
360
3D1
102
}
330
43
100
AcDbMaterial
  1
ByBlock
  0
MATERIAL
  5
44
102
{ACAD_REACTORS
330
43
102
}
102
{ACAD_XDICTIONARY
360
3CF
102
}
330
43
100
AcDbMaterial
  1
ByLayer
  0
MATERIAL
  5
46
102
{ACAD_REACTORS
330
43
102
}
102
{ACAD_XDICTIONARY
360
3D3
102
}
330
43
100
AcDbMaterial
  1
Global
  0
MLEADERSTYLE
  5
6C
102
{ACAD_REACTORS
330
6B
102
}
102
{ACAD_XDICTIONARY
360
3D9
102
}
330
6B
100
AcDbMLeaderStyle
170
     2
171
     1
172
     0
 90
        2
 40
0.0
 41
0.0
173
     1
 91
-1056964608
340
14
 92
       -2
290
     1
 42
2.0
291
     1
 43
8.0
  3
Standard
341
0
 44
4.0
300

342
11
174
     1
178
     6
175
     1
176
     0
 93
-1056964608
 45
4.0
292
     0
297
     0
 46
4.0
343
0
 94
-1056964608
 47
1.0
 49
1.0
140
1.0
293
     1
141
0.0
294
     1
177
     0
142
1.0
295
     0
296
     0
143
3.75
1001
ACAD_MLEADERVER
1070
     2
  0
MLINESTYLE
  5
18
102
{ACAD_REACTORS
330
17
102
}
330
17
100
AcDbMlineStyle
  2
Standard
 70
     0
  3

 62
   256
 51
90.0
 52
90.0
 71
     2
 49
0.5
 62
   256
  6
BYLAYER
 49
-0.5
 62
   256
  6
BYLAYER
  0
ACDBPLACEHOLDER
  5
F
102
{ACAD_REACTORS
330
E
102
}
330
E
  0
SCALE
  5
48
102
{ACAD_REACTORS
330
47
102
}
330
47
100
AcDbScale
 70
     0
300
1:1
140
1.0
141
1.0
290
     1
  0
SCALE
  5
49
102
{ACAD_REACTORS
330
47
102
}
330
47
100
AcDbScale
 70
     0
300
1:2
140
1.0
141
2.0
290
     0
  0
SCALE
  5
4A
102
{ACAD_REACTORS
330
47
102
}
330
47
100
AcDbScale
 70
     0
300
1:4
140
1.0
141
4.0
290
     0
  0
SCALE
  5
4B
102
{ACAD_REACTORS
330
47
102
}
330
47
100
AcDbScale
 70
     0
300
1:5
140
1.0
141
5.0
290
     0
  0
SCALE
  5
4C
102
{ACAD_REACTORS
330
47
102
}
330
47
100
AcDbScale
 70
     0
300
1:8
140
1.0
141
8.0
290
     0
  0
SCALE
  5
4D
102
{ACAD_REACTORS
330
47
102
}
330
47
100
AcDbScale
 70
     0
300
1:10
140
1.0
141
10.0
290
     0
  0
SCALE
  5
4E
102
{ACAD_REACTORS
330
47
102
}
330
47
100
AcDbScale
 70
     0
300
1:16
140
1.0
141
16.0
290
     0
  0
SCALE
  5
4F
102
{ACAD_REACTORS
330
47
102
}
330
47
100
AcDbScale
 70
     0
300
1:20
140
1.0
141
20.0
290
     0
  0
SCALE
  5
50
102
{ACAD_REACTORS
330
47
102
}
330
47
100
AcDbScale
 70
     0
300
1:30
140
1.0
141
30.0
290
     0
  0
SCALE
  5
51
102
{ACAD_REACTORS
330
47
102
}
330
47
100
AcDbScale
 70
     0
300
1:40
140
1.0
141
40.0
290
     0
  0
SCALE
  5
52
102
{ACAD_REACTORS
330
47
102
}
330
47
100
AcDbScale
 70
     0
300
1:50
140
1.0
141
50.0
290
     0
  0
SCALE
  5
53
102
{ACAD_REACTORS
330
47
102
}
330
47
100
AcDbScale
 70
     0
300
1:100
140
1.0
141
100.0
290
     0
  0
SCALE
  5
54
102
{ACAD_REACTORS
330
47
102
}
330
47
100
AcDbScale
 70
     0
300
2:1
140
2.0
141
1.0
290
     0
  0
SCALE
  5
55
102
{ACAD_REACTORS
330
47
102
}
330
47
100
AcDbScale
 70
     0
300
4:1
140
4.0
141
1.0
290
     0
  0
SCALE
  5
56
102
{ACAD_REACTORS
330
47
102
}
330
47
100
AcDbScale
 70
     0
300
8:1
140
8.0
141
1.0
290
     0
  0
SCALE
  5
57
102
{ACAD_REACTORS
330
47
102
}
330
47
100
AcDbScale
 70
     0
300
10:1
140
10.0
141
1.0
290
     0
  0
SCALE
  5
58
102
{ACAD_REACTORS
330
47
102
}
330
47
100
AcDbScale
 70
     0
300
100:1
140
100.0
141
1.0
290
     0
  0
SCALE
  5
59
102
{ACAD_REACTORS
330
47
102
}
330
47
100
AcDbScale
 70
     0
300
1/128" = 1'-0"
140
0.0078125
141
12.0
290
     0
  0
SCALE
  5
5A
102
{ACAD_REACTORS
330
47
102
}
330
47
100
AcDbScale
 70
     0
300
1/64" = 1'-0"
140
0.015625
141
12.0
290
     0
  0
SCALE
  5
5B
102
{ACAD_REACTORS
330
47
102
}
330
47
100
AcDbScale
 70
     0
300
1/32" = 1'-0"
140
0.03125
141
12.0
290
     0
  0
SCALE
  5
5C
102
{ACAD_REACTORS
330
47
102
}
330
47
100
AcDbScale
 70
     0
300
1/16" = 1'-0"
140
0.0625
141
12.0
290
     0
  0
SCALE
  5
5D
102
{ACAD_REACTORS
330
47
102
}
330
47
100
AcDbScale
 70
     0
300
3/32" = 1'-0"
140
0.09375
141
12.0
290
     0
  0
SCALE
  5
5E
102
{ACAD_REACTORS
330
47
102
}
330
47
100
AcDbScale
 70
     0
300
1/8" = 1'-0"
140
0.125
141
12.0
290
     0
  0
SCALE
  5
5F
102
{ACAD_REACTORS
330
47
102
}
330
47
100
AcDbScale
 70
     0
300
3/16" = 1'-0"
140
0.1875
141
12.0
290
     0
  0
SCALE
  5
60
102
{ACAD_REACTORS
330
47
102
}
330
47
100
AcDbScale
 70
     0
300
1/4" = 1'-0"
140
0.25
141
12.0
290
     0
  0
SCALE
  5
61
102
{ACAD_REACTORS
330
47
102
}
330
47
100
AcDbScale
 70
     0
300
3/8" = 1'-0"
140
0.375
141
12.0
290
     0
  0
SCALE
  5
62
102
{ACAD_REACTORS
330
47
102
}
330
47
100
AcDbScale
 70
     0
300
1/2" = 1'-0"
140
0.5
141
12.0
290
     0
  0
SCALE
  5
63
102
{ACAD_REACTORS
330
47
102
}
330
47
100
AcDbScale
 70
     0
300
3/4" = 1'-0"
140
0.75
141
12.0
290
     0
  0
SCALE
  5
64
102
{ACAD_REACTORS
330
47
102
}
330
47
100
AcDbScale
 70
     0
300
1" = 1'-0"
140
1.0
141
12.0
290
     0
  0
SCALE
  5
65
102
{ACAD_REACTORS
330
47
102
}
330
47
100
AcDbScale
 70
     0
300
1-1/2" = 1'-0"
140
1.5
141
12.0
290
     0
  0
SCALE
  5
66
102
{ACAD_REACTORS
330
47
102
}
330
47
100
AcDbScale
 70
     0
300
3" = 1'-0"
140
3.0
141
12.0
290
     0
  0
SCALE
  5
67
102
{ACAD_REACTORS
330
47
102
}
330
47
100
AcDbScale
 70
     0
300
6" = 1'-0"
140
6.0
141
12.0
290
     0
  0
SCALE
  5
68
102
{ACAD_REACTORS
330
47
102
}
330
47
100
AcDbScale
 70
     0
300
1'-0" = 1'-0"
140
12.0
141
12.0
290
     0
  0
TABLESTYLE
  5
6A
102
{ACAD_REACTORS
330
69
102
}
102
{ACAD_XDICTIONARY
360
3D5
102
}
330
69
100
AcDbTableStyle
  3
Standard
 70
     0
 71
     0
 40
0.06
 41
0.06
280
     0
281
     0
  7
Standard
140
4.5
170
     2
 62
     0
 63
   257
283
     0
274
    -2
284
     1
 64
     0
275
    -2
285
     1
 65
     0
276
    -2
286
     1
 66
     0
277
    -2
287
     1
 67
     0
278
    -2
288
     1
 68
     0
279
    -2
289
     1
 69
     0
  7
Standard
140
6.0
170
     5
 62
     0
 63
   257
283
     0
274
    -2
284
     1
 64
     0
275
    -2
285
     1
 65
     0
276
    -2
286
     1
 66
     0
277
    -2
287
     1
 67
     0
278
    -2
288
     1
 68
     0
279
    -2
289
     1
 69
     0
  7
Standard
140
4.5
170
     5
 62
     0
 63
   257
283
     0
274
    -2
284
     1
 64
     0
275
    -2
285
     1
 65
     0
276
    -2
286
     1
 66
     0
277
    -2
287
     1
 67
     0
278
    -2
288
     1
 68
     0
279
    -2
289
     1
 69
     0
  0
VISUALSTYLE
  5
2F
102
{ACAD_REACTORS
330
2A
102
}
102
{ACAD_XDICTIONARY
360
3A7
102
}
330
2A
100
AcDbVisualStyle
  2
2dWireframe
 70
     4
 71
     0
 72
     2
 73
     0
 90
        0
 40
0.6
 41
30.0
 62
     5
 63
     7
421
 16777215
 74
     1
 91
        4
 64
     7
 65
   257
 75
     1
175
     1
 42
1.0
 92
        0
 66
   257
 43
1.0
 76
     1
 77
     6
 78
     2
 67
     7
 79
     5
170
     0
171
     0
290
     0
174
     0
 93
        1
 44
0.0
173
     0
291
     0
 45
0.0
1001
ACAD
1000
AcDbSavedByObjectVersion
1070
     0
  0
VISUALSTYLE
  5
32
102
{ACAD_REACTORS
330
2A
102
}
102
{ACAD_XDICTIONARY
360
3AD
102
}
330
2A
100
AcDbVisualStyle
  2
Basic
 70
     7
 71
     1
 72
     0
 73
     1
 90
        0
 40
0.6
 41
30.0
 62
     5
 63
     7
421
 16777215
 74
     0
 91
        4
 64
     7
 65
   257
 75
     1
175
     1
 42
1.0
 92
        8
 66
     7
 43
1.0
 76
     1
 77
     6
 78
     2
 67
     7
 79
     5
170
     0
171
     0
290
     0
174
     0
 93
        1
 44
0.0
173
     0
291
     1
 45
0.0
1001
ACAD
1000
AcDbSavedByObjectVersion
1070
     0
  0
VISUALSTYLE
  5
36
102
{ACAD_REACTORS
330
2A
102
}
102
{ACAD_XDICTIONARY
360
3B5
102
}
330
2A
100
AcDbVisualStyle
  2
Brighten
 70
    12
 71
     2
 72
     2
 73
     0
 90
        0
 40
0.6
 41
30.0
 62
     5
 63
     7
421
 16777215
 74
     1
 91
        4
 64
     7
 65
   257
 75
     1
175
     1
 42
1.0
 92
        8
 66
     7
 43
1.0
 76
     1
 77
     6
 78
     2
 67
     7
 79
     5
170
     0
171
     0
290
     0
174
     0
 93
        1
 44
50.0
173
     0
291
     1
 45
0.0
1001
ACAD
1000
AcDbSavedByObjectVersion
1070
     0
  0
VISUALSTYLE
  5
3A
102
{ACAD_REACTORS
330
2A
102
}
102
{ACAD_XDICTIONARY
360
3BD
102
}
330
2A
100
AcDbVisualStyle
  2
ColorChange
 70
    16
 71
     2
 72
     2
 73
     3
 90
        0
 40
0.6
 41
30.0
 62
     5
 63
     8
421
  8421504
 74
     1
 91
        4
 64
     7
 65
   257
 75
     1
175
     1
 42
1.0
 92
        8
 66
     8
424
  8421504
 43
1.0
 76
     1
 77
     6
 78
     2
 67
     7
 79
     5
170
     0
171
     0
290
     0
174
     0
 93
        1
 44
0.0
173
     0
291
     1
 45
0.0
1001
ACAD
1000
AcDbSavedByObjectVersion
1070
     0
  0
VISUALSTYLE
  5
34
102
{ACAD_REACTORS
330
2A
102
}
102
{ACAD_XDICTIONARY
360
3B1
102
}
330
2A
100
AcDbVisualStyle
  2
Conceptual
 70
     9
 71
     3
 72
     2
 73
     0
 90
        0
 40
0.6
 41
30.0
 62
     5
 63
     7
421
 16777215
 74
     2
 91
        2
 64
     7
 65
   257
 75
     1
175
     1
 42
179.0
 92
        8
 66
     7
 43
1.0
 76
     1
 77
     6
 78
     2
 67
     7
 79
     3
170
     0
171
     0
290
     0
174
     0
 93
        1
 44
0.0
173
     0
291
     0
 45
0.0
1001
ACAD
1000
AcDbSavedByObjectVersion
1070
     0
  0
VISUALSTYLE
  5
35
102
{ACAD_REACTORS
330
2A
102
}
102
{ACAD_XDICTIONARY
360
3B3
102
}
330
2A
100
AcDbVisualStyle
  2
Dim
 70
    11
 71
     2
 72
     2
 73
     0
 90
        0
 40
0.6
 41
30.0
 62
     5
 63
     7
421
 16777215
 74
     1
 91
        4
 64
     7
 65
   257
 75
     1
175
     1
 42
1.0
 92
        8
 66
     7
 43
1.0
 76
     1
 77
     6
 78
     2
 67
     7
 79
     5
170
     0
171
     0
290
     0
174
     0
 93
        1
 44
-50.0
173
     0
291
     1
 45
0.0
1001
ACAD
1000
AcDbSavedByObjectVersion
1070
     0
  0
VISUALSTYLE
  5
3D
102
{ACAD_REACTORS
330
2A
102
}
102
{ACAD_XDICTIONARY
360
3C3
102
}
330
2A
100
AcDbVisualStyle
  2
EdgeColorOff
 70
    22
 71
     2
 72
     2
 73
     0
 90
        0
 40
0.6
 41
30.0
 62
     5
 63
     7
421
 16777215
 74
     1
 91
        4
 64
     7
 65
   257
 75
     1
175
     1
 42
1.0
 92
        8
 66
     7
 43
1.0
 76
     1
 77
     6
 78
     2
 67
     7
 79
     5
170
     0
171
     0
290
     0
174
     0
 93
        1
 44
0.0
173
     0
291
     1
 45
0.0
1001
ACAD
1000
AcDbSavedByObjectVersion
1070
     0
  0
VISUALSTYLE
  5
39
102
{ACAD_REACTORS
330
2A
102
}
102
{ACAD_XDICTIONARY
360
3BB
102
}
330
2A
100
AcDbVisualStyle
  2
Facepattern
 70
    15
 71
     2
 72
     2
 73
     0
 90
        0
 40
0.6
 41
30.0
 62
     5
 63
     7
421
 16777215
 74
     1
 91
        4
 64
     7
 65
   257
 75
     1
175
     1
 42
1.0
 92
        8
 66
     7
 43
1.0
 76
     1
 77
     6
 78
     2
 67
     7
 79
     5
170
     0
171
     0
290
     0
174
     0
 93
        1
 44
0.0
173
     0
291
     1
 45
0.0
1001
ACAD
1000
AcDbSavedByObjectVersion
1070
     0
  0
VISUALSTYLE
  5
2B
102
{ACAD_REACTORS
330
2A
102
}
102
{ACAD_XDICTIONARY
360
39F
102
}
330
2A
100
AcDbVisualStyle
  2
Flat
 70
     0
 71
     2
 72
     1
 73
     1
 90
        2
 40
0.6
 41
30.0
 62
     5
 63
     7
421
 16777215
 74
     0
 91
        0
 64
     7
 65
   257
 75
     1
175
     1
 42
1.0
 92
        8
 66
     7
 43
1.0
 76
     1
 77
     6
 78
     2
 67
     7
 79
     5
170
     0
171
     0
290
     0
174
     0
 93
       13
 44
0.0
173
     0
291
     1
 45
0.0
1001
ACAD
1000
AcDbSavedByObjectVersion
1070
     0
  0
VISUALSTYLE
  5
2C
102
{ACAD_REACTORS
330
2A
102
}
102
{ACAD_XDICTIONARY
360
3A1
102
}
330
2A
100
AcDbVisualStyle
  2
FlatWithEdges
 70
     1
 71
     2
 72
     1
 73
     1
 90
        2
 40
0.6
 41
30.0
 62
     5
 63
     7
421
 16777215
 74
     1
 91
        0
 64
     7
 65
   257
 75
     1
175
     1
 42
1.0
 92
        0
 66
   257
 43
1.0
 76
     1
 77
     6
 78
     2
 67
     7
 79
     5
170
     0
171
     0
290
     0
174
     0
 93
       13
 44
0.0
173
     0
291
     1
 45
0.0
1001
ACAD
1000
AcDbSavedByObjectVersion
1070
     0
  0
VISUALSTYLE
  5
2D
102
{ACAD_REACTORS
330
2A
102
}
102
{ACAD_XDICTIONARY
360
3A3
102
}
330
2A
100
AcDbVisualStyle
  2
Gouraud
 70
     2
 71
     2
 72
     2
 73
     1
 90
        2
 40
0.6
 41
30.0
 62
     5
 63
     7
421
 16777215
 74
     0
 91
        0
 64
     7
 65
   257
 75
     1
175
     1
 42
1.0
 92
        0
 66
     7
 43
1.0
 76
     1
 77
     6
 78
     2
 67
     7
 79
     5
170
     0
171
     0
290
     0
174
     0
 93
       13
 44
0.0
173
     0
291
     1
 45
0.0
1001
ACAD
1000
AcDbSavedByObjectVersion
1070
     0
  0
VISUALSTYLE
  5
2E
102
{ACAD_REACTORS
330
2A
102
}
102
{ACAD_XDICTIONARY
360
3A5
102
}
330
2A
100
AcDbVisualStyle
  2
GouraudWithEdges
 70
     3
 71
     2
 72
     2
 73
     1
 90
        2
 40
0.6
 41
30.0
 62
     5
 63
     7
421
 16777215
 74
     1
 91
        0
 64
     7
 65
   257
 75
     1
175
     1
 42
1.0
 92
        0
 66
   257
 43
1.0
 76
     1
 77
     6
 78
     2
 67
     7
 79
     5
170
     0
171
     0
290
     0
174
     0
 93
       13
 44
0.0
173
     0
291
     1
 45
0.0
1001
ACAD
1000
AcDbSavedByObjectVersion
1070
     0
  0
VISUALSTYLE
  5
31
102
{ACAD_REACTORS
330
2A
102
}
102
{ACAD_XDICTIONARY
360
3AB
102
}
330
2A
100
AcDbVisualStyle
  2
Hidden
 70
     6
 71
     1
 72
     2
 73
     2
 90
        0
 40
0.6
 41
30.0
 62
     5
 63
     7
421
 16777215
 74
     2
 91
        2
 64
     7
 65
   257
 75
     2
175
     1
 42
40.0
 92
        0
 66
   257
 43
1.0
 76
     1
 77
     6
 78
     2
 67
     7
 79
     3
170
     0
171
     0
290
     0
174
     0
 93
        1
 44
0.0
173
     0
291
     0
 45
0.0
1001
ACAD
1000
AcDbSavedByObjectVersion
1070
     0
  0
VISUALSTYLE
  5
3B
102
{ACAD_REACTORS
330
2A
102
}
102
{ACAD_XDICTIONARY
360
3BF
102
}
330
2A
100
AcDbVisualStyle
  2
JitterOff
 70
    20
 71
     2
 72
     2
 73
     0
 90
        0
 40
0.6
 41
30.0
 62
     5
 63
     7
421
 16777215
 74
     1
 91
        4
 64
     7
 65
   257
 75
     1
175
     1
 42
1.0
 92
       10
 66
     7
 43
1.0
 76
     1
 77
     6
 78
     2
 67
     7
 79
     5
170
     0
171
     0
290
     0
174
     0
 93
        1
 44
0.0
173
     0
291
     1
 45
0.0
1001
ACAD
1000
AcDbSavedByObjectVersion
1070
     0
  0
VISUALSTYLE
  5
38
102
{ACAD_REACTORS
330
2A
102
}
102
{ACAD_XDICTIONARY
360
3B9
102
}
330
2A
100
AcDbVisualStyle
  2
Linepattern
 70
    14
 71
     2
 72
     2
 73
     0
 90
        0
 40
0.6
 41
30.0
 62
     5
 63
     7
421
 16777215
 74
     1
 91
        4
 64
     7
 65
   257
 75
     7
175
     7
 42
1.0
 92
        8
 66
     7
 43
1.0
 76
     1
 77
     6
 78
     2
 67
     7
 79
     5
170
     0
171
     0
290
     0
174
     0
 93
        1
 44
0.0
173
     0
291
     1
 45
0.0
1001
ACAD
1000
AcDbSavedByObjectVersion
1070
     0
  0
VISUALSTYLE
  5
3C
102
{ACAD_REACTORS
330
2A
102
}
102
{ACAD_XDICTIONARY
360
3C1
102
}
330
2A
100
AcDbVisualStyle
  2
OverhangOff
 70
    21
 71
     2
 72
     2
 73
     0
 90
        0
 40
0.6
 41
30.0
 62
     5
 63
     7
421
 16777215
 74
     1
 91
        4
 64
     7
 65
   257
 75
     1
175
     1
 42
1.0
 92
        9
 66
     7
 43
1.0
 76
     1
 77
     6
 78
     2
 67
     7
 79
     5
170
     0
171
     0
290
     0
174
     0
 93
        1
 44
0.0
173
     0
291
     1
 45
0.0
1001
ACAD
1000
AcDbSavedByObjectVersion
1070
     0
  0
VISUALSTYLE
  5
33
102
{ACAD_REACTORS
330
2A
102
}
102
{ACAD_XDICTIONARY
360
3AF
102
}
330
2A
100
AcDbVisualStyle
  2
Realistic
 70
     8
 71
     2
 72
     3
 73
     0
 90
        2
 40
0.6
 41
30.0
 62
     5
 63
     7
421
 16777215
 74
     0
 91
        0
 64
     7
 65
   257
 75
     1
175
     1
 42
1.0
 92
        8
 66
   257
 43
1.0
 76
     1
 77
     6
 78
     2
 67
     7
 79
     3
170
     0
171
     0
290
     0
174
     0
 93
       13
 44
0.0
173
     0
291
     0
 45
0.0
1001
ACAD
1000
AcDbSavedByObjectVersion
1070
     0
  0
VISUALSTYLE
  5
42
102
{ACAD_REACTORS
330
2A
102
}
102
{ACAD_XDICTIONARY
360
3CD
102
}
330
2A
100
AcDbVisualStyle
  2
Shaded
 70
    27
 71
     2
 72
     2
 73
     1
 90
        2
 40
0.6
 41
30.0
 62
     5
 63
     7
421
 16777215
 74
     0
 91
        4
 64
     7
 65
   257
 75
     1
175
     1
 42
1.0
 92
        8
 66
   257
 43
1.0
 76
     1
 77
     6
 78
     2
 67
     8
425
  7895160
 79
     3
170
     0
171
     0
290
     0
174
     0
 93
        5
 44
0.0
173
     0
291
     0
 45
0.0
1001
ACAD
1000
AcDbSavedByObjectVersion
1070
     0
  0
VISUALSTYLE
  5
41
102
{ACAD_REACTORS
330
2A
102
}
102
{ACAD_XDICTIONARY
360
3CB
102
}
330
2A
100
AcDbVisualStyle
  2
Shaded with edges
 70
    26
 71
     2
 72
     2
 73
     1
 90
        2
 40
0.6
 41
30.0
 62
     5
 63
     7
421
 16777215
 74
     1
 91
       10
 64
     7
 65
   257
 75
     2
175
     1
 42
1.0
 92
        8
 66
   257
 43
1.0
 76
     1
 77
     6
 78
     2
 67
     7
 79
     3
170
     0
171
     0
290
     0
174
     0
 93
        5
 44
0.0
173
     0
291
     0
 45
0.0
1001
ACAD
1000
AcDbSavedByObjectVersion
1070
     0
  0
VISUALSTYLE
  5
3E
102
{ACAD_REACTORS
330
2A
102
}
102
{ACAD_XDICTIONARY
360
3C5
102
}
330
2A
100
AcDbVisualStyle
  2
Shades of Gray
 70
    23
 71
     2
 72
     2
 73
     3
 90
        0
 40
0.6
 41
30.0
 62
     5
 63
     7
421
 16777215
 74
     2
 91
        2
 64
     7
 65
     7
 75
     1
175
     1
 42
40.0
 92
        8
 66
     7
 43
1.0
 76
     1
 77
     6
 78
     2
 67
     7
 79
     3
170
     0
171
     0
290
     0
174
     0
 93
        1
 44
0.0
173
     0
291
     0
 45
0.0
1001
ACAD
1000
AcDbSavedByObjectVersion
1070
     0
  0
VISUALSTYLE
  5
3F
102
{ACAD_REACTORS
330
2A
102
}
102
{ACAD_XDICTIONARY
360
3C7
102
}
330
2A
100
AcDbVisualStyle
  2
Sketchy
 70
    24
 71
     1
 72
     2
 73
     2
 90
        0
 40
0.6
 41
30.0
 62
     5
 63
     7
421
 16777215
 74
     2
 91
        2
 64
     7
 65
     7
 75
     1
175
     1
 42
40.0
 92
       11
 66
     7
 43
1.0
 76
     1
 77
     6
 78
     2
 67
     7
 79
     6
170
     0
171
     0
290
     0
174
     0
 93
        1
 44
0.0
173
     0
291
     0
 45
0.0
1001
ACAD
1000
AcDbSavedByObjectVersion
1070
     0
  0
VISUALSTYLE
  5
37
102
{ACAD_REACTORS
330
2A
102
}
102
{ACAD_XDICTIONARY
360
3B7
102
}
330
2A
100
AcDbVisualStyle
  2
Thicken
 70
    13
 71
     2
 72
     2
 73
     0
 90
        0
 40
0.6
 41
30.0
 62
     5
 63
     7
421
 16777215
 74
     1
 91
        4
 64
     7
 65
   257
 75
     1
175
     1
 42
1.0
 92
       12
 66
     7
 43
1.0
 76
     1
 77
     6
 78
     2
 67
     7
 79
     5
170
     0
171
     0
290
     0
174
     0
 93
        1
 44
0.0
173
     0
291
     1
 45
0.0
1001
ACAD
1000
AcDbSavedByObjectVersion
1070
     0
  0
VISUALSTYLE
  5
30
102
{ACAD_REACTORS
330
2A
102
}
102
{ACAD_XDICTIONARY
360
3A9
102
}
330
2A
100
AcDbVisualStyle
  2
Wireframe
 70
     5
 71
     0
 72
     2
 73
     0
 90
        0
 40
0.6
 41
30.0
 62
     5
 63
     7
421
 16777215
 74
     1
 91
        4
 64
     7
 65
   257
 75
     1
175
     1
 42
1.0
 92
        0
 66
   257
 43
1.0
 76
     1
 77
     6
 78
     2
 67
     7
 79
     3
170
     0
171
     0
290
     0
174
     0
 93
        1
 44
0.0
173
     0
291
     0
 45
0.0
1001
ACAD
1000
AcDbSavedByObjectVersion
1070
     0
  0
VISUALSTYLE
  5
40
102
{ACAD_REACTORS
330
2A
102
}
102
{ACAD_XDICTIONARY
360
3C9
102
}
330
2A
100
AcDbVisualStyle
  2
X-Ray
 70
    25
 71
     2
 72
     2
 73
     1
 90
        1
 40
0.5
 41
30.0
 62
     5
 63
     7
421
 16777215
 74
     1
 91
        0
 64
     7
 65
   257
 75
     1
175
     1
 42
1.0
 92
        8
 66
     7
 43
1.0
 76
     1
 77
     6
 78
     2
 67
     7
 79
     3
170
     0
171
     0
290
     0
174
     0
 93
       13
 44
0.0
173
     0
291
     0
 45
0.0
1001
ACAD
1000
AcDbSavedByObjectVersion
1070
     0
  0
DICTIONARYVAR
  5
39C
102
{ACAD_REACTORS
330
39B
102
}
330
39B
100
DictionaryVariables
280
     0
  1
1:1
  0
DICTIONARYVAR
  5
3E0
102
{ACAD_REACTORS
330
39B
102
}
330
39B
100
DictionaryVariables
280
     0
  1
3.500000
  0
DICTIONARYVAR
  5
3E1
102
{ACAD_REACTORS
330
39B
102
}
330
39B
100
DictionaryVariables
280
     0
  1
acadiso.lin
  0
DICTIONARYVAR
  5
3DD
102
{ACAD_REACTORS
330
39B
102
}
330
39B
100
DictionaryVariables
280
     0
  1
Standard
  0
DICTIONARYVAR
  5
3DC
102
{ACAD_REACTORS
330
39B
102
}
330
39B
100
DictionaryVariables
280
     0
  1
Standard
  0
DICTIONARYVAR
  5
39D
102
{ACAD_REACTORS
330
39B
102
}
330
39B
100
DictionaryVariables
280
     0
  1
1
  0
DICTIONARYVAR
  5
39E
102
{ACAD_REACTORS
330
39B
102
}
330
39B
100
DictionaryVariables
280
     0
  1
2
  0
DICTIONARY
  5
3D1
330
45
100
AcDbDictionary
280
     1
281
     1
  3
ACAD_XREC_ROUNDTRIP
360
3D2
  0
DICTIONARY
  5
3CF
330
44
100
AcDbDictionary
280
     1
281
     1
  3
ACAD_XREC_ROUNDTRIP
360
3D0
  0
DICTIONARY
  5
3D3
330
46
100
AcDbDictionary
280
     1
281
     1
  3
ACAD_XREC_ROUNDTRIP
360
3D4
  0
DICTIONARY
  5
3D9
330
6C
100
AcDbDictionary
280
     1
281
     1
  3
ACAD_XREC_ROUNDTRIP
360
3DA
  0
DICTIONARY
  5
3D5
330
6A
100
AcDbDictionary
280
     1
281
     1
  3
ACAD_ROUNDTRIP_2008_TABLESTYLE_CELLSTYLEMAP
360
3D7
  3
ACAD_XREC_ROUNDTRIP
360
3D6
  0
DICTIONARY
  5
3A7
330
2F
100
AcDbDictionary
280
     1
281
     1
  3
ACAD_XREC_ROUNDTRIP
360
3A8
  0
DICTIONARY
  5
3AD
330
32
100
AcDbDictionary
280
     1
281
     1
  3
ACAD_XREC_ROUNDTRIP
360
3AE
  0
DICTIONARY
  5
3B5
330
36
100
AcDbDictionary
280
     1
281
     1
  3
ACAD_XREC_ROUNDTRIP
360
3B6
  0
DICTIONARY
  5
3BD
330
3A
100
AcDbDictionary
280
     1
281
     1
  3
ACAD_XREC_ROUNDTRIP
360
3BE
  0
DICTIONARY
  5
3B1
330
34
100
AcDbDictionary
280
     1
281
     1
  3
ACAD_XREC_ROUNDTRIP
360
3B2
  0
DICTIONARY
  5
3B3
330
35
100
AcDbDictionary
280
     1
281
     1
  3
ACAD_XREC_ROUNDTRIP
360
3B4
  0
DICTIONARY
  5
3C3
330
3D
100
AcDbDictionary
280
     1
281
     1
  3
ACAD_XREC_ROUNDTRIP
360
3C4
  0
DICTIONARY
  5
3BB
330
39
100
AcDbDictionary
280
     1
281
     1
  3
ACAD_XREC_ROUNDTRIP
360
3BC
  0
DICTIONARY
  5
39F
330
2B
100
AcDbDictionary
280
     1
281
     1
  3
ACAD_XREC_ROUNDTRIP
360
3A0
  0
DICTIONARY
  5
3A1
330
2C
100
AcDbDictionary
280
     1
281
     1
  3
ACAD_XREC_ROUNDTRIP
360
3A2
  0
DICTIONARY
  5
3A3
330
2D
100
AcDbDictionary
280
     1
281
     1
  3
ACAD_XREC_ROUNDTRIP
360
3A4
  0
DICTIONARY
  5
3A5
330
2E
100
AcDbDictionary
280
     1
281
     1
  3
ACAD_XREC_ROUNDTRIP
360
3A6
  0
DICTIONARY
  5
3AB
330
31
100
AcDbDictionary
280
     1
281
     1
  3
ACAD_XREC_ROUNDTRIP
360
3AC
  0
DICTIONARY
  5
3BF
330
3B
100
AcDbDictionary
280
     1
281
     1
  3
ACAD_XREC_ROUNDTRIP
360
3C0
  0
DICTIONARY
  5
3B9
330
38
100
AcDbDictionary
280
     1
281
     1
  3
ACAD_XREC_ROUNDTRIP
360
3BA
  0
DICTIONARY
  5
3C1
330
3C
100
AcDbDictionary
280
     1
281
     1
  3
ACAD_XREC_ROUNDTRIP
360
3C2
  0
DICTIONARY
  5
3AF
330
33
100
AcDbDictionary
280
     1
281
     1
  3
ACAD_XREC_ROUNDTRIP
360
3B0
  0
DICTIONARY
  5
3CD
330
42
100
AcDbDictionary
280
     1
281
     1
  3
ACAD_XREC_ROUNDTRIP
360
3CE
  0
DICTIONARY
  5
3CB
330
41
100
AcDbDictionary
280
     1
281
     1
  3
ACAD_XREC_ROUNDTRIP
360
3CC
  0
DICTIONARY
  5
3C5
330
3E
100
AcDbDictionary
280
     1
281
     1
  3
ACAD_XREC_ROUNDTRIP
360
3C6
  0
DICTIONARY
  5
3C7
330
3F
100
AcDbDictionary
280
     1
281
     1
  3
ACAD_XREC_ROUNDTRIP
360
3C8
  0
DICTIONARY
  5
3B7
330
37
100
AcDbDictionary
280
     1
281
     1
  3
ACAD_XREC_ROUNDTRIP
360
3B8
  0
DICTIONARY
  5
3A9
330
30
100
AcDbDictionary
280
     1
281
     1
  3
ACAD_XREC_ROUNDTRIP
360
3AA
  0
DICTIONARY
  5
3C9
330
40
100
AcDbDictionary
280
     1
281
     1
  3
ACAD_XREC_ROUNDTRIP
360
3CA
  0
XRECORD
  5
3D2
102
{ACAD_REACTORS
330
3D1
102
}
330
3D1
100
AcDbXrecord
280
     1
102
MATERIAL
148
0.0
149
0.0
149
0.0
 93
        0
 94
      127
282
     0
 72
     1
 77
     1
171
     1
175
     1
179
     1
273
     0
  0
XRECORD
  5
3D0
102
{ACAD_REACTORS
330
3CF
102
}
330
3CF
100
AcDbXrecord
280
     1
102
MATERIAL
148
0.0
149
0.0
149
0.0
 93
        0
 94
      127
282
     0
 72
     1
 77
     1
171
     1
175
     1
179
     1
273
     0
  0
XRECORD
  5
3D4
102
{ACAD_REACTORS
330
3D3
102
}
330
3D3
100
AcDbXrecord
280
     1
102
MATERIAL
148
0.0
149
0.0
149
0.0
 93
        0
 94
      127
282
     0
 72
     1
 77
     1
171
     1
175
     1
179
     1
273
     0
  0
XRECORD
  5
3DA
102
{ACAD_REACTORS
330
3D9
102
}
330
3D9
100
AcDbXrecord
280
     1
102
ACAD_ROUNDTRIP_2010_MLEADER_STYLE
  0
CELLSTYLEMAP
  5
3D7
102
{ACAD_REACTORS
330
3D5
102
}
330
3D5
100
AcDbCellStyleMap
 90
        3
300
CELLSTYLE
  1
TABLEFORMAT_BEGIN
 90
        5
170
     1
 91
        0
 92
    32768
 62
   257
 93
        1
300
CONTENTFORMAT
  1
CONTENTFORMAT_BEGIN
 90
        0
 91
        0
 92
        4
 93
        0
300

 40
0.0
140
1.0
 94
        5
 62
     0
340
11
144
6.0
309
CONTENTFORMAT_END
171
     1
301
MARGIN
  1
CELLMARGIN_BEGIN
 40
1.5
 40
1.5
 40
1.5
 40
1.5
 40
1.5
 40
1.5
309
CELLMARGIN_END
 94
        6
 95
        1
302
GRIDFORMAT
  1
GRIDFORMAT_BEGIN
 90
        0
 91
        1
 62
     0
 92
       -2
340
14
 93
        0
 40
0.045
309
GRIDFORMAT_END
 95
        2
302
GRIDFORMAT
  1
GRIDFORMAT_BEGIN
 90
        0
 91
        1
 62
     0
 92
       -2
340
14
 93
        0
 40
0.045
309
GRIDFORMAT_END
 95
        4
302
GRIDFORMAT
  1
GRIDFORMAT_BEGIN
 90
        0
 91
        1
 62
     0
 92
       -2
340
14
 93
        0
 40
0.045
309
GRIDFORMAT_END
 95
        8
302
GRIDFORMAT
  1
GRIDFORMAT_BEGIN
 90
        0
 91
        1
 62
     0
 92
       -2
340
14
 93
        0
 40
0.045
309
GRIDFORMAT_END
 95
       16
302
GRIDFORMAT
  1
GRIDFORMAT_BEGIN
 90
        0
 91
        1
 62
     0
 92
       -2
340
14
 93
        0
 40
0.045
309
GRIDFORMAT_END
 95
       32
302
GRIDFORMAT
  1
GRIDFORMAT_BEGIN
 90
        0
 91
        1
 62
     0
 92
       -2
340
14
 93
        0
 40
0.045
309
GRIDFORMAT_END
309
TABLEFORMAT_END
  1
CELLSTYLE_BEGIN
 90
        1
 91
        1
300
_TITLE
309
CELLSTYLE_END
300
CELLSTYLE
  1
TABLEFORMAT_BEGIN
 90
        5
170
     1
 91
        0
 92
        0
 62
   257
 93
        1
300
CONTENTFORMAT
  1
CONTENTFORMAT_BEGIN
 90
        0
 91
        0
 92
        4
 93
        0
300

 40
0.0
140
1.0
 94
        5
 62
     0
340
11
144
4.5
309
CONTENTFORMAT_END
171
     1
301
MARGIN
  1
CELLMARGIN_BEGIN
 40
1.5
 40
1.5
 40
1.5
 40
1.5
 40
1.5
 40
1.5
309
CELLMARGIN_END
 94
        6
 95
        1
302
GRIDFORMAT
  1
GRIDFORMAT_BEGIN
 90
        0
 91
        1
 62
     0
 92
       -2
340
14
 93
        0
 40
0.045
309
GRIDFORMAT_END
 95
        2
302
GRIDFORMAT
  1
GRIDFORMAT_BEGIN
 90
        0
 91
        1
 62
     0
 92
       -2
340
14
 93
        0
 40
0.045
309
GRIDFORMAT_END
 95
        4
302
GRIDFORMAT
  1
GRIDFORMAT_BEGIN
 90
        0
 91
        1
 62
     0
 92
       -2
340
14
 93
        0
 40
0.045
309
GRIDFORMAT_END
 95
        8
302
GRIDFORMAT
  1
GRIDFORMAT_BEGIN
 90
        0
 91
        1
 62
     0
 92
       -2
340
14
 93
        0
 40
0.045
309
GRIDFORMAT_END
 95
       16
302
GRIDFORMAT
  1
GRIDFORMAT_BEGIN
 90
        0
 91
        1
 62
     0
 92
       -2
340
14
 93
        0
 40
0.045
309
GRIDFORMAT_END
 95
       32
302
GRIDFORMAT
  1
GRIDFORMAT_BEGIN
 90
        0
 91
        1
 62
     0
 92
       -2
340
14
 93
        0
 40
0.045
309
GRIDFORMAT_END
309
TABLEFORMAT_END
  1
CELLSTYLE_BEGIN
 90
        2
 91
        1
300
_HEADER
309
CELLSTYLE_END
300
CELLSTYLE
  1
TABLEFORMAT_BEGIN
 90
        5
170
     1
 91
        0
 92
        0
 62
   257
 93
        1
300
CONTENTFORMAT
  1
CONTENTFORMAT_BEGIN
 90
        0
 91
        0
 92
        4
 93
        0
300

 40
0.0
140
1.0
 94
        2
 62
     0
340
11
144
4.5
309
CONTENTFORMAT_END
171
     1
301
MARGIN
  1
CELLMARGIN_BEGIN
 40
1.5
 40
1.5
 40
1.5
 40
1.5
 40
1.5
 40
1.5
309
CELLMARGIN_END
 94
        6
 95
        1
302
GRIDFORMAT
  1
GRIDFORMAT_BEGIN
 90
        0
 91
        1
 62
     0
 92
       -2
340
14
 93
        0
 40
0.045
309
GRIDFORMAT_END
 95
        2
302
GRIDFORMAT
  1
GRIDFORMAT_BEGIN
 90
        0
 91
        1
 62
     0
 92
       -2
340
14
 93
        0
 40
0.045
309
GRIDFORMAT_END
 95
        4
302
GRIDFORMAT
  1
GRIDFORMAT_BEGIN
 90
        0
 91
        1
 62
     0
 92
       -2
340
14
 93
        0
 40
0.045
309
GRIDFORMAT_END
 95
        8
302
GRIDFORMAT
  1
GRIDFORMAT_BEGIN
 90
        0
 91
        1
 62
     0
 92
       -2
340
14
 93
        0
 40
0.045
309
GRIDFORMAT_END
 95
       16
302
GRIDFORMAT
  1
GRIDFORMAT_BEGIN
 90
        0
 91
        1
 62
     0
 92
       -2
340
14
 93
        0
 40
0.045
309
GRIDFORMAT_END
 95
       32
302
GRIDFORMAT
  1
GRIDFORMAT_BEGIN
 90
        0
 91
        1
 62
     0
 92
       -2
340
14
 93
        0
 40
0.045
309
GRIDFORMAT_END
309
TABLEFORMAT_END
  1
CELLSTYLE_BEGIN
 90
        3
 91
        2
300
_DATA
309
CELLSTYLE_END
  0
XRECORD
  5
3D6
102
{ACAD_REACTORS
330
3D5
102
}
330
3D5
100
AcDbXrecord
280
     1
102
ACAD_ROUNDTRIP_PRE2007_TABLESTYLE
 90
        4
 91
        0
  1

 92
        4
 93
        0
  2

 94
        4
 95
        0
  3

  0
XRECORD
  5
3A8
102
{ACAD_REACTORS
330
3A7
102
}
330
3A7
100
AcDbXrecord
280
     1
102
RTVSPropertyOp0
 70
     1
102
RTVSPropertyOp1
 70
     1
102
RTVSPropertyOp2
 70
     1
102
RTVSPropertyOp3
 70
     1
102
RTVSPropertyOp4
 70
     1
102
RTVSPropertyOp5
 70
     1
102
RTVSPropertyOp6
 70
     1
102
RTVSPropertyOp7
 70
     1
102
RTVSPropertyOp8
 70
     1
102
RTVSPropertyOp9
 70
     1
102
RTVSPropertyOp10
 70
     1
102
RTVSPropertyOp11
 70
     1
102
RTVSPropertyOp12
 70
     1
102
RTVSPropertyOp13
 70
     1
102
RTVSPropertyOp14
 70
     1
102
RTVSPropertyOp15
 70
     1
102
RTVSPropertyOp16
 70
     1
102
RTVSPropertyOp17
 70
     1
102
RTVSPropertyOp18
 70
     1
102
RTVSPropertyOp19
 70
     1
102
RTVSPropertyOp20
 70
     1
102
RTVSPropertyOp21
 70
     1
102
RTVSPropertyOp22
 70
     1
102
RTVSPropertyOp23
 70
     1
102
RTVSPropertyOp24
 70
     1
102
RTVSPropertyOp25
 70
     1
102
RTVSPropertyOp26
 70
     1
102
RTVSPropertyOp27
 70
     1
102
RTVSPropertyOp28
 70
     1
102
RTVSPropertyOp29
 70
     1
102
RTVSPropertyOp30
 70
     1
102
RTVSPropertyOp31
 70
     1
102
RTVSPropertyOp32
 70
     1
102
RTVSPropertyOp33
 70
     1
102
RTVSPropertyOp34
 70
     1
102
RTVSPropertyOp35
 70
     1
102
RTVSPropertyOp36
 70
     1
102
RTVSPropertyOp37
 70
     1
102
RTVSPropertyOp38
 70
     1
102
RTVSPropertyOp39
 70
     1
102
RTVSPropertyOp40
 70
     1
102
RTVSPropertyOp41
 70
     1
102
RTVSPropertyOp42
 70
     1
102
RTVSPropertyOp43
 70
     1
102
RTVSPropertyOp44
 70
     1
102
RTVSPropertyOp45
 70
     1
102
RTVSPropertyOp46
 70
     1
102
RTVSPropertyOp47
 70
     1
102
RTVSPropertyOp48
 70
     1
102
RTVSPropertyOp49
 70
     1
102
RTVSPropertyOp50
 70
     1
102
RTVSPropertyOp51
 70
     0
102
RTVSPropertyOp52
 70
     0
102
RTVSPropertyOp53
 70
     1
102
RTVSPropertyOp54
 70
     1
102
RTVSPropertyOp55
 70
     1
102
RTVSPropertyOp56
 70
     1
102
RTVSPropertyOp57
 70
     1
102
RTVSPost2010Prop28
280
     1
102
RTVSPost2010PropOp28
 70
     1
102
RTVSPost2010Prop29
280
     1
102
RTVSPost2010PropOp29
 70
     1
102
RTVSPost2010Prop30
280
     0
102
RTVSPost2010PropOp30
 70
     1
102
RTVSPost2010Prop31
280
     0
102
RTVSPost2010PropOp31
 70
     1
102
RTVSPost2010Prop32
280
     0
102
RTVSPost2010PropOp32
 70
     1
102
RTVSPost2010Prop33
280
     0
102
RTVSPost2010PropOp33
 70
     1
102
RTVSPost2010Prop34
280
     0
102
RTVSPost2010PropOp34
 70
     1
102
RTVSPost2010Prop35
280
     0
102
RTVSPost2010PropOp35
 70
     1
102
RTVSPost2010Prop36
280
     0
102
RTVSPost2010PropOp36
 70
     1
102
RTVSPost2010Prop37
 90
       50
102
RTVSPost2010PropOp37
 70
     1
102
RTVSPost2010Prop38
140
0.0
102
RTVSPost2010PropOp38
 70
     1
102
RTVSPost2010Prop39
140
1.0
102
RTVSPost2010PropOp39
 70
     1
102
RTVSPost2010Prop40
 90
        0
102
RTVSPost2010PropOp40
 70
     1
102
RTVSPost2010Prop41ColorIndex
 90
       18
102
RTVSPost2010Prop41ColorRGB
 90
        0
102
RTVSPost2010PropOp41
 70
     1
102
RTVSPost2010Prop42
 90
       50
102
RTVSPost2010PropOp42
 70
     1
102
RTVSPost2010Prop43
 90
        3
102
RTVSPost2010PropOp43
 70
     1
102
RTVSPost2010Prop44ColorIndex
 90
        5
102
RTVSPost2010Prop44ColorRGB
 90
      255
102
RTVSPost2010PropOp44
 70
     1
102
RTVSPost2010Prop45
280
     0
102
RTVSPost2010PropOp45
 70
     1
102
RTVSPost2010Prop46
 90
       50
102
RTVSPost2010PropOp46
 70
     1
102
RTVSPost2010Prop47
 90
       50
102
RTVSPost2010PropOp47
 70
     1
102
RTVSPost2010Prop48
 90
       50
102
RTVSPost2010PropOp48
 70
     1
102
RTVSPost2010Prop49
280
     0
102
RTVSPost2010PropOp49
 70
     1
102
RTVSPost2010Prop50
 90
       50
102
RTVSPost2010PropOp50
 70
     1
102
RTVSPost2010Prop51ColorIndex
 90
      256
102
RTVSPost2010Prop51ColorRGB
 90
-16777216
102
RTVSPost2010PropOp51
 70
     0
102
RTVSPost2010Prop52
140
1.0
102
RTVSPost2010PropOp52
 70
     0
102
RTVSPost2010Prop53
 90
        2
102
RTVSPost2010PropOp53
 70
     1
102
RTVSPost2010Prop54
  1
strokes_ogs.tif
102
RTVSPost2010PropOp54
 70
     1
102
RTVSPost2010Prop55
280
     0
102
RTVSPost2010PropOp55
 70
     1
102
RTVSPost2010Prop56
140
1.0
102
RTVSPost2010PropOp56
 70
     1
102
RTVSPost2010Prop57
140
1.0
102
RTVSPost2010PropOp57
 70
     1
  0
XRECORD
  5
3AE
102
{ACAD_REACTORS
330
3AD
102
}
330
3AD
100
AcDbXrecord
280
     1
102
RTVSPropertyOp0
 70
     1
102
RTVSPropertyOp1
 70
     1
102
RTVSPropertyOp2
 70
     1
102
RTVSPropertyOp3
 70
     1
102
RTVSPropertyOp4
 70
     1
102
RTVSPropertyOp5
 70
     1
102
RTVSPropertyOp6
 70
     1
102
RTVSPropertyOp7
 70
     1
102
RTVSPropertyOp8
 70
     1
102
RTVSPropertyOp9
 70
     1
102
RTVSPropertyOp10
 70
     1
102
RTVSPropertyOp11
 70
     1
102
RTVSPropertyOp12
 70
     1
102
RTVSPropertyOp13
 70
     1
102
RTVSPropertyOp14
 70
     1
102
RTVSPropertyOp15
 70
     1
102
RTVSPropertyOp16
 70
     1
102
RTVSPropertyOp17
 70
     1
102
RTVSPropertyOp18
 70
     1
102
RTVSPropertyOp19
 70
     1
102
RTVSPropertyOp20
 70
     1
102
RTVSPropertyOp21
 70
     1
102
RTVSPropertyOp22
 70
     1
102
RTVSPropertyOp23
 70
     1
102
RTVSPropertyOp24
 70
     1
102
RTVSPropertyOp25
 70
     1
102
RTVSPropertyOp26
 70
     1
102
RTVSPropertyOp27
 70
     1
102
RTVSPropertyOp28
 70
     1
102
RTVSPropertyOp29
 70
     1
102
RTVSPropertyOp30
 70
     1
102
RTVSPropertyOp31
 70
     1
102
RTVSPropertyOp32
 70
     1
102
RTVSPropertyOp33
 70
     1
102
RTVSPropertyOp34
 70
     1
102
RTVSPropertyOp35
 70
     1
102
RTVSPropertyOp36
 70
     1
102
RTVSPropertyOp37
 70
     1
102
RTVSPropertyOp38
 70
     1
102
RTVSPropertyOp39
 70
     1
102
RTVSPropertyOp40
 70
     1
102
RTVSPropertyOp41
 70
     1
102
RTVSPropertyOp42
 70
     1
102
RTVSPropertyOp43
 70
     1
102
RTVSPropertyOp44
 70
     1
102
RTVSPropertyOp45
 70
     1
102
RTVSPropertyOp46
 70
     1
102
RTVSPropertyOp47
 70
     1
102
RTVSPropertyOp48
 70
     1
102
RTVSPropertyOp49
 70
     1
102
RTVSPropertyOp50
 70
     1
102
RTVSPropertyOp51
 70
     0
102
RTVSPropertyOp52
 70
     0
102
RTVSPropertyOp53
 70
     1
102
RTVSPropertyOp54
 70
     1
102
RTVSPropertyOp55
 70
     1
102
RTVSPropertyOp56
 70
     1
102
RTVSPropertyOp57
 70
     1
102
RTVSPost2010Prop28
280
     0
102
RTVSPost2010PropOp28
 70
     1
102
RTVSPost2010Prop29
280
     1
102
RTVSPost2010PropOp29
 70
     1
102
RTVSPost2010Prop30
280
     1
102
RTVSPost2010PropOp30
 70
     1
102
RTVSPost2010Prop31
280
     0
102
RTVSPost2010PropOp31
 70
     1
102
RTVSPost2010Prop32
280
     0
102
RTVSPost2010PropOp32
 70
     1
102
RTVSPost2010Prop33
280
     0
102
RTVSPost2010PropOp33
 70
     1
102
RTVSPost2010Prop34
280
     0
102
RTVSPost2010PropOp34
 70
     1
102
RTVSPost2010Prop35
280
     0
102
RTVSPost2010PropOp35
 70
     1
102
RTVSPost2010Prop36
280
     0
102
RTVSPost2010PropOp36
 70
     1
102
RTVSPost2010Prop37
 90
       50
102
RTVSPost2010PropOp37
 70
     1
102
RTVSPost2010Prop38
140
0.0
102
RTVSPost2010PropOp38
 70
     1
102
RTVSPost2010Prop39
140
1.0
102
RTVSPost2010PropOp39
 70
     1
102
RTVSPost2010Prop40
 90
        0
102
RTVSPost2010PropOp40
 70
     1
102
RTVSPost2010Prop41ColorIndex
 90
       18
102
RTVSPost2010Prop41ColorRGB
 90
        0
102
RTVSPost2010PropOp41
 70
     1
102
RTVSPost2010Prop42
 90
       50
102
RTVSPost2010PropOp42
 70
     1
102
RTVSPost2010Prop43
 90
        3
102
RTVSPost2010PropOp43
 70
     1
102
RTVSPost2010Prop44ColorIndex
 90
        5
102
RTVSPost2010Prop44ColorRGB
 90
      255
102
RTVSPost2010PropOp44
 70
     1
102
RTVSPost2010Prop45
280
     0
102
RTVSPost2010PropOp45
 70
     1
102
RTVSPost2010Prop46
 90
       50
102
RTVSPost2010PropOp46
 70
     1
102
RTVSPost2010Prop47
 90
       50
102
RTVSPost2010PropOp47
 70
     1
102
RTVSPost2010Prop48
 90
       50
102
RTVSPost2010PropOp48
 70
     1
102
RTVSPost2010Prop49
280
     0
102
RTVSPost2010PropOp49
 70
     1
102
RTVSPost2010Prop50
 90
       50
102
RTVSPost2010PropOp50
 70
     1
102
RTVSPost2010Prop51ColorIndex
 90
      256
102
RTVSPost2010Prop51ColorRGB
 90
-16777216
102
RTVSPost2010PropOp51
 70
     0
102
RTVSPost2010Prop52
140
1.0
102
RTVSPost2010PropOp52
 70
     0
102
RTVSPost2010Prop53
 90
        2
102
RTVSPost2010PropOp53
 70
     1
102
RTVSPost2010Prop54
  1
strokes_ogs.tif
102
RTVSPost2010PropOp54
 70
     1
102
RTVSPost2010Prop55
280
     0
102
RTVSPost2010PropOp55
 70
     1
102
RTVSPost2010Prop56
140
1.0
102
RTVSPost2010PropOp56
 70
     1
102
RTVSPost2010Prop57
140
1.0
102
RTVSPost2010PropOp57
 70
     1
  0
XRECORD
  5
3B6
102
{ACAD_REACTORS
330
3B5
102
}
330
3B5
100
AcDbXrecord
280
     1
102
RTVSPropertyOp0
 70
     1
102
RTVSPropertyOp1
 70
     1
102
RTVSPropertyOp2
 70
     1
102
RTVSPropertyOp3
 70
     1
102
RTVSPropertyOp4
 70
     1
102
RTVSPropertyOp5
 70
     1
102
RTVSPropertyOp6
 70
     1
102
RTVSPropertyOp7
 70
     1
102
RTVSPropertyOp8
 70
     1
102
RTVSPropertyOp9
 70
     1
102
RTVSPropertyOp10
 70
     1
102
RTVSPropertyOp11
 70
     1
102
RTVSPropertyOp12
 70
     1
102
RTVSPropertyOp13
 70
     1
102
RTVSPropertyOp14
 70
     1
102
RTVSPropertyOp15
 70
     1
102
RTVSPropertyOp16
 70
     1
102
RTVSPropertyOp17
 70
     1
102
RTVSPropertyOp18
 70
     1
102
RTVSPropertyOp19
 70
     1
102
RTVSPropertyOp20
 70
     1
102
RTVSPropertyOp21
 70
     1
102
RTVSPropertyOp22
 70
     1
102
RTVSPropertyOp23
 70
     1
102
RTVSPropertyOp24
 70
     1
102
RTVSPropertyOp25
 70
     1
102
RTVSPropertyOp26
 70
     1
102
RTVSPropertyOp27
 70
     1
102
RTVSPropertyOp28
 70
     1
102
RTVSPropertyOp29
 70
     1
102
RTVSPropertyOp30
 70
     1
102
RTVSPropertyOp31
 70
     1
102
RTVSPropertyOp32
 70
     1
102
RTVSPropertyOp33
 70
     1
102
RTVSPropertyOp34
 70
     1
102
RTVSPropertyOp35
 70
     1
102
RTVSPropertyOp36
 70
     1
102
RTVSPropertyOp37
 70
     1
102
RTVSPropertyOp38
 70
     1
102
RTVSPropertyOp39
 70
     1
102
RTVSPropertyOp40
 70
     1
102
RTVSPropertyOp41
 70
     1
102
RTVSPropertyOp42
 70
     1
102
RTVSPropertyOp43
 70
     1
102
RTVSPropertyOp44
 70
     1
102
RTVSPropertyOp45
 70
     1
102
RTVSPropertyOp46
 70
     1
102
RTVSPropertyOp47
 70
     1
102
RTVSPropertyOp48
 70
     1
102
RTVSPropertyOp49
 70
     1
102
RTVSPropertyOp50
 70
     1
102
RTVSPropertyOp51
 70
     0
102
RTVSPropertyOp52
 70
     0
102
RTVSPropertyOp53
 70
     1
102
RTVSPropertyOp54
 70
     1
102
RTVSPropertyOp55
 70
     1
102
RTVSPropertyOp56
 70
     1
102
RTVSPropertyOp57
 70
     1
102
RTVSPost2010Prop28
280
     0
102
RTVSPost2010PropOp28
 70
     1
102
RTVSPost2010Prop29
280
     1
102
RTVSPost2010PropOp29
 70
     1
102
RTVSPost2010Prop30
280
     1
102
RTVSPost2010PropOp30
 70
     1
102
RTVSPost2010Prop31
280
     0
102
RTVSPost2010PropOp31
 70
     1
102
RTVSPost2010Prop32
280
     0
102
RTVSPost2010PropOp32
 70
     1
102
RTVSPost2010Prop33
280
     0
102
RTVSPost2010PropOp33
 70
     1
102
RTVSPost2010Prop34
280
     0
102
RTVSPost2010PropOp34
 70
     1
102
RTVSPost2010Prop35
280
     0
102
RTVSPost2010PropOp35
 70
     1
102
RTVSPost2010Prop36
280
     0
102
RTVSPost2010PropOp36
 70
     1
102
RTVSPost2010Prop37
 90
       50
102
RTVSPost2010PropOp37
 70
     1
102
RTVSPost2010Prop38
140
0.0
102
RTVSPost2010PropOp38
 70
     1
102
RTVSPost2010Prop39
140
1.0
102
RTVSPost2010PropOp39
 70
     1
102
RTVSPost2010Prop40
 90
        0
102
RTVSPost2010PropOp40
 70
     1
102
RTVSPost2010Prop41ColorIndex
 90
       18
102
RTVSPost2010Prop41ColorRGB
 90
        0
102
RTVSPost2010PropOp41
 70
     1
102
RTVSPost2010Prop42
 90
       50
102
RTVSPost2010PropOp42
 70
     1
102
RTVSPost2010Prop43
 90
        3
102
RTVSPost2010PropOp43
 70
     1
102
RTVSPost2010Prop44ColorIndex
 90
        5
102
RTVSPost2010Prop44ColorRGB
 90
      255
102
RTVSPost2010PropOp44
 70
     1
102
RTVSPost2010Prop45
280
     0
102
RTVSPost2010PropOp45
 70
     1
102
RTVSPost2010Prop46
 90
       50
102
RTVSPost2010PropOp46
 70
     1
102
RTVSPost2010Prop47
 90
       50
102
RTVSPost2010PropOp47
 70
     1
102
RTVSPost2010Prop48
 90
       50
102
RTVSPost2010PropOp48
 70
     1
102
RTVSPost2010Prop49
280
     0
102
RTVSPost2010PropOp49
 70
     1
102
RTVSPost2010Prop50
 90
       50
102
RTVSPost2010PropOp50
 70
     1
102
RTVSPost2010Prop51ColorIndex
 90
      256
102
RTVSPost2010Prop51ColorRGB
 90
-16777216
102
RTVSPost2010PropOp51
 70
     0
102
RTVSPost2010Prop52
140
1.0
102
RTVSPost2010PropOp52
 70
     0
102
RTVSPost2010Prop53
 90
        2
102
RTVSPost2010PropOp53
 70
     1
102
RTVSPost2010Prop54
  1
strokes_ogs.tif
102
RTVSPost2010PropOp54
 70
     1
102
RTVSPost2010Prop55
280
     0
102
RTVSPost2010PropOp55
 70
     1
102
RTVSPost2010Prop56
140
1.0
102
RTVSPost2010PropOp56
 70
     1
102
RTVSPost2010Prop57
140
1.0
102
RTVSPost2010PropOp57
 70
     1
  0
XRECORD
  5
3BE
102
{ACAD_REACTORS
330
3BD
102
}
330
3BD
100
AcDbXrecord
280
     1
102
RTVSPropertyOp0
 70
     1
102
RTVSPropertyOp1
 70
     1
102
RTVSPropertyOp2
 70
     1
102
RTVSPropertyOp3
 70
     1
102
RTVSPropertyOp4
 70
     1
102
RTVSPropertyOp5
 70
     1
102
RTVSPropertyOp6
 70
     1
102
RTVSPropertyOp7
 70
     1
102
RTVSPropertyOp8
 70
     1
102
RTVSPropertyOp9
 70
     1
102
RTVSPropertyOp10
 70
     1
102
RTVSPropertyOp11
 70
     1
102
RTVSPropertyOp12
 70
     1
102
RTVSPropertyOp13
 70
     1
102
RTVSPropertyOp14
 70
     1
102
RTVSPropertyOp15
 70
     1
102
RTVSPropertyOp16
 70
     1
102
RTVSPropertyOp17
 70
     1
102
RTVSPropertyOp18
 70
     1
102
RTVSPropertyOp19
 70
     1
102
RTVSPropertyOp20
 70
     1
102
RTVSPropertyOp21
 70
     1
102
RTVSPropertyOp22
 70
     1
102
RTVSPropertyOp23
 70
     1
102
RTVSPropertyOp24
 70
     1
102
RTVSPropertyOp25
 70
     1
102
RTVSPropertyOp26
 70
     1
102
RTVSPropertyOp27
 70
     1
102
RTVSPropertyOp28
 70
     1
102
RTVSPropertyOp29
 70
     1
102
RTVSPropertyOp30
 70
     1
102
RTVSPropertyOp31
 70
     1
102
RTVSPropertyOp32
 70
     1
102
RTVSPropertyOp33
 70
     1
102
RTVSPropertyOp34
 70
     1
102
RTVSPropertyOp35
 70
     1
102
RTVSPropertyOp36
 70
     1
102
RTVSPropertyOp37
 70
     1
102
RTVSPropertyOp38
 70
     1
102
RTVSPropertyOp39
 70
     1
102
RTVSPropertyOp40
 70
     1
102
RTVSPropertyOp41
 70
     1
102
RTVSPropertyOp42
 70
     1
102
RTVSPropertyOp43
 70
     1
102
RTVSPropertyOp44
 70
     1
102
RTVSPropertyOp45
 70
     1
102
RTVSPropertyOp46
 70
     1
102
RTVSPropertyOp47
 70
     1
102
RTVSPropertyOp48
 70
     1
102
RTVSPropertyOp49
 70
     1
102
RTVSPropertyOp50
 70
     1
102
RTVSPropertyOp51
 70
     0
102
RTVSPropertyOp52
 70
     0
102
RTVSPropertyOp53
 70
     1
102
RTVSPropertyOp54
 70
     1
102
RTVSPropertyOp55
 70
     1
102
RTVSPropertyOp56
 70
     1
102
RTVSPropertyOp57
 70
     1
102
RTVSPost2010Prop28
280
     0
102
RTVSPost2010PropOp28
 70
     1
102
RTVSPost2010Prop29
280
     1
102
RTVSPost2010PropOp29
 70
     1
102
RTVSPost2010Prop30
280
     1
102
RTVSPost2010PropOp30
 70
     1
102
RTVSPost2010Prop31
280
     0
102
RTVSPost2010PropOp31
 70
     1
102
RTVSPost2010Prop32
280
     0
102
RTVSPost2010PropOp32
 70
     1
102
RTVSPost2010Prop33
280
     0
102
RTVSPost2010PropOp33
 70
     1
102
RTVSPost2010Prop34
280
     0
102
RTVSPost2010PropOp34
 70
     1
102
RTVSPost2010Prop35
280
     0
102
RTVSPost2010PropOp35
 70
     1
102
RTVSPost2010Prop36
280
     0
102
RTVSPost2010PropOp36
 70
     1
102
RTVSPost2010Prop37
 90
       50
102
RTVSPost2010PropOp37
 70
     1
102
RTVSPost2010Prop38
140
0.0
102
RTVSPost2010PropOp38
 70
     1
102
RTVSPost2010Prop39
140
1.0
102
RTVSPost2010PropOp39
 70
     1
102
RTVSPost2010Prop40
 90
        0
102
RTVSPost2010PropOp40
 70
     1
102
RTVSPost2010Prop41ColorIndex
 90
       18
102
RTVSPost2010Prop41ColorRGB
 90
        0
102
RTVSPost2010PropOp41
 70
     1
102
RTVSPost2010Prop42
 90
       50
102
RTVSPost2010PropOp42
 70
     1
102
RTVSPost2010Prop43
 90
        3
102
RTVSPost2010PropOp43
 70
     1
102
RTVSPost2010Prop44ColorIndex
 90
        5
102
RTVSPost2010Prop44ColorRGB
 90
      255
102
RTVSPost2010PropOp44
 70
     1
102
RTVSPost2010Prop45
280
     0
102
RTVSPost2010PropOp45
 70
     1
102
RTVSPost2010Prop46
 90
       50
102
RTVSPost2010PropOp46
 70
     1
102
RTVSPost2010Prop47
 90
       50
102
RTVSPost2010PropOp47
 70
     1
102
RTVSPost2010Prop48
 90
       50
102
RTVSPost2010PropOp48
 70
     1
102
RTVSPost2010Prop49
280
     0
102
RTVSPost2010PropOp49
 70
     1
102
RTVSPost2010Prop50
 90
       50
102
RTVSPost2010PropOp50
 70
     1
102
RTVSPost2010Prop51ColorIndex
 90
      256
102
RTVSPost2010Prop51ColorRGB
 90
-16777216
102
RTVSPost2010PropOp51
 70
     0
102
RTVSPost2010Prop52
140
1.0
102
RTVSPost2010PropOp52
 70
     0
102
RTVSPost2010Prop53
 90
        2
102
RTVSPost2010PropOp53
 70
     1
102
RTVSPost2010Prop54
  1
strokes_ogs.tif
102
RTVSPost2010PropOp54
 70
     1
102
RTVSPost2010Prop55
280
     0
102
RTVSPost2010PropOp55
 70
     1
102
RTVSPost2010Prop56
140
1.0
102
RTVSPost2010PropOp56
 70
     1
102
RTVSPost2010Prop57
140
1.0
102
RTVSPost2010PropOp57
 70
     1
  0
XRECORD
  5
3B2
102
{ACAD_REACTORS
330
3B1
102
}
330
3B1
100
AcDbXrecord
280
     1
102
RTVSPropertyOp0
 70
     1
102
RTVSPropertyOp1
 70
     1
102
RTVSPropertyOp2
 70
     1
102
RTVSPropertyOp3
 70
     1
102
RTVSPropertyOp4
 70
     1
102
RTVSPropertyOp5
 70
     1
102
RTVSPropertyOp6
 70
     1
102
RTVSPropertyOp7
 70
     1
102
RTVSPropertyOp8
 70
     1
102
RTVSPropertyOp9
 70
     1
102
RTVSPropertyOp10
 70
     1
102
RTVSPropertyOp11
 70
     1
102
RTVSPropertyOp12
 70
     1
102
RTVSPropertyOp13
 70
     1
102
RTVSPropertyOp14
 70
     1
102
RTVSPropertyOp15
 70
     1
102
RTVSPropertyOp16
 70
     1
102
RTVSPropertyOp17
 70
     1
102
RTVSPropertyOp18
 70
     1
102
RTVSPropertyOp19
 70
     1
102
RTVSPropertyOp20
 70
     1
102
RTVSPropertyOp21
 70
     1
102
RTVSPropertyOp22
 70
     1
102
RTVSPropertyOp23
 70
     1
102
RTVSPropertyOp24
 70
     1
102
RTVSPropertyOp25
 70
     1
102
RTVSPropertyOp26
 70
     1
102
RTVSPropertyOp27
 70
     1
102
RTVSPropertyOp28
 70
     1
102
RTVSPropertyOp29
 70
     1
102
RTVSPropertyOp30
 70
     1
102
RTVSPropertyOp31
 70
     1
102
RTVSPropertyOp32
 70
     1
102
RTVSPropertyOp33
 70
     1
102
RTVSPropertyOp34
 70
     1
102
RTVSPropertyOp35
 70
     1
102
RTVSPropertyOp36
 70
     1
102
RTVSPropertyOp37
 70
     1
102
RTVSPropertyOp38
 70
     1
102
RTVSPropertyOp39
 70
     1
102
RTVSPropertyOp40
 70
     1
102
RTVSPropertyOp41
 70
     1
102
RTVSPropertyOp42
 70
     1
102
RTVSPropertyOp43
 70
     1
102
RTVSPropertyOp44
 70
     1
102
RTVSPropertyOp45
 70
     1
102
RTVSPropertyOp46
 70
     1
102
RTVSPropertyOp47
 70
     1
102
RTVSPropertyOp48
 70
     1
102
RTVSPropertyOp49
 70
     1
102
RTVSPropertyOp50
 70
     1
102
RTVSPropertyOp51
 70
     0
102
RTVSPropertyOp52
 70
     0
102
RTVSPropertyOp53
 70
     1
102
RTVSPropertyOp54
 70
     1
102
RTVSPropertyOp55
 70
     1
102
RTVSPropertyOp56
 70
     1
102
RTVSPropertyOp57
 70
     1
102
RTVSPost2010Prop28
280
     0
102
RTVSPost2010PropOp28
 70
     1
102
RTVSPost2010Prop29
280
     1
102
RTVSPost2010PropOp29
 70
     1
102
RTVSPost2010Prop30
280
     1
102
RTVSPost2010PropOp30
 70
     1
102
RTVSPost2010Prop31
280
     0
102
RTVSPost2010PropOp31
 70
     1
102
RTVSPost2010Prop32
280
     0
102
RTVSPost2010PropOp32
 70
     1
102
RTVSPost2010Prop33
280
     0
102
RTVSPost2010PropOp33
 70
     1
102
RTVSPost2010Prop34
280
     0
102
RTVSPost2010PropOp34
 70
     1
102
RTVSPost2010Prop35
280
     0
102
RTVSPost2010PropOp35
 70
     1
102
RTVSPost2010Prop36
280
     0
102
RTVSPost2010PropOp36
 70
     1
102
RTVSPost2010Prop37
 90
       50
102
RTVSPost2010PropOp37
 70
     1
102
RTVSPost2010Prop38
140
0.0
102
RTVSPost2010PropOp38
 70
     1
102
RTVSPost2010Prop39
140
1.0
102
RTVSPost2010PropOp39
 70
     1
102
RTVSPost2010Prop40
 90
        0
102
RTVSPost2010PropOp40
 70
     1
102
RTVSPost2010Prop41ColorIndex
 90
       18
102
RTVSPost2010Prop41ColorRGB
 90
        0
102
RTVSPost2010PropOp41
 70
     1
102
RTVSPost2010Prop42
 90
       50
102
RTVSPost2010PropOp42
 70
     1
102
RTVSPost2010Prop43
 90
        3
102
RTVSPost2010PropOp43
 70
     1
102
RTVSPost2010Prop44ColorIndex
 90
        5
102
RTVSPost2010Prop44ColorRGB
 90
      255
102
RTVSPost2010PropOp44
 70
     1
102
RTVSPost2010Prop45
280
     0
102
RTVSPost2010PropOp45
 70
     1
102
RTVSPost2010Prop46
 90
       50
102
RTVSPost2010PropOp46
 70
     1
102
RTVSPost2010Prop47
 90
       50
102
RTVSPost2010PropOp47
 70
     1
102
RTVSPost2010Prop48
 90
       50
102
RTVSPost2010PropOp48
 70
     1
102
RTVSPost2010Prop49
280
     0
102
RTVSPost2010PropOp49
 70
     1
102
RTVSPost2010Prop50
 90
       50
102
RTVSPost2010PropOp50
 70
     1
102
RTVSPost2010Prop51ColorIndex
 90
      256
102
RTVSPost2010Prop51ColorRGB
 90
-16777216
102
RTVSPost2010PropOp51
 70
     0
102
RTVSPost2010Prop52
140
1.0
102
RTVSPost2010PropOp52
 70
     0
102
RTVSPost2010Prop53
 90
        2
102
RTVSPost2010PropOp53
 70
     1
102
RTVSPost2010Prop54
  1
strokes_ogs.tif
102
RTVSPost2010PropOp54
 70
     1
102
RTVSPost2010Prop55
280
     0
102
RTVSPost2010PropOp55
 70
     1
102
RTVSPost2010Prop56
140
1.0
102
RTVSPost2010PropOp56
 70
     1
102
RTVSPost2010Prop57
140
1.0
102
RTVSPost2010PropOp57
 70
     1
  0
XRECORD
  5
3B4
102
{ACAD_REACTORS
330
3B3
102
}
330
3B3
100
AcDbXrecord
280
     1
102
RTVSPropertyOp0
 70
     1
102
RTVSPropertyOp1
 70
     1
102
RTVSPropertyOp2
 70
     1
102
RTVSPropertyOp3
 70
     1
102
RTVSPropertyOp4
 70
     1
102
RTVSPropertyOp5
 70
     1
102
RTVSPropertyOp6
 70
     1
102
RTVSPropertyOp7
 70
     1
102
RTVSPropertyOp8
 70
     1
102
RTVSPropertyOp9
 70
     1
102
RTVSPropertyOp10
 70
     1
102
RTVSPropertyOp11
 70
     1
102
RTVSPropertyOp12
 70
     1
102
RTVSPropertyOp13
 70
     1
102
RTVSPropertyOp14
 70
     1
102
RTVSPropertyOp15
 70
     1
102
RTVSPropertyOp16
 70
     1
102
RTVSPropertyOp17
 70
     1
102
RTVSPropertyOp18
 70
     1
102
RTVSPropertyOp19
 70
     1
102
RTVSPropertyOp20
 70
     1
102
RTVSPropertyOp21
 70
     1
102
RTVSPropertyOp22
 70
     1
102
RTVSPropertyOp23
 70
     1
102
RTVSPropertyOp24
 70
     1
102
RTVSPropertyOp25
 70
     1
102
RTVSPropertyOp26
 70
     1
102
RTVSPropertyOp27
 70
     1
102
RTVSPropertyOp28
 70
     1
102
RTVSPropertyOp29
 70
     1
102
RTVSPropertyOp30
 70
     1
102
RTVSPropertyOp31
 70
     1
102
RTVSPropertyOp32
 70
     1
102
RTVSPropertyOp33
 70
     1
102
RTVSPropertyOp34
 70
     1
102
RTVSPropertyOp35
 70
     1
102
RTVSPropertyOp36
 70
     1
102
RTVSPropertyOp37
 70
     1
102
RTVSPropertyOp38
 70
     1
102
RTVSPropertyOp39
 70
     1
102
RTVSPropertyOp40
 70
     1
102
RTVSPropertyOp41
 70
     1
102
RTVSPropertyOp42
 70
     1
102
RTVSPropertyOp43
 70
     1
102
RTVSPropertyOp44
 70
     1
102
RTVSPropertyOp45
 70
     1
102
RTVSPropertyOp46
 70
     1
102
RTVSPropertyOp47
 70
     1
102
RTVSPropertyOp48
 70
     1
102
RTVSPropertyOp49
 70
     1
102
RTVSPropertyOp50
 70
     1
102
RTVSPropertyOp51
 70
     0
102
RTVSPropertyOp52
 70
     0
102
RTVSPropertyOp53
 70
     1
102
RTVSPropertyOp54
 70
     1
102
RTVSPropertyOp55
 70
     1
102
RTVSPropertyOp56
 70
     1
102
RTVSPropertyOp57
 70
     1
102
RTVSPost2010Prop28
280
     0
102
RTVSPost2010PropOp28
 70
     1
102
RTVSPost2010Prop29
280
     1
102
RTVSPost2010PropOp29
 70
     1
102
RTVSPost2010Prop30
280
     1
102
RTVSPost2010PropOp30
 70
     1
102
RTVSPost2010Prop31
280
     0
102
RTVSPost2010PropOp31
 70
     1
102
RTVSPost2010Prop32
280
     0
102
RTVSPost2010PropOp32
 70
     1
102
RTVSPost2010Prop33
280
     0
102
RTVSPost2010PropOp33
 70
     1
102
RTVSPost2010Prop34
280
     0
102
RTVSPost2010PropOp34
 70
     1
102
RTVSPost2010Prop35
280
     0
102
RTVSPost2010PropOp35
 70
     1
102
RTVSPost2010Prop36
280
     0
102
RTVSPost2010PropOp36
 70
     1
102
RTVSPost2010Prop37
 90
       50
102
RTVSPost2010PropOp37
 70
     1
102
RTVSPost2010Prop38
140
0.0
102
RTVSPost2010PropOp38
 70
     1
102
RTVSPost2010Prop39
140
1.0
102
RTVSPost2010PropOp39
 70
     1
102
RTVSPost2010Prop40
 90
        0
102
RTVSPost2010PropOp40
 70
     1
102
RTVSPost2010Prop41ColorIndex
 90
       18
102
RTVSPost2010Prop41ColorRGB
 90
        0
102
RTVSPost2010PropOp41
 70
     1
102
RTVSPost2010Prop42
 90
       50
102
RTVSPost2010PropOp42
 70
     1
102
RTVSPost2010Prop43
 90
        3
102
RTVSPost2010PropOp43
 70
     1
102
RTVSPost2010Prop44ColorIndex
 90
        5
102
RTVSPost2010Prop44ColorRGB
 90
      255
102
RTVSPost2010PropOp44
 70
     1
102
RTVSPost2010Prop45
280
     0
102
RTVSPost2010PropOp45
 70
     1
102
RTVSPost2010Prop46
 90
       50
102
RTVSPost2010PropOp46
 70
     1
102
RTVSPost2010Prop47
 90
       50
102
RTVSPost2010PropOp47
 70
     1
102
RTVSPost2010Prop48
 90
       50
102
RTVSPost2010PropOp48
 70
     1
102
RTVSPost2010Prop49
280
     0
102
RTVSPost2010PropOp49
 70
     1
102
RTVSPost2010Prop50
 90
       50
102
RTVSPost2010PropOp50
 70
     1
102
RTVSPost2010Prop51ColorIndex
 90
      256
102
RTVSPost2010Prop51ColorRGB
 90
-16777216
102
RTVSPost2010PropOp51
 70
     0
102
RTVSPost2010Prop52
140
1.0
102
RTVSPost2010PropOp52
 70
     0
102
RTVSPost2010Prop53
 90
        2
102
RTVSPost2010PropOp53
 70
     1
102
RTVSPost2010Prop54
  1
strokes_ogs.tif
102
RTVSPost2010PropOp54
 70
     1
102
RTVSPost2010Prop55
280
     0
102
RTVSPost2010PropOp55
 70
     1
102
RTVSPost2010Prop56
140
1.0
102
RTVSPost2010PropOp56
 70
     1
102
RTVSPost2010Prop57
140
1.0
102
RTVSPost2010PropOp57
 70
     1
  0
XRECORD
  5
3C4
102
{ACAD_REACTORS
330
3C3
102
}
330
3C3
100
AcDbXrecord
280
     1
102
RTVSPropertyOp0
 70
     0
102
RTVSPropertyOp1
 70
     0
102
RTVSPropertyOp2
 70
     0
102
RTVSPropertyOp3
 70
     0
102
RTVSPropertyOp4
 70
     0
102
RTVSPropertyOp5
 70
     0
102
RTVSPropertyOp6
 70
     0
102
RTVSPropertyOp7
 70
     0
102
RTVSPropertyOp8
 70
     0
102
RTVSPropertyOp9
 70
     0
102
RTVSPropertyOp10
 70
     0
102
RTVSPropertyOp11
 70
     0
102
RTVSPropertyOp12
 70
     0
102
RTVSPropertyOp13
 70
     0
102
RTVSPropertyOp14
 70
     2
102
RTVSPropertyOp15
 70
     0
102
RTVSPropertyOp16
 70
     0
102
RTVSPropertyOp17
 70
     0
102
RTVSPropertyOp18
 70
     0
102
RTVSPropertyOp19
 70
     0
102
RTVSPropertyOp20
 70
     0
102
RTVSPropertyOp21
 70
     0
102
RTVSPropertyOp22
 70
     0
102
RTVSPropertyOp23
 70
     0
102
RTVSPropertyOp24
 70
     0
102
RTVSPropertyOp25
 70
     0
102
RTVSPropertyOp26
 70
     0
102
RTVSPropertyOp27
 70
     0
102
RTVSPropertyOp28
 70
     0
102
RTVSPropertyOp29
 70
     0
102
RTVSPropertyOp30
 70
     0
102
RTVSPropertyOp31
 70
     0
102
RTVSPropertyOp32
 70
     0
102
RTVSPropertyOp33
 70
     0
102
RTVSPropertyOp34
 70
     0
102
RTVSPropertyOp35
 70
     0
102
RTVSPropertyOp36
 70
     0
102
RTVSPropertyOp37
 70
     0
102
RTVSPropertyOp38
 70
     0
102
RTVSPropertyOp39
 70
     0
102
RTVSPropertyOp40
 70
     0
102
RTVSPropertyOp41
 70
     0
102
RTVSPropertyOp42
 70
     0
102
RTVSPropertyOp43
 70
     0
102
RTVSPropertyOp44
 70
     0
102
RTVSPropertyOp45
 70
     0
102
RTVSPropertyOp46
 70
     0
102
RTVSPropertyOp47
 70
     0
102
RTVSPropertyOp48
 70
     0
102
RTVSPropertyOp49
 70
     0
102
RTVSPropertyOp50
 70
     0
102
RTVSPropertyOp51
 70
     0
102
RTVSPropertyOp52
 70
     0
102
RTVSPropertyOp53
 70
     0
102
RTVSPropertyOp54
 70
     0
102
RTVSPropertyOp55
 70
     0
102
RTVSPropertyOp56
 70
     0
102
RTVSPropertyOp57
 70
     0
102
RTVSPost2010Prop28
280
     0
102
RTVSPost2010PropOp28
 70
     0
102
RTVSPost2010Prop29
280
     1
102
RTVSPost2010PropOp29
 70
     0
102
RTVSPost2010Prop30
280
     1
102
RTVSPost2010PropOp30
 70
     0
102
RTVSPost2010Prop31
280
     0
102
RTVSPost2010PropOp31
 70
     0
102
RTVSPost2010Prop32
280
     0
102
RTVSPost2010PropOp32
 70
     0
102
RTVSPost2010Prop33
280
     0
102
RTVSPost2010PropOp33
 70
     0
102
RTVSPost2010Prop34
280
     0
102
RTVSPost2010PropOp34
 70
     0
102
RTVSPost2010Prop35
280
     0
102
RTVSPost2010PropOp35
 70
     0
102
RTVSPost2010Prop36
280
     0
102
RTVSPost2010PropOp36
 70
     0
102
RTVSPost2010Prop37
 90
       50
102
RTVSPost2010PropOp37
 70
     0
102
RTVSPost2010Prop38
140
0.0
102
RTVSPost2010PropOp38
 70
     0
102
RTVSPost2010Prop39
140
1.0
102
RTVSPost2010PropOp39
 70
     0
102
RTVSPost2010Prop40
 90
        0
102
RTVSPost2010PropOp40
 70
     0
102
RTVSPost2010Prop41ColorIndex
 90
       18
102
RTVSPost2010Prop41ColorRGB
 90
        0
102
RTVSPost2010PropOp41
 70
     0
102
RTVSPost2010Prop42
 90
       50
102
RTVSPost2010PropOp42
 70
     0
102
RTVSPost2010Prop43
 90
        3
102
RTVSPost2010PropOp43
 70
     0
102
RTVSPost2010Prop44ColorIndex
 90
        5
102
RTVSPost2010Prop44ColorRGB
 90
      255
102
RTVSPost2010PropOp44
 70
     0
102
RTVSPost2010Prop45
280
     0
102
RTVSPost2010PropOp45
 70
     0
102
RTVSPost2010Prop46
 90
       50
102
RTVSPost2010PropOp46
 70
     0
102
RTVSPost2010Prop47
 90
       50
102
RTVSPost2010PropOp47
 70
     0
102
RTVSPost2010Prop48
 90
       50
102
RTVSPost2010PropOp48
 70
     0
102
RTVSPost2010Prop49
280
     0
102
RTVSPost2010PropOp49
 70
     0
102
RTVSPost2010Prop50
 90
       50
102
RTVSPost2010PropOp50
 70
     0
102
RTVSPost2010Prop51ColorIndex
 90
      256
102
RTVSPost2010Prop51ColorRGB
 90
-16777216
102
RTVSPost2010PropOp51
 70
     0
102
RTVSPost2010Prop52
140
1.0
102
RTVSPost2010PropOp52
 70
     0
102
RTVSPost2010Prop53
 90
        2
102
RTVSPost2010PropOp53
 70
     0
102
RTVSPost2010Prop54
  1
strokes_ogs.tif
102
RTVSPost2010PropOp54
 70
     0
102
RTVSPost2010Prop55
280
     0
102
RTVSPost2010PropOp55
 70
     0
102
RTVSPost2010Prop56
140
1.0
102
RTVSPost2010PropOp56
 70
     0
102
RTVSPost2010Prop57
140
1.0
102
RTVSPost2010PropOp57
 70
     0
  0
XRECORD
  5
3BC
102
{ACAD_REACTORS
330
3BB
102
}
330
3BB
100
AcDbXrecord
280
     1
102
RTVSPropertyOp0
 70
     1
102
RTVSPropertyOp1
 70
     1
102
RTVSPropertyOp2
 70
     1
102
RTVSPropertyOp3
 70
     1
102
RTVSPropertyOp4
 70
     1
102
RTVSPropertyOp5
 70
     1
102
RTVSPropertyOp6
 70
     1
102
RTVSPropertyOp7
 70
     1
102
RTVSPropertyOp8
 70
     1
102
RTVSPropertyOp9
 70
     1
102
RTVSPropertyOp10
 70
     1
102
RTVSPropertyOp11
 70
     1
102
RTVSPropertyOp12
 70
     1
102
RTVSPropertyOp13
 70
     1
102
RTVSPropertyOp14
 70
     1
102
RTVSPropertyOp15
 70
     1
102
RTVSPropertyOp16
 70
     1
102
RTVSPropertyOp17
 70
     1
102
RTVSPropertyOp18
 70
     1
102
RTVSPropertyOp19
 70
     1
102
RTVSPropertyOp20
 70
     1
102
RTVSPropertyOp21
 70
     1
102
RTVSPropertyOp22
 70
     1
102
RTVSPropertyOp23
 70
     1
102
RTVSPropertyOp24
 70
     1
102
RTVSPropertyOp25
 70
     1
102
RTVSPropertyOp26
 70
     1
102
RTVSPropertyOp27
 70
     1
102
RTVSPropertyOp28
 70
     1
102
RTVSPropertyOp29
 70
     1
102
RTVSPropertyOp30
 70
     1
102
RTVSPropertyOp31
 70
     1
102
RTVSPropertyOp32
 70
     1
102
RTVSPropertyOp33
 70
     1
102
RTVSPropertyOp34
 70
     1
102
RTVSPropertyOp35
 70
     1
102
RTVSPropertyOp36
 70
     1
102
RTVSPropertyOp37
 70
     1
102
RTVSPropertyOp38
 70
     1
102
RTVSPropertyOp39
 70
     1
102
RTVSPropertyOp40
 70
     1
102
RTVSPropertyOp41
 70
     1
102
RTVSPropertyOp42
 70
     1
102
RTVSPropertyOp43
 70
     1
102
RTVSPropertyOp44
 70
     1
102
RTVSPropertyOp45
 70
     1
102
RTVSPropertyOp46
 70
     1
102
RTVSPropertyOp47
 70
     1
102
RTVSPropertyOp48
 70
     1
102
RTVSPropertyOp49
 70
     1
102
RTVSPropertyOp50
 70
     1
102
RTVSPropertyOp51
 70
     0
102
RTVSPropertyOp52
 70
     0
102
RTVSPropertyOp53
 70
     1
102
RTVSPropertyOp54
 70
     1
102
RTVSPropertyOp55
 70
     1
102
RTVSPropertyOp56
 70
     1
102
RTVSPropertyOp57
 70
     1
102
RTVSPost2010Prop28
280
     0
102
RTVSPost2010PropOp28
 70
     1
102
RTVSPost2010Prop29
280
     1
102
RTVSPost2010PropOp29
 70
     1
102
RTVSPost2010Prop30
280
     1
102
RTVSPost2010PropOp30
 70
     1
102
RTVSPost2010Prop31
280
     0
102
RTVSPost2010PropOp31
 70
     1
102
RTVSPost2010Prop32
280
     0
102
RTVSPost2010PropOp32
 70
     1
102
RTVSPost2010Prop33
280
     0
102
RTVSPost2010PropOp33
 70
     1
102
RTVSPost2010Prop34
280
     0
102
RTVSPost2010PropOp34
 70
     1
102
RTVSPost2010Prop35
280
     0
102
RTVSPost2010PropOp35
 70
     1
102
RTVSPost2010Prop36
280
     0
102
RTVSPost2010PropOp36
 70
     1
102
RTVSPost2010Prop37
 90
       50
102
RTVSPost2010PropOp37
 70
     1
102
RTVSPost2010Prop38
140
0.0
102
RTVSPost2010PropOp38
 70
     1
102
RTVSPost2010Prop39
140
1.0
102
RTVSPost2010PropOp39
 70
     1
102
RTVSPost2010Prop40
 90
        0
102
RTVSPost2010PropOp40
 70
     1
102
RTVSPost2010Prop41ColorIndex
 90
       18
102
RTVSPost2010Prop41ColorRGB
 90
        0
102
RTVSPost2010PropOp41
 70
     1
102
RTVSPost2010Prop42
 90
       50
102
RTVSPost2010PropOp42
 70
     1
102
RTVSPost2010Prop43
 90
        3
102
RTVSPost2010PropOp43
 70
     1
102
RTVSPost2010Prop44ColorIndex
 90
        5
102
RTVSPost2010Prop44ColorRGB
 90
      255
102
RTVSPost2010PropOp44
 70
     1
102
RTVSPost2010Prop45
280
     0
102
RTVSPost2010PropOp45
 70
     1
102
RTVSPost2010Prop46
 90
       50
102
RTVSPost2010PropOp46
 70
     1
102
RTVSPost2010Prop47
 90
       50
102
RTVSPost2010PropOp47
 70
     1
102
RTVSPost2010Prop48
 90
       50
102
RTVSPost2010PropOp48
 70
     1
102
RTVSPost2010Prop49
280
     0
102
RTVSPost2010PropOp49
 70
     1
102
RTVSPost2010Prop50
 90
       50
102
RTVSPost2010PropOp50
 70
     1
102
RTVSPost2010Prop51ColorIndex
 90
      256
102
RTVSPost2010Prop51ColorRGB
 90
-16777216
102
RTVSPost2010PropOp51
 70
     0
102
RTVSPost2010Prop52
140
1.0
102
RTVSPost2010PropOp52
 70
     0
102
RTVSPost2010Prop53
 90
        2
102
RTVSPost2010PropOp53
 70
     1
102
RTVSPost2010Prop54
  1
strokes_ogs.tif
102
RTVSPost2010PropOp54
 70
     1
102
RTVSPost2010Prop55
280
     0
102
RTVSPost2010PropOp55
 70
     1
102
RTVSPost2010Prop56
140
1.0
102
RTVSPost2010PropOp56
 70
     1
102
RTVSPost2010Prop57
140
1.0
102
RTVSPost2010PropOp57
 70
     1
  0
XRECORD
  5
3A0
102
{ACAD_REACTORS
330
39F
102
}
330
39F
100
AcDbXrecord
280
     1
102
RTVSPropertyOp0
 70
     1
102
RTVSPropertyOp1
 70
     1
102
RTVSPropertyOp2
 70
     1
102
RTVSPropertyOp3
 70
     1
102
RTVSPropertyOp4
 70
     1
102
RTVSPropertyOp5
 70
     1
102
RTVSPropertyOp6
 70
     1
102
RTVSPropertyOp7
 70
     1
102
RTVSPropertyOp8
 70
     1
102
RTVSPropertyOp9
 70
     1
102
RTVSPropertyOp10
 70
     1
102
RTVSPropertyOp11
 70
     1
102
RTVSPropertyOp12
 70
     1
102
RTVSPropertyOp13
 70
     1
102
RTVSPropertyOp14
 70
     1
102
RTVSPropertyOp15
 70
     1
102
RTVSPropertyOp16
 70
     1
102
RTVSPropertyOp17
 70
     1
102
RTVSPropertyOp18
 70
     1
102
RTVSPropertyOp19
 70
     1
102
RTVSPropertyOp20
 70
     1
102
RTVSPropertyOp21
 70
     1
102
RTVSPropertyOp22
 70
     1
102
RTVSPropertyOp23
 70
     1
102
RTVSPropertyOp24
 70
     1
102
RTVSPropertyOp25
 70
     1
102
RTVSPropertyOp26
 70
     1
102
RTVSPropertyOp27
 70
     1
102
RTVSPropertyOp28
 70
     1
102
RTVSPropertyOp29
 70
     1
102
RTVSPropertyOp30
 70
     1
102
RTVSPropertyOp31
 70
     1
102
RTVSPropertyOp32
 70
     1
102
RTVSPropertyOp33
 70
     1
102
RTVSPropertyOp34
 70
     1
102
RTVSPropertyOp35
 70
     1
102
RTVSPropertyOp36
 70
     1
102
RTVSPropertyOp37
 70
     1
102
RTVSPropertyOp38
 70
     1
102
RTVSPropertyOp39
 70
     1
102
RTVSPropertyOp40
 70
     1
102
RTVSPropertyOp41
 70
     1
102
RTVSPropertyOp42
 70
     1
102
RTVSPropertyOp43
 70
     1
102
RTVSPropertyOp44
 70
     1
102
RTVSPropertyOp45
 70
     1
102
RTVSPropertyOp46
 70
     1
102
RTVSPropertyOp47
 70
     1
102
RTVSPropertyOp48
 70
     1
102
RTVSPropertyOp49
 70
     1
102
RTVSPropertyOp50
 70
     1
102
RTVSPropertyOp51
 70
     0
102
RTVSPropertyOp52
 70
     0
102
RTVSPropertyOp53
 70
     1
102
RTVSPropertyOp54
 70
     1
102
RTVSPropertyOp55
 70
     1
102
RTVSPropertyOp56
 70
     1
102
RTVSPropertyOp57
 70
     1
102
RTVSPost2010Prop28
280
     0
102
RTVSPost2010PropOp28
 70
     1
102
RTVSPost2010Prop29
280
     1
102
RTVSPost2010PropOp29
 70
     1
102
RTVSPost2010Prop30
280
     1
102
RTVSPost2010PropOp30
 70
     1
102
RTVSPost2010Prop31
280
     0
102
RTVSPost2010PropOp31
 70
     1
102
RTVSPost2010Prop32
280
     0
102
RTVSPost2010PropOp32
 70
     1
102
RTVSPost2010Prop33
280
     0
102
RTVSPost2010PropOp33
 70
     1
102
RTVSPost2010Prop34
280
     0
102
RTVSPost2010PropOp34
 70
     1
102
RTVSPost2010Prop35
280
     0
102
RTVSPost2010PropOp35
 70
     1
102
RTVSPost2010Prop36
280
     0
102
RTVSPost2010PropOp36
 70
     1
102
RTVSPost2010Prop37
 90
       50
102
RTVSPost2010PropOp37
 70
     1
102
RTVSPost2010Prop38
140
0.0
102
RTVSPost2010PropOp38
 70
     1
102
RTVSPost2010Prop39
140
1.0
102
RTVSPost2010PropOp39
 70
     1
102
RTVSPost2010Prop40
 90
        0
102
RTVSPost2010PropOp40
 70
     1
102
RTVSPost2010Prop41ColorIndex
 90
       18
102
RTVSPost2010Prop41ColorRGB
 90
        0
102
RTVSPost2010PropOp41
 70
     1
102
RTVSPost2010Prop42
 90
       50
102
RTVSPost2010PropOp42
 70
     1
102
RTVSPost2010Prop43
 90
        3
102
RTVSPost2010PropOp43
 70
     1
102
RTVSPost2010Prop44ColorIndex
 90
        5
102
RTVSPost2010Prop44ColorRGB
 90
      255
102
RTVSPost2010PropOp44
 70
     1
102
RTVSPost2010Prop45
280
     0
102
RTVSPost2010PropOp45
 70
     1
102
RTVSPost2010Prop46
 90
       50
102
RTVSPost2010PropOp46
 70
     1
102
RTVSPost2010Prop47
 90
       50
102
RTVSPost2010PropOp47
 70
     1
102
RTVSPost2010Prop48
 90
       50
102
RTVSPost2010PropOp48
 70
     1
102
RTVSPost2010Prop49
280
     0
102
RTVSPost2010PropOp49
 70
     1
102
RTVSPost2010Prop50
 90
       50
102
RTVSPost2010PropOp50
 70
     1
102
RTVSPost2010Prop51ColorIndex
 90
      256
102
RTVSPost2010Prop51ColorRGB
 90
-16777216
102
RTVSPost2010PropOp51
 70
     0
102
RTVSPost2010Prop52
140
1.0
102
RTVSPost2010PropOp52
 70
     0
102
RTVSPost2010Prop53
 90
        2
102
RTVSPost2010PropOp53
 70
     1
102
RTVSPost2010Prop54
  1
strokes_ogs.tif
102
RTVSPost2010PropOp54
 70
     1
102
RTVSPost2010Prop55
280
     0
102
RTVSPost2010PropOp55
 70
     1
102
RTVSPost2010Prop56
140
1.0
102
RTVSPost2010PropOp56
 70
     1
102
RTVSPost2010Prop57
140
1.0
102
RTVSPost2010PropOp57
 70
     1
  0
XRECORD
  5
3A2
102
{ACAD_REACTORS
330
3A1
102
}
330
3A1
100
AcDbXrecord
280
     1
102
RTVSPropertyOp0
 70
     1
102
RTVSPropertyOp1
 70
     1
102
RTVSPropertyOp2
 70
     1
102
RTVSPropertyOp3
 70
     1
102
RTVSPropertyOp4
 70
     1
102
RTVSPropertyOp5
 70
     1
102
RTVSPropertyOp6
 70
     1
102
RTVSPropertyOp7
 70
     1
102
RTVSPropertyOp8
 70
     1
102
RTVSPropertyOp9
 70
     1
102
RTVSPropertyOp10
 70
     1
102
RTVSPropertyOp11
 70
     1
102
RTVSPropertyOp12
 70
     1
102
RTVSPropertyOp13
 70
     1
102
RTVSPropertyOp14
 70
     1
102
RTVSPropertyOp15
 70
     1
102
RTVSPropertyOp16
 70
     1
102
RTVSPropertyOp17
 70
     1
102
RTVSPropertyOp18
 70
     1
102
RTVSPropertyOp19
 70
     1
102
RTVSPropertyOp20
 70
     1
102
RTVSPropertyOp21
 70
     1
102
RTVSPropertyOp22
 70
     1
102
RTVSPropertyOp23
 70
     1
102
RTVSPropertyOp24
 70
     1
102
RTVSPropertyOp25
 70
     1
102
RTVSPropertyOp26
 70
     1
102
RTVSPropertyOp27
 70
     1
102
RTVSPropertyOp28
 70
     1
102
RTVSPropertyOp29
 70
     1
102
RTVSPropertyOp30
 70
     1
102
RTVSPropertyOp31
 70
     1
102
RTVSPropertyOp32
 70
     1
102
RTVSPropertyOp33
 70
     1
102
RTVSPropertyOp34
 70
     1
102
RTVSPropertyOp35
 70
     1
102
RTVSPropertyOp36
 70
     1
102
RTVSPropertyOp37
 70
     1
102
RTVSPropertyOp38
 70
     1
102
RTVSPropertyOp39
 70
     1
102
RTVSPropertyOp40
 70
     1
102
RTVSPropertyOp41
 70
     1
102
RTVSPropertyOp42
 70
     1
102
RTVSPropertyOp43
 70
     1
102
RTVSPropertyOp44
 70
     1
102
RTVSPropertyOp45
 70
     1
102
RTVSPropertyOp46
 70
     1
102
RTVSPropertyOp47
 70
     1
102
RTVSPropertyOp48
 70
     1
102
RTVSPropertyOp49
 70
     1
102
RTVSPropertyOp50
 70
     1
102
RTVSPropertyOp51
 70
     0
102
RTVSPropertyOp52
 70
     0
102
RTVSPropertyOp53
 70
     1
102
RTVSPropertyOp54
 70
     1
102
RTVSPropertyOp55
 70
     1
102
RTVSPropertyOp56
 70
     1
102
RTVSPropertyOp57
 70
     1
102
RTVSPost2010Prop28
280
     0
102
RTVSPost2010PropOp28
 70
     1
102
RTVSPost2010Prop29
280
     1
102
RTVSPost2010PropOp29
 70
     1
102
RTVSPost2010Prop30
280
     1
102
RTVSPost2010PropOp30
 70
     1
102
RTVSPost2010Prop31
280
     0
102
RTVSPost2010PropOp31
 70
     1
102
RTVSPost2010Prop32
280
     0
102
RTVSPost2010PropOp32
 70
     1
102
RTVSPost2010Prop33
280
     0
102
RTVSPost2010PropOp33
 70
     1
102
RTVSPost2010Prop34
280
     0
102
RTVSPost2010PropOp34
 70
     1
102
RTVSPost2010Prop35
280
     0
102
RTVSPost2010PropOp35
 70
     1
102
RTVSPost2010Prop36
280
     0
102
RTVSPost2010PropOp36
 70
     1
102
RTVSPost2010Prop37
 90
       50
102
RTVSPost2010PropOp37
 70
     1
102
RTVSPost2010Prop38
140
0.0
102
RTVSPost2010PropOp38
 70
     1
102
RTVSPost2010Prop39
140
1.0
102
RTVSPost2010PropOp39
 70
     1
102
RTVSPost2010Prop40
 90
        0
102
RTVSPost2010PropOp40
 70
     1
102
RTVSPost2010Prop41ColorIndex
 90
       18
102
RTVSPost2010Prop41ColorRGB
 90
        0
102
RTVSPost2010PropOp41
 70
     1
102
RTVSPost2010Prop42
 90
       50
102
RTVSPost2010PropOp42
 70
     1
102
RTVSPost2010Prop43
 90
        3
102
RTVSPost2010PropOp43
 70
     1
102
RTVSPost2010Prop44ColorIndex
 90
        5
102
RTVSPost2010Prop44ColorRGB
 90
      255
102
RTVSPost2010PropOp44
 70
     1
102
RTVSPost2010Prop45
280
     0
102
RTVSPost2010PropOp45
 70
     1
102
RTVSPost2010Prop46
 90
       50
102
RTVSPost2010PropOp46
 70
     1
102
RTVSPost2010Prop47
 90
       50
102
RTVSPost2010PropOp47
 70
     1
102
RTVSPost2010Prop48
 90
       50
102
RTVSPost2010PropOp48
 70
     1
102
RTVSPost2010Prop49
280
     0
102
RTVSPost2010PropOp49
 70
     1
102
RTVSPost2010Prop50
 90
       50
102
RTVSPost2010PropOp50
 70
     1
102
RTVSPost2010Prop51ColorIndex
 90
      256
102
RTVSPost2010Prop51ColorRGB
 90
-16777216
102
RTVSPost2010PropOp51
 70
     0
102
RTVSPost2010Prop52
140
1.0
102
RTVSPost2010PropOp52
 70
     0
102
RTVSPost2010Prop53
 90
        2
102
RTVSPost2010PropOp53
 70
     1
102
RTVSPost2010Prop54
  1
strokes_ogs.tif
102
RTVSPost2010PropOp54
 70
     1
102
RTVSPost2010Prop55
280
     0
102
RTVSPost2010PropOp55
 70
     1
102
RTVSPost2010Prop56
140
1.0
102
RTVSPost2010PropOp56
 70
     1
102
RTVSPost2010Prop57
140
1.0
102
RTVSPost2010PropOp57
 70
     1
  0
XRECORD
  5
3A4
102
{ACAD_REACTORS
330
3A3
102
}
330
3A3
100
AcDbXrecord
280
     1
102
RTVSPropertyOp0
 70
     1
102
RTVSPropertyOp1
 70
     1
102
RTVSPropertyOp2
 70
     1
102
RTVSPropertyOp3
 70
     1
102
RTVSPropertyOp4
 70
     1
102
RTVSPropertyOp5
 70
     1
102
RTVSPropertyOp6
 70
     1
102
RTVSPropertyOp7
 70
     1
102
RTVSPropertyOp8
 70
     1
102
RTVSPropertyOp9
 70
     1
102
RTVSPropertyOp10
 70
     1
102
RTVSPropertyOp11
 70
     1
102
RTVSPropertyOp12
 70
     1
102
RTVSPropertyOp13
 70
     1
102
RTVSPropertyOp14
 70
     1
102
RTVSPropertyOp15
 70
     1
102
RTVSPropertyOp16
 70
     1
102
RTVSPropertyOp17
 70
     1
102
RTVSPropertyOp18
 70
     1
102
RTVSPropertyOp19
 70
     1
102
RTVSPropertyOp20
 70
     1
102
RTVSPropertyOp21
 70
     1
102
RTVSPropertyOp22
 70
     1
102
RTVSPropertyOp23
 70
     1
102
RTVSPropertyOp24
 70
     1
102
RTVSPropertyOp25
 70
     1
102
RTVSPropertyOp26
 70
     1
102
RTVSPropertyOp27
 70
     1
102
RTVSPropertyOp28
 70
     1
102
RTVSPropertyOp29
 70
     1
102
RTVSPropertyOp30
 70
     1
102
RTVSPropertyOp31
 70
     1
102
RTVSPropertyOp32
 70
     1
102
RTVSPropertyOp33
 70
     1
102
RTVSPropertyOp34
 70
     1
102
RTVSPropertyOp35
 70
     1
102
RTVSPropertyOp36
 70
     1
102
RTVSPropertyOp37
 70
     1
102
RTVSPropertyOp38
 70
     1
102
RTVSPropertyOp39
 70
     1
102
RTVSPropertyOp40
 70
     1
102
RTVSPropertyOp41
 70
     1
102
RTVSPropertyOp42
 70
     1
102
RTVSPropertyOp43
 70
     1
102
RTVSPropertyOp44
 70
     1
102
RTVSPropertyOp45
 70
     1
102
RTVSPropertyOp46
 70
     1
102
RTVSPropertyOp47
 70
     1
102
RTVSPropertyOp48
 70
     1
102
RTVSPropertyOp49
 70
     1
102
RTVSPropertyOp50
 70
     1
102
RTVSPropertyOp51
 70
     0
102
RTVSPropertyOp52
 70
     0
102
RTVSPropertyOp53
 70
     1
102
RTVSPropertyOp54
 70
     1
102
RTVSPropertyOp55
 70
     1
102
RTVSPropertyOp56
 70
     1
102
RTVSPropertyOp57
 70
     1
102
RTVSPost2010Prop28
280
     0
102
RTVSPost2010PropOp28
 70
     1
102
RTVSPost2010Prop29
280
     1
102
RTVSPost2010PropOp29
 70
     1
102
RTVSPost2010Prop30
280
     1
102
RTVSPost2010PropOp30
 70
     1
102
RTVSPost2010Prop31
280
     0
102
RTVSPost2010PropOp31
 70
     1
102
RTVSPost2010Prop32
280
     0
102
RTVSPost2010PropOp32
 70
     1
102
RTVSPost2010Prop33
280
     0
102
RTVSPost2010PropOp33
 70
     1
102
RTVSPost2010Prop34
280
     0
102
RTVSPost2010PropOp34
 70
     1
102
RTVSPost2010Prop35
280
     0
102
RTVSPost2010PropOp35
 70
     1
102
RTVSPost2010Prop36
280
     0
102
RTVSPost2010PropOp36
 70
     1
102
RTVSPost2010Prop37
 90
       50
102
RTVSPost2010PropOp37
 70
     1
102
RTVSPost2010Prop38
140
0.0
102
RTVSPost2010PropOp38
 70
     1
102
RTVSPost2010Prop39
140
1.0
102
RTVSPost2010PropOp39
 70
     1
102
RTVSPost2010Prop40
 90
        0
102
RTVSPost2010PropOp40
 70
     1
102
RTVSPost2010Prop41ColorIndex
 90
       18
102
RTVSPost2010Prop41ColorRGB
 90
        0
102
RTVSPost2010PropOp41
 70
     1
102
RTVSPost2010Prop42
 90
       50
102
RTVSPost2010PropOp42
 70
     1
102
RTVSPost2010Prop43
 90
        3
102
RTVSPost2010PropOp43
 70
     1
102
RTVSPost2010Prop44ColorIndex
 90
        5
102
RTVSPost2010Prop44ColorRGB
 90
      255
102
RTVSPost2010PropOp44
 70
     1
102
RTVSPost2010Prop45
280
     0
102
RTVSPost2010PropOp45
 70
     1
102
RTVSPost2010Prop46
 90
       50
102
RTVSPost2010PropOp46
 70
     1
102
RTVSPost2010Prop47
 90
       50
102
RTVSPost2010PropOp47
 70
     1
102
RTVSPost2010Prop48
 90
       50
102
RTVSPost2010PropOp48
 70
     1
102
RTVSPost2010Prop49
280
     0
102
RTVSPost2010PropOp49
 70
     1
102
RTVSPost2010Prop50
 90
       50
102
RTVSPost2010PropOp50
 70
     1
102
RTVSPost2010Prop51ColorIndex
 90
      256
102
RTVSPost2010Prop51ColorRGB
 90
-16777216
102
RTVSPost2010PropOp51
 70
     0
102
RTVSPost2010Prop52
140
1.0
102
RTVSPost2010PropOp52
 70
     0
102
RTVSPost2010Prop53
 90
        2
102
RTVSPost2010PropOp53
 70
     1
102
RTVSPost2010Prop54
  1
strokes_ogs.tif
102
RTVSPost2010PropOp54
 70
     1
102
RTVSPost2010Prop55
280
     0
102
RTVSPost2010PropOp55
 70
     1
102
RTVSPost2010Prop56
140
1.0
102
RTVSPost2010PropOp56
 70
     1
102
RTVSPost2010Prop57
140
1.0
102
RTVSPost2010PropOp57
 70
     1
  0
XRECORD
  5
3A6
102
{ACAD_REACTORS
330
3A5
102
}
330
3A5
100
AcDbXrecord
280
     1
102
RTVSPropertyOp0
 70
     1
102
RTVSPropertyOp1
 70
     1
102
RTVSPropertyOp2
 70
     1
102
RTVSPropertyOp3
 70
     1
102
RTVSPropertyOp4
 70
     1
102
RTVSPropertyOp5
 70
     1
102
RTVSPropertyOp6
 70
     1
102
RTVSPropertyOp7
 70
     1
102
RTVSPropertyOp8
 70
     1
102
RTVSPropertyOp9
 70
     1
102
RTVSPropertyOp10
 70
     1
102
RTVSPropertyOp11
 70
     1
102
RTVSPropertyOp12
 70
     1
102
RTVSPropertyOp13
 70
     1
102
RTVSPropertyOp14
 70
     1
102
RTVSPropertyOp15
 70
     1
102
RTVSPropertyOp16
 70
     1
102
RTVSPropertyOp17
 70
     1
102
RTVSPropertyOp18
 70
     1
102
RTVSPropertyOp19
 70
     1
102
RTVSPropertyOp20
 70
     1
102
RTVSPropertyOp21
 70
     1
102
RTVSPropertyOp22
 70
     1
102
RTVSPropertyOp23
 70
     1
102
RTVSPropertyOp24
 70
     1
102
RTVSPropertyOp25
 70
     1
102
RTVSPropertyOp26
 70
     1
102
RTVSPropertyOp27
 70
     1
102
RTVSPropertyOp28
 70
     1
102
RTVSPropertyOp29
 70
     1
102
RTVSPropertyOp30
 70
     1
102
RTVSPropertyOp31
 70
     1
102
RTVSPropertyOp32
 70
     1
102
RTVSPropertyOp33
 70
     1
102
RTVSPropertyOp34
 70
     1
102
RTVSPropertyOp35
 70
     1
102
RTVSPropertyOp36
 70
     1
102
RTVSPropertyOp37
 70
     1
102
RTVSPropertyOp38
 70
     1
102
RTVSPropertyOp39
 70
     1
102
RTVSPropertyOp40
 70
     1
102
RTVSPropertyOp41
 70
     1
102
RTVSPropertyOp42
 70
     1
102
RTVSPropertyOp43
 70
     1
102
RTVSPropertyOp44
 70
     1
102
RTVSPropertyOp45
 70
     1
102
RTVSPropertyOp46
 70
     1
102
RTVSPropertyOp47
 70
     1
102
RTVSPropertyOp48
 70
     1
102
RTVSPropertyOp49
 70
     1
102
RTVSPropertyOp50
 70
     1
102
RTVSPropertyOp51
 70
     0
102
RTVSPropertyOp52
 70
     0
102
RTVSPropertyOp53
 70
     1
102
RTVSPropertyOp54
 70
     1
102
RTVSPropertyOp55
 70
     1
102
RTVSPropertyOp56
 70
     1
102
RTVSPropertyOp57
 70
     1
102
RTVSPost2010Prop28
280
     0
102
RTVSPost2010PropOp28
 70
     1
102
RTVSPost2010Prop29
280
     1
102
RTVSPost2010PropOp29
 70
     1
102
RTVSPost2010Prop30
280
     1
102
RTVSPost2010PropOp30
 70
     1
102
RTVSPost2010Prop31
280
     0
102
RTVSPost2010PropOp31
 70
     1
102
RTVSPost2010Prop32
280
     0
102
RTVSPost2010PropOp32
 70
     1
102
RTVSPost2010Prop33
280
     0
102
RTVSPost2010PropOp33
 70
     1
102
RTVSPost2010Prop34
280
     0
102
RTVSPost2010PropOp34
 70
     1
102
RTVSPost2010Prop35
280
     0
102
RTVSPost2010PropOp35
 70
     1
102
RTVSPost2010Prop36
280
     0
102
RTVSPost2010PropOp36
 70
     1
102
RTVSPost2010Prop37
 90
       50
102
RTVSPost2010PropOp37
 70
     1
102
RTVSPost2010Prop38
140
0.0
102
RTVSPost2010PropOp38
 70
     1
102
RTVSPost2010Prop39
140
1.0
102
RTVSPost2010PropOp39
 70
     1
102
RTVSPost2010Prop40
 90
        0
102
RTVSPost2010PropOp40
 70
     1
102
RTVSPost2010Prop41ColorIndex
 90
       18
102
RTVSPost2010Prop41ColorRGB
 90
        0
102
RTVSPost2010PropOp41
 70
     1
102
RTVSPost2010Prop42
 90
       50
102
RTVSPost2010PropOp42
 70
     1
102
RTVSPost2010Prop43
 90
        3
102
RTVSPost2010PropOp43
 70
     1
102
RTVSPost2010Prop44ColorIndex
 90
        5
102
RTVSPost2010Prop44ColorRGB
 90
      255
102
RTVSPost2010PropOp44
 70
     1
102
RTVSPost2010Prop45
280
     0
102
RTVSPost2010PropOp45
 70
     1
102
RTVSPost2010Prop46
 90
       50
102
RTVSPost2010PropOp46
 70
     1
102
RTVSPost2010Prop47
 90
       50
102
RTVSPost2010PropOp47
 70
     1
102
RTVSPost2010Prop48
 90
       50
102
RTVSPost2010PropOp48
 70
     1
102
RTVSPost2010Prop49
280
     0
102
RTVSPost2010PropOp49
 70
     1
102
RTVSPost2010Prop50
 90
       50
102
RTVSPost2010PropOp50
 70
     1
102
RTVSPost2010Prop51ColorIndex
 90
      256
102
RTVSPost2010Prop51ColorRGB
 90
-16777216
102
RTVSPost2010PropOp51
 70
     0
102
RTVSPost2010Prop52
140
1.0
102
RTVSPost2010PropOp52
 70
     0
102
RTVSPost2010Prop53
 90
        2
102
RTVSPost2010PropOp53
 70
     1
102
RTVSPost2010Prop54
  1
strokes_ogs.tif
102
RTVSPost2010PropOp54
 70
     1
102
RTVSPost2010Prop55
280
     0
102
RTVSPost2010PropOp55
 70
     1
102
RTVSPost2010Prop56
140
1.0
102
RTVSPost2010PropOp56
 70
     1
102
RTVSPost2010Prop57
140
1.0
102
RTVSPost2010PropOp57
 70
     1
  0
XRECORD
  5
3AC
102
{ACAD_REACTORS
330
3AB
102
}
330
3AB
100
AcDbXrecord
280
     1
102
RTVSPropertyOp0
 70
     1
102
RTVSPropertyOp1
 70
     1
102
RTVSPropertyOp2
 70
     1
102
RTVSPropertyOp3
 70
     1
102
RTVSPropertyOp4
 70
     1
102
RTVSPropertyOp5
 70
     1
102
RTVSPropertyOp6
 70
     1
102
RTVSPropertyOp7
 70
     1
102
RTVSPropertyOp8
 70
     1
102
RTVSPropertyOp9
 70
     1
102
RTVSPropertyOp10
 70
     1
102
RTVSPropertyOp11
 70
     1
102
RTVSPropertyOp12
 70
     1
102
RTVSPropertyOp13
 70
     1
102
RTVSPropertyOp14
 70
     1
102
RTVSPropertyOp15
 70
     1
102
RTVSPropertyOp16
 70
     1
102
RTVSPropertyOp17
 70
     1
102
RTVSPropertyOp18
 70
     1
102
RTVSPropertyOp19
 70
     1
102
RTVSPropertyOp20
 70
     1
102
RTVSPropertyOp21
 70
     1
102
RTVSPropertyOp22
 70
     1
102
RTVSPropertyOp23
 70
     1
102
RTVSPropertyOp24
 70
     1
102
RTVSPropertyOp25
 70
     1
102
RTVSPropertyOp26
 70
     1
102
RTVSPropertyOp27
 70
     1
102
RTVSPropertyOp28
 70
     1
102
RTVSPropertyOp29
 70
     1
102
RTVSPropertyOp30
 70
     1
102
RTVSPropertyOp31
 70
     1
102
RTVSPropertyOp32
 70
     1
102
RTVSPropertyOp33
 70
     1
102
RTVSPropertyOp34
 70
     1
102
RTVSPropertyOp35
 70
     1
102
RTVSPropertyOp36
 70
     1
102
RTVSPropertyOp37
 70
     1
102
RTVSPropertyOp38
 70
     1
102
RTVSPropertyOp39
 70
     1
102
RTVSPropertyOp40
 70
     1
102
RTVSPropertyOp41
 70
     1
102
RTVSPropertyOp42
 70
     1
102
RTVSPropertyOp43
 70
     1
102
RTVSPropertyOp44
 70
     1
102
RTVSPropertyOp45
 70
     1
102
RTVSPropertyOp46
 70
     1
102
RTVSPropertyOp47
 70
     1
102
RTVSPropertyOp48
 70
     1
102
RTVSPropertyOp49
 70
     1
102
RTVSPropertyOp50
 70
     1
102
RTVSPropertyOp51
 70
     0
102
RTVSPropertyOp52
 70
     0
102
RTVSPropertyOp53
 70
     1
102
RTVSPropertyOp54
 70
     1
102
RTVSPropertyOp55
 70
     1
102
RTVSPropertyOp56
 70
     1
102
RTVSPropertyOp57
 70
     1
102
RTVSPost2010Prop28
280
     0
102
RTVSPost2010PropOp28
 70
     1
102
RTVSPost2010Prop29
280
     1
102
RTVSPost2010PropOp29
 70
     1
102
RTVSPost2010Prop30
280
     1
102
RTVSPost2010PropOp30
 70
     1
102
RTVSPost2010Prop31
280
     0
102
RTVSPost2010PropOp31
 70
     1
102
RTVSPost2010Prop32
280
     0
102
RTVSPost2010PropOp32
 70
     1
102
RTVSPost2010Prop33
280
     0
102
RTVSPost2010PropOp33
 70
     1
102
RTVSPost2010Prop34
280
     0
102
RTVSPost2010PropOp34
 70
     1
102
RTVSPost2010Prop35
280
     0
102
RTVSPost2010PropOp35
 70
     1
102
RTVSPost2010Prop36
280
     0
102
RTVSPost2010PropOp36
 70
     1
102
RTVSPost2010Prop37
 90
       50
102
RTVSPost2010PropOp37
 70
     1
102
RTVSPost2010Prop38
140
0.0
102
RTVSPost2010PropOp38
 70
     1
102
RTVSPost2010Prop39
140
1.0
102
RTVSPost2010PropOp39
 70
     1
102
RTVSPost2010Prop40
 90
        0
102
RTVSPost2010PropOp40
 70
     1
102
RTVSPost2010Prop41ColorIndex
 90
       18
102
RTVSPost2010Prop41ColorRGB
 90
        0
102
RTVSPost2010PropOp41
 70
     1
102
RTVSPost2010Prop42
 90
       50
102
RTVSPost2010PropOp42
 70
     1
102
RTVSPost2010Prop43
 90
        3
102
RTVSPost2010PropOp43
 70
     1
102
RTVSPost2010Prop44ColorIndex
 90
        5
102
RTVSPost2010Prop44ColorRGB
 90
      255
102
RTVSPost2010PropOp44
 70
     1
102
RTVSPost2010Prop45
280
     0
102
RTVSPost2010PropOp45
 70
     1
102
RTVSPost2010Prop46
 90
       50
102
RTVSPost2010PropOp46
 70
     1
102
RTVSPost2010Prop47
 90
       50
102
RTVSPost2010PropOp47
 70
     1
102
RTVSPost2010Prop48
 90
       50
102
RTVSPost2010PropOp48
 70
     1
102
RTVSPost2010Prop49
280
     0
102
RTVSPost2010PropOp49
 70
     1
102
RTVSPost2010Prop50
 90
       50
102
RTVSPost2010PropOp50
 70
     1
102
RTVSPost2010Prop51ColorIndex
 90
      256
102
RTVSPost2010Prop51ColorRGB
 90
-16777216
102
RTVSPost2010PropOp51
 70
     0
102
RTVSPost2010Prop52
140
1.0
102
RTVSPost2010PropOp52
 70
     0
102
RTVSPost2010Prop53
 90
        2
102
RTVSPost2010PropOp53
 70
     1
102
RTVSPost2010Prop54
  1
strokes_ogs.tif
102
RTVSPost2010PropOp54
 70
     1
102
RTVSPost2010Prop55
280
     0
102
RTVSPost2010PropOp55
 70
     1
102
RTVSPost2010Prop56
140
1.0
102
RTVSPost2010PropOp56
 70
     1
102
RTVSPost2010Prop57
140
1.0
102
RTVSPost2010PropOp57
 70
     1
  0
XRECORD
  5
3C0
102
{ACAD_REACTORS
330
3BF
102
}
330
3BF
100
AcDbXrecord
280
     1
102
RTVSPropertyOp0
 70
     0
102
RTVSPropertyOp1
 70
     0
102
RTVSPropertyOp2
 70
     0
102
RTVSPropertyOp3
 70
     0
102
RTVSPropertyOp4
 70
     0
102
RTVSPropertyOp5
 70
     0
102
RTVSPropertyOp6
 70
     0
102
RTVSPropertyOp7
 70
     0
102
RTVSPropertyOp8
 70
     0
102
RTVSPropertyOp9
 70
     0
102
RTVSPropertyOp10
 70
     0
102
RTVSPropertyOp11
 70
     0
102
RTVSPropertyOp12
 70
     0
102
RTVSPropertyOp13
 70
     0
102
RTVSPropertyOp14
 70
     2
102
RTVSPropertyOp15
 70
     0
102
RTVSPropertyOp16
 70
     0
102
RTVSPropertyOp17
 70
     0
102
RTVSPropertyOp18
 70
     0
102
RTVSPropertyOp19
 70
     0
102
RTVSPropertyOp20
 70
     0
102
RTVSPropertyOp21
 70
     0
102
RTVSPropertyOp22
 70
     0
102
RTVSPropertyOp23
 70
     0
102
RTVSPropertyOp24
 70
     0
102
RTVSPropertyOp25
 70
     0
102
RTVSPropertyOp26
 70
     0
102
RTVSPropertyOp27
 70
     0
102
RTVSPropertyOp28
 70
     0
102
RTVSPropertyOp29
 70
     0
102
RTVSPropertyOp30
 70
     0
102
RTVSPropertyOp31
 70
     0
102
RTVSPropertyOp32
 70
     0
102
RTVSPropertyOp33
 70
     0
102
RTVSPropertyOp34
 70
     0
102
RTVSPropertyOp35
 70
     0
102
RTVSPropertyOp36
 70
     0
102
RTVSPropertyOp37
 70
     0
102
RTVSPropertyOp38
 70
     0
102
RTVSPropertyOp39
 70
     0
102
RTVSPropertyOp40
 70
     0
102
RTVSPropertyOp41
 70
     0
102
RTVSPropertyOp42
 70
     0
102
RTVSPropertyOp43
 70
     0
102
RTVSPropertyOp44
 70
     0
102
RTVSPropertyOp45
 70
     0
102
RTVSPropertyOp46
 70
     0
102
RTVSPropertyOp47
 70
     0
102
RTVSPropertyOp48
 70
     0
102
RTVSPropertyOp49
 70
     0
102
RTVSPropertyOp50
 70
     0
102
RTVSPropertyOp51
 70
     0
102
RTVSPropertyOp52
 70
     0
102
RTVSPropertyOp53
 70
     0
102
RTVSPropertyOp54
 70
     0
102
RTVSPropertyOp55
 70
     0
102
RTVSPropertyOp56
 70
     0
102
RTVSPropertyOp57
 70
     0
102
RTVSPost2010Prop28
280
     0
102
RTVSPost2010PropOp28
 70
     0
102
RTVSPost2010Prop29
280
     1
102
RTVSPost2010PropOp29
 70
     0
102
RTVSPost2010Prop30
280
     1
102
RTVSPost2010PropOp30
 70
     0
102
RTVSPost2010Prop31
280
     0
102
RTVSPost2010PropOp31
 70
     0
102
RTVSPost2010Prop32
280
     0
102
RTVSPost2010PropOp32
 70
     0
102
RTVSPost2010Prop33
280
     0
102
RTVSPost2010PropOp33
 70
     0
102
RTVSPost2010Prop34
280
     0
102
RTVSPost2010PropOp34
 70
     0
102
RTVSPost2010Prop35
280
     0
102
RTVSPost2010PropOp35
 70
     0
102
RTVSPost2010Prop36
280
     0
102
RTVSPost2010PropOp36
 70
     0
102
RTVSPost2010Prop37
 90
       50
102
RTVSPost2010PropOp37
 70
     0
102
RTVSPost2010Prop38
140
0.0
102
RTVSPost2010PropOp38
 70
     0
102
RTVSPost2010Prop39
140
1.0
102
RTVSPost2010PropOp39
 70
     0
102
RTVSPost2010Prop40
 90
        0
102
RTVSPost2010PropOp40
 70
     0
102
RTVSPost2010Prop41ColorIndex
 90
       18
102
RTVSPost2010Prop41ColorRGB
 90
        0
102
RTVSPost2010PropOp41
 70
     0
102
RTVSPost2010Prop42
 90
       50
102
RTVSPost2010PropOp42
 70
     0
102
RTVSPost2010Prop43
 90
        3
102
RTVSPost2010PropOp43
 70
     0
102
RTVSPost2010Prop44ColorIndex
 90
        5
102
RTVSPost2010Prop44ColorRGB
 90
      255
102
RTVSPost2010PropOp44
 70
     0
102
RTVSPost2010Prop45
280
     0
102
RTVSPost2010PropOp45
 70
     0
102
RTVSPost2010Prop46
 90
       50
102
RTVSPost2010PropOp46
 70
     0
102
RTVSPost2010Prop47
 90
       50
102
RTVSPost2010PropOp47
 70
     0
102
RTVSPost2010Prop48
 90
       50
102
RTVSPost2010PropOp48
 70
     0
102
RTVSPost2010Prop49
280
     0
102
RTVSPost2010PropOp49
 70
     0
102
RTVSPost2010Prop50
 90
       50
102
RTVSPost2010PropOp50
 70
     0
102
RTVSPost2010Prop51ColorIndex
 90
      256
102
RTVSPost2010Prop51ColorRGB
 90
-16777216
102
RTVSPost2010PropOp51
 70
     0
102
RTVSPost2010Prop52
140
1.0
102
RTVSPost2010PropOp52
 70
     0
102
RTVSPost2010Prop53
 90
        2
102
RTVSPost2010PropOp53
 70
     0
102
RTVSPost2010Prop54
  1
strokes_ogs.tif
102
RTVSPost2010PropOp54
 70
     0
102
RTVSPost2010Prop55
280
     0
102
RTVSPost2010PropOp55
 70
     0
102
RTVSPost2010Prop56
140
1.0
102
RTVSPost2010PropOp56
 70
     0
102
RTVSPost2010Prop57
140
1.0
102
RTVSPost2010PropOp57
 70
     0
  0
XRECORD
  5
3BA
102
{ACAD_REACTORS
330
3B9
102
}
330
3B9
100
AcDbXrecord
280
     1
102
RTVSPropertyOp0
 70
     1
102
RTVSPropertyOp1
 70
     1
102
RTVSPropertyOp2
 70
     1
102
RTVSPropertyOp3
 70
     1
102
RTVSPropertyOp4
 70
     1
102
RTVSPropertyOp5
 70
     1
102
RTVSPropertyOp6
 70
     1
102
RTVSPropertyOp7
 70
     1
102
RTVSPropertyOp8
 70
     1
102
RTVSPropertyOp9
 70
     1
102
RTVSPropertyOp10
 70
     1
102
RTVSPropertyOp11
 70
     1
102
RTVSPropertyOp12
 70
     1
102
RTVSPropertyOp13
 70
     1
102
RTVSPropertyOp14
 70
     1
102
RTVSPropertyOp15
 70
     1
102
RTVSPropertyOp16
 70
     1
102
RTVSPropertyOp17
 70
     1
102
RTVSPropertyOp18
 70
     1
102
RTVSPropertyOp19
 70
     1
102
RTVSPropertyOp20
 70
     1
102
RTVSPropertyOp21
 70
     1
102
RTVSPropertyOp22
 70
     1
102
RTVSPropertyOp23
 70
     1
102
RTVSPropertyOp24
 70
     1
102
RTVSPropertyOp25
 70
     1
102
RTVSPropertyOp26
 70
     1
102
RTVSPropertyOp27
 70
     1
102
RTVSPropertyOp28
 70
     1
102
RTVSPropertyOp29
 70
     1
102
RTVSPropertyOp30
 70
     1
102
RTVSPropertyOp31
 70
     1
102
RTVSPropertyOp32
 70
     1
102
RTVSPropertyOp33
 70
     1
102
RTVSPropertyOp34
 70
     1
102
RTVSPropertyOp35
 70
     1
102
RTVSPropertyOp36
 70
     1
102
RTVSPropertyOp37
 70
     1
102
RTVSPropertyOp38
 70
     1
102
RTVSPropertyOp39
 70
     1
102
RTVSPropertyOp40
 70
     1
102
RTVSPropertyOp41
 70
     1
102
RTVSPropertyOp42
 70
     1
102
RTVSPropertyOp43
 70
     1
102
RTVSPropertyOp44
 70
     1
102
RTVSPropertyOp45
 70
     1
102
RTVSPropertyOp46
 70
     1
102
RTVSPropertyOp47
 70
     1
102
RTVSPropertyOp48
 70
     1
102
RTVSPropertyOp49
 70
     1
102
RTVSPropertyOp50
 70
     1
102
RTVSPropertyOp51
 70
     0
102
RTVSPropertyOp52
 70
     0
102
RTVSPropertyOp53
 70
     1
102
RTVSPropertyOp54
 70
     1
102
RTVSPropertyOp55
 70
     1
102
RTVSPropertyOp56
 70
     1
102
RTVSPropertyOp57
 70
     1
102
RTVSPost2010Prop28
280
     0
102
RTVSPost2010PropOp28
 70
     1
102
RTVSPost2010Prop29
280
     1
102
RTVSPost2010PropOp29
 70
     1
102
RTVSPost2010Prop30
280
     1
102
RTVSPost2010PropOp30
 70
     1
102
RTVSPost2010Prop31
280
     0
102
RTVSPost2010PropOp31
 70
     1
102
RTVSPost2010Prop32
280
     0
102
RTVSPost2010PropOp32
 70
     1
102
RTVSPost2010Prop33
280
     0
102
RTVSPost2010PropOp33
 70
     1
102
RTVSPost2010Prop34
280
     0
102
RTVSPost2010PropOp34
 70
     1
102
RTVSPost2010Prop35
280
     0
102
RTVSPost2010PropOp35
 70
     1
102
RTVSPost2010Prop36
280
     0
102
RTVSPost2010PropOp36
 70
     1
102
RTVSPost2010Prop37
 90
       50
102
RTVSPost2010PropOp37
 70
     1
102
RTVSPost2010Prop38
140
0.0
102
RTVSPost2010PropOp38
 70
     1
102
RTVSPost2010Prop39
140
1.0
102
RTVSPost2010PropOp39
 70
     1
102
RTVSPost2010Prop40
 90
        0
102
RTVSPost2010PropOp40
 70
     1
102
RTVSPost2010Prop41ColorIndex
 90
       18
102
RTVSPost2010Prop41ColorRGB
 90
        0
102
RTVSPost2010PropOp41
 70
     1
102
RTVSPost2010Prop42
 90
       50
102
RTVSPost2010PropOp42
 70
     1
102
RTVSPost2010Prop43
 90
        3
102
RTVSPost2010PropOp43
 70
     1
102
RTVSPost2010Prop44ColorIndex
 90
        5
102
RTVSPost2010Prop44ColorRGB
 90
      255
102
RTVSPost2010PropOp44
 70
     1
102
RTVSPost2010Prop45
280
     0
102
RTVSPost2010PropOp45
 70
     1
102
RTVSPost2010Prop46
 90
       50
102
RTVSPost2010PropOp46
 70
     1
102
RTVSPost2010Prop47
 90
       50
102
RTVSPost2010PropOp47
 70
     1
102
RTVSPost2010Prop48
 90
       50
102
RTVSPost2010PropOp48
 70
     1
102
RTVSPost2010Prop49
280
     0
102
RTVSPost2010PropOp49
 70
     1
102
RTVSPost2010Prop50
 90
       50
102
RTVSPost2010PropOp50
 70
     1
102
RTVSPost2010Prop51ColorIndex
 90
      256
102
RTVSPost2010Prop51ColorRGB
 90
-16777216
102
RTVSPost2010PropOp51
 70
     0
102
RTVSPost2010Prop52
140
1.0
102
RTVSPost2010PropOp52
 70
     0
102
RTVSPost2010Prop53
 90
        2
102
RTVSPost2010PropOp53
 70
     1
102
RTVSPost2010Prop54
  1
strokes_ogs.tif
102
RTVSPost2010PropOp54
 70
     1
102
RTVSPost2010Prop55
280
     0
102
RTVSPost2010PropOp55
 70
     1
102
RTVSPost2010Prop56
140
1.0
102
RTVSPost2010PropOp56
 70
     1
102
RTVSPost2010Prop57
140
1.0
102
RTVSPost2010PropOp57
 70
     1
  0
XRECORD
  5
3C2
102
{ACAD_REACTORS
330
3C1
102
}
330
3C1
100
AcDbXrecord
280
     1
102
RTVSPropertyOp0
 70
     0
102
RTVSPropertyOp1
 70
     0
102
RTVSPropertyOp2
 70
     0
102
RTVSPropertyOp3
 70
     0
102
RTVSPropertyOp4
 70
     0
102
RTVSPropertyOp5
 70
     0
102
RTVSPropertyOp6
 70
     0
102
RTVSPropertyOp7
 70
     0
102
RTVSPropertyOp8
 70
     0
102
RTVSPropertyOp9
 70
     0
102
RTVSPropertyOp10
 70
     0
102
RTVSPropertyOp11
 70
     0
102
RTVSPropertyOp12
 70
     0
102
RTVSPropertyOp13
 70
     0
102
RTVSPropertyOp14
 70
     2
102
RTVSPropertyOp15
 70
     0
102
RTVSPropertyOp16
 70
     0
102
RTVSPropertyOp17
 70
     0
102
RTVSPropertyOp18
 70
     0
102
RTVSPropertyOp19
 70
     0
102
RTVSPropertyOp20
 70
     0
102
RTVSPropertyOp21
 70
     0
102
RTVSPropertyOp22
 70
     0
102
RTVSPropertyOp23
 70
     0
102
RTVSPropertyOp24
 70
     0
102
RTVSPropertyOp25
 70
     0
102
RTVSPropertyOp26
 70
     0
102
RTVSPropertyOp27
 70
     0
102
RTVSPropertyOp28
 70
     0
102
RTVSPropertyOp29
 70
     0
102
RTVSPropertyOp30
 70
     0
102
RTVSPropertyOp31
 70
     0
102
RTVSPropertyOp32
 70
     0
102
RTVSPropertyOp33
 70
     0
102
RTVSPropertyOp34
 70
     0
102
RTVSPropertyOp35
 70
     0
102
RTVSPropertyOp36
 70
     0
102
RTVSPropertyOp37
 70
     0
102
RTVSPropertyOp38
 70
     0
102
RTVSPropertyOp39
 70
     0
102
RTVSPropertyOp40
 70
     0
102
RTVSPropertyOp41
 70
     0
102
RTVSPropertyOp42
 70
     0
102
RTVSPropertyOp43
 70
     0
102
RTVSPropertyOp44
 70
     0
102
RTVSPropertyOp45
 70
     0
102
RTVSPropertyOp46
 70
     0
102
RTVSPropertyOp47
 70
     0
102
RTVSPropertyOp48
 70
     0
102
RTVSPropertyOp49
 70
     0
102
RTVSPropertyOp50
 70
     0
102
RTVSPropertyOp51
 70
     0
102
RTVSPropertyOp52
 70
     0
102
RTVSPropertyOp53
 70
     0
102
RTVSPropertyOp54
 70
     0
102
RTVSPropertyOp55
 70
     0
102
RTVSPropertyOp56
 70
     0
102
RTVSPropertyOp57
 70
     0
102
RTVSPost2010Prop28
280
     0
102
RTVSPost2010PropOp28
 70
     0
102
RTVSPost2010Prop29
280
     1
102
RTVSPost2010PropOp29
 70
     0
102
RTVSPost2010Prop30
280
     1
102
RTVSPost2010PropOp30
 70
     0
102
RTVSPost2010Prop31
280
     0
102
RTVSPost2010PropOp31
 70
     0
102
RTVSPost2010Prop32
280
     0
102
RTVSPost2010PropOp32
 70
     0
102
RTVSPost2010Prop33
280
     0
102
RTVSPost2010PropOp33
 70
     0
102
RTVSPost2010Prop34
280
     0
102
RTVSPost2010PropOp34
 70
     0
102
RTVSPost2010Prop35
280
     0
102
RTVSPost2010PropOp35
 70
     0
102
RTVSPost2010Prop36
280
     0
102
RTVSPost2010PropOp36
 70
     0
102
RTVSPost2010Prop37
 90
       50
102
RTVSPost2010PropOp37
 70
     0
102
RTVSPost2010Prop38
140
0.0
102
RTVSPost2010PropOp38
 70
     0
102
RTVSPost2010Prop39
140
1.0
102
RTVSPost2010PropOp39
 70
     0
102
RTVSPost2010Prop40
 90
        0
102
RTVSPost2010PropOp40
 70
     0
102
RTVSPost2010Prop41ColorIndex
 90
       18
102
RTVSPost2010Prop41ColorRGB
 90
        0
102
RTVSPost2010PropOp41
 70
     0
102
RTVSPost2010Prop42
 90
       50
102
RTVSPost2010PropOp42
 70
     0
102
RTVSPost2010Prop43
 90
        3
102
RTVSPost2010PropOp43
 70
     0
102
RTVSPost2010Prop44ColorIndex
 90
        5
102
RTVSPost2010Prop44ColorRGB
 90
      255
102
RTVSPost2010PropOp44
 70
     0
102
RTVSPost2010Prop45
280
     0
102
RTVSPost2010PropOp45
 70
     0
102
RTVSPost2010Prop46
 90
       50
102
RTVSPost2010PropOp46
 70
     0
102
RTVSPost2010Prop47
 90
       50
102
RTVSPost2010PropOp47
 70
     0
102
RTVSPost2010Prop48
 90
       50
102
RTVSPost2010PropOp48
 70
     0
102
RTVSPost2010Prop49
280
     0
102
RTVSPost2010PropOp49
 70
     0
102
RTVSPost2010Prop50
 90
       50
102
RTVSPost2010PropOp50
 70
     0
102
RTVSPost2010Prop51ColorIndex
 90
      256
102
RTVSPost2010Prop51ColorRGB
 90
-16777216
102
RTVSPost2010PropOp51
 70
     0
102
RTVSPost2010Prop52
140
1.0
102
RTVSPost2010PropOp52
 70
     0
102
RTVSPost2010Prop53
 90
        2
102
RTVSPost2010PropOp53
 70
     0
102
RTVSPost2010Prop54
  1
strokes_ogs.tif
102
RTVSPost2010PropOp54
 70
     0
102
RTVSPost2010Prop55
280
     0
102
RTVSPost2010PropOp55
 70
     0
102
RTVSPost2010Prop56
140
1.0
102
RTVSPost2010PropOp56
 70
     0
102
RTVSPost2010Prop57
140
1.0
102
RTVSPost2010PropOp57
 70
     0
  0
XRECORD
  5
3B0
102
{ACAD_REACTORS
330
3AF
102
}
330
3AF
100
AcDbXrecord
280
     1
102
RTVSPropertyOp0
 70
     1
102
RTVSPropertyOp1
 70
     1
102
RTVSPropertyOp2
 70
     1
102
RTVSPropertyOp3
 70
     1
102
RTVSPropertyOp4
 70
     1
102
RTVSPropertyOp5
 70
     1
102
RTVSPropertyOp6
 70
     1
102
RTVSPropertyOp7
 70
     1
102
RTVSPropertyOp8
 70
     1
102
RTVSPropertyOp9
 70
     1
102
RTVSPropertyOp10
 70
     1
102
RTVSPropertyOp11
 70
     1
102
RTVSPropertyOp12
 70
     1
102
RTVSPropertyOp13
 70
     1
102
RTVSPropertyOp14
 70
     1
102
RTVSPropertyOp15
 70
     1
102
RTVSPropertyOp16
 70
     1
102
RTVSPropertyOp17
 70
     1
102
RTVSPropertyOp18
 70
     1
102
RTVSPropertyOp19
 70
     1
102
RTVSPropertyOp20
 70
     1
102
RTVSPropertyOp21
 70
     1
102
RTVSPropertyOp22
 70
     1
102
RTVSPropertyOp23
 70
     1
102
RTVSPropertyOp24
 70
     1
102
RTVSPropertyOp25
 70
     1
102
RTVSPropertyOp26
 70
     1
102
RTVSPropertyOp27
 70
     1
102
RTVSPropertyOp28
 70
     1
102
RTVSPropertyOp29
 70
     1
102
RTVSPropertyOp30
 70
     1
102
RTVSPropertyOp31
 70
     1
102
RTVSPropertyOp32
 70
     1
102
RTVSPropertyOp33
 70
     1
102
RTVSPropertyOp34
 70
     1
102
RTVSPropertyOp35
 70
     1
102
RTVSPropertyOp36
 70
     1
102
RTVSPropertyOp37
 70
     1
102
RTVSPropertyOp38
 70
     1
102
RTVSPropertyOp39
 70
     1
102
RTVSPropertyOp40
 70
     1
102
RTVSPropertyOp41
 70
     1
102
RTVSPropertyOp42
 70
     1
102
RTVSPropertyOp43
 70
     1
102
RTVSPropertyOp44
 70
     1
102
RTVSPropertyOp45
 70
     1
102
RTVSPropertyOp46
 70
     1
102
RTVSPropertyOp47
 70
     1
102
RTVSPropertyOp48
 70
     1
102
RTVSPropertyOp49
 70
     1
102
RTVSPropertyOp50
 70
     1
102
RTVSPropertyOp51
 70
     0
102
RTVSPropertyOp52
 70
     0
102
RTVSPropertyOp53
 70
     1
102
RTVSPropertyOp54
 70
     1
102
RTVSPropertyOp55
 70
     1
102
RTVSPropertyOp56
 70
     1
102
RTVSPropertyOp57
 70
     1
102
RTVSPost2010Prop28
280
     0
102
RTVSPost2010PropOp28
 70
     1
102
RTVSPost2010Prop29
280
     1
102
RTVSPost2010PropOp29
 70
     1
102
RTVSPost2010Prop30
280
     1
102
RTVSPost2010PropOp30
 70
     1
102
RTVSPost2010Prop31
280
     0
102
RTVSPost2010PropOp31
 70
     1
102
RTVSPost2010Prop32
280
     0
102
RTVSPost2010PropOp32
 70
     1
102
RTVSPost2010Prop33
280
     0
102
RTVSPost2010PropOp33
 70
     1
102
RTVSPost2010Prop34
280
     0
102
RTVSPost2010PropOp34
 70
     1
102
RTVSPost2010Prop35
280
     0
102
RTVSPost2010PropOp35
 70
     1
102
RTVSPost2010Prop36
280
     0
102
RTVSPost2010PropOp36
 70
     1
102
RTVSPost2010Prop37
 90
       50
102
RTVSPost2010PropOp37
 70
     1
102
RTVSPost2010Prop38
140
0.0
102
RTVSPost2010PropOp38
 70
     1
102
RTVSPost2010Prop39
140
1.0
102
RTVSPost2010PropOp39
 70
     1
102
RTVSPost2010Prop40
 90
        0
102
RTVSPost2010PropOp40
 70
     1
102
RTVSPost2010Prop41ColorIndex
 90
       18
102
RTVSPost2010Prop41ColorRGB
 90
        0
102
RTVSPost2010PropOp41
 70
     1
102
RTVSPost2010Prop42
 90
       50
102
RTVSPost2010PropOp42
 70
     1
102
RTVSPost2010Prop43
 90
        3
102
RTVSPost2010PropOp43
 70
     1
102
RTVSPost2010Prop44ColorIndex
 90
        5
102
RTVSPost2010Prop44ColorRGB
 90
      255
102
RTVSPost2010PropOp44
 70
     1
102
RTVSPost2010Prop45
280
     0
102
RTVSPost2010PropOp45
 70
     1
102
RTVSPost2010Prop46
 90
       50
102
RTVSPost2010PropOp46
 70
     1
102
RTVSPost2010Prop47
 90
       50
102
RTVSPost2010PropOp47
 70
     1
102
RTVSPost2010Prop48
 90
       50
102
RTVSPost2010PropOp48
 70
     1
102
RTVSPost2010Prop49
280
     0
102
RTVSPost2010PropOp49
 70
     1
102
RTVSPost2010Prop50
 90
       50
102
RTVSPost2010PropOp50
 70
     1
102
RTVSPost2010Prop51ColorIndex
 90
      256
102
RTVSPost2010Prop51ColorRGB
 90
-16777216
102
RTVSPost2010PropOp51
 70
     0
102
RTVSPost2010Prop52
140
1.0
102
RTVSPost2010PropOp52
 70
     0
102
RTVSPost2010Prop53
 90
        2
102
RTVSPost2010PropOp53
 70
     1
102
RTVSPost2010Prop54
  1
strokes_ogs.tif
102
RTVSPost2010PropOp54
 70
     1
102
RTVSPost2010Prop55
280
     0
102
RTVSPost2010PropOp55
 70
     1
102
RTVSPost2010Prop56
140
1.0
102
RTVSPost2010PropOp56
 70
     1
102
RTVSPost2010Prop57
140
1.0
102
RTVSPost2010PropOp57
 70
     1
  0
XRECORD
  5
3CE
102
{ACAD_REACTORS
330
3CD
102
}
330
3CD
100
AcDbXrecord
280
     1
102
RTVSPropertyOp0
 70
     1
102
RTVSPropertyOp1
 70
     1
102
RTVSPropertyOp2
 70
     1
102
RTVSPropertyOp3
 70
     1
102
RTVSPropertyOp4
 70
     1
102
RTVSPropertyOp5
 70
     1
102
RTVSPropertyOp6
 70
     1
102
RTVSPropertyOp7
 70
     1
102
RTVSPropertyOp8
 70
     1
102
RTVSPropertyOp9
 70
     1
102
RTVSPropertyOp10
 70
     1
102
RTVSPropertyOp11
 70
     1
102
RTVSPropertyOp12
 70
     1
102
RTVSPropertyOp13
 70
     1
102
RTVSPropertyOp14
 70
     1
102
RTVSPropertyOp15
 70
     1
102
RTVSPropertyOp16
 70
     1
102
RTVSPropertyOp17
 70
     1
102
RTVSPropertyOp18
 70
     1
102
RTVSPropertyOp19
 70
     1
102
RTVSPropertyOp20
 70
     1
102
RTVSPropertyOp21
 70
     1
102
RTVSPropertyOp22
 70
     1
102
RTVSPropertyOp23
 70
     1
102
RTVSPropertyOp24
 70
     1
102
RTVSPropertyOp25
 70
     1
102
RTVSPropertyOp26
 70
     1
102
RTVSPropertyOp27
 70
     1
102
RTVSPropertyOp28
 70
     1
102
RTVSPropertyOp29
 70
     1
102
RTVSPropertyOp30
 70
     1
102
RTVSPropertyOp31
 70
     1
102
RTVSPropertyOp32
 70
     1
102
RTVSPropertyOp33
 70
     1
102
RTVSPropertyOp34
 70
     1
102
RTVSPropertyOp35
 70
     1
102
RTVSPropertyOp36
 70
     1
102
RTVSPropertyOp37
 70
     1
102
RTVSPropertyOp38
 70
     1
102
RTVSPropertyOp39
 70
     1
102
RTVSPropertyOp40
 70
     1
102
RTVSPropertyOp41
 70
     1
102
RTVSPropertyOp42
 70
     1
102
RTVSPropertyOp43
 70
     1
102
RTVSPropertyOp44
 70
     1
102
RTVSPropertyOp45
 70
     1
102
RTVSPropertyOp46
 70
     1
102
RTVSPropertyOp47
 70
     1
102
RTVSPropertyOp48
 70
     1
102
RTVSPropertyOp49
 70
     1
102
RTVSPropertyOp50
 70
     1
102
RTVSPropertyOp51
 70
     0
102
RTVSPropertyOp52
 70
     0
102
RTVSPropertyOp53
 70
     1
102
RTVSPropertyOp54
 70
     1
102
RTVSPropertyOp55
 70
     1
102
RTVSPropertyOp56
 70
     1
102
RTVSPropertyOp57
 70
     1
102
RTVSPost2010Prop28
280
     0
102
RTVSPost2010PropOp28
 70
     1
102
RTVSPost2010Prop29
280
     1
102
RTVSPost2010PropOp29
 70
     1
102
RTVSPost2010Prop30
280
     1
102
RTVSPost2010PropOp30
 70
     1
102
RTVSPost2010Prop31
280
     0
102
RTVSPost2010PropOp31
 70
     1
102
RTVSPost2010Prop32
280
     0
102
RTVSPost2010PropOp32
 70
     1
102
RTVSPost2010Prop33
280
     0
102
RTVSPost2010PropOp33
 70
     1
102
RTVSPost2010Prop34
280
     0
102
RTVSPost2010PropOp34
 70
     1
102
RTVSPost2010Prop35
280
     0
102
RTVSPost2010PropOp35
 70
     1
102
RTVSPost2010Prop36
280
     0
102
RTVSPost2010PropOp36
 70
     1
102
RTVSPost2010Prop37
 90
       50
102
RTVSPost2010PropOp37
 70
     1
102
RTVSPost2010Prop38
140
0.0
102
RTVSPost2010PropOp38
 70
     1
102
RTVSPost2010Prop39
140
1.0
102
RTVSPost2010PropOp39
 70
     1
102
RTVSPost2010Prop40
 90
        0
102
RTVSPost2010PropOp40
 70
     1
102
RTVSPost2010Prop41ColorIndex
 90
       18
102
RTVSPost2010Prop41ColorRGB
 90
        0
102
RTVSPost2010PropOp41
 70
     1
102
RTVSPost2010Prop42
 90
       50
102
RTVSPost2010PropOp42
 70
     1
102
RTVSPost2010Prop43
 90
        3
102
RTVSPost2010PropOp43
 70
     1
102
RTVSPost2010Prop44ColorIndex
 90
        5
102
RTVSPost2010Prop44ColorRGB
 90
      255
102
RTVSPost2010PropOp44
 70
     1
102
RTVSPost2010Prop45
280
     0
102
RTVSPost2010PropOp45
 70
     1
102
RTVSPost2010Prop46
 90
       50
102
RTVSPost2010PropOp46
 70
     1
102
RTVSPost2010Prop47
 90
       50
102
RTVSPost2010PropOp47
 70
     1
102
RTVSPost2010Prop48
 90
       50
102
RTVSPost2010PropOp48
 70
     1
102
RTVSPost2010Prop49
280
     0
102
RTVSPost2010PropOp49
 70
     1
102
RTVSPost2010Prop50
 90
       50
102
RTVSPost2010PropOp50
 70
     1
102
RTVSPost2010Prop51ColorIndex
 90
      256
102
RTVSPost2010Prop51ColorRGB
 90
-16777216
102
RTVSPost2010PropOp51
 70
     0
102
RTVSPost2010Prop52
140
1.0
102
RTVSPost2010PropOp52
 70
     0
102
RTVSPost2010Prop53
 90
        2
102
RTVSPost2010PropOp53
 70
     1
102
RTVSPost2010Prop54
  1
strokes_ogs.tif
102
RTVSPost2010PropOp54
 70
     1
102
RTVSPost2010Prop55
280
     0
102
RTVSPost2010PropOp55
 70
     1
102
RTVSPost2010Prop56
140
1.0
102
RTVSPost2010PropOp56
 70
     1
102
RTVSPost2010Prop57
140
1.0
102
RTVSPost2010PropOp57
 70
     1
  0
XRECORD
  5
3CC
102
{ACAD_REACTORS
330
3CB
102
}
330
3CB
100
AcDbXrecord
280
     1
102
RTVSPropertyOp0
 70
     1
102
RTVSPropertyOp1
 70
     1
102
RTVSPropertyOp2
 70
     1
102
RTVSPropertyOp3
 70
     1
102
RTVSPropertyOp4
 70
     1
102
RTVSPropertyOp5
 70
     1
102
RTVSPropertyOp6
 70
     1
102
RTVSPropertyOp7
 70
     1
102
RTVSPropertyOp8
 70
     1
102
RTVSPropertyOp9
 70
     1
102
RTVSPropertyOp10
 70
     1
102
RTVSPropertyOp11
 70
     1
102
RTVSPropertyOp12
 70
     1
102
RTVSPropertyOp13
 70
     1
102
RTVSPropertyOp14
 70
     1
102
RTVSPropertyOp15
 70
     1
102
RTVSPropertyOp16
 70
     1
102
RTVSPropertyOp17
 70
     1
102
RTVSPropertyOp18
 70
     1
102
RTVSPropertyOp19
 70
     1
102
RTVSPropertyOp20
 70
     1
102
RTVSPropertyOp21
 70
     1
102
RTVSPropertyOp22
 70
     1
102
RTVSPropertyOp23
 70
     1
102
RTVSPropertyOp24
 70
     1
102
RTVSPropertyOp25
 70
     1
102
RTVSPropertyOp26
 70
     1
102
RTVSPropertyOp27
 70
     1
102
RTVSPropertyOp28
 70
     1
102
RTVSPropertyOp29
 70
     1
102
RTVSPropertyOp30
 70
     1
102
RTVSPropertyOp31
 70
     1
102
RTVSPropertyOp32
 70
     1
102
RTVSPropertyOp33
 70
     1
102
RTVSPropertyOp34
 70
     1
102
RTVSPropertyOp35
 70
     1
102
RTVSPropertyOp36
 70
     1
102
RTVSPropertyOp37
 70
     1
102
RTVSPropertyOp38
 70
     1
102
RTVSPropertyOp39
 70
     1
102
RTVSPropertyOp40
 70
     1
102
RTVSPropertyOp41
 70
     1
102
RTVSPropertyOp42
 70
     1
102
RTVSPropertyOp43
 70
     1
102
RTVSPropertyOp44
 70
     1
102
RTVSPropertyOp45
 70
     1
102
RTVSPropertyOp46
 70
     1
102
RTVSPropertyOp47
 70
     1
102
RTVSPropertyOp48
 70
     1
102
RTVSPropertyOp49
 70
     1
102
RTVSPropertyOp50
 70
     1
102
RTVSPropertyOp51
 70
     0
102
RTVSPropertyOp52
 70
     0
102
RTVSPropertyOp53
 70
     1
102
RTVSPropertyOp54
 70
     1
102
RTVSPropertyOp55
 70
     1
102
RTVSPropertyOp56
 70
     1
102
RTVSPropertyOp57
 70
     1
102
RTVSPost2010Prop28
280
     0
102
RTVSPost2010PropOp28
 70
     1
102
RTVSPost2010Prop29
280
     1
102
RTVSPost2010PropOp29
 70
     1
102
RTVSPost2010Prop30
280
     1
102
RTVSPost2010PropOp30
 70
     1
102
RTVSPost2010Prop31
280
     0
102
RTVSPost2010PropOp31
 70
     1
102
RTVSPost2010Prop32
280
     0
102
RTVSPost2010PropOp32
 70
     1
102
RTVSPost2010Prop33
280
     0
102
RTVSPost2010PropOp33
 70
     1
102
RTVSPost2010Prop34
280
     0
102
RTVSPost2010PropOp34
 70
     1
102
RTVSPost2010Prop35
280
     0
102
RTVSPost2010PropOp35
 70
     1
102
RTVSPost2010Prop36
280
     0
102
RTVSPost2010PropOp36
 70
     1
102
RTVSPost2010Prop37
 90
       50
102
RTVSPost2010PropOp37
 70
     1
102
RTVSPost2010Prop38
140
0.0
102
RTVSPost2010PropOp38
 70
     1
102
RTVSPost2010Prop39
140
1.0
102
RTVSPost2010PropOp39
 70
     1
102
RTVSPost2010Prop40
 90
        0
102
RTVSPost2010PropOp40
 70
     1
102
RTVSPost2010Prop41ColorIndex
 90
       18
102
RTVSPost2010Prop41ColorRGB
 90
        0
102
RTVSPost2010PropOp41
 70
     1
102
RTVSPost2010Prop42
 90
       50
102
RTVSPost2010PropOp42
 70
     1
102
RTVSPost2010Prop43
 90
        3
102
RTVSPost2010PropOp43
 70
     1
102
RTVSPost2010Prop44ColorIndex
 90
        5
102
RTVSPost2010Prop44ColorRGB
 90
      255
102
RTVSPost2010PropOp44
 70
     1
102
RTVSPost2010Prop45
280
     0
102
RTVSPost2010PropOp45
 70
     1
102
RTVSPost2010Prop46
 90
       50
102
RTVSPost2010PropOp46
 70
     1
102
RTVSPost2010Prop47
 90
       50
102
RTVSPost2010PropOp47
 70
     1
102
RTVSPost2010Prop48
 90
       50
102
RTVSPost2010PropOp48
 70
     1
102
RTVSPost2010Prop49
280
     0
102
RTVSPost2010PropOp49
 70
     1
102
RTVSPost2010Prop50
 90
       50
102
RTVSPost2010PropOp50
 70
     1
102
RTVSPost2010Prop51ColorIndex
 90
      256
102
RTVSPost2010Prop51ColorRGB
 90
-16777216
102
RTVSPost2010PropOp51
 70
     0
102
RTVSPost2010Prop52
140
1.0
102
RTVSPost2010PropOp52
 70
     0
102
RTVSPost2010Prop53
 90
        2
102
RTVSPost2010PropOp53
 70
     1
102
RTVSPost2010Prop54
  1
strokes_ogs.tif
102
RTVSPost2010PropOp54
 70
     1
102
RTVSPost2010Prop55
280
     0
102
RTVSPost2010PropOp55
 70
     1
102
RTVSPost2010Prop56
140
1.0
102
RTVSPost2010PropOp56
 70
     1
102
RTVSPost2010Prop57
140
1.0
102
RTVSPost2010PropOp57
 70
     1
  0
XRECORD
  5
3C6
102
{ACAD_REACTORS
330
3C5
102
}
330
3C5
100
AcDbXrecord
280
     1
102
RTVSPropertyOp0
 70
     1
102
RTVSPropertyOp1
 70
     1
102
RTVSPropertyOp2
 70
     1
102
RTVSPropertyOp3
 70
     1
102
RTVSPropertyOp4
 70
     1
102
RTVSPropertyOp5
 70
     1
102
RTVSPropertyOp6
 70
     1
102
RTVSPropertyOp7
 70
     1
102
RTVSPropertyOp8
 70
     1
102
RTVSPropertyOp9
 70
     1
102
RTVSPropertyOp10
 70
     1
102
RTVSPropertyOp11
 70
     1
102
RTVSPropertyOp12
 70
     1
102
RTVSPropertyOp13
 70
     1
102
RTVSPropertyOp14
 70
     1
102
RTVSPropertyOp15
 70
     1
102
RTVSPropertyOp16
 70
     1
102
RTVSPropertyOp17
 70
     1
102
RTVSPropertyOp18
 70
     1
102
RTVSPropertyOp19
 70
     1
102
RTVSPropertyOp20
 70
     1
102
RTVSPropertyOp21
 70
     1
102
RTVSPropertyOp22
 70
     1
102
RTVSPropertyOp23
 70
     1
102
RTVSPropertyOp24
 70
     1
102
RTVSPropertyOp25
 70
     1
102
RTVSPropertyOp26
 70
     1
102
RTVSPropertyOp27
 70
     1
102
RTVSPropertyOp28
 70
     1
102
RTVSPropertyOp29
 70
     1
102
RTVSPropertyOp30
 70
     1
102
RTVSPropertyOp31
 70
     1
102
RTVSPropertyOp32
 70
     1
102
RTVSPropertyOp33
 70
     1
102
RTVSPropertyOp34
 70
     1
102
RTVSPropertyOp35
 70
     1
102
RTVSPropertyOp36
 70
     1
102
RTVSPropertyOp37
 70
     1
102
RTVSPropertyOp38
 70
     1
102
RTVSPropertyOp39
 70
     1
102
RTVSPropertyOp40
 70
     1
102
RTVSPropertyOp41
 70
     1
102
RTVSPropertyOp42
 70
     1
102
RTVSPropertyOp43
 70
     1
102
RTVSPropertyOp44
 70
     1
102
RTVSPropertyOp45
 70
     1
102
RTVSPropertyOp46
 70
     1
102
RTVSPropertyOp47
 70
     1
102
RTVSPropertyOp48
 70
     1
102
RTVSPropertyOp49
 70
     1
102
RTVSPropertyOp50
 70
     1
102
RTVSPropertyOp51
 70
     0
102
RTVSPropertyOp52
 70
     0
102
RTVSPropertyOp53
 70
     1
102
RTVSPropertyOp54
 70
     1
102
RTVSPropertyOp55
 70
     1
102
RTVSPropertyOp56
 70
     1
102
RTVSPropertyOp57
 70
     1
102
RTVSPost2010Prop28
280
     0
102
RTVSPost2010PropOp28
 70
     1
102
RTVSPost2010Prop29
280
     1
102
RTVSPost2010PropOp29
 70
     1
102
RTVSPost2010Prop30
280
     1
102
RTVSPost2010PropOp30
 70
     1
102
RTVSPost2010Prop31
280
     0
102
RTVSPost2010PropOp31
 70
     1
102
RTVSPost2010Prop32
280
     0
102
RTVSPost2010PropOp32
 70
     1
102
RTVSPost2010Prop33
280
     0
102
RTVSPost2010PropOp33
 70
     1
102
RTVSPost2010Prop34
280
     0
102
RTVSPost2010PropOp34
 70
     1
102
RTVSPost2010Prop35
280
     0
102
RTVSPost2010PropOp35
 70
     1
102
RTVSPost2010Prop36
280
     0
102
RTVSPost2010PropOp36
 70
     1
102
RTVSPost2010Prop37
 90
       50
102
RTVSPost2010PropOp37
 70
     1
102
RTVSPost2010Prop38
140
0.0
102
RTVSPost2010PropOp38
 70
     1
102
RTVSPost2010Prop39
140
1.0
102
RTVSPost2010PropOp39
 70
     1
102
RTVSPost2010Prop40
 90
        0
102
RTVSPost2010PropOp40
 70
     1
102
RTVSPost2010Prop41ColorIndex
 90
       18
102
RTVSPost2010Prop41ColorRGB
 90
        0
102
RTVSPost2010PropOp41
 70
     1
102
RTVSPost2010Prop42
 90
       50
102
RTVSPost2010PropOp42
 70
     1
102
RTVSPost2010Prop43
 90
        3
102
RTVSPost2010PropOp43
 70
     1
102
RTVSPost2010Prop44ColorIndex
 90
        5
102
RTVSPost2010Prop44ColorRGB
 90
      255
102
RTVSPost2010PropOp44
 70
     1
102
RTVSPost2010Prop45
280
     0
102
RTVSPost2010PropOp45
 70
     1
102
RTVSPost2010Prop46
 90
       50
102
RTVSPost2010PropOp46
 70
     1
102
RTVSPost2010Prop47
 90
       50
102
RTVSPost2010PropOp47
 70
     1
102
RTVSPost2010Prop48
 90
       50
102
RTVSPost2010PropOp48
 70
     1
102
RTVSPost2010Prop49
280
     0
102
RTVSPost2010PropOp49
 70
     1
102
RTVSPost2010Prop50
 90
       50
102
RTVSPost2010PropOp50
 70
     1
102
RTVSPost2010Prop51ColorIndex
 90
      256
102
RTVSPost2010Prop51ColorRGB
 90
-16777216
102
RTVSPost2010PropOp51
 70
     0
102
RTVSPost2010Prop52
140
1.0
102
RTVSPost2010PropOp52
 70
     0
102
RTVSPost2010Prop53
 90
        2
102
RTVSPost2010PropOp53
 70
     1
102
RTVSPost2010Prop54
  1
strokes_ogs.tif
102
RTVSPost2010PropOp54
 70
     1
102
RTVSPost2010Prop55
280
     0
102
RTVSPost2010PropOp55
 70
     1
102
RTVSPost2010Prop56
140
1.0
102
RTVSPost2010PropOp56
 70
     1
102
RTVSPost2010Prop57
140
1.0
102
RTVSPost2010PropOp57
 70
     1
  0
XRECORD
  5
3C8
102
{ACAD_REACTORS
330
3C7
102
}
330
3C7
100
AcDbXrecord
280
     1
102
RTVSPropertyOp0
 70
     1
102
RTVSPropertyOp1
 70
     1
102
RTVSPropertyOp2
 70
     1
102
RTVSPropertyOp3
 70
     1
102
RTVSPropertyOp4
 70
     1
102
RTVSPropertyOp5
 70
     1
102
RTVSPropertyOp6
 70
     1
102
RTVSPropertyOp7
 70
     1
102
RTVSPropertyOp8
 70
     1
102
RTVSPropertyOp9
 70
     1
102
RTVSPropertyOp10
 70
     1
102
RTVSPropertyOp11
 70
     1
102
RTVSPropertyOp12
 70
     1
102
RTVSPropertyOp13
 70
     1
102
RTVSPropertyOp14
 70
     1
102
RTVSPropertyOp15
 70
     1
102
RTVSPropertyOp16
 70
     1
102
RTVSPropertyOp17
 70
     1
102
RTVSPropertyOp18
 70
     1
102
RTVSPropertyOp19
 70
     1
102
RTVSPropertyOp20
 70
     1
102
RTVSPropertyOp21
 70
     1
102
RTVSPropertyOp22
 70
     1
102
RTVSPropertyOp23
 70
     1
102
RTVSPropertyOp24
 70
     1
102
RTVSPropertyOp25
 70
     1
102
RTVSPropertyOp26
 70
     1
102
RTVSPropertyOp27
 70
     1
102
RTVSPropertyOp28
 70
     1
102
RTVSPropertyOp29
 70
     1
102
RTVSPropertyOp30
 70
     1
102
RTVSPropertyOp31
 70
     1
102
RTVSPropertyOp32
 70
     1
102
RTVSPropertyOp33
 70
     1
102
RTVSPropertyOp34
 70
     1
102
RTVSPropertyOp35
 70
     1
102
RTVSPropertyOp36
 70
     1
102
RTVSPropertyOp37
 70
     1
102
RTVSPropertyOp38
 70
     1
102
RTVSPropertyOp39
 70
     1
102
RTVSPropertyOp40
 70
     1
102
RTVSPropertyOp41
 70
     1
102
RTVSPropertyOp42
 70
     1
102
RTVSPropertyOp43
 70
     1
102
RTVSPropertyOp44
 70
     1
102
RTVSPropertyOp45
 70
     1
102
RTVSPropertyOp46
 70
     1
102
RTVSPropertyOp47
 70
     1
102
RTVSPropertyOp48
 70
     1
102
RTVSPropertyOp49
 70
     1
102
RTVSPropertyOp50
 70
     1
102
RTVSPropertyOp51
 70
     0
102
RTVSPropertyOp52
 70
     0
102
RTVSPropertyOp53
 70
     1
102
RTVSPropertyOp54
 70
     1
102
RTVSPropertyOp55
 70
     1
102
RTVSPropertyOp56
 70
     1
102
RTVSPropertyOp57
 70
     1
102
RTVSPost2010Prop28
280
     0
102
RTVSPost2010PropOp28
 70
     1
102
RTVSPost2010Prop29
280
     1
102
RTVSPost2010PropOp29
 70
     1
102
RTVSPost2010Prop30
280
     1
102
RTVSPost2010PropOp30
 70
     1
102
RTVSPost2010Prop31
280
     0
102
RTVSPost2010PropOp31
 70
     1
102
RTVSPost2010Prop32
280
     0
102
RTVSPost2010PropOp32
 70
     1
102
RTVSPost2010Prop33
280
     0
102
RTVSPost2010PropOp33
 70
     1
102
RTVSPost2010Prop34
280
     0
102
RTVSPost2010PropOp34
 70
     1
102
RTVSPost2010Prop35
280
     0
102
RTVSPost2010PropOp35
 70
     1
102
RTVSPost2010Prop36
280
     0
102
RTVSPost2010PropOp36
 70
     1
102
RTVSPost2010Prop37
 90
       50
102
RTVSPost2010PropOp37
 70
     1
102
RTVSPost2010Prop38
140
0.0
102
RTVSPost2010PropOp38
 70
     1
102
RTVSPost2010Prop39
140
1.0
102
RTVSPost2010PropOp39
 70
     1
102
RTVSPost2010Prop40
 90
        0
102
RTVSPost2010PropOp40
 70
     1
102
RTVSPost2010Prop41ColorIndex
 90
       18
102
RTVSPost2010Prop41ColorRGB
 90
        0
102
RTVSPost2010PropOp41
 70
     1
102
RTVSPost2010Prop42
 90
       50
102
RTVSPost2010PropOp42
 70
     1
102
RTVSPost2010Prop43
 90
        3
102
RTVSPost2010PropOp43
 70
     1
102
RTVSPost2010Prop44ColorIndex
 90
        5
102
RTVSPost2010Prop44ColorRGB
 90
      255
102
RTVSPost2010PropOp44
 70
     1
102
RTVSPost2010Prop45
280
     0
102
RTVSPost2010PropOp45
 70
     1
102
RTVSPost2010Prop46
 90
       50
102
RTVSPost2010PropOp46
 70
     1
102
RTVSPost2010Prop47
 90
       50
102
RTVSPost2010PropOp47
 70
     1
102
RTVSPost2010Prop48
 90
       50
102
RTVSPost2010PropOp48
 70
     1
102
RTVSPost2010Prop49
280
     0
102
RTVSPost2010PropOp49
 70
     1
102
RTVSPost2010Prop50
 90
       50
102
RTVSPost2010PropOp50
 70
     1
102
RTVSPost2010Prop51ColorIndex
 90
      256
102
RTVSPost2010Prop51ColorRGB
 90
-16777216
102
RTVSPost2010PropOp51
 70
     0
102
RTVSPost2010Prop52
140
1.0
102
RTVSPost2010PropOp52
 70
     0
102
RTVSPost2010Prop53
 90
        2
102
RTVSPost2010PropOp53
 70
     1
102
RTVSPost2010Prop54
  1
strokes_ogs.tif
102
RTVSPost2010PropOp54
 70
     1
102
RTVSPost2010Prop55
280
     0
102
RTVSPost2010PropOp55
 70
     1
102
RTVSPost2010Prop56
140
1.0
102
RTVSPost2010PropOp56
 70
     1
102
RTVSPost2010Prop57
140
1.0
102
RTVSPost2010PropOp57
 70
     1
  0
XRECORD
  5
3B8
102
{ACAD_REACTORS
330
3B7
102
}
330
3B7
100
AcDbXrecord
280
     1
102
RTVSPropertyOp0
 70
     1
102
RTVSPropertyOp1
 70
     1
102
RTVSPropertyOp2
 70
     1
102
RTVSPropertyOp3
 70
     1
102
RTVSPropertyOp4
 70
     1
102
RTVSPropertyOp5
 70
     1
102
RTVSPropertyOp6
 70
     1
102
RTVSPropertyOp7
 70
     1
102
RTVSPropertyOp8
 70
     1
102
RTVSPropertyOp9
 70
     1
102
RTVSPropertyOp10
 70
     1
102
RTVSPropertyOp11
 70
     1
102
RTVSPropertyOp12
 70
     1
102
RTVSPropertyOp13
 70
     1
102
RTVSPropertyOp14
 70
     1
102
RTVSPropertyOp15
 70
     1
102
RTVSPropertyOp16
 70
     1
102
RTVSPropertyOp17
 70
     1
102
RTVSPropertyOp18
 70
     1
102
RTVSPropertyOp19
 70
     1
102
RTVSPropertyOp20
 70
     1
102
RTVSPropertyOp21
 70
     1
102
RTVSPropertyOp22
 70
     1
102
RTVSPropertyOp23
 70
     1
102
RTVSPropertyOp24
 70
     1
102
RTVSPropertyOp25
 70
     1
102
RTVSPropertyOp26
 70
     1
102
RTVSPropertyOp27
 70
     1
102
RTVSPropertyOp28
 70
     1
102
RTVSPropertyOp29
 70
     1
102
RTVSPropertyOp30
 70
     1
102
RTVSPropertyOp31
 70
     1
102
RTVSPropertyOp32
 70
     1
102
RTVSPropertyOp33
 70
     1
102
RTVSPropertyOp34
 70
     1
102
RTVSPropertyOp35
 70
     1
102
RTVSPropertyOp36
 70
     1
102
RTVSPropertyOp37
 70
     1
102
RTVSPropertyOp38
 70
     1
102
RTVSPropertyOp39
 70
     1
102
RTVSPropertyOp40
 70
     1
102
RTVSPropertyOp41
 70
     1
102
RTVSPropertyOp42
 70
     1
102
RTVSPropertyOp43
 70
     1
102
RTVSPropertyOp44
 70
     1
102
RTVSPropertyOp45
 70
     1
102
RTVSPropertyOp46
 70
     1
102
RTVSPropertyOp47
 70
     1
102
RTVSPropertyOp48
 70
     1
102
RTVSPropertyOp49
 70
     1
102
RTVSPropertyOp50
 70
     1
102
RTVSPropertyOp51
 70
     0
102
RTVSPropertyOp52
 70
     0
102
RTVSPropertyOp53
 70
     1
102
RTVSPropertyOp54
 70
     1
102
RTVSPropertyOp55
 70
     1
102
RTVSPropertyOp56
 70
     1
102
RTVSPropertyOp57
 70
     1
102
RTVSPost2010Prop28
280
     0
102
RTVSPost2010PropOp28
 70
     1
102
RTVSPost2010Prop29
280
     1
102
RTVSPost2010PropOp29
 70
     1
102
RTVSPost2010Prop30
280
     1
102
RTVSPost2010PropOp30
 70
     1
102
RTVSPost2010Prop31
280
     0
102
RTVSPost2010PropOp31
 70
     1
102
RTVSPost2010Prop32
280
     0
102
RTVSPost2010PropOp32
 70
     1
102
RTVSPost2010Prop33
280
     0
102
RTVSPost2010PropOp33
 70
     1
102
RTVSPost2010Prop34
280
     0
102
RTVSPost2010PropOp34
 70
     1
102
RTVSPost2010Prop35
280
     0
102
RTVSPost2010PropOp35
 70
     1
102
RTVSPost2010Prop36
280
     0
102
RTVSPost2010PropOp36
 70
     1
102
RTVSPost2010Prop37
 90
       50
102
RTVSPost2010PropOp37
 70
     1
102
RTVSPost2010Prop38
140
0.0
102
RTVSPost2010PropOp38
 70
     1
102
RTVSPost2010Prop39
140
1.0
102
RTVSPost2010PropOp39
 70
     1
102
RTVSPost2010Prop40
 90
        0
102
RTVSPost2010PropOp40
 70
     1
102
RTVSPost2010Prop41ColorIndex
 90
       18
102
RTVSPost2010Prop41ColorRGB
 90
        0
102
RTVSPost2010PropOp41
 70
     1
102
RTVSPost2010Prop42
 90
       50
102
RTVSPost2010PropOp42
 70
     1
102
RTVSPost2010Prop43
 90
        3
102
RTVSPost2010PropOp43
 70
     1
102
RTVSPost2010Prop44ColorIndex
 90
        5
102
RTVSPost2010Prop44ColorRGB
 90
      255
102
RTVSPost2010PropOp44
 70
     1
102
RTVSPost2010Prop45
280
     0
102
RTVSPost2010PropOp45
 70
     1
102
RTVSPost2010Prop46
 90
       50
102
RTVSPost2010PropOp46
 70
     1
102
RTVSPost2010Prop47
 90
       50
102
RTVSPost2010PropOp47
 70
     1
102
RTVSPost2010Prop48
 90
       50
102
RTVSPost2010PropOp48
 70
     1
102
RTVSPost2010Prop49
280
     0
102
RTVSPost2010PropOp49
 70
     1
102
RTVSPost2010Prop50
 90
       50
102
RTVSPost2010PropOp50
 70
     1
102
RTVSPost2010Prop51ColorIndex
 90
      256
102
RTVSPost2010Prop51ColorRGB
 90
-16777216
102
RTVSPost2010PropOp51
 70
     0
102
RTVSPost2010Prop52
140
1.0
102
RTVSPost2010PropOp52
 70
     0
102
RTVSPost2010Prop53
 90
        2
102
RTVSPost2010PropOp53
 70
     1
102
RTVSPost2010Prop54
  1
strokes_ogs.tif
102
RTVSPost2010PropOp54
 70
     1
102
RTVSPost2010Prop55
280
     0
102
RTVSPost2010PropOp55
 70
     1
102
RTVSPost2010Prop56
140
1.0
102
RTVSPost2010PropOp56
 70
     1
102
RTVSPost2010Prop57
140
1.0
102
RTVSPost2010PropOp57
 70
     1
  0
XRECORD
  5
3AA
102
{ACAD_REACTORS
330
3A9
102
}
330
3A9
100
AcDbXrecord
280
     1
102
RTVSPropertyOp0
 70
     1
102
RTVSPropertyOp1
 70
     1
102
RTVSPropertyOp2
 70
     1
102
RTVSPropertyOp3
 70
     1
102
RTVSPropertyOp4
 70
     1
102
RTVSPropertyOp5
 70
     1
102
RTVSPropertyOp6
 70
     1
102
RTVSPropertyOp7
 70
     1
102
RTVSPropertyOp8
 70
     1
102
RTVSPropertyOp9
 70
     1
102
RTVSPropertyOp10
 70
     1
102
RTVSPropertyOp11
 70
     1
102
RTVSPropertyOp12
 70
     1
102
RTVSPropertyOp13
 70
     1
102
RTVSPropertyOp14
 70
     1
102
RTVSPropertyOp15
 70
     1
102
RTVSPropertyOp16
 70
     1
102
RTVSPropertyOp17
 70
     1
102
RTVSPropertyOp18
 70
     1
102
RTVSPropertyOp19
 70
     1
102
RTVSPropertyOp20
 70
     1
102
RTVSPropertyOp21
 70
     1
102
RTVSPropertyOp22
 70
     1
102
RTVSPropertyOp23
 70
     1
102
RTVSPropertyOp24
 70
     1
102
RTVSPropertyOp25
 70
     1
102
RTVSPropertyOp26
 70
     1
102
RTVSPropertyOp27
 70
     1
102
RTVSPropertyOp28
 70
     1
102
RTVSPropertyOp29
 70
     1
102
RTVSPropertyOp30
 70
     1
102
RTVSPropertyOp31
 70
     1
102
RTVSPropertyOp32
 70
     1
102
RTVSPropertyOp33
 70
     1
102
RTVSPropertyOp34
 70
     1
102
RTVSPropertyOp35
 70
     1
102
RTVSPropertyOp36
 70
     1
102
RTVSPropertyOp37
 70
     1
102
RTVSPropertyOp38
 70
     1
102
RTVSPropertyOp39
 70
     1
102
RTVSPropertyOp40
 70
     1
102
RTVSPropertyOp41
 70
     1
102
RTVSPropertyOp42
 70
     1
102
RTVSPropertyOp43
 70
     1
102
RTVSPropertyOp44
 70
     1
102
RTVSPropertyOp45
 70
     1
102
RTVSPropertyOp46
 70
     1
102
RTVSPropertyOp47
 70
     1
102
RTVSPropertyOp48
 70
     1
102
RTVSPropertyOp49
 70
     1
102
RTVSPropertyOp50
 70
     1
102
RTVSPropertyOp51
 70
     0
102
RTVSPropertyOp52
 70
     0
102
RTVSPropertyOp53
 70
     1
102
RTVSPropertyOp54
 70
     1
102
RTVSPropertyOp55
 70
     1
102
RTVSPropertyOp56
 70
     1
102
RTVSPropertyOp57
 70
     1
102
RTVSPost2010Prop28
280
     0
102
RTVSPost2010PropOp28
 70
     1
102
RTVSPost2010Prop29
280
     1
102
RTVSPost2010PropOp29
 70
     1
102
RTVSPost2010Prop30
280
     1
102
RTVSPost2010PropOp30
 70
     1
102
RTVSPost2010Prop31
280
     0
102
RTVSPost2010PropOp31
 70
     1
102
RTVSPost2010Prop32
280
     0
102
RTVSPost2010PropOp32
 70
     1
102
RTVSPost2010Prop33
280
     0
102
RTVSPost2010PropOp33
 70
     1
102
RTVSPost2010Prop34
280
     0
102
RTVSPost2010PropOp34
 70
     1
102
RTVSPost2010Prop35
280
     0
102
RTVSPost2010PropOp35
 70
     1
102
RTVSPost2010Prop36
280
     0
102
RTVSPost2010PropOp36
 70
     1
102
RTVSPost2010Prop37
 90
       50
102
RTVSPost2010PropOp37
 70
     1
102
RTVSPost2010Prop38
140
0.0
102
RTVSPost2010PropOp38
 70
     1
102
RTVSPost2010Prop39
140
1.0
102
RTVSPost2010PropOp39
 70
     1
102
RTVSPost2010Prop40
 90
        0
102
RTVSPost2010PropOp40
 70
     1
102
RTVSPost2010Prop41ColorIndex
 90
       18
102
RTVSPost2010Prop41ColorRGB
 90
        0
102
RTVSPost2010PropOp41
 70
     1
102
RTVSPost2010Prop42
 90
       50
102
RTVSPost2010PropOp42
 70
     1
102
RTVSPost2010Prop43
 90
        3
102
RTVSPost2010PropOp43
 70
     1
102
RTVSPost2010Prop44ColorIndex
 90
        5
102
RTVSPost2010Prop44ColorRGB
 90
      255
102
RTVSPost2010PropOp44
 70
     1
102
RTVSPost2010Prop45
280
     0
102
RTVSPost2010PropOp45
 70
     1
102
RTVSPost2010Prop46
 90
       50
102
RTVSPost2010PropOp46
 70
     1
102
RTVSPost2010Prop47
 90
       50
102
RTVSPost2010PropOp47
 70
     1
102
RTVSPost2010Prop48
 90
       50
102
RTVSPost2010PropOp48
 70
     1
102
RTVSPost2010Prop49
280
     0
102
RTVSPost2010PropOp49
 70
     1
102
RTVSPost2010Prop50
 90
       50
102
RTVSPost2010PropOp50
 70
     1
102
RTVSPost2010Prop51ColorIndex
 90
      256
102
RTVSPost2010Prop51ColorRGB
 90
-16777216
102
RTVSPost2010PropOp51
 70
     0
102
RTVSPost2010Prop52
140
1.0
102
RTVSPost2010PropOp52
 70
     0
102
RTVSPost2010Prop53
 90
        2
102
RTVSPost2010PropOp53
 70
     1
102
RTVSPost2010Prop54
  1
strokes_ogs.tif
102
RTVSPost2010PropOp54
 70
     1
102
RTVSPost2010Prop55
280
     0
102
RTVSPost2010PropOp55
 70
     1
102
RTVSPost2010Prop56
140
1.0
102
RTVSPost2010PropOp56
 70
     1
102
RTVSPost2010Prop57
140
1.0
102
RTVSPost2010PropOp57
 70
     1
  0
XRECORD
  5
3CA
102
{ACAD_REACTORS
330
3C9
102
}
330
3C9
100
AcDbXrecord
280
     1
102
RTVSPropertyOp0
 70
     1
102
RTVSPropertyOp1
 70
     1
102
RTVSPropertyOp2
 70
     1
102
RTVSPropertyOp3
 70
     1
102
RTVSPropertyOp4
 70
     1
102
RTVSPropertyOp5
 70
     1
102
RTVSPropertyOp6
 70
     1
102
RTVSPropertyOp7
 70
     1
102
RTVSPropertyOp8
 70
     1
102
RTVSPropertyOp9
 70
     1
102
RTVSPropertyOp10
 70
     1
102
RTVSPropertyOp11
 70
     1
102
RTVSPropertyOp12
 70
     1
102
RTVSPropertyOp13
 70
     1
102
RTVSPropertyOp14
 70
     1
102
RTVSPropertyOp15
 70
     1
102
RTVSPropertyOp16
 70
     1
102
RTVSPropertyOp17
 70
     1
102
RTVSPropertyOp18
 70
     1
102
RTVSPropertyOp19
 70
     1
102
RTVSPropertyOp20
 70
     1
102
RTVSPropertyOp21
 70
     1
102
RTVSPropertyOp22
 70
     1
102
RTVSPropertyOp23
 70
     1
102
RTVSPropertyOp24
 70
     1
102
RTVSPropertyOp25
 70
     1
102
RTVSPropertyOp26
 70
     1
102
RTVSPropertyOp27
 70
     1
102
RTVSPropertyOp28
 70
     1
102
RTVSPropertyOp29
 70
     1
102
RTVSPropertyOp30
 70
     1
102
RTVSPropertyOp31
 70
     1
102
RTVSPropertyOp32
 70
     1
102
RTVSPropertyOp33
 70
     1
102
RTVSPropertyOp34
 70
     1
102
RTVSPropertyOp35
 70
     1
102
RTVSPropertyOp36
 70
     1
102
RTVSPropertyOp37
 70
     1
102
RTVSPropertyOp38
 70
     1
102
RTVSPropertyOp39
 70
     1
102
RTVSPropertyOp40
 70
     1
102
RTVSPropertyOp41
 70
     1
102
RTVSPropertyOp42
 70
     1
102
RTVSPropertyOp43
 70
     1
102
RTVSPropertyOp44
 70
     1
102
RTVSPropertyOp45
 70
     1
102
RTVSPropertyOp46
 70
     1
102
RTVSPropertyOp47
 70
     1
102
RTVSPropertyOp48
 70
     1
102
RTVSPropertyOp49
 70
     1
102
RTVSPropertyOp50
 70
     1
102
RTVSPropertyOp51
 70
     0
102
RTVSPropertyOp52
 70
     0
102
RTVSPropertyOp53
 70
     1
102
RTVSPropertyOp54
 70
     1
102
RTVSPropertyOp55
 70
     1
102
RTVSPropertyOp56
 70
     1
102
RTVSPropertyOp57
 70
     1
102
RTVSPost2010Prop28
280
     0
102
RTVSPost2010PropOp28
 70
     1
102
RTVSPost2010Prop29
280
     1
102
RTVSPost2010PropOp29
 70
     1
102
RTVSPost2010Prop30
280
     1
102
RTVSPost2010PropOp30
 70
     1
102
RTVSPost2010Prop31
280
     0
102
RTVSPost2010PropOp31
 70
     1
102
RTVSPost2010Prop32
280
     0
102
RTVSPost2010PropOp32
 70
     1
102
RTVSPost2010Prop33
280
     0
102
RTVSPost2010PropOp33
 70
     1
102
RTVSPost2010Prop34
280
     0
102
RTVSPost2010PropOp34
 70
     1
102
RTVSPost2010Prop35
280
     0
102
RTVSPost2010PropOp35
 70
     1
102
RTVSPost2010Prop36
280
     0
102
RTVSPost2010PropOp36
 70
     1
102
RTVSPost2010Prop37
 90
       50
102
RTVSPost2010PropOp37
 70
     1
102
RTVSPost2010Prop38
140
0.0
102
RTVSPost2010PropOp38
 70
     1
102
RTVSPost2010Prop39
140
1.0
102
RTVSPost2010PropOp39
 70
     1
102
RTVSPost2010Prop40
 90
        0
102
RTVSPost2010PropOp40
 70
     1
102
RTVSPost2010Prop41ColorIndex
 90
       18
102
RTVSPost2010Prop41ColorRGB
 90
        0
102
RTVSPost2010PropOp41
 70
     1
102
RTVSPost2010Prop42
 90
       50
102
RTVSPost2010PropOp42
 70
     1
102
RTVSPost2010Prop43
 90
        3
102
RTVSPost2010PropOp43
 70
     1
102
RTVSPost2010Prop44ColorIndex
 90
        5
102
RTVSPost2010Prop44ColorRGB
 90
      255
102
RTVSPost2010PropOp44
 70
     1
102
RTVSPost2010Prop45
280
     0
102
RTVSPost2010PropOp45
 70
     1
102
RTVSPost2010Prop46
 90
       50
102
RTVSPost2010PropOp46
 70
     1
102
RTVSPost2010Prop47
 90
       50
102
RTVSPost2010PropOp47
 70
     1
102
RTVSPost2010Prop48
 90
       50
102
RTVSPost2010PropOp48
 70
     1
102
RTVSPost2010Prop49
280
     0
102
RTVSPost2010PropOp49
 70
     1
102
RTVSPost2010Prop50
 90
       50
102
RTVSPost2010PropOp50
 70
     1
102
RTVSPost2010Prop51ColorIndex
 90
      256
102
RTVSPost2010Prop51ColorRGB
 90
-16777216
102
RTVSPost2010PropOp51
 70
     0
102
RTVSPost2010Prop52
140
1.0
102
RTVSPost2010PropOp52
 70
     0
102
RTVSPost2010Prop53
 90
        2
102
RTVSPost2010PropOp53
 70
     1
102
RTVSPost2010Prop54
  1
strokes_ogs.tif
102
RTVSPost2010PropOp54
 70
     1
102
RTVSPost2010Prop55
280
     0
102
RTVSPost2010PropOp55
 70
     1
102
RTVSPost2010Prop56
140
1.0
102
RTVSPost2010PropOp56
 70
     1
102
RTVSPost2010Prop57
140
1.0
102
RTVSPost2010PropOp57
 70
     1
  0
ENDSEC
  0
EOF
