  0
SECTION
  2
HEADER
  9
$ACADVER
  1
AC1018
  9
$ACADMAINTVER
 70
     0
  9
$DWGCODEPAGE
  3
ANSI_932
  9
$INSBASE
 10
0.0
 20
0.0
 30
0.0
  9
$EXTMIN
 10
-630.0
 20
-445.5
 30
0.0
  9
$EXTMAX
 10
630.0
 20
445.5
 30
0.0
  9
$LIMMIN
 10
-630.0
 20
-445.5
  9
$LIMMAX
 10
630.0
 20
445.5
  9
$ORTHOMODE
 70
     0
  9
$REGENMODE
 70
     1
  9
$FILLMODE
 70
     1
  9
$QTEXTMODE
 70
     0
  9
$MIRRTEXT
 70
     1
  9
$LTSCALE
 40
3.0
  9
$ATTMODE
 70
     1
  9
$TEXTSIZE
 40
2.5
  9
$TRACEWID
 40
1.0
  9
$TEXTSTYLE
  7
Standard
  9
$CLAYER
  8
0
  9
$CELTYPE
  6
ByLayer
  9
$CECOLOR
 62
   256
  9
$CELTSCALE
 40
1.0
  9
$DISPSILH
 70
     0
  9
$DIMSCALE
 40
1.0
  9
$DIMASZ
 40
2.5
  9
$DIMEXO
 40
0.625
  9
$DIMDLI
 40
3.75
  9
$DIMRND
 40
0.0
  9
$DIMDLE
 40
0.0
  9
$DIMEXE
 40
1.25
  9
$DIMTP
 40
0.0
  9
$DIMTM
 40
0.0
  9
$DIMTXT
 40
2.5
  9
$DIMCEN
 40
2.5
  9
$DIMTSZ
 40
0.0
  9
$DIMTOL
 70
     0
  9
$DIMLIM
 70
     0
  9
$DIMTIH
 70
     0
  9
$DIMTOH
 70
     0
  9
$DIMSE1
 70
     0
  9
$DIMSE2
 70
     0
  9
$DIMTAD
 70
     1
  9
$DIMZIN
 70
     8
  9
$DIMBLK
  1

  9
$DIMASO
 70
     1
  9
$DIMSHO
 70
     1
  9
$DIMPOST
  1

  9
$DIMAPOST
  1

  9
$DIMALT
 70
     0
  9
$DIMALTD
 70
     3
  9
$DIMALTF
 40
0.03937007874016
  9
$DIMLFAC
 40
1.0
  9
$DIMTOFL
 70
     1
  9
$DIMTVP
 40
0.0
  9
$DIMTIX
 70
     0
  9
$DIMSOXD
 70
     0
  9
$DIMSAH
 70
     0
  9
$DIMBLK1
  1

  9
$DIMBLK2
  1

  9
$DIMSTYLE
  2
ISO-25
  9
$DIMCLRD
 70
     0
  9
$DIMCLRE
 70
     0
  9
$DIMCLRT
 70
     0
  9
$DIMTFAC
 40
1.0
  9
$DIMGAP
 40
0.625
  9
$DIMJUST
 70
     0
  9
$DIMSD1
 70
     0
  9
$DIMSD2
 70
     0
  9
$DIMTOLJ
 70
     0
  9
$DIMTZIN
 70
     8
  9
$DIMALTZ
 70
     0
  9
$DIMALTTZ
 70
     0
  9
$DIMUPT
 70
     0
  9
$DIMDEC
 70
     2
  9
$DIMTDEC
 70
     2
  9
$DIMALTU
 70
     2
  9
$DIMALTTD
 70
     3
  9
$DIMTXSTY
  7
Standard
  9
$DIMAUNIT
 70
     0
  9
$DIMADEC
 70
     0
  9
$DIMALTRND
 40
0.0
  9
$DIMAZIN
 70
     0
  9
$DIMDSEP
 70
    44
  9
$DIMATFIT
 70
     3
  9
$DIMFRAC
 70
     0
  9
$DIMLDRBLK
  1

  9
$DIMLUNIT
 70
     2
  9
$DIMLWD
 70
    -2
  9
$DIMLWE
 70
    -2
  9
$DIMTMOVE
 70
     0
  9
$LUNITS
 70
     2
  9
$LUPREC
 70
     4
  9
$SKETCHINC
 40
1.0
  9
$FILLETRAD
 40
10.0
  9
$AUNITS
 70
     0
  9
$AUPREC
 70
     0
  9
$MENU
  1
.
  9
$ELEVATION
 40
0.0
  9
$PELEVATION
 40
0.0
  9
$THICKNESS
 40
0.0
  9
$LIMCHECK
 70
     0
  9
$CHAMFERA
 40
0.0
  9
$CHAMFERB
 40
0.0
  9
$CHAMFERC
 40
0.0
  9
$CHAMFERD
 40
0.0
  9
$SKPOLY
 70
     0
  9
$TDCREATE
 40
2460000.705058704
  9
$TDUCREATE
 40
2460000.330058704
  9
$TDUPDATE
 40
2460000.705058866
  9
$TDUUPDATE
 40
2460000.330058866
  9
$TDINDWG
 40
0.0000000116
  9
$TDUSRTIMER
 40
0.0000000116
  9
$USRTIMER
 70
     1
  9
$ANGBASE
 50
0.0
  9
$ANGDIR
 70
     0
  9
$PDMODE
 70
     0
  9
$PDSIZE
 40
0.0
  9
$PLINEWID
 40
0.0
  9
$SPLFRAME
 70
     0
  9
$SPLINETYPE
 70
     6
  9
$SPLINESEGS
 70
     8
  9
$HANDSEED
  5
3AE
  9
$SURFTAB1
 70
     6
  9
$SURFTAB2
 70
     6
  9
$SURFTYPE
 70
     6
  9
$SURFU
 70
     6
  9
$SURFV
 70
     6
  9
$UCSBASE
  2

  9
$UCSNAME
  2

  9
$UCSORG
 10
0.0
 20
0.0
 30
0.0
  9
$UCSXDIR
 10
1.0
 20
0.0
 30
0.0
  9
$UCSYDIR
 10
0.0
 20
1.0
 30
0.0
  9
$UCSORTHOREF
  2

  9
$UCSORTHOVIEW
 70
     0
  9
$UCSORGTOP
 10
0.0
 20
0.0
 30
0.0
  9
$UCSORGBOTTOM
 10
0.0
 20
0.0
 30
0.0
  9
$UCSORGLEFT
 10
0.0
 20
0.0
 30
0.0
  9
$UCSORGRIGHT
 10
0.0
 20
0.0
 30
0.0
  9
$UCSORGFRONT
 10
0.0
 20
0.0
 30
0.0
  9
$UCSORGBACK
 10
0.0
 20
0.0
 30
0.0
  9
$PUCSBASE
  2

  9
$PUCSNAME
  2

  9
$PUCSORG
 10
0.0
 20
0.0
 30
0.0
  9
$PUCSXDIR
 10
1.0
 20
0.0
 30
0.0
  9
$PUCSYDIR
 10
0.0
 20
1.0
 30
0.0
  9
$PUCSORTHOREF
  2

  9
$PUCSORTHOVIEW
 70
     0
  9
$PUCSORGTOP
 10
0.0
 20
0.0
 30
0.0
  9
$PUCSORGBOTTOM
 10
0.0
 20
0.0
 30
0.0
  9
$PUCSORGLEFT
 10
0.0
 20
0.0
 30
0.0
  9
$PUCSORGRIGHT
 10
0.0
 20
0.0
 30
0.0
  9
$PUCSORGFRONT
 10
0.0
 20
0.0
 30
0.0
  9
$PUCSORGBACK
 10
0.0
 20
0.0
 30
0.0
  9
$USERI1
 70
     0
  9
$USERI2
 70
     0
  9
$USERI3
 70
     0
  9
$USERI4
 70
     0
  9
$USERI5
 70
     0
  9
$USERR1
 40
0.0
  9
$USERR2
 40
0.0
  9
$USERR3
 40
0.0
  9
$USERR4
 40
0.0
  9
$USERR5
 40
0.0
  9
$WORLDVIEW
 70
     1
  9
$SHADEDGE
 70
     3
  9
$SHADEDIF
 70
    70
  9
$TILEMODE
 70
     1
  9
$MAXACTVP
 70
    64
  9
$PINSBASE
 10
0.0
 20
0.0
 30
0.0
  9
$PLIMCHECK
 70
     0
  9
$PEXTMIN
 10
1.000000000000000E+20
 20
1.000000000000000E+20
 30
1.000000000000000E+20
  9
$PEXTMAX
 10
-1.000000000000000E+20
 20
-1.000000000000000E+20
 30
-1.000000000000000E+20
  9
$PLIMMIN
 10
0.0
 20
0.0
  9
$PLIMMAX
 10
420.0
 20
297.0
  9
$UNITMODE
 70
     0
  9
$VISRETAIN
 70
     1
  9
$PLINEGEN
 70
     0
  9
$PSLTSCALE
 70
     1
  9
$TREEDEPTH
 70
  3020
  9
$CMLSTYLE
  2
Standard
  9
$CMLJUST
 70
     0
  9
$CMLSCALE
 40
20.0
  9
$PROXYGRAPHICS
 70
     1
  9
$MEASUREMENT
 70
     1
  9
$CELWEIGHT
370
    -1
  9
$ENDCAPS
280
     0
  9
$JOINSTYLE
280
     0
  9
$LWDISPLAY
290
     0
  9
$INSUNITS
 70
     4
  9
$HYPERLINKBASE
  1

  9
$STYLESHEET
  1

  9
$XEDIT
290
     1
  9
$CEPSNTYPE
380
     0
  9
$PSTYLEMODE
290
     1
  9
$FINGERPRINTGUID
  2
{132E8D77-BBD3-460B-95B7-5F02AB43C48D}
  9
$VERSIONGUID
  2
{FAEB1C32-E019-11D5-929B-00C0DF256EC4}
  9
$EXTNAMES
290
     1
  9
$PSVPSCALE
 40
0.0
  9
$OLESTARTUP
290
     0
  9
$SORTENTS
280
   127
  9
$INDEXCTL
280
     0
  9
$HIDETEXT
280
     1
  9
$XCLIPFRAME
290
     0
  9
$HALOGAP
280
     0
  9
$OBSCOLOR
 70
   257
  9
$OBSLTYPE
280
     0
  9
$INTERSECTIONDISPLAY
280
     0
  9
$INTERSECTIONCOLOR
 70
   257
  9
$DIMASSOC
280
     2
  9
$PROJECTNAME
  1

  0
ENDSEC
  0
SECTION
  2
CLASSES
  0
CLASS
  1
ACDBDICTIONARYWDFLT
  2
AcDbDictionaryWithDefault
  3
ObjectDBX Classes
 90
        0
 91
        4
280
     0
281
     0
  0
CLASS
  1
VISUALSTYLE
  2
AcDbVisualStyle
  3
ObjectDBX Classes
 90
     4095
 91
        4
280
     0
281
     0
  0
CLASS
  1
MATERIAL
  2
AcDbMaterial
  3
ObjectDBX Classes
 90
     1153
 91
        4
280
     0
281
     0
  0
CLASS
  1
SCALE
  2
AcDbScale
  3
ObjectDBX Classes
 90
     1153
 91
        4
280
     0
281
     0
  0
CLASS
  1
TABLESTYLE
  2
AcDbTableStyle
  3
ObjectDBX Classes
 90
     4095
 91
        4
280
     0
281
     0
  0
CLASS
  1
MLEADERSTYLE
  2
AcDbMLeaderStyle
  3
ACDB_MLEADERSTYLE_CLASS
 90
     4095
 91
        4
280
     0
281
     0
  0
CLASS
  1
SUN
  2
AcDbSun
  3
SCENEOE
 90
     1153
 91
        4
280
     0
281
     0
  0
CLASS
  1
DICTIONARYVAR
  2
AcDbDictionaryVar
  3
ObjectDBX Classes
 90
        0
 91
        4
280
     0
281
     0
  0
CLASS
  1
CELLSTYLEMAP
  2
AcDbCellStyleMap
  3
ObjectDBX Classes
 90
     1152
 91
        4
280
     0
281
     0
  0
ENDSEC
  0
SECTION
  2
TABLES
  0
TABLE
  2
VPORT
  5
8
102
{ACAD_XDICTIONARY
360
365
102
}
330
0
100
AcDbSymbolTable
 70
     1
  0
VPORT
  5
29
330
8
100
AcDbSymbolTableRecord
100
AcDbViewportTableRecord
  2
*Active
 70
     0
 10
0.0
 20
0.0
 11
1.0
 21
1.0
 12
0.0
 22
0.0
 13
0.0
 23
0.0
 14
10.0
 24
10.0
 15
10.0
 25
10.0
 16
0.0
 26
0.0
 36
1.0
 17
0.0
 27
0.0
 37
0.0
 40
980.1
 41
1.414141414141414
 42
50.0
 43
0.0
 44
0.0
 50
0.0
 51
0.0
 71
     0
 72
 10000
 73
     1
 74
     3
 75
     0
 76
     0
 77
     0
 78
     0
281
     0
 65
     1
110
0.0
120
0.0
130
0.0
111
1.0
121
0.0
131
0.0
112
0.0
122
1.0
132
0.0
 79
     0
146
0.0
  0
ENDTAB
  0
TABLE
  2
LTYPE
  5
5
330
0
100
AcDbSymbolTable
 70
     5
  0
LTYPE
  5
14
330
5
100
AcDbSymbolTableRecord
100
AcDbLinetypeTableRecord
  2
ByBlock
 70
     0
  3

 72
    65
 73
     0
 40
0.0
  0
LTYPE
  5
15
330
5
100
AcDbSymbolTableRecord
100
AcDbLinetypeTableRecord
  2
ByLayer
 70
     0
  3

 72
    65
 73
     0
 40
0.0
  0
LTYPE
  5
16
330
5
100
AcDbSymbolTableRecord
100
AcDbLinetypeTableRecord
  2
Continuous
 70
     0
  3
Solid line
 72
    65
 73
     0
 40
0.0
  0
LTYPE
  5
6F
330
5
100
AcDbSymbolTableRecord
100
AcDbLinetypeTableRecord
  2
JWW_CENTER1
 70
     0
  3
-----  --  ----------  --  -----
 72
    65
 73
     4
 40
6.773333333333333
 49
4.233333333333333
 74
     0
 49
-0.8466666666666667
 74
     0
 49
0.8466666666666667
 74
     0
 49
-0.8466666666666667
 74
     0
  0
LTYPE
  5
70
330
5
100
AcDbSymbolTableRecord
100
AcDbLinetypeTableRecord
  2
JWW_HOJO
 70
     0
  3
  -   -   -   -   -   -   -   - 
 72
    65
 73
     2
 40
1.693333333333333
 49
-1.27
 74
     0
 49
0.4233333333333333
 74
     0
  0
LTYPE
  5
71
330
5
100
AcDbSymbolTableRecord
100
AcDbLinetypeTableRecord
  2
JWW_DASHED1
 70
     0
  3
-  --  --  --  --  --  --  --  -
 72
    65
 73
     2
 40
1.693333333333333
 49
0.8466666666666667
 74
     0
 49
-0.8466666666666667
 74
     0
  0
LTYPE
  5
72
330
5
100
AcDbSymbolTableRecord
100
AcDbLinetypeTableRecord
  2
JWW_PHANTOM1
 70
     0
  3
----  -  -  --------  -  -  ----
 72
    65
 73
     6
 40
6.773333333333333
 49
3.386666666666667
 74
     0
 49
-0.8466666666666667
 74
     0
 49
0.4233333333333333
 74
     0
 49
-0.8466666666666667
 74
     0
 49
0.4233333333333333
 74
     0
 49
-0.8466666666666667
 74
     0
  0
ENDTAB
  0
TABLE
  2
LAYER
  5
2
330
0
100
AcDbSymbolTable
 70
    14
  0
LAYER
  5
10
330
2
100
AcDbSymbolTableRecord
100
AcDbLayerTableRecord
  2
0
 70
     0
 62
     7
  6
Continuous
370
    -3
390
F
  0
LAYER
  5
73
330
2
100
AcDbSymbolTableRecord
100
AcDbLayerTableRecord
  2
F-4ﾚｲﾔ
 70
     0
 62
     7
  6
Continuous
370
    -3
390
F
  0
LAYER
  5
74
330
2
100
AcDbSymbolTableRecord
100
AcDbLayerTableRecord
  2
通り芯
 70
     0
 62
     7
  6
Continuous
370
    -3
390
F
  0
LAYER
  5
75
330
2
100
AcDbSymbolTableRecord
100
AcDbLayerTableRecord
  2
0-9
 70
     0
 62
     7
  6
Continuous
370
    -3
390
F
  0
LAYER
  5
76
330
2
100
AcDbSymbolTableRecord
100
AcDbLayerTableRecord
  2
躯体
 70
     0
 62
     7
  6
Continuous
370
    -3
390
F
  0
LAYER
  5
77
330
2
100
AcDbSymbolTableRecord
100
AcDbLayerTableRecord
  2
0-8
 70
     0
 62
     7
  6
Continuous
370
    -3
390
F
  0
LAYER
  5
78
330
2
100
AcDbSymbolTableRecord
100
AcDbLayerTableRecord
  2
0-B
 70
     0
 62
     7
  6
Continuous
370
    -3
390
F
  0
LAYER
  5
79
330
2
100
AcDbSymbolTableRecord
100
AcDbLayerTableRecord
  2
その他
 70
     0
 62
     7
  6
Continuous
370
    -3
390
F
  0
LAYER
  5
7A
330
2
100
AcDbSymbolTableRecord
100
AcDbLayerTableRecord
  2
寸法
 70
     0
 62
     7
  6
Continuous
370
    -3
390
F
  0
LAYER
  5
7B
330
2
100
AcDbSymbolTableRecord
100
AcDbLayerTableRecord
  2
0-F
 70
     0
 62
     7
  6
Continuous
370
    -3
390
F
  0
LAYER
  5
7C
330
2
100
AcDbSymbolTableRecord
100
AcDbLayerTableRecord
  2
仕上
 70
     0
 62
     7
  6
Continuous
370
    -3
390
F
  0
LAYER
  5
7D
330
2
100
AcDbSymbolTableRecord
100
AcDbLayerTableRecord
  2
0-C
 70
     0
 62
     7
  6
Continuous
370
    -3
390
F
  0
LAYER
  5
7E
330
2
100
AcDbSymbolTableRecord
100
AcDbLayerTableRecord
  2
0-A
 70
     0
 62
     7
  6
Continuous
370
    -3
390
F
  0
LAYER
  5
7F
330
2
100
AcDbSymbolTableRecord
100
AcDbLayerTableRecord
  2
F-5ﾚｲﾔ
 70
     0
 62
     7
  6
Continuous
370
    -3
390
F
  0
ENDTAB
  0
TABLE
  2
STYLE
  5
3
330
0
100
AcDbSymbolTable
 70
     2
  0
STYLE
  5
11
330
3
100
AcDbSymbolTableRecord
100
AcDbTextStyleTableRecord
  2
Standard
 70
     0
 40
0.0
 41
1.0
 50
0.0
 71
     0
 42
2.5
  3
txt
  4

  0
STYLE
  5
6E
330
3
100
AcDbSymbolTableRecord
100
AcDbTextStyleTableRecord
  2
ＭＳ ゴシック
 70
     0
 40
1.0
 41
1.0
 50
0.0
 71
     0
 42
2.5
  3

  4

1001
ACAD
1000
MS Gothic
1071
    32817
  0
ENDTAB
  0
TABLE
  2
VIEW
  5
6
330
0
100
AcDbSymbolTable
 70
     0
  0
ENDTAB
  0
TABLE
  2
UCS
  5
7
330
0
100
AcDbSymbolTable
 70
     0
  0
ENDTAB
  0
TABLE
  2
APPID
  5
9
330
0
100
AcDbSymbolTable
 70
     2
  0
APPID
  5
12
330
9
100
AcDbSymbolTableRecord
100
AcDbRegAppTableRecord
  2
ACAD
 70
     0
  0
APPID
  5
3A4
330
9
100
AcDbSymbolTableRecord
100
AcDbRegAppTableRecord
  2
ACAD_MLEADERVER
 70
     0
  0
ENDTAB
  0
TABLE
  2
DIMSTYLE
  5
A
330
0
100
AcDbSymbolTable
 70
     1
100
AcDbDimStyleTable
  0
DIMSTYLE
105
27
330
A
100
AcDbSymbolTableRecord
100
AcDbDimStyleTableRecord
  2
ISO-25
 70
     0
 41
2.5
 42
0.625
 43
3.75
 44
1.25
 73
     0
 74
     0
 77
     1
 78
     8
140
2.5
141
2.5
143
0.03937007874016
147
0.625
171
     3
172
     1
178
     0
271
     2
272
     2
274
     3
278
    44
283
     0
284
     8
340
11
  0
ENDTAB
  0
TABLE
  2
BLOCK_RECORD
  5
1
330
0
100
AcDbSymbolTable
 70
     1
  0
BLOCK_RECORD
  5
1F
330
1
100
AcDbSymbolTableRecord
100
AcDbBlockTableRecord
  2
*Model_Space
340
22
  0
BLOCK_RECORD
  5
1B
330
1
100
AcDbSymbolTableRecord
100
AcDbBlockTableRecord
  2
*Paper_Space
340
1E
  0
BLOCK_RECORD
  5
23
330
1
100
AcDbSymbolTableRecord
100
AcDbBlockTableRecord
  2
*Paper_Space0
340
26
  0
ENDTAB
  0
ENDSEC
  0
SECTION
  2
BLOCKS
  0
BLOCK
  5
20
330
1F
100
AcDbEntity
  8
0
100
AcDbBlockBegin
  2
*Model_Space
 70
     0
 10
0.0
 20
0.0
 30
0.0
  3
*Model_Space
  1

  0
ENDBLK
  5
21
330
1F
100
AcDbEntity
  8
0
100
AcDbBlockEnd
  0
BLOCK
  5
1C
330
1B
100
AcDbEntity
 67
     1
  8
0
100
AcDbBlockBegin
  2
*Paper_Space
 70
     0
 10
0.0
 20
0.0
 30
0.0
  3
*Paper_Space
  1

  0
ENDBLK
  5
1D
330
1B
100
AcDbEntity
 67
     1
  8
0
100
AcDbBlockEnd
  0
BLOCK
  5
24
330
23
100
AcDbEntity
  8
0
100
AcDbBlockBegin
  2
*Paper_Space0
 70
     0
 10
0.0
 20
0.0
 30
0.0
  3
*Paper_Space0
  1

  0
ENDBLK
  5
25
330
23
100
AcDbEntity
  8
0
100
AcDbBlockEnd
  0
ENDSEC
  0
SECTION
  2
ENTITIES
  0
TEXT
  5
80
330
1F
100
AcDbEntity
  8
F-4ﾚｲﾔ
  6
Continuous
 62
     2
370
     9
100
AcDbText
 10
-38.57506961637464
 20
-331.103328407225
 30
0.0
 40
9.144
  1
鋳鉄製ルーフドレン　防水層張掛け幅100mm　たて引き用　打込型　ねじ込み式
 41
0.5992957746478875
  7
ＭＳ ゴシック
100
AcDbText
  0
TEXT
  5
81
330
1F
100
AcDbEntity
  8
F-4ﾚｲﾔ
  6
Continuous
 62
     2
370
     9
100
AcDbText
 10
-54.6169652777778
 20
-346.440828407225
 30
0.0
 40
9.144
  1
アスファルト・改質アスファルトシート・シート防水用　ＷＨＢ－２－５０　Ｃ＝指示
 41
0.5993589743589743
  7
ＭＳ ゴシック
100
AcDbText
  0
LINE
  5
82
330
1F
100
AcDbEntity
  8
通り芯
  6
JWW_CENTER1
 62
     3
370
     9
100
AcDbLine
 10
-33.28290627179324
 20
-30.00669858072403
 30
0.0
 11
-33.28290627179331
 21
-165.3627383312484
 31
0.0
  0
LINE
  5
83
330
1F
100
AcDbEntity
  8
通り芯
  6
Continuous
 62
     3
370
     9
100
AcDbLine
 10
105.7170965560905
 20
-97.87037644508771
 30
0.0
 11
106.7170516634368
 21
-96.8703222439838
 31
0.0
  0
LINE
  5
84
330
1F
100
AcDbEntity
  8
通り芯
  6
Continuous
 62
     3
370
     9
100
AcDbLine
 10
105.7170965560905
 20
-97.87037644508771
 30
0.0
 11
100.717122831843
 21
-97.87037644508771
 31
0.0
  0
LINE
  5
85
330
1F
100
AcDbEntity
  8
通り芯
  6
Continuous
 62
     4
370
     9
100
AcDbLine
 10
2.526753531442578
 20
-116.2521693751899
 30
0.0
 11
3.751502827770819
 21
-116.9593024290027
 31
0.0
  0
LINE
  5
86
330
1F
100
AcDbEntity
  8
通り芯
  6
Continuous
 62
     4
370
     9
100
AcDbLine
 10
5.200352656778135
 20
-116.571053086957
 30
0.0
 11
3.751502827770819
 21
-116.9593024290027
 31
0.0
  0
LINE
  5
87
330
1F
100
AcDbEntity
  8
通り芯
  6
Continuous
 62
     4
370
     9
100
AcDbLine
 10
5.200352656778135
 20
-116.571053086957
 30
0.0
 11
5.907485710590946
 21
-115.3463533375074
 31
0.0
  0
LINE
  5
88
330
1F
100
AcDbEntity
  8
通り芯
  6
JWW_CENTER1
 62
     4
370
     9
100
AcDbLine
 10
4.672083835326928
 20
-117.4972328918141
 30
0.0
 11
3.950978561700934
 21
-114.8060941713938
 31
0.0
  0
LINE
  5
89
330
1F
100
AcDbEntity
  8
通り芯
  6
Continuous
 62
     3
370
     9
100
AcDbLine
 10
-172.282909099677
 20
-97.87037644508763
 30
0.0
 11
-173.2829137539022
 21
-96.87032224398371
 31
0.0
  0
LINE
  5
8A
330
1F
100
AcDbEntity
  8
通り芯
  6
Continuous
 62
     3
370
     9
100
AcDbLine
 10
-172.282909099677
 20
-97.87037644508763
 30
0.0
 11
-167.2828858285507
 21
-97.87037644508763
 31
0.0
  0
LINE
  5
8B
330
1F
100
AcDbEntity
  8
通り芯
  6
Continuous
 62
     4
370
     9
100
AcDbLine
 10
-69.09256607502911
 20
-116.2521693751899
 30
0.0
 11
-70.31731537135744
 21
-116.9593024290027
 31
0.0
  0
LINE
  5
8C
330
1F
100
AcDbEntity
  8
通り芯
  6
Continuous
 62
     4
370
     9
100
AcDbLine
 10
-71.76616520036475
 20
-116.571053086957
 30
0.0
 11
-70.31731537135744
 21
-116.9593024290027
 31
0.0
  0
LINE
  5
8D
330
1F
100
AcDbEntity
  8
通り芯
  6
Continuous
 62
     4
370
     9
100
AcDbLine
 10
-71.76616520036475
 20
-116.571053086957
 30
0.0
 11
-72.47324870729867
 21
-115.3463533375074
 31
0.0
  0
LINE
  5
8E
330
1F
100
AcDbEntity
  8
通り芯
  6
JWW_CENTER1
 62
     4
370
     9
100
AcDbLine
 10
-71.23794592579227
 20
-117.4972328918141
 30
0.0
 11
-70.51679110528747
 21
-114.8060941713938
 31
0.0
  0
LINE
  5
8F
330
1F
100
AcDbEntity
  8
通り芯
  6
Continuous
 62
     3
370
     9
100
AcDbLine
 10
-5.282924594122962
 20
-131.8703860481093
 30
0.0
 11
-52.8234520557015
 21
-131.8703860481093
 31
0.0
  0
LINE
  5
90
330
1F
100
AcDbEntity
  8
通り芯
  6
Continuous
 62
     3
370
     9
100
AcDbLine
 10
105.8265951581733
 20
-89.74637292060204
 30
0.0
 11
106.7170516634368
 21
-96.8703222439838
 31
0.0
  0
LINE
  5
91
330
1F
100
AcDbEntity
  8
通り芯
  6
JWW_HOJO
 62
     3
370
     9
100
AcDbLine
 10
105.7170965560905
 20
-88.87038410393934
 30
0.0
 11
105.8265951581733
 21
-89.74637292060204
 31
0.0
  0
LINE
  5
92
330
1F
100
AcDbEntity
  8
通り芯
  6
JWW_HOJO
 62
     3
370
     9
100
AcDbLine
 10
105.7170965560905
 20
-88.87038410393934
 30
0.0
 11
104.8342702701574
 21
-88.87038410393934
 31
0.0
  0
LINE
  5
93
330
1F
100
AcDbEntity
  8
通り芯
  6
JWW_HOJO
 62
     3
370
     9
100
AcDbLine
 10
7.716987270168714
 20
-120.0378481945297
 30
0.0
 11
7.276366877262573
 21
-121.7264553699075
 31
0.0
  0
LINE
  5
94
330
1F
100
AcDbEntity
  8
通り芯
  6
JWW_HOJO
 62
     3
370
     9
100
AcDbLine
 10
7.716987270168714
 20
-120.0378481945297
 30
0.0
 11
9.402819820335422
 21
-119.5861788476577
 31
0.0
  0
LINE
  5
95
330
1F
100
AcDbEntity
  8
通り芯
  6
Continuous
 62
     3
370
     9
100
AcDbLine
 10
7.276366877262573
 20
-121.7265049167863
 30
0.0
 11
6.912048677663021
 21
-123.1228350542968
 31
0.0
  0
LINE
  5
96
330
1F
100
AcDbEntity
  8
通り芯
  6
JWW_HOJO
 62
     3
370
     9
100
AcDbLine
 10
5.944447682153706
 20
-123.8703983611863
 30
0.0
 11
6.717032162822248
 21
-123.8703983611863
 31
0.0
  0
LINE
  5
97
330
1F
100
AcDbEntity
  8
通り芯
  6
JWW_HOJO
 62
     3
370
     9
100
AcDbLine
 10
6.912048677663021
 20
-123.1227359605393
 30
0.0
 11
6.717032162822248
 21
-123.8703983611863
 31
0.0
  0
LINE
  5
98
330
1F
100
AcDbEntity
  8
通り芯
  6
Continuous
 62
     3
370
     9
100
AcDbLine
 10
4.148175139207522
 20
-123.8703983611863
 30
0.0
 11
5.944447682153706
 21
-123.8703983611863
 31
0.0
  0
LINE
  5
99
330
1F
100
AcDbEntity
  8
通り芯
  6
JWW_HOJO
 62
     3
370
     9
100
AcDbLine
 10
3.150746922678392
 20
-124.7992041506182
 30
0.0
 11
3.217090193352076
 21
-123.8703983611863
 31
0.0
  0
LINE
  5
9A
330
1F
100
AcDbEntity
  8
通り芯
  6
JWW_HOJO
 62
     3
370
     9
100
AcDbLine
 10
3.217090193352076
 20
-123.8703983611863
 30
0.0
 11
4.148175139207522
 21
-123.8703983611863
 31
0.0
  0
LINE
  5
9B
330
1F
100
AcDbEntity
  8
通り芯
  6
JWW_HOJO
 62
     3
370
     9
100
AcDbLine
 10
0.7171033312283708
 20
-158.8703630715544
 30
0.0
 11
-1.145116107361249
 21
-158.8703630715544
 31
0.0
  0
LINE
  5
9C
330
1F
100
AcDbEntity
  8
通り芯
  6
JWW_HOJO
 62
     3
370
     9
100
AcDbLine
 10
0.7171033312283708
 20
-158.8703630715544
 30
0.0
 11
0.8497898725758244
 21
-157.0128505864479
 31
0.0
  0
LINE
  5
9D
330
1F
100
AcDbEntity
  8
通り芯
  6
Continuous
 62
     3
370
     9
100
AcDbLine
 10
-1.145116107361249
 20
-158.8703630715544
 30
0.0
 11
-65.42069643622528
 21
-158.8703630715544
 31
0.0
  0
LINE
  5
9E
330
1F
100
AcDbEntity
  8
通り芯
  6
JWW_HOJO
 62
     3
370
     9
100
AcDbLine
 10
-67.41560241616236
 20
-157.0128505864479
 30
0.0
 11
-67.28291587481499
 21
-158.8703630715544
 31
0.0
  0
LINE
  5
9F
330
1F
100
AcDbEntity
  8
通り芯
  6
JWW_HOJO
 62
     3
370
     9
100
AcDbLine
 10
-65.42069643622528
 20
-158.8703630715544
 30
0.0
 11
-67.28291587481499
 21
-158.8703630715544
 31
0.0
  0
LINE
  5
A0
330
1F
100
AcDbEntity
  8
通り芯
  6
JWW_HOJO
 62
     3
370
     9
100
AcDbLine
 10
-73.47786122124955
 20
-123.1228350542968
 30
0.0
 11
-73.28284470640887
 21
-123.8703983611863
 31
0.0
  0
LINE
  5
A1
330
1F
100
AcDbEntity
  8
通り芯
  6
JWW_HOJO
 62
     3
370
     9
100
AcDbLine
 10
-72.51030977261905
 20
-123.8703983611863
 30
0.0
 11
-73.28284470640887
 21
-123.8703983611863
 31
0.0
  0
LINE
  5
A2
330
1F
100
AcDbEntity
  8
通り芯
  6
Continuous
 62
     3
370
     9
100
AcDbLine
 10
-70.71403722967287
 20
-123.8703983611863
 30
0.0
 11
-72.51030977261905
 21
-123.8703983611863
 31
0.0
  0
LINE
  5
A3
330
1F
100
AcDbEntity
  8
通り芯
  6
Continuous
 62
     3
370
     9
100
AcDbLine
 10
-69.71655946626493
 20
-124.7991050568607
 30
0.0
 11
-67.41560241616236
 21
-157.0128505864479
 31
0.0
  0
LINE
  5
A4
330
1F
100
AcDbEntity
  8
通り芯
  6
JWW_HOJO
 62
     3
370
     9
100
AcDbLine
 10
-69.7829027369387
 20
-123.8703983611863
 30
0.0
 11
-69.71655946626493
 21
-124.7991050568607
 31
0.0
  0
LINE
  5
A5
330
1F
100
AcDbEntity
  8
通り芯
  6
JWW_HOJO
 62
     3
370
     9
100
AcDbLine
 10
-69.7829027369387
 20
-123.8703983611863
 30
0.0
 11
-70.71403722967287
 21
-123.8703983611863
 31
0.0
  0
LINE
  5
A6
330
1F
100
AcDbEntity
  8
通り芯
  6
Continuous
 62
     3
370
     9
100
AcDbLine
 10
-73.84222896772792
 20
-121.7265049167863
 30
0.0
 11
-73.47791076812837
 21
-123.1228350542968
 31
0.0
  0
LINE
  5
A7
330
1F
100
AcDbEntity
  8
通り芯
  6
JWW_HOJO
 62
     3
370
     9
100
AcDbLine
 10
-74.28289890751279
 20
-120.0378481945297
 30
0.0
 11
-75.96863236392196
 21
-119.5861788476577
 31
0.0
  0
LINE
  5
A8
330
1F
100
AcDbEntity
  8
通り芯
  6
JWW_HOJO
 62
     3
370
     9
100
AcDbLine
 10
-74.28289890751279
 20
-120.0378481945297
 30
0.0
 11
-73.84222896772792
 21
-121.7265049167863
 31
0.0
  0
LINE
  5
A9
330
1F
100
AcDbEntity
  8
通り芯
  6
Continuous
 62
     3
370
     9
100
AcDbLine
 10
-172.3924077017598
 20
-89.746372920602
 30
0.0
 11
-173.2829137539022
 21
-96.87032224398371
 31
0.0
  0
LINE
  5
AA
330
1F
100
AcDbEntity
  8
通り芯
  6
JWW_HOJO
 62
     3
370
     9
100
AcDbLine
 10
-172.282909099677
 20
-88.8703841039393
 30
0.0
 11
-171.4001323606228
 21
-88.8703841039393
 31
0.0
  0
LINE
  5
AB
330
1F
100
AcDbEntity
  8
通り芯
  6
JWW_HOJO
 62
     3
370
     9
100
AcDbLine
 10
-172.282909099677
 20
-88.8703841039393
 30
0.0
 11
-172.3924077017598
 21
-89.746372920602
 31
0.0
  0
LINE
  5
AC
330
1F
100
AcDbEntity
  8
通り芯
  6
JWW_HOJO
 62
     3
370
     9
100
AcDbLine
 10
79.56719533171099
 20
-102.1042067829067
 30
0.0
 11
79.71712418687065
 21
-100.745482726383
 31
0.0
  0
LINE
  5
AD
330
1F
100
AcDbEntity
  8
通り芯
  6
JWW_HOJO
 62
     3
370
     9
100
AcDbLine
 10
66.0290557233352
 20
-106.7388713699792
 30
0.0
 11
65.71710857459607
 21
-104.4967760118559
 31
0.0
  0
LINE
  5
AE
330
1F
100
AcDbEntity
  8
通り芯
  6
Continuous
 62
     3
370
     9
100
AcDbLine
 10
79.56719533171099
 20
-102.1041572360279
 30
0.0
 11
77.81536633902203
 21
-117.9800672254327
 31
0.0
  0
LINE
  5
AF
330
1F
100
AcDbEntity
  8
通り芯
  6
JWW_HOJO
 62
     3
370
     9
100
AcDbLine
 10
77.81536633902203
 20
-117.9800672254327
 30
0.0
 11
77.71711487842009
 21
-118.8703750900601
 31
0.0
  0
LINE
  5
B0
330
1F
100
AcDbEntity
  8
通り芯
  6
JWW_HOJO
 62
     3
370
     9
100
AcDbLine
 10
76.82140640400684
 20
-118.8703750900601
 30
0.0
 11
77.71711487842009
 21
-118.8703750900601
 31
0.0
  0
LINE
  5
B1
330
1F
100
AcDbEntity
  8
通り芯
  6
Continuous
 62
     3
370
     9
100
AcDbLine
 10
66.0290557233352
 20
-106.7389209168578
 30
0.0
 11
67.59711534266432
 21
-118.0082098525745
 31
0.0
  0
LINE
  5
B2
330
1F
100
AcDbEntity
  8
通り芯
  6
JWW_HOJO
 62
     3
370
     9
100
AcDbLine
 10
67.59711534266432
 20
-118.0082098525745
 30
0.0
 11
67.71711788304654
 21
-118.8703750900601
 31
0.0
  0
LINE
  5
B3
330
1F
100
AcDbEntity
  8
通り芯
  6
JWW_HOJO
 62
     3
370
     9
100
AcDbLine
 10
68.58755744928686
 20
-118.8703750900601
 30
0.0
 11
67.71711788304654
 21
-118.8703750900601
 31
0.0
  0
LINE
  5
B4
330
1F
100
AcDbEntity
  8
通り芯
  6
Continuous
 62
     3
370
     9
100
AcDbLine
 10
2.960586001957209
 20
-116.1359323975944
 30
0.0
 11
104.7170919018651
 21
-88.87038410393934
 31
0.0
  0
LINE
  5
B5
330
1F
100
AcDbEntity
  8
通り芯
  6
JWW_HOJO
 62
     3
370
     9
100
AcDbLine
 10
1.71710798545365
 20
-116.4691847042048
 30
0.0
 11
1.505493266224816
 21
-117.7390216602142
 31
0.0
  0
LINE
  5
B6
330
1F
100
AcDbEntity
  8
通り芯
  6
JWW_HOJO
 62
     3
370
     9
100
AcDbLine
 10
1.71710798545365
 20
-116.4691847042048
 30
0.0
 11
2.960486908199583
 21
-116.1359323975944
 31
0.0
  0
LINE
  5
B7
330
1F
100
AcDbEntity
  8
通り芯
  6
JWW_HOJO
 62
     3
370
     9
100
AcDbLine
 10
1.217031338022876
 20
-119.4691491200018
 30
0.0
 11
-0.19203234733172
 21
-119.7040013253739
 31
0.0
  0
LINE
  5
B8
330
1F
100
AcDbEntity
  8
通り芯
  6
Continuous
 62
     3
370
     9
100
AcDbLine
 10
1.451933090273824
 20
-118.0600358877684
 30
0.0
 11
1.505443719346003
 21
-117.7389721133355
 31
0.0
  0
LINE
  5
B9
330
1F
100
AcDbEntity
  8
通り芯
  6
JWW_HOJO
 62
     3
370
     9
100
AcDbLine
 10
1.217031338022876
 20
-119.4691491200018
 30
0.0
 11
1.451982637152637
 21
-118.0601349815259
 31
0.0
  0
LINE
  5
BA
330
1F
100
AcDbEntity
  8
通り芯
  6
Continuous
 62
     3
370
     9
100
AcDbLine
 10
-54.11008540361417
 20
-119.9691762205537
 30
0.0
 11
-1.782883530895335
 21
-119.9691762205537
 31
0.0
  0
LINE
  5
BB
330
1F
100
AcDbEntity
  8
通り芯
  6
Continuous
 62
     3
370
     9
100
AcDbLine
 10
-0.19203234733172
 20
-119.7040013253739
 30
0.0
 11
-1.021992113616536
 21
-119.8423362109012
 31
0.0
  0
LINE
  5
BC
330
1F
100
AcDbEntity
  8
通り芯
  6
JWW_HOJO
 62
     3
370
     9
100
AcDbLine
 10
-1.021942566737723
 20
-119.8423362109012
 30
0.0
 11
-1.782883530895335
 21
-119.9691762205537
 31
0.0
  0
LINE
  5
BD
330
1F
100
AcDbEntity
  8
通り芯
  6
JWW_HOJO
 62
     3
370
     9
100
AcDbLine
 10
-1.853438286264465
 20
-120.7373510290117
 30
0.0
 11
-1.782883530895335
 21
-119.9691762205537
 31
0.0
  0
LINE
  5
BE
330
1F
100
AcDbEntity
  8
通り芯
  6
Continuous
 62
     3
370
     9
100
AcDbLine
 10
-52.93156334517872
 20
-130.8703813938841
 30
0.0
 11
-3.009713796131935
 21
-130.8703813938841
 31
0.0
  0
LINE
  5
BF
330
1F
100
AcDbEntity
  8
通り芯
  6
Continuous
 62
     3
370
     9
100
AcDbLine
 10
-2.72694975898864
 20
-130.2606575037342
 30
0.0
 11
-1.853388739385737
 21
-120.7373510290117
 31
0.0
  0
LINE
  5
C0
330
1F
100
AcDbEntity
  8
通り芯
  6
JWW_HOJO
 62
     3
370
     9
100
AcDbLine
 10
-3.351389072133431
 20
-131.0978015674407
 30
0.0
 11
-2.782888185120528
 21
-130.8703813938841
 31
0.0
  0
LINE
  5
C1
330
1F
100
AcDbEntity
  8
通り芯
  6
JWW_HOJO
 62
     3
370
     9
100
AcDbLine
 10
-2.782888185120528
 20
-130.8703813938841
 30
0.0
 11
-2.726900212109827
 21
-130.2607565974917
 31
0.0
  0
LINE
  5
C2
330
1F
100
AcDbEntity
  8
通り芯
  6
Continuous
 62
     3
370
     9
100
AcDbLine
 10
-5.42155676092287
 20
-132.3323611457656
 30
0.0
 11
-6.782906802021474
 21
-136.8703597723567
 31
0.0
  0
LINE
  5
C3
330
1F
100
AcDbEntity
  8
通り芯
  6
Continuous
 62
     3
370
     9
100
AcDbLine
 10
-4.835020810037522
 20
-131.6912740813539
 30
0.0
 11
-3.351389072133431
 21
-131.0978015674407
 31
0.0
  0
LINE
  5
C4
330
1F
100
AcDbEntity
  8
通り芯
  6
JWW_HOJO
 62
     3
370
     9
100
AcDbLine
 10
-5.282924594122962
 20
-131.8703860481093
 30
0.0
 11
-5.42155676092287
 21
-132.3323115988869
 31
0.0
  0
LINE
  5
C5
330
1F
100
AcDbEntity
  8
通り芯
  6
JWW_HOJO
 62
     3
370
     9
100
AcDbLine
 10
-5.282924594122962
 20
-131.8703860481093
 30
0.0
 11
-4.835070356916335
 21
-131.6912740813539
 31
0.0
  0
LINE
  5
C6
330
1F
100
AcDbEntity
  8
通り芯
  6
Continuous
 62
     3
370
     9
100
AcDbLine
 10
-54.16414104835278
 20
-119.4691491200018
 30
0.0
 11
0.4688734685881268
 21
-119.4691491200018
 31
0.0
  0
LINE
  5
C7
330
1F
100
AcDbEntity
  8
通り芯
  6
Continuous
 62
     3
370
     9
100
AcDbLine
 10
-69.52639854554374
 20
-116.1359323975944
 30
0.0
 11
-171.2829044454517
 21
-88.8703841039393
 31
0.0
  0
LINE
  5
C8
330
1F
100
AcDbEntity
  8
通り芯
  6
JWW_HOJO
 62
     3
370
     9
100
AcDbLine
 10
-68.28287098216146
 20
-116.4691847042048
 30
0.0
 11
-69.52644809242247
 21
-116.1359323975944
 31
0.0
  0
LINE
  5
C9
330
1F
100
AcDbEntity
  8
通り芯
  6
JWW_HOJO
 62
     3
370
     9
100
AcDbLine
 10
-68.28287098216146
 20
-116.4691847042048
 30
0.0
 11
-68.07130580981135
 21
-117.7390216602142
 31
0.0
  0
LINE
  5
CA
330
1F
100
AcDbEntity
  8
通り芯
  6
Continuous
 62
     3
370
     9
100
AcDbLine
 10
-68.01774563386044
 20
-118.0600358877684
 30
0.0
 11
-68.07125626293254
 21
-117.7389721133355
 31
0.0
  0
LINE
  5
CB
330
1F
100
AcDbEntity
  8
通り芯
  6
Continuous
 62
     3
370
     9
100
AcDbLine
 10
-54.18643714379949
 20
-119.2628854636801
 30
0.0
 11
-52.28289560831522
 21
-136.8703597723567
 31
0.0
  0
LINE
  5
CC
330
1F
100
AcDbEntity
  8
通り芯
  6
JWW_HOJO
 62
     3
370
     9
100
AcDbLine
 10
-54.28290491676569
 20
-118.3703975363869
 30
0.0
 11
-55.18064481320858
 21
-118.3703975363869
 31
0.0
  0
LINE
  5
CD
330
1F
100
AcDbEntity
  8
通り芯
  6
JWW_HOJO
 62
     3
370
     9
100
AcDbLine
 10
-54.28290491676569
 20
-118.3703975363869
 30
0.0
 11
-54.18643714379949
 21
-119.2629350105588
 31
0.0
  0
LINE
  5
CE
330
1F
100
AcDbEntity
  8
通り芯
  6
Continuous
 62
     3
370
     9
100
AcDbLine
 10
-75.96858281704323
 20
-119.5861788476577
 30
0.0
 11
-159.669066514765
 21
-97.15868507842802
 31
0.0
  0
LINE
  5
CF
330
1F
100
AcDbEntity
  8
通り芯
  6
Continuous
 62
     3
370
     9
100
AcDbLine
 10
9.402770273456609
 20
-119.5861788476577
 30
0.0
 11
63.53050572069588
 21
-105.0826678533173
 31
0.0
  0
LINE
  5
D0
330
1F
100
AcDbEntity
  8
0-9
  6
Continuous
 62
     6
370
     9
100
AcDbLine
 10
83.71699416313524
 20
-136.8703597723567
 30
0.0
 11
83.71699416313524
 21
-142.8703381508295
 31
0.0
  0
LINE
  5
D1
330
1F
100
AcDbEntity
  8
0-9
  6
Continuous
 62
     6
370
     9
100
AcDbLine
 10
69.71702809773947
 20
-134.8703504639063
 30
0.0
 11
69.71702809773947
 21
-121.8704385996146
 31
0.0
  0
LINE
  5
D2
330
1F
100
AcDbEntity
  8
0-9
  6
Continuous
 62
     6
370
     9
100
AcDbLine
 10
77.71706533154136
 20
-142.8703381508295
 30
0.0
 11
83.71699416313524
 21
-142.8703381508295
 31
0.0
  0
LINE
  5
D3
330
1F
100
AcDbEntity
  8
0-9
  6
Continuous
 62
     6
370
     9
100
AcDbLine
 10
75.71700647621208
 20
-134.8703504639063
 30
0.0
 11
75.71700647621208
 21
-121.8704385996146
 31
0.0
  0
LINE
  5
D4
330
1F
100
AcDbEntity
  8
0-9
  6
Continuous
 62
     6
370
     9
100
AcDbLine
 10
77.71706533154136
 20
-136.8703597723567
 30
0.0
 11
83.71699416313524
 21
-136.8703597723567
 31
0.0
  0
LINE
  5
D5
330
1F
100
AcDbEntity
  8
0-9
  6
Continuous
 62
     6
370
     9
100
AcDbLine
 10
75.71700647621208
 20
-121.8704385996146
 30
0.0
 11
69.71702809773947
 21
-121.8704385996146
 31
0.0
  0
LINE
  5
D6
330
1F
100
AcDbEntity
  8
0-9
  6
Continuous
 62
     6
370
     9
100
AcDbLine
 10
75.89200605202959
 20
-121.0704051481071
 30
0.0
 11
75.71700647621208
 21
-121.8704385996146
 31
0.0
  0
LINE
  5
D7
330
1F
100
AcDbEntity
  8
0-9
  6
Continuous
 62
     6
370
     9
100
AcDbLine
 10
75.71700647621208
 20
-121.8704385996146
 30
0.0
 11
75.07715808376972
 21
-121.0704051481071
 31
0.0
  0
LINE
  5
D8
330
1F
100
AcDbEntity
  8
0-9
  6
Continuous
 62
     6
370
     9
100
AcDbLine
 10
70.35702513081819
 20
-121.0704051481071
 30
0.0
 11
69.71702809773947
 21
-121.8704385996146
 31
0.0
  0
LINE
  5
D9
330
1F
100
AcDbEntity
  8
0-9
  6
Continuous
 62
     6
370
     9
100
AcDbLine
 10
69.54207806880078
 20
-121.0704051481071
 30
0.0
 11
69.71702809773947
 21
-121.8704385996146
 31
0.0
  0
LINE
  5
DA
330
1F
100
AcDbEntity
  8
0-9
  6
Continuous
 62
     6
370
     9
100
AcDbLine
 10
75.89200605202959
 20
-121.0704051481071
 30
0.0
 11
69.54207806880078
 21
-121.0704051481071
 31
0.0
  0
LINE
  5
DB
330
1F
100
AcDbEntity
  8
0-9
  6
JWW_CENTER1
 62
     6
370
     9
100
AcDbLine
 10
77.51699503506609
 20
-139.8703737350325
 30
0.0
 11
85.34079402108125
 21
-139.8703737350325
 31
0.0
  0
LINE
  5
DC
330
1F
100
AcDbEntity
  8
0-9
  6
Continuous
 62
     6
370
     9
100
AcDbLine
 10
75.07715808376972
 20
-118.8703750900601
 30
0.0
 11
75.07715808376972
 21
-121.0704051481071
 31
0.0
  0
LINE
  5
DD
330
1F
100
AcDbEntity
  8
0-9
  6
Continuous
 62
     6
370
     9
100
AcDbLine
 10
75.89200605202959
 20
-118.8703750900601
 30
0.0
 11
75.89200605202959
 21
-121.0704051481071
 31
0.0
  0
LINE
  5
DE
330
1F
100
AcDbEntity
  8
0-9
  6
Continuous
 62
     6
370
     9
100
AcDbLine
 10
70.35702513081819
 20
-118.8703750900601
 30
0.0
 11
70.35702513081819
 21
-121.0704051481071
 31
0.0
  0
LINE
  5
DF
330
1F
100
AcDbEntity
  8
0-9
  6
Continuous
 62
     6
370
     9
100
AcDbLine
 10
69.54207806880078
 20
-118.8703750900601
 30
0.0
 11
69.54207806880078
 21
-121.0704051481071
 31
0.0
  0
LINE
  5
E0
330
1F
100
AcDbEntity
  8
0-9
  6
JWW_CENTER1
 62
     6
370
     9
100
AcDbLine
 10
72.71709160729395
 20
-105.2219441295411
 30
0.0
 11
72.71709160729395
 21
-134.8703504639063
 31
0.0
  0
LINE
  5
E1
330
1F
100
AcDbEntity
  8
通り芯
  6
Continuous
 62
     3
370
     9
100
AcDbLine
 10
70.35702513081819
 20
-118.8703750900601
 30
0.0
 11
68.58755744928686
 21
-118.8703750900601
 31
0.0
  0
LINE
  5
E2
330
1F
100
AcDbEntity
  8
通り芯
  6
Continuous
 62
     3
370
     9
100
AcDbLine
 10
76.82140640400684
 20
-118.8703750900601
 30
0.0
 11
75.07715808376972
 21
-118.8703750900601
 31
0.0
  0
LINE
  5
E3
330
1F
100
AcDbEntity
  8
通り芯
  6
Continuous
 62
     4
370
     9
100
AcDbLine
 10
-63.08996171198164
 20
-158.8703630715544
 30
0.0
 11
-61.51228999817105
 21
-157.2927904515013
 31
0.0
  0
LINE
  5
E4
330
1F
100
AcDbEntity
  8
通り芯
  6
Continuous
 62
     4
370
     9
100
AcDbLine
 10
-61.51228999817105
 20
-157.2927904515013
 30
0.0
 11
-5.053472998536764
 21
-157.2927904515013
 31
0.0
  0
LINE
  5
E5
330
1F
100
AcDbEntity
  8
通り芯
  6
Continuous
 62
     4
370
     9
100
AcDbLine
 10
-3.475900378483631
 20
-158.8703630715544
 30
0.0
 11
-5.053472998536764
 21
-157.2927904515013
 31
0.0
  0
LINE
  5
E6
330
1F
100
AcDbEntity
  8
通り芯
  6
Continuous
 62
     4
370
     9
100
AcDbLine
 10
-4.413525512336777
 20
-143.8703428050547
 30
0.0
 11
-3.475900378483631
 21
-158.8703630715544
 31
0.0
  0
LINE
  5
E7
330
1F
100
AcDbEntity
  8
通り芯
  6
Continuous
 62
     4
370
     9
100
AcDbLine
 10
-5.892549390515343
 20
-143.8703428050547
 30
0.0
 11
-5.053472998536764
 21
-157.2927904515013
 31
0.0
  0
LINE
  5
E8
330
1F
100
AcDbEntity
  8
通り芯
  6
Continuous
 62
     4
370
     9
100
AcDbLine
 10
-62.15243567188603
 20
-143.8703428050547
 30
0.0
 11
-63.08996171198164
 21
-158.8703630715544
 31
0.0
  0
LINE
  5
E9
330
1F
100
AcDbEntity
  8
通り芯
  6
Continuous
 62
     4
370
     9
100
AcDbLine
 10
-60.67331269994992
 20
-143.8703428050547
 30
0.0
 11
-61.51228999817105
 21
-157.2927904515013
 31
0.0
  0
LINE
  5
EA
330
1F
100
AcDbEntity
  8
通り芯
  6
Continuous
 62
     4
370
     9
100
AcDbLine
 10
-64.28295145901805
 20
-143.8703428050547
 30
0.0
 11
-2.283009725204836
 21
-143.8703428050547
 31
0.0
  0
LINE
  5
EB
330
1F
100
AcDbEntity
  8
通り芯
  6
Continuous
 62
     4
370
     9
100
AcDbLine
 10
-2.283009725204836
 20
-136.8703597723567
 30
0.0
 11
-2.283009725204836
 21
-143.8703428050547
 31
0.0
  0
LINE
  5
EC
330
1F
100
AcDbEntity
  8
通り芯
  6
Continuous
 62
     4
370
     9
100
AcDbLine
 10
-64.28295145901805
 20
-136.8703597723567
 30
0.0
 11
-64.28295145901805
 21
-143.8703428050547
 31
0.0
  0
LINE
  5
ED
330
1F
100
AcDbEntity
  8
通り芯
  6
Continuous
 62
     4
370
     9
100
AcDbLine
 10
-64.28295145901805
 20
-136.8703597723567
 30
0.0
 11
-2.283009725204836
 21
-136.8703597723567
 31
0.0
  0
LINE
  5
EE
330
1F
100
AcDbEntity
  8
躯体
  6
Continuous
 62
     2
370
     9
100
AcDbLine
 10
74.21712336207119
 20
-96.00751289707408
 30
0.0
 11
73.71709626151915
 21
-95.0075082428487
 31
0.0
  0
LINE
  5
EF
330
1F
100
AcDbEntity
  8
躯体
  6
Continuous
 62
     2
370
     9
100
AcDbLine
 10
72.31605917052545
 20
-97.55213684274473
 30
0.0
 11
1.574165240200669
 21
-116.5075339883732
 31
0.0
  0
LINE
  5
F0
330
1F
100
AcDbEntity
  8
躯体
  6
Continuous
 62
     2
370
     9
100
AcDbLine
 10
-140.782886358779
 20
-96.00751289707408
 30
0.0
 11
-140.2829088051057
 21
-95.0075082428487
 31
0.0
  0
LINE
  5
F1
330
1F
100
AcDbEntity
  8
躯体
  6
Continuous
 62
     2
370
     9
100
AcDbLine
 10
-138.881871714112
 20
-97.55213684274473
 30
0.0
 11
-68.13992823690847
 21
-116.5075339883732
 31
0.0
  0
LINE
  5
F2
330
1F
100
AcDbEntity
  8
躯体
  6
JWW_HOJO
 62
     2
370
     9
100
AcDbLine
 10
7.544564132047354
 20
-106.0075098924476
 30
0.0
 11
6.717131256579874
 21
-106.0075098924476
 31
0.0
  0
LINE
  5
F3
330
1F
100
AcDbEntity
  8
躯体
  6
JWW_HOJO
 62
     2
370
     9
100
AcDbLine
 10
6.562297260421984
 20
-106.8204750793141
 30
0.0
 11
6.717131256579874
 21
-106.0075098924476
 31
0.0
  0
LINE
  5
F4
330
1F
100
AcDbEntity
  8
躯体
  6
JWW_HOJO
 62
     2
370
     9
100
AcDbLine
 10
18.57776219042239
 20
-106.0075098924476
 30
0.0
 11
17.33582012716084
 21
-106.0075098924476
 31
0.0
  0
LINE
  5
F5
330
1F
100
AcDbEntity
  8
躯体
  6
JWW_HOJO
 62
     2
370
     9
100
AcDbLine
 10
18.45141764955764
 20
-106.6732217556082
 30
0.0
 11
18.21711045985185
 21
-107.9068894901152
 31
0.0
  0
LINE
  5
F6
330
1F
100
AcDbEntity
  8
躯体
  6
Continuous
 62
     2
370
     9
100
AcDbLine
 10
22.71710663042603
 20
-100.0075315139749
 30
0.0
 11
23.20335969867989
 21
-103.1320072361222
 31
0.0
  0
LINE
  5
F7
330
1F
100
AcDbEntity
  8
躯体
  6
JWW_HOJO
 62
     2
370
     9
100
AcDbLine
 10
23.20331015180108
 20
-103.1321063298797
 30
0.0
 11
23.71711128465131
 21
-106.4331671279651
 31
0.0
  0
LINE
  5
F8
330
1F
100
AcDbEntity
  8
躯体
  6
Continuous
 62
     2
370
     9
100
AcDbLine
 10
19.71714221462909
 20
-100.0075315139749
 30
0.0
 11
18.80949294243212
 21
-104.787368455845
 31
0.0
  0
LINE
  5
F9
330
1F
100
AcDbEntity
  8
躯体
  6
JWW_DASHED1
 62
     2
370
     9
100
AcDbLine
 10
18.80944339555339
 20
-104.7873189089662
 30
0.0
 11
18.45136810267883
 21
-106.6731722087294
 31
0.0
  0
LINE
  5
FA
330
1F
100
AcDbEntity
  8
躯体
  6
Continuous
 62
     2
370
     9
100
AcDbLine
 10
66.35809654525019
 20
-95.0075082428487
 30
0.0
 11
26.94414904585346
 21
-105.5684749996621
 31
0.0
  0
LINE
  5
FB
330
1F
100
AcDbEntity
  8
躯体
  6
Continuous
 62
     2
370
     9
100
AcDbLine
 10
5.951978807726816
 20
-110.0235321511915
 30
0.0
 11
6.56224771354317
 21
-106.8203759855566
 31
0.0
  0
LINE
  5
FC
330
1F
100
AcDbEntity
  8
躯体
  6
JWW_HOJO
 62
     2
370
     9
100
AcDbLine
 10
5.717126602354595
 20
-111.2563080418805
 30
0.0
 11
5.951978807726816
 21
-110.0235321511915
 31
0.0
  0
LINE
  5
FD
330
1F
100
AcDbEntity
  8
躯体
  6
Continuous
 62
     2
370
     9
100
AcDbLine
 10
4.50496221323405
 20
-111.5810878322212
 30
0.0
 11
1.04753146574893
 21
-112.5075153714723
 31
0.0
  0
LINE
  5
FE
330
1F
100
AcDbEntity
  8
躯体
  6
JWW_DASHED1
 62
     2
370
     9
100
AcDbLine
 10
26.94414904585346
 20
-105.5684749996621
 30
0.0
 11
4.50496221323405
 21
-111.5810878322212
 31
0.0
  0
LINE
  5
FF
330
1F
100
AcDbEntity
  8
躯体
  6
Continuous
 62
     2
370
     9
100
AcDbLine
 10
-49.12215157090794
 20
-112.3114088252985
 30
0.0
 11
-48.282926538293
 21
-116.5075339883732
 31
0.0
  0
LINE
  5
100
330
1F
100
AcDbEntity
  8
躯体
  6
JWW_HOJO
 62
     2
370
     9
100
AcDbLine
 10
-49.28288164563947
 20
-111.5075107172469
 30
0.0
 11
-50.10268430177639
 21
-111.5075107172469
 31
0.0
  0
LINE
  5
101
330
1F
100
AcDbEntity
  8
躯体
  6
JWW_HOJO
 62
     2
370
     9
100
AcDbLine
 10
-49.28288164563947
 20
-111.5075107172469
 30
0.0
 11
-49.12215157090794
 21
-112.3114088252985
 31
0.0
  0
LINE
  5
102
330
1F
100
AcDbEntity
  8
躯体
  6
Continuous
 62
     2
370
     9
100
AcDbLine
 10
-67.12213625320464
 20
-112.3114088252985
 30
0.0
 11
-66.28291122058971
 21
-116.5075339883732
 31
0.0
  0
LINE
  5
103
330
1F
100
AcDbEntity
  8
躯体
  6
JWW_HOJO
 62
     2
370
     9
100
AcDbLine
 10
-67.28286632793618
 20
-111.5075107172469
 30
0.0
 11
-67.12213625320464
 21
-112.3114088252985
 31
0.0
  0
LINE
  5
104
330
1F
100
AcDbEntity
  8
躯体
  6
Continuous
 62
     2
370
     9
100
AcDbLine
 10
-55.44368919260123
 20
-112.3114088252985
 30
0.0
 11
-56.28291422521617
 21
-116.5075339883732
 31
0.0
  0
LINE
  5
105
330
1F
100
AcDbEntity
  8
躯体
  6
JWW_HOJO
 62
     2
370
     9
100
AcDbLine
 10
-55.28290957099089
 20
-111.5075107172469
 30
0.0
 11
-55.44373873947996
 21
-112.3113592784197
 31
0.0
  0
LINE
  5
106
330
1F
100
AcDbEntity
  8
躯体
  6
Continuous
 62
     2
370
     9
100
AcDbLine
 10
-5.282875047244234
 20
-116.5075339883732
 30
0.0
 11
-4.472288110558624
 21
-113.2649880541158
 31
0.0
  0
LINE
  5
107
330
1F
100
AcDbEntity
  8
躯体
  6
JWW_HOJO
 62
     2
370
     9
100
AcDbLine
 10
-4.472288110558624
 20
-113.2649880541158
 30
0.0
 11
-4.282919939897768
 21
-112.5075153714723
 31
0.0
  0
LINE
  5
108
330
1F
100
AcDbEntity
  8
躯体
  6
Continuous
 62
     2
370
     9
100
AcDbLine
 10
66.35809654525019
 20
-95.0075082428487
 30
0.0
 11
73.71709626151915
 21
-95.0075082428487
 31
0.0
  0
LINE
  5
109
330
1F
100
AcDbEntity
  8
躯体
  6
Continuous
 62
     2
370
     9
100
AcDbLine
 10
-140.2829088051057
 20
-95.0075082428487
 30
0.0
 11
-132.9239090888367
 21
-95.0075082428487
 31
0.0
  0
LINE
  5
10A
330
1F
100
AcDbEntity
  8
0-8
  6
Continuous
 62
     4
370
     9
100
AcDbLine
 10
7.717235004562609
 20
-96.90748240306159
 30
0.0
 11
7.717235004562609
 21
-99.50750441342298
 31
0.0
  0
LINE
  5
10B
330
1F
100
AcDbEntity
  8
0-8
  6
Continuous
 62
     4
370
     9
100
AcDbLine
 10
19.71704312087155
 20
-96.90748240306159
 30
0.0
 11
19.71704312087155
 21
-99.50750441342298
 31
0.0
  0
LINE
  5
10C
330
1F
100
AcDbEntity
  8
0-8
  6
Continuous
 62
     4
370
     9
100
AcDbLine
 10
14.19623260698859
 20
-95.5399885489954
 30
0.0
 11
13.23804551844557
 21
-95.5399885489954
 31
0.0
  0
LINE
  5
10D
330
1F
100
AcDbEntity
  8
0-8
  6
Continuous
 62
     4
370
     9
100
AcDbLine
 10
13.23804551844557
 20
-94.91891842360708
 30
0.0
 11
13.23804551844557
 21
-95.5399885489954
 31
0.0
  0
LINE
  5
10E
330
1F
100
AcDbEntity
  8
0-8
  6
Continuous
 62
     4
370
     9
100
AcDbLine
 10
14.19623260698859
 20
-94.91891842360708
 30
0.0
 11
14.19623260698859
 21
-95.5399885489954
 31
0.0
  0
LINE
  5
10F
330
1F
100
AcDbEntity
  8
0-8
  6
Continuous
 62
     4
370
     9
100
AcDbLine
 10
10.71714987348082
 20
-101.5075137218735
 30
0.0
 11
16.71712825195343
 21
-101.5075137218735
 31
0.0
  0
LINE
  5
110
330
1F
100
AcDbEntity
  8
0-8
  6
Continuous
 62
     4
370
     9
100
AcDbLine
 10
15.84713460762199
 20
-101.5075137218735
 30
0.0
 11
16.89911393767744
 21
-99.6350380793783
 31
0.0
  0
LINE
  5
111
330
1F
100
AcDbEntity
  8
0-8
  6
Continuous
 62
     4
370
     9
100
AcDbLine
 10
16.71712825195343
 20
-101.5075137218735
 30
0.0
 11
16.27621057777458
 21
-100.7439467731411
 31
0.0
  0
LINE
  5
112
330
1F
100
AcDbEntity
  8
0-8
  6
Continuous
 62
     4
370
     9
100
AcDbLine
 10
11.58709397093344
 20
-101.5075137218735
 30
0.0
 11
10.53516418775672
 21
-99.6350380793783
 31
0.0
  0
LINE
  5
113
330
1F
100
AcDbEntity
  8
0-8
  6
Continuous
 62
     4
370
     9
100
AcDbLine
 10
10.71714987348082
 20
-101.5075137218735
 30
0.0
 11
11.15791890702323
 21
-100.7439467731411
 31
0.0
  0
LINE
  5
114
330
1F
100
AcDbEntity
  8
0-8
  6
Continuous
 62
     4
370
     9
100
AcDbLine
 10
15.84713460762199
 20
-111.5076098110046
 30
0.0
 11
16.71712825195343
 21
-110.6375666197943
 31
0.0
  0
LINE
  5
115
330
1F
100
AcDbEntity
  8
0-8
  6
Continuous
 62
     4
370
     9
100
AcDbLine
 10
11.58709397093344
 20
-111.5076098110046
 30
0.0
 11
10.71714987348082
 21
-110.6375666197943
 31
0.0
  0
LINE
  5
116
330
1F
100
AcDbEntity
  8
0-8
  6
Continuous
 62
     4
370
     9
100
AcDbLine
 10
11.58709397093344
 20
-101.5075137218735
 30
0.0
 11
11.58709397093344
 21
-111.5076098110046
 31
0.0
  0
LINE
  5
117
330
1F
100
AcDbEntity
  8
0-8
  6
Continuous
 62
     4
370
     9
100
AcDbLine
 10
15.84713460762199
 20
-101.5075137218735
 30
0.0
 11
15.84713460762199
 21
-111.5076098110046
 31
0.0
  0
LINE
  5
118
330
1F
100
AcDbEntity
  8
0-8
  6
Continuous
 62
     4
370
     9
100
AcDbLine
 10
11.58709397093344
 20
-111.5076098110046
 30
0.0
 11
15.84713460762199
 21
-111.5076098110046
 31
0.0
  0
LINE
  5
119
330
1F
100
AcDbEntity
  8
0-8
  6
Continuous
 62
     4
370
     9
100
AcDbLine
 10
10.71714987348082
 20
-110.6375666197943
 30
0.0
 11
16.71712825195343
 21
-110.6375666197943
 31
0.0
  0
LINE
  5
11A
330
1F
100
AcDbEntity
  8
0-8
  6
Continuous
 62
     4
370
     9
100
AcDbLine
 10
10.71714987348082
 20
-101.5075137218735
 30
0.0
 11
10.71714987348082
 21
-110.6375666197943
 31
0.0
  0
LINE
  5
11B
330
1F
100
AcDbEntity
  8
0-8
  6
Continuous
 62
     4
370
     9
100
AcDbLine
 10
16.71712825195343
 20
-101.5075137218735
 30
0.0
 11
16.71712825195343
 21
-110.6375666197943
 31
0.0
  0
LINE
  5
11C
330
1F
100
AcDbEntity
  8
0-8
  6
JWW_CENTER1
 62
     4
370
     9
100
AcDbLine
 10
13.71706474239894
 20
-93.46258701590543
 30
0.0
 11
13.71706474239894
 21
-113.1892804233544
 31
0.0
  0
LINE
  5
11D
330
1F
100
AcDbEntity
  8
0-8
  6
Continuous
 62
     4
370
     9
100
AcDbLine
 10
19.71704312087155
 20
-99.50750441342298
 30
0.0
 11
7.717235004562609
 21
-99.50750441342298
 31
0.0
  0
LINE
  5
11E
330
1F
100
AcDbEntity
  8
0-8
  6
Continuous
 62
     4
370
     9
100
AcDbLine
 10
-74.28304754814914
 20
-96.90748240306159
 30
0.0
 11
-74.28304754814914
 21
-99.50750441342298
 31
0.0
  0
LINE
  5
11F
330
1F
100
AcDbEntity
  8
0-8
  6
Continuous
 62
     4
370
     9
100
AcDbLine
 10
-86.28285566445817
 20
-96.90748240306159
 30
0.0
 11
-86.28285566445817
 21
-99.50750441342298
 31
0.0
  0
LINE
  5
120
330
1F
100
AcDbEntity
  8
0-8
  6
Continuous
 62
     4
370
     9
100
AcDbLine
 10
-80.76204515057512
 20
-95.5399885489954
 30
0.0
 11
-79.80390760891092
 21
-95.5399885489954
 31
0.0
  0
LINE
  5
121
330
1F
100
AcDbEntity
  8
0-8
  6
Continuous
 62
     4
370
     9
100
AcDbLine
 10
-79.80390760891092
 20
-94.91891842360708
 30
0.0
 11
-79.80390760891092
 21
-95.5399885489954
 31
0.0
  0
LINE
  5
122
330
1F
100
AcDbEntity
  8
0-8
  6
Continuous
 62
     4
370
     9
100
AcDbLine
 10
-80.76204515057512
 20
-94.91891842360708
 30
0.0
 11
-80.76204515057512
 21
-95.5399885489954
 31
0.0
  0
LINE
  5
123
330
1F
100
AcDbEntity
  8
0-8
  6
Continuous
 62
     4
370
     9
100
AcDbLine
 10
-77.28296241706727
 20
-101.5075137218735
 30
0.0
 11
-83.28294079553996
 21
-101.5075137218735
 31
0.0
  0
LINE
  5
124
330
1F
100
AcDbEntity
  8
0-8
  6
Continuous
 62
     4
370
     9
100
AcDbLine
 10
-82.41294715120853
 20
-101.5075137218735
 30
0.0
 11
-83.46492648126406
 21
-99.6350380793783
 31
0.0
  0
LINE
  5
125
330
1F
100
AcDbEntity
  8
0-8
  6
Continuous
 62
     4
370
     9
100
AcDbLine
 10
-83.28294079553996
 20
-101.5075137218735
 30
0.0
 11
-82.8420231213612
 21
-100.7439467731411
 31
0.0
  0
LINE
  5
126
330
1F
100
AcDbEntity
  8
0-8
  6
Continuous
 62
     4
370
     9
100
AcDbLine
 10
-78.1529560613987
 20
-101.5075137218735
 30
0.0
 11
-77.10102627822198
 21
-99.6350380793783
 31
0.0
  0
LINE
  5
127
330
1F
100
AcDbEntity
  8
0-8
  6
Continuous
 62
     4
370
     9
100
AcDbLine
 10
-77.28296241706727
 20
-101.5075137218735
 30
0.0
 11
-77.72378099748857
 21
-100.7439467731411
 31
0.0
  0
LINE
  5
128
330
1F
100
AcDbEntity
  8
0-8
  6
Continuous
 62
     4
370
     9
100
AcDbLine
 10
-82.41294715120853
 20
-111.5076098110046
 30
0.0
 11
-83.28294079553996
 21
-110.6375666197943
 31
0.0
  0
LINE
  5
129
330
1F
100
AcDbEntity
  8
0-8
  6
Continuous
 62
     4
370
     9
100
AcDbLine
 10
-78.1529560613987
 20
-111.5076098110046
 30
0.0
 11
-77.28296241706727
 21
-110.6375666197943
 31
0.0
  0
LINE
  5
12A
330
1F
100
AcDbEntity
  8
0-8
  6
Continuous
 62
     4
370
     9
100
AcDbLine
 10
-78.1529560613987
 20
-101.5075137218735
 30
0.0
 11
-78.1529560613987
 21
-111.5076098110046
 31
0.0
  0
LINE
  5
12B
330
1F
100
AcDbEntity
  8
0-8
  6
Continuous
 62
     4
370
     9
100
AcDbLine
 10
-82.41294715120853
 20
-101.5075137218735
 30
0.0
 11
-82.41294715120853
 21
-111.5076098110046
 31
0.0
  0
LINE
  5
12C
330
1F
100
AcDbEntity
  8
0-8
  6
Continuous
 62
     4
370
     9
100
AcDbLine
 10
-78.1529560613987
 20
-111.5076098110046
 30
0.0
 11
-82.41294715120853
 21
-111.5076098110046
 31
0.0
  0
LINE
  5
12D
330
1F
100
AcDbEntity
  8
0-8
  6
Continuous
 62
     4
370
     9
100
AcDbLine
 10
-77.28296241706727
 20
-110.6375666197943
 30
0.0
 11
-83.28294079553996
 21
-110.6375666197943
 31
0.0
  0
LINE
  5
12E
330
1F
100
AcDbEntity
  8
0-8
  6
Continuous
 62
     4
370
     9
100
AcDbLine
 10
-77.28296241706727
 20
-101.5075137218735
 30
0.0
 11
-77.28296241706727
 21
-110.6375666197943
 31
0.0
  0
LINE
  5
12F
330
1F
100
AcDbEntity
  8
0-8
  6
JWW_CENTER1
 62
     4
370
     9
100
AcDbLine
 10
-80.28292683286429
 20
-93.46258701590543
 30
0.0
 11
-80.28292683286429
 21
-113.1892804233544
 31
0.0
  0
LINE
  5
130
330
1F
100
AcDbEntity
  8
0-8
  6
Continuous
 62
     4
370
     9
100
AcDbLine
 10
-86.28285566445817
 20
-99.50750441342298
 30
0.0
 11
-74.28304754814914
 21
-99.50750441342298
 31
0.0
  0
LINE
  5
131
330
1F
100
AcDbEntity
  8
躯体
  6
JWW_HOJO
 62
     2
370
     9
100
AcDbLine
 10
-74.11037667563389
 20
-106.0075098924476
 30
0.0
 11
-73.28294380016632
 21
-106.0075098924476
 31
0.0
  0
LINE
  5
132
330
1F
100
AcDbEntity
  8
躯体
  6
JWW_HOJO
 62
     2
370
     9
100
AcDbLine
 10
-73.12810980400852
 20
-106.8204750793141
 30
0.0
 11
-73.28294380016632
 21
-106.0075098924476
 31
0.0
  0
LINE
  5
133
330
1F
100
AcDbEntity
  8
躯体
  6
Continuous
 62
     2
370
     9
100
AcDbLine
 10
-89.28291917401265
 20
-100.0075315139749
 30
0.0
 11
-89.76917224226642
 21
-103.1320072361222
 31
0.0
  0
LINE
  5
134
330
1F
100
AcDbEntity
  8
躯体
  6
Continuous
 62
     2
370
     9
100
AcDbLine
 10
-86.28295475821562
 20
-100.0075315139749
 30
0.0
 11
-85.37530548601865
 21
-104.787368455845
 31
0.0
  0
LINE
  5
135
330
1F
100
AcDbEntity
  8
躯体
  6
Continuous
 62
     2
370
     9
100
AcDbLine
 10
-72.51779135131335
 20
-110.0235321511915
 30
0.0
 11
-73.12806025712979
 21
-106.8203759855566
 31
0.0
  0
LINE
  5
136
330
1F
100
AcDbEntity
  8
躯体
  6
JWW_HOJO
 62
     2
370
     9
100
AcDbLine
 10
-72.28293914594113
 20
-111.2563080418805
 30
0.0
 11
-72.51779135131335
 21
-110.0235321511915
 31
0.0
  0
LINE
  5
137
330
1F
100
AcDbEntity
  8
躯体
  6
Continuous
 62
     2
370
     9
100
AcDbLine
 10
-71.2925465861974
 20
-111.5075107172469
 30
0.0
 11
-50.10268430177639
 21
-111.5075107172469
 31
0.0
  0
LINE
  5
138
330
1F
100
AcDbEntity
  8
0-9
  6
Continuous
 62
     4
370
     9
100
AcDbLine
 10
-65.28290656636452
 20
-123.6939619258845
 30
0.0
 11
-57.28291887944136
 21
-123.6939619258845
 31
0.0
  0
LINE
  5
139
330
1F
100
AcDbEntity
  8
0-9
  6
Continuous
 62
     4
370
     9
100
AcDbLine
 10
-57.28291887944136
 20
-123.6939619258845
 30
0.0
 11
-57.95928332153768
 21
-124.3703759148595
 31
0.0
  0
LINE
  5
13A
330
1F
100
AcDbEntity
  8
0-9
  6
Continuous
 62
     4
370
     9
100
AcDbLine
 10
-57.95928332153768
 20
-124.3703759148595
 30
0.0
 11
-64.60649257738947
 21
-124.3703759148595
 31
0.0
  0
LINE
  5
13B
330
1F
100
AcDbEntity
  8
0-9
  6
Continuous
 62
     4
370
     9
100
AcDbLine
 10
-64.60649257738947
 20
-124.3703759148595
 30
0.0
 11
-65.28290656636452
 21
-123.6939619258845
 31
0.0
  0
LINE
  5
13C
330
1F
100
AcDbEntity
  8
0-9
  6
Continuous
 62
     4
370
     9
100
AcDbLine
 10
-53.78292736309246
 20
-105.7292050743937
 30
0.0
 11
-53.78292736309246
 21
-111.5075107172469
 31
0.0
  0
LINE
  5
13D
330
1F
100
AcDbEntity
  8
0-9
  6
Continuous
 62
     4
370
     9
100
AcDbLine
 10
-68.78289808271342
 20
-105.7292050743937
 30
0.0
 11
-68.78289808271342
 21
-111.5075107172469
 31
0.0
  0
LINE
  5
13E
330
1F
100
AcDbEntity
  8
0-9
  6
Continuous
 62
     4
370
     9
100
AcDbLine
 10
-57.53565750804976
 20
-105.7292050743937
 30
0.0
 11
-57.53565750804976
 21
-111.5075107172469
 31
0.0
  0
LINE
  5
13F
330
1F
100
AcDbEntity
  8
0-9
  6
Continuous
 62
     4
370
     9
100
AcDbLine
 10
-65.0301183908773
 20
-105.7292050743937
 30
0.0
 11
-65.0301183908773
 21
-111.5075107172469
 31
0.0
  0
LINE
  5
140
330
1F
100
AcDbEntity
  8
0-9
  6
Continuous
 62
     4
370
     9
100
AcDbLine
 10
-55.65931720901052
 20
-105.0074061444649
 30
0.0
 11
-66.90655778367417
 21
-105.0074061444649
 31
0.0
  0
LINE
  5
141
330
1F
100
AcDbEntity
  8
0-9
  6
Continuous
 62
     4
370
     9
100
AcDbLine
 10
-65.28290656636452
 20
-85.04695056297652
 30
0.0
 11
-57.28291887944136
 21
-85.04695056297652
 31
0.0
  0
LINE
  5
142
330
1F
100
AcDbEntity
  8
0-9
  6
Continuous
 62
     4
370
     9
100
AcDbLine
 10
-57.28291887944136
 20
-85.04695056297652
 30
0.0
 11
-57.95928332153768
 21
-84.3704374802439
 31
0.0
  0
LINE
  5
143
330
1F
100
AcDbEntity
  8
0-9
  6
Continuous
 62
     4
370
     9
100
AcDbLine
 10
-57.95928332153768
 20
-84.3704374802439
 30
0.0
 11
-64.60649257738947
 21
-84.3704374802439
 31
0.0
  0
LINE
  5
144
330
1F
100
AcDbEntity
  8
0-9
  6
Continuous
 62
     4
370
     9
100
AcDbLine
 10
-64.60649257738947
 20
-84.3704374802439
 30
0.0
 11
-65.28290656636452
 21
-85.04695056297652
 31
0.0
  0
LINE
  5
145
330
1F
100
AcDbEntity
  8
通り芯
  6
Continuous
 62
     3
370
     9
100
AcDbLine
 10
-64.60639348363193
 20
-125.3703805690847
 30
0.0
 11
-57.95928332153768
 21
-125.3703805690847
 31
0.0
  0
LINE
  5
146
330
1F
100
AcDbEntity
  8
通り芯
  6
Continuous
 62
     3
370
     9
100
AcDbLine
 10
-57.95928332153768
 20
-124.3703759148595
 30
0.0
 11
-57.95928332153768
 21
-125.3703805690847
 31
0.0
  0
LINE
  5
147
330
1F
100
AcDbEntity
  8
通り芯
  6
Continuous
 62
     3
370
     9
100
AcDbLine
 10
-64.60639348363193
 20
-125.3703805690847
 30
0.0
 11
-64.60639348363193
 21
-124.3703759148595
 31
0.0
  0
LINE
  5
148
330
1F
100
AcDbEntity
  8
通り芯
  6
Continuous
 62
     3
370
     9
100
AcDbLine
 10
-57.95938241529513
 20
-125.3703805690847
 30
0.0
 11
-61.28288794946358
 21
-127.2892320901092
 31
0.0
  0
LINE
  5
149
330
1F
100
AcDbEntity
  8
通り芯
  6
Continuous
 62
     3
370
     9
100
AcDbLine
 10
-64.60639348363193
 20
-125.3703805690847
 30
0.0
 11
-61.28288794946358
 21
-127.2892320901092
 31
0.0
  0
LINE
  5
14A
330
1F
100
AcDbEntity
  8
0-9
  6
JWW_CENTER1
 62
     4
370
     9
100
AcDbLine
 10
-61.28288794946358
 20
-83.19691965656439
 30
0.0
 11
-61.28288794946358
 21
-128.0171252861267
 31
0.0
  0
LINE
  5
14B
330
1F
100
AcDbEntity
  8
0-9
  6
Continuous
 62
     4
370
     9
100
AcDbLine
 10
-65.28290656636452
 20
-111.5075107172469
 30
0.0
 11
-65.28290656636452
 21
-123.6939619258845
 31
0.0
  0
LINE
  5
14C
330
1F
100
AcDbEntity
  8
0-9
  6
Continuous
 62
     4
370
     9
100
AcDbLine
 10
-64.60649257738947
 20
-111.5075107172469
 30
0.0
 11
-64.60649257738947
 21
-124.3703759148595
 31
0.0
  0
LINE
  5
14D
330
1F
100
AcDbEntity
  8
0-9
  6
Continuous
 62
     4
370
     9
100
AcDbLine
 10
-57.95928332153768
 20
-111.5075107172469
 30
0.0
 11
-57.95928332153768
 21
-124.3703759148595
 31
0.0
  0
LINE
  5
14E
330
1F
100
AcDbEntity
  8
0-9
  6
Continuous
 62
     4
370
     9
100
AcDbLine
 10
-57.28291887944136
 20
-111.5075107172469
 30
0.0
 11
-57.28291887944136
 21
-123.6939619258845
 31
0.0
  0
LINE
  5
14F
330
1F
100
AcDbEntity
  8
0-9
  6
Continuous
 62
     4
370
     9
100
AcDbLine
 10
-64.60649257738947
 20
-105.0074061444649
 30
0.0
 11
-64.60649257738947
 21
-84.3704374802439
 31
0.0
  0
LINE
  5
150
330
1F
100
AcDbEntity
  8
0-9
  6
Continuous
 62
     4
370
     9
100
AcDbLine
 10
-65.28290656636452
 20
-105.0074061444649
 30
0.0
 11
-65.28290656636452
 21
-85.04695056297652
 31
0.0
  0
LINE
  5
151
330
1F
100
AcDbEntity
  8
0-9
  6
Continuous
 62
     4
370
     9
100
AcDbLine
 10
-57.95928332153768
 20
-105.0074061444649
 30
0.0
 11
-57.95928332153768
 21
-84.3704374802439
 31
0.0
  0
LINE
  5
152
330
1F
100
AcDbEntity
  8
0-9
  6
Continuous
 62
     4
370
     9
100
AcDbLine
 10
-57.28291887944136
 20
-105.0074061444649
 30
0.0
 11
-57.28291887944136
 21
-85.04695056297652
 31
0.0
  0
LINE
  5
153
330
1F
100
AcDbEntity
  8
躯体
  6
Continuous
 62
     2
370
     9
100
AcDbLine
 10
1.574165240200669
 20
-116.5075339883732
 30
0.0
 11
-57.28291887944136
 21
-116.5075339883732
 31
0.0
  0
LINE
  5
154
330
1F
100
AcDbEntity
  8
躯体
  6
Continuous
 62
     2
370
     9
100
AcDbLine
 10
-65.28290656636452
 20
-116.5075339883732
 30
0.0
 11
-68.13992823690847
 21
-116.5075339883732
 31
0.0
  0
LINE
  5
155
330
1F
100
AcDbEntity
  8
通り芯
  6
Continuous
 62
     3
370
     9
100
AcDbLine
 10
-55.18064481320858
 20
-118.3703975363869
 30
0.0
 11
-57.28291887944136
 21
-118.3703975363869
 31
0.0
  0
LINE
  5
156
330
1F
100
AcDbEntity
  8
通り芯
  6
Continuous
 62
     3
370
     9
100
AcDbLine
 10
-65.28290656636452
 20
-118.3703975363869
 30
0.0
 11
-67.966018692424
 21
-118.3703975363869
 31
0.0
  0
LINE
  5
157
330
1F
100
AcDbEntity
  8
躯体
  6
Continuous
 62
     2
370
     9
100
AcDbLine
 10
10.71705077972319
 20
-110.6374675260368
 30
0.0
 11
10.71705077972319
 21
-114.0576390206864
 31
0.0
  0
LINE
  5
158
330
1F
100
AcDbEntity
  8
躯体
  6
Continuous
 62
     2
370
     9
100
AcDbLine
 10
11.58709397093344
 20
-111.5076098110046
 30
0.0
 11
11.58709397093344
 21
-113.8245209560711
 31
0.0
  0
LINE
  5
159
330
1F
100
AcDbEntity
  8
躯体
  6
Continuous
 62
     2
370
     9
100
AcDbLine
 10
17.21710580562666
 20
-100.0075315139749
 30
0.0
 11
22.71710663042603
 21
-100.0075315139749
 31
0.0
  0
LINE
  5
15A
330
1F
100
AcDbEntity
  8
躯体
  6
Continuous
 62
     2
370
     9
100
AcDbLine
 10
15.84713460762199
 20
-111.5076098110046
 30
0.0
 11
15.84713460762199
 21
-112.6830599629562
 31
0.0
  0
LINE
  5
15B
330
1F
100
AcDbEntity
  8
躯体
  6
Continuous
 62
     2
370
     9
100
AcDbLine
 10
16.71712825195343
 20
-110.6375666197943
 30
0.0
 11
16.71712825195343
 21
-112.4499418983409
 31
0.0
  0
LINE
  5
15C
330
1F
100
AcDbEntity
  8
躯体
  6
Continuous
 62
     2
370
     9
100
AcDbLine
 10
17.33582012716084
 20
-106.0075098924476
 30
0.0
 11
15.84713460762199
 21
-106.0075098924476
 31
0.0
  0
LINE
  5
15D
330
1F
100
AcDbEntity
  8
躯体
  6
Continuous
 62
     2
370
     9
100
AcDbLine
 10
11.58709397093344
 20
-106.0075098924476
 30
0.0
 11
7.544564132047354
 21
-106.0075098924476
 31
0.0
  0
LINE
  5
15E
330
1F
100
AcDbEntity
  8
躯体
  6
Continuous
 62
     2
370
     9
100
AcDbLine
 10
-83.78291834921319
 20
-100.0075315139749
 30
0.0
 11
-89.28291917401265
 21
-100.0075315139749
 31
0.0
  0
LINE
  5
15F
330
1F
100
AcDbEntity
  8
躯体
  6
Continuous
 62
     2
370
     9
100
AcDbLine
 10
-83.90163267074729
 20
-106.0075098924476
 30
0.0
 11
-82.41294715120853
 21
-106.0075098924476
 31
0.0
  0
LINE
  5
160
330
1F
100
AcDbEntity
  8
躯体
  6
Continuous
 62
     2
370
     9
100
AcDbLine
 10
-78.15290651451997
 20
-106.0075098924476
 30
0.0
 11
-74.11037667563389
 21
-106.0075098924476
 31
0.0
  0
LINE
  5
161
330
1F
100
AcDbEntity
  8
躯体
  6
Continuous
 62
     2
370
     9
100
AcDbLine
 10
-83.28294079553996
 20
-110.6375666197943
 30
0.0
 11
-83.28294079553996
 21
-112.4499418983409
 31
0.0
  0
LINE
  5
162
330
1F
100
AcDbEntity
  8
躯体
  6
Continuous
 62
     2
370
     9
100
AcDbLine
 10
-82.41294715120853
 20
-111.5076098110046
 30
0.0
 11
-82.41294715120853
 21
-112.6830599629562
 31
0.0
  0
LINE
  5
163
330
1F
100
AcDbEntity
  8
躯体
  6
Continuous
 62
     2
370
     9
100
AcDbLine
 10
-78.15290651451997
 20
-111.5075602641257
 30
0.0
 11
-78.15290651451997
 21
-113.8245209560711
 31
0.0
  0
LINE
  5
164
330
1F
100
AcDbEntity
  8
躯体
  6
Continuous
 62
     2
370
     9
100
AcDbLine
 10
-77.28286332330981
 20
-110.6374675260368
 30
0.0
 11
-77.28286332330981
 21
-114.0576390206864
 31
0.0
  0
LINE
  5
165
330
1F
100
AcDbEntity
  8
0-8
  6
Continuous
 62
     4
370
     9
100
AcDbLine
 10
-83.28294079553996
 20
-101.5075137218735
 30
0.0
 11
-83.28294079553996
 21
-110.6375666197943
 31
0.0
  0
LINE
  5
166
330
1F
100
AcDbEntity
  8
0-B
  6
Continuous
 62
     7
370
     9
100
AcDbLine
 10
-1.896246789522225
 20
-166.8146600667394
 30
0.0
 11
11.89074201747854
 21
-164.3835929129855
 31
0.0
  0
LINE
  5
167
330
1F
100
AcDbEntity
  8
0-B
  6
Continuous
 62
     7
370
     9
100
AcDbLine
 10
-1.201673869477789
 20
-170.753884663389
 30
0.0
 11
12.58538925784103
 21
-168.3227679627562
 31
0.0
  0
LINE
  5
168
330
1F
100
AcDbEntity
  8
0-B
  6
Continuous
 62
     7
370
     9
100
AcDbLine
 10
-79.39613679662963
 20
-166.8146600667394
 30
0.0
 11
-65.60917276306827
 21
-164.3835929129855
 31
0.0
  0
LINE
  5
169
330
1F
100
AcDbEntity
  8
0-B
  6
Continuous
 62
     7
370
     9
100
AcDbLine
 10
-78.7015886500246
 20
-170.753884663389
 30
0.0
 11
-64.91459984302384
 21
-168.3227679627562
 31
0.0
  0
LINE
  5
16A
330
1F
100
AcDbEntity
  8
0-B
  6
Continuous
 62
     4
370
     9
100
AcDbLine
 10
-73.2828942532876
 20
-188.8703540576751
 30
0.0
 11
6.717081709701061
 21
-188.8703540576751
 31
0.0
  0
LINE
  5
16B
330
1F
100
AcDbEntity
  8
0-B
  6
Continuous
 62
     4
370
     9
100
AcDbLine
 10
6.717081709701061
 20
-123.8703983611863
 30
0.0
 11
4.217094847577355
 21
-123.8703983611863
 31
0.0
  0
LINE
  5
16C
330
1F
100
AcDbEntity
  8
0-B
  6
Continuous
 62
     4
370
     9
100
AcDbLine
 10
-73.2828942532876
 20
-123.8703983611863
 30
0.0
 11
-70.78283307084575
 21
-123.8703983611863
 31
0.0
  0
LINE
  5
16D
330
1F
100
AcDbEntity
  8
0-B
  6
Continuous
 62
     4
370
     9
100
AcDbLine
 10
-70.78283307084575
 20
-169.3575545258784
 30
0.0
 11
-70.78283307084575
 21
-188.8703540576751
 31
0.0
  0
LINE
  5
16E
330
1F
100
AcDbEntity
  8
0-B
  6
Continuous
 62
     4
370
     9
100
AcDbLine
 10
-73.2828942532876
 20
-169.7983731062997
 30
0.0
 11
-73.2828942532876
 21
-188.8703540576751
 31
0.0
  0
LINE
  5
16F
330
1F
100
AcDbEntity
  8
0-B
  6
Continuous
 62
     4
370
     9
100
AcDbLine
 10
-73.2828942532876
 20
-123.8703983611863
 30
0.0
 11
-73.2828942532876
 21
-165.7366686253294
 31
0.0
  0
LINE
  5
170
330
1F
100
AcDbEntity
  8
0-B
  6
Continuous
 62
     4
370
     9
100
AcDbLine
 10
-70.78283307084575
 20
-123.8703983611863
 30
0.0
 11
-70.78283307084575
 21
-165.2958995917869
 31
0.0
  0
LINE
  5
171
330
1F
100
AcDbEntity
  8
0-B
  6
Continuous
 62
     4
370
     9
100
AcDbLine
 10
6.717081709701061
 20
-169.3575545258784
 30
0.0
 11
6.717081709701061
 21
-188.8703540576751
 31
0.0
  0
LINE
  5
172
330
1F
100
AcDbEntity
  8
0-B
  6
Continuous
 62
     4
370
     9
100
AcDbLine
 10
4.217094847577355
 20
-169.7983731062997
 30
0.0
 11
4.217094847577355
 21
-188.8703540576751
 31
0.0
  0
LINE
  5
173
330
1F
100
AcDbEntity
  8
0-B
  6
Continuous
 62
     4
370
     9
100
AcDbLine
 10
4.217094847577355
 20
-123.8703983611863
 30
0.0
 11
4.217094847577355
 21
-165.7366686253294
 31
0.0
  0
LINE
  5
174
330
1F
100
AcDbEntity
  8
0-B
  6
Continuous
 62
     4
370
     9
100
AcDbLine
 10
6.717081709701061
 20
-123.8703983611863
 30
0.0
 11
6.717081709701061
 21
-165.2958500449081
 31
0.0
  0
LINE
  5
175
330
1F
100
AcDbEntity
  8
通り芯
  6
Continuous
 62
     3
370
     9
100
AcDbLine
 10
0.8497898725758244
 20
-157.0128505864479
 30
0.0
 11
3.150746922678392
 21
-124.7991050568607
 31
0.0
  0
LINE
  5
176
330
1F
100
AcDbEntity
  8
躯体
  6
Continuous
 62
     2
370
     9
100
AcDbLine
 10
-49.08293521636114
 20
-112.5075153714723
 30
0.0
 11
1.04753146574893
 21
-112.5075153714723
 31
0.0
  0
LINE
  5
177
330
1F
100
AcDbEntity
  8
躯体
  6
JWW_DASHED1
 62
     2
370
     9
100
AcDbLine
 10
-67.6131953686992
 20
-112.5075153714723
 30
0.0
 11
-49.08293521636114
 21
-112.5075153714723
 31
0.0
  0
LINE
  5
178
330
1F
100
AcDbEntity
  8
躯体
  6
Continuous
 62
     2
370
     9
100
AcDbLine
 10
-132.9239090888367
 20
-95.0075082428487
 30
0.0
 11
-93.50996158944
 21
-105.5684749996621
 31
0.0
  0
LINE
  5
179
330
1F
100
AcDbEntity
  8
躯体
  6
JWW_DASHED1
 62
     2
370
     9
100
AcDbLine
 10
-93.50996158944
 20
-105.5684749996621
 30
0.0
 11
-67.6131953686992
 21
-112.5075153714723
 31
0.0
  0
LINE
  5
17A
330
1F
100
AcDbEntity
  8
通り芯
  6
JWW_HOJO
 62
     3
370
     9
100
AcDbLine
 10
-67.80883121952454
 20
-119.4691491200018
 30
0.0
 11
-66.39966844041248
 21
-119.7040013253739
 31
0.0
  0
LINE
  5
17B
330
1F
100
AcDbEntity
  8
通り芯
  6
JWW_DASHED1
 62
     3
370
     9
100
AcDbLine
 10
-59.80884353260146
 20
-136.8704093192356
 30
0.0
 11
-61.1702678940182
 21
-132.3323611457656
 31
0.0
  0
LINE
  5
17C
330
1F
100
AcDbEntity
  8
通り芯
  6
JWW_HOJO
 62
     3
370
     9
100
AcDbLine
 10
-61.7566799777066
 20
-131.6912740813539
 30
0.0
 11
-61.3088505139393
 21
-131.8703860481093
 31
0.0
  0
LINE
  5
17D
330
1F
100
AcDbEntity
  8
通り芯
  6
JWW_HOJO
 62
     3
370
     9
100
AcDbLine
 10
-61.17021834713939
 20
-132.3323115988869
 30
0.0
 11
-61.3088505139393
 21
-131.8703860481093
 31
0.0
  0
LINE
  5
17E
330
1F
100
AcDbEntity
  8
通り芯
  6
JWW_DASHED1
 62
     3
370
     9
100
AcDbLine
 10
-63.24036126248951
 20
-131.0978015674407
 30
0.0
 11
-61.75670475114601
 21
-131.6912740813539
 31
0.0
  0
LINE
  5
17F
330
1F
100
AcDbEntity
  8
通り芯
  6
JWW_HOJO
 62
     3
370
     9
100
AcDbLine
 10
-63.8648005756343
 20
-130.2606575037342
 30
0.0
 11
-63.80888692294173
 21
-130.8703813938841
 31
0.0
  0
LINE
  5
180
330
1F
100
AcDbEntity
  8
通り芯
  6
JWW_HOJO
 62
     3
370
     9
100
AcDbLine
 10
-63.80888692294173
 20
-130.8703813938841
 30
0.0
 11
-63.24036126248951
 21
-131.0978015674407
 31
0.0
  0
LINE
  5
181
330
1F
100
AcDbEntity
  8
通り芯
  6
JWW_DASHED1
 62
     3
370
     9
100
AcDbLine
 10
-66.39971798729121
 20
-119.7040013253739
 30
0.0
 11
-65.56980776788512
 21
-119.8423362109012
 31
0.0
  0
LINE
  5
182
330
1F
100
AcDbEntity
  8
通り芯
  6
JWW_DASHED1
 62
     3
370
     9
100
AcDbLine
 10
-64.73838636867652
 20
-120.7374005758905
 30
0.0
 11
-63.8648005756343
 21
-130.2606575037342
 31
0.0
  0
LINE
  5
183
330
1F
100
AcDbEntity
  8
通り芯
  6
JWW_HOJO
 62
     3
370
     9
100
AcDbLine
 10
-64.80884203028819
 20
-119.9691762205537
 30
0.0
 11
-64.73838636867652
 21
-120.7374005758905
 31
0.0
  0
LINE
  5
184
330
1F
100
AcDbEntity
  8
通り芯
  6
JWW_HOJO
 62
     3
370
     9
100
AcDbLine
 10
-65.56983254132453
 20
-119.8423362109012
 30
0.0
 11
-64.80884203028819
 21
-119.9691762205537
 31
0.0
  0
LINE
  5
185
330
1F
100
AcDbEntity
  8
躯体
  6
JWW_DASHED1
 62
     2
370
     9
100
AcDbLine
 10
-85.37525593913983
 20
-104.7873189089662
 30
0.0
 11
-85.01718064626544
 21
-106.6731722087294
 31
0.0
  0
LINE
  5
186
330
1F
100
AcDbEntity
  8
通り芯
  6
Continuous
 62
     3
370
     9
100
AcDbLine
 10
81.03754850610477
 20
-100.3917180119615
 30
0.0
 11
93.1032539711785
 21
-97.1586850784281
 31
0.0
  0
LINE
  5
187
330
1F
100
AcDbEntity
  8
通り芯
  6
JWW_DASHED1
 62
     3
370
     9
100
AcDbLine
 10
63.53055526757461
 20
-105.0827669470748
 30
0.0
 11
81.03754850610477
 21
-100.3917180119615
 31
0.0
  0
ARC
  5
188
330
1F
100
AcDbEntity
  8
通り芯
  6
Continuous
 62
     3
370
     9
100
AcDbCircle
 10
95.95026717221083
 20
-107.7838150432492
 30
0.0
 40
11.00000010125886
100
AcDbArc
 50
64.31965637207031
 51
105.0000762939453
  0
ARC
  5
189
330
1F
100
AcDbEntity
  8
通り芯
  6
Continuous
 62
     3
370
     9
100
AcDbCircle
 10
-162.5160797157974
 20
-107.7838150432491
 30
0.0
 40
11.00000010125886
100
AcDbArc
 50
74.99992370605469
 51
115.6803436279297
  0
ARC
  5
18A
330
1F
100
AcDbEntity
  8
通り芯
  6
Continuous
 62
     3
370
     9
100
AcDbCircle
 10
104.8342702701574
 20
-89.87038875816458
 30
0.0
 40
1.00000000920535
100
AcDbArc
 50
7.124771118164063
 51
90.0
  0
ARC
  5
18B
330
1F
100
AcDbEntity
  8
通り芯
  6
Continuous
 62
     3
370
     9
100
AcDbCircle
 10
10.17921941066933
 20
-122.483928052551
 30
0.0
 40
3.000000027616052
100
AcDbArc
 50
105.0002136230469
 51
165.37646484375
  0
ARC
  5
18C
330
1F
100
AcDbEntity
  8
通り芯
  6
Continuous
 62
     3
370
     9
100
AcDbCircle
 10
5.944447682153706
 20
-122.870393706961
 30
0.0
 40
1.00000000920535
100
AcDbArc
 50
270.0
 51
345.3772735595703
  0
ARC
  5
18D
330
1F
100
AcDbEntity
  8
通り芯
  6
Continuous
 62
     3
370
     9
100
AcDbCircle
 10
4.148175139207522
 20
-124.8703534685328
 30
0.0
 40
1.00000000920535
100
AcDbArc
 50
90.0
 51
175.9142456054688
  0
ARC
  5
18E
330
1F
100
AcDbEntity
  8
通り芯
  6
Continuous
 62
     3
370
     9
100
AcDbCircle
 10
-1.145116107361249
 20
-156.870353763104
 30
0.0
 40
2.000000018410701
100
AcDbArc
 50
270.0
 51
355.9144134521484
  0
ARC
  5
18F
330
1F
100
AcDbEntity
  8
通り芯
  6
Continuous
 62
     3
370
     9
100
AcDbCircle
 10
-65.42069643622528
 20
-156.870353763104
 30
0.0
 40
2.000000018410701
100
AcDbArc
 50
184.0855102539062
 51
270.0
  0
ARC
  5
190
330
1F
100
AcDbEntity
  8
通り芯
  6
Continuous
 62
     3
370
     9
100
AcDbCircle
 10
-70.71403722967287
 20
-124.8703534685328
 30
0.0
 40
1.00000000920535
100
AcDbArc
 50
4.085830688476562
 51
90.00000000000001
  0
ARC
  5
191
330
1F
100
AcDbEntity
  8
通り芯
  6
Continuous
 62
     3
370
     9
100
AcDbCircle
 10
-72.51030977261905
 20
-122.870393706961
 30
0.0
 40
1.00000000920535
100
AcDbArc
 50
194.6239471435547
 51
270.0
  0
ARC
  5
192
330
1F
100
AcDbEntity
  8
通り芯
  6
Continuous
 62
     3
370
     9
100
AcDbCircle
 10
-76.74508150113468
 20
-122.483928052551
 30
0.0
 40
3.000000027616052
100
AcDbArc
 50
14.62370300292969
 51
75.00006103515625
  0
ARC
  5
193
330
1F
100
AcDbEntity
  8
通り芯
  6
Continuous
 62
     3
370
     9
100
AcDbCircle
 10
-171.4001323606228
 20
-89.87038875816454
 30
0.0
 40
1.00000000920535
100
AcDbArc
 50
90.0
 51
172.8751678466797
  0
ARC
  5
194
330
1F
100
AcDbEntity
  8
通り芯
  6
Continuous
 62
     3
370
     9
100
AcDbCircle
 10
76.82140640400684
 20
-117.8703704358349
 30
0.0
 40
1.00000000920535
100
AcDbArc
 50
270.0
 51
353.7029266357422
  0
ARC
  5
195
330
1F
100
AcDbEntity
  8
通り芯
  6
Continuous
 62
     3
370
     9
100
AcDbCircle
 10
68.58755744928686
 20
-117.8703704358349
 30
0.0
 40
1.00000000920535
100
AcDbArc
 50
187.9217529296875
 51
270.0
  0
ARC
  5
196
330
1F
100
AcDbEntity
  8
通り芯
  6
Continuous
 62
     3
370
     9
100
AcDbCircle
 10
81.55516474862029
 20
-102.3235508152238
 30
0.0
 40
2.000000018410701
100
AcDbArc
 50
105.0002593994141
 51
173.7031860351562
  0
ARC
  5
197
330
1F
100
AcDbEntity
  8
通り芯
  6
Continuous
 62
     3
370
     9
100
AcDbCircle
 10
64.04817151009013
 20
-107.0145502034582
 30
0.0
 40
2.000000018410701
100
AcDbArc
 50
7.92143249511718
 51
105.0001983642578
  0
ARC
  5
198
330
1F
100
AcDbEntity
  8
通り芯
  6
Continuous
 62
     3
370
     9
100
AcDbCircle
 10
3.478202244472724
 20
-118.0677652008565
 30
0.0
 40
2.000000018410701
100
AcDbArc
 50
104.9992828369141
 51
170.5374298095703
  0
ARC
  5
199
330
1F
100
AcDbEntity
  8
通り芯
  6
Continuous
 62
     3
370
     9
100
AcDbCircle
 10
-0.5208254348528119
 20
-117.7312428002472
 30
0.0
 40
2.000000018410701
100
AcDbArc
 50
279.4617919921876
 51
350.5376739501954
  0
ARC
  5
19A
330
1F
100
AcDbEntity
  8
通り芯
  6
Continuous
 62
     3
370
     9
100
AcDbCircle
 10
-0.857546022977262
 20
-120.8287154734646
 30
0.0
 40
1.00000000920535
100
AcDbArc
 50
99.46075439453125
 51
174.7584686279297
  0
ARC
  5
19B
330
1F
100
AcDbEntity
  8
通り芯
  6
Continuous
 62
     3
370
     9
100
AcDbCircle
 10
-3.722792475397116
 20
-130.1692930592814
 30
0.0
 40
1.00000000920535
100
AcDbArc
 50
291.8019714355469
 51
354.7584686279296
  0
ARC
  5
19C
330
1F
100
AcDbEntity
  8
通り芯
  6
Continuous
 62
     3
370
     9
100
AcDbCircle
 10
-4.463666953652565
 20
-132.6197330426346
 30
0.0
 40
1.00000000920535
100
AcDbArc
 50
111.8021545410156
 51
163.3013305664062
  0
ARC
  5
19D
330
1F
100
AcDbEntity
  8
通り芯
  6
Continuous
 62
     3
370
     9
100
AcDbCircle
 10
-70.04406433493807
 20
-118.0677652008565
 30
0.0
 40
2.000000018410701
100
AcDbArc
 50
9.462493896484375
 51
74.99974060058595
  0
ARC
  5
19E
330
1F
100
AcDbEntity
  8
通り芯
  6
Continuous
 62
     3
370
     9
100
AcDbCircle
 10
-66.04493756185491
 20
-117.7312428002472
 30
0.0
 40
2.000000018410701
100
AcDbArc
 50
189.4623260498047
 51
198.6376953125
  0
ARC
  5
19F
330
1F
100
AcDbEntity
  8
通り芯
  6
Continuous
 62
     3
370
     9
100
AcDbCircle
 10
-55.18064481320858
 20
-119.3704021906121
 30
0.0
 40
1.00000000920535
100
AcDbArc
 50
6.170578002929687
 51
90.0
  0
ARC
  5
1A0
330
1F
100
AcDbEntity
  8
0-9
  6
Continuous
 62
     6
370
     9
100
AcDbCircle
 10
77.71706533154136
 20
-134.8703504639063
 30
0.0
 40
7.999998525302842
100
AcDbArc
 50
180.0
 51
270.0
  0
ARC
  5
1A1
330
1F
100
AcDbEntity
  8
0-9
  6
Continuous
 62
     6
370
     9
100
AcDbCircle
 10
77.71706533154136
 20
-134.8703504639063
 30
0.0
 40
1.99999963132571
100
AcDbArc
 50
180.0
 51
270.0
  0
ARC
  5
1A2
330
1F
100
AcDbEntity
  8
0-9
  6
JWW_CENTER1
 62
     6
370
     9
100
AcDbCircle
 10
77.71706533154136
 20
-134.8703504639063
 30
0.0
 40
5.000000046026752
100
AcDbArc
 50
180.0
 51
270.0
  0
ARC
  5
1A3
330
1F
100
AcDbEntity
  8
躯体
  6
Continuous
 62
     2
370
     9
100
AcDbCircle
 10
71.53961003331273
 20
-94.65438763785136
 30
0.0
 40
3.000000027616052
100
AcDbArc
 50
285.0002593994141
 51
333.1895599365234
  0
ARC
  5
1A4
330
1F
100
AcDbEntity
  8
躯体
  6
Continuous
 62
     2
370
     9
100
AcDbCircle
 10
-138.1053730300205
 20
-94.65438763785136
 30
0.0
 40
3.000000027616052
100
AcDbArc
 50
206.8104400634766
 51
254.9997406005859
  0
ARC
  5
1A5
330
1F
100
AcDbEntity
  8
躯体
  6
Continuous
 62
     2
370
     9
100
AcDbCircle
 10
7.544564132047354
 20
-107.0075145466728
 30
0.0
 40
1.00000000920535
100
AcDbArc
 50
90.0
 51
169.2130737304688
  0
ARC
  5
1A6
330
1F
100
AcDbEntity
  8
躯体
  6
Continuous
 62
     2
370
     9
100
AcDbCircle
 10
17.33582012716084
 20
-104.5074781376704
 30
0.0
 40
1.500000013808026
100
AcDbArc
 50
270.0
 51
349.2483825683593
  0
ARC
  5
1A7
330
1F
100
AcDbEntity
  8
躯体
  6
JWW_DASHED1
 62
     2
370
     9
100
AcDbCircle
 10
16.48653707815546
 20
-106.3000842115875
 30
0.0
 40
2.000000018410701
100
AcDbArc
 50
285.0003204345703
 51
349.2481231689453
  0
ARC
  5
1A8
330
1F
100
AcDbEntity
  8
躯体
  6
Continuous
 62
     2
370
     9
100
AcDbCircle
 10
26.16769990864083
 20
-102.6707257947687
 30
0.0
 40
3.000000027616052
100
AcDbArc
 50
188.8455200195313
 51
285.0002593994141
  0
ARC
  5
1A9
330
1F
100
AcDbEntity
  8
躯体
  6
Continuous
 62
     2
370
     9
100
AcDbCircle
 10
3.987345970718534
 20
-109.6492054820802
 30
0.0
 40
2.000000018410701
100
AcDbArc
 50
285.0002593994141
 51
349.2132568359375
  0
ARC
  5
1AA
330
1F
100
AcDbEntity
  8
躯体
  6
Continuous
 62
     2
370
     9
100
AcDbCircle
 10
-50.10268430177639
 20
-112.5075153714723
 30
0.0
 40
1.00000000920535
100
AcDbArc
 50
11.3099365234375
 51
90.0
  0
ARC
  5
1AB
330
1F
100
AcDbEntity
  8
躯体
  6
Continuous
 62
     2
370
     9
100
AcDbCircle
 10
-68.10266898407309
 20
-112.5075153714723
 30
0.0
 40
1.00000000920535
100
AcDbArc
 50
11.3099365234375
 51
90.0
  0
ARC
  5
1AC
330
1F
100
AcDbEntity
  8
躯体
  6
Continuous
 62
     2
370
     9
100
AcDbCircle
 10
-54.46310691485406
 20
-112.5075153714723
 30
0.0
 40
1.00000000920535
100
AcDbArc
 50
90.0
 51
168.6900634765625
  0
ARC
  5
1AD
330
1F
100
AcDbEntity
  8
躯体
  6
Continuous
 62
     2
370
     9
100
AcDbCircle
 10
-3.502110677353246
 20
-113.5074704788187
 30
0.0
 40
1.00000000920535
100
AcDbArc
 50
90.0
 51
165.9637603759766
  0
ARC
  5
1AE
330
1F
100
AcDbEntity
  8
0-8
  6
Continuous
 62
     4
370
     9
100
AcDbCircle
 10
13.71706474239894
 20
-104.907618730621
 30
0.0
 40
10.0000000920535
100
AcDbArc
 50
92.74565124511717
 51
126.8698272705078
  0
ARC
  5
1AF
330
1F
100
AcDbEntity
  8
0-8
  6
Continuous
 62
     4
370
     9
100
AcDbCircle
 10
13.71706474239894
 20
-104.907618730621
 30
0.0
 40
10.0000000920535
100
AcDbArc
 50
53.13008117675782
 51
87.25404357910156
  0
ARC
  5
1B0
330
1F
100
AcDbEntity
  8
0-8
  6
Continuous
 62
     4
370
     9
100
AcDbCircle
 10
17.11702111051017
 20
-99.75756751057769
 30
0.0
 40
0.2500000023013376
100
AcDbArc
 50
90.0
 51
150.6707763671875
  0
ARC
  5
1B1
330
1F
100
AcDbEntity
  8
0-8
  6
Continuous
 62
     4
370
     9
100
AcDbCircle
 10
10.31710837428764
 20
-99.75756751057769
 30
0.0
 40
0.2500000023013376
100
AcDbArc
 50
29.32913208007813
 51
90.0
  0
ARC
  5
1B2
330
1F
100
AcDbEntity
  8
0-8
  6
Continuous
 62
     4
370
     9
100
AcDbCircle
 10
-80.28292683286429
 20
-104.907618730621
 30
0.0
 40
10.0000000920535
100
AcDbArc
 50
53.13017272949218
 51
87.25434875488281
  0
ARC
  5
1B3
330
1F
100
AcDbEntity
  8
0-8
  6
Continuous
 62
     4
370
     9
100
AcDbCircle
 10
-80.28292683286429
 20
-104.907618730621
 30
0.0
 40
10.0000000920535
100
AcDbArc
 50
92.74595642089844
 51
126.8699188232422
  0
ARC
  5
1B4
330
1F
100
AcDbEntity
  8
0-8
  6
Continuous
 62
     4
370
     9
100
AcDbCircle
 10
-83.68283365409678
 20
-99.75756751057769
 30
0.0
 40
0.2500000023013376
100
AcDbArc
 50
29.3292236328125
 51
90.0
  0
ARC
  5
1B5
330
1F
100
AcDbEntity
  8
0-8
  6
Continuous
 62
     4
370
     9
100
AcDbCircle
 10
-76.88292091787417
 20
-99.75756751057769
 30
0.0
 40
0.2500000023013376
100
AcDbArc
 50
90.0
 51
150.6708679199219
  0
ARC
  5
1B6
330
1F
100
AcDbEntity
  8
躯体
  6
Continuous
 62
     2
370
     9
100
AcDbCircle
 10
-74.11037667563389
 20
-107.0075145466728
 30
0.0
 40
1.00000000920535
100
AcDbArc
 50
10.78692626953124
 51
89.99999999999999
  0
ARC
  5
1B7
330
1F
100
AcDbEntity
  8
躯体
  6
Continuous
 62
     2
370
     9
100
AcDbCircle
 10
-83.90163267074729
 20
-104.5074781376704
 30
0.0
 40
1.500000013808026
100
AcDbArc
 50
190.7516174316406
 51
270.0
  0
ARC
  5
1B8
330
1F
100
AcDbEntity
  8
躯体
  6
Continuous
 62
     2
370
     9
100
AcDbCircle
 10
-92.73351245222736
 20
-102.6707257947687
 30
0.0
 40
3.000000027616052
100
AcDbArc
 50
254.9997406005859
 51
351.1544799804688
  0
ARC
  5
1B9
330
1F
100
AcDbEntity
  8
躯体
  6
Continuous
 62
     2
370
     9
100
AcDbCircle
 10
-70.55315851430498
 20
-109.6492054820802
 30
0.0
 40
2.000000018410701
100
AcDbArc
 50
190.7867431640625
 51
254.9997406005859
  0
ARC
  5
1BA
330
1F
100
AcDbEntity
  8
0-9
  6
Continuous
 62
     4
370
     9
100
AcDbCircle
 10
-55.65931720901052
 20
-107.807597545059
 30
0.0
 40
2.800173594684674
100
AcDbArc
 50
47.92541503906249
 51
132.0744781494141
  0
ARC
  5
1BB
330
1F
100
AcDbEntity
  8
0-9
  6
Continuous
 62
     4
370
     9
100
AcDbCircle
 10
-61.28288794946358
 20
-115.096884802898
 30
0.0
 40
10.08940975730484
100
AcDbArc
 50
68.19790649414061
 51
111.8021850585937
  0
ARC
  5
1BC
330
1F
100
AcDbEntity
  8
0-9
  6
Continuous
 62
     4
370
     9
100
AcDbCircle
 10
-66.90655778367417
 20
-107.807597545059
 30
0.0
 40
2.80018907808429
100
AcDbArc
 50
47.92576599121094
 51
132.0743255615234
  0
ARC
  5
1BD
330
1F
100
AcDbEntity
  8
通り芯
  6
JWW_DASHED1
 62
     3
370
     9
100
AcDbCircle
 10
-65.73420431164567
 20
-120.8287154734646
 30
0.0
 40
1.00000000920535
100
AcDbArc
 50
5.241043090820312
 51
80.5371856689453
  0
ARC
  5
1BE
330
1F
100
AcDbEntity
  8
通り芯
  6
JWW_DASHED1
 62
     3
370
     9
100
AcDbCircle
 10
-62.86898263266514
 20
-130.1693426061601
 30
0.0
 40
1.00000000920535
100
AcDbArc
 50
185.2415313720703
 51
248.1989593505859
  0
ARC
  5
1BF
330
1F
100
AcDbEntity
  8
通り芯
  6
JWW_DASHED1
 62
     3
370
     9
100
AcDbCircle
 10
-62.12808338097029
 20
-132.6197330426346
 30
0.0
 40
1.00000000920535
100
AcDbArc
 50
16.69895935058594
 51
68.19784545898438
  0
ARC
  5
1C0
330
1F
100
AcDbEntity
  8
通り芯
  6
JWW_DASHED1
 62
     3
370
     9
100
AcDbCircle
 10
-66.07090012633071
 20
-117.7312428002472
 30
0.0
 40
2.000000018410701
100
AcDbArc
 50
198.6376953125
 51
260.5377197265625
  0
ARC
  5
1C1
330
1F
100
AcDbEntity
  8
躯体
  6
JWW_DASHED1
 62
     2
370
     9
100
AcDbCircle
 10
-83.052349621742
 20
-106.3000842115875
 30
0.0
 40
2.000000018410701
100
AcDbArc
 50
190.7518768310547
 51
254.9996795654297
  0
LINE
  5
1C2
330
1F
100
AcDbEntity
  8
その他
  6
Continuous
 62
     7
370
     9
100
AcDbLine
 10
122.8239674437478
 20
-123.8703983611863
 30
0.0
 11
122.8239674437478
 21
-88.87038410393934
 31
0.0
  0
LINE
  5
1C3
330
1F
100
AcDbEntity
  8
その他
  6
Continuous
 62
     7
370
     9
100
AcDbLine
 10
122.8239674437478
 20
-123.8703983611863
 30
0.0
 11
121.8450210020972
 21
-116.4345619008827
 31
0.0
  0
LINE
  5
1C4
330
1F
100
AcDbEntity
  8
その他
  6
Continuous
 62
     7
370
     9
100
AcDbLine
 10
122.8239674437478
 20
-123.8703983611863
 30
0.0
 11
123.802913885398
 21
-116.4345619008827
 31
0.0
  0
LINE
  5
1C5
330
1F
100
AcDbEntity
  8
その他
  6
Continuous
 62
     7
370
     9
100
AcDbLine
 10
122.8239674437478
 20
-88.87038410393934
 30
0.0
 11
121.8450210020972
 21
-96.30622056424293
 31
0.0
  0
LINE
  5
1C6
330
1F
100
AcDbEntity
  8
その他
  6
Continuous
 62
     7
370
     9
100
AcDbLine
 10
122.8239674437478
 20
-88.87038410393934
 30
0.0
 11
123.802913885398
 21
-96.30622056424293
 31
0.0
  0
LINE
  5
1C7
330
1F
100
AcDbEntity
  8
その他
  6
Continuous
 62
     7
370
     9
100
AcDbLine
 10
123.7239674437476
 20
-123.8703983611863
 30
0.0
 11
12.71708170970106
 21
-123.8703983611863
 31
0.0
  0
TEXT
  5
1C8
330
1F
100
AcDbEntity
  8
その他
  6
Continuous
 62
     2
370
   211
100
AcDbText
 10
118.1319674437478
 20
-112.7453912325628
 30
0.0
 40
9.144
  1
35
 50
90.0
 41
1.062499999999998
  7
ＭＳ ゴシック
100
AcDbText
  0
LINE
  5
1C9
330
1F
100
AcDbEntity
  8
通り芯
  6
Continuous
 62
     3
370
     9
100
AcDbLine
 10
-166.2958129096847
 20
-97.45358810087012
 30
0.0
 11
-73.70201130080736
 21
-122.2640885514463
 31
0.0
  0
LINE
  5
1CA
330
1F
100
AcDbEntity
  8
その他
  6
Continuous
 62
     7
370
     9
100
AcDbLine
 10
-196.726849726175
 20
-106.0075098924476
 30
0.0
 11
-197.7057961678254
 21
-98.57167343214401
 31
0.0
  0
LINE
  5
1CB
330
1F
100
AcDbEntity
  8
その他
  6
Continuous
 62
     7
370
     9
100
AcDbLine
 10
-196.726849726175
 20
-106.0075098924476
 30
0.0
 11
-195.7479032845246
 21
-98.57167343214401
 31
0.0
  0
LINE
  5
1CC
330
1F
100
AcDbEntity
  8
寸法
  6
Continuous
 62
     7
370
     9
100
AcDbLine
 10
22.71710663042603
 20
-100.0075315139749
 30
0.0
 11
23.69607754469979
 21
-92.57171740396649
 31
0.0
  0
LINE
  5
1CD
330
1F
100
AcDbEntity
  8
寸法
  6
Continuous
 62
     7
370
     9
100
AcDbLine
 10
22.71710663042603
 20
-100.0075315139749
 30
0.0
 11
25.58721062113557
 21
-93.07846178873211
 31
0.0
  0
TEXT
  5
1CE
330
1F
100
AcDbEntity
  8
寸法
  6
Continuous
 62
     7
370
     9
100
AcDbText
 10
110.3526533675686
 20
100.2466431522512
 30
0.0
 40
6.858000000000001
  1
樹脂系塗装
 41
1.133333333333333
  7
ＭＳ ゴシック
100
AcDbText
  0
LINE
  5
1CF
330
1F
100
AcDbEntity
  8
寸法
  6
Continuous
 62
     7
370
     9
100
AcDbLine
 10
22.71710663042603
 20
-100.0075315139749
 30
0.0
 11
78.98857026482216
 21
110.0004562790988
 31
0.0
  0
LINE
  5
1D0
330
1F
100
AcDbEntity
  8
寸法
  6
Continuous
 62
     7
370
     9
100
AcDbLine
 10
78.98857026482216
 20
110.0004562790988
 30
0.0
 11
197.8788638431812
 21
110.0004562790988
 31
0.0
  0
TEXT
  5
1D1
330
1F
100
AcDbEntity
  8
寸法
  6
Continuous
 62
     7
370
     9
100
AcDbText
 10
106.2071737353697
 20
138.2867770445014
 30
0.0
 40
6.858000000000001
  1
Ｍ６×１２
 41
1.133333333333333
  7
ＭＳ ゴシック
100
AcDbText
  0
TEXT
  5
1D2
330
1F
100
AcDbEntity
  8
寸法
  6
Continuous
 62
     7
370
     9
100
AcDbText
 10
84.7522002227735
 20
113.790039148345
 30
0.0
 40
6.858000000000001
  1
防水層押え：ＦＣ１５０
 41
1.151515151515151
  7
ＭＳ ゴシック
100
AcDbText
  0
LINE
  5
1D3
330
1F
100
AcDbEntity
  8
寸法
  6
Continuous
 62
     7
370
     9
100
AcDbLine
 10
14.19623260698859
 20
-94.91891842360708
 30
0.0
 11
17.06633659769813
 21
-87.98981158239091
 31
0.0
  0
LINE
  5
1D4
330
1F
100
AcDbEntity
  8
寸法
  6
Continuous
 62
     7
370
     9
100
AcDbLine
 10
14.19623260698859
 20
-94.91891842360708
 30
0.0
 11
15.17520352126235
 21
-87.48306719762529
 31
0.0
  0
LINE
  5
1D5
330
1F
100
AcDbEntity
  8
寸法
  6
Continuous
 62
     7
370
     9
100
AcDbLine
 10
14.19623260698859
 20
-94.91891842360708
 30
0.0
 11
79.32737722491524
 21
148.1534291267399
 31
0.0
  0
LINE
  5
1D6
330
1F
100
AcDbEntity
  8
寸法
  6
Continuous
 62
     7
370
     9
100
AcDbLine
 10
-173.2829633007809
 20
-96.8703717908624
 30
0.0
 11
-177.84867342008
 21
-102.820507717805
 31
0.0
  0
LINE
  5
1D7
330
1F
100
AcDbEntity
  8
寸法
  6
Continuous
 62
     7
370
     9
100
AcDbLine
 10
-173.2829633007809
 20
-96.8703717908624
 30
0.0
 11
-176.1531044074639
 21
-103.7994786320786
 31
0.0
  0
TEXT
  5
1D8
330
1F
100
AcDbEntity
  8
寸法
  6
Continuous
 62
     7
370
     9
100
AcDbText
 10
-261.761876289225
 20
-139.4892243516101
 30
0.0
 40
6.858000000000001
  1
樹脂系塗装
 41
1.133333333333333
  7
ＭＳ ゴシック
100
AcDbText
  0
TEXT
  5
1D9
330
1F
100
AcDbEntity
  8
寸法
  6
Continuous
 62
     7
370
     9
100
AcDbText
 10
-275.4206881161886
 20
-126.7409638535633
 30
0.0
 40
6.858000000000001
  1
本体：ＦＣ１５０
 41
1.145833333333333
  7
ＭＳ ゴシック
100
AcDbText
  0
LINE
  5
1DA
330
1F
100
AcDbEntity
  8
寸法
  6
Continuous
 62
     7
370
     9
100
AcDbLine
 10
-278.1525041760228
 20
-130.3351311228834
 30
0.0
 11
-192.603813893903
 21
-130.3351311228834
 31
0.0
  0
LINE
  5
1DB
330
1F
100
AcDbEntity
  8
寸法
  6
Continuous
 62
     7
370
     9
100
AcDbLine
 10
-173.2829633007809
 20
-96.8703717908624
 30
0.0
 11
-192.603813893903
 21
-130.3351311228834
 31
0.0
  0
LINE
  5
1DC
330
1F
100
AcDbEntity
  8
寸法
  6
Continuous
 62
     7
370
     9
100
AcDbLine
 10
-88.69891454703878
 20
-215.5716606778865
 30
0.0
 11
-194.5705757864534
 21
-215.5716606778865
 31
0.0
  0
LINE
  5
1DD
330
1F
100
AcDbEntity
  8
寸法
  6
Continuous
 62
     7
370
     9
100
AcDbLine
 10
-73.2828942532876
 20
-188.8703540576751
 30
0.0
 11
-88.69891454703878
 21
-215.5716606778865
 31
0.0
  0
LINE
  5
1DE
330
1F
100
AcDbEntity
  8
寸法
  6
Continuous
 62
     7
370
     9
100
AcDbLine
 10
-73.2828942532876
 20
-188.8703540576751
 30
0.0
 11
-77.84860437258666
 21
-194.8204899846177
 31
0.0
  0
LINE
  5
1DF
330
1F
100
AcDbEntity
  8
寸法
  6
Continuous
 62
     7
370
     9
100
AcDbLine
 10
-73.2828942532876
 20
-188.8703540576751
 30
0.0
 11
-76.15307247594384
 21
-195.7994608988914
 31
0.0
  0
LINE
  5
1E0
330
1F
100
AcDbEntity
  8
寸法
  6
Continuous
 62
     7
370
     9
100
AcDbLine
 10
77.71706533154136
 20
-142.8703489892091
 30
0.0
 11
82.28277604910679
 21
-148.8204990413934
 31
0.0
  0
LINE
  5
1E1
330
1F
100
AcDbEntity
  8
寸法
  6
Continuous
 62
     7
370
     9
100
AcDbLine
 10
77.71706533154136
 20
-142.8703489892091
 30
0.0
 11
80.58719107427956
 21
-149.7994454830438
 31
0.0
  0
LINE
  5
1E2
330
1F
100
AcDbEntity
  8
その他
  6
Continuous
 62
     7
370
     9
100
AcDbLine
 10
-63.08996171198164
 20
-211.2945718439615
 30
0.0
 11
-3.475900378483631
 21
-211.2945718439615
 31
0.0
  0
LINE
  5
1E3
330
1F
100
AcDbEntity
  8
その他
  6
Continuous
 62
     7
370
     9
100
AcDbLine
 10
-63.08996171198164
 20
-211.2945718439615
 30
0.0
 11
-55.65412525167802
 21
-210.3156254023111
 31
0.0
  0
LINE
  5
1E4
330
1F
100
AcDbEntity
  8
その他
  6
Continuous
 62
     7
370
     9
100
AcDbLine
 10
-63.08996171198164
 20
-211.2945718439615
 30
0.0
 11
-55.65412525167802
 21
-212.2735182856119
 31
0.0
  0
LINE
  5
1E5
330
1F
100
AcDbEntity
  8
その他
  6
Continuous
 62
     7
370
     9
100
AcDbLine
 10
-3.475900378483631
 20
-211.2945718439615
 30
0.0
 11
-10.91173683878725
 21
-210.3156254023111
 31
0.0
  0
LINE
  5
1E6
330
1F
100
AcDbEntity
  8
その他
  6
Continuous
 62
     7
370
     9
100
AcDbLine
 10
-3.475900378483631
 20
-211.2945718439615
 30
0.0
 11
-10.91173683878725
 21
-212.2735182856119
 31
0.0
  0
LINE
  5
1E7
330
1F
100
AcDbEntity
  8
その他
  6
Continuous
 62
     7
370
     9
100
AcDbLine
 10
-63.08996171198164
 20
-212.1945718439615
 30
0.0
 11
-63.08996171198164
 21
-164.8703630715544
 31
0.0
  0
LINE
  5
1E8
330
1F
100
AcDbEntity
  8
その他
  6
Continuous
 62
     7
370
     9
100
AcDbLine
 10
-3.475900378483631
 20
-212.1945718439615
 30
0.0
 11
-3.475900378483631
 21
-164.8703630715544
 31
0.0
  0
LINE
  5
1E9
330
1F
100
AcDbEntity
  8
その他
  6
Continuous
 62
     7
370
     9
100
AcDbLine
 10
-73.2828942532876
 20
-234.7535382000524
 30
0.0
 11
6.717081709701061
 21
-234.7535382000524
 31
0.0
  0
LINE
  5
1EA
330
1F
100
AcDbEntity
  8
その他
  6
Continuous
 62
     7
370
     9
100
AcDbLine
 10
-73.2828942532876
 20
-234.7535382000524
 30
0.0
 11
-65.84705779298397
 21
-233.774591758402
 31
0.0
  0
LINE
  5
1EB
330
1F
100
AcDbEntity
  8
その他
  6
Continuous
 62
     7
370
     9
100
AcDbLine
 10
-73.2828942532876
 20
-234.7535382000524
 30
0.0
 11
-65.84705779298397
 21
-235.7324846417028
 31
0.0
  0
LINE
  5
1EC
330
1F
100
AcDbEntity
  8
その他
  6
Continuous
 62
     7
370
     9
100
AcDbLine
 10
6.717081709701061
 20
-234.7535382000524
 30
0.0
 11
-0.7187547506025584
 21
-233.774591758402
 31
0.0
  0
LINE
  5
1ED
330
1F
100
AcDbEntity
  8
その他
  6
Continuous
 62
     7
370
     9
100
AcDbLine
 10
6.717081709701061
 20
-234.7535382000524
 30
0.0
 11
-0.7187547506025584
 21
-235.7324846417028
 31
0.0
  0
LINE
  5
1EE
330
1F
100
AcDbEntity
  8
その他
  6
Continuous
 62
     7
370
     9
100
AcDbLine
 10
-73.2828942532876
 20
-235.6535382000524
 30
0.0
 11
-73.2828942532876
 21
-194.8703540576751
 31
0.0
  0
LINE
  5
1EF
330
1F
100
AcDbEntity
  8
その他
  6
Continuous
 62
     7
370
     9
100
AcDbLine
 10
6.717081709701061
 20
-235.6535382000524
 30
0.0
 11
6.717081709701061
 21
-194.8703540576751
 31
0.0
  0
TEXT
  5
1F0
330
1F
100
AcDbEntity
  8
その他
  6
Continuous
 62
     2
370
   211
100
AcDbText
 10
-43.03293104523263
 20
-206.6025718439615
 30
0.0
 40
9.144
  1
Rc2
 41
1.083333333333333
  7
ＭＳ ゴシック
100
AcDbText
  0
TEXT
  5
1F1
330
1F
100
AcDbEntity
  8
その他
  6
Continuous
 62
     2
370
   211
100
AcDbText
 10
-46.40790627179322
 20
-230.0615382000524
 30
0.0
 40
9.144
  1
φ80
 41
1.09375
  7
ＭＳ ゴシック
100
AcDbText
  0
LINE
  5
1F2
330
1F
100
AcDbEntity
  8
0-F
  6
Continuous
 62
     3
370
     9
100
AcDbLine
 10
69.5420780688008
 20
-109.6703619993152
 30
0.0
 11
75.89200605202959
 21
-109.6703619993152
 31
0.0
  0
LINE
  5
1F3
330
1F
100
AcDbEntity
  8
0-F
  6
Continuous
 62
     3
370
     9
100
AcDbLine
 10
69.5420780688008
 20
-109.6703619993152
 30
0.0
 11
70.35702513081819
 21
-108.8703780946865
 31
0.0
  0
LINE
  5
1F4
330
1F
100
AcDbEntity
  8
0-F
  6
Continuous
 62
     3
370
     9
100
AcDbLine
 10
75.07715808376972
 20
-108.8703780946865
 30
0.0
 11
75.89200605202959
 21
-109.6703619993152
 31
0.0
  0
LINE
  5
1F5
330
1F
100
AcDbEntity
  8
0-F
  6
Continuous
 62
     3
370
     9
100
AcDbLine
 10
70.35702513081819
 20
-108.8703780946865
 30
0.0
 11
75.07715808376972
 21
-108.8703780946865
 31
0.0
  0
LINE
  5
1F6
330
1F
100
AcDbEntity
  8
0-F
  6
Continuous
 62
     3
370
     9
100
AcDbLine
 10
75.07715808376972
 20
-118.8703750900601
 30
0.0
 11
75.07715808376972
 21
-107.8703734404613
 31
0.0
  0
LINE
  5
1F7
330
1F
100
AcDbEntity
  8
0-F
  6
Continuous
 62
     3
370
     9
100
AcDbLine
 10
70.35702513081819
 20
-118.8703750900601
 30
0.0
 11
70.35702513081819
 21
-107.8703734404613
 31
0.0
  0
LINE
  5
1F8
330
1F
100
AcDbEntity
  8
0-F
  6
Continuous
 62
     3
370
     9
100
AcDbLine
 10
69.5420780688008
 20
-118.8703750900601
 30
0.0
 11
69.5420780688008
 21
-109.6703619993152
 31
0.0
  0
LINE
  5
1F9
330
1F
100
AcDbEntity
  8
0-F
  6
Continuous
 62
     3
370
     9
100
AcDbLine
 10
75.89200605202959
 20
-118.8703750900601
 30
0.0
 11
75.89200605202959
 21
-109.6703619993152
 31
0.0
  0
LINE
  5
1FA
330
1F
100
AcDbEntity
  8
0-F
  6
Continuous
 62
     3
370
     9
100
AcDbLine
 10
70.35702513081819
 20
-107.8703734404613
 30
0.0
 11
75.07715808376972
 21
-107.8703734404613
 31
0.0
  0
LINE
  5
1FB
330
1F
100
AcDbEntity
  8
0-F
  6
Continuous
 62
     3
370
     9
100
AcDbLine
 10
75.07715808376972
 20
-107.8703734404613
 30
0.0
 11
72.71709160729395
 21
-106.5078342742722
 31
0.0
  0
LINE
  5
1FC
330
1F
100
AcDbEntity
  8
0-F
  6
Continuous
 62
     3
370
     9
100
AcDbLine
 10
70.35702513081819
 20
-107.8703734404613
 30
0.0
 11
72.71709160729395
 21
-106.5078342742722
 31
0.0
  0
LINE
  5
1FD
330
1F
100
AcDbEntity
  8
仕上
  6
Continuous
 62
     6
370
     9
100
AcDbLine
 10
17.71707534696282
 20
-101.0074856197793
 30
0.0
 11
16.71712648452609
 21
-99.95623399845933
 31
0.0
  0
LINE
  5
1FE
330
1F
100
AcDbEntity
  8
仕上
  6
Continuous
 62
     6
370
     9
100
AcDbLine
 10
-69.79374295773982
 20
-36.00752002569747
 30
0.0
 11
3.227895419092702
 21
-36.00752002569749
 31
0.0
  0
LINE
  5
1FF
330
1F
100
AcDbEntity
  8
仕上
  6
Continuous
 62
     6
370
     9
100
AcDbLine
 10
6.717077939189435
 20
-106.0075098924476
 30
0.0
 11
8.217071222965698
 21
-100.5324976618506
 31
0.0
  0
LINE
  5
200
330
1F
100
AcDbEntity
  8
仕上
  6
Continuous
 62
     6
370
     9
100
AcDbLine
 10
7.717131786808009
 20
-100.5075111885609
 30
0.0
 11
3.227895419092702
 21
-36.00752002569749
 31
0.0
  0
LINE
  5
201
330
1F
100
AcDbEntity
  8
仕上
  6
Continuous
 62
     6
370
     9
100
AcDbLine
 10
8.217071222965698
 20
-100.5324976618506
 30
0.0
 11
7.679582086752218
 21
-99.9673974228002
 31
0.0
  0
LINE
  5
202
330
1F
100
AcDbEntity
  8
仕上
  6
Continuous
 62
     6
370
     9
100
AcDbLine
 10
16.87785879799895
 20
-105.2036033596592
 30
0.0
 11
17.71707534696282
 21
-101.0074856197793
 31
0.0
  0
LINE
  5
203
330
1F
100
AcDbEntity
  8
仕上
  6
Continuous
 62
     6
370
     9
100
AcDbLine
 10
3.394646882993781
 20
-103.2157789307032
 30
0.0
 11
-1.28296789609192
 21
-36.00752002569747
 31
0.0
  0
LINE
  5
204
330
1F
100
AcDbEntity
  8
仕上
  6
Continuous
 62
     6
370
     9
100
AcDbLine
 10
-73.28289048277597
 20
-106.0075098924476
 30
0.0
 11
-74.78288376655223
 21
-100.5324976618506
 31
0.0
  0
LINE
  5
205
330
1F
100
AcDbEntity
  8
仕上
  6
Continuous
 62
     6
370
     9
100
AcDbLine
 10
-74.78288376655223
 20
-100.5324976618506
 30
0.0
 11
-74.24539463033875
 21
-99.9673974228002
 31
0.0
  0
LINE
  5
206
330
1F
100
AcDbEntity
  8
仕上
  6
Continuous
 62
     6
370
     9
100
AcDbLine
 10
-83.4436713415854
 20
-105.2036033596592
 30
0.0
 11
-84.28288789054926
 21
-101.0074856197793
 31
0.0
  0
LINE
  5
207
330
1F
100
AcDbEntity
  8
仕上
  6
Continuous
 62
     6
370
     9
100
AcDbLine
 10
-69.96045942658031
 20
-103.2157789307032
 30
0.0
 11
-65.28284464749453
 21
-36.00752002569747
 31
0.0
  0
LINE
  5
208
330
1F
100
AcDbEntity
  8
仕上
  6
Continuous
 62
     6
370
     9
100
AcDbLine
 10
-74.28294433039454
 20
-100.5075111885609
 30
0.0
 11
-69.79370796267915
 21
-36.00752002569747
 31
0.0
  0
LINE
  5
209
330
1F
100
AcDbEntity
  8
仕上
  6
Continuous
 62
     6
370
     9
100
AcDbLine
 10
-84.28288789054926
 20
-101.0074856197793
 30
0.0
 11
-82.95587519146625
 21
-100.9411349848251
 31
0.0
  0
LINE
  5
20A
330
1F
100
AcDbEntity
  8
仕上
  6
Continuous
 62
     6
370
     9
100
AcDbLine
 10
-77.68675640008496
 20
-100.6776921684037
 30
0.0
 11
-74.28294433039454
 21
-100.5075111885609
 31
0.0
  0
LINE
  5
20B
330
1F
100
AcDbEntity
  8
仕上
  6
Continuous
 62
     6
370
     9
100
AcDbLine
 10
-77.1079905898585
 20
-99.64750757358294
 30
0.0
 11
-74.21298920419554
 21
-99.50273300775736
 31
0.0
  0
LINE
  5
20C
330
1F
100
AcDbEntity
  8
仕上
  6
Continuous
 62
     6
370
     9
100
AcDbLine
 10
7.571762304951703
 20
-106.0075098924476
 30
0.0
 11
-54.06229087010184
 21
-106.0075098924476
 31
0.0
  0
LINE
  5
20D
330
1F
100
AcDbEntity
  8
仕上
  6
Continuous
 62
     6
370
     9
100
AcDbLine
 10
-68.50366754515159
 20
-106.0075098924476
 30
0.0
 11
-74.13760984359891
 21
-106.0075098924476
 31
0.0
  0
LINE
  5
20E
330
1F
100
AcDbEntity
  8
仕上
  6
Continuous
 62
     6
370
     9
100
AcDbLine
 10
-84.28288789054926
 20
-101.0074856197793
 30
0.0
 11
-83.28388389474961
 21
-99.95728385027816
 31
0.0
  0
LINE
  5
20F
330
1F
100
AcDbEntity
  8
仕上
  6
Continuous
 62
     6
370
     9
100
AcDbLine
 10
17.71707534696282
 20
-101.0074856197793
 30
0.0
 11
16.3900626478798
 21
-100.9410999897645
 31
0.0
  0
LINE
  5
210
330
1F
100
AcDbEntity
  8
仕上
  6
Continuous
 62
     6
370
     9
100
AcDbLine
 10
10.54217804627205
 20
-99.64750757358298
 30
0.0
 11
7.647176660609004
 21
-99.5027330077574
 31
0.0
  0
LINE
  5
211
330
1F
100
AcDbEntity
  8
仕上
  6
Continuous
 62
     6
370
     9
100
AcDbLine
 10
11.12092635896809
 20
-100.6776921684038
 30
0.0
 11
7.717131786808009
 21
-100.5075111885609
 31
0.0
  0
ARC
  5
212
330
1F
100
AcDbEntity
  8
仕上
  6
Continuous
 62
     6
370
     9
100
AcDbCircle
 10
-72.95320201658242
 20
-103.0074883298344
 30
0.0
 40
2.999999964099133
100
AcDbArc
 50
270.0001525878906
 51
356.0186767578126
  0
ARC
  5
213
330
1F
100
AcDbEntity
  8
仕上
  6
Continuous
 62
     6
370
     9
100
AcDbCircle
 10
6.38738947299589
 20
-103.0074883298345
 30
0.0
 40
2.999999964099133
100
AcDbArc
 50
183.9813232421875
 51
269.9998474121094
  0
ARC
  5
214
330
1F
100
AcDbEntity
  8
仕上
  6
Continuous
 62
     6
370
     9
100
AcDbCircle
 10
-82.4631447377983
 20
-105.0074910398897
 30
0.0
 40
0.999999988033044
100
AcDbArc
 50
191.3099365234376
 51
214.9358367919922
  0
LINE
  5
215
330
1F
100
AcDbEntity
  8
0-C
  6
JWW_PHANTOM1
 62
     4
370
     9
100
AcDbLine
 10
-63.59706258683455
 20
-45.50325475229764
 30
0.0
 11
-64.52548154534384
 21
-46.3107657763309
 31
0.0
  0
LINE
  5
216
330
1F
100
AcDbEntity
  8
0-C
  6
JWW_PHANTOM1
 62
     4
370
     9
100
AcDbLine
 10
-63.30128433439129
 20
-41.25355957459342
 30
0.0
 11
-64.10879535842454
 21
-40.32521060620545
 31
0.0
  0
LINE
  5
217
330
1F
100
AcDbEntity
  8
0-C
  6
JWW_PHANTOM1
 62
     4
370
     9
100
AcDbLine
 10
-64.10879535842454
 20
-40.32521060620545
 30
0.0
 11
-64.52548154534384
 21
-46.3107657763309
 31
0.0
  0
LINE
  5
218
330
1F
100
AcDbEntity
  8
0-C
  6
JWW_PHANTOM1
 62
     4
370
     9
100
AcDbLine
 10
-75.56813793202491
 20
-44.6699173735196
 30
0.0
 11
-63.59706258683455
 21
-45.50325475229764
 31
0.0
  0
LINE
  5
219
330
1F
100
AcDbEntity
  8
0-C
  6
JWW_PHANTOM1
 62
     4
370
     9
100
AcDbLine
 10
-75.27228968946031
 20
-40.42018720075479
 30
0.0
 11
-63.30128433439129
 21
-41.25355957459342
 31
0.0
  0
LINE
  5
21A
330
1F
100
AcDbEntity
  8
0-C
  6
JWW_PHANTOM1
 62
     4
370
     9
100
AcDbLine
 10
-77.8241645056479
 20
-47.20789915063713
 30
0.0
 11
-75.7674697973724
 21
-47.53307325400944
 31
0.0
  0
LINE
  5
21B
330
1F
100
AcDbEntity
  8
0-C
  6
JWW_PHANTOM1
 62
     4
370
     9
100
AcDbLine
 10
-79.11453737625152
 20
-39.45495343846292
 30
0.0
 11
-79.50707697133626
 21
-45.09349758738305
 31
0.0
  0
LINE
  5
21C
330
1F
100
AcDbEntity
  8
0-C
  6
JWW_PHANTOM1
 62
     4
370
     9
100
AcDbLine
 10
-75.07299281917349
 20
-37.55717130050741
 30
0.0
 11
-75.7674697973724
 21
-47.53307325400944
 31
0.0
  0
LINE
  5
21D
330
1F
100
AcDbEntity
  8
0-C
  6
JWW_PHANTOM1
 62
     4
370
     9
100
AcDbLine
 10
-77.15491896616314
 20
-37.59423106971443
 30
0.0
 11
-75.07299281917349
 21
-37.55717130050741
 31
0.0
  0
LINE
  5
21E
330
1F
100
AcDbEntity
  8
0-C
  6
JWW_CENTER1
 62
     4
370
     9
100
AcDbLine
 10
-81.45059765353489
 20
-42.12539152006432
 30
0.0
 11
-61.38876927591065
 21
-43.52186941449751
 31
0.0
  0
LINE
  5
21F
330
1F
100
AcDbEntity
  8
0-C
  6
JWW_PHANTOM1
 62
     4
370
     9
100
AcDbLine
 10
-75.21192320987393
 20
-39.55230969713509
 30
0.0
 11
-64.10879535842454
 21
-40.32521060620545
 31
0.0
  0
LINE
  5
220
330
1F
100
AcDbEntity
  8
0-C
  6
JWW_PHANTOM1
 62
     4
370
     9
100
AcDbLine
 10
-63.30131932945188
 20
-41.2534895844722
 30
0.0
 11
-63.59709758189522
 21
-45.50328974735832
 31
0.0
  0
LINE
  5
221
330
1F
100
AcDbEntity
  8
0-C
  6
JWW_PHANTOM1
 62
     4
370
     9
100
AcDbLine
 10
-75.62853940667196
 20
-45.53793485738183
 30
0.0
 11
-64.5255515354651
 21
-46.31080077139151
 31
0.0
  0
LINE
  5
222
330
1F
100
AcDbEntity
  8
仕上
  6
JWW_PHANTOM1
 62
     6
370
     9
100
AcDbLine
 10
-68.77731142174645
 20
-43.00751201336035
 30
0.0
 11
-70.38529946262634
 21
-44.50754029219721
 31
0.0
  0
LINE
  5
223
330
1F
100
AcDbEntity
  8
仕上
  6
JWW_PHANTOM1
 62
     6
370
     9
100
AcDbLine
 10
-68.77731142174645
 20
-43.00751201336035
 30
0.0
 11
-68.29011018765806
 21
-36.00752002569747
 31
0.0
  0
ARC
  5
224
330
1F
100
AcDbEntity
  8
0-C
  6
JWW_PHANTOM1
 62
     4
370
     9
100
AcDbCircle
 10
-77.11939897962384
 20
-39.59384883410267
 30
0.0
 40
1.999999976066088
100
AcDbArc
 50
91.01800537109376
 51
176.0179901123047
  0
ARC
  5
225
330
1F
100
AcDbEntity
  8
0-C
  6
JWW_PHANTOM1
 62
     4
370
     9
100
AcDbCircle
 10
-77.51190357964799
 20
-45.23242797808344
 30
0.0
 40
1.999999976066088
100
AcDbArc
 50
176.0179901123047
 51
261.0179748535156
  0
LINE
  5
226
330
1F
100
AcDbEntity
  8
寸法
  6
Continuous
 62
     7
370
     9
100
AcDbLine
 10
-79.11458165548541
 20
-39.45496917046832
 30
0.0
 11
-83.68029177478431
 21
-33.50483324352574
 31
0.0
  0
LINE
  5
227
330
1F
100
AcDbEntity
  8
寸法
  6
Continuous
 62
     7
370
     9
100
AcDbLine
 10
-79.11458165548541
 20
-39.45496917046832
 30
0.0
 11
-81.98475987814166
 21
-32.52586232925215
 31
0.0
  0
LINE
  5
228
330
1F
100
AcDbEntity
  8
その他
  6
Continuous
 62
     7
370
     9
100
AcDbLine
 10
-196.726849726175
 20
-36.00752002569746
 30
0.0
 11
-197.7057961678254
 21
-43.44335648600104
 31
0.0
  0
LINE
  5
229
330
1F
100
AcDbEntity
  8
その他
  6
Continuous
 62
     7
370
     9
100
AcDbLine
 10
-196.726849726175
 20
-36.00752002569746
 30
0.0
 11
-195.7479032845246
 21
-43.44335648600104
 31
0.0
  0
LINE
  5
22A
330
1F
100
AcDbEntity
  8
その他
  6
Continuous
 62
     7
370
     9
100
AcDbLine
 10
-197.6268497261751
 20
-36.00752002569746
 30
0.0
 11
-87.33950272066562
 21
-36.00752002569747
 31
0.0
  0
LINE
  5
22B
330
1F
100
AcDbEntity
  8
その他
  6
Continuous
 62
     7
370
     9
100
AcDbLine
 10
-65.28284464749453
 20
-13.21783874112527
 30
0.0
 11
-1.28296789609192
 21
-13.21783874112527
 31
0.0
  0
LINE
  5
22C
330
1F
100
AcDbEntity
  8
その他
  6
Continuous
 62
     7
370
     9
100
AcDbLine
 10
-65.28284464749453
 20
-13.21783874112527
 30
0.0
 11
-57.84700818719096
 21
-12.23889229947488
 31
0.0
  0
LINE
  5
22D
330
1F
100
AcDbEntity
  8
その他
  6
Continuous
 62
     7
370
     9
100
AcDbLine
 10
-65.28284464749453
 20
-13.21783874112527
 30
0.0
 11
-57.84700818719096
 21
-14.19678518277566
 31
0.0
  0
LINE
  5
22E
330
1F
100
AcDbEntity
  8
その他
  6
Continuous
 62
     7
370
     9
100
AcDbLine
 10
-1.28296789609192
 20
-13.21783874112527
 30
0.0
 11
-8.718804356395498
 21
-12.23889229947488
 31
0.0
  0
LINE
  5
22F
330
1F
100
AcDbEntity
  8
その他
  6
Continuous
 62
     7
370
     9
100
AcDbLine
 10
-1.28296789609192
 20
-13.21783874112527
 30
0.0
 11
-8.718804356395498
 21
-14.19678518277566
 31
0.0
  0
LINE
  5
230
330
1F
100
AcDbEntity
  8
その他
  6
Continuous
 62
     7
370
     9
100
AcDbLine
 10
-65.28284464749453
 20
-12.31783874112527
 30
0.0
 11
-65.28284464749453
 21
-30.00752002569747
 31
0.0
  0
LINE
  5
231
330
1F
100
AcDbEntity
  8
その他
  6
Continuous
 62
     7
370
     9
100
AcDbLine
 10
-1.28296789609192
 20
-12.31783874112527
 30
0.0
 11
-1.28296789609192
 21
-30.00752002569747
 31
0.0
  0
TEXT
  5
232
330
1F
100
AcDbEntity
  8
その他
  6
Continuous
 62
     2
370
   211
100
AcDbText
 10
-46.40790627179322
 20
-8.525838741125277
 30
0.0
 40
9.144
  1
φ64
 41
1.09375
  7
ＭＳ ゴシック
100
AcDbText
  0
LINE
  5
233
330
1F
100
AcDbEntity
  8
通り芯
  6
Continuous
 62
     3
370
     9
100
AcDbLine
 10
6.907181069262999
 20
-88.87038410393934
 30
0.0
 11
104.8342702701574
 21
-88.87038410393934
 31
0.0
  0
LINE
  5
234
330
1F
100
AcDbEntity
  8
通り芯
  6
Continuous
 62
     3
370
     9
100
AcDbLine
 10
-171.4001323606228
 20
-88.8703841039393
 30
0.0
 11
-73.47299361284952
 21
-88.87038410393934
 31
0.0
  0
LINE
  5
235
330
1F
100
AcDbEntity
  8
その他
  6
Continuous
 62
     7
370
     9
100
AcDbLine
 10
-197.6268497261751
 20
-106.0075098924476
 30
0.0
 11
-86.25988785005487
 21
-106.0075098924476
 31
0.0
  0
LINE
  5
236
330
1F
100
AcDbEntity
  8
その他
  6
Continuous
 62
     7
370
     9
100
AcDbLine
 10
-84.28289590288642
 20
16.80780539088886
 30
0.0
 11
17.71708335929989
 21
16.80780539088886
 31
0.0
  0
LINE
  5
237
330
1F
100
AcDbEntity
  8
その他
  6
Continuous
 62
     7
370
     9
100
AcDbLine
 10
-84.28289590288642
 20
16.80780539088886
 30
0.0
 11
-76.8470594425828
 21
17.78675183253924
 31
0.0
  0
LINE
  5
238
330
1F
100
AcDbEntity
  8
その他
  6
Continuous
 62
     7
370
     9
100
AcDbLine
 10
-84.28289590288642
 20
16.80780539088886
 30
0.0
 11
-76.8470594425828
 21
15.82885894923847
 31
0.0
  0
LINE
  5
239
330
1F
100
AcDbEntity
  8
その他
  6
Continuous
 62
     7
370
     9
100
AcDbLine
 10
17.71708335929989
 20
16.80780539088886
 30
0.0
 11
10.28124689899627
 21
17.78675183253924
 31
0.0
  0
LINE
  5
23A
330
1F
100
AcDbEntity
  8
その他
  6
Continuous
 62
     7
370
     9
100
AcDbLine
 10
17.71708335929989
 20
16.80780539088886
 30
0.0
 11
10.28124689899627
 21
15.82885894923847
 31
0.0
  0
LINE
  5
23B
330
1F
100
AcDbEntity
  8
その他
  6
Continuous
 62
     7
370
     9
100
AcDbLine
 10
-84.28289590288642
 20
17.70780539088886
 30
0.0
 11
-84.28289590288642
 21
-94.5075090676482
 31
0.0
  0
LINE
  5
23C
330
1F
100
AcDbEntity
  8
その他
  6
Continuous
 62
     7
370
     9
100
AcDbLine
 10
17.71708335929989
 20
17.70780539088886
 30
0.0
 11
17.71708335929989
 21
-94.5075090676482
 31
0.0
  0
TEXT
  5
23D
330
1F
100
AcDbEntity
  8
その他
  6
Continuous
 62
     2
370
   211
100
AcDbText
 10
-49.78290627179332
 20
21.49980539088886
 30
0.0
 40
9.144
  1
φ102
 41
1.1
  7
ＭＳ ゴシック
100
AcDbText
  0
LINE
  5
23E
330
1F
100
AcDbEntity
  8
その他
  6
Continuous
 62
     7
370
     9
100
AcDbLine
 10
-140.782883997673
 20
49.4086544880481
 30
0.0
 11
74.21712336207119
 21
49.4086544880481
 31
0.0
  0
LINE
  5
23F
330
1F
100
AcDbEntity
  8
その他
  6
Continuous
 62
     7
370
     9
100
AcDbLine
 10
-140.782883997673
 20
49.4086544880481
 30
0.0
 11
-133.3470475373694
 21
50.38760092969849
 31
0.0
  0
LINE
  5
240
330
1F
100
AcDbEntity
  8
その他
  6
Continuous
 62
     7
370
     9
100
AcDbLine
 10
-140.782883997673
 20
49.4086544880481
 30
0.0
 11
-133.3470475373694
 21
48.42970804639772
 31
0.0
  0
LINE
  5
241
330
1F
100
AcDbEntity
  8
その他
  6
Continuous
 62
     7
370
     9
100
AcDbLine
 10
74.21712336207119
 20
49.4086544880481
 30
0.0
 11
66.78128690176757
 21
50.38760092969849
 31
0.0
  0
LINE
  5
242
330
1F
100
AcDbEntity
  8
その他
  6
Continuous
 62
     7
370
     9
100
AcDbLine
 10
74.21712336207119
 20
49.4086544880481
 30
0.0
 11
66.78128690176757
 21
48.42970804639772
 31
0.0
  0
LINE
  5
243
330
1F
100
AcDbEntity
  8
その他
  6
Continuous
 62
     7
370
     9
100
AcDbLine
 10
-140.782883997673
 20
50.30865448804811
 30
0.0
 11
-140.782883997673
 21
-90.00750817342731
 31
0.0
  0
LINE
  5
244
330
1F
100
AcDbEntity
  8
その他
  6
Continuous
 62
     7
370
     9
100
AcDbLine
 10
74.21712336207119
 20
50.30865448804811
 30
0.0
 11
74.21712336207119
 21
-90.00751289707406
 31
0.0
  0
TEXT
  5
245
330
1F
100
AcDbEntity
  8
その他
  6
Continuous
 62
     2
370
   211
100
AcDbText
 10
-49.78288031780091
 20
54.1006544880481
 30
0.0
 40
9.144
  1
φ215
 41
1.1
  7
ＭＳ ゴシック
100
AcDbText
  0
LINE
  5
246
330
1F
100
AcDbEntity
  8
その他
  6
Continuous
 62
     7
370
     9
100
AcDbLine
 10
-173.2829137539022
 20
82.96555827270734
 30
0.0
 11
106.7170516634368
 21
82.96555827270734
 31
0.0
  0
LINE
  5
247
330
1F
100
AcDbEntity
  8
その他
  6
Continuous
 62
     7
370
     9
100
AcDbLine
 10
-173.2829137539022
 20
82.96555827270734
 30
0.0
 11
-165.8470772935986
 21
83.9445047143577
 31
0.0
  0
LINE
  5
248
330
1F
100
AcDbEntity
  8
その他
  6
Continuous
 62
     7
370
     9
100
AcDbLine
 10
-173.2829137539022
 20
82.96555827270734
 30
0.0
 11
-165.8470772935986
 21
81.98661183105693
 31
0.0
  0
LINE
  5
249
330
1F
100
AcDbEntity
  8
その他
  6
Continuous
 62
     7
370
     9
100
AcDbLine
 10
106.7170516634368
 20
82.96555827270734
 30
0.0
 11
99.28121520313329
 21
83.9445047143577
 31
0.0
  0
LINE
  5
24A
330
1F
100
AcDbEntity
  8
その他
  6
Continuous
 62
     7
370
     9
100
AcDbLine
 10
106.7170516634368
 20
82.96555827270734
 30
0.0
 11
99.28121520313329
 21
81.98661183105693
 31
0.0
  0
LINE
  5
24B
330
1F
100
AcDbEntity
  8
その他
  6
Continuous
 62
     7
370
     9
100
AcDbLine
 10
-173.2829137539022
 20
83.86555827270733
 30
0.0
 11
-173.2829137539022
 21
-90.8703222439837
 31
0.0
  0
LINE
  5
24C
330
1F
100
AcDbEntity
  8
その他
  6
Continuous
 62
     7
370
     9
100
AcDbLine
 10
106.7170516634368
 20
83.86555827270733
 30
0.0
 11
106.7170516634368
 21
-90.87032224398378
 31
0.0
  0
TEXT
  5
24D
330
1F
100
AcDbEntity
  8
その他
  6
Continuous
 62
     2
370
   211
100
AcDbText
 10
-49.78293104523264
 20
87.65755827270735
 30
0.0
 40
9.144
  1
φ280
 41
1.1
  7
ＭＳ ゴシック
100
AcDbText
  0
LINE
  5
24E
330
1F
100
AcDbEntity
  8
寸法
  6
Continuous
 62
     7
370
     9
100
AcDbLine
 10
-79.11458165548541
 20
-39.45496917046832
 30
0.0
 11
-163.717198088128
 21
107.0809303776867
 31
0.0
  0
LINE
  5
24F
330
1F
100
AcDbEntity
  8
寸法
  6
Continuous
 62
     7
370
     9
100
AcDbLine
 10
-64.98310943708236
 20
-84.74710951381017
 30
0.0
 11
-69.54884727949889
 21
-78.79691759202704
 31
0.0
  0
LINE
  5
250
330
1F
100
AcDbEntity
  8
寸法
  6
Continuous
 62
     7
370
     9
100
AcDbLine
 10
-64.98310943708236
 20
-84.74710951381017
 30
0.0
 11
-70.933255255504
 21
-80.18141228533776
 31
0.0
  0
TEXT
  5
251
330
1F
100
AcDbEntity
  8
寸法
  6
Continuous
 62
     7
370
     9
100
AcDbText
 10
-256.6492288232416
 20
21.71676928374428
 30
0.0
 40
6.858000000000001
  1
Ｍ８×４０
 41
1.133333333333335
  7
ＭＳ ゴシック
100
AcDbText
  0
LINE
  5
252
330
1F
100
AcDbEntity
  8
寸法
  6
Continuous
 62
     7
370
     9
100
AcDbLine
 10
77.71706533154136
 20
-142.8703489892091
 30
0.0
 11
115.5195602068296
 21
-208.3461907660703
 31
0.0
  0
LINE
  5
253
330
1F
100
AcDbEntity
  8
その他
  6
Continuous
 62
     7
370
     9
100
AcDbLine
 10
151.4139293592446
 20
-188.8703540576751
 30
0.0
 11
151.4139293592446
 21
-88.87038410393934
 31
0.0
  0
LINE
  5
254
330
1F
100
AcDbEntity
  8
その他
  6
Continuous
 62
     7
370
     9
100
AcDbLine
 10
151.4139293592446
 20
-188.8703540576751
 30
0.0
 11
150.4349829175943
 21
-181.4345175973715
 31
0.0
  0
LINE
  5
255
330
1F
100
AcDbEntity
  8
その他
  6
Continuous
 62
     7
370
     9
100
AcDbLine
 10
151.4139293592446
 20
-188.8703540576751
 30
0.0
 11
152.3928758008952
 21
-181.4345175973715
 31
0.0
  0
LINE
  5
256
330
1F
100
AcDbEntity
  8
その他
  6
Continuous
 62
     7
370
     9
100
AcDbLine
 10
151.4139293592446
 20
-88.87038410393934
 30
0.0
 11
150.4349829175943
 21
-96.30622056424293
 31
0.0
  0
LINE
  5
257
330
1F
100
AcDbEntity
  8
その他
  6
Continuous
 62
     7
370
     9
100
AcDbLine
 10
151.4139293592446
 20
-88.87038410393934
 30
0.0
 11
152.3928758008952
 21
-96.30622056424293
 31
0.0
  0
LINE
  5
258
330
1F
100
AcDbEntity
  8
その他
  6
Continuous
 62
     7
370
     9
100
AcDbLine
 10
152.3139293592448
 20
-188.8703540576751
 30
0.0
 11
12.71708170970106
 21
-188.8703540576751
 31
0.0
  0
LINE
  5
259
330
1F
100
AcDbEntity
  8
その他
  6
Continuous
 62
     7
370
     9
100
AcDbLine
 10
168.821848074738
 20
-95.0075082428487
 30
0.0
 11
167.8429016330876
 21
-87.57167178254512
 31
0.0
  0
LINE
  5
25A
330
1F
100
AcDbEntity
  8
その他
  6
Continuous
 62
     7
370
     9
100
AcDbLine
 10
168.821848074738
 20
-95.0075082428487
 30
0.0
 11
169.8007945163884
 21
-87.57167178254512
 31
0.0
  0
LINE
  5
25B
330
1F
100
AcDbEntity
  8
その他
  6
Continuous
 62
     7
370
     9
100
AcDbLine
 10
169.7218480747381
 20
-95.0075082428487
 30
0.0
 11
79.71709626151915
 21
-95.0075082428487
 31
0.0
  0
LINE
  5
25C
330
1F
100
AcDbEntity
  8
その他
  6
Continuous
 62
     7
370
     9
100
AcDbLine
 10
168.821848074738
 20
-36.0075200256975
 30
0.0
 11
167.8429016330876
 21
-43.44335648600108
 31
0.0
  0
LINE
  5
25D
330
1F
100
AcDbEntity
  8
その他
  6
Continuous
 62
     7
370
     9
100
AcDbLine
 10
168.821848074738
 20
-36.0075200256975
 30
0.0
 11
169.8007945163884
 21
-43.44335648600108
 31
0.0
  0
LINE
  5
25E
330
1F
100
AcDbEntity
  8
その他
  6
Continuous
 62
     7
370
     9
100
AcDbLine
 10
169.7218480747381
 20
-36.0075200256975
 30
0.0
 11
10.54585742379461
 21
-36.00752002569749
 31
0.0
  0
LINE
  5
25F
330
1F
100
AcDbEntity
  8
その他
  6
Continuous
 62
     7
370
     9
100
AcDbLine
 10
152.3139293592448
 20
-88.87038410393934
 30
0.0
 11
110.7170919018651
 21
-88.87038410393934
 31
0.0
  0
LINE
  5
260
330
1F
100
AcDbEntity
  8
寸法
  6
JWW_CENTER1
 62
     3
370
     9
100
AcDbLine
 10
121.78827079473
 20
217.8726585969644
 30
0.0
 11
-188.3540833383163
 21
217.8726585969644
 31
0.0
  0
ARC
  5
261
330
1F
100
AcDbEntity
  8
通り芯
  6
Continuous
 62
     3
370
     9
100
AcDbCircle
 10
-33.28290627179322
 20
217.8726585969644
 30
0.0
 40
138.0000105603781
100
AcDbArc
 50
0.0
 51
180.0
  0
ARC
  5
262
330
1F
100
AcDbEntity
  8
躯体
  6
Continuous
 62
     2
370
     9
100
AcDbCircle
 10
-33.28290627179322
 20
217.8726585969644
 30
0.0
 40
99.64098423696393
100
AcDbArc
 50
0.0
 51
180.0
  0
ARC
  5
263
330
1F
100
AcDbEntity
  8
躯体
  6
Continuous
 62
     2
370
     9
100
AcDbCircle
 10
-33.28290627179322
 20
217.8726585969644
 30
0.0
 40
106.9999901465928
100
AcDbArc
 50
0.0
 51
180.0
  0
ARC
  5
264
330
1F
100
AcDbEntity
  8
躯体
  6
Continuous
 62
     2
370
     9
100
AcDbCircle
 10
-33.28290627179322
 20
217.8726585969644
 30
0.0
 40
107.5000048604251
100
AcDbArc
 50
0.0
 51
180.0
  0
ARC
  5
265
330
1F
100
AcDbEntity
  8
通り芯
  6
Continuous
 62
     3
370
     9
100
AcDbCircle
 10
-33.28290627179322
 20
217.8726585969644
 30
0.0
 40
139.9999827086695
100
AcDbArc
 50
0.0
 51
180.0
  0
ARC
  5
266
330
1F
100
AcDbEntity
  8
通り芯
  6
Continuous
 62
     3
370
     9
100
AcDbCircle
 10
-33.28290627179322
 20
217.8726585969644
 30
0.0
 40
139.0000028278837
100
AcDbArc
 50
0.0
 51
180.0
  0
LINE
  5
267
330
1F
100
AcDbEntity
  8
寸法
  6
JWW_CENTER1
 62
     3
370
     9
100
AcDbLine
 10
-33.28290627179314
 20
372.9438356634874
 30
0.0
 11
-33.28290627179322
 21
201.6541925544708
 31
0.0
  0
LINE
  5
268
330
1F
100
AcDbEntity
  8
0-8
  6
Continuous
 62
     4
370
     9
100
AcDbLine
 10
14.31716522653267
 20
218.4726314139326
 30
0.0
 11
18.46715947650247
 21
218.4726314139326
 31
0.0
  0
LINE
  5
269
330
1F
100
AcDbEntity
  8
0-8
  6
Continuous
 62
     4
370
     9
100
AcDbLine
 10
14.31716522653267
 20
218.4726314139326
 30
0.0
 11
14.31716522653267
 21
223.8425709749885
 31
0.0
  0
LINE
  5
26A
330
1F
100
AcDbEntity
  8
0-8
  6
Continuous
 62
     4
370
     9
100
AcDbLine
 10
8.96712035744477
 20
218.4726314139326
 30
0.0
 11
13.11711460741466
 21
218.4726314139326
 31
0.0
  0
LINE
  5
26B
330
1F
100
AcDbEntity
  8
0-8
  6
Continuous
 62
     4
370
     9
100
AcDbLine
 10
13.11711460741466
 20
218.4726314139326
 30
0.0
 11
13.11711460741466
 21
223.8425709749885
 31
0.0
  0
LINE
  5
26C
330
1F
100
AcDbEntity
  8
0-8
  6
Continuous
 62
     4
370
     9
100
AcDbLine
 10
18.46715947650247
 20
218.4726314139326
 30
0.0
 11
18.46715947650247
 21
217.8726585969644
 31
0.0
  0
LINE
  5
26D
330
1F
100
AcDbEntity
  8
0-8
  6
JWW_CENTER1
 62
     4
370
     9
100
AcDbLine
 10
13.71706992685236
 20
225.1820069205951
 30
0.0
 11
13.71706992685236
 21
217.8726585969644
 31
0.0
  0
LINE
  5
26E
330
1F
100
AcDbEntity
  8
0-8
  6
Continuous
 62
     4
370
     9
100
AcDbLine
 10
8.96712035744477
 20
218.4726314139326
 30
0.0
 11
8.96712035744477
 21
217.8726585969644
 31
0.0
  0
LINE
  5
26F
330
1F
100
AcDbEntity
  8
0-8
  6
Continuous
 62
     4
370
     9
100
AcDbLine
 10
-80.88297777011908
 20
218.4726314139326
 30
0.0
 11
-85.03297202008898
 21
218.4726314139326
 31
0.0
  0
LINE
  5
270
330
1F
100
AcDbEntity
  8
0-8
  6
Continuous
 62
     4
370
     9
100
AcDbLine
 10
-80.88297777011908
 20
218.4726314139326
 30
0.0
 11
-80.88297777011908
 21
223.8425709749885
 31
0.0
  0
LINE
  5
271
330
1F
100
AcDbEntity
  8
0-8
  6
Continuous
 62
     4
370
     9
100
AcDbLine
 10
-75.53293290103127
 20
218.4726314139326
 30
0.0
 11
-79.68292715100117
 21
218.4726314139326
 31
0.0
  0
LINE
  5
272
330
1F
100
AcDbEntity
  8
0-8
  6
Continuous
 62
     4
370
     9
100
AcDbLine
 10
-79.68292715100117
 20
218.4726314139326
 30
0.0
 11
-79.68292715100117
 21
223.8425709749885
 31
0.0
  0
LINE
  5
273
330
1F
100
AcDbEntity
  8
0-8
  6
Continuous
 62
     4
370
     9
100
AcDbLine
 10
-85.03297202008898
 20
218.4726314139326
 30
0.0
 11
-85.03297202008898
 21
217.8726585969645
 31
0.0
  0
LINE
  5
274
330
1F
100
AcDbEntity
  8
0-8
  6
JWW_CENTER1
 62
     4
370
     9
100
AcDbLine
 10
-80.28288247043886
 20
225.1820069205951
 30
0.0
 11
-80.28288247043886
 21
217.8726585969645
 31
0.0
  0
LINE
  5
275
330
1F
100
AcDbEntity
  8
0-8
  6
Continuous
 62
     4
370
     9
100
AcDbLine
 10
-75.53293290103127
 20
218.4726314139326
 30
0.0
 11
-75.53293290103127
 21
217.8726585969645
 31
0.0
  0
LINE
  5
276
330
1F
100
AcDbEntity
  8
躯体
  6
Continuous
 62
     2
370
     9
100
AcDbLine
 10
-88.53674748046839
 20
226.9838675973642
 30
0.0
 11
-85.62407358918733
 21
226.2034427502585
 31
0.0
  0
LINE
  5
277
330
1F
100
AcDbEntity
  8
躯体
  6
Continuous
 62
     2
370
     9
100
AcDbLine
 10
-89.24021818924916
 20
228.725256809365
 30
0.0
 11
-83.91309508487387
 21
227.2978782763957
 31
0.0
  0
LINE
  5
278
330
1F
100
AcDbEntity
  8
躯体
  6
Continuous
 62
     2
370
     9
100
AcDbLine
 10
-88.53674748046839
 20
226.9838675973642
 30
0.0
 11
-89.24021818924916
 21
228.725256809365
 31
0.0
  0
LINE
  5
279
330
1F
100
AcDbEntity
  8
躯体
  6
Continuous
 62
     2
370
     9
100
AcDbLine
 10
21.97093493688197
 20
226.9838675973642
 30
0.0
 11
19.05826104560083
 21
226.2034427502584
 31
0.0
  0
LINE
  5
27A
330
1F
100
AcDbEntity
  8
躯体
  6
Continuous
 62
     2
370
     9
100
AcDbLine
 10
22.67440564566266
 20
228.7252568093649
 30
0.0
 11
17.34728254128746
 21
227.2978782763956
 31
0.0
  0
LINE
  5
27B
330
1F
100
AcDbEntity
  8
躯体
  6
Continuous
 62
     2
370
     9
100
AcDbLine
 10
19.05826104560083
 20
226.2034427502584
 30
0.0
 11
17.34728254128746
 21
227.2978782763956
 31
0.0
  0
LINE
  5
27C
330
1F
100
AcDbEntity
  8
躯体
  6
Continuous
 62
     2
370
     9
100
AcDbLine
 10
21.97093493688197
 20
226.9838675973642
 30
0.0
 11
22.67440564566266
 21
228.7252568093649
 31
0.0
  0
LINE
  5
27D
330
1F
100
AcDbEntity
  8
躯体
  6
Continuous
 62
     2
370
     9
100
AcDbLine
 10
10.01273777400334
 20
253.3901254918728
 30
0.0
 11
7.880488729828102
 21
251.2578764476975
 31
0.0
  0
LINE
  5
27E
330
1F
100
AcDbEntity
  8
躯体
  6
Continuous
 62
     2
370
     9
100
AcDbLine
 10
9.75121968591668
 20
255.2499729841055
 30
0.0
 11
5.851510109571393
 21
251.3502634077602
 31
0.0
  0
LINE
  5
27F
330
1F
100
AcDbEntity
  8
躯体
  6
Continuous
 62
     2
370
     9
100
AcDbLine
 10
19.12391177934248
 20
237.6091029008526
 30
0.0
 11
16.21123788806133
 21
236.8286430586862
 31
0.0
  0
LINE
  5
280
330
1F
100
AcDbEntity
  8
躯体
  6
Continuous
 62
     2
370
     9
100
AcDbLine
 10
20.60381789831717
 20
236.4527261174007
 30
0.0
 11
15.27672978900247
 21
235.0252775943101
 31
0.0
  0
LINE
  5
281
330
1F
100
AcDbEntity
  8
躯体
  6
Continuous
 62
     2
370
     9
100
AcDbLine
 10
19.12391177934248
 20
237.6091029008526
 30
0.0
 11
20.60381789831717
 21
236.4527261174007
 31
0.0
  0
LINE
  5
282
330
1F
100
AcDbEntity
  8
躯体
  6
Continuous
 62
     2
370
     9
100
AcDbLine
 10
16.21123788806133
 20
236.8286430586862
 30
0.0
 11
15.27672978900247
 21
235.0252775943101
 31
0.0
  0
LINE
  5
283
330
1F
100
AcDbEntity
  8
躯体
  6
Continuous
 62
     2
370
     9
100
AcDbLine
 10
7.880488729828102
 20
251.2578764476975
 30
0.0
 11
5.851510109571393
 21
251.3502634077602
 31
0.0
  0
LINE
  5
284
330
1F
100
AcDbEntity
  8
躯体
  6
Continuous
 62
     2
370
     9
100
AcDbLine
 10
10.01273777400334
 20
253.3901254918728
 30
0.0
 11
9.75121968591668
 21
255.2499729841055
 31
0.0
  0
LINE
  5
285
330
1F
100
AcDbEntity
  8
躯体
  6
Continuous
 62
     2
370
     9
100
AcDbLine
 10
-13.54653195802629
 20
270.2795116431608
 30
0.0
 11
-14.3269918001927
 21
267.3668027568191
 31
0.0
  0
LINE
  5
286
330
1F
100
AcDbEntity
  8
躯体
  6
Continuous
 62
     2
370
     9
100
AcDbLine
 10
-14.70287374641768
 20
271.7594527571962
 30
0.0
 11
-16.13028727444768
 21
266.4322946577602
 31
0.0
  0
LINE
  5
287
330
1F
100
AcDbEntity
  8
躯体
  6
Continuous
 62
     2
370
     9
100
AcDbLine
 10
2.234525628054428
 20
261.1683376378218
 30
0.0
 11
0.1023115789397764
 21
259.0360885936465
 31
0.0
  0
LINE
  5
288
330
1F
100
AcDbEntity
  8
躯体
  6
Continuous
 62
     2
370
     9
100
AcDbLine
 10
4.094373120287173
 20
260.9068545447957
 30
0.0
 11
0.1946285488812123
 21
257.0070749783291
 31
0.0
  0
LINE
  5
289
330
1F
100
AcDbEntity
  8
躯体
  6
Continuous
 62
     2
370
     9
100
AcDbLine
 10
2.234525628054428
 20
261.1683376378218
 30
0.0
 11
4.094373120287173
 21
260.9068545447957
 31
0.0
  0
LINE
  5
28A
330
1F
100
AcDbEntity
  8
躯体
  6
Continuous
 62
     2
370
     9
100
AcDbLine
 10
0.1023115789397764
 20
259.0360885936465
 30
0.0
 11
0.1946285488812123
 21
257.0070749783291
 31
0.0
  0
LINE
  5
28B
330
1F
100
AcDbEntity
  8
躯体
  6
Continuous
 62
     2
370
     9
100
AcDbLine
 10
-14.3269918001927
 20
267.3668027568191
 30
0.0
 11
-16.13028727444768
 21
266.4322946577602
 31
0.0
  0
LINE
  5
28C
330
1F
100
AcDbEntity
  8
躯体
  6
Continuous
 62
     2
370
     9
100
AcDbLine
 10
-13.54653195802629
 20
270.2795116431608
 30
0.0
 11
-14.70287374641768
 21
271.7594527571962
 31
0.0
  0
LINE
  5
28D
330
1F
100
AcDbEntity
  8
躯体
  6
Continuous
 62
     2
370
     9
100
AcDbLine
 10
-42.3940802771323
 20
273.1264998056396
 30
0.0
 11
-41.61365543002648
 21
270.2138609094193
 31
0.0
  0
LINE
  5
28E
330
1F
100
AcDbEntity
  8
躯体
  6
Continuous
 62
     2
370
     9
100
AcDbLine
 10
-44.13550448419366
 20
273.8299705144204
 30
0.0
 11
-42.70812595122433
 21
268.5028824051057
 31
0.0
  0
LINE
  5
28F
330
1F
100
AcDbEntity
  8
躯体
  6
Continuous
 62
     2
370
     9
100
AcDbLine
 10
-24.1717322664542
 20
273.1264998056396
 30
0.0
 11
-24.95215711355993
 21
270.2138609094193
 31
0.0
  0
LINE
  5
290
330
1F
100
AcDbEntity
  8
躯体
  6
Continuous
 62
     2
370
     9
100
AcDbLine
 10
-22.43030805939276
 20
273.8299705144204
 30
0.0
 11
-23.85768659236217
 21
268.5028824051057
 31
0.0
  0
LINE
  5
291
330
1F
100
AcDbEntity
  8
躯体
  6
Continuous
 62
     2
370
     9
100
AcDbLine
 10
-24.1717322664542
 20
273.1264998056396
 30
0.0
 11
-22.43030805939276
 21
273.8299705144204
 31
0.0
  0
LINE
  5
292
330
1F
100
AcDbEntity
  8
躯体
  6
Continuous
 62
     2
370
     9
100
AcDbLine
 10
-24.95215711355993
 20
270.2138609094193
 30
0.0
 11
-23.85768659236217
 21
268.5028824051057
 31
0.0
  0
LINE
  5
293
330
1F
100
AcDbEntity
  8
躯体
  6
Continuous
 62
     2
370
     9
100
AcDbLine
 10
-41.61365543002648
 20
270.2138609094193
 30
0.0
 11
-42.70812595122433
 21
268.5028824051057
 31
0.0
  0
LINE
  5
294
330
1F
100
AcDbEntity
  8
躯体
  6
Continuous
 62
     2
370
     9
100
AcDbLine
 10
-42.3940802771323
 20
273.1264998056396
 30
0.0
 11
-44.13550448419366
 21
273.8299705144204
 31
0.0
  0
LINE
  5
295
330
1F
100
AcDbEntity
  8
躯体
  6
Continuous
 62
     2
370
     9
100
AcDbLine
 10
-68.80033817164093
 20
261.1683376378218
 30
0.0
 11
-66.6681241225262
 21
259.0360885936465
 31
0.0
  0
LINE
  5
296
330
1F
100
AcDbEntity
  8
躯体
  6
Continuous
 62
     2
370
     9
100
AcDbLine
 10
-70.66018566387368
 20
260.9068545447957
 30
0.0
 11
-66.76044109246772
 21
257.0070749783292
 31
0.0
  0
LINE
  5
297
330
1F
100
AcDbEntity
  8
躯体
  6
Continuous
 62
     2
370
     9
100
AcDbLine
 10
-53.0193155806208
 20
270.2795116431608
 30
0.0
 11
-52.23885573845439
 21
267.3668027568191
 31
0.0
  0
LINE
  5
298
330
1F
100
AcDbEntity
  8
躯体
  6
Continuous
 62
     2
370
     9
100
AcDbLine
 10
-51.86293879716874
 20
271.7594527571962
 30
0.0
 11
-50.43552526913882
 21
266.4322946577602
 31
0.0
  0
LINE
  5
299
330
1F
100
AcDbEntity
  8
躯体
  6
Continuous
 62
     2
370
     9
100
AcDbLine
 10
-53.0193155806208
 20
270.2795116431608
 30
0.0
 11
-51.86293879716874
 21
271.7594527571962
 31
0.0
  0
LINE
  5
29A
330
1F
100
AcDbEntity
  8
躯体
  6
Continuous
 62
     2
370
     9
100
AcDbLine
 10
-52.23885573845439
 20
267.3668027568191
 30
0.0
 11
-50.43552526913882
 21
266.4322946577602
 31
0.0
  0
LINE
  5
29B
330
1F
100
AcDbEntity
  8
躯体
  6
Continuous
 62
     2
370
     9
100
AcDbLine
 10
-66.6681241225262
 20
259.0360885936465
 30
0.0
 11
-66.76044109246772
 21
257.0070749783292
 31
0.0
  0
LINE
  5
29C
330
1F
100
AcDbEntity
  8
躯体
  6
Continuous
 62
     2
370
     9
100
AcDbLine
 10
-68.80033817164093
 20
261.1683376378218
 30
0.0
 11
-70.66018566387368
 21
260.9068545447957
 31
0.0
  0
LINE
  5
29D
330
1F
100
AcDbEntity
  8
躯体
  6
Continuous
 62
     2
370
     9
100
AcDbLine
 10
-85.6897243229289
 20
237.6091029008527
 30
0.0
 11
-82.77705043164784
 21
236.8286430586863
 31
0.0
  0
LINE
  5
29E
330
1F
100
AcDbEntity
  8
躯体
  6
Continuous
 62
     2
370
     9
100
AcDbLine
 10
-87.16963044190359
 20
236.4527261174007
 30
0.0
 11
-81.84254233258898
 21
235.0252775943101
 31
0.0
  0
LINE
  5
29F
330
1F
100
AcDbEntity
  8
躯体
  6
Continuous
 62
     2
370
     9
100
AcDbLine
 10
-76.57855031758984
 20
253.3901254918729
 30
0.0
 11
-74.44630127341452
 21
251.2578764476975
 31
0.0
  0
LINE
  5
2A0
330
1F
100
AcDbEntity
  8
躯体
  6
Continuous
 62
     2
370
     9
100
AcDbLine
 10
-76.31703222950318
 20
255.2499729841055
 30
0.0
 11
-72.4173226531579
 21
251.3502634077603
 31
0.0
  0
LINE
  5
2A1
330
1F
100
AcDbEntity
  8
躯体
  6
Continuous
 62
     2
370
     9
100
AcDbLine
 10
-76.57855031758984
 20
253.3901254918729
 30
0.0
 11
-76.31703222950318
 21
255.2499729841055
 31
0.0
  0
LINE
  5
2A2
330
1F
100
AcDbEntity
  8
躯体
  6
Continuous
 62
     2
370
     9
100
AcDbLine
 10
-74.44630127341452
 20
251.2578764476975
 30
0.0
 11
-72.4173226531579
 21
251.3502634077603
 31
0.0
  0
LINE
  5
2A3
330
1F
100
AcDbEntity
  8
躯体
  6
Continuous
 62
     2
370
     9
100
AcDbLine
 10
-82.77705043164784
 20
236.8286430586863
 30
0.0
 11
-81.84254233258898
 21
235.0252775943101
 31
0.0
  0
LINE
  5
2A4
330
1F
100
AcDbEntity
  8
躯体
  6
Continuous
 62
     2
370
     9
100
AcDbLine
 10
-85.6897243229289
 20
237.6091029008527
 30
0.0
 11
-87.16963044190359
 21
236.4527261174007
 31
0.0
  0
LINE
  5
2A5
330
1F
100
AcDbEntity
  8
0-9
  6
JWW_CENTER1
 62
     4
370
     9
100
AcDbLine
 10
-26.65750141311199
 20
246.3790925625812
 30
0.0
 11
-11.90830818476229
 21
237.8636394743437
 31
0.0
  0
LINE
  5
2A6
330
1F
100
AcDbEntity
  8
躯体
  6
Continuous
 62
     2
370
     9
100
AcDbLine
 10
-85.62407358918733
 20
226.2034427502585
 30
0.0
 11
-83.91309508487387
 21
227.2978782763957
 31
0.0
  0
LINE
  5
2A7
330
1F
100
AcDbEntity
  8
0-9
  6
Continuous
 62
     4
370
     9
100
AcDbLine
 10
-26.78575831032029
 20
242.1165541976259
 30
0.0
 11
-23.0385222131392
 21
235.6261427853242
 31
0.0
  0
LINE
  5
2A8
330
1F
100
AcDbEntity
  8
0-9
  6
Continuous
 62
     4
370
     9
100
AcDbLine
 10
-15.53292158949657
 20
235.6261777803848
 30
0.0
 11
-23.0385222131392
 21
235.6261427853242
 31
0.0
  0
LINE
  5
2A9
330
1F
100
AcDbEntity
  8
0-9
  6
Continuous
 62
     4
370
     9
100
AcDbLine
 10
-22.37844537953933
 20
240.9114992848378
 30
0.0
 11
-16.68740863967449
 21
244.1971855273721
 31
0.0
  0
LINE
  5
2AA
330
1F
100
AcDbEntity
  8
0-9
  6
Continuous
 62
     4
370
     9
100
AcDbLine
 10
-21.87843595326038
 20
240.0453890317799
 30
0.0
 11
-16.18753919363806
 21
243.331285244678
 31
0.0
  0
LINE
  5
2AB
330
1F
100
AcDbEntity
  8
0-9
  6
Continuous
 62
     4
370
     9
100
AcDbLine
 10
-57.53290851053453
 20
224.3678468350421
 30
0.0
 11
-53.78007320365253
 21
217.8678117810673
 31
0.0
  0
LINE
  5
2AC
330
1F
100
AcDbEntity
  8
0-9
  6
Continuous
 62
     4
370
     9
100
AcDbLine
 10
-60.28289036494749
 20
217.8726585969645
 30
0.0
 11
-63.87842287429834
 21
219.9483556231621
 31
0.0
  0
LINE
  5
2AD
330
1F
100
AcDbEntity
  8
0-9
  6
Continuous
 62
     4
370
     9
100
AcDbLine
 10
-62.28285807994203
 20
217.8726585969645
 30
0.0
 11
-64.37836231045603
 21
219.0825078330589
 31
0.0
  0
LINE
  5
2AE
330
1F
100
AcDbEntity
  8
0-9
  6
JWW_CENTER1
 62
     4
370
     9
100
AcDbLine
 10
-23.54063134305591
 20
234.7467869018179
 30
0.0
 11
-15.02521324987904
 21
249.4959801301675
 31
0.0
  0
LINE
  5
2AF
330
1F
100
AcDbEntity
  8
0-9
  6
JWW_CENTER1
 62
     4
370
     9
100
AcDbLine
 10
-61.28290921750539
 20
217.8726585969645
 30
0.0
 11
-61.28290921750539
 21
226.388111685202
 31
0.0
  0
LINE
  5
2B0
330
1F
100
AcDbEntity
  8
0-B
  6
Continuous
 62
     4
370
     9
100
AcDbLine
 10
-30.28293720177106
 20
249.7317418536308
 30
0.0
 11
-30.28293720177106
 21
248.0462834972815
 31
0.0
  0
LINE
  5
2B1
330
1F
100
AcDbEntity
  8
0-B
  6
Continuous
 62
     4
370
     9
100
AcDbLine
 10
-31.15287941396795
 20
249.8017057285949
 30
0.0
 11
-31.15287941396795
 21
247.8996541932426
 31
0.0
  0
LINE
  5
2B2
330
1F
100
AcDbEntity
  8
0-B
  6
Continuous
 62
     4
370
     9
100
AcDbLine
 10
-35.41293312961855
 20
249.8017057285949
 30
0.0
 11
-35.41293312961855
 21
247.8996541932426
 31
0.0
  0
LINE
  5
2B3
330
1F
100
AcDbEntity
  8
0-B
  6
Continuous
 62
     4
370
     9
100
AcDbLine
 10
-36.28287534181536
 20
249.7317418536308
 30
0.0
 11
-36.28287534181536
 21
248.0462834972815
 31
0.0
  0
LINE
  5
2B4
330
1F
100
AcDbEntity
  8
0-B
  6
Continuous
 62
     4
370
     9
100
AcDbLine
 10
-30.28293720177106
 20
259.7397517752607
 30
0.0
 11
-30.28293720177106
 21
254.8708015021813
 31
0.0
  0
LINE
  5
2B5
330
1F
100
AcDbEntity
  8
0-B
  6
Continuous
 62
     4
370
     9
100
AcDbLine
 10
-31.15287941396795
 20
259.7034094047966
 30
0.0
 11
-31.15287941396795
 21
254.7241896956727
 31
0.0
  0
LINE
  5
2B6
330
1F
100
AcDbEntity
  8
0-B
  6
Continuous
 62
     4
370
     9
100
AcDbLine
 10
-35.41293312961855
 20
259.7034094047966
 30
0.0
 11
-35.41293312961855
 21
254.7241896956727
 31
0.0
  0
LINE
  5
2B7
330
1F
100
AcDbEntity
  8
0-B
  6
Continuous
 62
     4
370
     9
100
AcDbLine
 10
-36.28287534181536
 20
259.7397517752607
 30
0.0
 11
-36.28287534181536
 21
254.8708015021813
 31
0.0
  0
LINE
  5
2B8
330
1F
100
AcDbEntity
  8
仕上
  6
Continuous
 62
     6
370
     9
100
AcDbLine
 10
-48.03062970759655
 20
253.4163017972239
 30
0.0
 11
-49.29983056651901
 21
255.6146915059896
 31
0.0
  0
LINE
  5
2B9
330
1F
100
AcDbEntity
  8
仕上
  6
Continuous
 62
     6
370
     9
100
AcDbLine
 10
-38.28287805187057
 20
256.0282106399219
 30
0.0
 11
-38.28287805187057
 21
258.5666473528277
 31
0.0
  0
LINE
  5
2BA
330
1F
100
AcDbEntity
  8
仕上
  6
Continuous
 62
     6
370
     9
100
AcDbLine
 10
-63.82663018456626
 20
241.2804872041187
 30
0.0
 11
-66.02496740074096
 21
242.5497580531625
 31
0.0
  0
LINE
  5
2BB
330
1F
100
AcDbEntity
  8
仕上
  6
Continuous
 62
     6
370
     9
100
AcDbLine
 10
-56.69083986412929
 20
248.4163475146768
 30
0.0
 11
-57.9600232255215
 21
250.6147197259122
 31
0.0
  0
LINE
  5
2BC
330
1F
100
AcDbEntity
  8
仕上
  6
Continuous
 62
     6
370
     9
100
AcDbLine
 10
-68.82654947205265
 20
232.620338288942
 30
0.0
 11
-71.02493918081836
 21
233.8895566453949
 31
0.0
  0
LINE
  5
2BD
330
1F
100
AcDbEntity
  8
仕上
  6
Continuous
 62
     6
370
     9
100
AcDbLine
 10
2.26073692846623
 20
232.6203820327678
 30
0.0
 11
4.459126637231861
 21
233.8895828916903
 31
0.0
  0
LINE
  5
2BE
330
1F
100
AcDbEntity
  8
仕上
  6
Continuous
 62
     6
370
     9
100
AcDbLine
 10
-9.875077664639065
 20
248.4163737609722
 30
0.0
 11
-8.605789318065007
 21
250.6147459722077
 31
0.0
  0
LINE
  5
2BF
330
1F
100
AcDbEntity
  8
仕上
  6
Continuous
 62
     6
370
     9
100
AcDbLine
 10
-2.739234851611172
 20
241.2805396967096
 30
0.0
 11
-0.5408451428455407
 21
242.5497755506927
 31
0.0
  0
LINE
  5
2C0
330
1F
100
AcDbEntity
  8
仕上
  6
Continuous
 62
     6
370
     9
100
AcDbLine
 10
-28.2830394768977
 20
256.0282106399219
 30
0.0
 11
-28.28293449171585
 21
258.5666473528277
 31
0.0
  0
LINE
  5
2C1
330
1F
100
AcDbEntity
  8
仕上
  6
Continuous
 62
     6
370
     9
100
AcDbLine
 10
-18.53527032364156
 20
253.4163280435194
 30
0.0
 11
-17.26598197706741
 21
255.6146915059896
 31
0.0
  0
LINE
  5
2C2
330
1F
100
AcDbEntity
  8
仕上
  6
Continuous
 62
     6
370
     9
100
AcDbLine
 10
-83.08246982329464
 20
228.8726560047378
 30
0.0
 11
-72.77980149116163
 21
228.8726560047378
 31
0.0
  0
LINE
  5
2C3
330
1F
100
AcDbEntity
  8
仕上
  6
Continuous
 62
     6
370
     9
100
AcDbLine
 10
-83.08246982329464
 20
228.8726560047378
 30
0.0
 11
-82.27268412032043
 21
227.8726546497102
 31
0.0
  0
LINE
  5
2C4
330
1F
100
AcDbEntity
  8
仕上
  6
Continuous
 62
     6
370
     9
100
AcDbLine
 10
-82.27268412032043
 20
227.8726546497102
 30
0.0
 11
-73.00602706060312
 21
227.8726546497102
 31
0.0
  0
LINE
  5
2C5
330
1F
100
AcDbEntity
  8
仕上
  6
Continuous
 62
     6
370
     9
100
AcDbLine
 10
-73.00602706060312
 20
227.8726546497102
 30
0.0
 11
-72.77980149116163
 21
228.8726560047378
 31
0.0
  0
LINE
  5
2C6
330
1F
100
AcDbEntity
  8
仕上
  6
Continuous
 62
     6
370
     9
100
AcDbLine
 10
16.51667477723848
 20
228.8726560047378
 30
0.0
 11
6.213988947575132
 21
228.8726560047378
 31
0.0
  0
LINE
  5
2C7
330
1F
100
AcDbEntity
  8
仕上
  6
Continuous
 62
     6
370
     9
100
AcDbLine
 10
16.51667477723848
 20
228.8726560047378
 30
0.0
 11
15.70685407920368
 21
227.8726546497102
 31
0.0
  0
LINE
  5
2C8
330
1F
100
AcDbEntity
  8
仕上
  6
Continuous
 62
     6
370
     9
100
AcDbLine
 10
15.70685407920368
 20
227.8726546497102
 30
0.0
 11
6.440197019486362
 21
227.8726546497102
 31
0.0
  0
LINE
  5
2C9
330
1F
100
AcDbEntity
  8
仕上
  6
Continuous
 62
     6
370
     9
100
AcDbLine
 10
6.440197019486362
 20
227.8726546497102
 30
0.0
 11
6.213988947575132
 21
228.8726560047378
 31
0.0
  0
LINE
  5
2CA
330
1F
100
AcDbEntity
  8
仕上
  6
Continuous
 62
     6
370
     9
100
AcDbLine
 10
-73.80358198988719
 20
223.8726142345391
 30
0.0
 11
-71.68589089093388
 21
223.2169642761091
 31
0.0
  0
LINE
  5
2CB
330
1F
100
AcDbEntity
  8
仕上
  6
Continuous
 62
     6
370
     9
100
AcDbLine
 10
7.237804441361362
 20
223.8726142345391
 30
0.0
 11
5.120078347347373
 21
223.216964276109
 31
0.0
  0
LINE
  5
2CC
330
1F
100
AcDbEntity
  8
0-A
  6
Continuous
 62
     4
370
     9
100
AcDbLine
 10
-33.78288070301161
 20
260.4948664447658
 30
0.0
 11
-32.78293184057489
 21
260.4948664447658
 31
0.0
  0
LINE
  5
2CD
330
1F
100
AcDbEntity
  8
0-A
  6
Continuous
 62
     4
370
     9
100
AcDbLine
 10
-32.78293184057489
 20
260.4948664447658
 30
0.0
 11
-32.78293184057489
 21
264.0844410450446
 31
0.0
  0
LINE
  5
2CE
330
1F
100
AcDbEntity
  8
0-A
  6
Continuous
 62
     4
370
     9
100
AcDbLine
 10
-33.78288070301161
 20
260.4948664447658
 30
0.0
 11
-33.78288070301161
 21
264.0844410450446
 31
0.0
  0
LINE
  5
2CF
330
1F
100
AcDbEntity
  8
躯体
  6
Continuous
 62
     2
370
     9
100
AcDbLine
 10
-31.28290356173804
 20
268.8334107527545
 30
0.0
 11
-31.28290356173804
 21
268.8391674402282
 31
0.0
  0
LINE
  5
2D0
330
1F
100
AcDbEntity
  8
躯体
  6
Continuous
 62
     2
370
     9
100
AcDbLine
 10
-35.28290898184846
 20
268.8334107527545
 30
0.0
 11
-35.28290898184846
 21
268.8391674402282
 31
0.0
  0
LINE
  5
2D1
330
1F
100
AcDbEntity
  8
躯体
  6
Continuous
 62
     2
370
     9
100
AcDbLine
 10
-72.48503809547654
 20
229.8808462039528
 30
0.0
 11
-68.87841215190608
 21
230.0610182736055
 31
0.0
  0
LINE
  5
2D2
330
1F
100
AcDbEntity
  8
躯体
  6
Continuous
 62
     2
370
     9
100
AcDbLine
 10
-68.94234812767678
 20
229.8726748572957
 30
0.0
 11
-72.48754024231161
 21
229.8726748572957
 31
0.0
  0
LINE
  5
2D3
330
1F
100
AcDbEntity
  8
躯体
  6
Continuous
 62
     2
370
     9
100
AcDbLine
 10
-61.28290921750539
 20
229.8726748572957
 30
0.0
 11
-62.94764174919658
 21
229.8726748572957
 31
0.0
  0
LINE
  5
2D4
330
1F
100
AcDbEntity
  8
躯体
  6
Continuous
 62
     2
370
     9
100
AcDbLine
 10
-61.28290921750539
 20
230.1726525170146
 30
0.0
 11
-62.82452912590085
 21
230.1726525170146
 31
0.0
  0
LINE
  5
2D5
330
1F
100
AcDbEntity
  8
0-9
  6
Continuous
 62
     4
370
     9
100
AcDbLine
 10
-57.53290851053453
 20
224.3678468350421
 30
0.0
 11
-64.61674866346647
 21
224.3678468350421
 31
0.0
  0
LINE
  5
2D6
330
1F
100
AcDbEntity
  8
躯体
  6
Continuous
 62
     2
370
     9
100
AcDbLine
 10
-25.84545852872716
 20
254.7546441471858
 30
0.0
 11
-24.07287122017496
 21
257.8248658014224
 31
0.0
  0
LINE
  5
2D7
330
1F
100
AcDbEntity
  8
躯体
  6
Continuous
 62
     2
370
     9
100
AcDbLine
 10
-24.0812000446048
 20
257.8267817809918
 30
0.0
 11
-26.04055599173847
 21
254.7934449206591
 31
0.0
  0
LINE
  5
2D8
330
1F
100
AcDbEntity
  8
躯体
  6
Continuous
 62
     2
370
     9
100
AcDbLine
 10
-29.6751954813432
 20
248.1213566510977
 30
0.0
 11
-28.84282046673243
 21
249.5630744101602
 31
0.0
  0
LINE
  5
2D9
330
1F
100
AcDbEntity
  8
躯体
  6
Continuous
 62
     2
370
     9
100
AcDbLine
 10
-29.934998811459
 20
248.2713629784875
 30
0.0
 11
-29.16419760602648
 21
249.6064420390456
 31
0.0
  0
LINE
  5
2DA
330
1F
100
AcDbEntity
  8
0-9
  6
Continuous
 62
     4
370
     9
100
AcDbLine
 10
-23.24100363394328
 20
248.2561576246438
 30
0.0
 11
-26.78575831032029
 21
242.1165541976259
 31
0.0
  0
LINE
  5
2DB
330
1F
100
AcDbEntity
  8
0-9
  6
Continuous
 62
     4
370
     9
100
AcDbLine
 10
-15.53292158949657
 20
235.6261777803848
 30
0.0
 11
-11.9910015130306
 21
241.7609693865662
 31
0.0
  0
LINE
  5
2DC
330
1F
100
AcDbEntity
  8
躯体
  6
Continuous
 62
     2
370
     9
100
AcDbLine
 10
-5.0608596663848
 20
242.7546278868546
 30
0.0
 11
-3.288272357832597
 21
245.8248495410912
 31
0.0
  0
LINE
  5
2DD
330
1F
100
AcDbEntity
  8
躯体
  6
Continuous
 62
     2
370
     9
100
AcDbLine
 10
-3.282445680237657
 20
245.8185941740035
 30
0.0
 11
-4.929715676674533
 21
242.6050852440183
 31
0.0
  0
LINE
  5
2DE
330
1F
100
AcDbEntity
  8
躯体
  6
Continuous
 62
     2
370
     9
100
AcDbLine
 10
-8.890579121470495
 20
236.1213578882969
 30
0.0
 11
-8.05822160439007
 21
237.563058149829
 31
0.0
  0
LINE
  5
2DF
330
1F
100
AcDbEntity
  8
躯体
  6
Continuous
 62
     2
370
     9
100
AcDbLine
 10
-8.630775791354694
 20
235.9713690584374
 30
0.0
 11
-7.859974585922089
 21
237.3064306214653
 31
0.0
  0
ARC
  5
2E0
330
1F
100
AcDbEntity
  8
0-8
  6
Continuous
 62
     4
370
     9
100
AcDbCircle
 10
13.71706992685236
 20
217.8726585969644
 30
0.0
 40
5.999999928198266
100
AcDbArc
 50
0.0
 51
180.0
  0
ARC
  5
2E1
330
1F
100
AcDbEntity
  8
0-8
  6
Continuous
 62
     4
370
     9
100
AcDbCircle
 10
-80.28288247043886
 20
217.8726585969645
 30
0.0
 40
5.999999928198266
100
AcDbArc
 50
0.0
 51
180.0
  0
ARC
  5
2E2
330
1F
100
AcDbEntity
  8
躯体
  6
Continuous
 62
     2
370
     9
100
AcDbCircle
 10
-33.28290627179325
 20
217.8726585969644
 30
0.0
 40
52.99998432881123
100
AcDbArc
 50
20.9565124511719
 51
39.04348754882816
  0
ARC
  5
2E3
330
1F
100
AcDbEntity
  8
躯体
  6
Continuous
 62
     2
370
     9
100
AcDbCircle
 10
-33.28290627179325
 20
217.8726585969644
 30
0.0
 40
56.00000589142434
100
AcDbArc
 50
20.63636779785158
 51
39.36363220214845
  0
ARC
  5
2E4
330
1F
100
AcDbEntity
  8
躯体
  6
Continuous
 62
     2
370
     9
100
AcDbCircle
 10
-33.28290627179325
 20
217.8726585969644
 30
0.0
 40
56.99998974892161
100
AcDbArc
 50
19.02407836914065
 51
40.9759216308594
  0
ARC
  5
2E5
330
1F
100
AcDbEntity
  8
躯体
  6
Continuous
 62
     2
370
     9
100
AcDbCircle
 10
-33.28290627179325
 20
217.8726585969644
 30
0.0
 40
51.49999104503499
100
AcDbArc
 50
19.45465087890626
 51
40.54534912109376
  0
ARC
  5
2E6
330
1F
100
AcDbEntity
  8
躯体
  6
Continuous
 62
     2
370
     9
100
AcDbCircle
 10
-33.28290627179325
 20
217.8726585969644
 30
0.0
 40
52.99998432881123
100
AcDbArc
 50
50.95651245117187
 51
69.04348754882812
  0
ARC
  5
2E7
330
1F
100
AcDbEntity
  8
躯体
  6
Continuous
 62
     2
370
     9
100
AcDbCircle
 10
-33.28290627179325
 20
217.8726585969644
 30
0.0
 40
56.00000589142434
100
AcDbArc
 50
50.63636779785155
 51
69.36363220214842
  0
ARC
  5
2E8
330
1F
100
AcDbEntity
  8
躯体
  6
Continuous
 62
     2
370
     9
100
AcDbCircle
 10
-33.28290627179325
 20
217.8726585969644
 30
0.0
 40
56.99998974892161
100
AcDbArc
 50
49.02407836914062
 51
70.97592163085938
  0
ARC
  5
2E9
330
1F
100
AcDbEntity
  8
躯体
  6
Continuous
 62
     2
370
     9
100
AcDbCircle
 10
-33.28290627179325
 20
217.8726585969644
 30
0.0
 40
51.49999104503499
100
AcDbArc
 50
49.45465087890624
 51
70.54534912109374
  0
ARC
  5
2EA
330
1F
100
AcDbEntity
  8
躯体
  6
Continuous
 62
     2
370
     9
100
AcDbCircle
 10
-33.28290627179325
 20
217.8726585969644
 30
0.0
 40
52.99998432881123
100
AcDbArc
 50
80.95651245117189
 51
99.04348754882814
  0
ARC
  5
2EB
330
1F
100
AcDbEntity
  8
躯体
  6
Continuous
 62
     2
370
     9
100
AcDbCircle
 10
-33.28290627179325
 20
217.8726585969644
 30
0.0
 40
56.00000589142434
100
AcDbArc
 50
80.63636779785156
 51
99.36363220214844
  0
ARC
  5
2EC
330
1F
100
AcDbEntity
  8
躯体
  6
Continuous
 62
     2
370
     9
100
AcDbCircle
 10
-33.28290627179325
 20
217.8726585969644
 30
0.0
 40
56.99998974892161
100
AcDbArc
 50
79.02407836914064
 51
100.9759216308594
  0
ARC
  5
2ED
330
1F
100
AcDbEntity
  8
躯体
  6
Continuous
 62
     2
370
     9
100
AcDbCircle
 10
-33.28290627179325
 20
217.8726585969644
 30
0.0
 40
52.99998432881123
100
AcDbArc
 50
110.9565124511719
 51
129.0434875488282
  0
ARC
  5
2EE
330
1F
100
AcDbEntity
  8
躯体
  6
Continuous
 62
     2
370
     9
100
AcDbCircle
 10
-33.28290627179325
 20
217.8726585969644
 30
0.0
 40
56.00000589142434
100
AcDbArc
 50
110.6363677978516
 51
129.3636322021485
  0
ARC
  5
2EF
330
1F
100
AcDbEntity
  8
躯体
  6
Continuous
 62
     2
370
     9
100
AcDbCircle
 10
-33.28290627179325
 20
217.8726585969644
 30
0.0
 40
56.99998974892161
100
AcDbArc
 50
109.0240783691407
 51
130.9759216308594
  0
ARC
  5
2F0
330
1F
100
AcDbEntity
  8
躯体
  6
Continuous
 62
     2
370
     9
100
AcDbCircle
 10
-33.28290627179325
 20
217.8726585969644
 30
0.0
 40
51.49999104503499
100
AcDbArc
 50
109.4546508789063
 51
130.5453491210938
  0
ARC
  5
2F1
330
1F
100
AcDbEntity
  8
躯体
  6
Continuous
 62
     2
370
     9
100
AcDbCircle
 10
-33.28290627179325
 20
217.8726585969644
 30
0.0
 40
52.99998432881123
100
AcDbArc
 50
140.9565124511719
 51
159.0434875488281
  0
ARC
  5
2F2
330
1F
100
AcDbEntity
  8
躯体
  6
Continuous
 62
     2
370
     9
100
AcDbCircle
 10
-33.28290627179325
 20
217.8726585969644
 30
0.0
 40
56.00000589142434
100
AcDbArc
 50
140.6363677978515
 51
159.3636322021484
  0
ARC
  5
2F3
330
1F
100
AcDbEntity
  8
躯体
  6
Continuous
 62
     2
370
     9
100
AcDbCircle
 10
-33.28290627179325
 20
217.8726585969644
 30
0.0
 40
56.99998974892161
100
AcDbArc
 50
139.0240783691406
 51
160.9759216308594
  0
ARC
  5
2F4
330
1F
100
AcDbEntity
  8
躯体
  6
Continuous
 62
     2
370
     9
100
AcDbCircle
 10
-33.28290627179325
 20
217.8726585969644
 30
0.0
 40
51.49999104503499
100
AcDbArc
 50
139.4546508789062
 51
160.5453491210938
  0
ARC
  5
2F5
330
1F
100
AcDbEntity
  8
躯体
  6
Continuous
 62
     2
370
     9
100
AcDbCircle
 10
-19.28292229646743
 20
242.1213660184625
 30
0.0
 40
11.99999985639653
100
AcDbArc
 50
150.0
 51
330.0
  0
ARC
  5
2F6
330
1F
100
AcDbEntity
  8
躯体
  6
Continuous
 62
     2
370
     9
100
AcDbCircle
 10
-34.18213934973727
 20
243.8571035281715
 30
0.0
 40
1.999999976066088
100
AcDbArc
 50
353.3548583984375
 51
91.98190307617188
  0
ARC
  5
2F7
330
1F
100
AcDbEntity
  8
躯体
  6
Continuous
 62
     2
370
     9
100
AcDbCircle
 10
-33.28290627179325
 20
217.8726585969644
 30
0.0
 40
28.00000294571217
100
AcDbArc
 50
86.8465118408203
 51
91.9820098876953
  0
ARC
  5
2F8
330
1F
100
AcDbEntity
  8
躯体
  6
Continuous
 62
     2
370
     9
100
AcDbCircle
 10
-19.28292229646743
 20
242.1213660184625
 30
0.0
 40
13.00000011782848
100
AcDbArc
 50
163.4232635498047
 51
173.3551177978516
  0
ARC
  5
2F9
330
1F
100
AcDbEntity
  8
躯体
  6
Continuous
 62
     2
370
     9
100
AcDbCircle
 10
-10.33010094047836
 20
230.086109732077
 30
0.0
 40
1.999999976066088
100
AcDbArc
 50
28.01785278320314
 51
126.6451263427734
  0
ARC
  5
2FA
330
1F
100
AcDbEntity
  8
躯体
  6
Continuous
 62
     2
370
     9
100
AcDbCircle
 10
-19.28292229646743
 20
242.1213660184625
 30
0.0
 40
13.00000011782848
100
AcDbArc
 50
173.3551177978516
 51
306.6448364257812
  0
ARC
  5
2FB
330
1F
100
AcDbEntity
  8
躯体
  6
Continuous
 62
     2
370
     9
100
AcDbCircle
 10
-19.28292229646743
 20
242.1213660184625
 30
0.0
 40
13.00000011782848
100
AcDbArc
 50
306.6448364257812
 51
316.5767364501953
  0
ARC
  5
2FC
330
1F
100
AcDbEntity
  8
躯体
  6
Continuous
 62
     2
370
     9
100
AcDbCircle
 10
-33.28290627179325
 20
217.8726585969644
 30
0.0
 40
28.00000294571217
100
AcDbArc
 50
28.0179443359375
 51
33.15347290039062
  0
ARC
  5
2FD
330
1F
100
AcDbEntity
  8
躯体
  6
Continuous
 62
     2
370
     9
100
AcDbCircle
 10
-61.28290921750539
 20
217.8726585969645
 30
0.0
 40
13.00000011782848
100
AcDbArc
 50
66.64486694335938
 51
76.57673645019531
  0
ARC
  5
2FE
330
1F
100
AcDbEntity
  8
躯体
  6
Continuous
 62
     2
370
     9
100
AcDbCircle
 10
-33.28290627179325
 20
217.8726585969644
 30
0.0
 40
28.00000294571217
100
AcDbArc
 50
148.0180053710938
 51
153.1534576416016
  0
ARC
  5
2FF
330
1F
100
AcDbEntity
  8
躯体
  6
Continuous
 62
     2
370
     9
100
AcDbCircle
 10
-55.33647852516404
 20
231.6436348955286
 30
0.0
 40
1.999999976066088
100
AcDbArc
 50
148.017837524414
 51
246.6450195312501
  0
ARC
  5
300
330
1F
100
AcDbEntity
  8
躯体
  6
Continuous
 62
     2
370
     9
100
AcDbCircle
 10
-33.28290627179325
 20
217.8726585969644
 30
0.0
 40
51.49999104503499
100
AcDbArc
 50
10.26597595214844
 51
10.54534912109376
  0
ARC
  5
301
330
1F
100
AcDbEntity
  8
躯体
  6
Continuous
 62
     2
370
     9
100
AcDbCircle
 10
-33.28290627179325
 20
217.8726585969644
 30
0.0
 40
51.49999104503499
100
AcDbArc
 50
169.4546508789062
 51
169.7340240478516
  0
ARC
  5
302
330
1F
100
AcDbEntity
  8
躯体
  6
Continuous
 62
     2
370
     9
100
AcDbCircle
 10
-83.70697417776421
 20
225.872651939655
 30
0.0
 40
0.999999988033044
100
AcDbArc
 50
170.9850006103515
 51
269.9999999999999
  0
ARC
  5
303
330
1F
100
AcDbEntity
  8
躯体
  6
Continuous
 62
     2
370
     9
100
AcDbCircle
 10
-36.28289283934569
 20
268.8391674402282
 30
0.0
 40
0.999999988033044
100
AcDbArc
 50
0.0
 51
93.368408203125
  0
ARC
  5
304
330
1F
100
AcDbEntity
  8
躯体
  6
Continuous
 62
     2
370
     9
100
AcDbCircle
 10
-33.28290627179325
 20
217.8726585969644
 30
0.0
 40
51.49999104503499
100
AcDbArc
 50
95.68215942382811
 51
100.5453491210938
  0
ARC
  5
305
330
1F
100
AcDbEntity
  8
躯体
  6
Continuous
 62
     2
370
     9
100
AcDbCircle
 10
-33.28290627179325
 20
217.8726585969644
 30
0.0
 40
52.054732746139
100
AcDbArc
 50
86.63133239746095
 51
93.36866760253908
  0
ARC
  5
306
330
1F
100
AcDbEntity
  8
躯体
  6
Continuous
 62
     2
370
     9
100
AcDbCircle
 10
-30.28291970424073
 20
268.8391674402282
 30
0.0
 40
0.999999988033044
100
AcDbArc
 50
86.63159179687499
 51
180.0
  0
ARC
  5
307
330
1F
100
AcDbEntity
  8
躯体
  6
Continuous
 62
     2
370
     9
100
AcDbCircle
 10
-33.28290627179325
 20
217.8726585969644
 30
0.0
 40
51.49999104503499
100
AcDbArc
 50
79.45465087890625
 51
84.31784057617188
  0
ARC
  5
308
330
1F
100
AcDbEntity
  8
躯体
  6
Continuous
 62
     2
370
     9
100
AcDbCircle
 10
-9.88380893226622
 20
231.3441996592496
 30
0.0
 40
1.999999976066088
100
AcDbArc
 50
29.93003845214843
 51
131.0923767089844
  0
ARC
  5
309
330
1F
100
AcDbEntity
  8
躯体
  6
Continuous
 62
     2
370
     9
100
AcDbCircle
 10
-56.64914324938883
 20
231.4011016278336
 30
0.0
 40
1.999999976066088
100
AcDbArc
 50
149.9300384521484
 51
251.0923767089843
  0
ARC
  5
30A
330
1F
100
AcDbEntity
  8
躯体
  6
Continuous
 62
     2
370
     9
100
AcDbCircle
 10
-33.28290627179325
 20
217.8726585969644
 30
0.0
 40
29.00000430073977
100
AcDbArc
 50
90.06973266601562
 51
149.9302673339844
  0
ARC
  5
30B
330
1F
100
AcDbEntity
  8
躯体
  6
Continuous
 62
     2
370
     9
100
AcDbCircle
 10
-33.31576663372462
 20
244.8726426901188
 30
0.0
 40
1.999999976066088
100
AcDbArc
 50
348.9076232910156
 51
90.06996154785153
  0
ARC
  5
30C
330
1F
100
AcDbEntity
  8
躯体
  6
Continuous
 62
     2
370
     9
100
AcDbCircle
 10
-61.28290921750539
 20
217.8726585969645
 30
0.0
 40
12.30000266881523
100
AcDbArc
 50
71.09266662597656
 51
90.0
  0
ARC
  5
30D
330
1F
100
AcDbEntity
  8
躯体
  6
Continuous
 62
     2
370
     9
100
AcDbCircle
 10
-19.28292229646743
 20
242.1213660184625
 30
0.0
 40
12.30000266881523
100
AcDbArc
 50
150.0
 51
168.9073638916016
  0
ARC
  5
30E
330
1F
100
AcDbEntity
  8
躯体
  6
Continuous
 62
     2
370
     9
100
AcDbCircle
 10
-19.28292229646743
 20
242.1213660184625
 30
0.0
 40
12.30000266881523
100
AcDbArc
 50
311.0927276611329
 51
330.0
  0
ARC
  5
30F
330
1F
100
AcDbEntity
  8
躯体
  6
Continuous
 62
     2
370
     9
100
AcDbCircle
 10
-33.28290627179325
 20
217.8726585969644
 30
0.0
 40
28.00000294571217
100
AcDbArc
 50
91.98200988769531
 51
148.0180053710938
  0
CIRCLE
  5
310
330
1F
100
AcDbEntity
  8
0-9
  6
Continuous
 62
     4
370
     9
100
AcDbCircle
 10
-19.28292229646743
 20
242.1213660184625
 30
0.0
 40
3.999999952132176
  0
CIRCLE
  5
311
330
1F
100
AcDbEntity
  8
0-9
  6
Continuous
 62
     4
370
     9
100
AcDbCircle
 10
-19.28292229646743
 20
242.1213660184625
 30
0.0
 40
3.323499772539469
  0
ARC
  5
312
330
1F
100
AcDbEntity
  8
躯体
  6
Continuous
 62
     2
370
     9
100
AcDbCircle
 10
-33.28290627179325
 20
217.8726585969644
 30
0.0
 40
56.00000589142434
100
AcDbArc
 50
0.0
 51
9.363632202148438
  0
ARC
  5
313
330
1F
100
AcDbEntity
  8
躯体
  6
Continuous
 62
     2
370
     9
100
AcDbCircle
 10
-33.28290627179325
 20
217.8726585969644
 30
0.0
 40
56.99998974892161
100
AcDbArc
 50
0.0
 51
10.97592163085938
  0
ARC
  5
314
330
1F
100
AcDbEntity
  8
躯体
  6
Continuous
 62
     2
370
     9
100
AcDbCircle
 10
-33.28290627179325
 20
217.8726585969644
 30
0.0
 40
28.00000294571217
100
AcDbArc
 50
0.0
 51
28.0179443359375
  0
ARC
  5
315
330
1F
100
AcDbEntity
  8
躯体
  6
Continuous
 62
     2
370
     9
100
AcDbCircle
 10
-33.28290627179325
 20
217.8726585969644
 30
0.0
 40
29.00000430073977
100
AcDbArc
 50
0.0
 51
29.93026733398438
  0
ARC
  5
316
330
1F
100
AcDbEntity
  8
躯体
  6
Continuous
 62
     2
370
     9
100
AcDbCircle
 10
-61.28290921750539
 20
217.8726585969645
 30
0.0
 40
11.99999985639653
100
AcDbArc
 50
0.0
 51
90.0
  0
ARC
  5
317
330
1F
100
AcDbEntity
  8
躯体
  6
Continuous
 62
     2
370
     9
100
AcDbCircle
 10
-61.28290921750539
 20
217.8726585969645
 30
0.0
 40
13.00000011782848
100
AcDbArc
 50
0.0
 51
66.64486694335938
  0
ARC
  5
318
330
1F
100
AcDbEntity
  8
躯体
  6
Continuous
 62
     2
370
     9
100
AcDbCircle
 10
-33.28290627179325
 20
217.8726585969644
 30
0.0
 40
52.99998432881123
100
AcDbArc
 50
170.9565124511719
 51
180.0
  0
ARC
  5
319
330
1F
100
AcDbEntity
  8
躯体
  6
Continuous
 62
     2
370
     9
100
AcDbCircle
 10
-33.28290627179325
 20
217.8726585969644
 30
0.0
 40
56.00000589142434
100
AcDbArc
 50
170.6363677978516
 51
180.0
  0
ARC
  5
31A
330
1F
100
AcDbEntity
  8
躯体
  6
Continuous
 62
     2
370
     9
100
AcDbCircle
 10
-33.28290627179325
 20
217.8726585969644
 30
0.0
 40
56.99998974892161
100
AcDbArc
 50
169.0240783691406
 51
180.0
  0
ARC
  5
31B
330
1F
100
AcDbEntity
  8
0-9
  6
Continuous
 62
     4
370
     9
100
AcDbCircle
 10
-61.28290921750539
 20
217.8726585969645
 30
0.0
 40
3.999999952132176
100
AcDbArc
 50
0.0001525878906643
 51
179.9998779296876
  0
ARC
  5
31C
330
1F
100
AcDbEntity
  8
0-9
  6
Continuous
 62
     4
370
     9
100
AcDbCircle
 10
-61.28290921750539
 20
217.8726585969645
 30
0.0
 40
3.323499772539469
100
AcDbArc
 50
0.0001525878906643
 51
179.9998474121094
  0
ARC
  5
31D
330
1F
100
AcDbEntity
  8
躯体
  6
Continuous
 62
     2
370
     9
100
AcDbCircle
 10
-33.28290627179325
 20
217.8726585969644
 30
0.0
 40
52.054732746139
100
AcDbArc
 50
3.745147705078127
 51
9.015075683593752
  0
ARC
  5
31E
330
1F
100
AcDbEntity
  8
躯体
  6
Continuous
 62
     2
370
     9
100
AcDbCircle
 10
-33.28290627179325
 20
217.8726585969644
 30
0.0
 40
52.99998432881123
100
AcDbArc
 50
0.0
 51
9.043487548828125
  0
ARC
  5
31F
330
1F
100
AcDbEntity
  8
躯体
  6
Continuous
 62
     2
370
     9
100
AcDbCircle
 10
-33.28290627179325
 20
217.8726585969644
 30
0.0
 40
52.054732746139
100
AcDbArc
 50
170.9849243164062
 51
176.2548522949219
  0
ELLIPSE
  5
320
330
1F
100
AcDbEntity
  8
0-B
  6
Continuous
 62
     4
370
     9
100
AcDbEllipse
 10
-33.28290627179325
 20
248.0462834972815
 30
0.0
 11
-3.0000040650828
 21
3.673945375732699E-16
 31
0.0
210
0.0
220
0.0
230
1.0
 40
0.0694
 41
0.0
 42
3.141592653589791
  0
ELLIPSE
  5
321
330
1F
100
AcDbEntity
  8
0-B
  6
Continuous
 62
     4
370
     9
100
AcDbEllipse
 10
-33.28290627179325
 20
254.8708015021813
 30
0.0
 11
-3.0000040650828
 21
3.673945375732699E-16
 31
0.0
210
0.0
220
0.0
230
1.0
 40
0.0694
 41
0.0
 42
3.141592653589791
  0
ELLIPSE
  5
322
330
1F
100
AcDbEntity
  8
0-B
  6
Continuous
 62
     4
370
     9
100
AcDbEllipse
 10
-33.28290627179325
 20
260.0173325961765
 30
0.0
 11
-5.000006775138001
 21
6.123242292887832E-16
 31
0.0
210
0.0
220
0.0
230
1.0
 40
0.0694
 41
0.0
 42
3.141592653589791
  0
ARC
  5
323
330
1F
100
AcDbEntity
  8
仕上
  6
Continuous
 62
     6
370
     9
100
AcDbCircle
 10
-47.16455444959928
 20
253.9163024747377
 30
0.0
 40
0.999999988033044
100
AcDbArc
 50
209.9985656738281
 51
291.0644226074219
  0
ARC
  5
324
330
1F
100
AcDbEntity
  8
仕上
  6
Continuous
 62
     6
370
     9
100
AcDbCircle
 10
-39.28282691430729
 20
256.0282106399219
 30
0.0
 40
0.999999988033044
100
AcDbArc
 50
278.9386901855469
 51
0.0
  0
ARC
  5
325
330
1F
100
AcDbEntity
  8
仕上
  6
Continuous
 62
     6
370
     9
100
AcDbCircle
 10
-33.28290627179325
 20
217.8726585969644
 30
0.0
 40
37.62441013586567
100
AcDbArc
 50
98.93647766113276
 51
111.0633850097656
  0
ARC
  5
326
330
1F
100
AcDbEntity
  8
仕上
  6
Continuous
 62
     6
370
     9
100
AcDbCircle
 10
-63.32660326075697
 20
242.1465449645856
 30
0.0
 40
0.999999988033044
100
AcDbArc
 50
239.9985656738282
 51
321.0644226074219
  0
ARC
  5
327
330
1F
100
AcDbEntity
  8
仕上
  6
Continuous
 62
     6
370
     9
100
AcDbCircle
 10
-57.55681013694462
 20
247.9163468371631
 30
0.0
 40
0.999999988033044
100
AcDbArc
 50
308.9386901855469
 51
30.00000000000002
  0
ARC
  5
328
330
1F
100
AcDbEntity
  8
仕上
  6
Continuous
 62
     6
370
     9
100
AcDbCircle
 10
-33.28290627179325
 20
217.8726585969644
 30
0.0
 40
37.62441013586567
100
AcDbArc
 50
128.9364776611328
 51
141.0633850097656
  0
ARC
  5
329
330
1F
100
AcDbEntity
  8
仕上
  6
Continuous
 62
     6
370
     9
100
AcDbCircle
 10
-69.32657639586193
 20
231.7543592673615
 30
0.0
 40
0.999999988033044
100
AcDbArc
 50
338.9386901855468
 51
59.99999999999999
  0
ARC
  5
32A
330
1F
100
AcDbEntity
  8
仕上
  6
Continuous
 62
     6
370
     9
100
AcDbCircle
 10
2.76074635474518
 20
231.7543067747704
 30
0.0
 40
0.999999988033044
100
AcDbArc
 50
119.9985656738282
 51
201.0644226074219
  0
ARC
  5
32B
330
1F
100
AcDbEntity
  8
仕上
  6
Continuous
 62
     6
370
     9
100
AcDbCircle
 10
-9.009002406641798
 20
247.9163468371631
 30
0.0
 40
0.999999988033044
100
AcDbArc
 50
149.9985656738282
 51
231.0644226074219
  0
ARC
  5
32C
330
1F
100
AcDbEntity
  8
仕上
  6
Continuous
 62
     6
370
     9
100
AcDbCircle
 10
-3.239174287768861
 20
242.146509969525
 30
0.0
 40
0.999999988033044
100
AcDbArc
 50
218.9386901855469
 51
300.0
  0
ARC
  5
32D
330
1F
100
AcDbEntity
  8
仕上
  6
Continuous
 62
     6
370
     9
100
AcDbCircle
 10
-33.28290627179325
 20
217.8726585969644
 30
0.0
 40
37.62441013586567
100
AcDbArc
 50
38.93647766113281
 51
51.06338500976562
  0
ARC
  5
32E
330
1F
100
AcDbEntity
  8
仕上
  6
Continuous
 62
     6
370
     9
100
AcDbCircle
 10
-27.28298562927921
 20
256.028158147331
 30
0.0
 40
0.999999988033044
100
AcDbArc
 50
179.9985656738282
 51
261.0644226074219
  0
ARC
  5
32F
330
1F
100
AcDbEntity
  8
仕上
  6
Continuous
 62
     6
370
     9
100
AcDbCircle
 10
-19.40125809398722
 20
253.9163024747377
 30
0.0
 40
0.999999988033044
100
AcDbArc
 50
248.9386901855468
 51
330.0
  0
ARC
  5
330
330
1F
100
AcDbEntity
  8
仕上
  6
Continuous
 62
     6
370
     9
100
AcDbCircle
 10
-33.28290627179325
 20
217.8726585969644
 30
0.0
 40
37.62441013586567
100
AcDbArc
 50
68.93647766113276
 51
81.06338500976557
  0
ARC
  5
331
330
1F
100
AcDbEntity
  8
仕上
  6
Continuous
 62
     6
370
     9
100
AcDbCircle
 10
-33.28290627179325
 20
254.3801882496815
 30
0.0
 40
1.500259437616267
100
AcDbArc
 50
181.0521392822266
 51
358.9478607177734
  0
ARC
  5
332
330
1F
100
AcDbEntity
  8
仕上
  6
Continuous
 62
     6
370
     9
100
AcDbCircle
 10
-33.28290627179325
 20
217.8726585969644
 30
0.0
 40
49.99998901249358
100
AcDbArc
 50
7.033462524414062
 51
11.53695678710938
  0
ARC
  5
333
330
1F
100
AcDbEntity
  8
仕上
  6
Continuous
 62
     6
370
     9
100
AcDbCircle
 10
-33.28290627179325
 20
217.8726585969644
 30
0.0
 40
49.99998901249358
100
AcDbArc
 50
168.4630432128906
 51
172.9665222167969
  0
ARC
  5
334
330
1F
100
AcDbEntity
  8
仕上
  6
Continuous
 62
     6
370
     9
100
AcDbCircle
 10
-71.39014763355121
 20
224.1722244461214
 30
0.0
 40
0.999999988033044
100
AcDbArc
 50
252.7977142333984
 51
350.6128082275391
  0
ARC
  5
335
330
1F
100
AcDbEntity
  8
仕上
  6
Continuous
 62
     6
370
     9
100
AcDbCircle
 10
-33.28290627179325
 20
217.8726585969644
 30
0.0
 40
37.62441013586567
100
AcDbArc
 50
158.9364776611328
 51
170.6132507324218
  0
ARC
  5
336
330
1F
100
AcDbEntity
  8
仕上
  6
Continuous
 62
     6
370
     9
100
AcDbCircle
 10
4.824300094904117
 20
224.1722244461213
 30
0.0
 40
0.999999988033044
100
AcDbArc
 50
189.3871917724609
 51
287.2022857666016
  0
ARC
  5
337
330
1F
100
AcDbEntity
  8
仕上
  6
Continuous
 62
     6
370
     9
100
AcDbCircle
 10
-33.28290627179325
 20
217.8726585969644
 30
0.0
 40
37.62441013586567
100
AcDbArc
 50
9.386779785156271
 51
21.06338500976565
  0
ARC
  5
338
330
1F
100
AcDbEntity
  8
仕上
  6
Continuous
 62
     6
370
     9
100
AcDbCircle
 10
-33.28290627179325
 20
217.8726585969644
 30
0.0
 40
40.96248398416291
100
AcDbArc
 50
0.0
 51
14.12953186035156
  0
ARC
  5
339
330
1F
100
AcDbEntity
  8
仕上
  6
Continuous
 62
     6
370
     9
100
AcDbCircle
 10
-33.28290627179325
 20
217.8726585969644
 30
0.0
 40
31.99994931165775
100
AcDbArc
 50
0.0
 51
180.0
  0
ARC
  5
33A
330
1F
100
AcDbEntity
  8
仕上
  6
Continuous
 62
     6
370
     9
100
AcDbCircle
 10
-33.28290627179325
 20
217.8726585969644
 30
0.0
 40
36.51079512931205
100
AcDbArc
 50
0.0
 51
180.0
  0
ARC
  5
33B
330
1F
100
AcDbEntity
  8
仕上
  6
Continuous
 62
     6
370
     9
100
AcDbCircle
 10
-33.28290627179325
 20
217.8726585969644
 30
0.0
 40
40.96248398416291
100
AcDbArc
 50
165.8704681396485
 51
180.0
  0
ARC
  5
33C
330
1F
100
AcDbEntity
  8
仕上
  6
Continuous
 62
     6
370
     9
100
AcDbCircle
 10
-33.28290627179325
 20
217.8726585969644
 30
0.0
 40
41.00004243298387
100
AcDbArc
 50
15.56268310546874
 51
85.80392456054686
  0
ARC
  5
33D
330
1F
100
AcDbEntity
  8
仕上
  6
Continuous
 62
     6
370
     9
100
AcDbCircle
 10
-33.28290627179325
 20
217.8726585969644
 30
0.0
 40
41.00004243298387
100
AcDbArc
 50
94.19607543945318
 51
164.4376373291016
  0
ARC
  5
33E
330
1F
100
AcDbEntity
  8
0-B
  6
Continuous
 62
     4
370
     9
100
AcDbCircle
 10
-33.28290627179325
 20
259.0081625352639
 30
0.0
 40
5.100833559588575
100
AcDbArc
 50
95.62509155273438
 51
168.5890808105469
  0
ARC
  5
33F
330
1F
100
AcDbEntity
  8
0-B
  6
Continuous
 62
     4
370
     9
100
AcDbCircle
 10
-33.28290627179325
 20
259.0081625352639
 30
0.0
 40
5.100833559588575
100
AcDbArc
 50
11.41091918945312
 51
84.37490844726562
  0
ARC
  5
340
330
1F
100
AcDbEntity
  8
仕上
  6
Continuous
 62
     6
370
     9
100
AcDbCircle
 10
-33.28290627179325
 20
217.8726585969644
 30
0.0
 40
50.9999859931386
100
AcDbArc
 50
5.739181518554688
 51
174.2608184814453
  0
ARC
  5
341
330
1F
100
AcDbEntity
  8
仕上
  6
Continuous
 62
     6
370
     9
100
AcDbCircle
 10
16.46642187017406
 20
222.8726653721025
 30
0.0
 40
0.999999988033044
100
AcDbArc
 50
343.5456237792969
 51
5.73968505859375
  0
ARC
  5
342
330
1F
100
AcDbEntity
  8
仕上
  6
Continuous
 62
     6
370
     9
100
AcDbCircle
 10
15.34832968305116
 20
223.8726667271301
 30
0.0
 40
0.999999988033044
100
AcDbArc
 50
327.6683654785156
 51
7.033477783203134
  0
ARC
  5
343
330
1F
100
AcDbEntity
  8
躯体
  6
Continuous
 62
     2
370
     9
100
AcDbCircle
 10
16.40861003001359
 20
226.8726707922129
 30
0.0
 40
0.999999988033044
100
AcDbArc
 50
309.7768249511719
 51
10.26565551757812
  0
ARC
  5
344
330
1F
100
AcDbEntity
  8
躯体
  6
Continuous
 62
     2
370
     9
100
AcDbCircle
 10
17.14116163417779
 20
225.8726519396549
 30
0.0
 40
0.999999988033044
100
AcDbArc
 50
275.3151550292969
 51
9.014999389648452
  0
ARC
  5
345
330
1F
100
AcDbEntity
  8
躯体
  6
Continuous
 62
     2
370
     9
100
AcDbCircle
 10
-28.28288199912492
 20
268.1245158095761
 30
0.0
 40
0.999999988033044
100
AcDbArc
 50
84.31733703613283
 51
144.8089752197266
  0
ARC
  5
346
330
1F
100
AcDbEntity
  8
躯体
  6
Continuous
 62
     2
370
     9
100
AcDbCircle
 10
-38.28293054446158
 20
268.1245158095761
 30
0.0
 40
0.999999988033044
100
AcDbArc
 50
35.19102478027344
 51
95.6826629638672
  0
ARC
  5
347
330
1F
100
AcDbEntity
  8
躯体
  6
Continuous
 62
     2
370
     9
100
AcDbCircle
 10
-82.9744225736001
 20
226.872670792213
 30
0.0
 40
0.999999988033044
100
AcDbArc
 50
169.7343444824218
 51
230.2231750488281
  0
ARC
  5
348
330
1F
100
AcDbEntity
  8
仕上
  6
Continuous
 62
     6
370
     9
100
AcDbCircle
 10
-83.03223441376056
 20
222.8726653721026
 30
0.0
 40
0.999999988033044
100
AcDbArc
 50
174.2603149414062
 51
196.4543762207032
  0
ARC
  5
349
330
1F
100
AcDbEntity
  8
仕上
  6
Continuous
 62
     6
370
     9
100
AcDbCircle
 10
-81.91415972416792
 20
223.8726667271301
 30
0.0
 40
0.999999988033044
100
AcDbArc
 50
172.9665222167969
 51
212.3324737548828
  0
ARC
  5
34A
330
1F
100
AcDbEntity
  8
0-9
  6
Continuous
 62
     4
370
     9
100
AcDbCircle
 10
-61.28010961265502
 20
217.8774879153315
 30
0.0
 40
6.500000605712065
100
AcDbArc
 50
359.9574279785157
 51
122.9290771484376
  0
ARC
  5
34B
330
1F
100
AcDbEntity
  8
0-9
  6
Continuous
 62
     4
370
     9
100
AcDbCircle
 10
-19.28012269161707
 20
242.1165367000955
 30
0.0
 40
6.500000605712065
100
AcDbArc
 50
117.05126953125
 51
2.929061889648494
  0
LINE
  5
34C
330
1F
100
AcDbEntity
  8
その他
  6
Continuous
 62
     7
370
     9
100
AcDbLine
 10
-196.726849726175
 20
-106.0075098924476
 30
0.0
 11
-196.726849726175
 21
-36.00752002569746
 31
0.0
  0
TEXT
  5
34D
330
1F
100
AcDbEntity
  8
その他
  6
Continuous
 62
     2
370
   211
100
AcDbText
 10
-201.418849726175
 20
-77.38251495907252
 30
0.0
 40
9.144
  1
70
 50
90.0
 41
1.062500000000001
  7
ＭＳ ゴシック
100
AcDbText
  0
LINE
  5
34E
330
1F
100
AcDbEntity
  8
その他
  6
Continuous
 62
     7
370
     9
100
AcDbLine
 10
168.821848074738
 20
-95.0075082428487
 30
0.0
 11
168.821848074738
 21
-36.0075200256975
 31
0.0
  0
TEXT
  5
34F
330
1F
100
AcDbEntity
  8
その他
  6
Continuous
 62
     2
370
   211
100
AcDbText
 10
164.129848074738
 20
-71.88251413427311
 30
0.0
 40
9.144
  1
59
 50
90.0
 41
1.062500000000001
  7
ＭＳ ゴシック
100
AcDbText
  0
TEXT
  5
350
330
1F
100
AcDbEntity
  8
その他
  6
Continuous
 62
     2
370
   211
100
AcDbText
 10
146.7219293592446
 20
-144.8703690808072
 30
0.0
 40
9.144
  1
Ｃ
 50
90.0
  7
ＭＳ ゴシック
100
AcDbText
  0
TEXT
  5
351
330
1F
100
AcDbEntity
  8
寸法
  6
Continuous
 62
     7
370
     9
100
AcDbText
 10
-167.7135763523475
 20
-211.8825507486212
 30
0.0
 40
6.858000000000001
  1
スペーサー
 41
1.133333333333333
  7
ＭＳ ゴシック
100
AcDbText
  0
TEXT
  5
352
330
1F
100
AcDbEntity
  8
寸法
  6
Continuous
 62
     7
370
     9
100
AcDbText
 10
-203.2493010266734
 20
134.6255628246471
 30
0.0
 40
6.858000000000001
  1
樹脂系塗装
 41
1.133333333333329
  7
ＭＳ ゴシック
100
AcDbText
  0
LINE
  5
353
330
1F
100
AcDbEntity
  8
寸法
  6
Continuous
 62
     7
370
     9
100
AcDbLine
 10
-244.4816499069258
 20
144.6280158572696
 30
0.0
 11
-118.2183177436008
 21
144.6280158572696
 31
0.0
  0
TEXT
  5
354
330
1F
100
AcDbEntity
  8
寸法
  6
Continuous
 62
     7
370
     9
100
AcDbText
 10
-244.4816486697268
 20
148.5856227380762
 30
0.0
 40
6.858000000000001
  1
ストレーナー：ＦＣ１５０
 41
1.152777777777777
  7
ＭＳ ゴシック
100
AcDbText
  0
TEXT
  5
355
330
1F
100
AcDbEntity
  8
寸法
  6
Continuous
 62
     7
370
     9
100
AcDbText
 10
-247.9632032635126
 20
96.85051103647032
 30
0.0
 40
6.858000000000001
  1
Ｍ６×１２
 41
1.133333333333333
  7
ＭＳ ゴシック
100
AcDbText
  0
TEXT
  5
356
330
1F
100
AcDbEntity
  8
寸法
  6
Continuous
 62
     7
370
     9
100
AcDbText
 10
-284.1267835104262
 20
36.38648660849093
 30
0.0
 40
6.858000000000001
  1
ボルト：Ｃ３６０２Ｗ
 41
1.15
  7
ＭＳ ゴシック
100
AcDbText
  0
LINE
  5
357
330
1F
100
AcDbEntity
  8
寸法
  6
Continuous
 62
     7
370
     9
100
AcDbLine
 10
-64.98310943708236
 20
-84.74710951381017
 30
0.0
 11
-182.1287812918807
 21
32.3985930933937
 31
0.0
  0
LINE
  5
358
330
1F
100
AcDbEntity
  8
寸法
  6
Continuous
 62
     7
370
     9
100
AcDbLine
 10
-285.3644193128953
 20
32.39859309339374
 30
0.0
 11
-182.1287812918807
 21
32.39859309339374
 31
0.0
  0
TEXT
  5
359
330
1F
100
AcDbEntity
  8
寸法
  6
Continuous
 62
     7
370
     9
100
AcDbText
 10
-278.6701168437595
 20
113.079247707712
 30
0.0
 40
6.858000000000001
  1
丸小ねじ：Ｃ２７００Ｗ
 41
1.151515151515151
  7
ＭＳ ゴシック
100
AcDbText
  0
LINE
  5
35A
330
1F
100
AcDbEntity
  8
寸法
  6
Continuous
 62
     7
370
     9
100
AcDbLine
 10
-280.530197090673
 20
107.0809303776867
 30
0.0
 11
-163.717198088128
 21
107.0809303776867
 31
0.0
  0
TEXT
  5
35B
330
1F
100
AcDbEntity
  8
寸法
  6
Continuous
 62
     7
370
     9
100
AcDbText
 10
79.0269723222056
 20
152.3778413988008
 30
0.0
 40
6.858000000000001
  1
丸小ねじ：Ｃ２７００Ｗ
 41
1.151515151515151
  7
ＭＳ ゴシック
100
AcDbText
  0
LINE
  5
35C
330
1F
100
AcDbEntity
  8
寸法
  6
Continuous
 62
     7
370
     9
100
AcDbLine
 10
79.32737722491524
 20
148.1534291267399
 30
0.0
 11
194.6314449074329
 21
148.1534291267399
 31
0.0
  0
TEXT
  5
35D
330
1F
100
AcDbEntity
  8
寸法
  6
Continuous
 62
     7
370
     9
100
AcDbText
 10
118.0085185185185
 20
-204.9320359677173
 30
0.0
 40
6.858000000000001
  1
アンカー：ＳＷＲＭ８
 41
1.149999999999999
  7
ＭＳ ゴシック
100
AcDbText
  0
TEXT
  5
35E
330
1F
100
AcDbEntity
  8
寸法
  6
Continuous
 62
     7
370
     9
100
AcDbText
 10
133.3754320987654
 20
-217.6802964657642
 30
0.0
 40
6.858000000000001
  1
りん酸塩被膜
 41
1.138888888888889
  7
ＭＳ ゴシック
100
AcDbText
  0
LINE
  5
35F
330
1F
100
AcDbEntity
  8
寸法
  6
Continuous
 62
     7
370
     9
100
AcDbLine
 10
220.1249382716049
 20
-208.3461907660703
 30
0.0
 11
115.5195602068296
 21
-208.3461907660703
 31
0.0
  0
TEXT
  5
360
330
1F
100
AcDbEntity
  8
F-5ﾚｲﾔ
  6
Continuous
 62
     2
370
     9
100
AcDbText
 10
-31.30296296296295
 20
-279.308
 30
0.0
 40
9.144
  1
※ご注文の際はＣ寸法をご指示ください。
 41
1.118421052631579
  7
ＭＳ ゴシック
100
AcDbText
  0
TEXT
  5
361
330
1F
100
AcDbEntity
  8
寸法
  6
Continuous
 62
     7
370
     9
100
AcDbText
 10
-188.3408939902073
 20
-227.273395872557
 30
0.0
 40
6.858000000000001
  1
硬質ポリ塩化ビニル
 41
1.148148148148148
  7
ＭＳ ゴシック
100
AcDbText
  0
LINE
  5
362
330
1F
100
AcDbEntity
  8
寸法
  6
Continuous
 62
     7
370
     9
100
AcDbLine
 10
-118.2183177436007
 20
144.6280158572696
 30
0.0
 11
-56.90941428012664
 21
-36.00752002569751
 31
0.0
  0
LINE
  5
363
330
1F
100
AcDbEntity
  8
寸法
  6
Continuous
 62
     7
370
     9
100
AcDbLine
 10
-56.90941428012664
 20
-36.00752002569751
 30
0.0
 11
-60.22629234035227
 21
-29.28083288167226
 31
0.0
  0
LINE
  5
364
330
1F
100
AcDbEntity
  8
寸法
  6
Continuous
 62
     7
370
     9
100
AcDbLine
 10
-56.90941428012664
 20
-36.00752002569751
 30
0.0
 11
-58.37227771783012
 21
-28.65156797564777
 31
0.0
  0
ENDSEC
  0
SECTION
  2
OBJECTS
  0
DICTIONARY
  5
C
330
0
100
AcDbDictionary
281
     1
  3
ACAD_DETAILVIEWSTYLE
350
3AA
  3
ACAD_GROUP
350
D
  3
ACAD_LAYOUT
350
1A
  3
ACAD_MATERIAL
350
43
  3
ACAD_MLEADERSTYLE
350
6B
  3
ACAD_MLINESTYLE
350
17
  3
ACAD_PLOTSETTINGS
350
19
  3
ACAD_PLOTSTYLENAME
350
E
  3
ACAD_SCALELIST
350
47
  3
ACAD_SECTIONVIEWSTYLE
350
3AB
  3
ACAD_TABLESTYLE
350
69
  3
ACAD_VISUALSTYLE
350
2A
  3
ACDB_RECOMPOSE_DATA
350
3A7
  3
AcDbVariableDictionary
350
367
  0
DICTIONARY
  5
365
330
8
100
AcDbDictionary
280
     1
281
     1
  3
ACAD_XREC_ROUNDTRIP
360
366
  0
DICTIONARY
  5
3AA
102
{ACAD_REACTORS
330
C
102
}
330
C
100
AcDbDictionary
281
     1
  0
DICTIONARY
  5
D
102
{ACAD_REACTORS
330
C
102
}
330
C
100
AcDbDictionary
281
     1
  0
DICTIONARY
  5
1A
102
{ACAD_REACTORS
330
C
102
}
330
C
100
AcDbDictionary
281
     1
  3
Layout1
350
1E
  3
Layout2
350
26
  3
Model
350
22
  0
DICTIONARY
  5
43
102
{ACAD_REACTORS
330
C
102
}
330
C
100
AcDbDictionary
281
     1
  3
ByBlock
350
45
  3
ByLayer
350
44
  3
Global
350
46
  0
DICTIONARY
  5
6B
102
{ACAD_REACTORS
330
C
102
}
330
C
100
AcDbDictionary
281
     1
  3
Standard
350
6C
  0
DICTIONARY
  5
17
102
{ACAD_REACTORS
330
C
102
}
330
C
100
AcDbDictionary
281
     1
  3
Standard
350
18
  0
DICTIONARY
  5
19
102
{ACAD_REACTORS
330
C
102
}
330
C
100
AcDbDictionary
281
     1
  0
ACDBDICTIONARYWDFLT
  5
E
102
{ACAD_REACTORS
330
C
102
}
330
C
100
AcDbDictionary
281
     1
  3
Normal
350
F
100
AcDbDictionaryWithDefault
340
F
  0
DICTIONARY
  5
47
102
{ACAD_REACTORS
330
C
102
}
330
C
100
AcDbDictionary
281
     1
  3
A0
350
48
  3
A1
350
49
  3
A2
350
4A
  3
A3
350
4B
  3
A4
350
4C
  3
A5
350
4D
  3
A6
350
4E
  3
A7
350
4F
  3
A8
350
50
  3
A9
350
51
  3
B0
350
52
  3
B1
350
53
  3
B2
350
54
  3
B3
350
55
  3
B4
350
56
  3
B5
350
57
  3
B6
350
58
  3
B7
350
59
  3
B8
350
5A
  3
B9
350
5B
  3
C0
350
5C
  3
C1
350
5D
  3
C2
350
5E
  3
C3
350
5F
  3
C4
350
60
  3
C5
350
61
  3
C6
350
62
  3
C7
350
63
  3
C8
350
64
  3
C9
350
65
  3
D0
350
66
  3
D1
350
67
  3
D2
350
68
  0
DICTIONARY
  5
3AB
102
{ACAD_REACTORS
330
C
102
}
330
C
100
AcDbDictionary
281
     1
  0
DICTIONARY
  5
69
102
{ACAD_REACTORS
330
C
102
}
330
C
100
AcDbDictionary
281
     1
  3
Standard
350
6A
  0
DICTIONARY
  5
2A
102
{ACAD_REACTORS
330
C
102
}
330
C
100
AcDbDictionary
281
     1
  3
2dWireframe
350
2F
  3
Basic
350
32
  3
Brighten
350
36
  3
ColorChange
350
3A
  3
Conceptual
350
34
  3
Dim
350
35
  3
EdgeColorOff
350
3D
  3
Facepattern
350
39
  3
Flat
350
2B
  3
FlatWithEdges
350
2C
  3
Gouraud
350
2D
  3
GouraudWithEdges
350
2E
  3
Hidden
350
31
  3
JitterOff
350
3B
  3
Linepattern
350
38
  3
OverhangOff
350
3C
  3
Realistic
350
33
  3
Shaded
350
42
  3
Shaded with edges
350
41
  3
Shades of Gray
350
3E
  3
Sketchy
350
3F
  3
Thicken
350
37
  3
Wireframe
350
30
  3
X-Ray
350
40
  0
XRECORD
  5
3A7
102
{ACAD_REACTORS
330
C
102
}
330
C
100
AcDbXrecord
280
     1
 90
        1
330
6A
  0
DICTIONARY
  5
367
102
{ACAD_REACTORS
330
C
102
}
330
C
100
AcDbDictionary
281
     1
  3
CANNOSCALE
350
368
  3
CENTEREXE
350
3AC
  3
CENTERLTYPEFILE
350
3AD
  3
CMLEADERSTYLE
350
3A9
  3
CTABLESTYLE
350
3A8
  3
MSLTSCALE
350
369
  3
XCLIPFRAME
350
36A
  0
XRECORD
  5
366
102
{ACAD_REACTORS
330
365
102
}
330
365
100
AcDbXrecord
280
     1
102
VTR_0.000_0.000_1.000_1.000_VISUALSTYLE
340
2F
102
VTR_0.000_0.000_1.000_1.000_GRIDDISPLAY
 70
     3
102
VTR_0.000_0.000_1.000_1.000_GRIDMAJOR
 70
     5
102
VTR_0.000_0.000_1.000_1.000_DEFAULTLIGHTING
280
     1
102
VTR_0.000_0.000_1.000_1.000_DEFAULTLIGHTINGTYPE
 70
     1
102
VTR_0.000_0.000_1.000_1.000_BRIGHTNESS
141
0.0
102
VTR_0.000_0.000_1.000_1.000_CONTRAST
142
0.0
  0
LAYOUT
  5
1E
102
{ACAD_REACTORS
330
1A
102
}
330
1A
100
AcDbPlotSettings
  1

  2
none_device
  4

  6

 40
0.0
 41
0.0
 42
0.0
 43
0.0
 44
0.0
 45
0.0
 46
0.0
 47
0.0
 48
0.0
 49
0.0
140
0.0
141
0.0
142
1.0
143
1.0
 70
   688
 72
     1
 73
     0
 74
     5
  7

 75
    16
 76
     0
 77
     5
 78
   300
147
1.0
148
0.0
149
0.0
100
AcDbLayout
  1
Layout1
 70
     1
 71
     1
 10
0.0
 20
0.0
 11
420.0
 21
297.0
 12
0.0
 22
0.0
 32
0.0
 14
1.000000000000000E+20
 24
1.000000000000000E+20
 34
1.000000000000000E+20
 15
-1.000000000000000E+20
 25
-1.000000000000000E+20
 35
-1.000000000000000E+20
146
0.0
 13
0.0
 23
0.0
 33
0.0
 16
1.0
 26
0.0
 36
0.0
 17
0.0
 27
1.0
 37
0.0
 76
     0
330
1B
  0
LAYOUT
  5
26
102
{ACAD_REACTORS
330
1A
102
}
330
1A
100
AcDbPlotSettings
  1

  2
none_device
  4

  6

 40
0.0
 41
0.0
 42
0.0
 43
0.0
 44
0.0
 45
0.0
 46
0.0
 47
0.0
 48
0.0
 49
0.0
140
0.0
141
0.0
142
1.0
143
1.0
 70
   688
 72
     1
 73
     0
 74
     5
  7

 75
    16
 76
     0
 77
     5
 78
   300
147
1.0
148
0.0
149
0.0
100
AcDbLayout
  1
Layout2
 70
     1
 71
     2
 10
0.0
 20
0.0
 11
0.0
 21
0.0
 12
0.0
 22
0.0
 32
0.0
 14
0.0
 24
0.0
 34
0.0
 15
0.0
 25
0.0
 35
0.0
146
0.0
 13
0.0
 23
0.0
 33
0.0
 16
1.0
 26
0.0
 36
0.0
 17
0.0
 27
1.0
 37
0.0
 76
     0
330
23
  0
LAYOUT
  5
22
102
{ACAD_REACTORS
330
1A
102
}
330
1A
100
AcDbPlotSettings
  1

  2
none_device
  4
Letter_(8.50_x_11.00_Inches)
  6

 40
6.35
 41
6.35
 42
6.35000508
 43
6.35000508
 44
215.9
 45
279.4
 46
0.0
 47
0.0
 48
0.0
 49
0.0
140
0.0
141
0.0
142
1.0
143
1.0
 70
  1712
 72
     1
 73
     0
 74
     0
  7

 75
     0
 76
     0
 77
     5
 78
   300
147
1.0
148
0.0
149
0.0
100
AcDbLayout
  1
Model
 70
     1
 71
     0
 10
-630.0
 20
-445.5
 11
630.0
 21
445.5
 12
0.0
 22
0.0
 32
0.0
 14
-630.0
 24
-445.5
 34
0.0
 15
630.0
 25
445.5
 35
0.0
146
0.0
 13
0.0
 23
0.0
 33
0.0
 16
1.0
 26
0.0
 36
0.0
 17
0.0
 27
1.0
 37
0.0
 76
     0
330
1F
331
29
  0
MATERIAL
  5
45
102
{ACAD_REACTORS
330
43
102
}
102
{ACAD_XDICTIONARY
360
39D
102
}
330
43
100
AcDbMaterial
  1
ByBlock
  0
MATERIAL
  5
44
102
{ACAD_REACTORS
330
43
102
}
102
{ACAD_XDICTIONARY
360
39B
102
}
330
43
100
AcDbMaterial
  1
ByLayer
  0
MATERIAL
  5
46
102
{ACAD_REACTORS
330
43
102
}
102
{ACAD_XDICTIONARY
360
39F
102
}
330
43
100
AcDbMaterial
  1
Global
  0
MLEADERSTYLE
  5
6C
102
{ACAD_REACTORS
330
6B
102
}
102
{ACAD_XDICTIONARY
360
3A5
102
}
330
6B
100
AcDbMLeaderStyle
170
     2
171
     1
172
     0
 90
        2
 40
0.0
 41
0.0
173
     1
 91
-1056964608
340
14
 92
       -2
290
     1
 42
2.0
291
     1
 43
8.0
  3
Standard
341
0
 44
4.0
300

342
11
174
     1
178
     6
175
     1
176
     0
 93
-1056964608
 45
4.0
292
     0
297
     0
 46
4.0
343
0
 94
-1056964608
 47
1.0
 49
1.0
140
1.0
293
     1
141
0.0
294
     1
177
     0
142
1.0
295
     0
296
     0
143
3.75
1001
ACAD_MLEADERVER
1070
     2
  0
MLINESTYLE
  5
18
102
{ACAD_REACTORS
330
17
102
}
330
17
100
AcDbMlineStyle
  2
Standard
 70
     0
  3

 62
   256
 51
90.0
 52
90.0
 71
     2
 49
0.5
 62
   256
  6
BYLAYER
 49
-0.5
 62
   256
  6
BYLAYER
  0
ACDBPLACEHOLDER
  5
F
102
{ACAD_REACTORS
330
E
102
}
330
E
  0
SCALE
  5
48
102
{ACAD_REACTORS
330
47
102
}
330
47
100
AcDbScale
 70
     0
300
1:1
140
1.0
141
1.0
290
     1
  0
SCALE
  5
49
102
{ACAD_REACTORS
330
47
102
}
330
47
100
AcDbScale
 70
     0
300
1:2
140
1.0
141
2.0
290
     0
  0
SCALE
  5
4A
102
{ACAD_REACTORS
330
47
102
}
330
47
100
AcDbScale
 70
     0
300
1:4
140
1.0
141
4.0
290
     0
  0
SCALE
  5
4B
102
{ACAD_REACTORS
330
47
102
}
330
47
100
AcDbScale
 70
     0
300
1:5
140
1.0
141
5.0
290
     0
  0
SCALE
  5
4C
102
{ACAD_REACTORS
330
47
102
}
330
47
100
AcDbScale
 70
     0
300
1:8
140
1.0
141
8.0
290
     0
  0
SCALE
  5
4D
102
{ACAD_REACTORS
330
47
102
}
330
47
100
AcDbScale
 70
     0
300
1:10
140
1.0
141
10.0
290
     0
  0
SCALE
  5
4E
102
{ACAD_REACTORS
330
47
102
}
330
47
100
AcDbScale
 70
     0
300
1:16
140
1.0
141
16.0
290
     0
  0
SCALE
  5
4F
102
{ACAD_REACTORS
330
47
102
}
330
47
100
AcDbScale
 70
     0
300
1:20
140
1.0
141
20.0
290
     0
  0
SCALE
  5
50
102
{ACAD_REACTORS
330
47
102
}
330
47
100
AcDbScale
 70
     0
300
1:30
140
1.0
141
30.0
290
     0
  0
SCALE
  5
51
102
{ACAD_REACTORS
330
47
102
}
330
47
100
AcDbScale
 70
     0
300
1:40
140
1.0
141
40.0
290
     0
  0
SCALE
  5
52
102
{ACAD_REACTORS
330
47
102
}
330
47
100
AcDbScale
 70
     0
300
1:50
140
1.0
141
50.0
290
     0
  0
SCALE
  5
53
102
{ACAD_REACTORS
330
47
102
}
330
47
100
AcDbScale
 70
     0
300
1:100
140
1.0
141
100.0
290
     0
  0
SCALE
  5
54
102
{ACAD_REACTORS
330
47
102
}
330
47
100
AcDbScale
 70
     0
300
2:1
140
2.0
141
1.0
290
     0
  0
SCALE
  5
55
102
{ACAD_REACTORS
330
47
102
}
330
47
100
AcDbScale
 70
     0
300
4:1
140
4.0
141
1.0
290
     0
  0
SCALE
  5
56
102
{ACAD_REACTORS
330
47
102
}
330
47
100
AcDbScale
 70
     0
300
8:1
140
8.0
141
1.0
290
     0
  0
SCALE
  5
57
102
{ACAD_REACTORS
330
47
102
}
330
47
100
AcDbScale
 70
     0
300
10:1
140
10.0
141
1.0
290
     0
  0
SCALE
  5
58
102
{ACAD_REACTORS
330
47
102
}
330
47
100
AcDbScale
 70
     0
300
100:1
140
100.0
141
1.0
290
     0
  0
SCALE
  5
59
102
{ACAD_REACTORS
330
47
102
}
330
47
100
AcDbScale
 70
     0
300
1/128" = 1'-0"
140
0.0078125
141
12.0
290
     0
  0
SCALE
  5
5A
102
{ACAD_REACTORS
330
47
102
}
330
47
100
AcDbScale
 70
     0
300
1/64" = 1'-0"
140
0.015625
141
12.0
290
     0
  0
SCALE
  5
5B
102
{ACAD_REACTORS
330
47
102
}
330
47
100
AcDbScale
 70
     0
300
1/32" = 1'-0"
140
0.03125
141
12.0
290
     0
  0
SCALE
  5
5C
102
{ACAD_REACTORS
330
47
102
}
330
47
100
AcDbScale
 70
     0
300
1/16" = 1'-0"
140
0.0625
141
12.0
290
     0
  0
SCALE
  5
5D
102
{ACAD_REACTORS
330
47
102
}
330
47
100
AcDbScale
 70
     0
300
3/32" = 1'-0"
140
0.09375
141
12.0
290
     0
  0
SCALE
  5
5E
102
{ACAD_REACTORS
330
47
102
}
330
47
100
AcDbScale
 70
     0
300
1/8" = 1'-0"
140
0.125
141
12.0
290
     0
  0
SCALE
  5
5F
102
{ACAD_REACTORS
330
47
102
}
330
47
100
AcDbScale
 70
     0
300
3/16" = 1'-0"
140
0.1875
141
12.0
290
     0
  0
SCALE
  5
60
102
{ACAD_REACTORS
330
47
102
}
330
47
100
AcDbScale
 70
     0
300
1/4" = 1'-0"
140
0.25
141
12.0
290
     0
  0
SCALE
  5
61
102
{ACAD_REACTORS
330
47
102
}
330
47
100
AcDbScale
 70
     0
300
3/8" = 1'-0"
140
0.375
141
12.0
290
     0
  0
SCALE
  5
62
102
{ACAD_REACTORS
330
47
102
}
330
47
100
AcDbScale
 70
     0
300
1/2" = 1'-0"
140
0.5
141
12.0
290
     0
  0
SCALE
  5
63
102
{ACAD_REACTORS
330
47
102
}
330
47
100
AcDbScale
 70
     0
300
3/4" = 1'-0"
140
0.75
141
12.0
290
     0
  0
SCALE
  5
64
102
{ACAD_REACTORS
330
47
102
}
330
47
100
AcDbScale
 70
     0
300
1" = 1'-0"
140
1.0
141
12.0
290
     0
  0
SCALE
  5
65
102
{ACAD_REACTORS
330
47
102
}
330
47
100
AcDbScale
 70
     0
300
1-1/2" = 1'-0"
140
1.5
141
12.0
290
     0
  0
SCALE
  5
66
102
{ACAD_REACTORS
330
47
102
}
330
47
100
AcDbScale
 70
     0
300
3" = 1'-0"
140
3.0
141
12.0
290
     0
  0
SCALE
  5
67
102
{ACAD_REACTORS
330
47
102
}
330
47
100
AcDbScale
 70
     0
300
6" = 1'-0"
140
6.0
141
12.0
290
     0
  0
SCALE
  5
68
102
{ACAD_REACTORS
330
47
102
}
330
47
100
AcDbScale
 70
     0
300
1'-0" = 1'-0"
140
12.0
141
12.0
290
     0
  0
TABLESTYLE
  5
6A
102
{ACAD_REACTORS
330
69
102
}
102
{ACAD_XDICTIONARY
360
3A1
102
}
330
69
100
AcDbTableStyle
  3
Standard
 70
     0
 71
     0
 40
0.06
 41
0.06
280
     0
281
     0
  7
Standard
140
4.5
170
     2
 62
     0
 63
   257
283
     0
274
    -2
284
     1
 64
     0
275
    -2
285
     1
 65
     0
276
    -2
286
     1
 66
     0
277
    -2
287
     1
 67
     0
278
    -2
288
     1
 68
     0
279
    -2
289
     1
 69
     0
  7
Standard
140
6.0
170
     5
 62
     0
 63
   257
283
     0
274
    -2
284
     1
 64
     0
275
    -2
285
     1
 65
     0
276
    -2
286
     1
 66
     0
277
    -2
287
     1
 67
     0
278
    -2
288
     1
 68
     0
279
    -2
289
     1
 69
     0
  7
Standard
140
4.5
170
     5
 62
     0
 63
   257
283
     0
274
    -2
284
     1
 64
     0
275
    -2
285
     1
 65
     0
276
    -2
286
     1
 66
     0
277
    -2
287
     1
 67
     0
278
    -2
288
     1
 68
     0
279
    -2
289
     1
 69
     0
  0
VISUALSTYLE
  5
2F
102
{ACAD_REACTORS
330
2A
102
}
102
{ACAD_XDICTIONARY
360
373
102
}
330
2A
100
AcDbVisualStyle
  2
2dWireframe
 70
     4
 71
     0
 72
     2
 73
     0
 90
        0
 40
0.6
 41
30.0
 62
     5
 63
     7
421
 16777215
 74
     1
 91
        4
 64
     7
 65
   257
 75
     1
175
     1
 42
1.0
 92
        0
 66
   257
 43
1.0
 76
     1
 77
     6
 78
     2
 67
     7
 79
     5
170
     0
171
     0
290
     0
174
     0
 93
        1
 44
0.0
173
     0
291
     0
 45
0.0
1001
ACAD
1000
AcDbSavedByObjectVersion
1070
     0
  0
VISUALSTYLE
  5
32
102
{ACAD_REACTORS
330
2A
102
}
102
{ACAD_XDICTIONARY
360
379
102
}
330
2A
100
AcDbVisualStyle
  2
Basic
 70
     7
 71
     1
 72
     0
 73
     1
 90
        0
 40
0.6
 41
30.0
 62
     5
 63
     7
421
 16777215
 74
     0
 91
        4
 64
     7
 65
   257
 75
     1
175
     1
 42
1.0
 92
        8
 66
     7
 43
1.0
 76
     1
 77
     6
 78
     2
 67
     7
 79
     5
170
     0
171
     0
290
     0
174
     0
 93
        1
 44
0.0
173
     0
291
     1
 45
0.0
1001
ACAD
1000
AcDbSavedByObjectVersion
1070
     0
  0
VISUALSTYLE
  5
36
102
{ACAD_REACTORS
330
2A
102
}
102
{ACAD_XDICTIONARY
360
381
102
}
330
2A
100
AcDbVisualStyle
  2
Brighten
 70
    12
 71
     2
 72
     2
 73
     0
 90
        0
 40
0.6
 41
30.0
 62
     5
 63
     7
421
 16777215
 74
     1
 91
        4
 64
     7
 65
   257
 75
     1
175
     1
 42
1.0
 92
        8
 66
     7
 43
1.0
 76
     1
 77
     6
 78
     2
 67
     7
 79
     5
170
     0
171
     0
290
     0
174
     0
 93
        1
 44
50.0
173
     0
291
     1
 45
0.0
1001
ACAD
1000
AcDbSavedByObjectVersion
1070
     0
  0
VISUALSTYLE
  5
3A
102
{ACAD_REACTORS
330
2A
102
}
102
{ACAD_XDICTIONARY
360
389
102
}
330
2A
100
AcDbVisualStyle
  2
ColorChange
 70
    16
 71
     2
 72
     2
 73
     3
 90
        0
 40
0.6
 41
30.0
 62
     5
 63
     8
421
  8421504
 74
     1
 91
        4
 64
     7
 65
   257
 75
     1
175
     1
 42
1.0
 92
        8
 66
     8
424
  8421504
 43
1.0
 76
     1
 77
     6
 78
     2
 67
     7
 79
     5
170
     0
171
     0
290
     0
174
     0
 93
        1
 44
0.0
173
     0
291
     1
 45
0.0
1001
ACAD
1000
AcDbSavedByObjectVersion
1070
     0
  0
VISUALSTYLE
  5
34
102
{ACAD_REACTORS
330
2A
102
}
102
{ACAD_XDICTIONARY
360
37D
102
}
330
2A
100
AcDbVisualStyle
  2
Conceptual
 70
     9
 71
     3
 72
     2
 73
     0
 90
        0
 40
0.6
 41
30.0
 62
     5
 63
     7
421
 16777215
 74
     2
 91
        2
 64
     7
 65
   257
 75
     1
175
     1
 42
179.0
 92
        8
 66
     7
 43
1.0
 76
     1
 77
     6
 78
     2
 67
     7
 79
     3
170
     0
171
     0
290
     0
174
     0
 93
        1
 44
0.0
173
     0
291
     0
 45
0.0
1001
ACAD
1000
AcDbSavedByObjectVersion
1070
     0
  0
VISUALSTYLE
  5
35
102
{ACAD_REACTORS
330
2A
102
}
102
{ACAD_XDICTIONARY
360
37F
102
}
330
2A
100
AcDbVisualStyle
  2
Dim
 70
    11
 71
     2
 72
     2
 73
     0
 90
        0
 40
0.6
 41
30.0
 62
     5
 63
     7
421
 16777215
 74
     1
 91
        4
 64
     7
 65
   257
 75
     1
175
     1
 42
1.0
 92
        8
 66
     7
 43
1.0
 76
     1
 77
     6
 78
     2
 67
     7
 79
     5
170
     0
171
     0
290
     0
174
     0
 93
        1
 44
-50.0
173
     0
291
     1
 45
0.0
1001
ACAD
1000
AcDbSavedByObjectVersion
1070
     0
  0
VISUALSTYLE
  5
3D
102
{ACAD_REACTORS
330
2A
102
}
102
{ACAD_XDICTIONARY
360
38F
102
}
330
2A
100
AcDbVisualStyle
  2
EdgeColorOff
 70
    22
 71
     2
 72
     2
 73
     0
 90
        0
 40
0.6
 41
30.0
 62
     5
 63
     7
421
 16777215
 74
     1
 91
        4
 64
     7
 65
   257
 75
     1
175
     1
 42
1.0
 92
        8
 66
     7
 43
1.0
 76
     1
 77
     6
 78
     2
 67
     7
 79
     5
170
     0
171
     0
290
     0
174
     0
 93
        1
 44
0.0
173
     0
291
     1
 45
0.0
1001
ACAD
1000
AcDbSavedByObjectVersion
1070
     0
  0
VISUALSTYLE
  5
39
102
{ACAD_REACTORS
330
2A
102
}
102
{ACAD_XDICTIONARY
360
387
102
}
330
2A
100
AcDbVisualStyle
  2
Facepattern
 70
    15
 71
     2
 72
     2
 73
     0
 90
        0
 40
0.6
 41
30.0
 62
     5
 63
     7
421
 16777215
 74
     1
 91
        4
 64
     7
 65
   257
 75
     1
175
     1
 42
1.0
 92
        8
 66
     7
 43
1.0
 76
     1
 77
     6
 78
     2
 67
     7
 79
     5
170
     0
171
     0
290
     0
174
     0
 93
        1
 44
0.0
173
     0
291
     1
 45
0.0
1001
ACAD
1000
AcDbSavedByObjectVersion
1070
     0
  0
VISUALSTYLE
  5
2B
102
{ACAD_REACTORS
330
2A
102
}
102
{ACAD_XDICTIONARY
360
36B
102
}
330
2A
100
AcDbVisualStyle
  2
Flat
 70
     0
 71
     2
 72
     1
 73
     1
 90
        2
 40
0.6
 41
30.0
 62
     5
 63
     7
421
 16777215
 74
     0
 91
        0
 64
     7
 65
   257
 75
     1
175
     1
 42
1.0
 92
        8
 66
     7
 43
1.0
 76
     1
 77
     6
 78
     2
 67
     7
 79
     5
170
     0
171
     0
290
     0
174
     0
 93
       13
 44
0.0
173
     0
291
     1
 45
0.0
1001
ACAD
1000
AcDbSavedByObjectVersion
1070
     0
  0
VISUALSTYLE
  5
2C
102
{ACAD_REACTORS
330
2A
102
}
102
{ACAD_XDICTIONARY
360
36D
102
}
330
2A
100
AcDbVisualStyle
  2
FlatWithEdges
 70
     1
 71
     2
 72
     1
 73
     1
 90
        2
 40
0.6
 41
30.0
 62
     5
 63
     7
421
 16777215
 74
     1
 91
        0
 64
     7
 65
   257
 75
     1
175
     1
 42
1.0
 92
        0
 66
   257
 43
1.0
 76
     1
 77
     6
 78
     2
 67
     7
 79
     5
170
     0
171
     0
290
     0
174
     0
 93
       13
 44
0.0
173
     0
291
     1
 45
0.0
1001
ACAD
1000
AcDbSavedByObjectVersion
1070
     0
  0
VISUALSTYLE
  5
2D
102
{ACAD_REACTORS
330
2A
102
}
102
{ACAD_XDICTIONARY
360
36F
102
}
330
2A
100
AcDbVisualStyle
  2
Gouraud
 70
     2
 71
     2
 72
     2
 73
     1
 90
        2
 40
0.6
 41
30.0
 62
     5
 63
     7
421
 16777215
 74
     0
 91
        0
 64
     7
 65
   257
 75
     1
175
     1
 42
1.0
 92
        0
 66
     7
 43
1.0
 76
     1
 77
     6
 78
     2
 67
     7
 79
     5
170
     0
171
     0
290
     0
174
     0
 93
       13
 44
0.0
173
     0
291
     1
 45
0.0
1001
ACAD
1000
AcDbSavedByObjectVersion
1070
     0
  0
VISUALSTYLE
  5
2E
102
{ACAD_REACTORS
330
2A
102
}
102
{ACAD_XDICTIONARY
360
371
102
}
330
2A
100
AcDbVisualStyle
  2
GouraudWithEdges
 70
     3
 71
     2
 72
     2
 73
     1
 90
        2
 40
0.6
 41
30.0
 62
     5
 63
     7
421
 16777215
 74
     1
 91
        0
 64
     7
 65
   257
 75
     1
175
     1
 42
1.0
 92
        0
 66
   257
 43
1.0
 76
     1
 77
     6
 78
     2
 67
     7
 79
     5
170
     0
171
     0
290
     0
174
     0
 93
       13
 44
0.0
173
     0
291
     1
 45
0.0
1001
ACAD
1000
AcDbSavedByObjectVersion
1070
     0
  0
VISUALSTYLE
  5
31
102
{ACAD_REACTORS
330
2A
102
}
102
{ACAD_XDICTIONARY
360
377
102
}
330
2A
100
AcDbVisualStyle
  2
Hidden
 70
     6
 71
     1
 72
     2
 73
     2
 90
        0
 40
0.6
 41
30.0
 62
     5
 63
     7
421
 16777215
 74
     2
 91
        2
 64
     7
 65
   257
 75
     2
175
     1
 42
40.0
 92
        0
 66
   257
 43
1.0
 76
     1
 77
     6
 78
     2
 67
     7
 79
     3
170
     0
171
     0
290
     0
174
     0
 93
        1
 44
0.0
173
     0
291
     0
 45
0.0
1001
ACAD
1000
AcDbSavedByObjectVersion
1070
     0
  0
VISUALSTYLE
  5
3B
102
{ACAD_REACTORS
330
2A
102
}
102
{ACAD_XDICTIONARY
360
38B
102
}
330
2A
100
AcDbVisualStyle
  2
JitterOff
 70
    20
 71
     2
 72
     2
 73
     0
 90
        0
 40
0.6
 41
30.0
 62
     5
 63
     7
421
 16777215
 74
     1
 91
        4
 64
     7
 65
   257
 75
     1
175
     1
 42
1.0
 92
       10
 66
     7
 43
1.0
 76
     1
 77
     6
 78
     2
 67
     7
 79
     5
170
     0
171
     0
290
     0
174
     0
 93
        1
 44
0.0
173
     0
291
     1
 45
0.0
1001
ACAD
1000
AcDbSavedByObjectVersion
1070
     0
  0
VISUALSTYLE
  5
38
102
{ACAD_REACTORS
330
2A
102
}
102
{ACAD_XDICTIONARY
360
385
102
}
330
2A
100
AcDbVisualStyle
  2
Linepattern
 70
    14
 71
     2
 72
     2
 73
     0
 90
        0
 40
0.6
 41
30.0
 62
     5
 63
     7
421
 16777215
 74
     1
 91
        4
 64
     7
 65
   257
 75
     7
175
     7
 42
1.0
 92
        8
 66
     7
 43
1.0
 76
     1
 77
     6
 78
     2
 67
     7
 79
     5
170
     0
171
     0
290
     0
174
     0
 93
        1
 44
0.0
173
     0
291
     1
 45
0.0
1001
ACAD
1000
AcDbSavedByObjectVersion
1070
     0
  0
VISUALSTYLE
  5
3C
102
{ACAD_REACTORS
330
2A
102
}
102
{ACAD_XDICTIONARY
360
38D
102
}
330
2A
100
AcDbVisualStyle
  2
OverhangOff
 70
    21
 71
     2
 72
     2
 73
     0
 90
        0
 40
0.6
 41
30.0
 62
     5
 63
     7
421
 16777215
 74
     1
 91
        4
 64
     7
 65
   257
 75
     1
175
     1
 42
1.0
 92
        9
 66
     7
 43
1.0
 76
     1
 77
     6
 78
     2
 67
     7
 79
     5
170
     0
171
     0
290
     0
174
     0
 93
        1
 44
0.0
173
     0
291
     1
 45
0.0
1001
ACAD
1000
AcDbSavedByObjectVersion
1070
     0
  0
VISUALSTYLE
  5
33
102
{ACAD_REACTORS
330
2A
102
}
102
{ACAD_XDICTIONARY
360
37B
102
}
330
2A
100
AcDbVisualStyle
  2
Realistic
 70
     8
 71
     2
 72
     3
 73
     0
 90
        2
 40
0.6
 41
30.0
 62
     5
 63
     7
421
 16777215
 74
     0
 91
        0
 64
     7
 65
   257
 75
     1
175
     1
 42
1.0
 92
        8
 66
   257
 43
1.0
 76
     1
 77
     6
 78
     2
 67
     7
 79
     3
170
     0
171
     0
290
     0
174
     0
 93
       13
 44
0.0
173
     0
291
     0
 45
0.0
1001
ACAD
1000
AcDbSavedByObjectVersion
1070
     0
  0
VISUALSTYLE
  5
42
102
{ACAD_REACTORS
330
2A
102
}
102
{ACAD_XDICTIONARY
360
399
102
}
330
2A
100
AcDbVisualStyle
  2
Shaded
 70
    27
 71
     2
 72
     2
 73
     1
 90
        2
 40
0.6
 41
30.0
 62
     5
 63
     7
421
 16777215
 74
     0
 91
        4
 64
     7
 65
   257
 75
     1
175
     1
 42
1.0
 92
        8
 66
   257
 43
1.0
 76
     1
 77
     6
 78
     2
 67
     8
425
  7895160
 79
     3
170
     0
171
     0
290
     0
174
     0
 93
        5
 44
0.0
173
     0
291
     0
 45
0.0
1001
ACAD
1000
AcDbSavedByObjectVersion
1070
     0
  0
VISUALSTYLE
  5
41
102
{ACAD_REACTORS
330
2A
102
}
102
{ACAD_XDICTIONARY
360
397
102
}
330
2A
100
AcDbVisualStyle
  2
Shaded with edges
 70
    26
 71
     2
 72
     2
 73
     1
 90
        2
 40
0.6
 41
30.0
 62
     5
 63
     7
421
 16777215
 74
     1
 91
       10
 64
     7
 65
   257
 75
     2
175
     1
 42
1.0
 92
        8
 66
   257
 43
1.0
 76
     1
 77
     6
 78
     2
 67
     7
 79
     3
170
     0
171
     0
290
     0
174
     0
 93
        5
 44
0.0
173
     0
291
     0
 45
0.0
1001
ACAD
1000
AcDbSavedByObjectVersion
1070
     0
  0
VISUALSTYLE
  5
3E
102
{ACAD_REACTORS
330
2A
102
}
102
{ACAD_XDICTIONARY
360
391
102
}
330
2A
100
AcDbVisualStyle
  2
Shades of Gray
 70
    23
 71
     2
 72
     2
 73
     3
 90
        0
 40
0.6
 41
30.0
 62
     5
 63
     7
421
 16777215
 74
     2
 91
        2
 64
     7
 65
     7
 75
     1
175
     1
 42
40.0
 92
        8
 66
     7
 43
1.0
 76
     1
 77
     6
 78
     2
 67
     7
 79
     3
170
     0
171
     0
290
     0
174
     0
 93
        1
 44
0.0
173
     0
291
     0
 45
0.0
1001
ACAD
1000
AcDbSavedByObjectVersion
1070
     0
  0
VISUALSTYLE
  5
3F
102
{ACAD_REACTORS
330
2A
102
}
102
{ACAD_XDICTIONARY
360
393
102
}
330
2A
100
AcDbVisualStyle
  2
Sketchy
 70
    24
 71
     1
 72
     2
 73
     2
 90
        0
 40
0.6
 41
30.0
 62
     5
 63
     7
421
 16777215
 74
     2
 91
        2
 64
     7
 65
     7
 75
     1
175
     1
 42
40.0
 92
       11
 66
     7
 43
1.0
 76
     1
 77
     6
 78
     2
 67
     7
 79
     6
170
     0
171
     0
290
     0
174
     0
 93
        1
 44
0.0
173
     0
291
     0
 45
0.0
1001
ACAD
1000
AcDbSavedByObjectVersion
1070
     0
  0
VISUALSTYLE
  5
37
102
{ACAD_REACTORS
330
2A
102
}
102
{ACAD_XDICTIONARY
360
383
102
}
330
2A
100
AcDbVisualStyle
  2
Thicken
 70
    13
 71
     2
 72
     2
 73
     0
 90
        0
 40
0.6
 41
30.0
 62
     5
 63
     7
421
 16777215
 74
     1
 91
        4
 64
     7
 65
   257
 75
     1
175
     1
 42
1.0
 92
       12
 66
     7
 43
1.0
 76
     1
 77
     6
 78
     2
 67
     7
 79
     5
170
     0
171
     0
290
     0
174
     0
 93
        1
 44
0.0
173
     0
291
     1
 45
0.0
1001
ACAD
1000
AcDbSavedByObjectVersion
1070
     0
  0
VISUALSTYLE
  5
30
102
{ACAD_REACTORS
330
2A
102
}
102
{ACAD_XDICTIONARY
360
375
102
}
330
2A
100
AcDbVisualStyle
  2
Wireframe
 70
     5
 71
     0
 72
     2
 73
     0
 90
        0
 40
0.6
 41
30.0
 62
     5
 63
     7
421
 16777215
 74
     1
 91
        4
 64
     7
 65
   257
 75
     1
175
     1
 42
1.0
 92
        0
 66
   257
 43
1.0
 76
     1
 77
     6
 78
     2
 67
     7
 79
     3
170
     0
171
     0
290
     0
174
     0
 93
        1
 44
0.0
173
     0
291
     0
 45
0.0
1001
ACAD
1000
AcDbSavedByObjectVersion
1070
     0
  0
VISUALSTYLE
  5
40
102
{ACAD_REACTORS
330
2A
102
}
102
{ACAD_XDICTIONARY
360
395
102
}
330
2A
100
AcDbVisualStyle
  2
X-Ray
 70
    25
 71
     2
 72
     2
 73
     1
 90
        1
 40
0.5
 41
30.0
 62
     5
 63
     7
421
 16777215
 74
     1
 91
        0
 64
     7
 65
   257
 75
     1
175
     1
 42
1.0
 92
        8
 66
     7
 43
1.0
 76
     1
 77
     6
 78
     2
 67
     7
 79
     3
170
     0
171
     0
290
     0
174
     0
 93
       13
 44
0.0
173
     0
291
     0
 45
0.0
1001
ACAD
1000
AcDbSavedByObjectVersion
1070
     0
  0
DICTIONARYVAR
  5
368
102
{ACAD_REACTORS
330
367
102
}
330
367
100
DictionaryVariables
280
     0
  1
1:1
  0
DICTIONARYVAR
  5
3AC
102
{ACAD_REACTORS
330
367
102
}
330
367
100
DictionaryVariables
280
     0
  1
3.500000
  0
DICTIONARYVAR
  5
3AD
102
{ACAD_REACTORS
330
367
102
}
330
367
100
DictionaryVariables
280
     0
  1
acadiso.lin
  0
DICTIONARYVAR
  5
3A9
102
{ACAD_REACTORS
330
367
102
}
330
367
100
DictionaryVariables
280
     0
  1
Standard
  0
DICTIONARYVAR
  5
3A8
102
{ACAD_REACTORS
330
367
102
}
330
367
100
DictionaryVariables
280
     0
  1
Standard
  0
DICTIONARYVAR
  5
369
102
{ACAD_REACTORS
330
367
102
}
330
367
100
DictionaryVariables
280
     0
  1
1
  0
DICTIONARYVAR
  5
36A
102
{ACAD_REACTORS
330
367
102
}
330
367
100
DictionaryVariables
280
     0
  1
2
  0
DICTIONARY
  5
39D
330
45
100
AcDbDictionary
280
     1
281
     1
  3
ACAD_XREC_ROUNDTRIP
360
39E
  0
DICTIONARY
  5
39B
330
44
100
AcDbDictionary
280
     1
281
     1
  3
ACAD_XREC_ROUNDTRIP
360
39C
  0
DICTIONARY
  5
39F
330
46
100
AcDbDictionary
280
     1
281
     1
  3
ACAD_XREC_ROUNDTRIP
360
3A0
  0
DICTIONARY
  5
3A5
330
6C
100
AcDbDictionary
280
     1
281
     1
  3
ACAD_XREC_ROUNDTRIP
360
3A6
  0
DICTIONARY
  5
3A1
330
6A
100
AcDbDictionary
280
     1
281
     1
  3
ACAD_ROUNDTRIP_2008_TABLESTYLE_CELLSTYLEMAP
360
3A3
  3
ACAD_XREC_ROUNDTRIP
360
3A2
  0
DICTIONARY
  5
373
330
2F
100
AcDbDictionary
280
     1
281
     1
  3
ACAD_XREC_ROUNDTRIP
360
374
  0
DICTIONARY
  5
379
330
32
100
AcDbDictionary
280
     1
281
     1
  3
ACAD_XREC_ROUNDTRIP
360
37A
  0
DICTIONARY
  5
381
330
36
100
AcDbDictionary
280
     1
281
     1
  3
ACAD_XREC_ROUNDTRIP
360
382
  0
DICTIONARY
  5
389
330
3A
100
AcDbDictionary
280
     1
281
     1
  3
ACAD_XREC_ROUNDTRIP
360
38A
  0
DICTIONARY
  5
37D
330
34
100
AcDbDictionary
280
     1
281
     1
  3
ACAD_XREC_ROUNDTRIP
360
37E
  0
DICTIONARY
  5
37F
330
35
100
AcDbDictionary
280
     1
281
     1
  3
ACAD_XREC_ROUNDTRIP
360
380
  0
DICTIONARY
  5
38F
330
3D
100
AcDbDictionary
280
     1
281
     1
  3
ACAD_XREC_ROUNDTRIP
360
390
  0
DICTIONARY
  5
387
330
39
100
AcDbDictionary
280
     1
281
     1
  3
ACAD_XREC_ROUNDTRIP
360
388
  0
DICTIONARY
  5
36B
330
2B
100
AcDbDictionary
280
     1
281
     1
  3
ACAD_XREC_ROUNDTRIP
360
36C
  0
DICTIONARY
  5
36D
330
2C
100
AcDbDictionary
280
     1
281
     1
  3
ACAD_XREC_ROUNDTRIP
360
36E
  0
DICTIONARY
  5
36F
330
2D
100
AcDbDictionary
280
     1
281
     1
  3
ACAD_XREC_ROUNDTRIP
360
370
  0
DICTIONARY
  5
371
330
2E
100
AcDbDictionary
280
     1
281
     1
  3
ACAD_XREC_ROUNDTRIP
360
372
  0
DICTIONARY
  5
377
330
31
100
AcDbDictionary
280
     1
281
     1
  3
ACAD_XREC_ROUNDTRIP
360
378
  0
DICTIONARY
  5
38B
330
3B
100
AcDbDictionary
280
     1
281
     1
  3
ACAD_XREC_ROUNDTRIP
360
38C
  0
DICTIONARY
  5
385
330
38
100
AcDbDictionary
280
     1
281
     1
  3
ACAD_XREC_ROUNDTRIP
360
386
  0
DICTIONARY
  5
38D
330
3C
100
AcDbDictionary
280
     1
281
     1
  3
ACAD_XREC_ROUNDTRIP
360
38E
  0
DICTIONARY
  5
37B
330
33
100
AcDbDictionary
280
     1
281
     1
  3
ACAD_XREC_ROUNDTRIP
360
37C
  0
DICTIONARY
  5
399
330
42
100
AcDbDictionary
280
     1
281
     1
  3
ACAD_XREC_ROUNDTRIP
360
39A
  0
DICTIONARY
  5
397
330
41
100
AcDbDictionary
280
     1
281
     1
  3
ACAD_XREC_ROUNDTRIP
360
398
  0
DICTIONARY
  5
391
330
3E
100
AcDbDictionary
280
     1
281
     1
  3
ACAD_XREC_ROUNDTRIP
360
392
  0
DICTIONARY
  5
393
330
3F
100
AcDbDictionary
280
     1
281
     1
  3
ACAD_XREC_ROUNDTRIP
360
394
  0
DICTIONARY
  5
383
330
37
100
AcDbDictionary
280
     1
281
     1
  3
ACAD_XREC_ROUNDTRIP
360
384
  0
DICTIONARY
  5
375
330
30
100
AcDbDictionary
280
     1
281
     1
  3
ACAD_XREC_ROUNDTRIP
360
376
  0
DICTIONARY
  5
395
330
40
100
AcDbDictionary
280
     1
281
     1
  3
ACAD_XREC_ROUNDTRIP
360
396
  0
XRECORD
  5
39E
102
{ACAD_REACTORS
330
39D
102
}
330
39D
100
AcDbXrecord
280
     1
102
MATERIAL
148
0.0
149
0.0
149
0.0
 93
        0
 94
      127
282
     0
 72
     1
 77
     1
171
     1
175
     1
179
     1
273
     0
  0
XRECORD
  5
39C
102
{ACAD_REACTORS
330
39B
102
}
330
39B
100
AcDbXrecord
280
     1
102
MATERIAL
148
0.0
149
0.0
149
0.0
 93
        0
 94
      127
282
     0
 72
     1
 77
     1
171
     1
175
     1
179
     1
273
     0
  0
XRECORD
  5
3A0
102
{ACAD_REACTORS
330
39F
102
}
330
39F
100
AcDbXrecord
280
     1
102
MATERIAL
148
0.0
149
0.0
149
0.0
 93
        0
 94
      127
282
     0
 72
     1
 77
     1
171
     1
175
     1
179
     1
273
     0
  0
XRECORD
  5
3A6
102
{ACAD_REACTORS
330
3A5
102
}
330
3A5
100
AcDbXrecord
280
     1
102
ACAD_ROUNDTRIP_2010_MLEADER_STYLE
  0
CELLSTYLEMAP
  5
3A3
102
{ACAD_REACTORS
330
3A1
102
}
330
3A1
100
AcDbCellStyleMap
 90
        3
300
CELLSTYLE
  1
TABLEFORMAT_BEGIN
 90
        5
170
     1
 91
        0
 92
    32768
 62
   257
 93
        1
300
CONTENTFORMAT
  1
CONTENTFORMAT_BEGIN
 90
        0
 91
        0
 92
        4
 93
        0
300

 40
0.0
140
1.0
 94
        5
 62
     0
340
11
144
6.0
309
CONTENTFORMAT_END
171
     1
301
MARGIN
  1
CELLMARGIN_BEGIN
 40
1.5
 40
1.5
 40
1.5
 40
1.5
 40
1.5
 40
1.5
309
CELLMARGIN_END
 94
        6
 95
        1
302
GRIDFORMAT
  1
GRIDFORMAT_BEGIN
 90
        0
 91
        1
 62
     0
 92
       -2
340
14
 93
        0
 40
0.045
309
GRIDFORMAT_END
 95
        2
302
GRIDFORMAT
  1
GRIDFORMAT_BEGIN
 90
        0
 91
        1
 62
     0
 92
       -2
340
14
 93
        0
 40
0.045
309
GRIDFORMAT_END
 95
        4
302
GRIDFORMAT
  1
GRIDFORMAT_BEGIN
 90
        0
 91
        1
 62
     0
 92
       -2
340
14
 93
        0
 40
0.045
309
GRIDFORMAT_END
 95
        8
302
GRIDFORMAT
  1
GRIDFORMAT_BEGIN
 90
        0
 91
        1
 62
     0
 92
       -2
340
14
 93
        0
 40
0.045
309
GRIDFORMAT_END
 95
       16
302
GRIDFORMAT
  1
GRIDFORMAT_BEGIN
 90
        0
 91
        1
 62
     0
 92
       -2
340
14
 93
        0
 40
0.045
309
GRIDFORMAT_END
 95
       32
302
GRIDFORMAT
  1
GRIDFORMAT_BEGIN
 90
        0
 91
        1
 62
     0
 92
       -2
340
14
 93
        0
 40
0.045
309
GRIDFORMAT_END
309
TABLEFORMAT_END
  1
CELLSTYLE_BEGIN
 90
        1
 91
        1
300
_TITLE
309
CELLSTYLE_END
300
CELLSTYLE
  1
TABLEFORMAT_BEGIN
 90
        5
170
     1
 91
        0
 92
        0
 62
   257
 93
        1
300
CONTENTFORMAT
  1
CONTENTFORMAT_BEGIN
 90
        0
 91
        0
 92
        4
 93
        0
300

 40
0.0
140
1.0
 94
        5
 62
     0
340
11
144
4.5
309
CONTENTFORMAT_END
171
     1
301
MARGIN
  1
CELLMARGIN_BEGIN
 40
1.5
 40
1.5
 40
1.5
 40
1.5
 40
1.5
 40
1.5
309
CELLMARGIN_END
 94
        6
 95
        1
302
GRIDFORMAT
  1
GRIDFORMAT_BEGIN
 90
        0
 91
        1
 62
     0
 92
       -2
340
14
 93
        0
 40
0.045
309
GRIDFORMAT_END
 95
        2
302
GRIDFORMAT
  1
GRIDFORMAT_BEGIN
 90
        0
 91
        1
 62
     0
 92
       -2
340
14
 93
        0
 40
0.045
309
GRIDFORMAT_END
 95
        4
302
GRIDFORMAT
  1
GRIDFORMAT_BEGIN
 90
        0
 91
        1
 62
     0
 92
       -2
340
14
 93
        0
 40
0.045
309
GRIDFORMAT_END
 95
        8
302
GRIDFORMAT
  1
GRIDFORMAT_BEGIN
 90
        0
 91
        1
 62
     0
 92
       -2
340
14
 93
        0
 40
0.045
309
GRIDFORMAT_END
 95
       16
302
GRIDFORMAT
  1
GRIDFORMAT_BEGIN
 90
        0
 91
        1
 62
     0
 92
       -2
340
14
 93
        0
 40
0.045
309
GRIDFORMAT_END
 95
       32
302
GRIDFORMAT
  1
GRIDFORMAT_BEGIN
 90
        0
 91
        1
 62
     0
 92
       -2
340
14
 93
        0
 40
0.045
309
GRIDFORMAT_END
309
TABLEFORMAT_END
  1
CELLSTYLE_BEGIN
 90
        2
 91
        1
300
_HEADER
309
CELLSTYLE_END
300
CELLSTYLE
  1
TABLEFORMAT_BEGIN
 90
        5
170
     1
 91
        0
 92
        0
 62
   257
 93
        1
300
CONTENTFORMAT
  1
CONTENTFORMAT_BEGIN
 90
        0
 91
        0
 92
        4
 93
        0
300

 40
0.0
140
1.0
 94
        2
 62
     0
340
11
144
4.5
309
CONTENTFORMAT_END
171
     1
301
MARGIN
  1
CELLMARGIN_BEGIN
 40
1.5
 40
1.5
 40
1.5
 40
1.5
 40
1.5
 40
1.5
309
CELLMARGIN_END
 94
        6
 95
        1
302
GRIDFORMAT
  1
GRIDFORMAT_BEGIN
 90
        0
 91
        1
 62
     0
 92
       -2
340
14
 93
        0
 40
0.045
309
GRIDFORMAT_END
 95
        2
302
GRIDFORMAT
  1
GRIDFORMAT_BEGIN
 90
        0
 91
        1
 62
     0
 92
       -2
340
14
 93
        0
 40
0.045
309
GRIDFORMAT_END
 95
        4
302
GRIDFORMAT
  1
GRIDFORMAT_BEGIN
 90
        0
 91
        1
 62
     0
 92
       -2
340
14
 93
        0
 40
0.045
309
GRIDFORMAT_END
 95
        8
302
GRIDFORMAT
  1
GRIDFORMAT_BEGIN
 90
        0
 91
        1
 62
     0
 92
       -2
340
14
 93
        0
 40
0.045
309
GRIDFORMAT_END
 95
       16
302
GRIDFORMAT
  1
GRIDFORMAT_BEGIN
 90
        0
 91
        1
 62
     0
 92
       -2
340
14
 93
        0
 40
0.045
309
GRIDFORMAT_END
 95
       32
302
GRIDFORMAT
  1
GRIDFORMAT_BEGIN
 90
        0
 91
        1
 62
     0
 92
       -2
340
14
 93
        0
 40
0.045
309
GRIDFORMAT_END
309
TABLEFORMAT_END
  1
CELLSTYLE_BEGIN
 90
        3
 91
        2
300
_DATA
309
CELLSTYLE_END
  0
XRECORD
  5
3A2
102
{ACAD_REACTORS
330
3A1
102
}
330
3A1
100
AcDbXrecord
280
     1
102
ACAD_ROUNDTRIP_PRE2007_TABLESTYLE
 90
        4
 91
        0
  1

 92
        4
 93
        0
  2

 94
        4
 95
        0
  3

  0
XRECORD
  5
374
102
{ACAD_REACTORS
330
373
102
}
330
373
100
AcDbXrecord
280
     1
102
RTVSPropertyOp0
 70
     1
102
RTVSPropertyOp1
 70
     1
102
RTVSPropertyOp2
 70
     1
102
RTVSPropertyOp3
 70
     1
102
RTVSPropertyOp4
 70
     1
102
RTVSPropertyOp5
 70
     1
102
RTVSPropertyOp6
 70
     1
102
RTVSPropertyOp7
 70
     1
102
RTVSPropertyOp8
 70
     1
102
RTVSPropertyOp9
 70
     1
102
RTVSPropertyOp10
 70
     1
102
RTVSPropertyOp11
 70
     1
102
RTVSPropertyOp12
 70
     1
102
RTVSPropertyOp13
 70
     1
102
RTVSPropertyOp14
 70
     1
102
RTVSPropertyOp15
 70
     1
102
RTVSPropertyOp16
 70
     1
102
RTVSPropertyOp17
 70
     1
102
RTVSPropertyOp18
 70
     1
102
RTVSPropertyOp19
 70
     1
102
RTVSPropertyOp20
 70
     1
102
RTVSPropertyOp21
 70
     1
102
RTVSPropertyOp22
 70
     1
102
RTVSPropertyOp23
 70
     1
102
RTVSPropertyOp24
 70
     1
102
RTVSPropertyOp25
 70
     1
102
RTVSPropertyOp26
 70
     1
102
RTVSPropertyOp27
 70
     1
102
RTVSPropertyOp28
 70
     1
102
RTVSPropertyOp29
 70
     1
102
RTVSPropertyOp30
 70
     1
102
RTVSPropertyOp31
 70
     1
102
RTVSPropertyOp32
 70
     1
102
RTVSPropertyOp33
 70
     1
102
RTVSPropertyOp34
 70
     1
102
RTVSPropertyOp35
 70
     1
102
RTVSPropertyOp36
 70
     1
102
RTVSPropertyOp37
 70
     1
102
RTVSPropertyOp38
 70
     1
102
RTVSPropertyOp39
 70
     1
102
RTVSPropertyOp40
 70
     1
102
RTVSPropertyOp41
 70
     1
102
RTVSPropertyOp42
 70
     1
102
RTVSPropertyOp43
 70
     1
102
RTVSPropertyOp44
 70
     1
102
RTVSPropertyOp45
 70
     1
102
RTVSPropertyOp46
 70
     1
102
RTVSPropertyOp47
 70
     1
102
RTVSPropertyOp48
 70
     1
102
RTVSPropertyOp49
 70
     1
102
RTVSPropertyOp50
 70
     1
102
RTVSPropertyOp51
 70
     0
102
RTVSPropertyOp52
 70
     0
102
RTVSPropertyOp53
 70
     1
102
RTVSPropertyOp54
 70
     1
102
RTVSPropertyOp55
 70
     1
102
RTVSPropertyOp56
 70
     1
102
RTVSPropertyOp57
 70
     1
102
RTVSPost2010Prop28
280
     1
102
RTVSPost2010PropOp28
 70
     1
102
RTVSPost2010Prop29
280
     1
102
RTVSPost2010PropOp29
 70
     1
102
RTVSPost2010Prop30
280
     0
102
RTVSPost2010PropOp30
 70
     1
102
RTVSPost2010Prop31
280
     0
102
RTVSPost2010PropOp31
 70
     1
102
RTVSPost2010Prop32
280
     0
102
RTVSPost2010PropOp32
 70
     1
102
RTVSPost2010Prop33
280
     0
102
RTVSPost2010PropOp33
 70
     1
102
RTVSPost2010Prop34
280
     0
102
RTVSPost2010PropOp34
 70
     1
102
RTVSPost2010Prop35
280
     0
102
RTVSPost2010PropOp35
 70
     1
102
RTVSPost2010Prop36
280
     0
102
RTVSPost2010PropOp36
 70
     1
102
RTVSPost2010Prop37
 90
       50
102
RTVSPost2010PropOp37
 70
     1
102
RTVSPost2010Prop38
140
0.0
102
RTVSPost2010PropOp38
 70
     1
102
RTVSPost2010Prop39
140
1.0
102
RTVSPost2010PropOp39
 70
     1
102
RTVSPost2010Prop40
 90
        0
102
RTVSPost2010PropOp40
 70
     1
102
RTVSPost2010Prop41ColorIndex
 90
       18
102
RTVSPost2010Prop41ColorRGB
 90
        0
102
RTVSPost2010PropOp41
 70
     1
102
RTVSPost2010Prop42
 90
       50
102
RTVSPost2010PropOp42
 70
     1
102
RTVSPost2010Prop43
 90
        3
102
RTVSPost2010PropOp43
 70
     1
102
RTVSPost2010Prop44ColorIndex
 90
        5
102
RTVSPost2010Prop44ColorRGB
 90
      255
102
RTVSPost2010PropOp44
 70
     1
102
RTVSPost2010Prop45
280
     0
102
RTVSPost2010PropOp45
 70
     1
102
RTVSPost2010Prop46
 90
       50
102
RTVSPost2010PropOp46
 70
     1
102
RTVSPost2010Prop47
 90
       50
102
RTVSPost2010PropOp47
 70
     1
102
RTVSPost2010Prop48
 90
       50
102
RTVSPost2010PropOp48
 70
     1
102
RTVSPost2010Prop49
280
     0
102
RTVSPost2010PropOp49
 70
     1
102
RTVSPost2010Prop50
 90
       50
102
RTVSPost2010PropOp50
 70
     1
102
RTVSPost2010Prop51ColorIndex
 90
      256
102
RTVSPost2010Prop51ColorRGB
 90
-16777216
102
RTVSPost2010PropOp51
 70
     0
102
RTVSPost2010Prop52
140
1.0
102
RTVSPost2010PropOp52
 70
     0
102
RTVSPost2010Prop53
 90
        2
102
RTVSPost2010PropOp53
 70
     1
102
RTVSPost2010Prop54
  1
strokes_ogs.tif
102
RTVSPost2010PropOp54
 70
     1
102
RTVSPost2010Prop55
280
     0
102
RTVSPost2010PropOp55
 70
     1
102
RTVSPost2010Prop56
140
1.0
102
RTVSPost2010PropOp56
 70
     1
102
RTVSPost2010Prop57
140
1.0
102
RTVSPost2010PropOp57
 70
     1
  0
XRECORD
  5
37A
102
{ACAD_REACTORS
330
379
102
}
330
379
100
AcDbXrecord
280
     1
102
RTVSPropertyOp0
 70
     1
102
RTVSPropertyOp1
 70
     1
102
RTVSPropertyOp2
 70
     1
102
RTVSPropertyOp3
 70
     1
102
RTVSPropertyOp4
 70
     1
102
RTVSPropertyOp5
 70
     1
102
RTVSPropertyOp6
 70
     1
102
RTVSPropertyOp7
 70
     1
102
RTVSPropertyOp8
 70
     1
102
RTVSPropertyOp9
 70
     1
102
RTVSPropertyOp10
 70
     1
102
RTVSPropertyOp11
 70
     1
102
RTVSPropertyOp12
 70
     1
102
RTVSPropertyOp13
 70
     1
102
RTVSPropertyOp14
 70
     1
102
RTVSPropertyOp15
 70
     1
102
RTVSPropertyOp16
 70
     1
102
RTVSPropertyOp17
 70
     1
102
RTVSPropertyOp18
 70
     1
102
RTVSPropertyOp19
 70
     1
102
RTVSPropertyOp20
 70
     1
102
RTVSPropertyOp21
 70
     1
102
RTVSPropertyOp22
 70
     1
102
RTVSPropertyOp23
 70
     1
102
RTVSPropertyOp24
 70
     1
102
RTVSPropertyOp25
 70
     1
102
RTVSPropertyOp26
 70
     1
102
RTVSPropertyOp27
 70
     1
102
RTVSPropertyOp28
 70
     1
102
RTVSPropertyOp29
 70
     1
102
RTVSPropertyOp30
 70
     1
102
RTVSPropertyOp31
 70
     1
102
RTVSPropertyOp32
 70
     1
102
RTVSPropertyOp33
 70
     1
102
RTVSPropertyOp34
 70
     1
102
RTVSPropertyOp35
 70
     1
102
RTVSPropertyOp36
 70
     1
102
RTVSPropertyOp37
 70
     1
102
RTVSPropertyOp38
 70
     1
102
RTVSPropertyOp39
 70
     1
102
RTVSPropertyOp40
 70
     1
102
RTVSPropertyOp41
 70
     1
102
RTVSPropertyOp42
 70
     1
102
RTVSPropertyOp43
 70
     1
102
RTVSPropertyOp44
 70
     1
102
RTVSPropertyOp45
 70
     1
102
RTVSPropertyOp46
 70
     1
102
RTVSPropertyOp47
 70
     1
102
RTVSPropertyOp48
 70
     1
102
RTVSPropertyOp49
 70
     1
102
RTVSPropertyOp50
 70
     1
102
RTVSPropertyOp51
 70
     0
102
RTVSPropertyOp52
 70
     0
102
RTVSPropertyOp53
 70
     1
102
RTVSPropertyOp54
 70
     1
102
RTVSPropertyOp55
 70
     1
102
RTVSPropertyOp56
 70
     1
102
RTVSPropertyOp57
 70
     1
102
RTVSPost2010Prop28
280
     0
102
RTVSPost2010PropOp28
 70
     1
102
RTVSPost2010Prop29
280
     1
102
RTVSPost2010PropOp29
 70
     1
102
RTVSPost2010Prop30
280
     1
102
RTVSPost2010PropOp30
 70
     1
102
RTVSPost2010Prop31
280
     0
102
RTVSPost2010PropOp31
 70
     1
102
RTVSPost2010Prop32
280
     0
102
RTVSPost2010PropOp32
 70
     1
102
RTVSPost2010Prop33
280
     0
102
RTVSPost2010PropOp33
 70
     1
102
RTVSPost2010Prop34
280
     0
102
RTVSPost2010PropOp34
 70
     1
102
RTVSPost2010Prop35
280
     0
102
RTVSPost2010PropOp35
 70
     1
102
RTVSPost2010Prop36
280
     0
102
RTVSPost2010PropOp36
 70
     1
102
RTVSPost2010Prop37
 90
       50
102
RTVSPost2010PropOp37
 70
     1
102
RTVSPost2010Prop38
140
0.0
102
RTVSPost2010PropOp38
 70
     1
102
RTVSPost2010Prop39
140
1.0
102
RTVSPost2010PropOp39
 70
     1
102
RTVSPost2010Prop40
 90
        0
102
RTVSPost2010PropOp40
 70
     1
102
RTVSPost2010Prop41ColorIndex
 90
       18
102
RTVSPost2010Prop41ColorRGB
 90
        0
102
RTVSPost2010PropOp41
 70
     1
102
RTVSPost2010Prop42
 90
       50
102
RTVSPost2010PropOp42
 70
     1
102
RTVSPost2010Prop43
 90
        3
102
RTVSPost2010PropOp43
 70
     1
102
RTVSPost2010Prop44ColorIndex
 90
        5
102
RTVSPost2010Prop44ColorRGB
 90
      255
102
RTVSPost2010PropOp44
 70
     1
102
RTVSPost2010Prop45
280
     0
102
RTVSPost2010PropOp45
 70
     1
102
RTVSPost2010Prop46
 90
       50
102
RTVSPost2010PropOp46
 70
     1
102
RTVSPost2010Prop47
 90
       50
102
RTVSPost2010PropOp47
 70
     1
102
RTVSPost2010Prop48
 90
       50
102
RTVSPost2010PropOp48
 70
     1
102
RTVSPost2010Prop49
280
     0
102
RTVSPost2010PropOp49
 70
     1
102
RTVSPost2010Prop50
 90
       50
102
RTVSPost2010PropOp50
 70
     1
102
RTVSPost2010Prop51ColorIndex
 90
      256
102
RTVSPost2010Prop51ColorRGB
 90
-16777216
102
RTVSPost2010PropOp51
 70
     0
102
RTVSPost2010Prop52
140
1.0
102
RTVSPost2010PropOp52
 70
     0
102
RTVSPost2010Prop53
 90
        2
102
RTVSPost2010PropOp53
 70
     1
102
RTVSPost2010Prop54
  1
strokes_ogs.tif
102
RTVSPost2010PropOp54
 70
     1
102
RTVSPost2010Prop55
280
     0
102
RTVSPost2010PropOp55
 70
     1
102
RTVSPost2010Prop56
140
1.0
102
RTVSPost2010PropOp56
 70
     1
102
RTVSPost2010Prop57
140
1.0
102
RTVSPost2010PropOp57
 70
     1
  0
XRECORD
  5
382
102
{ACAD_REACTORS
330
381
102
}
330
381
100
AcDbXrecord
280
     1
102
RTVSPropertyOp0
 70
     1
102
RTVSPropertyOp1
 70
     1
102
RTVSPropertyOp2
 70
     1
102
RTVSPropertyOp3
 70
     1
102
RTVSPropertyOp4
 70
     1
102
RTVSPropertyOp5
 70
     1
102
RTVSPropertyOp6
 70
     1
102
RTVSPropertyOp7
 70
     1
102
RTVSPropertyOp8
 70
     1
102
RTVSPropertyOp9
 70
     1
102
RTVSPropertyOp10
 70
     1
102
RTVSPropertyOp11
 70
     1
102
RTVSPropertyOp12
 70
     1
102
RTVSPropertyOp13
 70
     1
102
RTVSPropertyOp14
 70
     1
102
RTVSPropertyOp15
 70
     1
102
RTVSPropertyOp16
 70
     1
102
RTVSPropertyOp17
 70
     1
102
RTVSPropertyOp18
 70
     1
102
RTVSPropertyOp19
 70
     1
102
RTVSPropertyOp20
 70
     1
102
RTVSPropertyOp21
 70
     1
102
RTVSPropertyOp22
 70
     1
102
RTVSPropertyOp23
 70
     1
102
RTVSPropertyOp24
 70
     1
102
RTVSPropertyOp25
 70
     1
102
RTVSPropertyOp26
 70
     1
102
RTVSPropertyOp27
 70
     1
102
RTVSPropertyOp28
 70
     1
102
RTVSPropertyOp29
 70
     1
102
RTVSPropertyOp30
 70
     1
102
RTVSPropertyOp31
 70
     1
102
RTVSPropertyOp32
 70
     1
102
RTVSPropertyOp33
 70
     1
102
RTVSPropertyOp34
 70
     1
102
RTVSPropertyOp35
 70
     1
102
RTVSPropertyOp36
 70
     1
102
RTVSPropertyOp37
 70
     1
102
RTVSPropertyOp38
 70
     1
102
RTVSPropertyOp39
 70
     1
102
RTVSPropertyOp40
 70
     1
102
RTVSPropertyOp41
 70
     1
102
RTVSPropertyOp42
 70
     1
102
RTVSPropertyOp43
 70
     1
102
RTVSPropertyOp44
 70
     1
102
RTVSPropertyOp45
 70
     1
102
RTVSPropertyOp46
 70
     1
102
RTVSPropertyOp47
 70
     1
102
RTVSPropertyOp48
 70
     1
102
RTVSPropertyOp49
 70
     1
102
RTVSPropertyOp50
 70
     1
102
RTVSPropertyOp51
 70
     0
102
RTVSPropertyOp52
 70
     0
102
RTVSPropertyOp53
 70
     1
102
RTVSPropertyOp54
 70
     1
102
RTVSPropertyOp55
 70
     1
102
RTVSPropertyOp56
 70
     1
102
RTVSPropertyOp57
 70
     1
102
RTVSPost2010Prop28
280
     0
102
RTVSPost2010PropOp28
 70
     1
102
RTVSPost2010Prop29
280
     1
102
RTVSPost2010PropOp29
 70
     1
102
RTVSPost2010Prop30
280
     1
102
RTVSPost2010PropOp30
 70
     1
102
RTVSPost2010Prop31
280
     0
102
RTVSPost2010PropOp31
 70
     1
102
RTVSPost2010Prop32
280
     0
102
RTVSPost2010PropOp32
 70
     1
102
RTVSPost2010Prop33
280
     0
102
RTVSPost2010PropOp33
 70
     1
102
RTVSPost2010Prop34
280
     0
102
RTVSPost2010PropOp34
 70
     1
102
RTVSPost2010Prop35
280
     0
102
RTVSPost2010PropOp35
 70
     1
102
RTVSPost2010Prop36
280
     0
102
RTVSPost2010PropOp36
 70
     1
102
RTVSPost2010Prop37
 90
       50
102
RTVSPost2010PropOp37
 70
     1
102
RTVSPost2010Prop38
140
0.0
102
RTVSPost2010PropOp38
 70
     1
102
RTVSPost2010Prop39
140
1.0
102
RTVSPost2010PropOp39
 70
     1
102
RTVSPost2010Prop40
 90
        0
102
RTVSPost2010PropOp40
 70
     1
102
RTVSPost2010Prop41ColorIndex
 90
       18
102
RTVSPost2010Prop41ColorRGB
 90
        0
102
RTVSPost2010PropOp41
 70
     1
102
RTVSPost2010Prop42
 90
       50
102
RTVSPost2010PropOp42
 70
     1
102
RTVSPost2010Prop43
 90
        3
102
RTVSPost2010PropOp43
 70
     1
102
RTVSPost2010Prop44ColorIndex
 90
        5
102
RTVSPost2010Prop44ColorRGB
 90
      255
102
RTVSPost2010PropOp44
 70
     1
102
RTVSPost2010Prop45
280
     0
102
RTVSPost2010PropOp45
 70
     1
102
RTVSPost2010Prop46
 90
       50
102
RTVSPost2010PropOp46
 70
     1
102
RTVSPost2010Prop47
 90
       50
102
RTVSPost2010PropOp47
 70
     1
102
RTVSPost2010Prop48
 90
       50
102
RTVSPost2010PropOp48
 70
     1
102
RTVSPost2010Prop49
280
     0
102
RTVSPost2010PropOp49
 70
     1
102
RTVSPost2010Prop50
 90
       50
102
RTVSPost2010PropOp50
 70
     1
102
RTVSPost2010Prop51ColorIndex
 90
      256
102
RTVSPost2010Prop51ColorRGB
 90
-16777216
102
RTVSPost2010PropOp51
 70
     0
102
RTVSPost2010Prop52
140
1.0
102
RTVSPost2010PropOp52
 70
     0
102
RTVSPost2010Prop53
 90
        2
102
RTVSPost2010PropOp53
 70
     1
102
RTVSPost2010Prop54
  1
strokes_ogs.tif
102
RTVSPost2010PropOp54
 70
     1
102
RTVSPost2010Prop55
280
     0
102
RTVSPost2010PropOp55
 70
     1
102
RTVSPost2010Prop56
140
1.0
102
RTVSPost2010PropOp56
 70
     1
102
RTVSPost2010Prop57
140
1.0
102
RTVSPost2010PropOp57
 70
     1
  0
XRECORD
  5
38A
102
{ACAD_REACTORS
330
389
102
}
330
389
100
AcDbXrecord
280
     1
102
RTVSPropertyOp0
 70
     1
102
RTVSPropertyOp1
 70
     1
102
RTVSPropertyOp2
 70
     1
102
RTVSPropertyOp3
 70
     1
102
RTVSPropertyOp4
 70
     1
102
RTVSPropertyOp5
 70
     1
102
RTVSPropertyOp6
 70
     1
102
RTVSPropertyOp7
 70
     1
102
RTVSPropertyOp8
 70
     1
102
RTVSPropertyOp9
 70
     1
102
RTVSPropertyOp10
 70
     1
102
RTVSPropertyOp11
 70
     1
102
RTVSPropertyOp12
 70
     1
102
RTVSPropertyOp13
 70
     1
102
RTVSPropertyOp14
 70
     1
102
RTVSPropertyOp15
 70
     1
102
RTVSPropertyOp16
 70
     1
102
RTVSPropertyOp17
 70
     1
102
RTVSPropertyOp18
 70
     1
102
RTVSPropertyOp19
 70
     1
102
RTVSPropertyOp20
 70
     1
102
RTVSPropertyOp21
 70
     1
102
RTVSPropertyOp22
 70
     1
102
RTVSPropertyOp23
 70
     1
102
RTVSPropertyOp24
 70
     1
102
RTVSPropertyOp25
 70
     1
102
RTVSPropertyOp26
 70
     1
102
RTVSPropertyOp27
 70
     1
102
RTVSPropertyOp28
 70
     1
102
RTVSPropertyOp29
 70
     1
102
RTVSPropertyOp30
 70
     1
102
RTVSPropertyOp31
 70
     1
102
RTVSPropertyOp32
 70
     1
102
RTVSPropertyOp33
 70
     1
102
RTVSPropertyOp34
 70
     1
102
RTVSPropertyOp35
 70
     1
102
RTVSPropertyOp36
 70
     1
102
RTVSPropertyOp37
 70
     1
102
RTVSPropertyOp38
 70
     1
102
RTVSPropertyOp39
 70
     1
102
RTVSPropertyOp40
 70
     1
102
RTVSPropertyOp41
 70
     1
102
RTVSPropertyOp42
 70
     1
102
RTVSPropertyOp43
 70
     1
102
RTVSPropertyOp44
 70
     1
102
RTVSPropertyOp45
 70
     1
102
RTVSPropertyOp46
 70
     1
102
RTVSPropertyOp47
 70
     1
102
RTVSPropertyOp48
 70
     1
102
RTVSPropertyOp49
 70
     1
102
RTVSPropertyOp50
 70
     1
102
RTVSPropertyOp51
 70
     0
102
RTVSPropertyOp52
 70
     0
102
RTVSPropertyOp53
 70
     1
102
RTVSPropertyOp54
 70
     1
102
RTVSPropertyOp55
 70
     1
102
RTVSPropertyOp56
 70
     1
102
RTVSPropertyOp57
 70
     1
102
RTVSPost2010Prop28
280
     0
102
RTVSPost2010PropOp28
 70
     1
102
RTVSPost2010Prop29
280
     1
102
RTVSPost2010PropOp29
 70
     1
102
RTVSPost2010Prop30
280
     1
102
RTVSPost2010PropOp30
 70
     1
102
RTVSPost2010Prop31
280
     0
102
RTVSPost2010PropOp31
 70
     1
102
RTVSPost2010Prop32
280
     0
102
RTVSPost2010PropOp32
 70
     1
102
RTVSPost2010Prop33
280
     0
102
RTVSPost2010PropOp33
 70
     1
102
RTVSPost2010Prop34
280
     0
102
RTVSPost2010PropOp34
 70
     1
102
RTVSPost2010Prop35
280
     0
102
RTVSPost2010PropOp35
 70
     1
102
RTVSPost2010Prop36
280
     0
102
RTVSPost2010PropOp36
 70
     1
102
RTVSPost2010Prop37
 90
       50
102
RTVSPost2010PropOp37
 70
     1
102
RTVSPost2010Prop38
140
0.0
102
RTVSPost2010PropOp38
 70
     1
102
RTVSPost2010Prop39
140
1.0
102
RTVSPost2010PropOp39
 70
     1
102
RTVSPost2010Prop40
 90
        0
102
RTVSPost2010PropOp40
 70
     1
102
RTVSPost2010Prop41ColorIndex
 90
       18
102
RTVSPost2010Prop41ColorRGB
 90
        0
102
RTVSPost2010PropOp41
 70
     1
102
RTVSPost2010Prop42
 90
       50
102
RTVSPost2010PropOp42
 70
     1
102
RTVSPost2010Prop43
 90
        3
102
RTVSPost2010PropOp43
 70
     1
102
RTVSPost2010Prop44ColorIndex
 90
        5
102
RTVSPost2010Prop44ColorRGB
 90
      255
102
RTVSPost2010PropOp44
 70
     1
102
RTVSPost2010Prop45
280
     0
102
RTVSPost2010PropOp45
 70
     1
102
RTVSPost2010Prop46
 90
       50
102
RTVSPost2010PropOp46
 70
     1
102
RTVSPost2010Prop47
 90
       50
102
RTVSPost2010PropOp47
 70
     1
102
RTVSPost2010Prop48
 90
       50
102
RTVSPost2010PropOp48
 70
     1
102
RTVSPost2010Prop49
280
     0
102
RTVSPost2010PropOp49
 70
     1
102
RTVSPost2010Prop50
 90
       50
102
RTVSPost2010PropOp50
 70
     1
102
RTVSPost2010Prop51ColorIndex
 90
      256
102
RTVSPost2010Prop51ColorRGB
 90
-16777216
102
RTVSPost2010PropOp51
 70
     0
102
RTVSPost2010Prop52
140
1.0
102
RTVSPost2010PropOp52
 70
     0
102
RTVSPost2010Prop53
 90
        2
102
RTVSPost2010PropOp53
 70
     1
102
RTVSPost2010Prop54
  1
strokes_ogs.tif
102
RTVSPost2010PropOp54
 70
     1
102
RTVSPost2010Prop55
280
     0
102
RTVSPost2010PropOp55
 70
     1
102
RTVSPost2010Prop56
140
1.0
102
RTVSPost2010PropOp56
 70
     1
102
RTVSPost2010Prop57
140
1.0
102
RTVSPost2010PropOp57
 70
     1
  0
XRECORD
  5
37E
102
{ACAD_REACTORS
330
37D
102
}
330
37D
100
AcDbXrecord
280
     1
102
RTVSPropertyOp0
 70
     1
102
RTVSPropertyOp1
 70
     1
102
RTVSPropertyOp2
 70
     1
102
RTVSPropertyOp3
 70
     1
102
RTVSPropertyOp4
 70
     1
102
RTVSPropertyOp5
 70
     1
102
RTVSPropertyOp6
 70
     1
102
RTVSPropertyOp7
 70
     1
102
RTVSPropertyOp8
 70
     1
102
RTVSPropertyOp9
 70
     1
102
RTVSPropertyOp10
 70
     1
102
RTVSPropertyOp11
 70
     1
102
RTVSPropertyOp12
 70
     1
102
RTVSPropertyOp13
 70
     1
102
RTVSPropertyOp14
 70
     1
102
RTVSPropertyOp15
 70
     1
102
RTVSPropertyOp16
 70
     1
102
RTVSPropertyOp17
 70
     1
102
RTVSPropertyOp18
 70
     1
102
RTVSPropertyOp19
 70
     1
102
RTVSPropertyOp20
 70
     1
102
RTVSPropertyOp21
 70
     1
102
RTVSPropertyOp22
 70
     1
102
RTVSPropertyOp23
 70
     1
102
RTVSPropertyOp24
 70
     1
102
RTVSPropertyOp25
 70
     1
102
RTVSPropertyOp26
 70
     1
102
RTVSPropertyOp27
 70
     1
102
RTVSPropertyOp28
 70
     1
102
RTVSPropertyOp29
 70
     1
102
RTVSPropertyOp30
 70
     1
102
RTVSPropertyOp31
 70
     1
102
RTVSPropertyOp32
 70
     1
102
RTVSPropertyOp33
 70
     1
102
RTVSPropertyOp34
 70
     1
102
RTVSPropertyOp35
 70
     1
102
RTVSPropertyOp36
 70
     1
102
RTVSPropertyOp37
 70
     1
102
RTVSPropertyOp38
 70
     1
102
RTVSPropertyOp39
 70
     1
102
RTVSPropertyOp40
 70
     1
102
RTVSPropertyOp41
 70
     1
102
RTVSPropertyOp42
 70
     1
102
RTVSPropertyOp43
 70
     1
102
RTVSPropertyOp44
 70
     1
102
RTVSPropertyOp45
 70
     1
102
RTVSPropertyOp46
 70
     1
102
RTVSPropertyOp47
 70
     1
102
RTVSPropertyOp48
 70
     1
102
RTVSPropertyOp49
 70
     1
102
RTVSPropertyOp50
 70
     1
102
RTVSPropertyOp51
 70
     0
102
RTVSPropertyOp52
 70
     0
102
RTVSPropertyOp53
 70
     1
102
RTVSPropertyOp54
 70
     1
102
RTVSPropertyOp55
 70
     1
102
RTVSPropertyOp56
 70
     1
102
RTVSPropertyOp57
 70
     1
102
RTVSPost2010Prop28
280
     0
102
RTVSPost2010PropOp28
 70
     1
102
RTVSPost2010Prop29
280
     1
102
RTVSPost2010PropOp29
 70
     1
102
RTVSPost2010Prop30
280
     1
102
RTVSPost2010PropOp30
 70
     1
102
RTVSPost2010Prop31
280
     0
102
RTVSPost2010PropOp31
 70
     1
102
RTVSPost2010Prop32
280
     0
102
RTVSPost2010PropOp32
 70
     1
102
RTVSPost2010Prop33
280
     0
102
RTVSPost2010PropOp33
 70
     1
102
RTVSPost2010Prop34
280
     0
102
RTVSPost2010PropOp34
 70
     1
102
RTVSPost2010Prop35
280
     0
102
RTVSPost2010PropOp35
 70
     1
102
RTVSPost2010Prop36
280
     0
102
RTVSPost2010PropOp36
 70
     1
102
RTVSPost2010Prop37
 90
       50
102
RTVSPost2010PropOp37
 70
     1
102
RTVSPost2010Prop38
140
0.0
102
RTVSPost2010PropOp38
 70
     1
102
RTVSPost2010Prop39
140
1.0
102
RTVSPost2010PropOp39
 70
     1
102
RTVSPost2010Prop40
 90
        0
102
RTVSPost2010PropOp40
 70
     1
102
RTVSPost2010Prop41ColorIndex
 90
       18
102
RTVSPost2010Prop41ColorRGB
 90
        0
102
RTVSPost2010PropOp41
 70
     1
102
RTVSPost2010Prop42
 90
       50
102
RTVSPost2010PropOp42
 70
     1
102
RTVSPost2010Prop43
 90
        3
102
RTVSPost2010PropOp43
 70
     1
102
RTVSPost2010Prop44ColorIndex
 90
        5
102
RTVSPost2010Prop44ColorRGB
 90
      255
102
RTVSPost2010PropOp44
 70
     1
102
RTVSPost2010Prop45
280
     0
102
RTVSPost2010PropOp45
 70
     1
102
RTVSPost2010Prop46
 90
       50
102
RTVSPost2010PropOp46
 70
     1
102
RTVSPost2010Prop47
 90
       50
102
RTVSPost2010PropOp47
 70
     1
102
RTVSPost2010Prop48
 90
       50
102
RTVSPost2010PropOp48
 70
     1
102
RTVSPost2010Prop49
280
     0
102
RTVSPost2010PropOp49
 70
     1
102
RTVSPost2010Prop50
 90
       50
102
RTVSPost2010PropOp50
 70
     1
102
RTVSPost2010Prop51ColorIndex
 90
      256
102
RTVSPost2010Prop51ColorRGB
 90
-16777216
102
RTVSPost2010PropOp51
 70
     0
102
RTVSPost2010Prop52
140
1.0
102
RTVSPost2010PropOp52
 70
     0
102
RTVSPost2010Prop53
 90
        2
102
RTVSPost2010PropOp53
 70
     1
102
RTVSPost2010Prop54
  1
strokes_ogs.tif
102
RTVSPost2010PropOp54
 70
     1
102
RTVSPost2010Prop55
280
     0
102
RTVSPost2010PropOp55
 70
     1
102
RTVSPost2010Prop56
140
1.0
102
RTVSPost2010PropOp56
 70
     1
102
RTVSPost2010Prop57
140
1.0
102
RTVSPost2010PropOp57
 70
     1
  0
XRECORD
  5
380
102
{ACAD_REACTORS
330
37F
102
}
330
37F
100
AcDbXrecord
280
     1
102
RTVSPropertyOp0
 70
     1
102
RTVSPropertyOp1
 70
     1
102
RTVSPropertyOp2
 70
     1
102
RTVSPropertyOp3
 70
     1
102
RTVSPropertyOp4
 70
     1
102
RTVSPropertyOp5
 70
     1
102
RTVSPropertyOp6
 70
     1
102
RTVSPropertyOp7
 70
     1
102
RTVSPropertyOp8
 70
     1
102
RTVSPropertyOp9
 70
     1
102
RTVSPropertyOp10
 70
     1
102
RTVSPropertyOp11
 70
     1
102
RTVSPropertyOp12
 70
     1
102
RTVSPropertyOp13
 70
     1
102
RTVSPropertyOp14
 70
     1
102
RTVSPropertyOp15
 70
     1
102
RTVSPropertyOp16
 70
     1
102
RTVSPropertyOp17
 70
     1
102
RTVSPropertyOp18
 70
     1
102
RTVSPropertyOp19
 70
     1
102
RTVSPropertyOp20
 70
     1
102
RTVSPropertyOp21
 70
     1
102
RTVSPropertyOp22
 70
     1
102
RTVSPropertyOp23
 70
     1
102
RTVSPropertyOp24
 70
     1
102
RTVSPropertyOp25
 70
     1
102
RTVSPropertyOp26
 70
     1
102
RTVSPropertyOp27
 70
     1
102
RTVSPropertyOp28
 70
     1
102
RTVSPropertyOp29
 70
     1
102
RTVSPropertyOp30
 70
     1
102
RTVSPropertyOp31
 70
     1
102
RTVSPropertyOp32
 70
     1
102
RTVSPropertyOp33
 70
     1
102
RTVSPropertyOp34
 70
     1
102
RTVSPropertyOp35
 70
     1
102
RTVSPropertyOp36
 70
     1
102
RTVSPropertyOp37
 70
     1
102
RTVSPropertyOp38
 70
     1
102
RTVSPropertyOp39
 70
     1
102
RTVSPropertyOp40
 70
     1
102
RTVSPropertyOp41
 70
     1
102
RTVSPropertyOp42
 70
     1
102
RTVSPropertyOp43
 70
     1
102
RTVSPropertyOp44
 70
     1
102
RTVSPropertyOp45
 70
     1
102
RTVSPropertyOp46
 70
     1
102
RTVSPropertyOp47
 70
     1
102
RTVSPropertyOp48
 70
     1
102
RTVSPropertyOp49
 70
     1
102
RTVSPropertyOp50
 70
     1
102
RTVSPropertyOp51
 70
     0
102
RTVSPropertyOp52
 70
     0
102
RTVSPropertyOp53
 70
     1
102
RTVSPropertyOp54
 70
     1
102
RTVSPropertyOp55
 70
     1
102
RTVSPropertyOp56
 70
     1
102
RTVSPropertyOp57
 70
     1
102
RTVSPost2010Prop28
280
     0
102
RTVSPost2010PropOp28
 70
     1
102
RTVSPost2010Prop29
280
     1
102
RTVSPost2010PropOp29
 70
     1
102
RTVSPost2010Prop30
280
     1
102
RTVSPost2010PropOp30
 70
     1
102
RTVSPost2010Prop31
280
     0
102
RTVSPost2010PropOp31
 70
     1
102
RTVSPost2010Prop32
280
     0
102
RTVSPost2010PropOp32
 70
     1
102
RTVSPost2010Prop33
280
     0
102
RTVSPost2010PropOp33
 70
     1
102
RTVSPost2010Prop34
280
     0
102
RTVSPost2010PropOp34
 70
     1
102
RTVSPost2010Prop35
280
     0
102
RTVSPost2010PropOp35
 70
     1
102
RTVSPost2010Prop36
280
     0
102
RTVSPost2010PropOp36
 70
     1
102
RTVSPost2010Prop37
 90
       50
102
RTVSPost2010PropOp37
 70
     1
102
RTVSPost2010Prop38
140
0.0
102
RTVSPost2010PropOp38
 70
     1
102
RTVSPost2010Prop39
140
1.0
102
RTVSPost2010PropOp39
 70
     1
102
RTVSPost2010Prop40
 90
        0
102
RTVSPost2010PropOp40
 70
     1
102
RTVSPost2010Prop41ColorIndex
 90
       18
102
RTVSPost2010Prop41ColorRGB
 90
        0
102
RTVSPost2010PropOp41
 70
     1
102
RTVSPost2010Prop42
 90
       50
102
RTVSPost2010PropOp42
 70
     1
102
RTVSPost2010Prop43
 90
        3
102
RTVSPost2010PropOp43
 70
     1
102
RTVSPost2010Prop44ColorIndex
 90
        5
102
RTVSPost2010Prop44ColorRGB
 90
      255
102
RTVSPost2010PropOp44
 70
     1
102
RTVSPost2010Prop45
280
     0
102
RTVSPost2010PropOp45
 70
     1
102
RTVSPost2010Prop46
 90
       50
102
RTVSPost2010PropOp46
 70
     1
102
RTVSPost2010Prop47
 90
       50
102
RTVSPost2010PropOp47
 70
     1
102
RTVSPost2010Prop48
 90
       50
102
RTVSPost2010PropOp48
 70
     1
102
RTVSPost2010Prop49
280
     0
102
RTVSPost2010PropOp49
 70
     1
102
RTVSPost2010Prop50
 90
       50
102
RTVSPost2010PropOp50
 70
     1
102
RTVSPost2010Prop51ColorIndex
 90
      256
102
RTVSPost2010Prop51ColorRGB
 90
-16777216
102
RTVSPost2010PropOp51
 70
     0
102
RTVSPost2010Prop52
140
1.0
102
RTVSPost2010PropOp52
 70
     0
102
RTVSPost2010Prop53
 90
        2
102
RTVSPost2010PropOp53
 70
     1
102
RTVSPost2010Prop54
  1
strokes_ogs.tif
102
RTVSPost2010PropOp54
 70
     1
102
RTVSPost2010Prop55
280
     0
102
RTVSPost2010PropOp55
 70
     1
102
RTVSPost2010Prop56
140
1.0
102
RTVSPost2010PropOp56
 70
     1
102
RTVSPost2010Prop57
140
1.0
102
RTVSPost2010PropOp57
 70
     1
  0
XRECORD
  5
390
102
{ACAD_REACTORS
330
38F
102
}
330
38F
100
AcDbXrecord
280
     1
102
RTVSPropertyOp0
 70
     0
102
RTVSPropertyOp1
 70
     0
102
RTVSPropertyOp2
 70
     0
102
RTVSPropertyOp3
 70
     0
102
RTVSPropertyOp4
 70
     0
102
RTVSPropertyOp5
 70
     0
102
RTVSPropertyOp6
 70
     0
102
RTVSPropertyOp7
 70
     0
102
RTVSPropertyOp8
 70
     0
102
RTVSPropertyOp9
 70
     0
102
RTVSPropertyOp10
 70
     0
102
RTVSPropertyOp11
 70
     0
102
RTVSPropertyOp12
 70
     0
102
RTVSPropertyOp13
 70
     0
102
RTVSPropertyOp14
 70
     2
102
RTVSPropertyOp15
 70
     0
102
RTVSPropertyOp16
 70
     0
102
RTVSPropertyOp17
 70
     0
102
RTVSPropertyOp18
 70
     0
102
RTVSPropertyOp19
 70
     0
102
RTVSPropertyOp20
 70
     0
102
RTVSPropertyOp21
 70
     0
102
RTVSPropertyOp22
 70
     0
102
RTVSPropertyOp23
 70
     0
102
RTVSPropertyOp24
 70
     0
102
RTVSPropertyOp25
 70
     0
102
RTVSPropertyOp26
 70
     0
102
RTVSPropertyOp27
 70
     0
102
RTVSPropertyOp28
 70
     0
102
RTVSPropertyOp29
 70
     0
102
RTVSPropertyOp30
 70
     0
102
RTVSPropertyOp31
 70
     0
102
RTVSPropertyOp32
 70
     0
102
RTVSPropertyOp33
 70
     0
102
RTVSPropertyOp34
 70
     0
102
RTVSPropertyOp35
 70
     0
102
RTVSPropertyOp36
 70
     0
102
RTVSPropertyOp37
 70
     0
102
RTVSPropertyOp38
 70
     0
102
RTVSPropertyOp39
 70
     0
102
RTVSPropertyOp40
 70
     0
102
RTVSPropertyOp41
 70
     0
102
RTVSPropertyOp42
 70
     0
102
RTVSPropertyOp43
 70
     0
102
RTVSPropertyOp44
 70
     0
102
RTVSPropertyOp45
 70
     0
102
RTVSPropertyOp46
 70
     0
102
RTVSPropertyOp47
 70
     0
102
RTVSPropertyOp48
 70
     0
102
RTVSPropertyOp49
 70
     0
102
RTVSPropertyOp50
 70
     0
102
RTVSPropertyOp51
 70
     0
102
RTVSPropertyOp52
 70
     0
102
RTVSPropertyOp53
 70
     0
102
RTVSPropertyOp54
 70
     0
102
RTVSPropertyOp55
 70
     0
102
RTVSPropertyOp56
 70
     0
102
RTVSPropertyOp57
 70
     0
102
RTVSPost2010Prop28
280
     0
102
RTVSPost2010PropOp28
 70
     0
102
RTVSPost2010Prop29
280
     1
102
RTVSPost2010PropOp29
 70
     0
102
RTVSPost2010Prop30
280
     1
102
RTVSPost2010PropOp30
 70
     0
102
RTVSPost2010Prop31
280
     0
102
RTVSPost2010PropOp31
 70
     0
102
RTVSPost2010Prop32
280
     0
102
RTVSPost2010PropOp32
 70
     0
102
RTVSPost2010Prop33
280
     0
102
RTVSPost2010PropOp33
 70
     0
102
RTVSPost2010Prop34
280
     0
102
RTVSPost2010PropOp34
 70
     0
102
RTVSPost2010Prop35
280
     0
102
RTVSPost2010PropOp35
 70
     0
102
RTVSPost2010Prop36
280
     0
102
RTVSPost2010PropOp36
 70
     0
102
RTVSPost2010Prop37
 90
       50
102
RTVSPost2010PropOp37
 70
     0
102
RTVSPost2010Prop38
140
0.0
102
RTVSPost2010PropOp38
 70
     0
102
RTVSPost2010Prop39
140
1.0
102
RTVSPost2010PropOp39
 70
     0
102
RTVSPost2010Prop40
 90
        0
102
RTVSPost2010PropOp40
 70
     0
102
RTVSPost2010Prop41ColorIndex
 90
       18
102
RTVSPost2010Prop41ColorRGB
 90
        0
102
RTVSPost2010PropOp41
 70
     0
102
RTVSPost2010Prop42
 90
       50
102
RTVSPost2010PropOp42
 70
     0
102
RTVSPost2010Prop43
 90
        3
102
RTVSPost2010PropOp43
 70
     0
102
RTVSPost2010Prop44ColorIndex
 90
        5
102
RTVSPost2010Prop44ColorRGB
 90
      255
102
RTVSPost2010PropOp44
 70
     0
102
RTVSPost2010Prop45
280
     0
102
RTVSPost2010PropOp45
 70
     0
102
RTVSPost2010Prop46
 90
       50
102
RTVSPost2010PropOp46
 70
     0
102
RTVSPost2010Prop47
 90
       50
102
RTVSPost2010PropOp47
 70
     0
102
RTVSPost2010Prop48
 90
       50
102
RTVSPost2010PropOp48
 70
     0
102
RTVSPost2010Prop49
280
     0
102
RTVSPost2010PropOp49
 70
     0
102
RTVSPost2010Prop50
 90
       50
102
RTVSPost2010PropOp50
 70
     0
102
RTVSPost2010Prop51ColorIndex
 90
      256
102
RTVSPost2010Prop51ColorRGB
 90
-16777216
102
RTVSPost2010PropOp51
 70
     0
102
RTVSPost2010Prop52
140
1.0
102
RTVSPost2010PropOp52
 70
     0
102
RTVSPost2010Prop53
 90
        2
102
RTVSPost2010PropOp53
 70
     0
102
RTVSPost2010Prop54
  1
strokes_ogs.tif
102
RTVSPost2010PropOp54
 70
     0
102
RTVSPost2010Prop55
280
     0
102
RTVSPost2010PropOp55
 70
     0
102
RTVSPost2010Prop56
140
1.0
102
RTVSPost2010PropOp56
 70
     0
102
RTVSPost2010Prop57
140
1.0
102
RTVSPost2010PropOp57
 70
     0
  0
XRECORD
  5
388
102
{ACAD_REACTORS
330
387
102
}
330
387
100
AcDbXrecord
280
     1
102
RTVSPropertyOp0
 70
     1
102
RTVSPropertyOp1
 70
     1
102
RTVSPropertyOp2
 70
     1
102
RTVSPropertyOp3
 70
     1
102
RTVSPropertyOp4
 70
     1
102
RTVSPropertyOp5
 70
     1
102
RTVSPropertyOp6
 70
     1
102
RTVSPropertyOp7
 70
     1
102
RTVSPropertyOp8
 70
     1
102
RTVSPropertyOp9
 70
     1
102
RTVSPropertyOp10
 70
     1
102
RTVSPropertyOp11
 70
     1
102
RTVSPropertyOp12
 70
     1
102
RTVSPropertyOp13
 70
     1
102
RTVSPropertyOp14
 70
     1
102
RTVSPropertyOp15
 70
     1
102
RTVSPropertyOp16
 70
     1
102
RTVSPropertyOp17
 70
     1
102
RTVSPropertyOp18
 70
     1
102
RTVSPropertyOp19
 70
     1
102
RTVSPropertyOp20
 70
     1
102
RTVSPropertyOp21
 70
     1
102
RTVSPropertyOp22
 70
     1
102
RTVSPropertyOp23
 70
     1
102
RTVSPropertyOp24
 70
     1
102
RTVSPropertyOp25
 70
     1
102
RTVSPropertyOp26
 70
     1
102
RTVSPropertyOp27
 70
     1
102
RTVSPropertyOp28
 70
     1
102
RTVSPropertyOp29
 70
     1
102
RTVSPropertyOp30
 70
     1
102
RTVSPropertyOp31
 70
     1
102
RTVSPropertyOp32
 70
     1
102
RTVSPropertyOp33
 70
     1
102
RTVSPropertyOp34
 70
     1
102
RTVSPropertyOp35
 70
     1
102
RTVSPropertyOp36
 70
     1
102
RTVSPropertyOp37
 70
     1
102
RTVSPropertyOp38
 70
     1
102
RTVSPropertyOp39
 70
     1
102
RTVSPropertyOp40
 70
     1
102
RTVSPropertyOp41
 70
     1
102
RTVSPropertyOp42
 70
     1
102
RTVSPropertyOp43
 70
     1
102
RTVSPropertyOp44
 70
     1
102
RTVSPropertyOp45
 70
     1
102
RTVSPropertyOp46
 70
     1
102
RTVSPropertyOp47
 70
     1
102
RTVSPropertyOp48
 70
     1
102
RTVSPropertyOp49
 70
     1
102
RTVSPropertyOp50
 70
     1
102
RTVSPropertyOp51
 70
     0
102
RTVSPropertyOp52
 70
     0
102
RTVSPropertyOp53
 70
     1
102
RTVSPropertyOp54
 70
     1
102
RTVSPropertyOp55
 70
     1
102
RTVSPropertyOp56
 70
     1
102
RTVSPropertyOp57
 70
     1
102
RTVSPost2010Prop28
280
     0
102
RTVSPost2010PropOp28
 70
     1
102
RTVSPost2010Prop29
280
     1
102
RTVSPost2010PropOp29
 70
     1
102
RTVSPost2010Prop30
280
     1
102
RTVSPost2010PropOp30
 70
     1
102
RTVSPost2010Prop31
280
     0
102
RTVSPost2010PropOp31
 70
     1
102
RTVSPost2010Prop32
280
     0
102
RTVSPost2010PropOp32
 70
     1
102
RTVSPost2010Prop33
280
     0
102
RTVSPost2010PropOp33
 70
     1
102
RTVSPost2010Prop34
280
     0
102
RTVSPost2010PropOp34
 70
     1
102
RTVSPost2010Prop35
280
     0
102
RTVSPost2010PropOp35
 70
     1
102
RTVSPost2010Prop36
280
     0
102
RTVSPost2010PropOp36
 70
     1
102
RTVSPost2010Prop37
 90
       50
102
RTVSPost2010PropOp37
 70
     1
102
RTVSPost2010Prop38
140
0.0
102
RTVSPost2010PropOp38
 70
     1
102
RTVSPost2010Prop39
140
1.0
102
RTVSPost2010PropOp39
 70
     1
102
RTVSPost2010Prop40
 90
        0
102
RTVSPost2010PropOp40
 70
     1
102
RTVSPost2010Prop41ColorIndex
 90
       18
102
RTVSPost2010Prop41ColorRGB
 90
        0
102
RTVSPost2010PropOp41
 70
     1
102
RTVSPost2010Prop42
 90
       50
102
RTVSPost2010PropOp42
 70
     1
102
RTVSPost2010Prop43
 90
        3
102
RTVSPost2010PropOp43
 70
     1
102
RTVSPost2010Prop44ColorIndex
 90
        5
102
RTVSPost2010Prop44ColorRGB
 90
      255
102
RTVSPost2010PropOp44
 70
     1
102
RTVSPost2010Prop45
280
     0
102
RTVSPost2010PropOp45
 70
     1
102
RTVSPost2010Prop46
 90
       50
102
RTVSPost2010PropOp46
 70
     1
102
RTVSPost2010Prop47
 90
       50
102
RTVSPost2010PropOp47
 70
     1
102
RTVSPost2010Prop48
 90
       50
102
RTVSPost2010PropOp48
 70
     1
102
RTVSPost2010Prop49
280
     0
102
RTVSPost2010PropOp49
 70
     1
102
RTVSPost2010Prop50
 90
       50
102
RTVSPost2010PropOp50
 70
     1
102
RTVSPost2010Prop51ColorIndex
 90
      256
102
RTVSPost2010Prop51ColorRGB
 90
-16777216
102
RTVSPost2010PropOp51
 70
     0
102
RTVSPost2010Prop52
140
1.0
102
RTVSPost2010PropOp52
 70
     0
102
RTVSPost2010Prop53
 90
        2
102
RTVSPost2010PropOp53
 70
     1
102
RTVSPost2010Prop54
  1
strokes_ogs.tif
102
RTVSPost2010PropOp54
 70
     1
102
RTVSPost2010Prop55
280
     0
102
RTVSPost2010PropOp55
 70
     1
102
RTVSPost2010Prop56
140
1.0
102
RTVSPost2010PropOp56
 70
     1
102
RTVSPost2010Prop57
140
1.0
102
RTVSPost2010PropOp57
 70
     1
  0
XRECORD
  5
36C
102
{ACAD_REACTORS
330
36B
102
}
330
36B
100
AcDbXrecord
280
     1
102
RTVSPropertyOp0
 70
     1
102
RTVSPropertyOp1
 70
     1
102
RTVSPropertyOp2
 70
     1
102
RTVSPropertyOp3
 70
     1
102
RTVSPropertyOp4
 70
     1
102
RTVSPropertyOp5
 70
     1
102
RTVSPropertyOp6
 70
     1
102
RTVSPropertyOp7
 70
     1
102
RTVSPropertyOp8
 70
     1
102
RTVSPropertyOp9
 70
     1
102
RTVSPropertyOp10
 70
     1
102
RTVSPropertyOp11
 70
     1
102
RTVSPropertyOp12
 70
     1
102
RTVSPropertyOp13
 70
     1
102
RTVSPropertyOp14
 70
     1
102
RTVSPropertyOp15
 70
     1
102
RTVSPropertyOp16
 70
     1
102
RTVSPropertyOp17
 70
     1
102
RTVSPropertyOp18
 70
     1
102
RTVSPropertyOp19
 70
     1
102
RTVSPropertyOp20
 70
     1
102
RTVSPropertyOp21
 70
     1
102
RTVSPropertyOp22
 70
     1
102
RTVSPropertyOp23
 70
     1
102
RTVSPropertyOp24
 70
     1
102
RTVSPropertyOp25
 70
     1
102
RTVSPropertyOp26
 70
     1
102
RTVSPropertyOp27
 70
     1
102
RTVSPropertyOp28
 70
     1
102
RTVSPropertyOp29
 70
     1
102
RTVSPropertyOp30
 70
     1
102
RTVSPropertyOp31
 70
     1
102
RTVSPropertyOp32
 70
     1
102
RTVSPropertyOp33
 70
     1
102
RTVSPropertyOp34
 70
     1
102
RTVSPropertyOp35
 70
     1
102
RTVSPropertyOp36
 70
     1
102
RTVSPropertyOp37
 70
     1
102
RTVSPropertyOp38
 70
     1
102
RTVSPropertyOp39
 70
     1
102
RTVSPropertyOp40
 70
     1
102
RTVSPropertyOp41
 70
     1
102
RTVSPropertyOp42
 70
     1
102
RTVSPropertyOp43
 70
     1
102
RTVSPropertyOp44
 70
     1
102
RTVSPropertyOp45
 70
     1
102
RTVSPropertyOp46
 70
     1
102
RTVSPropertyOp47
 70
     1
102
RTVSPropertyOp48
 70
     1
102
RTVSPropertyOp49
 70
     1
102
RTVSPropertyOp50
 70
     1
102
RTVSPropertyOp51
 70
     0
102
RTVSPropertyOp52
 70
     0
102
RTVSPropertyOp53
 70
     1
102
RTVSPropertyOp54
 70
     1
102
RTVSPropertyOp55
 70
     1
102
RTVSPropertyOp56
 70
     1
102
RTVSPropertyOp57
 70
     1
102
RTVSPost2010Prop28
280
     0
102
RTVSPost2010PropOp28
 70
     1
102
RTVSPost2010Prop29
280
     1
102
RTVSPost2010PropOp29
 70
     1
102
RTVSPost2010Prop30
280
     1
102
RTVSPost2010PropOp30
 70
     1
102
RTVSPost2010Prop31
280
     0
102
RTVSPost2010PropOp31
 70
     1
102
RTVSPost2010Prop32
280
     0
102
RTVSPost2010PropOp32
 70
     1
102
RTVSPost2010Prop33
280
     0
102
RTVSPost2010PropOp33
 70
     1
102
RTVSPost2010Prop34
280
     0
102
RTVSPost2010PropOp34
 70
     1
102
RTVSPost2010Prop35
280
     0
102
RTVSPost2010PropOp35
 70
     1
102
RTVSPost2010Prop36
280
     0
102
RTVSPost2010PropOp36
 70
     1
102
RTVSPost2010Prop37
 90
       50
102
RTVSPost2010PropOp37
 70
     1
102
RTVSPost2010Prop38
140
0.0
102
RTVSPost2010PropOp38
 70
     1
102
RTVSPost2010Prop39
140
1.0
102
RTVSPost2010PropOp39
 70
     1
102
RTVSPost2010Prop40
 90
        0
102
RTVSPost2010PropOp40
 70
     1
102
RTVSPost2010Prop41ColorIndex
 90
       18
102
RTVSPost2010Prop41ColorRGB
 90
        0
102
RTVSPost2010PropOp41
 70
     1
102
RTVSPost2010Prop42
 90
       50
102
RTVSPost2010PropOp42
 70
     1
102
RTVSPost2010Prop43
 90
        3
102
RTVSPost2010PropOp43
 70
     1
102
RTVSPost2010Prop44ColorIndex
 90
        5
102
RTVSPost2010Prop44ColorRGB
 90
      255
102
RTVSPost2010PropOp44
 70
     1
102
RTVSPost2010Prop45
280
     0
102
RTVSPost2010PropOp45
 70
     1
102
RTVSPost2010Prop46
 90
       50
102
RTVSPost2010PropOp46
 70
     1
102
RTVSPost2010Prop47
 90
       50
102
RTVSPost2010PropOp47
 70
     1
102
RTVSPost2010Prop48
 90
       50
102
RTVSPost2010PropOp48
 70
     1
102
RTVSPost2010Prop49
280
     0
102
RTVSPost2010PropOp49
 70
     1
102
RTVSPost2010Prop50
 90
       50
102
RTVSPost2010PropOp50
 70
     1
102
RTVSPost2010Prop51ColorIndex
 90
      256
102
RTVSPost2010Prop51ColorRGB
 90
-16777216
102
RTVSPost2010PropOp51
 70
     0
102
RTVSPost2010Prop52
140
1.0
102
RTVSPost2010PropOp52
 70
     0
102
RTVSPost2010Prop53
 90
        2
102
RTVSPost2010PropOp53
 70
     1
102
RTVSPost2010Prop54
  1
strokes_ogs.tif
102
RTVSPost2010PropOp54
 70
     1
102
RTVSPost2010Prop55
280
     0
102
RTVSPost2010PropOp55
 70
     1
102
RTVSPost2010Prop56
140
1.0
102
RTVSPost2010PropOp56
 70
     1
102
RTVSPost2010Prop57
140
1.0
102
RTVSPost2010PropOp57
 70
     1
  0
XRECORD
  5
36E
102
{ACAD_REACTORS
330
36D
102
}
330
36D
100
AcDbXrecord
280
     1
102
RTVSPropertyOp0
 70
     1
102
RTVSPropertyOp1
 70
     1
102
RTVSPropertyOp2
 70
     1
102
RTVSPropertyOp3
 70
     1
102
RTVSPropertyOp4
 70
     1
102
RTVSPropertyOp5
 70
     1
102
RTVSPropertyOp6
 70
     1
102
RTVSPropertyOp7
 70
     1
102
RTVSPropertyOp8
 70
     1
102
RTVSPropertyOp9
 70
     1
102
RTVSPropertyOp10
 70
     1
102
RTVSPropertyOp11
 70
     1
102
RTVSPropertyOp12
 70
     1
102
RTVSPropertyOp13
 70
     1
102
RTVSPropertyOp14
 70
     1
102
RTVSPropertyOp15
 70
     1
102
RTVSPropertyOp16
 70
     1
102
RTVSPropertyOp17
 70
     1
102
RTVSPropertyOp18
 70
     1
102
RTVSPropertyOp19
 70
     1
102
RTVSPropertyOp20
 70
     1
102
RTVSPropertyOp21
 70
     1
102
RTVSPropertyOp22
 70
     1
102
RTVSPropertyOp23
 70
     1
102
RTVSPropertyOp24
 70
     1
102
RTVSPropertyOp25
 70
     1
102
RTVSPropertyOp26
 70
     1
102
RTVSPropertyOp27
 70
     1
102
RTVSPropertyOp28
 70
     1
102
RTVSPropertyOp29
 70
     1
102
RTVSPropertyOp30
 70
     1
102
RTVSPropertyOp31
 70
     1
102
RTVSPropertyOp32
 70
     1
102
RTVSPropertyOp33
 70
     1
102
RTVSPropertyOp34
 70
     1
102
RTVSPropertyOp35
 70
     1
102
RTVSPropertyOp36
 70
     1
102
RTVSPropertyOp37
 70
     1
102
RTVSPropertyOp38
 70
     1
102
RTVSPropertyOp39
 70
     1
102
RTVSPropertyOp40
 70
     1
102
RTVSPropertyOp41
 70
     1
102
RTVSPropertyOp42
 70
     1
102
RTVSPropertyOp43
 70
     1
102
RTVSPropertyOp44
 70
     1
102
RTVSPropertyOp45
 70
     1
102
RTVSPropertyOp46
 70
     1
102
RTVSPropertyOp47
 70
     1
102
RTVSPropertyOp48
 70
     1
102
RTVSPropertyOp49
 70
     1
102
RTVSPropertyOp50
 70
     1
102
RTVSPropertyOp51
 70
     0
102
RTVSPropertyOp52
 70
     0
102
RTVSPropertyOp53
 70
     1
102
RTVSPropertyOp54
 70
     1
102
RTVSPropertyOp55
 70
     1
102
RTVSPropertyOp56
 70
     1
102
RTVSPropertyOp57
 70
     1
102
RTVSPost2010Prop28
280
     0
102
RTVSPost2010PropOp28
 70
     1
102
RTVSPost2010Prop29
280
     1
102
RTVSPost2010PropOp29
 70
     1
102
RTVSPost2010Prop30
280
     1
102
RTVSPost2010PropOp30
 70
     1
102
RTVSPost2010Prop31
280
     0
102
RTVSPost2010PropOp31
 70
     1
102
RTVSPost2010Prop32
280
     0
102
RTVSPost2010PropOp32
 70
     1
102
RTVSPost2010Prop33
280
     0
102
RTVSPost2010PropOp33
 70
     1
102
RTVSPost2010Prop34
280
     0
102
RTVSPost2010PropOp34
 70
     1
102
RTVSPost2010Prop35
280
     0
102
RTVSPost2010PropOp35
 70
     1
102
RTVSPost2010Prop36
280
     0
102
RTVSPost2010PropOp36
 70
     1
102
RTVSPost2010Prop37
 90
       50
102
RTVSPost2010PropOp37
 70
     1
102
RTVSPost2010Prop38
140
0.0
102
RTVSPost2010PropOp38
 70
     1
102
RTVSPost2010Prop39
140
1.0
102
RTVSPost2010PropOp39
 70
     1
102
RTVSPost2010Prop40
 90
        0
102
RTVSPost2010PropOp40
 70
     1
102
RTVSPost2010Prop41ColorIndex
 90
       18
102
RTVSPost2010Prop41ColorRGB
 90
        0
102
RTVSPost2010PropOp41
 70
     1
102
RTVSPost2010Prop42
 90
       50
102
RTVSPost2010PropOp42
 70
     1
102
RTVSPost2010Prop43
 90
        3
102
RTVSPost2010PropOp43
 70
     1
102
RTVSPost2010Prop44ColorIndex
 90
        5
102
RTVSPost2010Prop44ColorRGB
 90
      255
102
RTVSPost2010PropOp44
 70
     1
102
RTVSPost2010Prop45
280
     0
102
RTVSPost2010PropOp45
 70
     1
102
RTVSPost2010Prop46
 90
       50
102
RTVSPost2010PropOp46
 70
     1
102
RTVSPost2010Prop47
 90
       50
102
RTVSPost2010PropOp47
 70
     1
102
RTVSPost2010Prop48
 90
       50
102
RTVSPost2010PropOp48
 70
     1
102
RTVSPost2010Prop49
280
     0
102
RTVSPost2010PropOp49
 70
     1
102
RTVSPost2010Prop50
 90
       50
102
RTVSPost2010PropOp50
 70
     1
102
RTVSPost2010Prop51ColorIndex
 90
      256
102
RTVSPost2010Prop51ColorRGB
 90
-16777216
102
RTVSPost2010PropOp51
 70
     0
102
RTVSPost2010Prop52
140
1.0
102
RTVSPost2010PropOp52
 70
     0
102
RTVSPost2010Prop53
 90
        2
102
RTVSPost2010PropOp53
 70
     1
102
RTVSPost2010Prop54
  1
strokes_ogs.tif
102
RTVSPost2010PropOp54
 70
     1
102
RTVSPost2010Prop55
280
     0
102
RTVSPost2010PropOp55
 70
     1
102
RTVSPost2010Prop56
140
1.0
102
RTVSPost2010PropOp56
 70
     1
102
RTVSPost2010Prop57
140
1.0
102
RTVSPost2010PropOp57
 70
     1
  0
XRECORD
  5
370
102
{ACAD_REACTORS
330
36F
102
}
330
36F
100
AcDbXrecord
280
     1
102
RTVSPropertyOp0
 70
     1
102
RTVSPropertyOp1
 70
     1
102
RTVSPropertyOp2
 70
     1
102
RTVSPropertyOp3
 70
     1
102
RTVSPropertyOp4
 70
     1
102
RTVSPropertyOp5
 70
     1
102
RTVSPropertyOp6
 70
     1
102
RTVSPropertyOp7
 70
     1
102
RTVSPropertyOp8
 70
     1
102
RTVSPropertyOp9
 70
     1
102
RTVSPropertyOp10
 70
     1
102
RTVSPropertyOp11
 70
     1
102
RTVSPropertyOp12
 70
     1
102
RTVSPropertyOp13
 70
     1
102
RTVSPropertyOp14
 70
     1
102
RTVSPropertyOp15
 70
     1
102
RTVSPropertyOp16
 70
     1
102
RTVSPropertyOp17
 70
     1
102
RTVSPropertyOp18
 70
     1
102
RTVSPropertyOp19
 70
     1
102
RTVSPropertyOp20
 70
     1
102
RTVSPropertyOp21
 70
     1
102
RTVSPropertyOp22
 70
     1
102
RTVSPropertyOp23
 70
     1
102
RTVSPropertyOp24
 70
     1
102
RTVSPropertyOp25
 70
     1
102
RTVSPropertyOp26
 70
     1
102
RTVSPropertyOp27
 70
     1
102
RTVSPropertyOp28
 70
     1
102
RTVSPropertyOp29
 70
     1
102
RTVSPropertyOp30
 70
     1
102
RTVSPropertyOp31
 70
     1
102
RTVSPropertyOp32
 70
     1
102
RTVSPropertyOp33
 70
     1
102
RTVSPropertyOp34
 70
     1
102
RTVSPropertyOp35
 70
     1
102
RTVSPropertyOp36
 70
     1
102
RTVSPropertyOp37
 70
     1
102
RTVSPropertyOp38
 70
     1
102
RTVSPropertyOp39
 70
     1
102
RTVSPropertyOp40
 70
     1
102
RTVSPropertyOp41
 70
     1
102
RTVSPropertyOp42
 70
     1
102
RTVSPropertyOp43
 70
     1
102
RTVSPropertyOp44
 70
     1
102
RTVSPropertyOp45
 70
     1
102
RTVSPropertyOp46
 70
     1
102
RTVSPropertyOp47
 70
     1
102
RTVSPropertyOp48
 70
     1
102
RTVSPropertyOp49
 70
     1
102
RTVSPropertyOp50
 70
     1
102
RTVSPropertyOp51
 70
     0
102
RTVSPropertyOp52
 70
     0
102
RTVSPropertyOp53
 70
     1
102
RTVSPropertyOp54
 70
     1
102
RTVSPropertyOp55
 70
     1
102
RTVSPropertyOp56
 70
     1
102
RTVSPropertyOp57
 70
     1
102
RTVSPost2010Prop28
280
     0
102
RTVSPost2010PropOp28
 70
     1
102
RTVSPost2010Prop29
280
     1
102
RTVSPost2010PropOp29
 70
     1
102
RTVSPost2010Prop30
280
     1
102
RTVSPost2010PropOp30
 70
     1
102
RTVSPost2010Prop31
280
     0
102
RTVSPost2010PropOp31
 70
     1
102
RTVSPost2010Prop32
280
     0
102
RTVSPost2010PropOp32
 70
     1
102
RTVSPost2010Prop33
280
     0
102
RTVSPost2010PropOp33
 70
     1
102
RTVSPost2010Prop34
280
     0
102
RTVSPost2010PropOp34
 70
     1
102
RTVSPost2010Prop35
280
     0
102
RTVSPost2010PropOp35
 70
     1
102
RTVSPost2010Prop36
280
     0
102
RTVSPost2010PropOp36
 70
     1
102
RTVSPost2010Prop37
 90
       50
102
RTVSPost2010PropOp37
 70
     1
102
RTVSPost2010Prop38
140
0.0
102
RTVSPost2010PropOp38
 70
     1
102
RTVSPost2010Prop39
140
1.0
102
RTVSPost2010PropOp39
 70
     1
102
RTVSPost2010Prop40
 90
        0
102
RTVSPost2010PropOp40
 70
     1
102
RTVSPost2010Prop41ColorIndex
 90
       18
102
RTVSPost2010Prop41ColorRGB
 90
        0
102
RTVSPost2010PropOp41
 70
     1
102
RTVSPost2010Prop42
 90
       50
102
RTVSPost2010PropOp42
 70
     1
102
RTVSPost2010Prop43
 90
        3
102
RTVSPost2010PropOp43
 70
     1
102
RTVSPost2010Prop44ColorIndex
 90
        5
102
RTVSPost2010Prop44ColorRGB
 90
      255
102
RTVSPost2010PropOp44
 70
     1
102
RTVSPost2010Prop45
280
     0
102
RTVSPost2010PropOp45
 70
     1
102
RTVSPost2010Prop46
 90
       50
102
RTVSPost2010PropOp46
 70
     1
102
RTVSPost2010Prop47
 90
       50
102
RTVSPost2010PropOp47
 70
     1
102
RTVSPost2010Prop48
 90
       50
102
RTVSPost2010PropOp48
 70
     1
102
RTVSPost2010Prop49
280
     0
102
RTVSPost2010PropOp49
 70
     1
102
RTVSPost2010Prop50
 90
       50
102
RTVSPost2010PropOp50
 70
     1
102
RTVSPost2010Prop51ColorIndex
 90
      256
102
RTVSPost2010Prop51ColorRGB
 90
-16777216
102
RTVSPost2010PropOp51
 70
     0
102
RTVSPost2010Prop52
140
1.0
102
RTVSPost2010PropOp52
 70
     0
102
RTVSPost2010Prop53
 90
        2
102
RTVSPost2010PropOp53
 70
     1
102
RTVSPost2010Prop54
  1
strokes_ogs.tif
102
RTVSPost2010PropOp54
 70
     1
102
RTVSPost2010Prop55
280
     0
102
RTVSPost2010PropOp55
 70
     1
102
RTVSPost2010Prop56
140
1.0
102
RTVSPost2010PropOp56
 70
     1
102
RTVSPost2010Prop57
140
1.0
102
RTVSPost2010PropOp57
 70
     1
  0
XRECORD
  5
372
102
{ACAD_REACTORS
330
371
102
}
330
371
100
AcDbXrecord
280
     1
102
RTVSPropertyOp0
 70
     1
102
RTVSPropertyOp1
 70
     1
102
RTVSPropertyOp2
 70
     1
102
RTVSPropertyOp3
 70
     1
102
RTVSPropertyOp4
 70
     1
102
RTVSPropertyOp5
 70
     1
102
RTVSPropertyOp6
 70
     1
102
RTVSPropertyOp7
 70
     1
102
RTVSPropertyOp8
 70
     1
102
RTVSPropertyOp9
 70
     1
102
RTVSPropertyOp10
 70
     1
102
RTVSPropertyOp11
 70
     1
102
RTVSPropertyOp12
 70
     1
102
RTVSPropertyOp13
 70
     1
102
RTVSPropertyOp14
 70
     1
102
RTVSPropertyOp15
 70
     1
102
RTVSPropertyOp16
 70
     1
102
RTVSPropertyOp17
 70
     1
102
RTVSPropertyOp18
 70
     1
102
RTVSPropertyOp19
 70
     1
102
RTVSPropertyOp20
 70
     1
102
RTVSPropertyOp21
 70
     1
102
RTVSPropertyOp22
 70
     1
102
RTVSPropertyOp23
 70
     1
102
RTVSPropertyOp24
 70
     1
102
RTVSPropertyOp25
 70
     1
102
RTVSPropertyOp26
 70
     1
102
RTVSPropertyOp27
 70
     1
102
RTVSPropertyOp28
 70
     1
102
RTVSPropertyOp29
 70
     1
102
RTVSPropertyOp30
 70
     1
102
RTVSPropertyOp31
 70
     1
102
RTVSPropertyOp32
 70
     1
102
RTVSPropertyOp33
 70
     1
102
RTVSPropertyOp34
 70
     1
102
RTVSPropertyOp35
 70
     1
102
RTVSPropertyOp36
 70
     1
102
RTVSPropertyOp37
 70
     1
102
RTVSPropertyOp38
 70
     1
102
RTVSPropertyOp39
 70
     1
102
RTVSPropertyOp40
 70
     1
102
RTVSPropertyOp41
 70
     1
102
RTVSPropertyOp42
 70
     1
102
RTVSPropertyOp43
 70
     1
102
RTVSPropertyOp44
 70
     1
102
RTVSPropertyOp45
 70
     1
102
RTVSPropertyOp46
 70
     1
102
RTVSPropertyOp47
 70
     1
102
RTVSPropertyOp48
 70
     1
102
RTVSPropertyOp49
 70
     1
102
RTVSPropertyOp50
 70
     1
102
RTVSPropertyOp51
 70
     0
102
RTVSPropertyOp52
 70
     0
102
RTVSPropertyOp53
 70
     1
102
RTVSPropertyOp54
 70
     1
102
RTVSPropertyOp55
 70
     1
102
RTVSPropertyOp56
 70
     1
102
RTVSPropertyOp57
 70
     1
102
RTVSPost2010Prop28
280
     0
102
RTVSPost2010PropOp28
 70
     1
102
RTVSPost2010Prop29
280
     1
102
RTVSPost2010PropOp29
 70
     1
102
RTVSPost2010Prop30
280
     1
102
RTVSPost2010PropOp30
 70
     1
102
RTVSPost2010Prop31
280
     0
102
RTVSPost2010PropOp31
 70
     1
102
RTVSPost2010Prop32
280
     0
102
RTVSPost2010PropOp32
 70
     1
102
RTVSPost2010Prop33
280
     0
102
RTVSPost2010PropOp33
 70
     1
102
RTVSPost2010Prop34
280
     0
102
RTVSPost2010PropOp34
 70
     1
102
RTVSPost2010Prop35
280
     0
102
RTVSPost2010PropOp35
 70
     1
102
RTVSPost2010Prop36
280
     0
102
RTVSPost2010PropOp36
 70
     1
102
RTVSPost2010Prop37
 90
       50
102
RTVSPost2010PropOp37
 70
     1
102
RTVSPost2010Prop38
140
0.0
102
RTVSPost2010PropOp38
 70
     1
102
RTVSPost2010Prop39
140
1.0
102
RTVSPost2010PropOp39
 70
     1
102
RTVSPost2010Prop40
 90
        0
102
RTVSPost2010PropOp40
 70
     1
102
RTVSPost2010Prop41ColorIndex
 90
       18
102
RTVSPost2010Prop41ColorRGB
 90
        0
102
RTVSPost2010PropOp41
 70
     1
102
RTVSPost2010Prop42
 90
       50
102
RTVSPost2010PropOp42
 70
     1
102
RTVSPost2010Prop43
 90
        3
102
RTVSPost2010PropOp43
 70
     1
102
RTVSPost2010Prop44ColorIndex
 90
        5
102
RTVSPost2010Prop44ColorRGB
 90
      255
102
RTVSPost2010PropOp44
 70
     1
102
RTVSPost2010Prop45
280
     0
102
RTVSPost2010PropOp45
 70
     1
102
RTVSPost2010Prop46
 90
       50
102
RTVSPost2010PropOp46
 70
     1
102
RTVSPost2010Prop47
 90
       50
102
RTVSPost2010PropOp47
 70
     1
102
RTVSPost2010Prop48
 90
       50
102
RTVSPost2010PropOp48
 70
     1
102
RTVSPost2010Prop49
280
     0
102
RTVSPost2010PropOp49
 70
     1
102
RTVSPost2010Prop50
 90
       50
102
RTVSPost2010PropOp50
 70
     1
102
RTVSPost2010Prop51ColorIndex
 90
      256
102
RTVSPost2010Prop51ColorRGB
 90
-16777216
102
RTVSPost2010PropOp51
 70
     0
102
RTVSPost2010Prop52
140
1.0
102
RTVSPost2010PropOp52
 70
     0
102
RTVSPost2010Prop53
 90
        2
102
RTVSPost2010PropOp53
 70
     1
102
RTVSPost2010Prop54
  1
strokes_ogs.tif
102
RTVSPost2010PropOp54
 70
     1
102
RTVSPost2010Prop55
280
     0
102
RTVSPost2010PropOp55
 70
     1
102
RTVSPost2010Prop56
140
1.0
102
RTVSPost2010PropOp56
 70
     1
102
RTVSPost2010Prop57
140
1.0
102
RTVSPost2010PropOp57
 70
     1
  0
XRECORD
  5
378
102
{ACAD_REACTORS
330
377
102
}
330
377
100
AcDbXrecord
280
     1
102
RTVSPropertyOp0
 70
     1
102
RTVSPropertyOp1
 70
     1
102
RTVSPropertyOp2
 70
     1
102
RTVSPropertyOp3
 70
     1
102
RTVSPropertyOp4
 70
     1
102
RTVSPropertyOp5
 70
     1
102
RTVSPropertyOp6
 70
     1
102
RTVSPropertyOp7
 70
     1
102
RTVSPropertyOp8
 70
     1
102
RTVSPropertyOp9
 70
     1
102
RTVSPropertyOp10
 70
     1
102
RTVSPropertyOp11
 70
     1
102
RTVSPropertyOp12
 70
     1
102
RTVSPropertyOp13
 70
     1
102
RTVSPropertyOp14
 70
     1
102
RTVSPropertyOp15
 70
     1
102
RTVSPropertyOp16
 70
     1
102
RTVSPropertyOp17
 70
     1
102
RTVSPropertyOp18
 70
     1
102
RTVSPropertyOp19
 70
     1
102
RTVSPropertyOp20
 70
     1
102
RTVSPropertyOp21
 70
     1
102
RTVSPropertyOp22
 70
     1
102
RTVSPropertyOp23
 70
     1
102
RTVSPropertyOp24
 70
     1
102
RTVSPropertyOp25
 70
     1
102
RTVSPropertyOp26
 70
     1
102
RTVSPropertyOp27
 70
     1
102
RTVSPropertyOp28
 70
     1
102
RTVSPropertyOp29
 70
     1
102
RTVSPropertyOp30
 70
     1
102
RTVSPropertyOp31
 70
     1
102
RTVSPropertyOp32
 70
     1
102
RTVSPropertyOp33
 70
     1
102
RTVSPropertyOp34
 70
     1
102
RTVSPropertyOp35
 70
     1
102
RTVSPropertyOp36
 70
     1
102
RTVSPropertyOp37
 70
     1
102
RTVSPropertyOp38
 70
     1
102
RTVSPropertyOp39
 70
     1
102
RTVSPropertyOp40
 70
     1
102
RTVSPropertyOp41
 70
     1
102
RTVSPropertyOp42
 70
     1
102
RTVSPropertyOp43
 70
     1
102
RTVSPropertyOp44
 70
     1
102
RTVSPropertyOp45
 70
     1
102
RTVSPropertyOp46
 70
     1
102
RTVSPropertyOp47
 70
     1
102
RTVSPropertyOp48
 70
     1
102
RTVSPropertyOp49
 70
     1
102
RTVSPropertyOp50
 70
     1
102
RTVSPropertyOp51
 70
     0
102
RTVSPropertyOp52
 70
     0
102
RTVSPropertyOp53
 70
     1
102
RTVSPropertyOp54
 70
     1
102
RTVSPropertyOp55
 70
     1
102
RTVSPropertyOp56
 70
     1
102
RTVSPropertyOp57
 70
     1
102
RTVSPost2010Prop28
280
     0
102
RTVSPost2010PropOp28
 70
     1
102
RTVSPost2010Prop29
280
     1
102
RTVSPost2010PropOp29
 70
     1
102
RTVSPost2010Prop30
280
     1
102
RTVSPost2010PropOp30
 70
     1
102
RTVSPost2010Prop31
280
     0
102
RTVSPost2010PropOp31
 70
     1
102
RTVSPost2010Prop32
280
     0
102
RTVSPost2010PropOp32
 70
     1
102
RTVSPost2010Prop33
280
     0
102
RTVSPost2010PropOp33
 70
     1
102
RTVSPost2010Prop34
280
     0
102
RTVSPost2010PropOp34
 70
     1
102
RTVSPost2010Prop35
280
     0
102
RTVSPost2010PropOp35
 70
     1
102
RTVSPost2010Prop36
280
     0
102
RTVSPost2010PropOp36
 70
     1
102
RTVSPost2010Prop37
 90
       50
102
RTVSPost2010PropOp37
 70
     1
102
RTVSPost2010Prop38
140
0.0
102
RTVSPost2010PropOp38
 70
     1
102
RTVSPost2010Prop39
140
1.0
102
RTVSPost2010PropOp39
 70
     1
102
RTVSPost2010Prop40
 90
        0
102
RTVSPost2010PropOp40
 70
     1
102
RTVSPost2010Prop41ColorIndex
 90
       18
102
RTVSPost2010Prop41ColorRGB
 90
        0
102
RTVSPost2010PropOp41
 70
     1
102
RTVSPost2010Prop42
 90
       50
102
RTVSPost2010PropOp42
 70
     1
102
RTVSPost2010Prop43
 90
        3
102
RTVSPost2010PropOp43
 70
     1
102
RTVSPost2010Prop44ColorIndex
 90
        5
102
RTVSPost2010Prop44ColorRGB
 90
      255
102
RTVSPost2010PropOp44
 70
     1
102
RTVSPost2010Prop45
280
     0
102
RTVSPost2010PropOp45
 70
     1
102
RTVSPost2010Prop46
 90
       50
102
RTVSPost2010PropOp46
 70
     1
102
RTVSPost2010Prop47
 90
       50
102
RTVSPost2010PropOp47
 70
     1
102
RTVSPost2010Prop48
 90
       50
102
RTVSPost2010PropOp48
 70
     1
102
RTVSPost2010Prop49
280
     0
102
RTVSPost2010PropOp49
 70
     1
102
RTVSPost2010Prop50
 90
       50
102
RTVSPost2010PropOp50
 70
     1
102
RTVSPost2010Prop51ColorIndex
 90
      256
102
RTVSPost2010Prop51ColorRGB
 90
-16777216
102
RTVSPost2010PropOp51
 70
     0
102
RTVSPost2010Prop52
140
1.0
102
RTVSPost2010PropOp52
 70
     0
102
RTVSPost2010Prop53
 90
        2
102
RTVSPost2010PropOp53
 70
     1
102
RTVSPost2010Prop54
  1
strokes_ogs.tif
102
RTVSPost2010PropOp54
 70
     1
102
RTVSPost2010Prop55
280
     0
102
RTVSPost2010PropOp55
 70
     1
102
RTVSPost2010Prop56
140
1.0
102
RTVSPost2010PropOp56
 70
     1
102
RTVSPost2010Prop57
140
1.0
102
RTVSPost2010PropOp57
 70
     1
  0
XRECORD
  5
38C
102
{ACAD_REACTORS
330
38B
102
}
330
38B
100
AcDbXrecord
280
     1
102
RTVSPropertyOp0
 70
     0
102
RTVSPropertyOp1
 70
     0
102
RTVSPropertyOp2
 70
     0
102
RTVSPropertyOp3
 70
     0
102
RTVSPropertyOp4
 70
     0
102
RTVSPropertyOp5
 70
     0
102
RTVSPropertyOp6
 70
     0
102
RTVSPropertyOp7
 70
     0
102
RTVSPropertyOp8
 70
     0
102
RTVSPropertyOp9
 70
     0
102
RTVSPropertyOp10
 70
     0
102
RTVSPropertyOp11
 70
     0
102
RTVSPropertyOp12
 70
     0
102
RTVSPropertyOp13
 70
     0
102
RTVSPropertyOp14
 70
     2
102
RTVSPropertyOp15
 70
     0
102
RTVSPropertyOp16
 70
     0
102
RTVSPropertyOp17
 70
     0
102
RTVSPropertyOp18
 70
     0
102
RTVSPropertyOp19
 70
     0
102
RTVSPropertyOp20
 70
     0
102
RTVSPropertyOp21
 70
     0
102
RTVSPropertyOp22
 70
     0
102
RTVSPropertyOp23
 70
     0
102
RTVSPropertyOp24
 70
     0
102
RTVSPropertyOp25
 70
     0
102
RTVSPropertyOp26
 70
     0
102
RTVSPropertyOp27
 70
     0
102
RTVSPropertyOp28
 70
     0
102
RTVSPropertyOp29
 70
     0
102
RTVSPropertyOp30
 70
     0
102
RTVSPropertyOp31
 70
     0
102
RTVSPropertyOp32
 70
     0
102
RTVSPropertyOp33
 70
     0
102
RTVSPropertyOp34
 70
     0
102
RTVSPropertyOp35
 70
     0
102
RTVSPropertyOp36
 70
     0
102
RTVSPropertyOp37
 70
     0
102
RTVSPropertyOp38
 70
     0
102
RTVSPropertyOp39
 70
     0
102
RTVSPropertyOp40
 70
     0
102
RTVSPropertyOp41
 70
     0
102
RTVSPropertyOp42
 70
     0
102
RTVSPropertyOp43
 70
     0
102
RTVSPropertyOp44
 70
     0
102
RTVSPropertyOp45
 70
     0
102
RTVSPropertyOp46
 70
     0
102
RTVSPropertyOp47
 70
     0
102
RTVSPropertyOp48
 70
     0
102
RTVSPropertyOp49
 70
     0
102
RTVSPropertyOp50
 70
     0
102
RTVSPropertyOp51
 70
     0
102
RTVSPropertyOp52
 70
     0
102
RTVSPropertyOp53
 70
     0
102
RTVSPropertyOp54
 70
     0
102
RTVSPropertyOp55
 70
     0
102
RTVSPropertyOp56
 70
     0
102
RTVSPropertyOp57
 70
     0
102
RTVSPost2010Prop28
280
     0
102
RTVSPost2010PropOp28
 70
     0
102
RTVSPost2010Prop29
280
     1
102
RTVSPost2010PropOp29
 70
     0
102
RTVSPost2010Prop30
280
     1
102
RTVSPost2010PropOp30
 70
     0
102
RTVSPost2010Prop31
280
     0
102
RTVSPost2010PropOp31
 70
     0
102
RTVSPost2010Prop32
280
     0
102
RTVSPost2010PropOp32
 70
     0
102
RTVSPost2010Prop33
280
     0
102
RTVSPost2010PropOp33
 70
     0
102
RTVSPost2010Prop34
280
     0
102
RTVSPost2010PropOp34
 70
     0
102
RTVSPost2010Prop35
280
     0
102
RTVSPost2010PropOp35
 70
     0
102
RTVSPost2010Prop36
280
     0
102
RTVSPost2010PropOp36
 70
     0
102
RTVSPost2010Prop37
 90
       50
102
RTVSPost2010PropOp37
 70
     0
102
RTVSPost2010Prop38
140
0.0
102
RTVSPost2010PropOp38
 70
     0
102
RTVSPost2010Prop39
140
1.0
102
RTVSPost2010PropOp39
 70
     0
102
RTVSPost2010Prop40
 90
        0
102
RTVSPost2010PropOp40
 70
     0
102
RTVSPost2010Prop41ColorIndex
 90
       18
102
RTVSPost2010Prop41ColorRGB
 90
        0
102
RTVSPost2010PropOp41
 70
     0
102
RTVSPost2010Prop42
 90
       50
102
RTVSPost2010PropOp42
 70
     0
102
RTVSPost2010Prop43
 90
        3
102
RTVSPost2010PropOp43
 70
     0
102
RTVSPost2010Prop44ColorIndex
 90
        5
102
RTVSPost2010Prop44ColorRGB
 90
      255
102
RTVSPost2010PropOp44
 70
     0
102
RTVSPost2010Prop45
280
     0
102
RTVSPost2010PropOp45
 70
     0
102
RTVSPost2010Prop46
 90
       50
102
RTVSPost2010PropOp46
 70
     0
102
RTVSPost2010Prop47
 90
       50
102
RTVSPost2010PropOp47
 70
     0
102
RTVSPost2010Prop48
 90
       50
102
RTVSPost2010PropOp48
 70
     0
102
RTVSPost2010Prop49
280
     0
102
RTVSPost2010PropOp49
 70
     0
102
RTVSPost2010Prop50
 90
       50
102
RTVSPost2010PropOp50
 70
     0
102
RTVSPost2010Prop51ColorIndex
 90
      256
102
RTVSPost2010Prop51ColorRGB
 90
-16777216
102
RTVSPost2010PropOp51
 70
     0
102
RTVSPost2010Prop52
140
1.0
102
RTVSPost2010PropOp52
 70
     0
102
RTVSPost2010Prop53
 90
        2
102
RTVSPost2010PropOp53
 70
     0
102
RTVSPost2010Prop54
  1
strokes_ogs.tif
102
RTVSPost2010PropOp54
 70
     0
102
RTVSPost2010Prop55
280
     0
102
RTVSPost2010PropOp55
 70
     0
102
RTVSPost2010Prop56
140
1.0
102
RTVSPost2010PropOp56
 70
     0
102
RTVSPost2010Prop57
140
1.0
102
RTVSPost2010PropOp57
 70
     0
  0
XRECORD
  5
386
102
{ACAD_REACTORS
330
385
102
}
330
385
100
AcDbXrecord
280
     1
102
RTVSPropertyOp0
 70
     1
102
RTVSPropertyOp1
 70
     1
102
RTVSPropertyOp2
 70
     1
102
RTVSPropertyOp3
 70
     1
102
RTVSPropertyOp4
 70
     1
102
RTVSPropertyOp5
 70
     1
102
RTVSPropertyOp6
 70
     1
102
RTVSPropertyOp7
 70
     1
102
RTVSPropertyOp8
 70
     1
102
RTVSPropertyOp9
 70
     1
102
RTVSPropertyOp10
 70
     1
102
RTVSPropertyOp11
 70
     1
102
RTVSPropertyOp12
 70
     1
102
RTVSPropertyOp13
 70
     1
102
RTVSPropertyOp14
 70
     1
102
RTVSPropertyOp15
 70
     1
102
RTVSPropertyOp16
 70
     1
102
RTVSPropertyOp17
 70
     1
102
RTVSPropertyOp18
 70
     1
102
RTVSPropertyOp19
 70
     1
102
RTVSPropertyOp20
 70
     1
102
RTVSPropertyOp21
 70
     1
102
RTVSPropertyOp22
 70
     1
102
RTVSPropertyOp23
 70
     1
102
RTVSPropertyOp24
 70
     1
102
RTVSPropertyOp25
 70
     1
102
RTVSPropertyOp26
 70
     1
102
RTVSPropertyOp27
 70
     1
102
RTVSPropertyOp28
 70
     1
102
RTVSPropertyOp29
 70
     1
102
RTVSPropertyOp30
 70
     1
102
RTVSPropertyOp31
 70
     1
102
RTVSPropertyOp32
 70
     1
102
RTVSPropertyOp33
 70
     1
102
RTVSPropertyOp34
 70
     1
102
RTVSPropertyOp35
 70
     1
102
RTVSPropertyOp36
 70
     1
102
RTVSPropertyOp37
 70
     1
102
RTVSPropertyOp38
 70
     1
102
RTVSPropertyOp39
 70
     1
102
RTVSPropertyOp40
 70
     1
102
RTVSPropertyOp41
 70
     1
102
RTVSPropertyOp42
 70
     1
102
RTVSPropertyOp43
 70
     1
102
RTVSPropertyOp44
 70
     1
102
RTVSPropertyOp45
 70
     1
102
RTVSPropertyOp46
 70
     1
102
RTVSPropertyOp47
 70
     1
102
RTVSPropertyOp48
 70
     1
102
RTVSPropertyOp49
 70
     1
102
RTVSPropertyOp50
 70
     1
102
RTVSPropertyOp51
 70
     0
102
RTVSPropertyOp52
 70
     0
102
RTVSPropertyOp53
 70
     1
102
RTVSPropertyOp54
 70
     1
102
RTVSPropertyOp55
 70
     1
102
RTVSPropertyOp56
 70
     1
102
RTVSPropertyOp57
 70
     1
102
RTVSPost2010Prop28
280
     0
102
RTVSPost2010PropOp28
 70
     1
102
RTVSPost2010Prop29
280
     1
102
RTVSPost2010PropOp29
 70
     1
102
RTVSPost2010Prop30
280
     1
102
RTVSPost2010PropOp30
 70
     1
102
RTVSPost2010Prop31
280
     0
102
RTVSPost2010PropOp31
 70
     1
102
RTVSPost2010Prop32
280
     0
102
RTVSPost2010PropOp32
 70
     1
102
RTVSPost2010Prop33
280
     0
102
RTVSPost2010PropOp33
 70
     1
102
RTVSPost2010Prop34
280
     0
102
RTVSPost2010PropOp34
 70
     1
102
RTVSPost2010Prop35
280
     0
102
RTVSPost2010PropOp35
 70
     1
102
RTVSPost2010Prop36
280
     0
102
RTVSPost2010PropOp36
 70
     1
102
RTVSPost2010Prop37
 90
       50
102
RTVSPost2010PropOp37
 70
     1
102
RTVSPost2010Prop38
140
0.0
102
RTVSPost2010PropOp38
 70
     1
102
RTVSPost2010Prop39
140
1.0
102
RTVSPost2010PropOp39
 70
     1
102
RTVSPost2010Prop40
 90
        0
102
RTVSPost2010PropOp40
 70
     1
102
RTVSPost2010Prop41ColorIndex
 90
       18
102
RTVSPost2010Prop41ColorRGB
 90
        0
102
RTVSPost2010PropOp41
 70
     1
102
RTVSPost2010Prop42
 90
       50
102
RTVSPost2010PropOp42
 70
     1
102
RTVSPost2010Prop43
 90
        3
102
RTVSPost2010PropOp43
 70
     1
102
RTVSPost2010Prop44ColorIndex
 90
        5
102
RTVSPost2010Prop44ColorRGB
 90
      255
102
RTVSPost2010PropOp44
 70
     1
102
RTVSPost2010Prop45
280
     0
102
RTVSPost2010PropOp45
 70
     1
102
RTVSPost2010Prop46
 90
       50
102
RTVSPost2010PropOp46
 70
     1
102
RTVSPost2010Prop47
 90
       50
102
RTVSPost2010PropOp47
 70
     1
102
RTVSPost2010Prop48
 90
       50
102
RTVSPost2010PropOp48
 70
     1
102
RTVSPost2010Prop49
280
     0
102
RTVSPost2010PropOp49
 70
     1
102
RTVSPost2010Prop50
 90
       50
102
RTVSPost2010PropOp50
 70
     1
102
RTVSPost2010Prop51ColorIndex
 90
      256
102
RTVSPost2010Prop51ColorRGB
 90
-16777216
102
RTVSPost2010PropOp51
 70
     0
102
RTVSPost2010Prop52
140
1.0
102
RTVSPost2010PropOp52
 70
     0
102
RTVSPost2010Prop53
 90
        2
102
RTVSPost2010PropOp53
 70
     1
102
RTVSPost2010Prop54
  1
strokes_ogs.tif
102
RTVSPost2010PropOp54
 70
     1
102
RTVSPost2010Prop55
280
     0
102
RTVSPost2010PropOp55
 70
     1
102
RTVSPost2010Prop56
140
1.0
102
RTVSPost2010PropOp56
 70
     1
102
RTVSPost2010Prop57
140
1.0
102
RTVSPost2010PropOp57
 70
     1
  0
XRECORD
  5
38E
102
{ACAD_REACTORS
330
38D
102
}
330
38D
100
AcDbXrecord
280
     1
102
RTVSPropertyOp0
 70
     0
102
RTVSPropertyOp1
 70
     0
102
RTVSPropertyOp2
 70
     0
102
RTVSPropertyOp3
 70
     0
102
RTVSPropertyOp4
 70
     0
102
RTVSPropertyOp5
 70
     0
102
RTVSPropertyOp6
 70
     0
102
RTVSPropertyOp7
 70
     0
102
RTVSPropertyOp8
 70
     0
102
RTVSPropertyOp9
 70
     0
102
RTVSPropertyOp10
 70
     0
102
RTVSPropertyOp11
 70
     0
102
RTVSPropertyOp12
 70
     0
102
RTVSPropertyOp13
 70
     0
102
RTVSPropertyOp14
 70
     2
102
RTVSPropertyOp15
 70
     0
102
RTVSPropertyOp16
 70
     0
102
RTVSPropertyOp17
 70
     0
102
RTVSPropertyOp18
 70
     0
102
RTVSPropertyOp19
 70
     0
102
RTVSPropertyOp20
 70
     0
102
RTVSPropertyOp21
 70
     0
102
RTVSPropertyOp22
 70
     0
102
RTVSPropertyOp23
 70
     0
102
RTVSPropertyOp24
 70
     0
102
RTVSPropertyOp25
 70
     0
102
RTVSPropertyOp26
 70
     0
102
RTVSPropertyOp27
 70
     0
102
RTVSPropertyOp28
 70
     0
102
RTVSPropertyOp29
 70
     0
102
RTVSPropertyOp30
 70
     0
102
RTVSPropertyOp31
 70
     0
102
RTVSPropertyOp32
 70
     0
102
RTVSPropertyOp33
 70
     0
102
RTVSPropertyOp34
 70
     0
102
RTVSPropertyOp35
 70
     0
102
RTVSPropertyOp36
 70
     0
102
RTVSPropertyOp37
 70
     0
102
RTVSPropertyOp38
 70
     0
102
RTVSPropertyOp39
 70
     0
102
RTVSPropertyOp40
 70
     0
102
RTVSPropertyOp41
 70
     0
102
RTVSPropertyOp42
 70
     0
102
RTVSPropertyOp43
 70
     0
102
RTVSPropertyOp44
 70
     0
102
RTVSPropertyOp45
 70
     0
102
RTVSPropertyOp46
 70
     0
102
RTVSPropertyOp47
 70
     0
102
RTVSPropertyOp48
 70
     0
102
RTVSPropertyOp49
 70
     0
102
RTVSPropertyOp50
 70
     0
102
RTVSPropertyOp51
 70
     0
102
RTVSPropertyOp52
 70
     0
102
RTVSPropertyOp53
 70
     0
102
RTVSPropertyOp54
 70
     0
102
RTVSPropertyOp55
 70
     0
102
RTVSPropertyOp56
 70
     0
102
RTVSPropertyOp57
 70
     0
102
RTVSPost2010Prop28
280
     0
102
RTVSPost2010PropOp28
 70
     0
102
RTVSPost2010Prop29
280
     1
102
RTVSPost2010PropOp29
 70
     0
102
RTVSPost2010Prop30
280
     1
102
RTVSPost2010PropOp30
 70
     0
102
RTVSPost2010Prop31
280
     0
102
RTVSPost2010PropOp31
 70
     0
102
RTVSPost2010Prop32
280
     0
102
RTVSPost2010PropOp32
 70
     0
102
RTVSPost2010Prop33
280
     0
102
RTVSPost2010PropOp33
 70
     0
102
RTVSPost2010Prop34
280
     0
102
RTVSPost2010PropOp34
 70
     0
102
RTVSPost2010Prop35
280
     0
102
RTVSPost2010PropOp35
 70
     0
102
RTVSPost2010Prop36
280
     0
102
RTVSPost2010PropOp36
 70
     0
102
RTVSPost2010Prop37
 90
       50
102
RTVSPost2010PropOp37
 70
     0
102
RTVSPost2010Prop38
140
0.0
102
RTVSPost2010PropOp38
 70
     0
102
RTVSPost2010Prop39
140
1.0
102
RTVSPost2010PropOp39
 70
     0
102
RTVSPost2010Prop40
 90
        0
102
RTVSPost2010PropOp40
 70
     0
102
RTVSPost2010Prop41ColorIndex
 90
       18
102
RTVSPost2010Prop41ColorRGB
 90
        0
102
RTVSPost2010PropOp41
 70
     0
102
RTVSPost2010Prop42
 90
       50
102
RTVSPost2010PropOp42
 70
     0
102
RTVSPost2010Prop43
 90
        3
102
RTVSPost2010PropOp43
 70
     0
102
RTVSPost2010Prop44ColorIndex
 90
        5
102
RTVSPost2010Prop44ColorRGB
 90
      255
102
RTVSPost2010PropOp44
 70
     0
102
RTVSPost2010Prop45
280
     0
102
RTVSPost2010PropOp45
 70
     0
102
RTVSPost2010Prop46
 90
       50
102
RTVSPost2010PropOp46
 70
     0
102
RTVSPost2010Prop47
 90
       50
102
RTVSPost2010PropOp47
 70
     0
102
RTVSPost2010Prop48
 90
       50
102
RTVSPost2010PropOp48
 70
     0
102
RTVSPost2010Prop49
280
     0
102
RTVSPost2010PropOp49
 70
     0
102
RTVSPost2010Prop50
 90
       50
102
RTVSPost2010PropOp50
 70
     0
102
RTVSPost2010Prop51ColorIndex
 90
      256
102
RTVSPost2010Prop51ColorRGB
 90
-16777216
102
RTVSPost2010PropOp51
 70
     0
102
RTVSPost2010Prop52
140
1.0
102
RTVSPost2010PropOp52
 70
     0
102
RTVSPost2010Prop53
 90
        2
102
RTVSPost2010PropOp53
 70
     0
102
RTVSPost2010Prop54
  1
strokes_ogs.tif
102
RTVSPost2010PropOp54
 70
     0
102
RTVSPost2010Prop55
280
     0
102
RTVSPost2010PropOp55
 70
     0
102
RTVSPost2010Prop56
140
1.0
102
RTVSPost2010PropOp56
 70
     0
102
RTVSPost2010Prop57
140
1.0
102
RTVSPost2010PropOp57
 70
     0
  0
XRECORD
  5
37C
102
{ACAD_REACTORS
330
37B
102
}
330
37B
100
AcDbXrecord
280
     1
102
RTVSPropertyOp0
 70
     1
102
RTVSPropertyOp1
 70
     1
102
RTVSPropertyOp2
 70
     1
102
RTVSPropertyOp3
 70
     1
102
RTVSPropertyOp4
 70
     1
102
RTVSPropertyOp5
 70
     1
102
RTVSPropertyOp6
 70
     1
102
RTVSPropertyOp7
 70
     1
102
RTVSPropertyOp8
 70
     1
102
RTVSPropertyOp9
 70
     1
102
RTVSPropertyOp10
 70
     1
102
RTVSPropertyOp11
 70
     1
102
RTVSPropertyOp12
 70
     1
102
RTVSPropertyOp13
 70
     1
102
RTVSPropertyOp14
 70
     1
102
RTVSPropertyOp15
 70
     1
102
RTVSPropertyOp16
 70
     1
102
RTVSPropertyOp17
 70
     1
102
RTVSPropertyOp18
 70
     1
102
RTVSPropertyOp19
 70
     1
102
RTVSPropertyOp20
 70
     1
102
RTVSPropertyOp21
 70
     1
102
RTVSPropertyOp22
 70
     1
102
RTVSPropertyOp23
 70
     1
102
RTVSPropertyOp24
 70
     1
102
RTVSPropertyOp25
 70
     1
102
RTVSPropertyOp26
 70
     1
102
RTVSPropertyOp27
 70
     1
102
RTVSPropertyOp28
 70
     1
102
RTVSPropertyOp29
 70
     1
102
RTVSPropertyOp30
 70
     1
102
RTVSPropertyOp31
 70
     1
102
RTVSPropertyOp32
 70
     1
102
RTVSPropertyOp33
 70
     1
102
RTVSPropertyOp34
 70
     1
102
RTVSPropertyOp35
 70
     1
102
RTVSPropertyOp36
 70
     1
102
RTVSPropertyOp37
 70
     1
102
RTVSPropertyOp38
 70
     1
102
RTVSPropertyOp39
 70
     1
102
RTVSPropertyOp40
 70
     1
102
RTVSPropertyOp41
 70
     1
102
RTVSPropertyOp42
 70
     1
102
RTVSPropertyOp43
 70
     1
102
RTVSPropertyOp44
 70
     1
102
RTVSPropertyOp45
 70
     1
102
RTVSPropertyOp46
 70
     1
102
RTVSPropertyOp47
 70
     1
102
RTVSPropertyOp48
 70
     1
102
RTVSPropertyOp49
 70
     1
102
RTVSPropertyOp50
 70
     1
102
RTVSPropertyOp51
 70
     0
102
RTVSPropertyOp52
 70
     0
102
RTVSPropertyOp53
 70
     1
102
RTVSPropertyOp54
 70
     1
102
RTVSPropertyOp55
 70
     1
102
RTVSPropertyOp56
 70
     1
102
RTVSPropertyOp57
 70
     1
102
RTVSPost2010Prop28
280
     0
102
RTVSPost2010PropOp28
 70
     1
102
RTVSPost2010Prop29
280
     1
102
RTVSPost2010PropOp29
 70
     1
102
RTVSPost2010Prop30
280
     1
102
RTVSPost2010PropOp30
 70
     1
102
RTVSPost2010Prop31
280
     0
102
RTVSPost2010PropOp31
 70
     1
102
RTVSPost2010Prop32
280
     0
102
RTVSPost2010PropOp32
 70
     1
102
RTVSPost2010Prop33
280
     0
102
RTVSPost2010PropOp33
 70
     1
102
RTVSPost2010Prop34
280
     0
102
RTVSPost2010PropOp34
 70
     1
102
RTVSPost2010Prop35
280
     0
102
RTVSPost2010PropOp35
 70
     1
102
RTVSPost2010Prop36
280
     0
102
RTVSPost2010PropOp36
 70
     1
102
RTVSPost2010Prop37
 90
       50
102
RTVSPost2010PropOp37
 70
     1
102
RTVSPost2010Prop38
140
0.0
102
RTVSPost2010PropOp38
 70
     1
102
RTVSPost2010Prop39
140
1.0
102
RTVSPost2010PropOp39
 70
     1
102
RTVSPost2010Prop40
 90
        0
102
RTVSPost2010PropOp40
 70
     1
102
RTVSPost2010Prop41ColorIndex
 90
       18
102
RTVSPost2010Prop41ColorRGB
 90
        0
102
RTVSPost2010PropOp41
 70
     1
102
RTVSPost2010Prop42
 90
       50
102
RTVSPost2010PropOp42
 70
     1
102
RTVSPost2010Prop43
 90
        3
102
RTVSPost2010PropOp43
 70
     1
102
RTVSPost2010Prop44ColorIndex
 90
        5
102
RTVSPost2010Prop44ColorRGB
 90
      255
102
RTVSPost2010PropOp44
 70
     1
102
RTVSPost2010Prop45
280
     0
102
RTVSPost2010PropOp45
 70
     1
102
RTVSPost2010Prop46
 90
       50
102
RTVSPost2010PropOp46
 70
     1
102
RTVSPost2010Prop47
 90
       50
102
RTVSPost2010PropOp47
 70
     1
102
RTVSPost2010Prop48
 90
       50
102
RTVSPost2010PropOp48
 70
     1
102
RTVSPost2010Prop49
280
     0
102
RTVSPost2010PropOp49
 70
     1
102
RTVSPost2010Prop50
 90
       50
102
RTVSPost2010PropOp50
 70
     1
102
RTVSPost2010Prop51ColorIndex
 90
      256
102
RTVSPost2010Prop51ColorRGB
 90
-16777216
102
RTVSPost2010PropOp51
 70
     0
102
RTVSPost2010Prop52
140
1.0
102
RTVSPost2010PropOp52
 70
     0
102
RTVSPost2010Prop53
 90
        2
102
RTVSPost2010PropOp53
 70
     1
102
RTVSPost2010Prop54
  1
strokes_ogs.tif
102
RTVSPost2010PropOp54
 70
     1
102
RTVSPost2010Prop55
280
     0
102
RTVSPost2010PropOp55
 70
     1
102
RTVSPost2010Prop56
140
1.0
102
RTVSPost2010PropOp56
 70
     1
102
RTVSPost2010Prop57
140
1.0
102
RTVSPost2010PropOp57
 70
     1
  0
XRECORD
  5
39A
102
{ACAD_REACTORS
330
399
102
}
330
399
100
AcDbXrecord
280
     1
102
RTVSPropertyOp0
 70
     1
102
RTVSPropertyOp1
 70
     1
102
RTVSPropertyOp2
 70
     1
102
RTVSPropertyOp3
 70
     1
102
RTVSPropertyOp4
 70
     1
102
RTVSPropertyOp5
 70
     1
102
RTVSPropertyOp6
 70
     1
102
RTVSPropertyOp7
 70
     1
102
RTVSPropertyOp8
 70
     1
102
RTVSPropertyOp9
 70
     1
102
RTVSPropertyOp10
 70
     1
102
RTVSPropertyOp11
 70
     1
102
RTVSPropertyOp12
 70
     1
102
RTVSPropertyOp13
 70
     1
102
RTVSPropertyOp14
 70
     1
102
RTVSPropertyOp15
 70
     1
102
RTVSPropertyOp16
 70
     1
102
RTVSPropertyOp17
 70
     1
102
RTVSPropertyOp18
 70
     1
102
RTVSPropertyOp19
 70
     1
102
RTVSPropertyOp20
 70
     1
102
RTVSPropertyOp21
 70
     1
102
RTVSPropertyOp22
 70
     1
102
RTVSPropertyOp23
 70
     1
102
RTVSPropertyOp24
 70
     1
102
RTVSPropertyOp25
 70
     1
102
RTVSPropertyOp26
 70
     1
102
RTVSPropertyOp27
 70
     1
102
RTVSPropertyOp28
 70
     1
102
RTVSPropertyOp29
 70
     1
102
RTVSPropertyOp30
 70
     1
102
RTVSPropertyOp31
 70
     1
102
RTVSPropertyOp32
 70
     1
102
RTVSPropertyOp33
 70
     1
102
RTVSPropertyOp34
 70
     1
102
RTVSPropertyOp35
 70
     1
102
RTVSPropertyOp36
 70
     1
102
RTVSPropertyOp37
 70
     1
102
RTVSPropertyOp38
 70
     1
102
RTVSPropertyOp39
 70
     1
102
RTVSPropertyOp40
 70
     1
102
RTVSPropertyOp41
 70
     1
102
RTVSPropertyOp42
 70
     1
102
RTVSPropertyOp43
 70
     1
102
RTVSPropertyOp44
 70
     1
102
RTVSPropertyOp45
 70
     1
102
RTVSPropertyOp46
 70
     1
102
RTVSPropertyOp47
 70
     1
102
RTVSPropertyOp48
 70
     1
102
RTVSPropertyOp49
 70
     1
102
RTVSPropertyOp50
 70
     1
102
RTVSPropertyOp51
 70
     0
102
RTVSPropertyOp52
 70
     0
102
RTVSPropertyOp53
 70
     1
102
RTVSPropertyOp54
 70
     1
102
RTVSPropertyOp55
 70
     1
102
RTVSPropertyOp56
 70
     1
102
RTVSPropertyOp57
 70
     1
102
RTVSPost2010Prop28
280
     0
102
RTVSPost2010PropOp28
 70
     1
102
RTVSPost2010Prop29
280
     1
102
RTVSPost2010PropOp29
 70
     1
102
RTVSPost2010Prop30
280
     1
102
RTVSPost2010PropOp30
 70
     1
102
RTVSPost2010Prop31
280
     0
102
RTVSPost2010PropOp31
 70
     1
102
RTVSPost2010Prop32
280
     0
102
RTVSPost2010PropOp32
 70
     1
102
RTVSPost2010Prop33
280
     0
102
RTVSPost2010PropOp33
 70
     1
102
RTVSPost2010Prop34
280
     0
102
RTVSPost2010PropOp34
 70
     1
102
RTVSPost2010Prop35
280
     0
102
RTVSPost2010PropOp35
 70
     1
102
RTVSPost2010Prop36
280
     0
102
RTVSPost2010PropOp36
 70
     1
102
RTVSPost2010Prop37
 90
       50
102
RTVSPost2010PropOp37
 70
     1
102
RTVSPost2010Prop38
140
0.0
102
RTVSPost2010PropOp38
 70
     1
102
RTVSPost2010Prop39
140
1.0
102
RTVSPost2010PropOp39
 70
     1
102
RTVSPost2010Prop40
 90
        0
102
RTVSPost2010PropOp40
 70
     1
102
RTVSPost2010Prop41ColorIndex
 90
       18
102
RTVSPost2010Prop41ColorRGB
 90
        0
102
RTVSPost2010PropOp41
 70
     1
102
RTVSPost2010Prop42
 90
       50
102
RTVSPost2010PropOp42
 70
     1
102
RTVSPost2010Prop43
 90
        3
102
RTVSPost2010PropOp43
 70
     1
102
RTVSPost2010Prop44ColorIndex
 90
        5
102
RTVSPost2010Prop44ColorRGB
 90
      255
102
RTVSPost2010PropOp44
 70
     1
102
RTVSPost2010Prop45
280
     0
102
RTVSPost2010PropOp45
 70
     1
102
RTVSPost2010Prop46
 90
       50
102
RTVSPost2010PropOp46
 70
     1
102
RTVSPost2010Prop47
 90
       50
102
RTVSPost2010PropOp47
 70
     1
102
RTVSPost2010Prop48
 90
       50
102
RTVSPost2010PropOp48
 70
     1
102
RTVSPost2010Prop49
280
     0
102
RTVSPost2010PropOp49
 70
     1
102
RTVSPost2010Prop50
 90
       50
102
RTVSPost2010PropOp50
 70
     1
102
RTVSPost2010Prop51ColorIndex
 90
      256
102
RTVSPost2010Prop51ColorRGB
 90
-16777216
102
RTVSPost2010PropOp51
 70
     0
102
RTVSPost2010Prop52
140
1.0
102
RTVSPost2010PropOp52
 70
     0
102
RTVSPost2010Prop53
 90
        2
102
RTVSPost2010PropOp53
 70
     1
102
RTVSPost2010Prop54
  1
strokes_ogs.tif
102
RTVSPost2010PropOp54
 70
     1
102
RTVSPost2010Prop55
280
     0
102
RTVSPost2010PropOp55
 70
     1
102
RTVSPost2010Prop56
140
1.0
102
RTVSPost2010PropOp56
 70
     1
102
RTVSPost2010Prop57
140
1.0
102
RTVSPost2010PropOp57
 70
     1
  0
XRECORD
  5
398
102
{ACAD_REACTORS
330
397
102
}
330
397
100
AcDbXrecord
280
     1
102
RTVSPropertyOp0
 70
     1
102
RTVSPropertyOp1
 70
     1
102
RTVSPropertyOp2
 70
     1
102
RTVSPropertyOp3
 70
     1
102
RTVSPropertyOp4
 70
     1
102
RTVSPropertyOp5
 70
     1
102
RTVSPropertyOp6
 70
     1
102
RTVSPropertyOp7
 70
     1
102
RTVSPropertyOp8
 70
     1
102
RTVSPropertyOp9
 70
     1
102
RTVSPropertyOp10
 70
     1
102
RTVSPropertyOp11
 70
     1
102
RTVSPropertyOp12
 70
     1
102
RTVSPropertyOp13
 70
     1
102
RTVSPropertyOp14
 70
     1
102
RTVSPropertyOp15
 70
     1
102
RTVSPropertyOp16
 70
     1
102
RTVSPropertyOp17
 70
     1
102
RTVSPropertyOp18
 70
     1
102
RTVSPropertyOp19
 70
     1
102
RTVSPropertyOp20
 70
     1
102
RTVSPropertyOp21
 70
     1
102
RTVSPropertyOp22
 70
     1
102
RTVSPropertyOp23
 70
     1
102
RTVSPropertyOp24
 70
     1
102
RTVSPropertyOp25
 70
     1
102
RTVSPropertyOp26
 70
     1
102
RTVSPropertyOp27
 70
     1
102
RTVSPropertyOp28
 70
     1
102
RTVSPropertyOp29
 70
     1
102
RTVSPropertyOp30
 70
     1
102
RTVSPropertyOp31
 70
     1
102
RTVSPropertyOp32
 70
     1
102
RTVSPropertyOp33
 70
     1
102
RTVSPropertyOp34
 70
     1
102
RTVSPropertyOp35
 70
     1
102
RTVSPropertyOp36
 70
     1
102
RTVSPropertyOp37
 70
     1
102
RTVSPropertyOp38
 70
     1
102
RTVSPropertyOp39
 70
     1
102
RTVSPropertyOp40
 70
     1
102
RTVSPropertyOp41
 70
     1
102
RTVSPropertyOp42
 70
     1
102
RTVSPropertyOp43
 70
     1
102
RTVSPropertyOp44
 70
     1
102
RTVSPropertyOp45
 70
     1
102
RTVSPropertyOp46
 70
     1
102
RTVSPropertyOp47
 70
     1
102
RTVSPropertyOp48
 70
     1
102
RTVSPropertyOp49
 70
     1
102
RTVSPropertyOp50
 70
     1
102
RTVSPropertyOp51
 70
     0
102
RTVSPropertyOp52
 70
     0
102
RTVSPropertyOp53
 70
     1
102
RTVSPropertyOp54
 70
     1
102
RTVSPropertyOp55
 70
     1
102
RTVSPropertyOp56
 70
     1
102
RTVSPropertyOp57
 70
     1
102
RTVSPost2010Prop28
280
     0
102
RTVSPost2010PropOp28
 70
     1
102
RTVSPost2010Prop29
280
     1
102
RTVSPost2010PropOp29
 70
     1
102
RTVSPost2010Prop30
280
     1
102
RTVSPost2010PropOp30
 70
     1
102
RTVSPost2010Prop31
280
     0
102
RTVSPost2010PropOp31
 70
     1
102
RTVSPost2010Prop32
280
     0
102
RTVSPost2010PropOp32
 70
     1
102
RTVSPost2010Prop33
280
     0
102
RTVSPost2010PropOp33
 70
     1
102
RTVSPost2010Prop34
280
     0
102
RTVSPost2010PropOp34
 70
     1
102
RTVSPost2010Prop35
280
     0
102
RTVSPost2010PropOp35
 70
     1
102
RTVSPost2010Prop36
280
     0
102
RTVSPost2010PropOp36
 70
     1
102
RTVSPost2010Prop37
 90
       50
102
RTVSPost2010PropOp37
 70
     1
102
RTVSPost2010Prop38
140
0.0
102
RTVSPost2010PropOp38
 70
     1
102
RTVSPost2010Prop39
140
1.0
102
RTVSPost2010PropOp39
 70
     1
102
RTVSPost2010Prop40
 90
        0
102
RTVSPost2010PropOp40
 70
     1
102
RTVSPost2010Prop41ColorIndex
 90
       18
102
RTVSPost2010Prop41ColorRGB
 90
        0
102
RTVSPost2010PropOp41
 70
     1
102
RTVSPost2010Prop42
 90
       50
102
RTVSPost2010PropOp42
 70
     1
102
RTVSPost2010Prop43
 90
        3
102
RTVSPost2010PropOp43
 70
     1
102
RTVSPost2010Prop44ColorIndex
 90
        5
102
RTVSPost2010Prop44ColorRGB
 90
      255
102
RTVSPost2010PropOp44
 70
     1
102
RTVSPost2010Prop45
280
     0
102
RTVSPost2010PropOp45
 70
     1
102
RTVSPost2010Prop46
 90
       50
102
RTVSPost2010PropOp46
 70
     1
102
RTVSPost2010Prop47
 90
       50
102
RTVSPost2010PropOp47
 70
     1
102
RTVSPost2010Prop48
 90
       50
102
RTVSPost2010PropOp48
 70
     1
102
RTVSPost2010Prop49
280
     0
102
RTVSPost2010PropOp49
 70
     1
102
RTVSPost2010Prop50
 90
       50
102
RTVSPost2010PropOp50
 70
     1
102
RTVSPost2010Prop51ColorIndex
 90
      256
102
RTVSPost2010Prop51ColorRGB
 90
-16777216
102
RTVSPost2010PropOp51
 70
     0
102
RTVSPost2010Prop52
140
1.0
102
RTVSPost2010PropOp52
 70
     0
102
RTVSPost2010Prop53
 90
        2
102
RTVSPost2010PropOp53
 70
     1
102
RTVSPost2010Prop54
  1
strokes_ogs.tif
102
RTVSPost2010PropOp54
 70
     1
102
RTVSPost2010Prop55
280
     0
102
RTVSPost2010PropOp55
 70
     1
102
RTVSPost2010Prop56
140
1.0
102
RTVSPost2010PropOp56
 70
     1
102
RTVSPost2010Prop57
140
1.0
102
RTVSPost2010PropOp57
 70
     1
  0
XRECORD
  5
392
102
{ACAD_REACTORS
330
391
102
}
330
391
100
AcDbXrecord
280
     1
102
RTVSPropertyOp0
 70
     1
102
RTVSPropertyOp1
 70
     1
102
RTVSPropertyOp2
 70
     1
102
RTVSPropertyOp3
 70
     1
102
RTVSPropertyOp4
 70
     1
102
RTVSPropertyOp5
 70
     1
102
RTVSPropertyOp6
 70
     1
102
RTVSPropertyOp7
 70
     1
102
RTVSPropertyOp8
 70
     1
102
RTVSPropertyOp9
 70
     1
102
RTVSPropertyOp10
 70
     1
102
RTVSPropertyOp11
 70
     1
102
RTVSPropertyOp12
 70
     1
102
RTVSPropertyOp13
 70
     1
102
RTVSPropertyOp14
 70
     1
102
RTVSPropertyOp15
 70
     1
102
RTVSPropertyOp16
 70
     1
102
RTVSPropertyOp17
 70
     1
102
RTVSPropertyOp18
 70
     1
102
RTVSPropertyOp19
 70
     1
102
RTVSPropertyOp20
 70
     1
102
RTVSPropertyOp21
 70
     1
102
RTVSPropertyOp22
 70
     1
102
RTVSPropertyOp23
 70
     1
102
RTVSPropertyOp24
 70
     1
102
RTVSPropertyOp25
 70
     1
102
RTVSPropertyOp26
 70
     1
102
RTVSPropertyOp27
 70
     1
102
RTVSPropertyOp28
 70
     1
102
RTVSPropertyOp29
 70
     1
102
RTVSPropertyOp30
 70
     1
102
RTVSPropertyOp31
 70
     1
102
RTVSPropertyOp32
 70
     1
102
RTVSPropertyOp33
 70
     1
102
RTVSPropertyOp34
 70
     1
102
RTVSPropertyOp35
 70
     1
102
RTVSPropertyOp36
 70
     1
102
RTVSPropertyOp37
 70
     1
102
RTVSPropertyOp38
 70
     1
102
RTVSPropertyOp39
 70
     1
102
RTVSPropertyOp40
 70
     1
102
RTVSPropertyOp41
 70
     1
102
RTVSPropertyOp42
 70
     1
102
RTVSPropertyOp43
 70
     1
102
RTVSPropertyOp44
 70
     1
102
RTVSPropertyOp45
 70
     1
102
RTVSPropertyOp46
 70
     1
102
RTVSPropertyOp47
 70
     1
102
RTVSPropertyOp48
 70
     1
102
RTVSPropertyOp49
 70
     1
102
RTVSPropertyOp50
 70
     1
102
RTVSPropertyOp51
 70
     0
102
RTVSPropertyOp52
 70
     0
102
RTVSPropertyOp53
 70
     1
102
RTVSPropertyOp54
 70
     1
102
RTVSPropertyOp55
 70
     1
102
RTVSPropertyOp56
 70
     1
102
RTVSPropertyOp57
 70
     1
102
RTVSPost2010Prop28
280
     0
102
RTVSPost2010PropOp28
 70
     1
102
RTVSPost2010Prop29
280
     1
102
RTVSPost2010PropOp29
 70
     1
102
RTVSPost2010Prop30
280
     1
102
RTVSPost2010PropOp30
 70
     1
102
RTVSPost2010Prop31
280
     0
102
RTVSPost2010PropOp31
 70
     1
102
RTVSPost2010Prop32
280
     0
102
RTVSPost2010PropOp32
 70
     1
102
RTVSPost2010Prop33
280
     0
102
RTVSPost2010PropOp33
 70
     1
102
RTVSPost2010Prop34
280
     0
102
RTVSPost2010PropOp34
 70
     1
102
RTVSPost2010Prop35
280
     0
102
RTVSPost2010PropOp35
 70
     1
102
RTVSPost2010Prop36
280
     0
102
RTVSPost2010PropOp36
 70
     1
102
RTVSPost2010Prop37
 90
       50
102
RTVSPost2010PropOp37
 70
     1
102
RTVSPost2010Prop38
140
0.0
102
RTVSPost2010PropOp38
 70
     1
102
RTVSPost2010Prop39
140
1.0
102
RTVSPost2010PropOp39
 70
     1
102
RTVSPost2010Prop40
 90
        0
102
RTVSPost2010PropOp40
 70
     1
102
RTVSPost2010Prop41ColorIndex
 90
       18
102
RTVSPost2010Prop41ColorRGB
 90
        0
102
RTVSPost2010PropOp41
 70
     1
102
RTVSPost2010Prop42
 90
       50
102
RTVSPost2010PropOp42
 70
     1
102
RTVSPost2010Prop43
 90
        3
102
RTVSPost2010PropOp43
 70
     1
102
RTVSPost2010Prop44ColorIndex
 90
        5
102
RTVSPost2010Prop44ColorRGB
 90
      255
102
RTVSPost2010PropOp44
 70
     1
102
RTVSPost2010Prop45
280
     0
102
RTVSPost2010PropOp45
 70
     1
102
RTVSPost2010Prop46
 90
       50
102
RTVSPost2010PropOp46
 70
     1
102
RTVSPost2010Prop47
 90
       50
102
RTVSPost2010PropOp47
 70
     1
102
RTVSPost2010Prop48
 90
       50
102
RTVSPost2010PropOp48
 70
     1
102
RTVSPost2010Prop49
280
     0
102
RTVSPost2010PropOp49
 70
     1
102
RTVSPost2010Prop50
 90
       50
102
RTVSPost2010PropOp50
 70
     1
102
RTVSPost2010Prop51ColorIndex
 90
      256
102
RTVSPost2010Prop51ColorRGB
 90
-16777216
102
RTVSPost2010PropOp51
 70
     0
102
RTVSPost2010Prop52
140
1.0
102
RTVSPost2010PropOp52
 70
     0
102
RTVSPost2010Prop53
 90
        2
102
RTVSPost2010PropOp53
 70
     1
102
RTVSPost2010Prop54
  1
strokes_ogs.tif
102
RTVSPost2010PropOp54
 70
     1
102
RTVSPost2010Prop55
280
     0
102
RTVSPost2010PropOp55
 70
     1
102
RTVSPost2010Prop56
140
1.0
102
RTVSPost2010PropOp56
 70
     1
102
RTVSPost2010Prop57
140
1.0
102
RTVSPost2010PropOp57
 70
     1
  0
XRECORD
  5
394
102
{ACAD_REACTORS
330
393
102
}
330
393
100
AcDbXrecord
280
     1
102
RTVSPropertyOp0
 70
     1
102
RTVSPropertyOp1
 70
     1
102
RTVSPropertyOp2
 70
     1
102
RTVSPropertyOp3
 70
     1
102
RTVSPropertyOp4
 70
     1
102
RTVSPropertyOp5
 70
     1
102
RTVSPropertyOp6
 70
     1
102
RTVSPropertyOp7
 70
     1
102
RTVSPropertyOp8
 70
     1
102
RTVSPropertyOp9
 70
     1
102
RTVSPropertyOp10
 70
     1
102
RTVSPropertyOp11
 70
     1
102
RTVSPropertyOp12
 70
     1
102
RTVSPropertyOp13
 70
     1
102
RTVSPropertyOp14
 70
     1
102
RTVSPropertyOp15
 70
     1
102
RTVSPropertyOp16
 70
     1
102
RTVSPropertyOp17
 70
     1
102
RTVSPropertyOp18
 70
     1
102
RTVSPropertyOp19
 70
     1
102
RTVSPropertyOp20
 70
     1
102
RTVSPropertyOp21
 70
     1
102
RTVSPropertyOp22
 70
     1
102
RTVSPropertyOp23
 70
     1
102
RTVSPropertyOp24
 70
     1
102
RTVSPropertyOp25
 70
     1
102
RTVSPropertyOp26
 70
     1
102
RTVSPropertyOp27
 70
     1
102
RTVSPropertyOp28
 70
     1
102
RTVSPropertyOp29
 70
     1
102
RTVSPropertyOp30
 70
     1
102
RTVSPropertyOp31
 70
     1
102
RTVSPropertyOp32
 70
     1
102
RTVSPropertyOp33
 70
     1
102
RTVSPropertyOp34
 70
     1
102
RTVSPropertyOp35
 70
     1
102
RTVSPropertyOp36
 70
     1
102
RTVSPropertyOp37
 70
     1
102
RTVSPropertyOp38
 70
     1
102
RTVSPropertyOp39
 70
     1
102
RTVSPropertyOp40
 70
     1
102
RTVSPropertyOp41
 70
     1
102
RTVSPropertyOp42
 70
     1
102
RTVSPropertyOp43
 70
     1
102
RTVSPropertyOp44
 70
     1
102
RTVSPropertyOp45
 70
     1
102
RTVSPropertyOp46
 70
     1
102
RTVSPropertyOp47
 70
     1
102
RTVSPropertyOp48
 70
     1
102
RTVSPropertyOp49
 70
     1
102
RTVSPropertyOp50
 70
     1
102
RTVSPropertyOp51
 70
     0
102
RTVSPropertyOp52
 70
     0
102
RTVSPropertyOp53
 70
     1
102
RTVSPropertyOp54
 70
     1
102
RTVSPropertyOp55
 70
     1
102
RTVSPropertyOp56
 70
     1
102
RTVSPropertyOp57
 70
     1
102
RTVSPost2010Prop28
280
     0
102
RTVSPost2010PropOp28
 70
     1
102
RTVSPost2010Prop29
280
     1
102
RTVSPost2010PropOp29
 70
     1
102
RTVSPost2010Prop30
280
     1
102
RTVSPost2010PropOp30
 70
     1
102
RTVSPost2010Prop31
280
     0
102
RTVSPost2010PropOp31
 70
     1
102
RTVSPost2010Prop32
280
     0
102
RTVSPost2010PropOp32
 70
     1
102
RTVSPost2010Prop33
280
     0
102
RTVSPost2010PropOp33
 70
     1
102
RTVSPost2010Prop34
280
     0
102
RTVSPost2010PropOp34
 70
     1
102
RTVSPost2010Prop35
280
     0
102
RTVSPost2010PropOp35
 70
     1
102
RTVSPost2010Prop36
280
     0
102
RTVSPost2010PropOp36
 70
     1
102
RTVSPost2010Prop37
 90
       50
102
RTVSPost2010PropOp37
 70
     1
102
RTVSPost2010Prop38
140
0.0
102
RTVSPost2010PropOp38
 70
     1
102
RTVSPost2010Prop39
140
1.0
102
RTVSPost2010PropOp39
 70
     1
102
RTVSPost2010Prop40
 90
        0
102
RTVSPost2010PropOp40
 70
     1
102
RTVSPost2010Prop41ColorIndex
 90
       18
102
RTVSPost2010Prop41ColorRGB
 90
        0
102
RTVSPost2010PropOp41
 70
     1
102
RTVSPost2010Prop42
 90
       50
102
RTVSPost2010PropOp42
 70
     1
102
RTVSPost2010Prop43
 90
        3
102
RTVSPost2010PropOp43
 70
     1
102
RTVSPost2010Prop44ColorIndex
 90
        5
102
RTVSPost2010Prop44ColorRGB
 90
      255
102
RTVSPost2010PropOp44
 70
     1
102
RTVSPost2010Prop45
280
     0
102
RTVSPost2010PropOp45
 70
     1
102
RTVSPost2010Prop46
 90
       50
102
RTVSPost2010PropOp46
 70
     1
102
RTVSPost2010Prop47
 90
       50
102
RTVSPost2010PropOp47
 70
     1
102
RTVSPost2010Prop48
 90
       50
102
RTVSPost2010PropOp48
 70
     1
102
RTVSPost2010Prop49
280
     0
102
RTVSPost2010PropOp49
 70
     1
102
RTVSPost2010Prop50
 90
       50
102
RTVSPost2010PropOp50
 70
     1
102
RTVSPost2010Prop51ColorIndex
 90
      256
102
RTVSPost2010Prop51ColorRGB
 90
-16777216
102
RTVSPost2010PropOp51
 70
     0
102
RTVSPost2010Prop52
140
1.0
102
RTVSPost2010PropOp52
 70
     0
102
RTVSPost2010Prop53
 90
        2
102
RTVSPost2010PropOp53
 70
     1
102
RTVSPost2010Prop54
  1
strokes_ogs.tif
102
RTVSPost2010PropOp54
 70
     1
102
RTVSPost2010Prop55
280
     0
102
RTVSPost2010PropOp55
 70
     1
102
RTVSPost2010Prop56
140
1.0
102
RTVSPost2010PropOp56
 70
     1
102
RTVSPost2010Prop57
140
1.0
102
RTVSPost2010PropOp57
 70
     1
  0
XRECORD
  5
384
102
{ACAD_REACTORS
330
383
102
}
330
383
100
AcDbXrecord
280
     1
102
RTVSPropertyOp0
 70
     1
102
RTVSPropertyOp1
 70
     1
102
RTVSPropertyOp2
 70
     1
102
RTVSPropertyOp3
 70
     1
102
RTVSPropertyOp4
 70
     1
102
RTVSPropertyOp5
 70
     1
102
RTVSPropertyOp6
 70
     1
102
RTVSPropertyOp7
 70
     1
102
RTVSPropertyOp8
 70
     1
102
RTVSPropertyOp9
 70
     1
102
RTVSPropertyOp10
 70
     1
102
RTVSPropertyOp11
 70
     1
102
RTVSPropertyOp12
 70
     1
102
RTVSPropertyOp13
 70
     1
102
RTVSPropertyOp14
 70
     1
102
RTVSPropertyOp15
 70
     1
102
RTVSPropertyOp16
 70
     1
102
RTVSPropertyOp17
 70
     1
102
RTVSPropertyOp18
 70
     1
102
RTVSPropertyOp19
 70
     1
102
RTVSPropertyOp20
 70
     1
102
RTVSPropertyOp21
 70
     1
102
RTVSPropertyOp22
 70
     1
102
RTVSPropertyOp23
 70
     1
102
RTVSPropertyOp24
 70
     1
102
RTVSPropertyOp25
 70
     1
102
RTVSPropertyOp26
 70
     1
102
RTVSPropertyOp27
 70
     1
102
RTVSPropertyOp28
 70
     1
102
RTVSPropertyOp29
 70
     1
102
RTVSPropertyOp30
 70
     1
102
RTVSPropertyOp31
 70
     1
102
RTVSPropertyOp32
 70
     1
102
RTVSPropertyOp33
 70
     1
102
RTVSPropertyOp34
 70
     1
102
RTVSPropertyOp35
 70
     1
102
RTVSPropertyOp36
 70
     1
102
RTVSPropertyOp37
 70
     1
102
RTVSPropertyOp38
 70
     1
102
RTVSPropertyOp39
 70
     1
102
RTVSPropertyOp40
 70
     1
102
RTVSPropertyOp41
 70
     1
102
RTVSPropertyOp42
 70
     1
102
RTVSPropertyOp43
 70
     1
102
RTVSPropertyOp44
 70
     1
102
RTVSPropertyOp45
 70
     1
102
RTVSPropertyOp46
 70
     1
102
RTVSPropertyOp47
 70
     1
102
RTVSPropertyOp48
 70
     1
102
RTVSPropertyOp49
 70
     1
102
RTVSPropertyOp50
 70
     1
102
RTVSPropertyOp51
 70
     0
102
RTVSPropertyOp52
 70
     0
102
RTVSPropertyOp53
 70
     1
102
RTVSPropertyOp54
 70
     1
102
RTVSPropertyOp55
 70
     1
102
RTVSPropertyOp56
 70
     1
102
RTVSPropertyOp57
 70
     1
102
RTVSPost2010Prop28
280
     0
102
RTVSPost2010PropOp28
 70
     1
102
RTVSPost2010Prop29
280
     1
102
RTVSPost2010PropOp29
 70
     1
102
RTVSPost2010Prop30
280
     1
102
RTVSPost2010PropOp30
 70
     1
102
RTVSPost2010Prop31
280
     0
102
RTVSPost2010PropOp31
 70
     1
102
RTVSPost2010Prop32
280
     0
102
RTVSPost2010PropOp32
 70
     1
102
RTVSPost2010Prop33
280
     0
102
RTVSPost2010PropOp33
 70
     1
102
RTVSPost2010Prop34
280
     0
102
RTVSPost2010PropOp34
 70
     1
102
RTVSPost2010Prop35
280
     0
102
RTVSPost2010PropOp35
 70
     1
102
RTVSPost2010Prop36
280
     0
102
RTVSPost2010PropOp36
 70
     1
102
RTVSPost2010Prop37
 90
       50
102
RTVSPost2010PropOp37
 70
     1
102
RTVSPost2010Prop38
140
0.0
102
RTVSPost2010PropOp38
 70
     1
102
RTVSPost2010Prop39
140
1.0
102
RTVSPost2010PropOp39
 70
     1
102
RTVSPost2010Prop40
 90
        0
102
RTVSPost2010PropOp40
 70
     1
102
RTVSPost2010Prop41ColorIndex
 90
       18
102
RTVSPost2010Prop41ColorRGB
 90
        0
102
RTVSPost2010PropOp41
 70
     1
102
RTVSPost2010Prop42
 90
       50
102
RTVSPost2010PropOp42
 70
     1
102
RTVSPost2010Prop43
 90
        3
102
RTVSPost2010PropOp43
 70
     1
102
RTVSPost2010Prop44ColorIndex
 90
        5
102
RTVSPost2010Prop44ColorRGB
 90
      255
102
RTVSPost2010PropOp44
 70
     1
102
RTVSPost2010Prop45
280
     0
102
RTVSPost2010PropOp45
 70
     1
102
RTVSPost2010Prop46
 90
       50
102
RTVSPost2010PropOp46
 70
     1
102
RTVSPost2010Prop47
 90
       50
102
RTVSPost2010PropOp47
 70
     1
102
RTVSPost2010Prop48
 90
       50
102
RTVSPost2010PropOp48
 70
     1
102
RTVSPost2010Prop49
280
     0
102
RTVSPost2010PropOp49
 70
     1
102
RTVSPost2010Prop50
 90
       50
102
RTVSPost2010PropOp50
 70
     1
102
RTVSPost2010Prop51ColorIndex
 90
      256
102
RTVSPost2010Prop51ColorRGB
 90
-16777216
102
RTVSPost2010PropOp51
 70
     0
102
RTVSPost2010Prop52
140
1.0
102
RTVSPost2010PropOp52
 70
     0
102
RTVSPost2010Prop53
 90
        2
102
RTVSPost2010PropOp53
 70
     1
102
RTVSPost2010Prop54
  1
strokes_ogs.tif
102
RTVSPost2010PropOp54
 70
     1
102
RTVSPost2010Prop55
280
     0
102
RTVSPost2010PropOp55
 70
     1
102
RTVSPost2010Prop56
140
1.0
102
RTVSPost2010PropOp56
 70
     1
102
RTVSPost2010Prop57
140
1.0
102
RTVSPost2010PropOp57
 70
     1
  0
XRECORD
  5
376
102
{ACAD_REACTORS
330
375
102
}
330
375
100
AcDbXrecord
280
     1
102
RTVSPropertyOp0
 70
     1
102
RTVSPropertyOp1
 70
     1
102
RTVSPropertyOp2
 70
     1
102
RTVSPropertyOp3
 70
     1
102
RTVSPropertyOp4
 70
     1
102
RTVSPropertyOp5
 70
     1
102
RTVSPropertyOp6
 70
     1
102
RTVSPropertyOp7
 70
     1
102
RTVSPropertyOp8
 70
     1
102
RTVSPropertyOp9
 70
     1
102
RTVSPropertyOp10
 70
     1
102
RTVSPropertyOp11
 70
     1
102
RTVSPropertyOp12
 70
     1
102
RTVSPropertyOp13
 70
     1
102
RTVSPropertyOp14
 70
     1
102
RTVSPropertyOp15
 70
     1
102
RTVSPropertyOp16
 70
     1
102
RTVSPropertyOp17
 70
     1
102
RTVSPropertyOp18
 70
     1
102
RTVSPropertyOp19
 70
     1
102
RTVSPropertyOp20
 70
     1
102
RTVSPropertyOp21
 70
     1
102
RTVSPropertyOp22
 70
     1
102
RTVSPropertyOp23
 70
     1
102
RTVSPropertyOp24
 70
     1
102
RTVSPropertyOp25
 70
     1
102
RTVSPropertyOp26
 70
     1
102
RTVSPropertyOp27
 70
     1
102
RTVSPropertyOp28
 70
     1
102
RTVSPropertyOp29
 70
     1
102
RTVSPropertyOp30
 70
     1
102
RTVSPropertyOp31
 70
     1
102
RTVSPropertyOp32
 70
     1
102
RTVSPropertyOp33
 70
     1
102
RTVSPropertyOp34
 70
     1
102
RTVSPropertyOp35
 70
     1
102
RTVSPropertyOp36
 70
     1
102
RTVSPropertyOp37
 70
     1
102
RTVSPropertyOp38
 70
     1
102
RTVSPropertyOp39
 70
     1
102
RTVSPropertyOp40
 70
     1
102
RTVSPropertyOp41
 70
     1
102
RTVSPropertyOp42
 70
     1
102
RTVSPropertyOp43
 70
     1
102
RTVSPropertyOp44
 70
     1
102
RTVSPropertyOp45
 70
     1
102
RTVSPropertyOp46
 70
     1
102
RTVSPropertyOp47
 70
     1
102
RTVSPropertyOp48
 70
     1
102
RTVSPropertyOp49
 70
     1
102
RTVSPropertyOp50
 70
     1
102
RTVSPropertyOp51
 70
     0
102
RTVSPropertyOp52
 70
     0
102
RTVSPropertyOp53
 70
     1
102
RTVSPropertyOp54
 70
     1
102
RTVSPropertyOp55
 70
     1
102
RTVSPropertyOp56
 70
     1
102
RTVSPropertyOp57
 70
     1
102
RTVSPost2010Prop28
280
     0
102
RTVSPost2010PropOp28
 70
     1
102
RTVSPost2010Prop29
280
     1
102
RTVSPost2010PropOp29
 70
     1
102
RTVSPost2010Prop30
280
     1
102
RTVSPost2010PropOp30
 70
     1
102
RTVSPost2010Prop31
280
     0
102
RTVSPost2010PropOp31
 70
     1
102
RTVSPost2010Prop32
280
     0
102
RTVSPost2010PropOp32
 70
     1
102
RTVSPost2010Prop33
280
     0
102
RTVSPost2010PropOp33
 70
     1
102
RTVSPost2010Prop34
280
     0
102
RTVSPost2010PropOp34
 70
     1
102
RTVSPost2010Prop35
280
     0
102
RTVSPost2010PropOp35
 70
     1
102
RTVSPost2010Prop36
280
     0
102
RTVSPost2010PropOp36
 70
     1
102
RTVSPost2010Prop37
 90
       50
102
RTVSPost2010PropOp37
 70
     1
102
RTVSPost2010Prop38
140
0.0
102
RTVSPost2010PropOp38
 70
     1
102
RTVSPost2010Prop39
140
1.0
102
RTVSPost2010PropOp39
 70
     1
102
RTVSPost2010Prop40
 90
        0
102
RTVSPost2010PropOp40
 70
     1
102
RTVSPost2010Prop41ColorIndex
 90
       18
102
RTVSPost2010Prop41ColorRGB
 90
        0
102
RTVSPost2010PropOp41
 70
     1
102
RTVSPost2010Prop42
 90
       50
102
RTVSPost2010PropOp42
 70
     1
102
RTVSPost2010Prop43
 90
        3
102
RTVSPost2010PropOp43
 70
     1
102
RTVSPost2010Prop44ColorIndex
 90
        5
102
RTVSPost2010Prop44ColorRGB
 90
      255
102
RTVSPost2010PropOp44
 70
     1
102
RTVSPost2010Prop45
280
     0
102
RTVSPost2010PropOp45
 70
     1
102
RTVSPost2010Prop46
 90
       50
102
RTVSPost2010PropOp46
 70
     1
102
RTVSPost2010Prop47
 90
       50
102
RTVSPost2010PropOp47
 70
     1
102
RTVSPost2010Prop48
 90
       50
102
RTVSPost2010PropOp48
 70
     1
102
RTVSPost2010Prop49
280
     0
102
RTVSPost2010PropOp49
 70
     1
102
RTVSPost2010Prop50
 90
       50
102
RTVSPost2010PropOp50
 70
     1
102
RTVSPost2010Prop51ColorIndex
 90
      256
102
RTVSPost2010Prop51ColorRGB
 90
-16777216
102
RTVSPost2010PropOp51
 70
     0
102
RTVSPost2010Prop52
140
1.0
102
RTVSPost2010PropOp52
 70
     0
102
RTVSPost2010Prop53
 90
        2
102
RTVSPost2010PropOp53
 70
     1
102
RTVSPost2010Prop54
  1
strokes_ogs.tif
102
RTVSPost2010PropOp54
 70
     1
102
RTVSPost2010Prop55
280
     0
102
RTVSPost2010PropOp55
 70
     1
102
RTVSPost2010Prop56
140
1.0
102
RTVSPost2010PropOp56
 70
     1
102
RTVSPost2010Prop57
140
1.0
102
RTVSPost2010PropOp57
 70
     1
  0
XRECORD
  5
396
102
{ACAD_REACTORS
330
395
102
}
330
395
100
AcDbXrecord
280
     1
102
RTVSPropertyOp0
 70
     1
102
RTVSPropertyOp1
 70
     1
102
RTVSPropertyOp2
 70
     1
102
RTVSPropertyOp3
 70
     1
102
RTVSPropertyOp4
 70
     1
102
RTVSPropertyOp5
 70
     1
102
RTVSPropertyOp6
 70
     1
102
RTVSPropertyOp7
 70
     1
102
RTVSPropertyOp8
 70
     1
102
RTVSPropertyOp9
 70
     1
102
RTVSPropertyOp10
 70
     1
102
RTVSPropertyOp11
 70
     1
102
RTVSPropertyOp12
 70
     1
102
RTVSPropertyOp13
 70
     1
102
RTVSPropertyOp14
 70
     1
102
RTVSPropertyOp15
 70
     1
102
RTVSPropertyOp16
 70
     1
102
RTVSPropertyOp17
 70
     1
102
RTVSPropertyOp18
 70
     1
102
RTVSPropertyOp19
 70
     1
102
RTVSPropertyOp20
 70
     1
102
RTVSPropertyOp21
 70
     1
102
RTVSPropertyOp22
 70
     1
102
RTVSPropertyOp23
 70
     1
102
RTVSPropertyOp24
 70
     1
102
RTVSPropertyOp25
 70
     1
102
RTVSPropertyOp26
 70
     1
102
RTVSPropertyOp27
 70
     1
102
RTVSPropertyOp28
 70
     1
102
RTVSPropertyOp29
 70
     1
102
RTVSPropertyOp30
 70
     1
102
RTVSPropertyOp31
 70
     1
102
RTVSPropertyOp32
 70
     1
102
RTVSPropertyOp33
 70
     1
102
RTVSPropertyOp34
 70
     1
102
RTVSPropertyOp35
 70
     1
102
RTVSPropertyOp36
 70
     1
102
RTVSPropertyOp37
 70
     1
102
RTVSPropertyOp38
 70
     1
102
RTVSPropertyOp39
 70
     1
102
RTVSPropertyOp40
 70
     1
102
RTVSPropertyOp41
 70
     1
102
RTVSPropertyOp42
 70
     1
102
RTVSPropertyOp43
 70
     1
102
RTVSPropertyOp44
 70
     1
102
RTVSPropertyOp45
 70
     1
102
RTVSPropertyOp46
 70
     1
102
RTVSPropertyOp47
 70
     1
102
RTVSPropertyOp48
 70
     1
102
RTVSPropertyOp49
 70
     1
102
RTVSPropertyOp50
 70
     1
102
RTVSPropertyOp51
 70
     0
102
RTVSPropertyOp52
 70
     0
102
RTVSPropertyOp53
 70
     1
102
RTVSPropertyOp54
 70
     1
102
RTVSPropertyOp55
 70
     1
102
RTVSPropertyOp56
 70
     1
102
RTVSPropertyOp57
 70
     1
102
RTVSPost2010Prop28
280
     0
102
RTVSPost2010PropOp28
 70
     1
102
RTVSPost2010Prop29
280
     1
102
RTVSPost2010PropOp29
 70
     1
102
RTVSPost2010Prop30
280
     1
102
RTVSPost2010PropOp30
 70
     1
102
RTVSPost2010Prop31
280
     0
102
RTVSPost2010PropOp31
 70
     1
102
RTVSPost2010Prop32
280
     0
102
RTVSPost2010PropOp32
 70
     1
102
RTVSPost2010Prop33
280
     0
102
RTVSPost2010PropOp33
 70
     1
102
RTVSPost2010Prop34
280
     0
102
RTVSPost2010PropOp34
 70
     1
102
RTVSPost2010Prop35
280
     0
102
RTVSPost2010PropOp35
 70
     1
102
RTVSPost2010Prop36
280
     0
102
RTVSPost2010PropOp36
 70
     1
102
RTVSPost2010Prop37
 90
       50
102
RTVSPost2010PropOp37
 70
     1
102
RTVSPost2010Prop38
140
0.0
102
RTVSPost2010PropOp38
 70
     1
102
RTVSPost2010Prop39
140
1.0
102
RTVSPost2010PropOp39
 70
     1
102
RTVSPost2010Prop40
 90
        0
102
RTVSPost2010PropOp40
 70
     1
102
RTVSPost2010Prop41ColorIndex
 90
       18
102
RTVSPost2010Prop41ColorRGB
 90
        0
102
RTVSPost2010PropOp41
 70
     1
102
RTVSPost2010Prop42
 90
       50
102
RTVSPost2010PropOp42
 70
     1
102
RTVSPost2010Prop43
 90
        3
102
RTVSPost2010PropOp43
 70
     1
102
RTVSPost2010Prop44ColorIndex
 90
        5
102
RTVSPost2010Prop44ColorRGB
 90
      255
102
RTVSPost2010PropOp44
 70
     1
102
RTVSPost2010Prop45
280
     0
102
RTVSPost2010PropOp45
 70
     1
102
RTVSPost2010Prop46
 90
       50
102
RTVSPost2010PropOp46
 70
     1
102
RTVSPost2010Prop47
 90
       50
102
RTVSPost2010PropOp47
 70
     1
102
RTVSPost2010Prop48
 90
       50
102
RTVSPost2010PropOp48
 70
     1
102
RTVSPost2010Prop49
280
     0
102
RTVSPost2010PropOp49
 70
     1
102
RTVSPost2010Prop50
 90
       50
102
RTVSPost2010PropOp50
 70
     1
102
RTVSPost2010Prop51ColorIndex
 90
      256
102
RTVSPost2010Prop51ColorRGB
 90
-16777216
102
RTVSPost2010PropOp51
 70
     0
102
RTVSPost2010Prop52
140
1.0
102
RTVSPost2010PropOp52
 70
     0
102
RTVSPost2010Prop53
 90
        2
102
RTVSPost2010PropOp53
 70
     1
102
RTVSPost2010Prop54
  1
strokes_ogs.tif
102
RTVSPost2010PropOp54
 70
     1
102
RTVSPost2010Prop55
280
     0
102
RTVSPost2010PropOp55
 70
     1
102
RTVSPost2010Prop56
140
1.0
102
RTVSPost2010PropOp56
 70
     1
102
RTVSPost2010Prop57
140
1.0
102
RTVSPost2010PropOp57
 70
     1
  0
ENDSEC
  0
EOF
