  0
SECTION
  2
HEADER
  9
$ACADVER
  1
AC1018
  9
$ACADMAINTVER
 70
     0
  9
$DWGCODEPAGE
  3
ANSI_932
  9
$INSBASE
 10
0.0
 20
0.0
 30
0.0
  9
$EXTMIN
 10
-840.0
 20
-594.0
 30
0.0
  9
$EXTMAX
 10
840.0
 20
594.0
 30
0.0
  9
$LIMMIN
 10
-840.0
 20
-594.0
  9
$LIMMAX
 10
840.0
 20
594.0
  9
$ORTHOMODE
 70
     0
  9
$REGENMODE
 70
     1
  9
$FILLMODE
 70
     1
  9
$QTEXTMODE
 70
     0
  9
$MIRRTEXT
 70
     1
  9
$LTSCALE
 40
4.0
  9
$ATTMODE
 70
     1
  9
$TEXTSIZE
 40
2.5
  9
$TRACEWID
 40
1.0
  9
$TEXTSTYLE
  7
Standard
  9
$CLAYER
  8
0
  9
$CELTYPE
  6
ByLayer
  9
$CECOLOR
 62
   256
  9
$CELTSCALE
 40
1.0
  9
$DISPSILH
 70
     0
  9
$DIMSCALE
 40
1.0
  9
$DIMASZ
 40
2.5
  9
$DIMEXO
 40
0.625
  9
$DIMDLI
 40
3.75
  9
$DIMRND
 40
0.0
  9
$DIMDLE
 40
0.0
  9
$DIMEXE
 40
1.25
  9
$DIMTP
 40
0.0
  9
$DIMTM
 40
0.0
  9
$DIMTXT
 40
2.5
  9
$DIMCEN
 40
2.5
  9
$DIMTSZ
 40
0.0
  9
$DIMTOL
 70
     0
  9
$DIMLIM
 70
     0
  9
$DIMTIH
 70
     0
  9
$DIMTOH
 70
     0
  9
$DIMSE1
 70
     0
  9
$DIMSE2
 70
     0
  9
$DIMTAD
 70
     1
  9
$DIMZIN
 70
     8
  9
$DIMBLK
  1

  9
$DIMASO
 70
     1
  9
$DIMSHO
 70
     1
  9
$DIMPOST
  1

  9
$DIMAPOST
  1

  9
$DIMALT
 70
     0
  9
$DIMALTD
 70
     3
  9
$DIMALTF
 40
0.03937007874016
  9
$DIMLFAC
 40
1.0
  9
$DIMTOFL
 70
     1
  9
$DIMTVP
 40
0.0
  9
$DIMTIX
 70
     0
  9
$DIMSOXD
 70
     0
  9
$DIMSAH
 70
     0
  9
$DIMBLK1
  1

  9
$DIMBLK2
  1

  9
$DIMSTYLE
  2
ISO-25
  9
$DIMCLRD
 70
     0
  9
$DIMCLRE
 70
     0
  9
$DIMCLRT
 70
     0
  9
$DIMTFAC
 40
1.0
  9
$DIMGAP
 40
0.625
  9
$DIMJUST
 70
     0
  9
$DIMSD1
 70
     0
  9
$DIMSD2
 70
     0
  9
$DIMTOLJ
 70
     0
  9
$DIMTZIN
 70
     8
  9
$DIMALTZ
 70
     0
  9
$DIMALTTZ
 70
     0
  9
$DIMUPT
 70
     0
  9
$DIMDEC
 70
     2
  9
$DIMTDEC
 70
     2
  9
$DIMALTU
 70
     2
  9
$DIMALTTD
 70
     3
  9
$DIMTXSTY
  7
Standard
  9
$DIMAUNIT
 70
     0
  9
$DIMADEC
 70
     0
  9
$DIMALTRND
 40
0.0
  9
$DIMAZIN
 70
     0
  9
$DIMDSEP
 70
    44
  9
$DIMATFIT
 70
     3
  9
$DIMFRAC
 70
     0
  9
$DIMLDRBLK
  1

  9
$DIMLUNIT
 70
     2
  9
$DIMLWD
 70
    -2
  9
$DIMLWE
 70
    -2
  9
$DIMTMOVE
 70
     0
  9
$LUNITS
 70
     2
  9
$LUPREC
 70
     4
  9
$SKETCHINC
 40
1.0
  9
$FILLETRAD
 40
10.0
  9
$AUNITS
 70
     0
  9
$AUPREC
 70
     0
  9
$MENU
  1
.
  9
$ELEVATION
 40
0.0
  9
$PELEVATION
 40
0.0
  9
$THICKNESS
 40
0.0
  9
$LIMCHECK
 70
     0
  9
$CHAMFERA
 40
0.0
  9
$CHAMFERB
 40
0.0
  9
$CHAMFERC
 40
0.0
  9
$CHAMFERD
 40
0.0
  9
$SKPOLY
 70
     0
  9
$TDCREATE
 40
2460096.488052569
  9
$TDUCREATE
 40
2460096.113052569
  9
$TDUPDATE
 40
2460096.488052743
  9
$TDUUPDATE
 40
2460096.113052743
  9
$TDINDWG
 40
0.0000000116
  9
$TDUSRTIMER
 40
0.0000000116
  9
$USRTIMER
 70
     1
  9
$ANGBASE
 50
0.0
  9
$ANGDIR
 70
     0
  9
$PDMODE
 70
     0
  9
$PDSIZE
 40
0.0
  9
$PLINEWID
 40
0.0
  9
$SPLFRAME
 70
     0
  9
$SPLINETYPE
 70
     6
  9
$SPLINESEGS
 70
     8
  9
$HANDSEED
  5
420
  9
$SURFTAB1
 70
     6
  9
$SURFTAB2
 70
     6
  9
$SURFTYPE
 70
     6
  9
$SURFU
 70
     6
  9
$SURFV
 70
     6
  9
$UCSBASE
  2

  9
$UCSNAME
  2

  9
$UCSORG
 10
0.0
 20
0.0
 30
0.0
  9
$UCSXDIR
 10
1.0
 20
0.0
 30
0.0
  9
$UCSYDIR
 10
0.0
 20
1.0
 30
0.0
  9
$UCSORTHOREF
  2

  9
$UCSORTHOVIEW
 70
     0
  9
$UCSORGTOP
 10
0.0
 20
0.0
 30
0.0
  9
$UCSORGBOTTOM
 10
0.0
 20
0.0
 30
0.0
  9
$UCSORGLEFT
 10
0.0
 20
0.0
 30
0.0
  9
$UCSORGRIGHT
 10
0.0
 20
0.0
 30
0.0
  9
$UCSORGFRONT
 10
0.0
 20
0.0
 30
0.0
  9
$UCSORGBACK
 10
0.0
 20
0.0
 30
0.0
  9
$PUCSBASE
  2

  9
$PUCSNAME
  2

  9
$PUCSORG
 10
0.0
 20
0.0
 30
0.0
  9
$PUCSXDIR
 10
1.0
 20
0.0
 30
0.0
  9
$PUCSYDIR
 10
0.0
 20
1.0
 30
0.0
  9
$PUCSORTHOREF
  2

  9
$PUCSORTHOVIEW
 70
     0
  9
$PUCSORGTOP
 10
0.0
 20
0.0
 30
0.0
  9
$PUCSORGBOTTOM
 10
0.0
 20
0.0
 30
0.0
  9
$PUCSORGLEFT
 10
0.0
 20
0.0
 30
0.0
  9
$PUCSORGRIGHT
 10
0.0
 20
0.0
 30
0.0
  9
$PUCSORGFRONT
 10
0.0
 20
0.0
 30
0.0
  9
$PUCSORGBACK
 10
0.0
 20
0.0
 30
0.0
  9
$USERI1
 70
     0
  9
$USERI2
 70
     0
  9
$USERI3
 70
     0
  9
$USERI4
 70
     0
  9
$USERI5
 70
     0
  9
$USERR1
 40
0.0
  9
$USERR2
 40
0.0
  9
$USERR3
 40
0.0
  9
$USERR4
 40
0.0
  9
$USERR5
 40
0.0
  9
$WORLDVIEW
 70
     1
  9
$SHADEDGE
 70
     3
  9
$SHADEDIF
 70
    70
  9
$TILEMODE
 70
     1
  9
$MAXACTVP
 70
    64
  9
$PINSBASE
 10
0.0
 20
0.0
 30
0.0
  9
$PLIMCHECK
 70
     0
  9
$PEXTMIN
 10
1.000000000000000E+20
 20
1.000000000000000E+20
 30
1.000000000000000E+20
  9
$PEXTMAX
 10
-1.000000000000000E+20
 20
-1.000000000000000E+20
 30
-1.000000000000000E+20
  9
$PLIMMIN
 10
0.0
 20
0.0
  9
$PLIMMAX
 10
420.0
 20
297.0
  9
$UNITMODE
 70
     0
  9
$VISRETAIN
 70
     1
  9
$PLINEGEN
 70
     0
  9
$PSLTSCALE
 70
     1
  9
$TREEDEPTH
 70
  3020
  9
$CMLSTYLE
  2
Standard
  9
$CMLJUST
 70
     0
  9
$CMLSCALE
 40
20.0
  9
$PROXYGRAPHICS
 70
     1
  9
$MEASUREMENT
 70
     1
  9
$CELWEIGHT
370
    -1
  9
$ENDCAPS
280
     0
  9
$JOINSTYLE
280
     0
  9
$LWDISPLAY
290
     0
  9
$INSUNITS
 70
     4
  9
$HYPERLINKBASE
  1

  9
$STYLESHEET
  1

  9
$XEDIT
290
     1
  9
$CEPSNTYPE
380
     0
  9
$PSTYLEMODE
290
     1
  9
$FINGERPRINTGUID
  2
{1FFD4EC0-2BC7-4959-A973-86080AB9BB6E}
  9
$VERSIONGUID
  2
{FAEB1C32-E019-11D5-929B-00C0DF256EC4}
  9
$EXTNAMES
290
     1
  9
$PSVPSCALE
 40
0.0
  9
$OLESTARTUP
290
     0
  9
$SORTENTS
280
   127
  9
$INDEXCTL
280
     0
  9
$HIDETEXT
280
     1
  9
$XCLIPFRAME
290
     0
  9
$HALOGAP
280
     0
  9
$OBSCOLOR
 70
   257
  9
$OBSLTYPE
280
     0
  9
$INTERSECTIONDISPLAY
280
     0
  9
$INTERSECTIONCOLOR
 70
   257
  9
$DIMASSOC
280
     2
  9
$PROJECTNAME
  1

  0
ENDSEC
  0
SECTION
  2
CLASSES
  0
CLASS
  1
ACDBDICTIONARYWDFLT
  2
AcDbDictionaryWithDefault
  3
ObjectDBX Classes
 90
        0
 91
        4
280
     0
281
     0
  0
CLASS
  1
VISUALSTYLE
  2
AcDbVisualStyle
  3
ObjectDBX Classes
 90
     4095
 91
        4
280
     0
281
     0
  0
CLASS
  1
MATERIAL
  2
AcDbMaterial
  3
ObjectDBX Classes
 90
     1153
 91
        4
280
     0
281
     0
  0
CLASS
  1
SCALE
  2
AcDbScale
  3
ObjectDBX Classes
 90
     1153
 91
        4
280
     0
281
     0
  0
CLASS
  1
TABLESTYLE
  2
AcDbTableStyle
  3
ObjectDBX Classes
 90
     4095
 91
        4
280
     0
281
     0
  0
CLASS
  1
MLEADERSTYLE
  2
AcDbMLeaderStyle
  3
ACDB_MLEADERSTYLE_CLASS
 90
     4095
 91
        4
280
     0
281
     0
  0
CLASS
  1
SUN
  2
AcDbSun
  3
SCENEOE
 90
     1153
 91
        4
280
     0
281
     0
  0
CLASS
  1
DICTIONARYVAR
  2
AcDbDictionaryVar
  3
ObjectDBX Classes
 90
        0
 91
        4
280
     0
281
     0
  0
CLASS
  1
CELLSTYLEMAP
  2
AcDbCellStyleMap
  3
ObjectDBX Classes
 90
     1152
 91
        4
280
     0
281
     0
  0
ENDSEC
  0
SECTION
  2
TABLES
  0
TABLE
  2
VPORT
  5
8
102
{ACAD_XDICTIONARY
360
3D7
102
}
330
0
100
AcDbSymbolTable
 70
     1
  0
VPORT
  5
29
330
8
100
AcDbSymbolTableRecord
100
AcDbViewportTableRecord
  2
*Active
 70
     0
 10
0.0
 20
0.0
 11
1.0
 21
1.0
 12
0.0
 22
0.0
 13
0.0
 23
0.0
 14
10.0
 24
10.0
 15
10.0
 25
10.0
 16
0.0
 26
0.0
 36
1.0
 17
0.0
 27
0.0
 37
0.0
 40
1306.8
 41
1.414141414141414
 42
50.0
 43
0.0
 44
0.0
 50
0.0
 51
0.0
 71
     0
 72
 10000
 73
     1
 74
     3
 75
     0
 76
     0
 77
     0
 78
     0
281
     0
 65
     1
110
0.0
120
0.0
130
0.0
111
1.0
121
0.0
131
0.0
112
0.0
122
1.0
132
0.0
 79
     0
146
0.0
  0
ENDTAB
  0
TABLE
  2
LTYPE
  5
5
330
0
100
AcDbSymbolTable
 70
     4
  0
LTYPE
  5
14
330
5
100
AcDbSymbolTableRecord
100
AcDbLinetypeTableRecord
  2
ByBlock
 70
     0
  3

 72
    65
 73
     0
 40
0.0
  0
LTYPE
  5
15
330
5
100
AcDbSymbolTableRecord
100
AcDbLinetypeTableRecord
  2
ByLayer
 70
     0
  3

 72
    65
 73
     0
 40
0.0
  0
LTYPE
  5
16
330
5
100
AcDbSymbolTableRecord
100
AcDbLinetypeTableRecord
  2
Continuous
 70
     0
  3
Solid line
 72
    65
 73
     0
 40
0.0
  0
LTYPE
  5
6F
330
5
100
AcDbSymbolTableRecord
100
AcDbLinetypeTableRecord
  2
JWW_HOJO
 70
     0
  3
  -   -   -   -   -   -   -   - 
 72
    65
 73
     2
 40
1.693333333333333
 49
-1.27
 74
     0
 49
0.4233333333333333
 74
     0
  0
LTYPE
  5
70
330
5
100
AcDbSymbolTableRecord
100
AcDbLinetypeTableRecord
  2
JWW_CENTER1
 70
     0
  3
-----  --  ----------  --  -----
 72
    65
 73
     4
 40
6.773333333333333
 49
4.233333333333333
 74
     0
 49
-0.8466666666666667
 74
     0
 49
0.8466666666666667
 74
     0
 49
-0.8466666666666667
 74
     0
  0
LTYPE
  5
71
330
5
100
AcDbSymbolTableRecord
100
AcDbLinetypeTableRecord
  2
JWW_DASHED1
 70
     0
  3
-  --  --  --  --  --  --  --  -
 72
    65
 73
     2
 40
1.693333333333333
 49
0.8466666666666667
 74
     0
 49
-0.8466666666666667
 74
     0
  0
ENDTAB
  0
TABLE
  2
LAYER
  5
2
330
0
100
AcDbSymbolTable
 70
    10
  0
LAYER
  5
10
330
2
100
AcDbSymbolTableRecord
100
AcDbLayerTableRecord
  2
0
 70
     0
 62
     7
  6
Continuous
370
    -3
390
F
  0
LAYER
  5
72
330
2
100
AcDbSymbolTableRecord
100
AcDbLayerTableRecord
  2
通り芯
 70
     0
 62
     7
  6
Continuous
370
    -3
390
F
  0
LAYER
  5
73
330
2
100
AcDbSymbolTableRecord
100
AcDbLayerTableRecord
  2
0-A
 70
     0
 62
     7
  6
Continuous
370
    -3
390
F
  0
LAYER
  5
74
330
2
100
AcDbSymbolTableRecord
100
AcDbLayerTableRecord
  2
0-8
 70
     0
 62
     7
  6
Continuous
370
    -3
390
F
  0
LAYER
  5
75
330
2
100
AcDbSymbolTableRecord
100
AcDbLayerTableRecord
  2
その他
 70
     0
 62
     7
  6
Continuous
370
    -3
390
F
  0
LAYER
  5
76
330
2
100
AcDbSymbolTableRecord
100
AcDbLayerTableRecord
  2
0-F
 70
     0
 62
     7
  6
Continuous
370
    -3
390
F
  0
LAYER
  5
77
330
2
100
AcDbSymbolTableRecord
100
AcDbLayerTableRecord
  2
躯体
 70
     0
 62
     7
  6
Continuous
370
    -3
390
F
  0
LAYER
  5
78
330
2
100
AcDbSymbolTableRecord
100
AcDbLayerTableRecord
  2
仕上
 70
     0
 62
     7
  6
Continuous
370
    -3
390
F
  0
LAYER
  5
79
330
2
100
AcDbSymbolTableRecord
100
AcDbLayerTableRecord
  2
寸法
 70
     0
 62
     7
  6
Continuous
370
    -3
390
F
  0
LAYER
  5
7A
330
2
100
AcDbSymbolTableRecord
100
AcDbLayerTableRecord
  2
F-5ﾚｲﾔ
 70
     0
 62
     7
  6
Continuous
370
    -3
390
F
  0
ENDTAB
  0
TABLE
  2
STYLE
  5
3
330
0
100
AcDbSymbolTable
 70
     2
  0
STYLE
  5
11
330
3
100
AcDbSymbolTableRecord
100
AcDbTextStyleTableRecord
  2
Standard
 70
     0
 40
0.0
 41
1.0
 50
0.0
 71
     0
 42
2.5
  3
txt
  4

  0
STYLE
  5
6E
330
3
100
AcDbSymbolTableRecord
100
AcDbTextStyleTableRecord
  2
ＭＳ ゴシック
 70
     0
 40
1.0
 41
1.0
 50
0.0
 71
     0
 42
2.5
  3

  4

1001
ACAD
1000
MS Gothic
1071
    32817
  0
ENDTAB
  0
TABLE
  2
VIEW
  5
6
330
0
100
AcDbSymbolTable
 70
     0
  0
ENDTAB
  0
TABLE
  2
UCS
  5
7
330
0
100
AcDbSymbolTable
 70
     0
  0
ENDTAB
  0
TABLE
  2
APPID
  5
9
330
0
100
AcDbSymbolTable
 70
     2
  0
APPID
  5
12
330
9
100
AcDbSymbolTableRecord
100
AcDbRegAppTableRecord
  2
ACAD
 70
     0
  0
APPID
  5
416
330
9
100
AcDbSymbolTableRecord
100
AcDbRegAppTableRecord
  2
ACAD_MLEADERVER
 70
     0
  0
ENDTAB
  0
TABLE
  2
DIMSTYLE
  5
A
330
0
100
AcDbSymbolTable
 70
     1
100
AcDbDimStyleTable
  0
DIMSTYLE
105
27
330
A
100
AcDbSymbolTableRecord
100
AcDbDimStyleTableRecord
  2
ISO-25
 70
     0
 41
2.5
 42
0.625
 43
3.75
 44
1.25
 73
     0
 74
     0
 77
     1
 78
     8
140
2.5
141
2.5
143
0.03937007874016
147
0.625
171
     3
172
     1
178
     0
271
     2
272
     2
274
     3
278
    44
283
     0
284
     8
340
11
  0
ENDTAB
  0
TABLE
  2
BLOCK_RECORD
  5
1
330
0
100
AcDbSymbolTable
 70
     1
  0
BLOCK_RECORD
  5
1F
330
1
100
AcDbSymbolTableRecord
100
AcDbBlockTableRecord
  2
*Model_Space
340
22
  0
BLOCK_RECORD
  5
1B
330
1
100
AcDbSymbolTableRecord
100
AcDbBlockTableRecord
  2
*Paper_Space
340
1E
  0
BLOCK_RECORD
  5
23
330
1
100
AcDbSymbolTableRecord
100
AcDbBlockTableRecord
  2
*Paper_Space0
340
26
  0
ENDTAB
  0
ENDSEC
  0
SECTION
  2
BLOCKS
  0
BLOCK
  5
20
330
1F
100
AcDbEntity
  8
0
100
AcDbBlockBegin
  2
*Model_Space
 70
     0
 10
0.0
 20
0.0
 30
0.0
  3
*Model_Space
  1

  0
ENDBLK
  5
21
330
1F
100
AcDbEntity
  8
0
100
AcDbBlockEnd
  0
BLOCK
  5
1C
330
1B
100
AcDbEntity
 67
     1
  8
0
100
AcDbBlockBegin
  2
*Paper_Space
 70
     0
 10
0.0
 20
0.0
 30
0.0
  3
*Paper_Space
  1

  0
ENDBLK
  5
1D
330
1B
100
AcDbEntity
 67
     1
  8
0
100
AcDbBlockEnd
  0
BLOCK
  5
24
330
23
100
AcDbEntity
  8
0
100
AcDbBlockBegin
  2
*Paper_Space0
 70
     0
 10
0.0
 20
0.0
 30
0.0
  3
*Paper_Space0
  1

  0
ENDBLK
  5
25
330
23
100
AcDbEntity
  8
0
100
AcDbBlockEnd
  0
ENDSEC
  0
SECTION
  2
ENTITIES
  0
ARC
  5
7B
330
1F
100
AcDbEntity
  8
通り芯
  6
Continuous
 62
     3
370
     9
100
AcDbCircle
 10
-163.3427834465963
 20
-249.6765360917615
 30
0.0
 40
0.5000000046026752
100
AcDbArc
 50
180.0010528564453
 51
225.0
  0
LINE
  5
7C
330
1F
100
AcDbEntity
  8
通り芯
  6
Continuous
 62
     3
370
     9
100
AcDbLine
 10
42.1569838715991
 20
-352.1334862168483
 30
0.0
 11
42.1569838715991
 21
-361.1334537845572
 31
0.0
  0
LINE
  5
7D
330
1F
100
AcDbEntity
  8
通り芯
  6
Continuous
 62
     3
370
     9
100
AcDbLine
 10
-167.2179439289955
 20
-252.6752866090286
 30
0.0
 11
-162.8429297601199
 21
-252.5861765475598
 31
0.0
  0
LINE
  5
7E
330
1F
100
AcDbEntity
  8
通り芯
  6
Continuous
 62
     3
370
     9
100
AcDbLine
 10
-169.1704625541445
 20
-251.2631510171902
 30
0.0
 11
-169.4472314189566
 21
-250.3624630814605
 31
0.0
  0
LINE
  5
7F
330
1F
100
AcDbEntity
  8
通り芯
  6
Continuous
 62
     3
370
     9
100
AcDbLine
 10
-167.1035649593537
 20
-360.7256334253971
 30
0.0
 11
-166.9961473261792
 21
-360.3884173684851
 31
0.0
  0
LINE
  5
80
330
1F
100
AcDbEntity
  8
通り芯
  6
Continuous
 62
     3
370
     9
100
AcDbLine
 10
-164.8429390685703
 20
-145.1336375969969
 30
0.0
 11
-173.8429561831581
 21
-145.1336375969969
 31
0.0
  0
LINE
  5
81
330
1F
100
AcDbEntity
  8
通り芯
  6
JWW_HOJO
 62
     3
370
     9
100
AcDbLine
 10
-152.9784682516231
 20
-357.1331131129442
 30
0.0
 11
-149.978429515508
 21
-357.1331131129442
 31
0.0
  0
LINE
  5
82
330
1F
100
AcDbEntity
  8
通り芯
  6
Continuous
 62
     3
370
     9
100
AcDbLine
 10
-152.9784682516231
 20
-354.1334707518594
 30
0.0
 11
-152.9784682516231
 21
-351.0744960034467
 31
0.0
  0
LINE
  5
83
330
1F
100
AcDbEntity
  8
通り芯
  6
Continuous
 62
     3
370
     9
100
AcDbLine
 10
-163.8426123596332
 20
-248.565719843166
 30
0.0
 11
-163.8425380393151
 21
-249.6765360917615
 31
0.0
  0
LINE
  5
84
330
1F
100
AcDbEntity
  8
通り芯
  6
Continuous
 62
     3
370
     9
100
AcDbLine
 10
-162.9893655603262
 20
-250.736938391208
 30
0.0
 11
-163.6962508797451
 21
-250.0299539780316
 31
0.0
  0
LINE
  5
85
330
1F
100
AcDbEntity
  8
通り芯
  6
Continuous
 62
     3
370
     9
100
AcDbLine
 10
-162.9599099408972
 20
-247.3315814133107
 30
0.0
 11
-163.7256569522954
 21
-248.2441853733848
 31
0.0
  0
LINE
  5
86
330
1F
100
AcDbEntity
  8
通り芯
  6
Continuous
 62
     3
370
     9
100
AcDbLine
 10
-162.8429297601199
 20
-247.0101955841658
 30
0.0
 11
-162.8429297601199
 21
-147.1335973585686
 31
0.0
  0
LINE
  5
87
330
1F
100
AcDbEntity
  8
通り芯
  6
JWW_HOJO
 62
     3
370
     9
100
AcDbLine
 10
-162.8429297601199
 20
-247.1921812698899
 30
0.0
 11
-162.8429297601199
 21
-247.0101955841658
 31
0.0
  0
LINE
  5
88
330
1F
100
AcDbEntity
  8
通り芯
  6
JWW_HOJO
 62
     3
370
     9
100
AcDbLine
 10
-162.8429297601199
 20
-247.1921812698899
 30
0.0
 11
-162.9598851674577
 21
-247.3315814133107
 31
0.0
  0
LINE
  5
89
330
1F
100
AcDbEntity
  8
通り芯
  6
Continuous
 62
     3
370
     9
100
AcDbLine
 10
-166.54960608126
 20
-359.6276250449638
 30
0.0
 11
-168.741138849598
 21
-252.0182206762134
 31
0.0
  0
LINE
  5
8A
330
1F
100
AcDbEntity
  8
通り芯
  6
Continuous
 62
     3
370
     9
100
AcDbLine
 10
-72.37473879737627
 20
-356.4536272174854
 30
0.0
 11
-65.6795186159959
 21
-350.835556180576
 31
0.0
  0
LINE
  5
8B
330
1F
100
AcDbEntity
  8
通り芯
  6
Continuous
 62
     3
370
     9
100
AcDbLine
 10
-74.24238361919151
 20
-357.1548889661639
 30
0.0
 11
-165.1312028092573
 21
-358.9957784734429
 31
0.0
  0
LINE
  5
8C
330
1F
100
AcDbEntity
  8
通り芯
  6
Continuous
 62
     3
370
     9
100
AcDbLine
 10
-152.8429575381858
 20
-357.1334599410957
 30
0.0
 11
-73.94019720557003
 21
-357.1334599410957
 31
0.0
  0
LINE
  5
8D
330
1F
100
AcDbEntity
  8
通り芯
  6
Continuous
 62
     3
370
     9
100
AcDbLine
 10
-61.27517269488817
 20
-351.1337540704562
 30
0.0
 11
-62.38616235755944
 21
-351.1337540704562
 31
0.0
  0
LINE
  5
8E
330
1F
100
AcDbEntity
  8
通り芯
  6
JWW_HOJO
 62
     3
370
     9
100
AcDbLine
 10
-61.09311268884585
 20
-351.1337540704562
 30
0.0
 11
-61.27517269488817
 21
-351.1337540704562
 31
0.0
  0
LINE
  5
8F
330
1F
100
AcDbEntity
  8
通り芯
  6
JWW_HOJO
 62
     3
370
     9
100
AcDbLine
 10
-60.95373731886457
 20
-351.0167738896791
 30
0.0
 11
-61.09311268884585
 21
-351.1337540704562
 31
0.0
  0
LINE
  5
90
330
1F
100
AcDbEntity
  8
通り芯
  6
Continuous
 62
     3
370
     9
100
AcDbLine
 10
-59.71910342022147
 20
-350.1334521349584
 30
0.0
 11
40.15702411002735
 21
-350.1334521349584
 31
0.0
  0
LINE
  5
91
330
1F
100
AcDbEntity
  8
通り芯
  6
Continuous
 62
     3
370
     9
100
AcDbLine
 10
-60.04048924936637
 20
-350.2504323157356
 30
0.0
 11
-60.95373731886457
 21
-351.0167738896791
 31
0.0
  0
LINE
  5
92
330
1F
100
AcDbEntity
  8
通り芯
  6
JWW_HOJO
 62
     3
370
     9
100
AcDbLine
 10
-59.90138638721828
 20
-350.1336750959128
 30
0.0
 11
-60.04048924936637
 21
-350.2504323157356
 31
0.0
  0
LINE
  5
93
330
1F
100
AcDbEntity
  8
通り芯
  6
JWW_HOJO
 62
     3
370
     9
100
AcDbLine
 10
-59.90138638721828
 20
-350.1334521349584
 30
0.0
 11
-59.71910342022147
 21
-350.1334521349584
 31
0.0
  0
LINE
  5
94
330
1F
100
AcDbEntity
  8
通り芯
  6
Continuous
 62
     3
370
     9
100
AcDbLine
 10
-62.73970411102641
 20
-350.9872191764924
 30
0.0
 11
-63.44706012579354
 21
-350.2799374820435
 31
0.0
  0
LINE
  5
95
330
1F
100
AcDbEntity
  8
通り芯
  6
Continuous
 62
     3
370
     9
100
AcDbLine
 10
-152.8429575381858
 20
-350.1334521349584
 30
0.0
 11
-63.80060187926051
 21
-350.1334521349584
 31
0.0
  0
LINE
  5
96
330
1F
100
AcDbEntity
  8
通り芯
  6
Continuous
 62
     3
370
     9
100
AcDbLine
 10
-173.9536439103315
 20
-363.5744550875046
 30
0.0
 11
-170.833453993198
 21
-363.5109359889209
 31
0.0
  0
LINE
  5
97
330
1F
100
AcDbEntity
  8
通り芯
  6
Continuous
 62
     3
370
     9
100
AcDbLine
 10
-176.3154073674052
 20
-247.5984656758081
 30
0.0
 11
-173.3522191223756
 21
-247.5381671243444
 31
0.0
  0
LINE
  5
98
330
1F
100
AcDbEntity
  8
通り芯
  6
Continuous
 62
     3
370
     9
100
AcDbLine
 10
-70.1384156506299
 20
-362.4095584207312
 30
0.0
 11
-63.49539310603427
 21
-356.8353363715335
 31
0.0
  0
LINE
  5
99
330
1F
100
AcDbEntity
  8
通り芯
  6
Continuous
 62
     3
370
     9
100
AcDbLine
 10
32.05801698588152
 20
-356.1335048337492
 30
0.0
 11
-61.56700381084647
 21
-356.1335048337492
 31
0.0
  0
LINE
  5
9A
330
1F
100
AcDbEntity
  8
通り芯
  6
Continuous
 62
     3
370
     9
100
AcDbLine
 10
36.96090360117796
 20
-360.1529210536887
 30
0.0
 11
37.15701014735168
 21
-361.1334537845572
 31
0.0
  0
LINE
  5
9B
330
1F
100
AcDbEntity
  8
通り芯
  6
Continuous
 62
     3
370
     9
100
AcDbLine
 10
-170.1862231158186
 20
-154.0549494946576
 30
0.0
 11
-173.8429809565976
 21
-150.1336608681231
 31
0.0
  0
LINE
  5
9C
330
1F
100
AcDbEntity
  8
通り芯
  6
Continuous
 62
     3
370
     9
100
AcDbLine
 10
-168.8429576854712
 20
-157.4649886525987
 30
0.0
 11
-168.8429576854712
 21
-237.52570908896
 31
0.0
  0
LINE
  5
9D
330
1F
100
AcDbEntity
  8
通り芯
  6
Continuous
 62
     3
370
     9
100
AcDbLine
 10
-144.3754950500629
 20
-365.0089363216684
 30
0.0
 11
-161.8146090646774
 21
-369.1077761882772
 31
0.0
  0
LINE
  5
9E
330
1F
100
AcDbEntity
  8
通り芯
  6
Continuous
 62
     3
370
     9
100
AcDbLine
 10
-141.2690296183487
 20
-364.6145431666552
 30
0.0
 11
-72.00598615212675
 21
-363.1107953959702
 31
0.0
  0
LINE
  5
9F
330
1F
100
AcDbEntity
  8
通り芯
  6
Continuous
 62
     3
370
     9
100
AcDbLine
 10
-162.8429297601199
 20
-251.0904058243568
 30
0.0
 11
-162.8429297601199
 21
-347.133462945722
 31
0.0
  0
LINE
  5
A0
330
1F
100
AcDbEntity
  8
通り芯
  6
Continuous
 62
     3
370
     9
100
AcDbLine
 10
-192.2789905587945
 20
-369.9487601350885
 30
0.0
 11
-192.3197180931438
 21
-367.9491719751076
 31
0.0
  0
LINE
  5
A1
330
1F
100
AcDbEntity
  8
通り芯
  6
Continuous
 62
     3
370
     9
100
AcDbLine
 10
-192.3197180931438
 20
-367.9491719751076
 30
0.0
 11
-200.3180583463477
 21
-368.1120573390656
 31
0.0
  0
LINE
  5
A2
330
1F
100
AcDbEntity
  8
通り芯
  6
Continuous
 62
     3
370
     9
100
AcDbLine
 10
-194.8446641954481
 20
-243.9748794703661
 30
0.0
 11
-202.8429920619324
 21
-244.1377648343241
 31
0.0
  0
LINE
  5
A3
330
1F
100
AcDbEntity
  8
通り芯
  6
Continuous
 62
     3
370
     9
100
AcDbLine
 10
-194.8446641954481
 20
-243.9748794703661
 30
0.0
 11
-194.8853917297974
 21
-241.9753160838245
 31
0.0
  0
LINE
  5
A4
330
1F
100
AcDbEntity
  8
通り芯
  6
Continuous
 62
     3
370
     9
100
AcDbLine
 10
-163.8990214811133
 20
-369.3709444348668
 30
0.0
 11
-192.2789905587945
 21
-369.9489087757248
 31
0.0
  0
LINE
  5
A5
330
1F
100
AcDbEntity
  8
通り芯
  6
Continuous
 62
     3
370
     9
100
AcDbLine
 10
-172.7615460071129
 20
-241.5249349558007
 30
0.0
 11
-194.8853793430778
 21
-241.9754399510215
 31
0.0
  0
LINE
  5
A6
330
1F
100
AcDbEntity
  8
通り芯
  6
Continuous
 62
     3
370
     9
100
AcDbLine
 10
-178.5442489354573
 20
-360.0175837543271
 30
0.0
 11
-178.0914152369342
 21
-359.9941976275475
 31
0.0
  0
ARC
  5
A7
330
1F
100
AcDbEntity
  8
通り芯
  6
Continuous
 62
     3
370
     9
100
AcDbCircle
 10
-62.38616235755944
 20
-350.6336774230255
 30
0.0
 40
0.5000000046026752
100
AcDbArc
 50
225.0000000000001
 51
269.9989318847657
  0
ARC
  5
A8
330
1F
100
AcDbEntity
  8
通り芯
  6
Continuous
 62
     3
370
     9
100
AcDbCircle
 10
-61.27517269488817
 20
-350.6336774230255
 30
0.0
 40
0.5000000046026752
100
AcDbArc
 50
270.0031890869142
 51
310.0010833740236
  0
ARC
  5
A9
330
1F
100
AcDbEntity
  8
通り芯
  6
Continuous
 62
     3
370
     9
100
AcDbCircle
 10
-152.8429575381858
 20
-347.133462945722
 30
0.0
 40
10.0000000920535
100
AcDbArc
 50
180.0
 51
270.0
  0
ARC
  5
AA
330
1F
100
AcDbEntity
  8
通り芯
  6
Continuous
 62
     3
370
     9
100
AcDbCircle
 10
-164.8429390685703
 20
-147.1335973585686
 30
0.0
 40
2.000000018410701
100
AcDbArc
 50
0.0
 51
90.0
  0
ARC
  5
AB
330
1F
100
AcDbEntity
  8
通り芯
  6
Continuous
 62
     3
370
     9
100
AcDbCircle
 10
40.15702411002735
 20
-352.1334862168483
 30
0.0
 40
2.000000018410701
100
AcDbArc
 50
0.0
 51
90.0
  0
ARC
  5
AC
330
1F
100
AcDbEntity
  8
通り芯
  6
Continuous
 62
     3
370
     9
100
AcDbCircle
 10
-63.7511293208081
 20
-353.1336642851492
 30
0.0
 40
2.999999834073556
100
AcDbArc
 50
90.0
 51
130.0001678466797
  0
ARC
  5
AD
330
1F
100
AcDbEntity
  8
通り芯
  6
Continuous
 62
     3
370
     9
100
AcDbCircle
 10
-163.3424613918842
 20
-248.565719843166
 30
0.0
 40
0.5000000046026752
100
AcDbArc
 50
139.9989166259766
 51
179.9968109130859
  0
ARC
  5
AE
330
1F
100
AcDbEntity
  8
通り芯
  6
Continuous
 62
     3
370
     9
100
AcDbCircle
 10
-173.2707888271163
 20
-251.5373186708668
 30
0.0
 40
4.000000036821402
100
AcDbArc
 50
17.08061218261719
 51
91.16648864746094
  0
ARC
  5
AF
330
1F
100
AcDbEntity
  8
通り芯
  6
Continuous
 62
     3
370
     9
100
AcDbCircle
 10
-167.2586962367843
 20
-250.6757232224871
 30
0.0
 40
2.000000018410701
100
AcDbArc
 50
197.0808410644531
 51
271.1668395996094
  0
ARC
  5
B0
330
1F
100
AcDbEntity
  8
通り芯
  6
Continuous
 62
     3
370
     9
100
AcDbCircle
 10
-165.0904505014685
 20
-360.9953914068632
 30
0.0
 40
2.000000018410701
100
AcDbArc
 50
91.16683959960938
 51
162.3341369628907
  0
ARC
  5
B1
330
1F
100
AcDbEntity
  8
通り芯
  6
Continuous
 62
     3
370
     9
100
AcDbCircle
 10
-170.9149090618967
 20
-359.5117596689589
 30
0.0
 40
4.000000036821402
100
AcDbArc
 50
271.1666564941406
 51
342.3340454101562
  0
ARC
  5
B2
330
1F
100
AcDbEntity
  8
通り芯
  6
JWW_HOJO
 62
     3
370
     9
100
AcDbCircle
 10
-152.8431557257009
 20
-340.1332569520697
 30
0.0
 40
9.999998543713541
100
AcDbArc
 50
264.0760650634765
 51
269.2248382568359
  0
ARC
  5
B3
330
1F
100
AcDbEntity
  8
通り芯
  6
Continuous
 62
     3
370
     9
100
AcDbCircle
 10
-152.8429575381858
 20
-340.1334551395848
 30
0.0
 40
10.0000000920535
100
AcDbArc
 50
180.0
 51
270.0
  0
ARC
  5
B4
330
1F
100
AcDbEntity
  8
通り芯
  6
Continuous
 62
     3
370
     9
100
AcDbCircle
 10
-153.9784481324089
 20
-351.0744960034467
 30
0.0
 40
1.00000000920535
100
AcDbArc
 50
0.0
 51
84.07614135742189
  0
ARC
  5
B5
330
1F
100
AcDbEntity
  8
通り芯
  6
Continuous
 62
     3
370
     9
100
AcDbCircle
 10
-149.9784790623867
 20
-354.1334707518594
 30
0.0
 40
2.999999834073556
100
AcDbArc
 50
180.0
 51
270.0
  0
ARC
  5
B6
330
1F
100
AcDbEntity
  8
通り芯
  6
Continuous
 62
     3
370
     9
100
AcDbCircle
 10
-163.3429568606718
 20
-247.0101955841658
 30
0.0
 40
0.5000000046026752
100
AcDbArc
 50
320.0007019042969
 51
0.0000000000000064
  0
ARC
  5
B7
330
1F
100
AcDbEntity
  8
通り芯
  6
Continuous
 62
     3
370
     9
100
AcDbCircle
 10
-163.3429568606718
 20
-251.0904058243568
 30
0.0
 40
0.5000000046026752
100
AcDbArc
 50
0.0
 51
44.99798583984375
  0
ARC
  5
B8
330
1F
100
AcDbEntity
  8
通り芯
  6
Continuous
 62
     3
370
     9
100
AcDbCircle
 10
-74.3031033191246
 20
-354.1555191129122
 30
0.0
 40
2.999999834073556
100
AcDbArc
 50
271.1602172851562
 51
310.0001831054688
  0
ARC
  5
B9
330
1F
100
AcDbEntity
  8
通り芯
  6
Continuous
 62
     3
370
     9
100
AcDbCircle
 10
-59.71910342022147
 20
-350.633454462071
 30
0.0
 40
0.5000000046026752
100
AcDbArc
 50
90.0
 51
130.0014801025391
  0
ARC
  5
BA
330
1F
100
AcDbEntity
  8
通り芯
  6
Continuous
 62
     3
370
     9
100
AcDbCircle
 10
-63.80060187926051
 20
-350.633454462071
 30
0.0
 40
0.5000000046026752
100
AcDbArc
 50
45.00198364257812
 51
90.0
  0
ARC
  5
BB
330
1F
100
AcDbEntity
  8
通り芯
  6
Continuous
 62
     3
370
     9
100
AcDbCircle
 10
-174.0350742055907
 20
-359.5753035409822
 30
0.0
 40
4.000000036821402
100
AcDbArc
 50
197.1125488281251
 51
271.1668395996094
  0
ARC
  5
BC
330
1F
100
AcDbEntity
  8
通り芯
  6
Continuous
 62
     3
370
     9
100
AcDbCircle
 10
-176.2340513924639
 20
-251.5976419957699
 30
0.0
 40
4.000000036821402
100
AcDbArc
 50
91.16542053222656
 51
165.2220306396484
  0
ARC
  5
BD
330
1F
100
AcDbEntity
  8
通り芯
  6
Continuous
 62
     3
370
     9
100
AcDbCircle
 10
-172.8429267554934
 20
-237.52570908896
 30
0.0
 40
4.000000036821402
100
AcDbArc
 50
271.1664886474609
 51
0.0
  0
ARC
  5
BE
330
1F
100
AcDbEntity
  8
通り芯
  6
Continuous
 62
     3
370
     9
100
AcDbCircle
 10
-61.56700381084647
 20
-359.1334940229856
 30
0.0
 40
2.999999834073556
100
AcDbArc
 50
90.0
 51
130.0001831054688
  0
ARC
  5
BF
330
1F
100
AcDbEntity
  8
通り芯
  6
Continuous
 62
     3
370
     9
100
AcDbCircle
 10
-72.06673062549953
 20
-360.1114503161579
 30
0.0
 40
2.999999834073556
100
AcDbArc
 50
271.1602172851562
 51
310.0001831054688
  0
ARC
  5
C0
330
1F
100
AcDbEntity
  8
通り芯
  6
Continuous
 62
     3
370
     9
100
AcDbCircle
 10
32.05801698588152
 20
-361.1334537845572
 30
0.0
 40
5.000000046026752
100
AcDbArc
 50
11.3099365234375
 51
90.0
  0
ARC
  5
C1
330
1F
100
AcDbEntity
  8
通り芯
  6
Continuous
 62
     3
370
     9
100
AcDbCircle
 10
-173.8429561831581
 20
-157.4649886525987
 30
0.0
 40
5.000000046026752
100
AcDbArc
 50
0.0
 51
43.00076293945312
  0
ARC
  5
C2
330
1F
100
AcDbEntity
  8
通り芯
  6
Continuous
 62
     3
370
     9
100
AcDbCircle
 10
-164.1026343794208
 20
-359.3729788615228
 30
0.0
 40
10.0000000920535
100
AcDbArc
 50
271.1666259765626
 51
283.2264404296876
  0
ARC
  5
C3
330
1F
100
AcDbEntity
  8
通り芯
  6
Continuous
 62
     3
370
     9
100
AcDbCircle
 10
-140.9434323045082
 20
-379.6110703782016
 30
0.0
 40
14.9999985897403
100
AcDbArc
 50
91.24378967285156
 51
103.2264862060547
  0
LINE
  5
C4
330
1F
100
AcDbEntity
  8
通り芯
  6
Continuous
 62
     3
370
     9
100
AcDbLine
 10
-180.9952463117233
 20
-200.2312104606246
 30
0.0
 11
-171.3870175747077
 21
-198.7530214241606
 31
0.0
  0
ARC
  5
C5
330
1F
100
AcDbEntity
  8
通り芯
  6
Continuous
 62
     3
370
     9
100
AcDbCircle
 10
-171.8431891274695
 20
-195.7879063312087
 30
0.0
 40
3.0
100
AcDbArc
 50
278.7461622625552
 51
0.0
  0
LINE
  5
C6
330
1F
100
AcDbEntity
  8
通り芯
  6
Continuous
 62
     3
370
     9
100
AcDbLine
 10
-180.9952463117233
 20
-210.4920881643268
 30
0.0
 11
-171.3870175747077
 21
-211.9702772007907
 31
0.0
  0
ARC
  5
C7
330
1F
100
AcDbEntity
  8
通り芯
  6
Continuous
 62
     3
370
     9
100
AcDbCircle
 10
-171.8431891274695
 20
-214.9353922937426
 30
0.0
 40
3.0
100
AcDbArc
 50
0.0
 51
81.2538377374448
  0
LINE
  5
C8
330
1F
100
AcDbEntity
  8
通り芯
  6
Continuous
 62
     3
370
     9
100
AcDbLine
 10
-181.8431891274695
 20
-209.5037164666761
 30
0.0
 11
-181.8431891274695
 21
-201.2195821582752
 31
0.0
  0
ARC
  5
C9
330
1F
100
AcDbEntity
  8
通り芯
  6
Continuous
 62
     3
370
     9
100
AcDbCircle
 10
-180.8431891274695
 20
-209.5037164666761
 30
0.0
 40
1.0
100
AcDbArc
 50
180.0
 51
261.2538377374448
  0
ARC
  5
CA
330
1F
100
AcDbEntity
  8
通り芯
  6
Continuous
 62
     3
370
     9
100
AcDbCircle
 10
-180.8431891274695
 20
-201.2195821582752
 30
0.0
 40
1.0
100
AcDbArc
 50
98.74616226255519
 51
180.0
  0
LINE
  5
CB
330
1F
100
AcDbEntity
  8
通り芯
  6
JWW_CENTER1
 62
     4
370
     9
100
AcDbLine
 10
-186.8247730218034
 20
-205.3615626054379
 30
0.0
 11
-167.0787234079751
 21
-205.3615626054379
 31
0.0
  0
LINE
  5
CC
330
1F
100
AcDbEntity
  8
通り芯
  6
Continuous
 62
     3
370
     9
100
AcDbLine
 10
-173.8429561831581
 20
-211.5924404917983
 30
0.0
 11
-173.8429561831581
 21
-240.7060736903603
 31
0.0
  0
LINE
  5
CD
330
1F
100
AcDbEntity
  8
通り芯
  6
Continuous
 62
     3
370
     9
100
AcDbLine
 10
-173.8429561831581
 20
-145.1336375969969
 30
0.0
 11
-173.8429561831581
 21
-199.130858133153
 31
0.0
  0
ARC
  5
CE
330
1F
100
AcDbEntity
  8
通り芯
  6
Continuous
 62
     3
370
     9
100
AcDbCircle
 10
-27.43688767521212
 20
-359.1335647383821
 30
0.0
 40
3.0
100
AcDbArc
 50
8.7461622625552
 51
90.00000000000001
  0
ARC
  5
CF
330
1F
100
AcDbEntity
  8
通り芯
  6
Continuous
 62
     3
370
     9
100
AcDbCircle
 10
4.449517070143429
 20
-361.1335647383821
 30
0.0
 40
5.0
100
AcDbArc
 50
90.0
 51
130.0
  0
LINE
  5
D0
330
1F
100
AcDbEntity
  8
通り芯
  6
Continuous
 62
     3
370
     9
100
AcDbLine
 10
-22.99358354579635
 20
-368.2856219226361
 30
0.0
 11
-24.4717725822602
 21
-358.6773931856203
 31
0.0
  0
ARC
  5
D1
330
1F
100
AcDbEntity
  8
通り芯
  6
Continuous
 62
     3
370
     9
100
AcDbCircle
 10
-22.00521184814579
 20
-368.1335647383821
 30
0.0
 40
1.0
100
AcDbArc
 50
188.7461622625552
 51
270.0
  0
LINE
  5
D2
330
1F
100
AcDbEntity
  8
通り芯
  6
Continuous
 62
     3
370
     9
100
AcDbLine
 10
-13.22710103917848
 20
-369.1335647383821
 30
0.0
 11
-22.00521184814579
 21
-369.1335647383821
 31
0.0
  0
LINE
  5
D3
330
1F
100
AcDbEntity
  8
通り芯
  6
Continuous
 62
     3
370
     9
100
AcDbLine
 10
-12.58431342949189
 20
-368.8996091815011
 30
0.0
 11
1.235579021710691
 21
-357.3033425227873
 31
0.0
  0
ARC
  5
D4
330
1F
100
AcDbEntity
  8
通り芯
  6
Continuous
 62
     3
370
     9
100
AcDbCircle
 10
-13.22710103917848
 20
-368.1335647383821
 30
0.0
 40
1.0
100
AcDbArc
 50
270.0
 51
310.0000000000001
  0
LINE
  5
D5
330
1F
100
AcDbEntity
  8
通り芯
  6
JWW_CENTER1
 62
     4
370
     9
100
AcDbLine
 10
-17.61615644366202
 20
-376.7389545617273
 30
0.0
 11
-17.61615644366202
 21
-354.6430530437518
 31
0.0
  0
LINE
  5
D6
330
1F
100
AcDbEntity
  8
通り芯
  6
Continuous
 62
     3
370
     9
100
AcDbLine
 10
-68.61757420676918
 20
-361.1334537845572
 30
0.0
 11
-24.09391710550062
 21
-361.1334537845572
 31
0.0
  0
LINE
  5
D7
330
1F
100
AcDbEntity
  8
通り芯
  6
Continuous
 62
     3
370
     9
100
AcDbLine
 10
-3.328969834539066
 20
-361.1334537845572
 30
0.0
 11
42.1569838715991
 21
-361.1334537845572
 31
0.0
  0
LINE
  5
D8
330
1F
100
AcDbEntity
  8
通り芯
  6
Continuous
 62
     3
370
     9
100
AcDbLine
 10
-180.1017055227294
 20
-250.5773726681276
 30
0.0
 11
-180.7514635070449
 21
-253.0398312711052
 31
0.0
  0
LINE
  5
D9
330
1F
100
AcDbEntity
  8
通り芯
  6
Continuous
 62
     3
370
     9
100
AcDbLine
 10
-177.8579998910463
 20
-360.752314419615
 30
0.0
 11
-178.6074961307315
 21
-358.3180028162554
 31
0.0
  0
LINE
  5
DA
330
1F
100
AcDbEntity
  8
通り芯
  6
Continuous
 62
     3
370
     9
100
AcDbLine
 10
-178.578795586885
 20
-358.3211200175273
 30
0.0
 11
-180.7227849791886
 21
-253.0373919048023
 31
0.0
  0
LINE
  5
DB
330
1F
100
AcDbEntity
  8
通り芯
  6
Continuous
 62
     3
370
     9
100
AcDbLine
 10
-176.998137527313
 20
-362.2623569543024
 30
0.0
 11
-179.3041238080532
 21
-249.0335328604934
 31
0.0
  0
LINE
  5
DC
330
1F
100
AcDbEntity
  8
通り芯
  6
Continuous
 62
     3
370
     9
100
AcDbLine
 10
-167.996622954729
 20
-362.2473777876451
 30
0.0
 11
-170.3059035711187
 21
-248.8522757078327
 31
0.0
  0
LINE
  5
DD
330
1F
100
AcDbEntity
  8
通り芯
  6
Continuous
 62
     3
370
     9
100
AcDbLine
 10
-200.4296874127599
 20
-362.6281593668469
 30
0.0
 11
-177.5697251136935
 21
-361.4475320661725
 31
0.0
  0
LINE
  5
DE
330
1F
100
AcDbEntity
  8
通り芯
  6
Continuous
 62
     3
370
     9
100
AcDbLine
 10
-202.7313021564582
 20
-249.6216066565567
 30
0.0
 11
-179.8419650049518
 21
-249.8706310684951
 31
0.0
  0
LINE
  5
DF
330
1F
100
AcDbEntity
  8
通り芯
  6
Continuous
 62
     3
370
     9
100
AcDbLine
 10
-200.3179963893704
 20
-368.1120560773182
 30
0.0
 11
-202.8429920619324
 21
-244.1377648343241
 31
0.0
  0
LINE
  5
E0
330
1F
100
AcDbEntity
  8
0-A
  6
Continuous
 62
     2
370
     9
100
AcDbLine
 10
-186.043278040846
 20
-199.3612621722532
 30
0.0
 11
-183.4432560304845
 21
-199.3612621722532
 31
0.0
  0
LINE
  5
E1
330
1F
100
AcDbEntity
  8
0-A
  6
Continuous
 62
     2
370
     9
100
AcDbLine
 10
-186.043278040846
 20
-211.3615162104711
 30
0.0
 11
-183.4432560304845
 21
-211.3615162104711
 31
0.0
  0
LINE
  5
E2
330
1F
100
AcDbEntity
  8
0-A
  6
Continuous
 62
     2
370
     9
100
AcDbLine
 10
-186.043278040846
 20
-205.8406561497093
 30
0.0
 11
-186.043278040846
 21
-204.8824690611664
 31
0.0
  0
LINE
  5
E3
330
1F
100
AcDbEntity
  8
0-A
  6
Continuous
 62
     2
370
     9
100
AcDbLine
 10
-188.0318915671792
 20
-204.8824690611664
 30
0.0
 11
-186.043278040846
 21
-204.8824690611664
 31
0.0
  0
LINE
  5
E4
330
1F
100
AcDbEntity
  8
0-A
  6
Continuous
 62
     2
370
     9
100
AcDbLine
 10
-188.0318915671792
 20
-205.8406561497093
 30
0.0
 11
-186.043278040846
 21
-205.8406561497093
 31
0.0
  0
LINE
  5
E5
330
1F
100
AcDbEntity
  8
0-8
  6
Continuous
 62
     2
370
     9
100
AcDbLine
 10
-183.4432560304845
 20
-190.8617428535659
 30
0.0
 11
-183.4432560304845
 21
-220.3616076453771
 31
0.0
  0
LINE
  5
E6
330
1F
100
AcDbEntity
  8
0-8
  6
Continuous
 62
     2
370
     9
100
AcDbLine
 10
-181.8431891274695
 20
-190.8617428535659
 30
0.0
 11
-181.8431891274695
 21
-220.3616076453771
 31
0.0
  0
LINE
  5
E7
330
1F
100
AcDbEntity
  8
0-8
  6
Continuous
 62
     2
370
     9
100
AcDbLine
 10
-183.4432560304845
 20
-220.3616076453771
 30
0.0
 11
-181.8431891274695
 21
-220.3616076453771
 31
0.0
  0
ARC
  5
E8
330
1F
100
AcDbEntity
  8
0-A
  6
Continuous
 62
     2
370
     9
100
AcDbCircle
 10
-178.0433399008016
 20
-205.3615873788772
 30
0.0
 40
10.00000009205351
100
AcDbArc
 50
143.130126953125
 51
177.254379272461
  0
ARC
  5
E9
330
1F
100
AcDbEntity
  8
0-A
  6
Continuous
 62
     2
370
     9
100
AcDbCircle
 10
-178.0433399008016
 20
-205.3615873788772
 30
0.0
 40
10.00000009205351
100
AcDbArc
 50
182.745620727539
 51
216.869873046875
  0
ARC
  5
EA
330
1F
100
AcDbEntity
  8
0-8
  6
Continuous
 62
     2
370
     9
100
AcDbCircle
 10
-183.9430849435216
 20
-190.8617428535659
 30
0.0
 40
0.5000000046026752
100
AcDbArc
 50
0.0
 51
90.0
  0
ARC
  5
EB
330
1F
100
AcDbEntity
  8
0-8
  6
Continuous
 62
     2
370
     9
100
AcDbCircle
 10
-183.9430849435216
 20
-190.8617428535659
 30
0.0
 40
2.099999941914238
100
AcDbArc
 50
0.0
 51
90.0
  0
LINE
  5
EC
330
1F
100
AcDbEntity
  8
その他
  6
Continuous
 62
     7
370
     9
100
AcDbLine
 10
-261.1674868551731
 20
-252.2909046557597
 30
0.0
 11
-258.9264539987355
 21
-362.3400937029891
 31
0.0
  0
TEXT
  5
ED
330
1F
100
AcDbEntity
  8
その他
  6
Continuous
 62
     2
370
   211
100
AcDbText
 10
-265.5643176469415
 20
-323.7682216576698
 30
0.0
 40
12.192
  1
Rc4
 50
90.00000002000002
 41
1.083333333333333
  7
ＭＳ ゴシック
100
AcDbText
  0
LINE
  5
EE
330
1F
100
AcDbEntity
  8
その他
  6
Continuous
 62
     7
370
     9
100
AcDbLine
 10
-269.165828613983
 20
-252.4537822456238
 30
0.0
 11
-206.700356321689
 21
-251.1817403795101
 31
0.0
  0
LINE
  5
EF
330
1F
100
AcDbEntity
  8
その他
  6
Continuous
 62
     7
370
     9
100
AcDbLine
 10
-266.9247957575453
 20
-362.5029712928532
 30
0.0
 11
-204.45897461755
 21
-361.2309223228328
 31
0.0
  0
LWPOLYLINE
  5
F0
330
1F
100
AcDbEntity
  8
その他
  6
Continuous
 62
     7
370
     9
100
AcDbPolyline
 90
        4
 70
     1
 43
0.8
 10
-260.7674868551732
 20
-252.2909046557597
 42
0.4142135623731
 10
-261.1674868551731
 20
-251.8909046557597
 42
0.4142135623731
 10
-261.5674868551731
 20
-252.2909046557597
 42
0.4142135623731
 10
-261.1674868551731
 20
-252.6909046557597
 42
0.4142135623731
  0
LWPOLYLINE
  5
F1
330
1F
100
AcDbEntity
  8
その他
  6
Continuous
 62
     7
370
     9
100
AcDbPolyline
 90
        4
 70
     1
 43
0.8
 10
-258.5264539987355
 20
-362.3400937029891
 42
0.4142135623731
 10
-258.9264539987355
 20
-361.9400937029891
 42
0.4142135623731
 10
-259.3264539987355
 20
-362.3400937029891
 42
0.4142135623731
 10
-258.9264539987355
 20
-362.740093702989
 42
0.4142135623731
  0
LINE
  5
F2
330
1F
100
AcDbEntity
  8
0-F
  6
JWW_CENTER1
 62
     7
370
     9
100
AcDbLine
 10
-162.8429297601199
 20
-305.3360397846421
 30
0.0
 11
-236.4026426106702
 21
-305.3360397846421
 31
0.0
  0
LINE
  5
F3
330
1F
100
AcDbEntity
  8
通り芯
  6
JWW_CENTER1
 62
     3
370
     9
100
AcDbLine
 10
-236.3721474379606
 20
-306.8334663078078
 30
0.0
 11
-157.2884521421124
 21
-305.2229225453974
 31
0.0
  0
TEXT
  5
F4
330
1F
100
AcDbEntity
  8
その他
  6
Continuous
 62
     2
370
     9
100
AcDbText
 10
-233.7314215116494
 20
-353.5594091972157
 30
0.0
 40
12.192
  1
1ﾟ10'
 50
90.58335496
 41
1.100000000000001
  7
ＭＳ ゴシック
100
AcDbText
  0
ARC
  5
F5
330
1F
100
AcDbEntity
  8
その他
  6
Continuous
 62
     7
370
     9
100
AcDbCircle
 10
-180.5562766887012
 20
-305.3360397846421
 30
0.0
 40
45.0840832818559
100
AcDbArc
 50
156.6340206435594
 51
202.7846029352762
  0
LINE
  5
F6
330
1F
100
AcDbEntity
  8
その他
  6
Continuous
 62
     7
370
     9
100
AcDbLine
 10
-225.6400556066565
 20
-305.343013767509
 30
0.0
 11
-223.0426100339914
 21
-293.6274808681459
 31
0.0
  0
LINE
  5
F7
330
1F
100
AcDbEntity
  8
その他
  6
Continuous
 62
     7
370
     9
100
AcDbLine
 10
-225.6400556066565
 20
-305.343013767509
 30
0.0
 11
-226.1632706464734
 21
-293.3544280192416
 31
0.0
  0
LINE
  5
F8
330
1F
100
AcDbEntity
  8
その他
  6
Continuous
 62
     7
370
     9
100
AcDbLine
 10
-225.6279648673255
 20
-306.6146604445182
 30
0.0
 11
-225.9070128885612
 21
-318.6113966543434
 31
0.0
  0
LINE
  5
F9
330
1F
100
AcDbEntity
  8
その他
  6
Continuous
 62
     7
370
     9
100
AcDbLine
 10
-225.6279648673255
 20
-306.6146604445182
 30
0.0
 11
-222.7926942765619
 21
-318.274874253734
 31
0.0
  0
LINE
  5
FA
330
1F
100
AcDbEntity
  8
0-A
  6
Continuous
 62
     2
370
     9
100
AcDbLine
 10
-11.61612851831069
 20
-373.3338022923947
 30
0.0
 11
-11.61612851831069
 21
-370.7338298289121
 31
0.0
  0
LINE
  5
FB
330
1F
100
AcDbEntity
  8
0-A
  6
Continuous
 62
     2
370
     9
100
AcDbLine
 10
-23.61618436901381
 20
-373.3338022923947
 30
0.0
 11
-23.61618436901381
 21
-370.7338298289121
 31
0.0
  0
LINE
  5
FC
330
1F
100
AcDbEntity
  8
0-A
  6
Continuous
 62
     2
370
     9
100
AcDbLine
 10
-18.09527476137328
 20
-373.3338022923947
 30
0.0
 11
-17.13723631346647
 21
-373.3338022923947
 31
0.0
  0
LINE
  5
FD
330
1F
100
AcDbEntity
  8
0-A
  6
Continuous
 62
     2
370
     9
100
AcDbLine
 10
-17.13723631346647
 20
-375.3223662718492
 30
0.0
 11
-17.13723631346647
 21
-373.3338022923947
 31
0.0
  0
LINE
  5
FE
330
1F
100
AcDbEntity
  8
0-A
  6
Continuous
 62
     2
370
     9
100
AcDbLine
 10
-18.09527476137328
 20
-375.3223662718492
 30
0.0
 11
-18.09527476137328
 21
-373.3338022923947
 31
0.0
  0
LINE
  5
FF
330
1F
100
AcDbEntity
  8
0-8
  6
Continuous
 62
     2
370
     9
100
AcDbLine
 10
-3.116460558987001
 20
-370.7337307351545
 30
0.0
 11
-32.61647399143476
 21
-370.7337307351545
 31
0.0
  0
LINE
  5
100
330
1F
100
AcDbEntity
  8
0-8
  6
Continuous
 62
     2
370
     9
100
AcDbLine
 10
-3.116460558987001
 20
-369.1335647383821
 30
0.0
 11
-32.61647399143476
 21
-369.1335647383821
 31
0.0
  0
LINE
  5
101
330
1F
100
AcDbEntity
  8
0-8
  6
Continuous
 62
     2
370
     9
100
AcDbLine
 10
-32.61647399143476
 20
-370.7337307351545
 30
0.0
 11
-32.61647399143476
 21
-369.1335647383821
 31
0.0
  0
ARC
  5
102
330
1F
100
AcDbEntity
  8
0-A
  6
Continuous
 62
     2
370
     9
100
AcDbCircle
 10
-17.61625553741987
 20
-365.333715511714
 30
0.0
 40
10.00000009205351
100
AcDbArc
 50
272.7456207275391
 51
306.869873046875
  0
ARC
  5
103
330
1F
100
AcDbEntity
  8
0-A
  6
Continuous
 62
     2
370
     9
100
AcDbCircle
 10
-17.61625553741987
 20
-365.333715511714
 30
0.0
 40
10.00000009205351
100
AcDbArc
 50
233.130126953125
 51
267.2543792724609
  0
ARC
  5
104
330
1F
100
AcDbEntity
  8
0-8
  6
Continuous
 62
     2
370
     9
100
AcDbCircle
 10
-3.116460558987001
 20
-371.2335596481914
 30
0.0
 40
0.5000000046026752
100
AcDbArc
 50
0.0
 51
90.0
  0
ARC
  5
105
330
1F
100
AcDbEntity
  8
0-8
  6
Continuous
 62
     2
370
     9
100
AcDbCircle
 10
-3.116460558987001
 20
-371.2335596481914
 30
0.0
 40
2.099999941914238
100
AcDbArc
 50
0.0
 51
90.0
  0
LINE
  5
106
330
1F
100
AcDbEntity
  8
躯体
  6
Continuous
 62
     2
370
     9
100
AcDbLine
 10
-162.4929453515606
 20
-342.7580205916333
 30
0.0
 11
-162.4929453515606
 21
-200.0655366233773
 31
0.0
  0
ARC
  5
107
330
1F
100
AcDbEntity
  8
躯体
  6
Continuous
 62
     2
370
     9
100
AcDbCircle
 10
-131.9052292894639
 20
-342.1857045949552
 30
0.0
 40
2.999999834073556
100
AcDbArc
 50
0.0
 51
45.0
  0
LINE
  5
108
330
1F
100
AcDbEntity
  8
仕上
  6
Continuous
 62
     6
370
     9
100
AcDbLine
 10
-149.4930334872688
 20
-225.2818755579627
 30
0.0
 11
-148.4929792861647
 21
-225.2818755579627
 31
0.0
  0
LINE
  5
109
330
1F
100
AcDbEntity
  8
仕上
  6
Continuous
 62
     6
370
     9
100
AcDbLine
 10
-41.49300152629166
 20
-332.2818780912752
 30
0.0
 11
-41.49300152629166
 21
-333.2818579720609
 31
0.0
  0
LINE
  5
10A
330
1F
100
AcDbEntity
  8
仕上
  6
Continuous
 62
     6
370
     9
100
AcDbLine
 10
-41.49300152629166
 20
-332.2818780912752
 30
0.0
 11
-148.4929792861647
 21
-225.2818755579627
 31
0.0
  0
LINE
  5
10B
330
1F
100
AcDbEntity
  8
仕上
  6
Continuous
 62
     6
370
     9
100
AcDbLine
 10
-126.6009634092475
 20
-256.1275822178172
 30
0.0
 11
-144.8388722034001
 21
-255.4260975081844
 31
0.0
  0
LINE
  5
10C
330
1F
100
AcDbEntity
  8
仕上
  6
Continuous
 62
     6
370
     9
100
AcDbLine
 10
-100.3819195155438
 20
-332.2818780912752
 30
0.0
 11
-95.02188862327102
 21
-332.2818780912752
 31
0.0
  0
LINE
  5
10D
330
1F
100
AcDbEntity
  8
仕上
  6
Continuous
 62
     6
370
     9
100
AcDbLine
 10
-67.88533562849511
 20
-332.2818780912752
 30
0.0
 11
-61.01615635575149
 21
-332.2818780912752
 31
0.0
  0
LINE
  5
10E
330
1F
100
AcDbEntity
  8
仕上
  6
Continuous
 62
     6
370
     9
100
AcDbLine
 10
-78.6487261585255
 20
-302.1972114893356
 30
0.0
 11
-102.5507598134047
 21
-327.209194322432
 31
0.0
  0
LINE
  5
10F
330
1F
100
AcDbEntity
  8
仕上
  6
Continuous
 62
     6
370
     9
100
AcDbLine
 10
-62.03179305022877
 20
-318.8141693710717
 30
0.0
 11
-70.05429979355313
 21
-327.2092190958714
 31
0.0
  0
LINE
  5
110
330
1F
100
AcDbEntity
  8
仕上
  6
Continuous
 62
     6
370
     9
100
AcDbLine
 10
-54.0610875686591
 20
-326.7849243995202
 30
0.0
 11
-58.94358564334152
 21
-331.4507291998998
 31
0.0
  0
LINE
  5
111
330
1F
100
AcDbEntity
  8
仕上
  6
Continuous
 62
     6
370
     9
100
AcDbLine
 10
-70.67804545039508
 20
-310.1679169709054
 30
0.0
 11
-92.94924359054312
 21
-331.4507291998998
 31
0.0
  0
LINE
  5
112
330
1F
100
AcDbEntity
  8
仕上
  6
Continuous
 62
     6
370
     9
100
AcDbLine
 10
-110.8229580522932
 20
-270.0230043690073
 30
0.0
 11
-147.6619047151075
 21
-308.5726561151312
 31
0.0
  0
LINE
  5
113
330
1F
100
AcDbEntity
  8
仕上
  6
Continuous
 62
     6
370
     9
100
AcDbLine
 10
-118.4082879107859
 20
-262.4376249636358
 30
0.0
 11
-143.4203450642003
 21
-286.3396586185153
 31
0.0
  0
LINE
  5
114
330
1F
100
AcDbEntity
  8
仕上
  6
Continuous
 62
     6
370
     9
100
AcDbLine
 10
-127.9176221656951
 20
-256.0768957608351
 30
0.0
 11
-147.6619047151075
 21
-276.7381423956534
 31
0.0
  0
LINE
  5
115
330
1F
100
AcDbEntity
  8
仕上
  6
Continuous
 62
     6
370
     9
100
AcDbLine
 10
-144.646729407528
 20
-250.4298397998448
 30
0.0
 11
-122.4929821435055
 21
-251.2818974740613
 31
0.0
  0
LINE
  5
116
330
1F
100
AcDbEntity
  8
躯体
  6
Continuous
 62
     2
370
     9
100
AcDbLine
 10
-10.8489258895936
 20
-349.0803757368262
 30
0.0
 11
-10.49300588594565
 21
-348.7818310187946
 31
0.0
  0
LINE
  5
117
330
1F
100
AcDbEntity
  8
躯体
  6
Continuous
 62
     2
370
     9
100
AcDbLine
 10
-37.78971916634737
 20
-345.781891376437
 30
0.0
 11
-11.49298576673164
 21
-345.781891376437
 31
0.0
  0
LINE
  5
118
330
1F
100
AcDbEntity
  8
躯体
  6
Continuous
 62
     2
370
     9
100
AcDbLine
 10
-40.08785204436003
 20
-340.8534881185736
 30
0.0
 11
-34.99302082070653
 21
-334.7818649533989
 31
0.0
  0
LINE
  5
119
330
1F
100
AcDbEntity
  8
躯体
  6
Continuous
 62
     2
370
     9
100
AcDbLine
 10
-68.20233655886886
 20
-345.3138963330101
 30
0.0
 11
-65.14645849037947
 21
-342.7496967159999
 31
0.0
  0
LINE
  5
11A
330
1F
100
AcDbEntity
  8
躯体
  6
Continuous
 62
     2
370
     9
100
AcDbLine
 10
-49.65899603053549
 20
-342.2818007663305
 30
0.0
 11
-63.8608408534817
 21
-342.2818007663305
 31
0.0
  0
LINE
  5
11B
330
1F
100
AcDbEntity
  8
躯体
  6
Continuous
 62
     2
370
     9
100
AcDbLine
 10
-149.7720567350648
 20
-215.3779499605251
 30
0.0
 11
-147.4929746319394
 21
-213.7818715812512
 31
0.0
  0
LINE
  5
11C
330
1F
100
AcDbEntity
  8
躯体
  6
Continuous
 62
     2
370
     9
100
AcDbLine
 10
-161.7910890403368
 20
-198.137172101629
 30
0.0
 11
-161.4930645645322
 21
-197.7819705277232
 31
0.0
  0
LINE
  5
11D
330
1F
100
AcDbEntity
  8
躯体
  6
Continuous
 62
     2
370
     9
100
AcDbLine
 10
-155.492541170393
 20
-197.7819705277232
 30
0.0
 11
-161.492668189502
 21
-197.7819705277232
 31
0.0
  0
LINE
  5
11E
330
1F
100
AcDbEntity
  8
躯体
  6
Continuous
 62
     2
370
     9
100
AcDbLine
 10
-154.4929576646373
 20
-212.9206229610228
 30
0.0
 11
-154.4929576646373
 21
-198.8106628247565
 31
0.0
  0
LINE
  5
11F
330
1F
100
AcDbEntity
  8
躯体
  6
Continuous
 62
     2
370
     9
100
AcDbLine
 10
-161.6142314565654
 20
-254.6606230046194
 30
0.0
 11
-161.4930150176535
 21
-254.7820128576072
 31
0.0
  0
LINE
  5
120
330
1F
100
AcDbEntity
  8
仕上
  6
Continuous
 62
     6
370
     9
100
AcDbLine
 10
-149.4930334872688
 20
-225.2818755579627
 30
0.0
 11
-154.99295999175
 21
-231.8364073770743
 31
0.0
  0
LINE
  5
121
330
1F
100
AcDbEntity
  8
躯体
  6
Continuous
 62
     2
370
     9
100
AcDbLine
 10
-156.9677003920276
 20
-321.1943023334495
 30
0.0
 11
-162.4924746562122
 21
-321.1943023334495
 31
0.0
  0
LINE
  5
122
330
1F
100
AcDbEntity
  8
躯体
  6
Continuous
 62
     2
370
     9
100
AcDbLine
 10
-154.8967399531778
 20
-316.1942790623233
 30
0.0
 11
-162.4924746562122
 21
-316.1942790623233
 31
0.0
  0
LINE
  5
123
330
1F
100
AcDbEntity
  8
躯体
  6
Continuous
 62
     2
370
     9
100
AcDbLine
 10
-158.4929515080989
 20
-316.1942790623233
 30
0.0
 11
-158.4929515080989
 21
-251.206710085527
 31
0.0
  0
LINE
  5
124
330
1F
100
AcDbEntity
  8
躯体
  6
Continuous
 62
     2
370
     9
100
AcDbLine
 10
-69.8716452249655
 20
-348.9029483639491
 30
0.0
 11
-69.99298553107451
 21
-348.7816080578401
 31
0.0
  0
LINE
  5
125
330
1F
100
AcDbEntity
  8
躯体
  6
Continuous
 62
     2
370
     9
100
AcDbLine
 10
-66.97558061395034
 20
-346.249762552667
 30
0.0
 11
-69.99298553107451
 21
-348.7816080578401
 31
0.0
  0
LINE
  5
126
330
1F
100
AcDbEntity
  8
躯体
  6
Continuous
 62
     2
370
     9
100
AcDbLine
 10
-43.28065291233179
 20
-334.7818649533989
 30
0.0
 11
-34.99302082070653
 21
-334.7818649533989
 31
0.0
  0
LINE
  5
127
330
1F
100
AcDbEntity
  8
仕上
  6
Continuous
 62
     6
370
     9
100
AcDbLine
 10
-86.23413033733618
 20
-294.6119064042823
 30
0.0
 11
-124.7838316303389
 21
-331.450803520218
 31
0.0
  0
LINE
  5
128
330
1F
100
AcDbEntity
  8
0-A
  6
Continuous
 62
     2
370
     9
100
AcDbLine
 10
-132.3463946980366
 20
-335.2389596834962
 30
0.0
 11
-147.9028016396899
 21
-319.6824784215248
 31
0.0
  0
LINE
  5
129
330
1F
100
AcDbEntity
  8
0-A
  6
Continuous
 62
     2
370
     9
100
AcDbLine
 10
-149.0341798429749
 20
-320.813782304492
 30
0.0
 11
-147.9028016396899
 21
-319.6824784215248
 31
0.0
  0
LINE
  5
12A
330
1F
100
AcDbEntity
  8
0-A
  6
Continuous
 62
     2
370
     9
100
AcDbLine
 10
-133.4778472216399
 20
-336.370313113342
 30
0.0
 11
-132.3463946980366
 21
-335.2389596834962
 31
0.0
  0
LINE
  5
12B
330
1F
100
AcDbEntity
  8
0-A
  6
Continuous
 62
     2
370
     9
100
AcDbLine
 10
-146.6300414178329
 20
-320.9552881902605
 30
0.0
 11
-144.8622335567404
 21
-319.187604196365
 31
0.0
  0
LINE
  5
12C
330
1F
100
AcDbEntity
  8
0-A
  6
Continuous
 62
     2
370
     9
100
AcDbLine
 10
-133.6191549198934
 20
-333.9661499147605
 30
0.0
 11
-131.8513966056798
 21
-332.1984163739862
 31
0.0
  0
LINE
  5
12D
330
1F
100
AcDbEntity
  8
0-A
  6
Continuous
 62
     2
370
     9
100
AcDbLine
 10
-136.7922856769933
 20
-317.2093955145735
 30
0.0
 11
-141.8162896374445
 21
-322.2333994750246
 31
0.0
  0
LINE
  5
12E
330
1F
100
AcDbEntity
  8
0-A
  6
Continuous
 62
     2
370
     9
100
AcDbLine
 10
-129.8732870176459
 20
-324.1283198536029
 30
0.0
 11
-134.8972909780971
 21
-329.1524972281296
 31
0.0
  0
LINE
  5
12F
330
1F
100
AcDbEntity
  8
0-A
  6
Continuous
 62
     2
370
     9
100
AcDbLine
 10
-137.8945303155615
 20
-314.8414015374944
 30
0.0
 11
-127.5054664546426
 21
-325.2306883593679
 31
0.0
  0
LINE
  5
130
330
1F
100
AcDbEntity
  8
0-A
  6
Continuous
 62
     2
370
     9
100
AcDbLine
 10
-140.2623756520043
 20
-313.7392807661232
 30
0.0
 11
-145.2863796124554
 21
-318.7631856328168
 31
0.0
  0
LINE
  5
131
330
1F
100
AcDbEntity
  8
0-A
  6
Continuous
 62
     2
370
     9
100
AcDbLine
 10
-131.4271762296466
 20
-332.6225376562618
 30
0.0
 11
-145.2863796124554
 21
-318.7631856328168
 31
0.0
  0
LINE
  5
132
330
1F
100
AcDbEntity
  8
0-A
  6
Continuous
 62
     2
370
     9
100
AcDbLine
 10
-126.4031227223168
 20
-327.5985832426894
 30
0.0
 11
-131.4271762296466
 21
-332.6225376562618
 31
0.0
  0
LINE
  5
133
330
1F
100
AcDbEntity
  8
0-A
  6
Continuous
 62
     2
370
     9
100
AcDbLine
 10
-141.591644089099
 20
-325.9937102924339
 30
0.0
 11
-139.8238857748852
 21
-324.2257290172656
 31
0.0
  0
LINE
  5
134
330
1F
100
AcDbEntity
  8
0-A
  6
Continuous
 62
     2
370
     9
100
AcDbLine
 10
-142.2987523694724
 20
-325.2865276917423
 30
0.0
 11
-140.5310188286981
 21
-323.5185959634529
 31
0.0
  0
LINE
  5
135
330
1F
100
AcDbEntity
  8
仕上
  6
Continuous
 62
     6
370
     9
100
AcDbLine
 10
-101.7907602399439
 20
-279.0551278610383
 30
0.0
 11
-138.6351570594231
 21
-314.2644033607725
 31
0.0
  0
LINE
  5
136
330
1F
100
AcDbEntity
  8
躯体
  6
Continuous
 62
     2
370
     9
100
AcDbLine
 10
-52.82357995104735
 20
-345.5479310148827
 30
0.0
 11
-39.99296977151448
 21
-334.7818649533989
 31
0.0
  0
LINE
  5
137
330
1F
100
AcDbEntity
  8
躯体
  6
Continuous
 62
     2
370
     9
100
AcDbLine
 10
-53.46637638277662
 20
-345.781891376437
 30
0.0
 11
-37.78971916634737
 21
-345.781891376437
 31
0.0
  0
LINE
  5
138
330
1F
100
AcDbEntity
  8
仕上
  6
Continuous
 62
     6
370
     9
100
AcDbLine
 10
-95.80889124566193
 20
-285.0370464021991
 30
0.0
 11
-52.45319225879848
 21
-328.3928197093808
 31
0.0
  0
LINE
  5
139
330
1F
100
AcDbEntity
  8
仕上
  6
Continuous
 62
     6
370
     9
100
AcDbLine
 10
-101.6424664317838
 20
-280.2286456847179
 30
0.0
 11
-98.52849464793599
 21
-275.2463849696309
 31
0.0
  0
LINE
  5
13A
330
1F
100
AcDbEntity
  8
仕上
  6
Continuous
 62
     6
370
     9
100
AcDbLine
 10
-96.43977165304682
 20
-285.4313156900155
 30
0.0
 11
-91.4574613910811
 21
-282.3174182264858
 31
0.0
  0
LINE
  5
13B
330
1F
100
AcDbEntity
  8
仕上
  6
Continuous
 62
     6
370
     9
100
AcDbLine
 10
-97.6768333487496
 20
-285.2904291402315
 30
0.0
 11
-101.5015303351211
 21
-281.4657817007387
 31
0.0
  0
LINE
  5
13C
330
1F
100
AcDbEntity
  8
躯体
  6
Continuous
 62
     2
370
     9
100
AcDbLine
 10
-154.291078907087
 20
-226.8835279610982
 30
0.0
 11
-147.4929746319394
 21
-218.7818453054986
 31
0.0
  0
LINE
  5
13D
330
1F
100
AcDbEntity
  8
躯体
  6
Continuous
 62
     2
370
     9
100
AcDbLine
 10
-155.2269203533044
 20
-247.3144807033914
 30
0.0
 11
-161.4930150176535
 21
-254.7820128576072
 31
0.0
  0
LINE
  5
13E
330
1F
100
AcDbEntity
  8
仕上
  6
Continuous
 62
     4
370
     9
100
AcDbLine
 10
-145.8930068226821
 20
-234.2814219772021
 30
0.0
 11
-148.4929792861647
 21
-234.2814219772021
 31
0.0
  0
LINE
  5
13F
330
1F
100
AcDbEntity
  8
仕上
  6
Continuous
 62
     4
370
     9
100
AcDbLine
 10
-145.8930068226821
 20
-246.2815769216625
 30
0.0
 11
-148.4929792861647
 21
-246.2815769216625
 31
0.0
  0
LINE
  5
140
330
1F
100
AcDbEntity
  8
仕上
  6
Continuous
 62
     4
370
     9
100
AcDbLine
 10
-145.8930068226821
 20
-240.7606177671431
 30
0.0
 11
-145.8930068226821
 21
-239.8025793192365
 31
0.0
  0
LINE
  5
141
330
1F
100
AcDbEntity
  8
仕上
  6
Continuous
 62
     4
370
     9
100
AcDbLine
 10
-160.4929608165494
 20
-237.2814854867566
 30
0.0
 11
-160.4929608165494
 21
-243.2815629589867
 31
0.0
  0
LINE
  5
142
330
1F
100
AcDbEntity
  8
仕上
  6
Continuous
 62
     4
370
     9
100
AcDbLine
 10
-150.493038141494
 20
-237.2814854867566
 30
0.0
 11
-160.4929608165494
 21
-237.2814854867566
 31
0.0
  0
LINE
  5
143
330
1F
100
AcDbEntity
  8
仕上
  6
Continuous
 62
     4
370
     9
100
AcDbLine
 10
-150.493038141494
 20
-243.2815629589867
 30
0.0
 11
-160.4929608165494
 21
-243.2815629589867
 31
0.0
  0
LINE
  5
144
330
1F
100
AcDbEntity
  8
仕上
  6
Continuous
 62
     4
370
     9
100
AcDbLine
 10
-150.493038141494
 20
-238.1515782248456
 30
0.0
 11
-160.4929608165494
 21
-238.1515782248456
 31
0.0
  0
LINE
  5
145
330
1F
100
AcDbEntity
  8
仕上
  6
Continuous
 62
     4
370
     9
100
AcDbLine
 10
-150.493038141494
 20
-242.4114702208978
 30
0.0
 11
-160.4929608165494
 21
-242.4114702208978
 31
0.0
  0
LINE
  5
146
330
1F
100
AcDbEntity
  8
仕上
  6
Continuous
 62
     4
370
     9
100
AcDbLine
 10
-150.493038141494
 20
-242.4114702208978
 30
0.0
 11
-148.6204881786807
 21
-243.4637468322259
 31
0.0
  0
LINE
  5
147
330
1F
100
AcDbEntity
  8
仕上
  6
Continuous
 62
     4
370
     9
100
AcDbLine
 10
-150.493038141494
 20
-243.2815629589867
 30
0.0
 11
-149.7291491380497
 21
-242.8406452848079
 31
0.0
  0
LINE
  5
148
330
1F
100
AcDbEntity
  8
仕上
  6
Continuous
 62
     4
370
     9
100
AcDbLine
 10
-150.493038141494
 20
-238.1515782248456
 30
0.0
 11
-148.6204881786807
 21
-237.0995493479113
 31
0.0
  0
LINE
  5
149
330
1F
100
AcDbEntity
  8
仕上
  6
Continuous
 62
     4
370
     9
100
AcDbLine
 10
-150.493038141494
 20
-237.2814854867566
 30
0.0
 11
-149.7291491380497
 21
-237.7224031609353
 31
0.0
  0
LINE
  5
14A
330
1F
100
AcDbEntity
  8
仕上
  6
Continuous
 62
     4
370
     9
100
AcDbLine
 10
-143.9044180697883
 20
-239.8025793192365
 30
0.0
 11
-145.8930068226821
 21
-239.8025793192365
 31
0.0
  0
LINE
  5
14B
330
1F
100
AcDbEntity
  8
仕上
  6
Continuous
 62
     4
370
     9
100
AcDbLine
 10
-150.493038141494
 20
-237.2814854867566
 30
0.0
 11
-150.493038141494
 21
-243.2815629589867
 31
0.0
  0
LINE
  5
14C
330
1F
100
AcDbEntity
  8
仕上
  6
Continuous
 62
     4
370
     9
100
AcDbLine
 10
-143.9044180697883
 20
-240.7606177671431
 30
0.0
 11
-145.8930068226821
 21
-240.7606177671431
 31
0.0
  0
LINE
  5
14D
330
1F
100
AcDbEntity
  8
躯体
  6
Continuous
 62
     2
370
     9
100
AcDbLine
 10
-160.4929608165494
 20
-238.1519745998757
 30
0.0
 11
-162.4926976171666
 21
-238.1519745998757
 31
0.0
  0
LINE
  5
14E
330
1F
100
AcDbEntity
  8
躯体
  6
Continuous
 62
     2
370
     9
100
AcDbLine
 10
-160.4929608165494
 20
-237.2818818617867
 30
0.0
 11
-162.4926976171666
 21
-237.2818818617867
 31
0.0
  0
LINE
  5
14F
330
1F
100
AcDbEntity
  8
躯体
  6
Continuous
 62
     2
370
     9
100
AcDbLine
 10
-160.4929608165494
 20
-242.411866595928
 30
0.0
 11
-162.4926976171666
 21
-242.411866595928
 31
0.0
  0
LINE
  5
150
330
1F
100
AcDbEntity
  8
躯体
  6
Continuous
 62
     2
370
     9
100
AcDbLine
 10
-160.4929608165494
 20
-243.2819593340169
 30
0.0
 11
-162.4926976171666
 21
-243.2819593340169
 31
0.0
  0
LINE
  5
151
330
1F
100
AcDbEntity
  8
躯体
  6
Continuous
 62
     2
370
     9
100
AcDbLine
 10
-154.99295999175
 20
-238.1515782248456
 30
0.0
 11
-154.99295999175
 21
-228.8118924828466
 31
0.0
  0
LINE
  5
152
330
1F
100
AcDbEntity
  8
躯体
  6
Continuous
 62
     2
370
     9
100
AcDbLine
 10
-154.9930590855074
 20
-242.4114702208978
 30
0.0
 11
-154.993158179265
 21
-246.6717090451015
 31
0.0
  0
LINE
  5
153
330
1F
100
AcDbEntity
  8
躯体
  6
Continuous
 62
     2
370
     9
100
AcDbLine
 10
-154.99295999175
 20
-246.6716842716621
 30
0.0
 11
-154.99295999175
 21
-242.4114702208978
 31
0.0
  0
LINE
  5
154
330
1F
100
AcDbEntity
  8
仕上
  6
Continuous
 62
     6
370
     9
100
AcDbLine
 10
-153.4930273307302
 20
-230.0488798582311
 30
0.0
 11
-153.4930273307302
 21
-237.2814854867566
 31
0.0
  0
LINE
  5
155
330
1F
100
AcDbEntity
  8
仕上
  6
Continuous
 62
     6
370
     9
100
AcDbLine
 10
-153.4930273307302
 20
-243.2815629589867
 30
0.0
 11
-153.4930273307302
 21
-316.2818531705502
 31
0.0
  0
LINE
  5
156
330
1F
100
AcDbEntity
  8
仕上
  6
Continuous
 62
     6
370
     9
100
AcDbLine
 10
-148.4929792861647
 20
-234.2814219772021
 30
0.0
 11
-148.4929792861647
 21
-225.2818755579627
 31
0.0
  0
LINE
  5
157
330
1F
100
AcDbEntity
  8
仕上
  6
Continuous
 62
     6
370
     9
100
AcDbLine
 10
-148.4929792861647
 20
-246.4327444487913
 30
0.0
 11
-148.4929792861647
 21
-246.2815769216625
 31
0.0
  0
LINE
  5
158
330
1F
100
AcDbEntity
  8
仕上
  6
Continuous
 62
     4
370
     9
100
AcDbLine
 10
-148.4929792861647
 20
-246.2815769216625
 30
0.0
 11
-148.4929792861647
 21
-234.2814219772021
 31
0.0
  0
LINE
  5
159
330
1F
100
AcDbEntity
  8
躯体
  6
Continuous
 62
     2
370
     9
100
AcDbLine
 10
-112.6020626017453
 20
-343.7818820679865
 30
0.0
 11
-112.6020626017453
 21
-337.2818270420831
 31
0.0
  0
LINE
  5
15A
330
1F
100
AcDbEntity
  8
躯体
  6
Continuous
 62
     2
370
     9
100
AcDbLine
 10
-53.46637638277662
 20
-345.781891376437
 30
0.0
 11
-128.9052401002277
 21
-345.781891376437
 31
0.0
  0
LINE
  5
15B
330
1F
100
AcDbEntity
  8
仕上
  6
Continuous
 62
     6
370
     9
100
AcDbLine
 10
-119.8783190304675
 20
-260.9676186173934
 30
0.0
 11
-123.2575400298133
 21
-257.5883728446083
 31
0.0
  0
LINE
  5
15C
330
1F
100
AcDbEntity
  8
仕上
  6
Continuous
 62
     6
370
     9
100
AcDbLine
 10
-119.8783190304675
 20
-260.9676186173934
 30
0.0
 11
-101.2481971439674
 21
-279.5977900507723
 31
0.0
  0
LINE
  5
15D
330
1F
100
AcDbEntity
  8
仕上
  6
Continuous
 62
     6
370
     9
100
AcDbLine
 10
-52.6695387049499
 20
-330.2977981043493
 30
0.0
 11
-46.08924250887753
 21
-336.8780447535429
 31
0.0
  0
LINE
  5
15E
330
1F
100
AcDbEntity
  8
仕上
  6
Continuous
 62
     6
370
     9
100
AcDbLine
 10
-52.84290323376786
 20
-329.1166005144604
 30
0.0
 11
-49.9783256642113
 21
-323.7965787267949
 31
0.0
  0
LINE
  5
15F
330
1F
100
AcDbEntity
  8
仕上
  6
Continuous
 62
     6
370
     9
100
AcDbLine
 10
-148.4929792861647
 20
-316.2818283971108
 30
0.0
 11
-148.4929792861647
 21
-310.6453011478592
 31
0.0
  0
LINE
  5
160
330
1F
100
AcDbEntity
  8
仕上
  6
Continuous
 62
     6
370
     9
100
AcDbLine
 10
-46.26000582656025
 20
-337.2818270420831
 30
0.0
 11
-132.5665067069747
 21
-337.2818270420831
 31
0.0
  0
LINE
  5
161
330
1F
100
AcDbEntity
  8
躯体
  6
Continuous
 62
     2
370
     9
100
AcDbLine
 10
-129.7839044483439
 20
-340.0644045272745
 30
0.0
 11
-152.7754646589365
 21
-317.0729681838789
 31
0.0
  0
LINE
  5
162
330
1F
100
AcDbEntity
  8
躯体
  6
Continuous
 62
     2
370
     9
100
AcDbLine
 10
-128.9052401002277
 20
-342.1857045949552
 30
0.0
 11
-128.9052401002277
 21
-349.7817365792623
 31
0.0
  0
LINE
  5
163
330
1F
100
AcDbEntity
  8
躯体
  6
Continuous
 62
     2
370
     9
100
AcDbLine
 10
-133.905337691672
 20
-344.2566898072444
 30
0.0
 11
-133.905337691672
 21
-349.7817365792623
 31
0.0
  0
LINE
  5
164
330
1F
100
AcDbEntity
  8
躯体
  6
Continuous
 62
     2
370
     9
100
AcDbLine
 10
-104.1840726720748
 20
-345.4309508341055
 30
0.0
 11
-94.4722155501911
 21
-337.2818270420831
 31
0.0
  0
LINE
  5
165
330
1F
100
AcDbEntity
  8
仕上
  6
Continuous
 62
     6
370
     9
100
AcDbLine
 10
-148.4929792861647
 20
-284.1707440003361
 30
0.0
 11
-148.4929792861647
 21
-278.8107378815027
 31
0.0
  0
LINE
  5
166
330
1F
100
AcDbEntity
  8
仕上
  6
Continuous
 62
     6
370
     9
100
AcDbLine
 10
-131.0864918912207
 20
-332.2818285443964
 30
0.0
 11
-126.856476663067
 21
-332.2818533178357
 31
0.0
  0
LINE
  5
167
330
1F
100
AcDbEntity
  8
躯体
  6
Continuous
 62
     2
370
     9
100
AcDbLine
 10
-147.4929746319394
 20
-276.5613343587609
 30
0.0
 11
-147.4929746319394
 21
-286.4068194126886
 31
0.0
  0
LINE
  5
168
330
1F
100
AcDbEntity
  8
躯体
  6
Continuous
 62
     2
370
     9
100
AcDbLine
 10
-147.4929746319394
 20
-308.3958480782386
 30
0.0
 11
-147.4929746319394
 21
-318.8941380334072
 31
0.0
  0
LINE
  5
169
330
1F
100
AcDbEntity
  8
躯体
  6
Continuous
 62
     2
370
     9
100
AcDbLine
 10
-147.4929746319394
 20
-226.2818802121879
 30
0.0
 11
-147.4929746319394
 21
-213.7818715812512
 31
0.0
  0
LINE
  5
16A
330
1F
100
AcDbEntity
  8
仕上
  6
Continuous
 62
     6
370
     9
100
AcDbLine
 10
-62.01063653299366
 20
-339.6934965927984
 30
0.0
 11
-61.73416494945423
 21
-341.076003151132
 31
0.0
  0
LINE
  5
16B
330
1F
100
AcDbEntity
  8
仕上
  6
Continuous
 62
     6
370
     9
100
AcDbLine
 10
-51.80053599819394
 20
-341.9309097708777
 30
0.0
 11
-41.49300152629166
 21
-333.2818579720609
 31
0.0
  0
LINE
  5
16C
330
1F
100
AcDbEntity
  8
仕上
  6
Continuous
 62
     6
370
     9
100
AcDbLine
 10
-52.76471825906788
 20
-342.2818503132092
 30
0.0
 11
-60.26326675939413
 21
-342.2818007663305
 31
0.0
  0
LINE
  5
16D
330
1F
100
AcDbEntity
  8
仕上
  6
Continuous
 62
     6
370
     9
100
AcDbLine
 10
-118.1065474190734
 20
-261.2276654106205
 30
0.0
 11
-114.4929449097037
 21
-259.2819347078631
 31
0.0
  0
LINE
  5
16E
330
1F
100
AcDbEntity
  8
仕上
  6
JWW_HOJO
 62
     6
370
     9
100
AcDbLine
 10
-119.0891611188501
 20
-261.7567765290108
 30
0.0
 11
-118.1064978721947
 21
-261.2276406371811
 31
0.0
  0
LINE
  5
16F
330
1F
100
AcDbEntity
  8
躯体
  6
Continuous
 62
     2
370
     9
100
AcDbLine
 10
-134.7840020397882
 20
-342.1353401926849
 30
0.0
 11
-154.8464498712256
 21
-322.0729666815657
 31
0.0
  0
ARC
  5
170
330
1F
100
AcDbEntity
  8
仕上
  6
Continuous
 62
     6
370
     9
100
AcDbCircle
 10
-126.7931557519983
 20
-261.123839926157
 30
0.0
 40
5.000000046026752
100
AcDbArc
 50
45.00028991699218
 51
87.79750061035156
  0
ARC
  5
171
330
1F
100
AcDbEntity
  8
仕上
  6
Continuous
 62
     6
370
     9
100
AcDbCircle
 10
-144.4929854427032
 20
-246.4327444487913
 30
0.0
 40
4.000000036821402
100
AcDbArc
 50
180.0
 51
267.797378540039
  0
ARC
  5
172
330
1F
100
AcDbEntity
  8
仕上
  6
Continuous
 62
     6
370
     9
100
AcDbCircle
 10
-144.4929854427032
 20
-246.4327444487913
 30
0.0
 40
9.000000857018133
100
AcDbArc
 50
180.0
 51
267.797378540039
  0
ARC
  5
173
330
1F
100
AcDbEntity
  8
仕上
  6
Continuous
 62
     6
370
     9
100
AcDbCircle
 10
-145.4929900969285
 20
-310.6453011478592
 30
0.0
 40
2.999999834073556
100
AcDbArc
 50
136.3000640869141
 51
179.9995269775391
  0
ARC
  5
174
330
1F
100
AcDbEntity
  8
仕上
  6
Continuous
 62
     6
370
     9
100
AcDbCircle
 10
-145.4929900969285
 20
-278.8107378815027
 30
0.0
 40
2.999999834073556
100
AcDbArc
 50
136.3000640869141
 51
179.9995269775391
  0
ARC
  5
175
330
1F
100
AcDbEntity
  8
仕上
  6
Continuous
 62
     6
370
     9
100
AcDbCircle
 10
-145.4929900969285
 20
-284.1707440003361
 30
0.0
 40
2.999999834073556
100
AcDbArc
 50
179.9995269775391
 51
313.6999511718751
  0
ARC
  5
176
330
1F
100
AcDbEntity
  8
仕上
  6
Continuous
 62
     6
370
     9
100
AcDbCircle
 10
-95.02188862327102
 20
-329.2818889020389
 30
0.0
 40
2.999999834073556
100
AcDbArc
 50
270.0004730224609
 51
313.6999359130859
  0
ARC
  5
177
330
1F
100
AcDbEntity
  8
仕上
  6
Continuous
 62
     6
370
     9
100
AcDbCircle
 10
-100.3819195155438
 20
-329.2818641285994
 30
0.0
 40
2.999999834073556
100
AcDbArc
 50
136.300048828125
 51
270.0004730224609
  0
ARC
  5
178
330
1F
100
AcDbEntity
  8
仕上
  6
Continuous
 62
     6
370
     9
100
AcDbCircle
 10
-61.01615635575149
 20
-329.2818889020389
 30
0.0
 40
2.999999834073556
100
AcDbArc
 50
270.0004730224609
 51
313.6999359130859
  0
ARC
  5
179
330
1F
100
AcDbEntity
  8
仕上
  6
Continuous
 62
     6
370
     9
100
AcDbCircle
 10
-67.88533562849511
 20
-329.2818889020389
 30
0.0
 40
2.999999834073556
100
AcDbArc
 50
136.300048828125
 51
270.0004730224609
  0
ARC
  5
17A
330
1F
100
AcDbEntity
  8
仕上
  6
Continuous
 62
     6
370
     9
100
AcDbCircle
 10
-132.492979138879
 20
-316.2818531705502
 30
0.0
 40
16.00000014728561
100
AcDbArc
 50
180.0
 51
181.6802368164062
  0
ARC
  5
17B
330
1F
100
AcDbEntity
  8
躯体
  6
Continuous
 62
     2
370
     9
100
AcDbCircle
 10
-12.77681971599372
 20
-346.7818960306623
 30
0.0
 40
2.999999834073556
100
AcDbArc
 50
270.0000000000001
 51
309.9990844726564
  0
ARC
  5
17C
330
1F
100
AcDbEntity
  8
躯体
  6
Continuous
 62
     2
370
     9
100
AcDbCircle
 10
-11.49298576673164
 20
-346.7820198978592
 30
0.0
 40
1.00000000920535
100
AcDbArc
 50
0.0
 51
90.0
  0
ARC
  5
17D
330
1F
100
AcDbEntity
  8
躯体
  6
Continuous
 62
     2
370
     9
100
AcDbCircle
 10
-37.78971916634737
 20
-342.7818774137613
 30
0.0
 40
2.999999834073556
100
AcDbArc
 50
139.9992980957031
 51
270.0
  0
ARC
  5
17E
330
1F
100
AcDbEntity
  8
躯体
  6
Continuous
 62
     2
370
     9
100
AcDbCircle
 10
-63.8608408534817
 20
-344.2817853013416
 30
0.0
 40
2.000000018410701
100
AcDbArc
 50
90.0
 51
129.9998474121094
  0
ARC
  5
17F
330
1F
100
AcDbEntity
  8
躯体
  6
Continuous
 62
     2
370
     9
100
AcDbCircle
 10
-69.48795419576686
 20
-343.781782974229
 30
0.0
 40
2.000000018410701
100
AcDbArc
 50
270.0
 51
309.9998474121093
  0
ARC
  5
180
330
1F
100
AcDbEntity
  8
躯体
  6
Continuous
 62
     2
370
     9
100
AcDbCircle
 10
-49.65899603053549
 20
-340.2817666844406
 30
0.0
 40
2.000000018410701
100
AcDbArc
 50
270.0
 51
310.0001678466796
  0
ARC
  5
181
330
1F
100
AcDbEntity
  8
躯体
  6
Continuous
 62
     2
370
     9
100
AcDbCircle
 10
-151.4929684754011
 20
-212.9206229610228
 30
0.0
 40
2.999999834073556
100
AcDbArc
 50
180.0
 51
305.0041656494141
  0
ARC
  5
182
330
1F
100
AcDbEntity
  8
躯体
  6
Continuous
 62
     2
370
     9
100
AcDbCircle
 10
-155.492541170393
 20
-198.7819999553878
 30
0.0
 40
1.00000000920535
100
AcDbArc
 50
0.0
 51
90.0
  0
ARC
  5
183
330
1F
100
AcDbEntity
  8
躯体
  6
Continuous
 62
     2
370
     9
100
AcDbCircle
 10
-159.492881842006
 20
-200.0655366233773
 30
0.0
 40
2.999999834073556
100
AcDbArc
 50
139.9997100830078
 51
180.0
  0
ARC
  5
184
330
1F
100
AcDbEntity
  8
躯体
  6
Continuous
 62
     2
370
     9
100
AcDbCircle
 10
-159.493080029521
 20
-252.5393229369386
 30
0.0
 40
2.999999834073556
100
AcDbArc
 50
180.0
 51
225.0024871826172
  0
ARC
  5
185
330
1F
100
AcDbEntity
  8
躯体
  6
Continuous
 62
     2
370
     9
100
AcDbCircle
 10
-154.8967399531778
 20
-319.1941939312414
 30
0.0
 40
2.999999834073556
100
AcDbArc
 50
45.0
 51
90.0
  0
ARC
  5
186
330
1F
100
AcDbEntity
  8
躯体
  6
Continuous
 62
     2
370
     9
100
AcDbCircle
 10
-156.9677003920276
 20
-324.1942172023677
 30
0.0
 40
2.999999834073556
100
AcDbArc
 50
45.0
 51
90.0
  0
ARC
  5
187
330
1F
100
AcDbEntity
  8
躯体
  6
Continuous
 62
     2
370
     9
100
AcDbCircle
 10
-136.9053268809082
 20
-344.2566898072444
 30
0.0
 40
2.999999834073556
100
AcDbArc
 50
0.0
 51
45.0
  0
ARC
  5
188
330
1F
100
AcDbEntity
  8
仕上
  6
Continuous
 62
     6
370
     9
100
AcDbCircle
 10
-132.4924341232127
 20
-316.2814815689594
 30
0.0
 40
20.9999986449724
100
AcDbArc
 50
179.9997863769531
 51
180.2035980224609
  0
ARC
  5
189
330
1F
100
AcDbEntity
  8
躯体
  6
Continuous
 62
     2
370
     9
100
AcDbCircle
 10
-67.7501717432092
 20
-346.7817969369047
 30
0.0
 40
2.999999834073556
100
AcDbArc
 50
224.9976959228516
 51
270.0
  0
ARC
  5
18A
330
1F
100
AcDbEntity
  8
躯体
  6
Continuous
 62
     2
370
     9
100
AcDbCircle
 10
-65.68996297705257
 20
-347.7818759114481
 30
0.0
 40
2.000000018410701
100
AcDbArc
 50
90.0
 51
129.9999389648438
  0
ARC
  5
18B
330
1F
100
AcDbEntity
  8
仕上
  6
Continuous
 62
     6
370
     9
100
AcDbCircle
 10
-126.856476663067
 20
-329.2818641285994
 30
0.0
 40
2.999999834073556
100
AcDbArc
 50
270.0004730224609
 51
313.6999359130859
  0
ARC
  5
18C
330
1F
100
AcDbEntity
  8
0-A
  6
Continuous
 62
     2
370
     9
100
AcDbCircle
 10
-140.5896080128441
 20
-317.536603101974
 30
0.0
 40
3.811438938365479
100
AcDbArc
 50
4.925643920898437
 51
85.07435607910156
  0
ARC
  5
18D
330
1F
100
AcDbEntity
  8
0-A
  6
Continuous
 62
     2
370
     9
100
AcDbCircle
 10
-142.4732812499415
 20
-329.8092658796721
 30
0.0
 40
13.82162052692133
100
AcDbArc
 50
24.26925659179688
 51
65.73074340820312
  0
ARC
  5
18E
330
1F
100
AcDbEntity
  8
0-A
  6
Continuous
 62
     2
370
     9
100
AcDbCircle
 10
-130.2004946050463
 20
-327.9258651504081
 30
0.0
 40
3.811438938365479
100
AcDbArc
 50
4.925643920898437
 51
85.07435607910156
  0
ARC
  5
18F
330
1F
100
AcDbEntity
  8
仕上
  6
Continuous
 62
     6
370
     9
100
AcDbCircle
 10
-132.492979138879
 20
-316.2818531705502
 30
0.0
 40
21.00000019331236
100
AcDbArc
 50
180.0
 51
180.7145538330078
  0
ARC
  5
190
330
1F
100
AcDbEntity
  8
仕上
  6
Continuous
 62
     6
370
     9
100
AcDbCircle
 10
-145.4873912996275
 20
-316.6630420823711
 30
0.0
 40
2.999999834073556
100
AcDbArc
 50
181.6803283691407
 51
272.9359283447266
  0
ARC
  5
191
330
1F
100
AcDbEntity
  8
躯体
  6
Continuous
 62
     2
370
     9
100
AcDbCircle
 10
-155.9929894194147
 20
-246.6716842716621
 30
0.0
 40
1.00000000920535
100
AcDbArc
 50
319.9996032714844
 51
0.0000000000000127
  0
ARC
  5
192
330
1F
100
AcDbEntity
  8
躯体
  6
Continuous
 62
     2
370
     9
100
AcDbCircle
 10
-53.46637638277662
 20
-344.7818867222118
 30
0.0
 40
1.00000000920535
100
AcDbArc
 50
270.0
 51
309.9999389648438
  0
ARC
  5
193
330
1F
100
AcDbEntity
  8
躯体
  6
Continuous
 62
     2
370
     9
100
AcDbCircle
 10
-23.46353645112663
 20
-340.7820167459472
 30
0.0
 40
5.000000046026752
100
AcDbArc
 50
270.0
 51
309.9999084472656
  0
ARC
  5
194
330
1F
100
AcDbEntity
  8
仕上
  6
Continuous
 62
     6
370
     9
100
AcDbCircle
 10
-100.7944716016266
 20
-280.7586486469261
 30
0.0
 40
1.00000000920535
100
AcDbArc
 50
147.9943084716797
 51
225.0010070800781
  0
ARC
  5
195
330
1F
100
AcDbEntity
  8
仕上
  6
Continuous
 62
     6
370
     9
100
AcDbCircle
 10
-96.96972506837619
 20
-284.5833208598581
 30
0.0
 40
1.00000000920535
100
AcDbArc
 50
225.0
 51
302.0044860839844
  0
ARC
  5
196
330
1F
100
AcDbEntity
  8
躯体
  6
Continuous
 62
     2
370
     9
100
AcDbCircle
 10
-151.992995575953
 20
-228.8118924828466
 30
0.0
 40
2.999999834073556
100
AcDbArc
 50
139.9996643066407
 51
180.0
  0
ARC
  5
197
330
1F
100
AcDbEntity
  8
仕上
  6
Continuous
 62
     4
370
     9
100
AcDbCircle
 10
-148.7430176098801
 20
-243.6817035519374
 30
0.0
 40
0.2500000023013376
100
AcDbArc
 50
0.0
 51
60.67082214355469
  0
ARC
  5
198
330
1F
100
AcDbEntity
  8
仕上
  6
Continuous
 62
     4
370
     9
100
AcDbCircle
 10
-148.7430176098801
 20
-236.8815926281997
 30
0.0
 40
0.2500000023013376
100
AcDbArc
 50
299.3291778564453
 51
0.0
  0
ARC
  5
199
330
1F
100
AcDbEntity
  8
仕上
  6
Continuous
 62
     4
370
     9
100
AcDbCircle
 10
-153.8929697361659
 20
-240.2816976369474
 30
0.0
 40
10.0000000920535
100
AcDbArc
 50
2.745620727539063
 51
36.869873046875
  0
ARC
  5
19A
330
1F
100
AcDbEntity
  8
仕上
  6
Continuous
 62
     4
370
     9
100
AcDbCircle
 10
-153.8929697361659
 20
-240.2816976369474
 30
0.0
 40
10.0000000920535
100
AcDbArc
 50
323.130126953125
 51
357.2543792724609
  0
ARC
  5
19B
330
1F
100
AcDbEntity
  8
躯体
  6
Continuous
 62
     2
370
     9
100
AcDbCircle
 10
-105.1482301595095
 20
-344.2818843950992
 30
0.0
 40
1.499999917036778
100
AcDbArc
 50
270.0
 51
310.0000305175782
  0
ARC
  5
19C
330
1F
100
AcDbEntity
  8
躯体
  6
Continuous
 62
     2
370
     9
100
AcDbCircle
 10
-110.6020532932948
 20
-343.7818820679865
 30
0.0
 40
2.000000018410701
100
AcDbArc
 50
180.0
 51
270.0
  0
ARC
  5
19D
330
1F
100
AcDbEntity
  8
仕上
  6
Continuous
 62
     6
370
     9
100
AcDbCircle
 10
-118.8176689966272
 20
-259.9069685835532
 30
0.0
 40
1.499999917036778
100
AcDbArc
 50
225.0
 51
298.3008270263672
  0
ARC
  5
19E
330
1F
100
AcDbEntity
  8
仕上
  6
Continuous
 62
     6
370
     9
100
AcDbCircle
 10
-51.9624304245765
 20
-329.590689823976
 30
0.0
 40
1.00000000920535
100
AcDbArc
 50
151.6998138427734
 51
225.0
  0
ARC
  5
19F
330
1F
100
AcDbEntity
  8
仕上
  6
Continuous
 62
     6
370
     9
100
AcDbCircle
 10
-64.95238336623538
 20
-340.2818410047588
 30
0.0
 40
2.999999834073556
100
AcDbArc
 50
11.30935668945312
 51
90.0
  0
ARC
  5
1A0
330
1F
100
AcDbEntity
  8
仕上
  6
Continuous
 62
     6
370
     9
100
AcDbCircle
 10
-60.26326675939413
 20
-340.7818681053109
 30
0.0
 40
1.499999917036778
100
AcDbArc
 50
191.3093719482422
 51
270.0
  0
ARC
  5
1A1
330
1F
100
AcDbEntity
  8
仕上
  6
Continuous
 62
     6
370
     9
100
AcDbCircle
 10
-156.4930165199667
 20
-248.7412573979064
 30
0.0
 40
2.999999834073556
100
AcDbArc
 50
0.0
 51
59.99871826171876
  0
ARC
  5
1A2
330
1F
100
AcDbEntity
  8
仕上
  6
Continuous
 62
     6
370
     9
100
AcDbCircle
 10
-52.76471825906788
 20
-340.7818433318714
 30
0.0
 40
1.499999917036778
100
AcDbArc
 50
270.0
 51
310.0000305175782
  0
LINE
  5
1A3
330
1F
100
AcDbEntity
  8
仕上
  6
JWW_CENTER1
 62
     6
370
     9
100
AcDbLine
 10
-163.765556932781
 20
-240.281871051023
 30
0.0
 11
-140.0017590696714
 21
-240.281871051023
 31
0.0
  0
ARC
  5
1A4
330
1F
100
AcDbEntity
  8
躯体
  6
Continuous
 62
     2
370
     9
100
AcDbCircle
 10
-11.49296099329217
 20
-346.7819562223782
 30
0.0
 40
1.00000000920535
100
AcDbArc
 50
0.0
 51
90.0
  0
LINE
  5
1A5
330
1F
100
AcDbEntity
  8
躯体
  6
Continuous
 62
     2
370
     9
100
AcDbLine
 10
-17.15525913867737
 20
-342.0158184144601
 30
0.0
 11
-20.24957906591953
 21
-344.6122116939796
 31
0.0
  0
ARC
  5
1A6
330
1F
100
AcDbEntity
  8
躯体
  6
Continuous
 62
     2
370
     9
100
AcDbCircle
 10
-16.51247871014016
 20
-342.7818688832215
 30
0.0
 40
1.0
100
AcDbArc
 50
90.0003467700758
 51
129.9994628928842
  0
LINE
  5
1A7
330
1F
100
AcDbEntity
  8
躯体
  6
Continuous
 62
     2
370
     9
100
AcDbLine
 10
-16.51248476241972
 20
-341.7818688832398
 30
0.0
 11
-40.61814309909255
 21
-341.7818688832398
 31
0.0
  0
LINE
  5
1A8
330
1F
100
AcDbEntity
  8
躯体
  6
Continuous
 62
     2
370
     9
100
AcDbLine
 10
-11.49301193822521
 20
-341.7818385039869
 30
0.0
 11
-16.51248476241972
 21
-341.7818688832398
 31
0.0
  0
LINE
  5
1A9
330
1F
100
AcDbEntity
  8
躯体
  6
Continuous
 62
     2
370
     9
100
AcDbLine
 10
-10.49300588594565
 20
-342.7818385039686
 30
0.0
 11
-10.49300588594565
 21
-348.7818310187946
 31
0.0
  0
ARC
  5
1AA
330
1F
100
AcDbEntity
  8
躯体
  6
Continuous
 62
     2
370
     9
100
AcDbCircle
 10
-11.49300588594565
 20
-342.7818385039686
 30
0.0
 40
1.0
100
AcDbArc
 50
0.0
 51
90.0003467700758
  0
LINE
  5
1AB
330
1F
100
AcDbEntity
  8
躯体
  6
Continuous
 62
     2
370
     9
100
AcDbLine
 10
-155.3731599855491
 20
-349.7818852198985
 30
0.0
 11
-12.77681971599372
 21
-349.7818852198985
 31
0.0
  0
LINE
  5
1AC
330
1F
100
AcDbEntity
  8
0-A
  6
Continuous
 62
     2
370
     9
100
AcDbLine
 10
-124.5379223987168
 20
-304.8044904133154
 30
0.0
 11
-123.1235324238944
 21
-304.8046390539517
 31
0.0
  0
LINE
  5
1AD
330
1F
100
AcDbEntity
  8
0-A
  6
Continuous
 62
     2
370
     9
100
AcDbLine
 10
-117.4667900481045
 20
-310.4613071094235
 30
0.0
 11
-117.4668643684226
 21
-311.8756227639278
 31
0.0
  0
LINE
  5
1AE
330
1F
100
AcDbEntity
  8
0-A
  6
Continuous
 62
     2
370
     9
100
AcDbLine
 10
-120.8254986396394
 20
-307.1026232913281
 30
0.0
 11
-123.1235324238944
 21
-304.8046390539517
 31
0.0
  0
LINE
  5
1AF
330
1F
100
AcDbEntity
  8
0-A
  6
Continuous
 62
     2
370
     9
100
AcDbLine
 10
-117.4667900481045
 20
-310.4613071094235
 30
0.0
 11
-119.7647495120416
 21
-308.1633228720472
 31
0.0
  0
LINE
  5
1B0
330
1F
100
AcDbEntity
  8
0-A
  6
Continuous
 62
     2
370
     9
100
AcDbLine
 10
-121.5326069200128
 20
-307.8098058920197
 30
0.0
 11
-124.5379223987168
 21
-304.8044904133154
 31
0.0
  0
LINE
  5
1B1
330
1F
100
AcDbEntity
  8
0-A
  6
Continuous
 62
     2
370
     9
100
AcDbLine
 10
-117.4668643684226
 20
-311.8756227639278
 30
0.0
 11
-120.4719321127329
 21
-308.8703568321024
 31
0.0
  0
LINE
  5
1B2
330
1F
100
AcDbEntity
  8
0-A
  6
Continuous
 62
     2
370
     9
100
AcDbLine
 10
-122.2397399738254
 20
-308.5168893989536
 30
0.0
 11
-120.8254986396394
 21
-307.1026232913281
 31
0.0
  0
LINE
  5
1B3
330
1F
100
AcDbEntity
  8
0-A
  6
Continuous
 62
     2
370
     9
100
AcDbLine
 10
-121.1790156196669
 20
-309.5772421515213
 30
0.0
 11
-122.2397399738254
 21
-308.5168893989536
 31
0.0
  0
LINE
  5
1B4
330
1F
100
AcDbEntity
  8
0-A
  6
Continuous
 62
     2
370
     9
100
AcDbLine
 10
-121.1790156196669
 20
-309.5772421515213
 30
0.0
 11
-119.7647495120416
 21
-308.1633228720472
 31
0.0
  0
LINE
  5
1B5
330
1F
100
AcDbEntity
  8
0-A
  6
Continuous
 62
     2
370
     9
100
AcDbLine
 10
-136.2347208428623
 20
-316.5012466315652
 30
0.0
 11
-124.5379223987168
 21
-304.8044904133154
 31
0.0
  0
LINE
  5
1B6
330
1F
100
AcDbEntity
  8
0-A
  6
Continuous
 62
     2
370
     9
100
AcDbLine
 10
-135.5275973644445
 20
-317.2083852856456
 30
0.0
 11
-123.1235324238944
 21
-304.8046390539517
 31
0.0
  0
LINE
  5
1B7
330
1F
100
AcDbEntity
  8
0-A
  6
Continuous
 62
     2
370
     9
100
AcDbLine
 10
-129.8707569951923
 20
-322.8653470570322
 30
0.0
 11
-117.4667900481045
 21
-310.4613071094235
 31
0.0
  0
LINE
  5
1B8
330
1F
100
AcDbEntity
  8
0-A
  6
Continuous
 62
     2
370
     9
100
AcDbLine
 10
-129.1638880834205
 20
-323.5722311390032
 30
0.0
 11
-117.4668643684226
 21
-311.8756227639278
 31
0.0
  0
LINE
  5
1B9
330
1F
100
AcDbEntity
  8
仕上
  6
Continuous
 62
     6
370
     9
100
AcDbLine
 10
-95.26625382936732
 20
-285.5796838184937
 30
0.0
 11
-118.2731357952241
 21
-309.654952669393
 31
0.0
  0
LINE
  5
1BA
330
1F
100
AcDbEntity
  8
0-A
  6
Continuous
 62
     2
370
     9
100
AcDbLine
 10
-162.4921953950343
 20
-342.758757145647
 30
0.0
 11
-148.3264779355429
 21
-328.5929144643439
 31
0.0
  0
LINE
  5
1BB
330
1F
100
AcDbEntity
  8
0-A
  6
Continuous
 62
     2
370
     9
100
AcDbLine
 10
-162.1387931590259
 20
-343.8195698897509
 30
0.0
 11
-147.6193379509214
 21
-329.3000518294014
 31
0.0
  0
LINE
  5
1BC
330
1F
100
AcDbEntity
  8
0-A
  6
Continuous
 62
     2
370
     9
100
AcDbLine
 10
-156.4613540578837
 20
-349.455858717381
 30
0.0
 11
-141.9623692430914
 21
-334.956999581278
 31
0.0
  0
LINE
  5
1BD
330
1F
100
AcDbEntity
  8
0-A
  6
Continuous
 62
     2
370
     9
100
AcDbLine
 10
-155.3938935717708
 20
-349.8026188673138
 30
0.0
 11
-141.2553413192084
 21
-335.6640248860122
 31
0.0
  0
LINE
  5
1BE
330
1F
100
AcDbEntity
  8
通り芯
  6
Continuous
 62
     3
370
     9
100
AcDbLine
 10
-164.6618947735428
 20
401.6473014556273
 30
0.0
 11
-173.8429561831581
 21
402.4819434019558
 31
0.0
  0
LINE
  5
1BF
330
1F
100
AcDbEntity
  8
通り芯
  6
JWW_DASHED1
 62
     3
370
     9
100
AcDbLine
 10
-172.7270118326098
 20
396.8122940642462
 30
0.0
 11
-173.8429561831581
 21
397.4818953573904
 31
0.0
  0
ARC
  5
1C0
330
1F
100
AcDbEntity
  8
通り芯
  6
Continuous
 62
     3
370
     9
100
AcDbCircle
 10
32.15698687622557
 20
391.4819912992359
 30
0.0
 40
10.0000000920535
100
AcDbArc
 50
0.0
 51
90.0
  0
ARC
  5
1C1
330
1F
100
AcDbEntity
  8
通り芯
  6
Continuous
 62
     3
370
     9
100
AcDbCircle
 10
32.15698687622557
 20
392.4819464065823
 30
0.0
 40
10.0000000920535
100
AcDbArc
 50
0.0
 51
90.0
  0
ARC
  5
1C2
330
1F
100
AcDbEntity
  8
通り芯
  6
Continuous
 62
     3
370
     9
100
AcDbCircle
 10
-164.8429390685703
 20
399.6555912493708
 30
0.0
 40
2.000000018410701
100
AcDbArc
 50
359.9999999999999
 51
84.80598449707028
  0
ARC
  5
1C3
330
1F
100
AcDbEntity
  8
通り芯
  6
JWW_DASHED1
 62
     3
370
     9
100
AcDbCircle
 10
-176.8429453723945
 20
389.952404831272
 30
0.0
 40
8.000000073642804
100
AcDbArc
 50
0.0
 51
59.03627014160156
  0
LINE
  5
1C4
330
1F
100
AcDbEntity
  8
通り芯
  6
Continuous
 62
     3
370
     9
100
AcDbLine
 10
32.15698687622557
 20
401.4819882946094
 30
0.0
 11
-164.0279176862348
 21
401.4819882946094
 31
0.0
  0
LINE
  5
1C5
330
1F
100
AcDbEntity
  8
通り芯
  6
Continuous
 62
     3
370
     9
100
AcDbLine
 10
32.15698687622557
 20
402.4819434019558
 30
0.0
 11
-173.8429561831581
 21
402.4819434019558
 31
0.0
  0
ARC
  5
1C6
330
1F
100
AcDbEntity
  8
通り芯
  6
Continuous
 62
     3
370
     9
100
AcDbCircle
 10
-180.8428510794961
 20
375.1241104305274
 30
0.0
 40
1.0
100
AcDbArc
 50
98.74616226255519
 51
180.0
  0
ARC
  5
1C7
330
1F
100
AcDbEntity
  8
通り芯
  6
Continuous
 62
     3
370
     9
100
AcDbCircle
 10
-180.8428510794961
 20
366.8399761221265
 30
0.0
 40
1.0
100
AcDbArc
 50
180.0
 51
261.2538377374448
  0
LINE
  5
1C8
330
1F
100
AcDbEntity
  8
通り芯
  6
Continuous
 62
     3
370
     9
100
AcDbLine
 10
-180.9949082637499
 20
365.8516044244758
 30
0.0
 11
-173.8429561831581
 21
364.7513041043848
 31
0.0
  0
LINE
  5
1C9
330
1F
100
AcDbEntity
  8
通り芯
  6
Continuous
 62
     3
370
     9
100
AcDbLine
 10
-180.9949082637499
 20
376.112482128178
 30
0.0
 11
-173.8429561831581
 21
377.2127824482692
 31
0.0
  0
ARC
  5
1CA
330
1F
100
AcDbEntity
  8
通り芯
  6
JWW_DASHED1
 62
     3
370
     9
100
AcDbCircle
 10
-171.8428510794961
 20
361.40830029506
 30
0.0
 40
3.0
100
AcDbArc
 50
0.0
 51
81.2538377374448
  0
LINE
  5
1CB
330
1F
100
AcDbEntity
  8
通り芯
  6
JWW_DASHED1
 62
     3
370
     9
100
AcDbLine
 10
-173.8429561831581
 20
364.7513041043848
 30
0.0
 11
-171.3866795267343
 21
364.3734153880118
 31
0.0
  0
LINE
  5
1CC
330
1F
100
AcDbEntity
  8
通り芯
  6
JWW_DASHED1
 62
     3
370
     9
100
AcDbLine
 10
-173.8429561831581
 20
377.2127824482692
 30
0.0
 11
-171.3866795267343
 21
377.590671164642
 31
0.0
  0
ARC
  5
1CD
330
1F
100
AcDbEntity
  8
通り芯
  6
JWW_DASHED1
 62
     3
370
     9
100
AcDbCircle
 10
-171.8428510794961
 20
380.5557862575938
 30
0.0
 40
3.0
100
AcDbArc
 50
278.7461622625552
 51
0.0
  0
LINE
  5
1CE
330
1F
100
AcDbEntity
  8
通り芯
  6
Continuous
 62
     3
370
     9
100
AcDbLine
 10
-202.8429920619324
 20
281.9816891575382
 30
0.0
 11
-194.8853917297974
 21
281.9816891575382
 31
0.0
  0
LINE
  5
1CF
330
1F
100
AcDbEntity
  8
通り芯
  6
Continuous
 62
     3
370
     9
100
AcDbLine
 10
-181.8428510794961
 20
375.1241104305274
 30
0.0
 11
-181.8428510794961
 21
373.981920985086
 31
0.0
  0
LINE
  5
1D0
330
1F
100
AcDbEntity
  8
通り芯
  6
Continuous
 62
     3
370
     9
100
AcDbLine
 10
-181.8428510794961
 20
367.9819921534921
 30
0.0
 11
-181.8428510794961
 21
366.8399761221265
 31
0.0
  0
LINE
  5
1D1
330
1F
100
AcDbEntity
  8
0-8
  6
JWW_CENTER1
 62
     2
370
     9
100
AcDbLine
 10
182.156963605099
 20
489.4584530853368
 30
0.0
 11
182.156963605099
 21
482.1956734076399
 31
0.0
  0
LINE
  5
1D2
330
1F
100
AcDbEntity
  8
0-8
  6
JWW_CENTER1
 62
     2
370
     9
100
AcDbLine
 10
178.294487123665
 20
485.9818476957672
 30
0.0
 11
185.8511788862284
 21
485.9818476957672
 31
0.0
  0
CIRCLE
  5
1D3
330
1F
100
AcDbEntity
  8
0-8
  6
Continuous
 62
     2
370
     9
100
AcDbCircle
 10
182.156963605099
 20
485.9818476957672
 30
0.0
 40
2.099999941914238
  0
LINE
  5
1D4
330
1F
100
AcDbEntity
  8
0-8
  6
Continuous
 62
     2
370
     9
100
AcDbLine
 10
197.1569838715991
 20
500.9818679622673
 30
0.0
 11
-162.8428088680926
 21
500.9818679622673
 31
0.0
  0
LINE
  5
1D5
330
1F
100
AcDbEntity
  8
0-8
  6
JWW_CENTER1
 62
     2
370
     9
100
AcDbLine
 10
-147.8427886015925
 20
489.4584530853368
 30
0.0
 11
-147.8427886015925
 21
482.1956734076399
 31
0.0
  0
LINE
  5
1D6
330
1F
100
AcDbEntity
  8
0-8
  6
JWW_CENTER1
 62
     2
370
     9
100
AcDbLine
 10
-151.7050668955112
 20
485.9818476957672
 30
0.0
 11
-144.1485733204631
 21
485.9818476957672
 31
0.0
  0
CIRCLE
  5
1D7
330
1F
100
AcDbEntity
  8
0-8
  6
Continuous
 62
     2
370
     9
100
AcDbCircle
 10
-147.8427886015925
 20
485.9818476957672
 30
0.0
 40
2.099999941914238
  0
LINE
  5
1D8
330
1F
100
AcDbEntity
  8
0-8
  6
JWW_CENTER1
 62
     2
370
     9
100
AcDbLine
 10
17.15708750175327
 20
489.4584530853368
 30
0.0
 11
17.15708750175327
 21
482.1956734076399
 31
0.0
  0
LINE
  5
1D9
330
1F
100
AcDbEntity
  8
0-8
  6
JWW_CENTER1
 62
     2
370
     9
100
AcDbLine
 10
13.29461102031928
 20
485.9818476957672
 30
0.0
 11
20.85130278288216
 21
485.9818476957672
 31
0.0
  0
CIRCLE
  5
1DA
330
1F
100
AcDbEntity
  8
0-8
  6
Continuous
 62
     2
370
     9
100
AcDbCircle
 10
17.15708750175327
 20
485.9818476957672
 30
0.0
 40
2.099999941914238
  0
LINE
  5
1DB
330
1F
100
AcDbEntity
  8
0-8
  6
Continuous
 62
     2
370
     9
100
AcDbLine
 10
-162.8428088680926
 20
410.9818679622672
 30
0.0
 11
-162.8428088680926
 21
500.9818679622673
 31
0.0
  0
LINE
  5
1DC
330
1F
100
AcDbEntity
  8
0-8
  6
Continuous
 62
     2
370
     9
100
AcDbLine
 10
-2.842808868092561
 20
410.9818679622672
 30
0.0
 11
-162.8428088680926
 21
410.9818679622672
 31
0.0
  0
LINE
  5
1DD
330
1F
100
AcDbEntity
  8
0-8
  6
Continuous
 62
     2
370
     9
100
AcDbLine
 10
-2.842808868092561
 20
402.4819434019558
 30
0.0
 11
-2.842808868092561
 21
410.9818679622672
 31
0.0
  0
LINE
  5
1DE
330
1F
100
AcDbEntity
  8
通り芯
  6
Continuous
 62
     3
370
     9
100
AcDbLine
 10
-194.8853917297974
 20
283.9816891575382
 30
0.0
 11
-173.8429561831581
 21
283.9816891575382
 31
0.0
  0
LINE
  5
1DF
330
1F
100
AcDbEntity
  8
0-8
  6
Continuous
 62
     2
370
     9
100
AcDbLine
 10
-181.8434864087421
 20
348.9819532700915
 30
0.0
 11
-181.8434864087421
 21
392.9819598684865
 31
0.0
  0
LINE
  5
1E0
330
1F
100
AcDbEntity
  8
通り芯
  6
JWW_CENTER1
 62
     3
370
     9
100
AcDbLine
 10
-216.0594047449374
 20
370.9819565692891
 30
0.0
 11
-167.6818761283632
 21
370.9819565692891
 31
0.0
  0
LINE
  5
1E1
330
1F
100
AcDbEntity
  8
通り芯
  6
Continuous
 62
     3
370
     9
100
AcDbLine
 10
-202.8429920619324
 20
281.9816891575382
 30
0.0
 11
-202.8429920619324
 21
219.9816885683956
 31
0.0
  0
LINE
  5
1E2
330
1F
100
AcDbEntity
  8
通り芯
  6
Continuous
 62
     3
370
     9
100
AcDbLine
 10
-194.8853917297974
 20
283.9816891575382
 30
0.0
 11
-194.8853917297974
 21
219.9816885683956
 31
0.0
  0
LINE
  5
1E3
330
1F
100
AcDbEntity
  8
通り芯
  6
Continuous
 62
     3
370
     9
100
AcDbLine
 10
-173.8429561831581
 20
402.4819434019558
 30
0.0
 11
-173.8429561831581
 21
219.9816885683956
 31
0.0
  0
LINE
  5
1E4
330
1F
100
AcDbEntity
  8
通り芯
  6
JWW_DASHED1
 62
     3
370
     9
100
AcDbLine
 10
-168.8429576854712
 20
219.9816885683956
 30
0.0
 11
-168.8429576854712
 21
389.952404831272
 31
0.0
  0
LINE
  5
1E5
330
1F
100
AcDbEntity
  8
通り芯
  6
Continuous
 62
     3
370
     9
100
AcDbLine
 10
-162.8429297601199
 20
219.9816885683956
 30
0.0
 11
-162.8429297601199
 21
399.6555912493709
 31
0.0
  0
LINE
  5
1E6
330
1F
100
AcDbEntity
  8
通り芯
  6
Continuous
 62
     3
370
     9
100
AcDbLine
 10
42.1569838715991
 20
219.9816885683956
 30
0.0
 11
42.1569838715991
 21
392.4819464065823
 31
0.0
  0
LINE
  5
1E7
330
1F
100
AcDbEntity
  8
0-8
  6
Continuous
 62
     2
370
     9
100
AcDbLine
 10
197.1569838715991
 20
500.9818679622673
 30
0.0
 11
197.1569838715991
 21
219.9816885683956
 31
0.0
  0
LWPOLYLINE
  5
1E8
330
1F
100
AcDbEntity
  8
その他
  6
Continuous
 62
     7
370
     9
100
AcDbPolyline
 90
        4
 70
     1
 43
0.8
 10
-162.4429297601199
 20
65.81048985790916
 42
0.4142135623731
 10
-162.8429297601199
 20
66.21048985790917
 42
0.4142135623731
 10
-163.2429297601199
 20
65.81048985790916
 42
0.4142135623731
 10
-162.8429297601199
 20
65.41048985790916
 42
0.4142135623731
  0
LINE
  5
1E9
330
1F
100
AcDbEntity
  8
その他
  6
Continuous
 62
     7
370
     9
100
AcDbLine
 10
-162.8429297601199
 20
73.81048985790916
 30
0.0
 11
-162.8429297601199
 21
-139.1335973585686
 31
0.0
  0
LINE
  5
1EA
330
1F
100
AcDbEntity
  8
その他
  6
Continuous
 62
     7
370
     9
100
AcDbLine
 10
-162.8429297601199
 20
65.81048985790916
 30
0.0
 11
42.15702412843802
 21
65.81048985790916
 31
0.0
  0
LWPOLYLINE
  5
1EB
330
1F
100
AcDbEntity
  8
その他
  6
Continuous
 62
     7
370
     9
100
AcDbPolyline
 90
        4
 70
     1
 43
0.8
 10
42.55702412843802
 20
65.81048985790916
 42
0.4142135623731
 10
42.15702412843802
 20
66.21048985790917
 42
0.4142135623731
 10
41.75702412843803
 20
65.81048985790916
 42
0.4142135623731
 10
42.15702412843802
 20
65.41048985790916
 42
0.4142135623731
  0
LINE
  5
1EC
330
1F
100
AcDbEntity
  8
その他
  6
Continuous
 62
     7
370
     9
100
AcDbLine
 10
42.15702412843802
 20
73.81048985790916
 30
0.0
 11
42.15702412843802
 21
-344.1334862168483
 31
0.0
  0
TEXT
  5
1ED
330
1F
100
AcDbEntity
  8
その他
  6
Continuous
 62
     2
370
   211
100
AcDbText
 10
-73.34295281584082
 20
70.46648985790917
 30
0.0
 40
12.192
  1
205
 41
1.083333333333333
  7
ＭＳ ゴシック
100
AcDbText
  0
LINE
  5
1EE
330
1F
100
AcDbEntity
  8
その他
  6
Continuous
 62
     7
370
     9
100
AcDbLine
 10
42.15702412843802
 20
65.81048985790916
 30
0.0
 11
197.1569838715991
 21
65.81048985790916
 31
0.0
  0
LWPOLYLINE
  5
1EF
330
1F
100
AcDbEntity
  8
その他
  6
Continuous
 62
     7
370
     9
100
AcDbPolyline
 90
        4
 70
     1
 43
0.8
 10
197.5569838715991
 20
65.81048985790916
 42
0.4142135623731
 10
197.1569838715991
 20
66.21048985790917
 42
0.4142135623731
 10
196.7569838715991
 20
65.81048985790916
 42
0.4142135623731
 10
197.1569838715991
 20
65.41048985790916
 42
0.4142135623731
  0
TEXT
  5
1F0
330
1F
100
AcDbEntity
  8
その他
  6
Continuous
 62
     2
370
   211
100
AcDbText
 10
106.6570040000186
 20
70.46648985790917
 30
0.0
 40
12.192
  1
155
 41
1.083333333333333
  7
ＭＳ ゴシック
100
AcDbText
  0
LWPOLYLINE
  5
1F1
330
1F
100
AcDbEntity
  8
その他
  6
Continuous
 62
     7
370
     9
100
AcDbPolyline
 90
        4
 70
     1
 43
0.8
 10
-162.4429297601199
 20
38.90371301451738
 42
0.4142135623731
 10
-162.8429297601199
 20
39.30371301451738
 42
0.4142135623731
 10
-163.2429297601199
 20
38.90371301451738
 42
0.4142135623731
 10
-162.8429297601199
 20
38.50371301451738
 42
0.4142135623731
  0
LINE
  5
1F2
330
1F
100
AcDbEntity
  8
その他
  6
Continuous
 62
     7
370
     9
100
AcDbLine
 10
-162.4928816760796
 20
38.90371301451738
 30
0.0
 11
-154.4929576646373
 21
38.90371301451738
 31
0.0
  0
LWPOLYLINE
  5
1F3
330
1F
100
AcDbEntity
  8
その他
  6
Continuous
 62
     7
370
     9
100
AcDbPolyline
 90
        4
 70
     1
 43
0.8
 10
-162.0928816760796
 20
38.90371301451738
 42
0.4142135623731
 10
-162.4928816760796
 20
39.30371301451738
 42
0.4142135623731
 10
-162.8928816760796
 20
38.90371301451738
 42
0.4142135623731
 10
-162.4928816760796
 20
38.50371301451738
 42
0.4142135623731
  0
LWPOLYLINE
  5
1F4
330
1F
100
AcDbEntity
  8
その他
  6
Continuous
 62
     7
370
     9
100
AcDbPolyline
 90
        4
 70
     1
 43
0.8
 10
-154.0929576646373
 20
38.90371301451738
 42
0.4142135623731
 10
-154.4929576646373
 20
39.30371301451738
 42
0.4142135623731
 10
-154.8929576646373
 20
38.90371301451738
 42
0.4142135623731
 10
-154.4929576646373
 20
38.50371301451738
 42
0.4142135623731
  0
LINE
  5
1F5
330
1F
100
AcDbEntity
  8
その他
  6
Continuous
 62
     7
370
     9
100
AcDbLine
 10
-162.4928816760796
 20
46.90371301451738
 30
0.0
 11
-162.4928816760796
 21
-192.0655366233773
 31
0.0
  0
LINE
  5
1F6
330
1F
100
AcDbEntity
  8
その他
  6
Continuous
 62
     7
370
     9
100
AcDbLine
 10
-154.4929576646373
 20
46.90371301451738
 30
0.0
 11
-154.4929576646373
 21
-190.8106628247565
 31
0.0
  0
TEXT
  5
1F7
330
1F
100
AcDbEntity
  8
その他
  6
Continuous
 62
     2
370
   211
100
AcDbText
 10
-162.4929196703583
 20
43.55971301451738
 30
0.0
 40
12.192
  1
8
  7
ＭＳ ゴシック
100
AcDbText
  0
LINE
  5
1F8
330
1F
100
AcDbEntity
  8
その他
  6
Continuous
 62
     7
370
     9
100
AcDbLine
 10
-154.4929576646373
 20
38.90371301451738
 30
0.0
 11
-10.49300588594565
 21
38.90371301451738
 31
0.0
  0
LWPOLYLINE
  5
1F9
330
1F
100
AcDbEntity
  8
その他
  6
Continuous
 62
     7
370
     9
100
AcDbPolyline
 90
        4
 70
     1
 43
0.8
 10
-10.09300588594565
 20
38.90371301451738
 42
0.4142135623731
 10
-10.49300588594565
 20
39.30371301451738
 42
0.4142135623731
 10
-10.89300588594565
 20
38.90371301451738
 42
0.4142135623731
 10
-10.49300588594565
 20
38.50371301451738
 42
0.4142135623731
  0
LINE
  5
1FA
330
1F
100
AcDbEntity
  8
その他
  6
Continuous
 62
     7
370
     9
100
AcDbLine
 10
-10.49300588594565
 20
46.90371301451738
 30
0.0
 11
-10.49300588594565
 21
-334.7818385039686
 31
0.0
  0
TEXT
  5
1FB
330
1F
100
AcDbEntity
  8
その他
  6
Continuous
 62
     2
370
   211
100
AcDbText
 10
-95.49298177529136
 20
43.55971301451738
 30
0.0
 40
12.192
  1
144
 41
1.083333333333333
  7
ＭＳ ゴシック
100
AcDbText
  0
LWPOLYLINE
  5
1FC
330
1F
100
AcDbEntity
  8
その他
  6
Continuous
 62
     7
370
     9
100
AcDbPolyline
 90
        4
 70
     1
 43
0.8
 10
74.93910855413756
 20
308.481580225102
 42
0.4142135623731
 10
74.53910855413756
 20
308.881580225102
 42
0.4142135623731
 10
74.13910855413755
 20
308.481580225102
 42
0.4142135623731
 10
74.53910855413756
 20
308.081580225102
 42
0.4142135623731
  0
LINE
  5
1FD
330
1F
100
AcDbEntity
  8
その他
  6
Continuous
 62
     7
370
     9
100
AcDbLine
 10
82.53910855413756
 20
308.481580225102
 30
0.0
 11
-33.84344581943583
 21
308.481580225102
 31
0.0
  0
LINE
  5
1FE
330
1F
100
AcDbEntity
  8
その他
  6
Continuous
 62
     7
370
     9
100
AcDbLine
 10
74.53910855413756
 20
308.481580225102
 30
0.0
 11
74.53910855413756
 21
215.2774147585893
 31
0.0
  0
TEXT
  5
1FF
330
1F
100
AcDbEntity
  8
その他
  6
Continuous
 62
     2
370
   211
100
AcDbText
 10
69.88310855413746
 20
215.2774147585893
 30
0.0
 40
12.192
  1
177
 50
90.0
 41
1.083333333333333
  7
ＭＳ ゴシック
100
AcDbText
  0
LINE
  5
200
330
1F
100
AcDbEntity
  8
通り芯
  6
JWW_CENTER1
 62
     3
370
     9
100
AcDbLine
 10
-222.8635429161118
 20
219.9816885683956
 30
0.0
 11
49.15012168366911
 21
219.9816885683956
 31
0.0
  0
LWPOLYLINE
  5
201
330
1F
100
AcDbEntity
  8
その他
  6
Continuous
 62
     7
370
     9
100
AcDbPolyline
 90
        4
 70
     1
 43
0.8
 10
115.2996807665615
 20
351.4819289974233
 42
0.4142135623731
 10
114.8996807665615
 20
351.8819289974233
 42
0.4142135623731
 10
114.4996807665615
 20
351.4819289974233
 42
0.4142135623731
 10
114.8996807665615
 20
351.0819289974233
 42
0.4142135623731
  0
LINE
  5
202
330
1F
100
AcDbEntity
  8
その他
  6
Continuous
 62
     7
370
     9
100
AcDbLine
 10
122.8996807665615
 20
351.4819289974233
 30
0.0
 11
-9.843482758666596
 21
351.4819289974233
 31
0.0
  0
LINE
  5
203
330
1F
100
AcDbEntity
  8
その他
  6
Continuous
 62
     7
370
     9
100
AcDbLine
 10
114.8996807665615
 20
351.4819289974233
 30
0.0
 11
114.8996807665615
 21
215.2774147585893
 31
0.0
  0
TEXT
  5
204
330
1F
100
AcDbEntity
  8
その他
  6
Continuous
 62
     2
370
   211
100
AcDbText
 10
110.2436807665614
 20
215.2774147585893
 30
0.0
 40
12.192
  1
263
 50
90.0
 41
1.083333333333333
  7
ＭＳ ゴシック
100
AcDbText
  0
LINE
  5
205
330
1F
100
AcDbEntity
  8
通り芯
  6
JWW_CENTER1
 62
     3
370
     9
100
AcDbLine
 10
79.43818752729067
 20
219.9816885683956
 30
0.0
 11
92.10132685709641
 21
219.9816885683956
 31
0.0
  0
LWPOLYLINE
  5
206
330
1F
100
AcDbEntity
  8
その他
  6
Continuous
 62
     7
370
     9
100
AcDbPolyline
 90
        4
 70
     1
 43
0.8
 10
155.0880405549209
 20
402.4819464986358
 42
0.4142135623731
 10
154.6880405549209
 20
402.8819464986358
 42
0.4142135623731
 10
154.2880405549209
 20
402.4819464986358
 42
0.4142135623731
 10
154.6880405549209
 20
402.0819464986358
 42
0.4142135623731
  0
LINE
  5
207
330
1F
100
AcDbEntity
  8
その他
  6
Continuous
 62
     7
370
     9
100
AcDbLine
 10
162.6880405549209
 20
402.4819464986358
 30
0.0
 11
40.15698687622557
 21
402.4819464986358
 31
0.0
  0
TEXT
  5
208
330
1F
100
AcDbEntity
  8
その他
  6
Continuous
 62
     2
370
   211
100
AcDbText
 10
150.0320405549208
 20
215.2774147585893
 30
0.0
 40
12.192
  1
365
 50
90.0
 41
1.083333333333333
  7
ＭＳ ゴシック
100
AcDbText
  0
LINE
  5
209
330
1F
100
AcDbEntity
  8
その他
  6
Continuous
 62
     7
370
     9
100
AcDbLine
 10
154.6880405549209
 20
402.4819464986358
 30
0.0
 11
154.6880405549209
 21
215.2774147585893
 31
0.0
  0
LINE
  5
20A
330
1F
100
AcDbEntity
  8
通り芯
  6
JWW_CENTER1
 62
     3
370
     9
100
AcDbLine
 10
120.5081463750271
 20
219.9816885683956
 30
0.0
 11
130.8197277977192
 21
219.9816885683956
 31
0.0
  0
LINE
  5
20B
330
1F
100
AcDbEntity
  8
通り芯
  6
JWW_CENTER1
 62
     3
370
     9
100
AcDbLine
 10
161.0137313250561
 20
219.9816885683956
 30
0.0
 11
214.5117281460984
 21
219.9816885683956
 31
0.0
  0
LWPOLYLINE
  5
20C
330
1F
100
AcDbEntity
  8
その他
  6
Continuous
 62
     7
370
     9
100
AcDbPolyline
 90
        4
 70
     1
 43
0.8
 10
260.6906272686186
 20
500.9818679622673
 42
0.4142135623731
 10
260.2906272686187
 20
501.3818679622673
 42
0.4142135623731
 10
259.8906272686187
 20
500.9818679622673
 42
0.4142135623731
 10
260.2906272686187
 20
500.5818679622673
 42
0.4142135623731
  0
LINE
  5
20D
330
1F
100
AcDbEntity
  8
その他
  6
Continuous
 62
     7
370
     9
100
AcDbLine
 10
268.2906272686187
 20
500.9818679622673
 30
0.0
 11
205.1569838715991
 21
500.9818679622673
 31
0.0
  0
TEXT
  5
20E
330
1F
100
AcDbEntity
  8
その他
  6
Continuous
 62
     2
370
   211
100
AcDbText
 10
255.6346272686186
 20
215.2774147585893
 30
0.0
 40
12.192
  1
562
 50
90.0
 41
1.083333333333333
  7
ＭＳ ゴシック
100
AcDbText
  0
LINE
  5
20F
330
1F
100
AcDbEntity
  8
その他
  6
Continuous
 62
     7
370
     9
100
AcDbLine
 10
260.2906272686187
 20
500.9818679622673
 30
0.0
 11
260.2906272686187
 21
215.2774147585893
 31
0.0
  0
LINE
  5
210
330
1F
100
AcDbEntity
  8
その他
  6
Continuous
 62
     7
370
     9
100
AcDbLine
 10
74.53910855413756
 20
-349.7818852198985
 30
0.0
 11
74.53910855413756
 21
-341.7818385039869
 31
0.0
  0
LWPOLYLINE
  5
211
330
1F
100
AcDbEntity
  8
その他
  6
Continuous
 62
     7
370
     9
100
AcDbPolyline
 90
        4
 70
     1
 43
0.8
 10
74.93910855413756
 20
-349.7818852198985
 42
0.4142135623731
 10
74.53910855413756
 20
-349.3818852198985
 42
0.4142135623731
 10
74.13910855413755
 20
-349.7818852198985
 42
0.4142135623731
 10
74.53910855413756
 20
-350.1818852198985
 42
0.4142135623731
  0
LWPOLYLINE
  5
212
330
1F
100
AcDbEntity
  8
その他
  6
Continuous
 62
     7
370
     9
100
AcDbPolyline
 90
        4
 70
     1
 43
0.8
 10
74.93910855413756
 20
-341.7818385039869
 42
0.4142135623731
 10
74.53910855413756
 20
-341.381838503987
 42
0.4142135623731
 10
74.13910855413755
 20
-341.7818385039869
 42
0.4142135623731
 10
74.53910855413756
 20
-342.1818385039869
 42
0.4142135623731
  0
LINE
  5
213
330
1F
100
AcDbEntity
  8
その他
  6
Continuous
 62
     7
370
     9
100
AcDbLine
 10
82.53910855413756
 20
-349.7818852198985
 30
0.0
 11
-4.776819715993724
 21
-349.7818852198985
 31
0.0
  0
LINE
  5
214
330
1F
100
AcDbEntity
  8
その他
  6
Continuous
 62
     7
370
     9
100
AcDbLine
 10
82.53910855413756
 20
-341.7818385039869
 30
0.0
 11
-3.493011938225209
 21
-341.7818385039869
 31
0.0
  0
TEXT
  5
215
330
1F
100
AcDbEntity
  8
その他
  6
Continuous
 62
     2
370
   211
100
AcDbText
 10
69.88310855413746
 20
-349.7818618619427
 30
0.0
 40
12.192
  1
8
 50
90.0
  7
ＭＳ ゴシック
100
AcDbText
  0
LINE
  5
216
330
1F
100
AcDbEntity
  8
その他
  6
Continuous
 62
     7
370
     9
100
AcDbLine
 10
74.53910855413756
 20
-341.7818385039869
 30
0.0
 11
74.53910855413756
 21
-197.7819999461825
 31
0.0
  0
LWPOLYLINE
  5
217
330
1F
100
AcDbEntity
  8
その他
  6
Continuous
 62
     7
370
     9
100
AcDbPolyline
 90
        4
 70
     1
 43
0.8
 10
74.93910855413756
 20
-197.7819999461825
 42
0.4142135623731
 10
74.53910855413756
 20
-197.3819999461825
 42
0.4142135623731
 10
74.13910855413755
 20
-197.7819999461825
 42
0.4142135623731
 10
74.53910855413756
 20
-198.1819999461825
 42
0.4142135623731
  0
LINE
  5
218
330
1F
100
AcDbEntity
  8
その他
  6
Continuous
 62
     7
370
     9
100
AcDbLine
 10
82.53910855413756
 20
-197.7819999461825
 30
0.0
 11
-147.492541170393
 21
-197.7819999461825
 31
0.0
  0
LWPOLYLINE
  5
219
330
1F
100
AcDbEntity
  8
その他
  6
Continuous
 62
     7
370
     9
100
AcDbPolyline
 90
        4
 70
     1
 43
0.8
 10
115.2996807665615
 20
-350.1334861984376
 42
0.4142135623731
 10
114.8996807665615
 20
-349.7334861984376
 42
0.4142135623731
 10
114.4996807665615
 20
-350.1334861984376
 42
0.4142135623731
 10
114.8996807665615
 20
-350.5334861984376
 42
0.4142135623731
  0
LINE
  5
21A
330
1F
100
AcDbEntity
  8
その他
  6
Continuous
 62
     7
370
     9
100
AcDbLine
 10
122.8996807665615
 20
-350.1334861984376
 30
0.0
 11
48.15702411002735
 21
-350.1334861984376
 31
0.0
  0
LINE
  5
21B
330
1F
100
AcDbEntity
  8
その他
  6
Continuous
 62
     7
370
     9
100
AcDbLine
 10
114.8996807665615
 20
-350.1334861984376
 30
0.0
 11
114.8996807665615
 21
-145.1336375969969
 31
0.0
  0
LWPOLYLINE
  5
21C
330
1F
100
AcDbEntity
  8
その他
  6
Continuous
 62
     7
370
     9
100
AcDbPolyline
 90
        4
 70
     1
 43
0.8
 10
115.2996807665615
 20
-145.1336375969969
 42
0.4142135623731
 10
114.8996807665615
 20
-144.7336375969969
 42
0.4142135623731
 10
114.4996807665615
 20
-145.1336375969969
 42
0.4142135623731
 10
114.8996807665615
 20
-145.5336375969969
 42
0.4142135623731
  0
LINE
  5
21D
330
1F
100
AcDbEntity
  8
その他
  6
Continuous
 62
     7
370
     9
100
AcDbLine
 10
122.8996807665615
 20
-145.1336375969969
 30
0.0
 11
-156.8429390685703
 21
-145.1336375969969
 31
0.0
  0
LINE
  5
21E
330
1F
100
AcDbEntity
  8
その他
  6
Continuous
 62
     7
370
     9
100
AcDbLine
 10
114.8996807665615
 20
-145.1336375969969
 30
0.0
 11
114.8996807665615
 21
9.866362403003109
 31
0.0
  0
LWPOLYLINE
  5
21F
330
1F
100
AcDbEntity
  8
その他
  6
Continuous
 62
     7
370
     9
100
AcDbPolyline
 90
        4
 70
     1
 43
0.8
 10
115.2996807665615
 20
9.866362403003109
 42
0.4142135623731
 10
114.8996807665615
 20
10.26636240300311
 42
0.4142135623731
 10
114.4996807665615
 20
9.866362403003109
 42
0.4142135623731
 10
114.8996807665615
 20
9.466362403003108
 42
0.4142135623731
  0
LINE
  5
220
330
1F
100
AcDbEntity
  8
寸法
  6
Continuous
 62
     7
370
     9
100
AcDbLine
 10
-11.49301193822521
 20
-341.7818385039869
 30
0.0
 11
-3.559478535312792
 21
-335.6942242138999
 31
0.0
  0
LINE
  5
221
330
1F
100
AcDbEntity
  8
寸法
  6
Continuous
 62
     7
370
     9
100
AcDbLine
 10
-11.49301193822521
 20
-341.7818385039869
 30
0.0
 11
-5.405397648138205
 21
-333.8483051010745
 31
0.0
  0
LINE
  5
222
330
1F
100
AcDbEntity
  8
寸法
  6
Continuous
 62
     7
370
     9
100
AcDbLine
 10
382.6877295973516
 20
-35.12592937051627
 30
0.0
 11
210.882164526319
 21
-35.12592937051627
 31
0.0
  0
TEXT
  5
223
330
1F
100
AcDbEntity
  8
寸法
  6
Continuous
 62
     7
370
     9
100
AcDbText
 10
215.5544054229892
 20
-27.42490276578647
 30
0.0
 40
9.144
  1
ストレーナー：ＦＣ１５０
 41
1.152777777777778
  7
ＭＳ ゴシック
100
AcDbText
  0
LINE
  5
224
330
1F
100
AcDbEntity
  8
寸法
  6
Continuous
 62
     7
370
     9
100
AcDbLine
 10
-119.7647495120416
 20
-308.1633228720472
 30
0.0
 11
-111.8312161091292
 21
-302.0757085819602
 31
0.0
  0
LINE
  5
225
330
1F
100
AcDbEntity
  8
寸法
  6
Continuous
 62
     7
370
     9
100
AcDbLine
 10
-119.7647495120416
 20
-308.1633228720472
 30
0.0
 11
-113.6771352219546
 21
-300.2297894691347
 31
0.0
  0
LINE
  5
226
330
1F
100
AcDbEntity
  8
通り芯
  6
JWW_CENTER1
 62
     3
370
     9
100
AcDbLine
 10
-119.7968848553728
 20
-307.0873380531082
 30
0.0
 11
-161.7204752817906
 21
-349.0106042040152
 31
0.0
  0
TEXT
  5
227
330
1F
100
AcDbEntity
  8
その他
  6
Continuous
 62
     2
370
   211
100
AcDbText
 10
110.2436807665614
 20
-73.75440806358377
 30
0.0
 40
12.192
  1
155
 50
90.0
 41
1.083333333333333
  7
ＭＳ ゴシック
100
AcDbText
  0
LINE
  5
228
330
1F
100
AcDbEntity
  8
寸法
  6
Continuous
 62
     7
370
     9
100
AcDbLine
 10
-119.7647495120416
 20
-308.1633228720472
 30
0.0
 11
210.882164526319
 21
22.48359116631349
 31
0.0
  0
LINE
  5
229
330
1F
100
AcDbEntity
  8
寸法
  6
Continuous
 62
     7
370
     9
100
AcDbLine
 10
-11.49301193822521
 20
-341.7818385039869
 30
0.0
 11
210.882164526319
 21
-119.4066620394431
 31
0.0
  0
TEXT
  5
22A
330
1F
100
AcDbEntity
  8
寸法
  6
Continuous
 62
     7
370
     9
100
AcDbText
 10
217.3755788723768
 20
-110.3970746766893
 30
0.0
 40
9.144
  1
防水層押え：ＦＣ１５０
 41
1.151515151515152
  7
ＭＳ ゴシック
100
AcDbText
  0
LINE
  5
22B
330
1F
100
AcDbEntity
  8
寸法
  6
Continuous
 62
     7
370
     9
100
AcDbLine
 10
368.9455621042182
 20
-119.4066620394431
 30
0.0
 11
210.882164526319
 21
-119.4066620394431
 31
0.0
  0
TEXT
  5
22C
330
1F
100
AcDbEntity
  8
その他
  6
Continuous
 62
     2
370
   211
100
AcDbText
 10
69.88310855413746
 20
-305.2415685010315
 30
0.0
 40
12.192
  1
144
 50
90.0
 41
1.083333333333333
  7
ＭＳ ゴシック
100
AcDbText
  0
LINE
  5
22D
330
1F
100
AcDbEntity
  8
寸法
  6
Continuous
 62
     7
370
     9
100
AcDbLine
 10
-143.9044491375546
 20
-240.7607154781464
 30
0.0
 11
-135.9709157346422
 21
-234.6731011880593
 31
0.0
  0
LINE
  5
22E
330
1F
100
AcDbEntity
  8
寸法
  6
Continuous
 62
     7
370
     9
100
AcDbLine
 10
-143.9044491375546
 20
-240.7607154781464
 30
0.0
 11
-137.8168348474676
 21
-232.8271820752339
 31
0.0
  0
LINE
  5
22F
330
1F
100
AcDbEntity
  8
寸法
  6
Continuous
 62
     7
370
     9
100
AcDbLine
 10
-143.9044491375546
 20
-240.7607154781464
 30
0.0
 11
210.882164526319
 21
114.0258981857272
 31
0.0
  0
LINE
  5
230
330
1F
100
AcDbEntity
  8
寸法
  6
Continuous
 62
     7
370
     9
100
AcDbLine
 10
360.4309356578126
 20
114.0258981857272
 30
0.0
 11
210.882164526319
 21
114.0258981857272
 31
0.0
  0
LINE
  5
231
330
1F
100
AcDbEntity
  8
寸法
  6
Continuous
 62
     7
370
     9
100
AcDbLine
 10
-63.88339026837048
 20
-309.8914841652052
 30
0.0
 11
210.882164526319
 21
-35.12592937051627
 31
0.0
  0
LINE
  5
232
330
1F
100
AcDbEntity
  8
寸法
  6
Continuous
 62
     7
370
     9
100
AcDbLine
 10
-63.88339026837048
 20
-309.8914841652052
 30
0.0
 11
-55.94985686545806
 21
-303.8038698751178
 31
0.0
  0
LINE
  5
233
330
1F
100
AcDbEntity
  8
寸法
  6
Continuous
 62
     7
370
     9
100
AcDbLine
 10
-63.88339026837048
 20
-309.8914841652052
 30
0.0
 11
-57.79577597828302
 21
-301.9579507622928
 31
0.0
  0
LINE
  5
234
330
1F
100
AcDbEntity
  8
通り芯
  6
Continuous
 62
     3
370
     9
100
AcDbLine
 10
-202.7313021564582
 20
-249.6216066565567
 30
0.0
 11
-201.2222656541355
 21
-251.1163906250955
 31
0.0
  0
LINE
  5
235
330
1F
100
AcDbEntity
  8
通り芯
  6
Continuous
 62
     3
370
     9
100
AcDbLine
 10
-201.2222656541355
 20
-251.1163906250955
 30
0.0
 11
-198.9829847472522
 21
-361.0732041280516
 31
0.0
  0
LINE
  5
236
330
1F
100
AcDbEntity
  8
通り芯
  6
Continuous
 62
     3
370
     9
100
AcDbLine
 10
-198.9829847472522
 20
-361.0732041280516
 30
0.0
 11
-200.4299138540935
 21
-362.6281654614554
 31
0.0
  0
LINE
  5
237
330
1F
100
AcDbEntity
  8
通り芯
  6
Continuous
 62
     3
370
     9
100
AcDbLine
 10
-198.982990221569
 20
-361.073210011098
 30
0.0
 11
-178.1796395325068
 21
-359.9987719046437
 31
0.0
  0
LINE
  5
238
330
1F
100
AcDbEntity
  8
通り芯
  6
Continuous
 62
     3
370
     9
100
AcDbLine
 10
-201.222265654136
 20
-251.1163906251475
 30
0.0
 11
-180.3039812001109
 21
-251.3439588339994
 31
0.0
  0
LINE
  5
239
330
1F
100
AcDbEntity
  8
仕上
  6
Continuous
 62
     6
370
     9
100
AcDbLine
 10
-51.97814742998406
 20
224.9816127457644
 30
0.0
 11
-89.45741318058907
 21
224.9816127457644
 31
0.0
  0
LINE
  5
23A
330
1F
100
AcDbEntity
  8
仕上
  6
Continuous
 62
     6
370
     9
100
AcDbLine
 10
-91.45739771560028
 20
273.9816426152858
 30
0.0
 11
-91.45739771560028
 21
279.9816209937585
 31
0.0
  0
LINE
  5
23B
330
1F
100
AcDbEntity
  8
仕上
  6
Continuous
 62
     6
370
     9
100
AcDbLine
 10
-51.97814742998406
 20
271.9815837599566
 30
0.0
 11
-89.45741318058907
 21
271.9815837599566
 31
0.0
  0
LINE
  5
23C
330
1F
100
AcDbEntity
  8
仕上
  6
Continuous
 62
     6
370
     9
100
AcDbLine
 10
-49.97816289497285
 20
279.9816209937585
 30
0.0
 11
-49.97816289497285
 21
273.9816426152858
 31
0.0
  0
LINE
  5
23D
330
1F
100
AcDbEntity
  8
仕上
  6
Continuous
 62
     6
370
     9
100
AcDbLine
 10
-51.97814742998406
 20
281.9816303022089
 30
0.0
 11
-89.45741318058907
 21
281.9816303022089
 31
0.0
  0
LINE
  5
23E
330
1F
100
AcDbEntity
  8
仕上
  6
Continuous
 62
     6
370
     9
100
AcDbLine
 10
-98.52853006621257
 20
273.9816426152858
 30
0.0
 11
-98.52853006621257
 21
279.9816209937585
 31
0.0
  0
LINE
  5
23F
330
1F
100
AcDbEntity
  8
仕上
  6
Continuous
 62
     6
370
     9
100
AcDbLine
 10
-98.52853006621257
 20
254.9815541850063
 30
0.0
 11
-98.52853006621257
 21
260.9817307509941
 31
0.0
  0
LINE
  5
240
330
1F
100
AcDbEntity
  8
仕上
  6
Continuous
 62
     6
370
     9
100
AcDbLine
 10
-91.45739771560028
 20
254.9815541850063
 30
0.0
 11
-91.45739771560028
 21
260.9817307509941
 31
0.0
  0
LINE
  5
241
330
1F
100
AcDbEntity
  8
仕上
  6
Continuous
 62
     6
370
     9
100
AcDbLine
 10
-51.97814742998406
 20
252.9816439703134
 30
0.0
 11
-89.45741318058907
 21
252.9816439703134
 31
0.0
  0
LINE
  5
242
330
1F
100
AcDbEntity
  8
仕上
  6
Continuous
 62
     6
370
     9
100
AcDbLine
 10
-49.97816289497285
 20
260.9817307509941
 30
0.0
 11
-49.97816289497285
 21
254.9815541850063
 31
0.0
  0
LINE
  5
243
330
1F
100
AcDbEntity
  8
仕上
  6
Continuous
 62
     6
370
     9
100
AcDbLine
 10
-51.97814742998406
 20
262.981640965687
 30
0.0
 11
-89.45741318058907
 21
262.981640965687
 31
0.0
  0
LINE
  5
244
330
1F
100
AcDbEntity
  8
仕上
  6
Continuous
 62
     6
370
     9
100
AcDbLine
 10
-49.97816289497285
 20
235.9815153016057
 30
0.0
 11
-49.97816289497285
 21
241.9816423207147
 31
0.0
  0
LINE
  5
245
330
1F
100
AcDbEntity
  8
仕上
  6
Continuous
 62
     6
370
     9
100
AcDbLine
 10
-89.45741318058907
 20
233.9816546337916
 30
0.0
 11
-51.97814742998406
 21
233.9816546337916
 31
0.0
  0
LINE
  5
246
330
1F
100
AcDbEntity
  8
仕上
  6
Continuous
 62
     6
370
     9
100
AcDbLine
 10
-91.45739771560028
 20
241.9816423207147
 30
0.0
 11
-91.45739771560028
 21
235.9815153016057
 31
0.0
  0
LINE
  5
247
330
1F
100
AcDbEntity
  8
仕上
  6
Continuous
 62
     6
370
     9
100
AcDbLine
 10
-89.45741318058907
 20
243.9816020822864
 30
0.0
 11
-51.97814742998406
 21
243.9816020822864
 31
0.0
  0
LINE
  5
248
330
1F
100
AcDbEntity
  8
仕上
  6
Continuous
 62
     6
370
     9
100
AcDbLine
 10
-98.52853006621257
 20
235.9815153016057
 30
0.0
 11
-98.52853006621257
 21
241.9816423207147
 31
0.0
  0
LINE
  5
249
330
1F
100
AcDbEntity
  8
仕上
  6
Continuous
 62
     6
370
     9
100
AcDbLine
 10
-114.8361915572236
 20
224.9816127457644
 30
0.0
 11
-100.528539374663
 21
224.9816127457644
 31
0.0
  0
LINE
  5
24A
330
1F
100
AcDbEntity
  8
0-A
  6
Continuous
 62
     2
370
     9
100
AcDbLine
 10
-143.9044782615044
 20
220.4606582454703
 30
0.0
 11
-145.89299269408
 21
220.4606582454703
 31
0.0
  0
LINE
  5
24B
330
1F
100
AcDbEntity
  8
仕上
  6
Continuous
 62
     6
370
     9
100
AcDbLine
 10
-141.7532518790462
 20
292.5832750464928
 30
0.0
 11
-142.7631906824649
 21
296.8419779174546
 31
0.0
  0
LINE
  5
24C
330
1F
100
AcDbEntity
  8
仕上
  6
Continuous
 62
     6
370
     9
100
AcDbLine
 10
-131.8202670372097
 20
292.1985930797186
 30
0.0
 11
-141.2666767560804
 21
292.1985930797186
 31
0.0
  0
LINE
  5
24D
330
1F
100
AcDbEntity
  8
仕上
  6
Continuous
 62
     6
370
     9
100
AcDbLine
 10
-130.4999418117331
 20
296.8231005566431
 30
0.0
 11
-131.3296786170635
 21
292.6021524073044
 31
0.0
  0
LINE
  5
24E
330
1F
100
AcDbEntity
  8
仕上
  6
Continuous
 62
     6
370
     9
100
AcDbLine
 10
-126.5525419800865
 20
297.2266103373502
 30
0.0
 11
-130.0093286181477
 21
297.2266103373502
 31
0.0
  0
LINE
  5
24F
330
1F
100
AcDbEntity
  8
仕上
  6
Continuous
 62
     6
370
     9
100
AcDbLine
 10
-125.1313393094333
 20
292.591202547096
 30
0.0
 11
-126.0642327163638
 21
296.8340008699726
 31
0.0
  0
LINE
  5
250
330
1F
100
AcDbEntity
  8
仕上
  6
Continuous
 62
     6
370
     9
100
AcDbLine
 10
-115.1973883034606
 20
292.1985930797186
 30
0.0
 11
-124.643005272271
 21
292.1985930797186
 31
0.0
  0
LINE
  5
251
330
1F
100
AcDbEntity
  8
仕上
  6
Continuous
 62
     6
370
     9
100
AcDbLine
 10
-113.8144605966576
 20
296.8298884790346
 30
0.0
 11
-114.7082862896775
 21
292.5953644849128
 31
0.0
  0
LINE
  5
252
330
1F
100
AcDbEntity
  8
仕上
  6
Continuous
 62
     6
370
     9
100
AcDbLine
 10
-109.8944849624103
 20
297.2266103373502
 30
0.0
 11
-113.3252347156776
 21
297.2266103373502
 31
0.0
  0
LINE
  5
253
330
1F
100
AcDbEntity
  8
仕上
  6
Continuous
 62
     6
370
     9
100
AcDbLine
 10
-108.5117306696829
 20
292.5953644849128
 30
0.0
 11
-109.4052590814303
 21
296.8298884790346
 31
0.0
  0
LINE
  5
254
330
1F
100
AcDbEntity
  8
仕上
  6
Continuous
 62
     6
370
     9
100
AcDbLine
 10
-98.58045519516412
 20
292.1985930797186
 30
0.0
 11
-108.0225047887029
 21
292.1985930797186
 31
0.0
  0
LINE
  5
255
330
1F
100
AcDbEntity
  8
仕上
  6
Continuous
 62
     6
370
     9
100
AcDbLine
 10
-97.19772567587592
 20
296.8298884790346
 30
0.0
 11
-98.09125408762333
 21
292.5953644849128
 31
0.0
  0
LINE
  5
256
330
1F
100
AcDbEntity
  8
仕上
  6
Continuous
 62
     6
370
     9
100
AcDbLine
 10
-93.27737844003804
 20
297.2266103373502
 30
0.0
 11
-96.70849979489589
 21
297.2266103373502
 31
0.0
  0
LINE
  5
257
330
1F
100
AcDbEntity
  8
仕上
  6
Continuous
 62
     6
370
     9
100
AcDbLine
 10
-91.89469846762876
 20
292.5953644849128
 30
0.0
 11
-92.788152559058
 21
296.8298884790346
 31
0.0
  0
LINE
  5
258
330
1F
100
AcDbEntity
  8
仕上
  6
Continuous
 62
     6
370
     9
100
AcDbLine
 10
-81.96344776654922
 20
292.1985930797186
 30
0.0
 11
-91.40547258664873
 21
292.1985930797186
 31
0.0
  0
LINE
  5
259
330
1F
100
AcDbEntity
  8
仕上
  6
Continuous
 62
     6
370
     9
100
AcDbLine
 10
-80.58069347382178
 20
296.8298884790346
 30
0.0
 11
-81.47419711212973
 21
292.5953644849128
 31
0.0
  0
LINE
  5
25A
330
1F
100
AcDbEntity
  8
仕上
  6
Continuous
 62
     6
370
     9
100
AcDbLine
 10
-76.66064351925655
 20
297.2266103373502
 30
0.0
 11
-80.09146759284175
 21
297.2266103373502
 31
0.0
  0
LINE
  5
25B
330
1F
100
AcDbEntity
  8
仕上
  6
Continuous
 62
     6
370
     9
100
AcDbLine
 10
-75.27769103901386
 20
292.5953644849128
 30
0.0
 11
-76.17141763827652
 21
296.8298884790346
 31
0.0
  0
LINE
  5
25C
330
1F
100
AcDbEntity
  8
仕上
  6
Continuous
 62
     6
370
     9
100
AcDbLine
 10
-65.34631647073746
 20
292.1985930797186
 30
0.0
 11
-74.78846515803383
 21
292.1985930797186
 31
0.0
  0
LINE
  5
25D
330
1F
100
AcDbEntity
  8
仕上
  6
Continuous
 62
     6
370
     9
100
AcDbLine
 10
-63.96306670922235
 20
296.8298884790346
 30
0.0
 11
-64.85709058975743
 21
292.5953644849128
 31
0.0
  0
LINE
  5
25E
330
1F
100
AcDbEntity
  8
仕上
  6
Continuous
 62
     6
370
     9
100
AcDbLine
 10
-60.04527113764101
 20
297.2266103373502
 30
0.0
 11
-63.47384082824232
 21
297.2266103373502
 31
0.0
  0
LINE
  5
25F
330
1F
100
AcDbEntity
  8
仕上
  6
Continuous
 62
     6
370
     9
100
AcDbLine
 10
-58.66073315727789
 20
292.5952158442765
 30
0.0
 11
-59.55607003010044
 21
296.8300371196709
 31
0.0
  0
LINE
  5
260
330
1F
100
AcDbEntity
  8
仕上
  6
Continuous
 62
     6
370
     9
100
AcDbLine
 10
-48.72868970613803
 20
292.1985930797186
 30
0.0
 11
-58.17160637005549
 21
292.1985930797186
 31
0.0
  0
LINE
  5
261
330
1F
100
AcDbEntity
  8
仕上
  6
Continuous
 62
     6
370
     9
100
AcDbLine
 10
-47.33790881904991
 20
296.8306316822162
 30
0.0
 11
-48.23963723923379
 21
292.5946212817313
 31
0.0
  0
LINE
  5
262
330
1F
100
AcDbEntity
  8
仕上
  6
Continuous
 62
     6
370
     9
100
AcDbLine
 10
-46.84888112558491
 20
297.2266103373502
 30
0.0
 11
-41.49293785081085
 21
297.2266103373502
 31
0.0
  0
LINE
  5
263
330
1F
100
AcDbEntity
  8
仕上
  6
Continuous
 62
     6
370
     9
100
AcDbLine
 10
-44.49292704004705
 20
308.481580225102
 30
0.0
 11
-147.4931586908523
 21
308.481580225102
 31
0.0
  0
LINE
  5
264
330
1F
100
AcDbEntity
  8
仕上
  6
Continuous
 62
     6
370
     9
100
AcDbLine
 10
-147.4931586908523
 20
232.1178496950812
 30
0.0
 11
-131.1429612044168
 21
229.8900238380438
 31
0.0
  0
LINE
  5
265
330
1F
100
AcDbEntity
  8
仕上
  6
Continuous
 62
     6
370
     9
100
AcDbLine
 10
-134.8839487391055
 20
236.0181799918959
 30
0.0
 11
-130.3913350534683
 21
235.4061769453225
 31
0.0
  0
LINE
  5
266
330
1F
100
AcDbEntity
  8
仕上
  6
Continuous
 62
     6
370
     9
100
AcDbLine
 10
-100.528539374663
 20
243.9816020822864
 30
0.0
 11
-134.3438877605069
 21
243.9816020822864
 31
0.0
  0
LINE
  5
267
330
1F
100
AcDbEntity
  8
仕上
  6
Continuous
 62
     6
370
     9
100
AcDbLine
 10
-100.528539374663
 20
233.9816546337916
 30
0.0
 11
-125.6863882188599
 21
233.9816546337916
 31
0.0
  0
LINE
  5
268
330
1F
100
AcDbEntity
  8
仕上
  6
Continuous
 62
     6
370
     9
100
AcDbLine
 10
-139.4219473656967
 20
252.9816439703134
 30
0.0
 11
-100.528539374663
 21
252.9816439703134
 31
0.0
  0
LINE
  5
269
330
1F
100
AcDbEntity
  8
仕上
  6
Continuous
 62
     6
370
     9
100
AcDbLine
 10
-141.4219566741471
 20
260.9817307509941
 30
0.0
 11
-141.4219566741471
 21
254.9815541850063
 31
0.0
  0
LINE
  5
26A
330
1F
100
AcDbEntity
  8
仕上
  6
Continuous
 62
     6
370
     9
100
AcDbLine
 10
-139.4219473656967
 20
262.981640965687
 30
0.0
 11
-100.528539374663
 21
262.981640965687
 31
0.0
  0
LINE
  5
26B
330
1F
100
AcDbEntity
  8
仕上
  6
Continuous
 62
     6
370
     9
100
AcDbLine
 10
-139.4219473656967
 20
271.9815837599566
 30
0.0
 11
-100.528539374663
 21
271.9815837599566
 31
0.0
  0
LINE
  5
26C
330
1F
100
AcDbEntity
  8
仕上
  6
Continuous
 62
     6
370
     9
100
AcDbLine
 10
-141.4219566741471
 20
279.9816209937585
 30
0.0
 11
-141.4219566741471
 21
273.9816426152858
 31
0.0
  0
LINE
  5
26D
330
1F
100
AcDbEntity
  8
仕上
  6
Continuous
 62
     6
370
     9
100
AcDbLine
 10
-139.4219473656967
 20
281.9816303022089
 30
0.0
 11
-100.528539374663
 21
281.9816303022089
 31
0.0
  0
LINE
  5
26E
330
1F
100
AcDbEntity
  8
仕上
  6
Continuous
 62
     6
370
     9
100
AcDbLine
 10
-101.0033966607995
 20
273.9816426152858
 30
0.0
 11
-101.0033966607995
 21
279.9816209937585
 31
0.0
  0
LINE
  5
26F
330
1F
100
AcDbEntity
  8
仕上
  6
Continuous
 62
     6
370
     9
100
AcDbLine
 10
-101.0033966607995
 20
254.9815541850063
 30
0.0
 11
-101.0033966607995
 21
260.9817307509941
 31
0.0
  0
LINE
  5
270
330
1F
100
AcDbEntity
  8
仕上
  6
Continuous
 62
     6
370
     9
100
AcDbLine
 10
-101.0033966607995
 20
235.9815153016057
 30
0.0
 11
-101.0033966607995
 21
241.9816423207147
 31
0.0
  0
LINE
  5
271
330
1F
100
AcDbEntity
  8
仕上
  6
Continuous
 62
     6
370
     9
100
AcDbLine
 10
-52.45302948955981
 20
279.9816209937585
 30
0.0
 11
-52.45302948955981
 21
273.9816426152858
 31
0.0
  0
LINE
  5
272
330
1F
100
AcDbEntity
  8
仕上
  6
Continuous
 62
     6
370
     9
100
AcDbLine
 10
-52.45302948955981
 20
260.9817307509941
 30
0.0
 11
-52.45302948955981
 21
254.9815541850063
 31
0.0
  0
LINE
  5
273
330
1F
100
AcDbEntity
  8
仕上
  6
Continuous
 62
     6
370
     9
100
AcDbLine
 10
-52.45302948955981
 20
235.9815153016057
 30
0.0
 11
-52.45302948955981
 21
241.9816423207147
 31
0.0
  0
LINE
  5
274
330
1F
100
AcDbEntity
  8
躯体
  6
JWW_HOJO
 62
     2
370
     9
100
AcDbLine
 10
-39.99290609603344
 20
311.4819410159291
 30
0.0
 11
-39.99290609603344
 21
308.4818775063746
 31
0.0
  0
LINE
  5
275
330
1F
100
AcDbEntity
  8
躯体
  6
JWW_HOJO
 62
     2
370
     9
100
AcDbLine
 10
-39.99290609603344
 20
311.4819410159291
 30
0.0
 11
-42.9928705118304
 21
311.4819410159291
 31
0.0
  0
LINE
  5
276
330
1F
100
AcDbEntity
  8
躯体
  6
Continuous
 62
     2
370
     9
100
AcDbLine
 10
-39.99290609603344
 20
308.4818775063746
 30
0.0
 11
-39.99290609603344
 21
272.4817595011449
 31
0.0
  0
LINE
  5
277
330
1F
100
AcDbEntity
  8
躯体
  6
Continuous
 62
     2
370
     9
100
AcDbLine
 10
-34.99290759834679
 20
259.4815999024593
 30
0.0
 11
-40.78947126602696
 21
262.4816634120137
 31
0.0
  0
LINE
  5
278
330
1F
100
AcDbEntity
  8
躯体
  6
Continuous
 62
     2
370
     9
100
AcDbLine
 10
-40.78947126602696
 20
269.4816959915904
 30
0.0
 11
-34.99290759834679
 21
272.4817595011449
 31
0.0
  0
LINE
  5
279
330
1F
100
AcDbEntity
  8
躯体
  6
Continuous
 62
     2
370
     9
100
AcDbLine
 10
-39.99290609603344
 20
272.4817595011449
 30
0.0
 11
-34.99290759834679
 21
272.4817595011449
 31
0.0
  0
LINE
  5
27A
330
1F
100
AcDbEntity
  8
躯体
  6
Continuous
 62
     2
370
     9
100
AcDbLine
 10
-39.99290609603344
 20
259.4815999024593
 30
0.0
 11
-34.99290759834679
 21
259.4815999024593
 31
0.0
  0
LINE
  5
27B
330
1F
100
AcDbEntity
  8
躯体
  6
Continuous
 62
     2
370
     9
100
AcDbLine
 10
-39.99290609603344
 20
226.4816445005416
 30
0.0
 11
-34.99290759834679
 21
226.4816445005416
 31
0.0
  0
LINE
  5
27C
330
1F
100
AcDbEntity
  8
躯体
  6
Continuous
 62
     2
370
     9
100
AcDbLine
 10
-34.99290759834679
 20
259.4815999024593
 30
0.0
 11
-34.99290759834679
 21
226.4816445005416
 31
0.0
  0
LINE
  5
27D
330
1F
100
AcDbEntity
  8
躯体
  6
Continuous
 62
     2
370
     9
100
AcDbLine
 10
-39.99290609603344
 20
259.4815999024593
 30
0.0
 11
-39.99290609603344
 21
226.4816445005416
 31
0.0
  0
LINE
  5
27E
330
1F
100
AcDbEntity
  8
躯体
  6
Continuous
 62
     2
370
     9
100
AcDbLine
 10
-71.64362566871199
 20
351.4819289974233
 30
0.0
 11
-71.64362566871199
 21
344.9822207996714
 31
0.0
  0
LINE
  5
27F
330
1F
100
AcDbEntity
  8
躯体
  6
Continuous
 62
     2
370
     9
100
AcDbLine
 10
-79.64361335563507
 20
351.4819289974233
 30
0.0
 11
-79.64361335563507
 21
344.9822207996714
 31
0.0
  0
LINE
  5
280
330
1F
100
AcDbEntity
  8
躯体
  6
Continuous
 62
     2
370
     9
100
AcDbLine
 10
-26.64341622857631
 20
344.9822207996714
 30
0.0
 11
-71.64362566871199
 21
344.9822207996714
 31
0.0
  0
LINE
  5
281
330
1F
100
AcDbEntity
  8
躯体
  6
Continuous
 62
     2
370
     9
100
AcDbLine
 10
-104.6022589737351
 20
317.4816221131291
 30
0.0
 11
-104.6022589737351
 21
309.9819092611518
 31
0.0
  0
LINE
  5
282
330
1F
100
AcDbEntity
  8
躯体
  6
Continuous
 62
     2
370
     9
100
AcDbLine
 10
-112.6019989262642
 20
311.4819410159291
 30
0.0
 11
-147.4932825580494
 21
311.4819410159291
 31
0.0
  0
LINE
  5
283
330
1F
100
AcDbEntity
  8
躯体
  6
Continuous
 62
     2
370
     9
100
AcDbLine
 10
-147.4932825580494
 20
309.9819092611518
 30
0.0
 11
-112.6019989262642
 21
309.9819092611518
 31
0.0
  0
LINE
  5
284
330
1F
100
AcDbEntity
  8
躯体
  6
Continuous
 62
     2
370
     9
100
AcDbLine
 10
-112.6019989262642
 20
317.4816221131291
 30
0.0
 11
-112.6019989262642
 21
309.9819092611518
 31
0.0
  0
LINE
  5
285
330
1F
100
AcDbEntity
  8
躯体
  6
Continuous
 62
     2
370
     9
100
AcDbLine
 10
-40.36948714812883
 20
317.4816221131291
 30
0.0
 11
-37.00968852526097
 21
316.3161308838104
 31
0.0
  0
LINE
  5
286
330
1F
100
AcDbEntity
  8
躯体
  6
Continuous
 62
     2
370
     9
100
AcDbLine
 10
-34.99290759834679
 20
313.4817025899856
 30
0.0
 11
-34.99290759834679
 21
272.4817595011449
 31
0.0
  0
LINE
  5
287
330
1F
100
AcDbEntity
  8
躯体
  6
JWW_HOJO
 62
     2
370
     9
100
AcDbLine
 10
-34.99290759834679
 20
316.4817660995401
 30
0.0
 11
-37.99294633446192
 21
316.4817660995401
 31
0.0
  0
LINE
  5
288
330
1F
100
AcDbEntity
  8
躯体
  6
JWW_HOJO
 62
     2
370
     9
100
AcDbLine
 10
-34.99290759834679
 20
316.4817660995401
 30
0.0
 11
-34.99290759834679
 21
313.4817025899856
 31
0.0
  0
LINE
  5
289
330
1F
100
AcDbEntity
  8
躯体
  6
Continuous
 62
     2
370
     9
100
AcDbLine
 10
-92.37919262168629
 20
311.3805185550858
 30
0.0
 11
-104.6022589737351
 21
309.9819092611518
 31
0.0
  0
LINE
  5
28A
330
1F
100
AcDbEntity
  8
躯体
  6
Continuous
 62
     2
370
     9
100
AcDbLine
 10
-91.49284850736052
 20
315.5550908258953
 30
0.0
 11
-91.49284850736052
 21
312.3740325681921
 31
0.0
  0
LINE
  5
28B
330
1F
100
AcDbEntity
  8
躯体
  6
Continuous
 62
     2
370
     9
100
AcDbLine
 10
-92.41682347611248
 20
316.5522713080306
 30
0.0
 11
-104.6022589737351
 21
317.4816221131291
 31
0.0
  0
LINE
  5
28C
330
1F
100
AcDbEntity
  8
躯体
  6
Continuous
 62
     2
370
     9
100
AcDbLine
 10
-42.9928705118304
 20
311.4819410159291
 30
0.0
 11
-92.04105994751689
 21
311.4819410159291
 31
0.0
  0
LINE
  5
28D
330
1F
100
AcDbEntity
  8
躯体
  6
Continuous
 62
     2
370
     9
100
AcDbLine
 10
-37.99294633446192
 20
316.4817660995401
 30
0.0
 11
-92.11694099235382
 21
316.4817660995401
 31
0.0
  0
LINE
  5
28E
330
1F
100
AcDbEntity
  8
躯体
  6
Continuous
 62
     2
370
     9
100
AcDbLine
 10
-48.93106393247621
 20
308.9820037006841
 30
0.0
 11
-48.93106393247621
 21
308.481778412617
 31
0.0
  0
LINE
  5
28F
330
1F
100
AcDbEntity
  8
躯体
  6
Continuous
 62
     2
370
     9
100
AcDbLine
 10
-49.87745886387182
 20
310.3761537755288
 30
0.0
 11
-41.88577027914283
 21
311.2702272029426
 31
0.0
  0
LINE
  5
290
330
1F
100
AcDbEntity
  8
躯体
  6
Continuous
 62
     2
370
     9
100
AcDbLine
 10
-68.75989823051071
 20
309.0946733030083
 30
0.0
 11
-68.75989823051071
 21
308.481778412617
 31
0.0
  0
LINE
  5
291
330
1F
100
AcDbEntity
  8
躯体
  6
Continuous
 62
     2
370
     9
100
AcDbLine
 10
-64.58876946777576
 20
309.4820803481149
 30
0.0
 11
-64.58876946777576
 21
308.481778412617
 31
0.0
  0
LINE
  5
292
330
1F
100
AcDbEntity
  8
躯体
  6
Continuous
 62
     2
370
     9
100
AcDbLine
 10
-68.81965176630791
 20
309.9819092611518
 30
0.0
 11
-104.6022589737351
 21
309.9819092611518
 31
0.0
  0
LINE
  5
293
330
1F
100
AcDbEntity
  8
躯体
  6
Continuous
 62
     2
370
     9
100
AcDbLine
 10
-64.64792844102789
 20
310.4749502517972
 30
0.0
 11
-68.70064016350119
 21
309.9890935585735
 31
0.0
  0
LINE
  5
294
330
1F
100
AcDbEntity
  8
躯体
  6
Continuous
 62
     2
370
     9
100
AcDbLine
 10
-64.52891683822094
 20
310.4819859085826
 30
0.0
 11
-50.43102136693545
 21
310.4819859085826
 31
0.0
  0
LINE
  5
295
330
1F
100
AcDbEntity
  8
躯体
  6
Continuous
 62
     2
370
     9
100
AcDbLine
 10
-65.28757864595508
 20
346.3155768542646
 30
0.0
 11
-71.64362566871199
 21
344.9822207996714
 31
0.0
  0
LINE
  5
296
330
1F
100
AcDbEntity
  8
躯体
  6
Continuous
 62
     2
370
     9
100
AcDbLine
 10
-64.4928714839154
 20
349.6120793395031
 30
0.0
 11
-64.4928714839154
 21
347.2942763506186
 31
0.0
  0
LINE
  5
297
330
1F
100
AcDbEntity
  8
躯体
  6
Continuous
 62
     2
370
     9
100
AcDbLine
 10
-65.35436783853783
 20
350.6024718992468
 30
0.0
 11
-71.64362566871199
 21
351.4819289974233
 31
0.0
  0
LINE
  5
298
330
1F
100
AcDbEntity
  8
躯体
  6
Continuous
 62
     2
370
     9
100
AcDbLine
 10
-20.49296397927782
 20
350.4820234369557
 30
0.0
 11
-64.99963695998025
 21
350.4820234369557
 31
0.0
  0
LINE
  5
299
330
1F
100
AcDbEntity
  8
躯体
  6
Continuous
 62
     2
370
     9
100
AcDbLine
 10
-19.49305841880999
 20
346.4822525544487
 30
0.0
 11
-64.90913958590585
 21
346.4822525544487
 31
0.0
  0
LINE
  5
29A
330
1F
100
AcDbEntity
  8
躯体
  6
Continuous
 62
     2
370
     9
100
AcDbLine
 10
-21.64359114496523
 20
339.9821975285452
 30
0.0
 11
-21.64359114496523
 21
332.9819172145747
 31
0.0
  0
LINE
  5
29B
330
1F
100
AcDbEntity
  8
躯体
  6
Continuous
 62
     2
370
     9
100
AcDbLine
 10
-19.64358183651478
 20
330.9818583592455
 30
0.0
 11
-10.49294221046483
 21
330.9818583592455
 31
0.0
  0
LINE
  5
29C
330
1F
100
AcDbEntity
  8
躯体
  6
Continuous
 62
     2
370
     9
100
AcDbLine
 10
-12.49287719859711
 20
332.4819396609015
 30
0.0
 11
-10.49294221046483
 21
332.4819396609015
 31
0.0
  0
LINE
  5
29D
330
1F
100
AcDbEntity
  8
躯体
  6
Continuous
 62
     2
370
     9
100
AcDbLine
 10
-14.49288650704756
 20
334.4819489693519
 30
0.0
 11
-14.49288650704756
 21
341.4822292833225
 31
0.0
  0
LINE
  5
29E
330
1F
100
AcDbEntity
  8
躯体
  6
Continuous
 62
     2
370
     9
100
AcDbLine
 10
-20.56683837552458
 20
331.2077425795602
 30
0.0
 11
-13.41608419072799
 21
332.7077247874587
 31
0.0
  0
LINE
  5
29F
330
1F
100
AcDbEntity
  8
躯体
  6
Continuous
 62
     2
370
     9
100
AcDbLine
 10
-156.2721224058056
 20
350.9019332345358
 30
0.0
 11
-161.492728381218
 21
351.4819289974233
 31
0.0
  0
LINE
  5
2A0
330
1F
100
AcDbEntity
  8
躯体
  6
Continuous
 62
     2
370
     9
100
AcDbLine
 10
-79.64361335563507
 20
350.4820234369557
 30
0.0
 11
-155.2512832890574
 21
350.4820234369557
 31
0.0
  0
LINE
  5
2A1
330
1F
100
AcDbEntity
  8
躯体
  6
Continuous
 62
     2
370
     9
100
AcDbLine
 10
-79.64361335563507
 20
346.4822525544487
 30
0.0
 11
-154.4929683094746
 21
346.4822525544487
 31
0.0
  0
LINE
  5
2A2
330
1F
100
AcDbEntity
  8
躯体
  6
Continuous
 62
     2
370
     9
100
AcDbLine
 10
-79.64361335563507
 20
344.9822207996714
 30
0.0
 11
-154.4929683094746
 21
344.9822207996714
 31
0.0
  0
LINE
  5
2A3
330
1F
100
AcDbEntity
  8
躯体
  6
JWW_HOJO
 62
     2
370
     9
100
AcDbLine
 10
-154.4929683094746
 20
317.4816221131291
 30
0.0
 11
-158.4928878326181
 21
317.4816221131291
 31
0.0
  0
LINE
  5
2A4
330
1F
100
AcDbEntity
  8
躯体
  6
JWW_HOJO
 62
     2
370
     9
100
AcDbLine
 10
-154.4929683094746
 20
317.1179975698323
 30
0.0
 11
-158.4928878326181
 21
317.4816221131291
 31
0.0
  0
LINE
  5
2A5
330
1F
100
AcDbEntity
  8
躯体
  6
Continuous
 62
     2
370
     9
100
AcDbLine
 10
-149.3121980245937
 20
316.6470544871186
 30
0.0
 11
-154.4929683094746
 21
317.1179975698323
 31
0.0
  0
LINE
  5
2A6
330
1F
100
AcDbEntity
  8
躯体
  6
Continuous
 62
     2
370
     9
100
AcDbLine
 10
-148.678369577922
 20
316.4817660995401
 30
0.0
 11
-112.6019989262642
 21
316.4817660995401
 31
0.0
  0
LINE
  5
2A7
330
1F
100
AcDbEntity
  8
仕上
  6
Continuous
 62
     6
370
     9
100
AcDbLine
 10
-116.836200865674
 20
222.981603437314
 30
0.0
 11
-116.836200865674
 21
219.9816885683956
 31
0.0
  0
LINE
  5
2A8
330
1F
100
AcDbEntity
  8
仕上
  6
Continuous
 62
     6
370
     9
100
AcDbLine
 10
-101.0033966607995
 20
222.981603437314
 30
0.0
 11
-101.0033966607995
 21
219.9816885683956
 31
0.0
  0
LINE
  5
2A9
330
1F
100
AcDbEntity
  8
仕上
  6
Continuous
 62
     6
370
     9
100
AcDbLine
 10
-98.52853006621257
 20
222.981603437314
 30
0.0
 11
-98.52853006621257
 21
219.9816885683956
 31
0.0
  0
LINE
  5
2AA
330
1F
100
AcDbEntity
  8
仕上
  6
Continuous
 62
     6
370
     9
100
AcDbLine
 10
-91.45739771560028
 20
219.9816885683956
 30
0.0
 11
-91.45739771560028
 21
222.981603437314
 31
0.0
  0
LINE
  5
2AB
330
1F
100
AcDbEntity
  8
仕上
  6
Continuous
 62
     6
370
     9
100
AcDbLine
 10
-52.45302948955981
 20
222.981603437314
 30
0.0
 11
-52.45302948955981
 21
219.9816885683956
 31
0.0
  0
LINE
  5
2AC
330
1F
100
AcDbEntity
  8
仕上
  6
Continuous
 62
     6
370
     9
100
AcDbLine
 10
-49.97816289497285
 20
222.981603437314
 30
0.0
 11
-49.97816289497285
 21
219.9816885683956
 31
0.0
  0
LINE
  5
2AD
330
1F
100
AcDbEntity
  8
0-A
  6
Continuous
 62
     2
370
     9
100
AcDbLine
 10
-145.89299269408
 20
225.9815678531109
 30
0.0
 11
-147.4932825580494
 21
225.9815678531109
 31
0.0
  0
LINE
  5
2AE
330
1F
100
AcDbEntity
  8
躯体
  6
Continuous
 62
     2
370
     9
100
AcDbLine
 10
-41.49293785081085
 20
269.4816959915904
 30
0.0
 11
-40.78947126602696
 21
269.4816959915904
 31
0.0
  0
LINE
  5
2AF
330
1F
100
AcDbEntity
  8
躯体
  6
Continuous
 62
     2
370
     9
100
AcDbLine
 10
-41.49293785081085
 20
272.1383500843865
 30
0.0
 11
-39.99290609603344
 21
272.4817595011449
 31
0.0
  0
LINE
  5
2B0
330
1F
100
AcDbEntity
  8
躯体
  6
Continuous
 62
     2
370
     9
100
AcDbLine
 10
-41.49293785081085
 20
226.1383341775408
 30
0.0
 11
-39.99290609603344
 21
226.4816445005416
 31
0.0
  0
LINE
  5
2B1
330
1F
100
AcDbEntity
  8
躯体
  6
Continuous
 62
     2
370
     9
100
AcDbLine
 10
-40.78947126602696
 20
223.4816800847448
 30
0.0
 11
-34.99290759834679
 21
226.4816445005416
 31
0.0
  0
LINE
  5
2B2
330
1F
100
AcDbEntity
  8
躯体
  6
Continuous
 62
     2
370
     9
100
AcDbLine
 10
-41.49293785081085
 20
223.4816800847448
 30
0.0
 11
-40.78947126602696
 21
223.4816800847448
 31
0.0
  0
LINE
  5
2B3
330
1F
100
AcDbEntity
  8
仕上
  6
Continuous
 62
     6
370
     9
100
AcDbLine
 10
-58.80362635565206
 20
293.2729675989784
 30
0.0
 11
-48.57150223323873
 21
292.2239610816491
 31
0.0
  0
LINE
  5
2B4
330
1F
100
AcDbEntity
  8
仕上
  6
Continuous
 62
     6
370
     9
100
AcDbLine
 10
-57.27621995035423
 20
298.2967238250357
 30
0.0
 11
-47.00844684866541
 21
297.2004495853593
 31
0.0
  0
LINE
  5
2B5
330
1F
100
AcDbEntity
  8
仕上
  6
Continuous
 62
     6
370
     9
100
AcDbLine
 10
-73.53886810200214
 20
299.3994391589521
 30
0.0
 11
-59.96602090504774
 21
297.2202683368674
 31
0.0
  0
LINE
  5
2B6
330
1F
100
AcDbEntity
  8
仕上
  6
Continuous
 62
     6
370
     9
100
AcDbLine
 10
-92.03771553319979
 20
293.2729675989784
 30
0.0
 11
-81.80608687957414
 21
292.2240601754066
 31
0.0
  0
LINE
  5
2B7
330
1F
100
AcDbEntity
  8
仕上
  6
Continuous
 62
     6
370
     9
100
AcDbLine
 10
-75.42065855770619
 20
293.2729675989784
 30
0.0
 11
-65.18898035720184
 21
292.2240601754066
 31
0.0
  0
LINE
  5
2B8
330
1F
100
AcDbEntity
  8
仕上
  6
Continuous
 62
     6
370
     9
100
AcDbLine
 10
-106.773725256171
 20
301.6529798460713
 30
0.0
 11
-76.5866948026914
 21
297.2211106338066
 31
0.0
  0
LINE
  5
2B9
330
1F
100
AcDbEntity
  8
仕上
  6
Continuous
 62
     6
370
     9
100
AcDbLine
 10
-123.9235845925231
 20
301.9537294002082
 30
0.0
 11
-123.9920583789839
 21
301.6293459848978
 31
0.0
  0
LINE
  5
2BA
330
1F
100
AcDbEntity
  8
仕上
  6
Continuous
 62
     6
370
     9
100
AcDbLine
 10
-122.8774765676021
 20
302.7448444135371
 30
0.0
 11
-106.773725256171
 21
301.6529798460713
 31
0.0
  0
LINE
  5
2BB
330
1F
100
AcDbEntity
  8
仕上
  6
JWW_HOJO
 62
     6
370
     9
100
AcDbLine
 10
-123.744101024177
 20
302.8036070117589
 30
0.0
 11
-122.8774517941626
 21
302.7447948666583
 31
0.0
  0
LINE
  5
2BC
330
1F
100
AcDbEntity
  8
仕上
  6
JWW_HOJO
 62
     6
370
     9
100
AcDbLine
 10
-123.744101024177
 20
302.8036070117589
 30
0.0
 11
-123.9235350456444
 21
301.9537294002082
 31
0.0
  0
LINE
  5
2BD
330
1F
100
AcDbEntity
  8
仕上
  6
Continuous
 62
     6
370
     9
100
AcDbLine
 10
-89.64353603069065
 20
300.4913532732967
 30
0.0
 11
-41.49293785081085
 21
297.2266103373502
 31
0.0
  0
LINE
  5
2BE
330
1F
100
AcDbEntity
  8
仕上
  6
Continuous
 62
     6
370
     9
100
AcDbLine
 10
-90.68964405561172
 20
299.7001887130891
 30
0.0
 11
-90.77330396041583
 21
299.3039127766826
 31
0.0
  0
LINE
  5
2BF
330
1F
100
AcDbEntity
  8
仕上
  6
JWW_HOJO
 62
     6
370
     9
100
AcDbLine
 10
-90.51021003414434
 20
300.5501654183972
 30
0.0
 11
-90.68964405561172
 21
299.7001887130891
 31
0.0
  0
LINE
  5
2C0
330
1F
100
AcDbEntity
  8
仕上
  6
JWW_HOJO
 62
     6
370
     9
100
AcDbLine
 10
-90.51021003414434
 20
300.5501654183972
 30
0.0
 11
-89.64358557756935
 21
300.4913532732967
 31
0.0
  0
LINE
  5
2C1
330
1F
100
AcDbEntity
  8
仕上
  6
Continuous
 62
     6
370
     9
100
AcDbLine
 10
-89.90529219123522
 20
300.4746064282722
 30
0.0
 11
-63.64291955204675
 21
297.1971299444816
 31
0.0
  0
LINE
  5
2C2
330
1F
100
AcDbEntity
  8
仕上
  6
JWW_HOJO
 62
     6
370
     9
100
AcDbLine
 10
-90.51016048726564
 20
300.5501654183972
 30
0.0
 11
-89.90529219123522
 21
300.4746064282722
 31
0.0
  0
LINE
  5
2C3
330
1F
100
AcDbEntity
  8
仕上
  6
Continuous
 62
     6
370
     9
100
AcDbLine
 10
-140.1578176091963
 20
303.9164299089446
 30
0.0
 11
-93.20610525492674
 21
297.2214574619579
 31
0.0
  0
LINE
  5
2C4
330
1F
100
AcDbEntity
  8
仕上
  6
Continuous
 62
     6
370
     9
100
AcDbLine
 10
-96.88649695687894
 20
297.193810303604
 30
0.0
 11
-146.5375728134449
 21
304.3490732543687
 31
0.0
  0
LINE
  5
2C5
330
1F
100
AcDbEntity
  8
仕上
  6
Continuous
 62
     6
370
     9
100
AcDbLine
 10
-108.6547477352539
 20
293.2729675989784
 30
0.0
 11
-98.42309430818881
 21
292.2240601754066
 31
0.0
  0
LINE
  5
2C6
330
1F
100
AcDbEntity
  8
仕上
  6
Continuous
 62
     6
370
     9
100
AcDbLine
 10
-125.2717551638688
 20
293.2729675989784
 30
0.0
 11
-115.0400769633642
 21
292.2240601754066
 31
0.0
  0
LINE
  5
2C7
330
1F
100
AcDbEntity
  8
仕上
  6
Continuous
 62
     6
370
     9
100
AcDbLine
 10
-141.8887130456048
 20
293.2729675989784
 30
0.0
 11
-131.661518837629
 21
292.2245556441943
 31
0.0
  0
LINE
  5
2C8
330
1F
100
AcDbEntity
  8
仕上
  6
Continuous
 62
     6
370
     9
100
AcDbLine
 10
-147.4932825580494
 20
297.8733457459415
 30
0.0
 11
-143.1750738856842
 21
297.2210115400491
 31
0.0
  0
LINE
  5
2C9
330
1F
100
AcDbEntity
  8
仕上
  6
Continuous
 62
     6
370
     9
100
AcDbLine
 10
-147.096560699734
 20
297.2266103373502
 30
0.0
 11
-147.4932825580494
 21
297.2837874354512
 31
0.0
  0
LINE
  5
2CA
330
1F
100
AcDbEntity
  8
仕上
  6
Continuous
 62
     6
370
     9
100
AcDbLine
 10
-143.2497658054307
 20
297.2266103373502
 30
0.0
 11
-147.4932825580494
 21
297.2266103373502
 31
0.0
  0
LINE
  5
2CB
330
1F
100
AcDbEntity
  8
仕上
  6
Continuous
 62
     6
370
     9
100
AcDbLine
 10
-130.1680024974102
 20
297.2007964135107
 30
0.0
 11
-147.4932825580494
 21
299.6974636347567
 31
0.0
  0
LINE
  5
2CC
330
1F
100
AcDbEntity
  8
仕上
  6
Continuous
 62
     6
370
     9
100
AcDbLine
 10
-147.4932825580494
 20
300.2498617861692
 30
0.0
 11
-126.479906255809
 21
297.2212592744428
 31
0.0
  0
LINE
  5
2CD
330
1F
100
AcDbEntity
  8
仕上
  6
Continuous
 62
     6
370
     9
100
AcDbLine
 10
-113.5032318776607
 20
297.193810303604
 30
0.0
 11
-147.4932825580494
 21
302.0921138326144
 31
0.0
  0
LINE
  5
2CE
330
1F
100
AcDbEntity
  8
仕上
  6
Continuous
 62
     6
370
     9
100
AcDbLine
 10
-147.4932825580494
 20
302.6020998557992
 30
0.0
 11
-109.8228154022688
 21
297.2214079150792
 31
0.0
  0
LINE
  5
2CF
330
1F
100
AcDbEntity
  8
仕上
  6
Continuous
 62
     6
370
     9
100
AcDbLine
 10
-147.4932825580494
 20
304.413781478043
 30
0.0
 11
-140.1578176091963
 21
303.9164299089446
 31
0.0
  0
LINE
  5
2D0
330
1F
100
AcDbEntity
  8
躯体
  6
Continuous
 62
     2
370
     9
100
AcDbLine
 10
-41.49293785081085
 20
262.4816634120137
 30
0.0
 11
-40.78947126602696
 21
262.4816634120137
 31
0.0
  0
LINE
  5
2D1
330
1F
100
AcDbEntity
  8
躯体
  6
Continuous
 62
     2
370
     9
100
AcDbLine
 10
-41.49293785081085
 20
259.8250093192178
 30
0.0
 11
-39.99290609603344
 21
259.4815999024593
 31
0.0
  0
LINE
  5
2D2
330
1F
100
AcDbEntity
  8
仕上
  6
Continuous
 62
     6
370
     9
100
AcDbLine
 10
-123.1444846972963
 20
302.7271066309372
 30
0.0
 11
-80.02690800980389
 21
297.2224483995333
 31
0.0
  0
LINE
  5
2D3
330
1F
100
AcDbEntity
  8
躯体
  6
Continuous
 62
     2
370
     9
100
AcDbLine
 10
-112.6019989262642
 20
317.4816221131291
 30
0.0
 11
-154.4929683094746
 21
317.4816221131291
 31
0.0
  0
LINE
  5
2D4
330
1F
100
AcDbEntity
  8
躯体
  6
Continuous
 62
     2
370
     9
100
AcDbLine
 10
-40.36948714812883
 20
317.4816221131291
 30
0.0
 11
-104.6022589737351
 21
317.4816221131291
 31
0.0
  0
ARC
  5
2D5
330
1F
100
AcDbEntity
  8
仕上
  6
Continuous
 62
     6
370
     9
100
AcDbCircle
 10
-100.528539374663
 20
222.981603437314
 30
0.0
 40
2.000000018410701
100
AcDbArc
 50
0.0
 51
90.0
  0
ARC
  5
2D6
330
1F
100
AcDbEntity
  8
仕上
  6
Continuous
 62
     6
370
     9
100
AcDbCircle
 10
-89.45741318058907
 20
222.981603437314
 30
0.0
 40
2.000000018410701
100
AcDbArc
 50
90.0
 51
180.0
  0
ARC
  5
2D7
330
1F
100
AcDbEntity
  8
仕上
  6
Continuous
 62
     6
370
     9
100
AcDbCircle
 10
-51.97814742998406
 20
222.981603437314
 30
0.0
 40
2.000000018410701
100
AcDbArc
 50
0.0
 51
90.0
  0
ARC
  5
2D8
330
1F
100
AcDbEntity
  8
仕上
  6
Continuous
 62
     6
370
     9
100
AcDbCircle
 10
-89.45741318058907
 20
279.9816209937585
 30
0.0
 40
2.000000018410701
100
AcDbArc
 50
90.0
 51
180.0
  0
ARC
  5
2D9
330
1F
100
AcDbEntity
  8
仕上
  6
Continuous
 62
     6
370
     9
100
AcDbCircle
 10
-89.45741318058907
 20
273.9816426152858
 30
0.0
 40
2.000000018410701
100
AcDbArc
 50
180.0
 51
270.0
  0
ARC
  5
2DA
330
1F
100
AcDbEntity
  8
仕上
  6
Continuous
 62
     6
370
     9
100
AcDbCircle
 10
-51.97814742998406
 20
273.9816426152858
 30
0.0
 40
2.000000018410701
100
AcDbArc
 50
270.0
 51
0.0
  0
ARC
  5
2DB
330
1F
100
AcDbEntity
  8
仕上
  6
Continuous
 62
     6
370
     9
100
AcDbCircle
 10
-51.97814742998406
 20
279.9816209937585
 30
0.0
 40
2.000000018410701
100
AcDbArc
 50
0.0
 51
90.0
  0
ARC
  5
2DC
330
1F
100
AcDbEntity
  8
仕上
  6
Continuous
 62
     6
370
     9
100
AcDbCircle
 10
-100.528539374663
 20
279.9816209937585
 30
0.0
 40
2.000000018410701
100
AcDbArc
 50
0.0
 51
90.0
  0
ARC
  5
2DD
330
1F
100
AcDbEntity
  8
仕上
  6
Continuous
 62
     6
370
     9
100
AcDbCircle
 10
-100.528539374663
 20
273.9816426152858
 30
0.0
 40
2.000000018410701
100
AcDbArc
 50
270.0
 51
0.0
  0
ARC
  5
2DE
330
1F
100
AcDbEntity
  8
仕上
  6
Continuous
 62
     6
370
     9
100
AcDbCircle
 10
-100.528539374663
 20
260.9817307509941
 30
0.0
 40
2.000000018410701
100
AcDbArc
 50
0.0
 51
90.0
  0
ARC
  5
2DF
330
1F
100
AcDbEntity
  8
仕上
  6
Continuous
 62
     6
370
     9
100
AcDbCircle
 10
-100.528539374663
 20
254.9815541850063
 30
0.0
 40
2.000000018410701
100
AcDbArc
 50
270.0
 51
0.0
  0
ARC
  5
2E0
330
1F
100
AcDbEntity
  8
仕上
  6
Continuous
 62
     6
370
     9
100
AcDbCircle
 10
-89.45741318058907
 20
260.9817307509941
 30
0.0
 40
2.000000018410701
100
AcDbArc
 50
90.0
 51
180.0
  0
ARC
  5
2E1
330
1F
100
AcDbEntity
  8
仕上
  6
Continuous
 62
     6
370
     9
100
AcDbCircle
 10
-89.45741318058907
 20
254.9815541850063
 30
0.0
 40
2.000000018410701
100
AcDbArc
 50
180.0
 51
270.0
  0
ARC
  5
2E2
330
1F
100
AcDbEntity
  8
仕上
  6
Continuous
 62
     6
370
     9
100
AcDbCircle
 10
-51.97814742998406
 20
254.9815541850063
 30
0.0
 40
2.000000018410701
100
AcDbArc
 50
270.0
 51
0.0
  0
ARC
  5
2E3
330
1F
100
AcDbEntity
  8
仕上
  6
Continuous
 62
     6
370
     9
100
AcDbCircle
 10
-51.97814742998406
 20
260.9817307509941
 30
0.0
 40
2.000000018410701
100
AcDbArc
 50
0.0
 51
90.0
  0
ARC
  5
2E4
330
1F
100
AcDbEntity
  8
仕上
  6
Continuous
 62
     6
370
     9
100
AcDbCircle
 10
-51.97814742998406
 20
241.9816423207147
 30
0.0
 40
2.000000018410701
100
AcDbArc
 50
0.0
 51
90.0
  0
ARC
  5
2E5
330
1F
100
AcDbEntity
  8
仕上
  6
Continuous
 62
     6
370
     9
100
AcDbCircle
 10
-51.97814742998406
 20
235.9815153016057
 30
0.0
 40
2.000000018410701
100
AcDbArc
 50
270.0
 51
0.0
  0
ARC
  5
2E6
330
1F
100
AcDbEntity
  8
仕上
  6
Continuous
 62
     6
370
     9
100
AcDbCircle
 10
-89.45741318058907
 20
235.9815153016057
 30
0.0
 40
2.000000018410701
100
AcDbArc
 50
180.0
 51
270.0
  0
ARC
  5
2E7
330
1F
100
AcDbEntity
  8
仕上
  6
Continuous
 62
     6
370
     9
100
AcDbCircle
 10
-89.45741318058907
 20
241.9816423207147
 30
0.0
 40
2.000000018410701
100
AcDbArc
 50
90.0
 51
180.0
  0
ARC
  5
2E8
330
1F
100
AcDbEntity
  8
仕上
  6
Continuous
 62
     6
370
     9
100
AcDbCircle
 10
-100.528539374663
 20
241.9816423207147
 30
0.0
 40
2.000000018410701
100
AcDbArc
 50
0.0
 51
90.0
  0
ARC
  5
2E9
330
1F
100
AcDbEntity
  8
仕上
  6
Continuous
 62
     6
370
     9
100
AcDbCircle
 10
-100.528539374663
 20
235.9815153016057
 30
0.0
 40
2.000000018410701
100
AcDbArc
 50
270.0
 51
0.0
  0
ARC
  5
2EA
330
1F
100
AcDbEntity
  8
仕上
  6
Continuous
 62
     6
370
     9
100
AcDbCircle
 10
-114.8361915572236
 20
222.981603437314
 30
0.0
 40
2.000000018410701
100
AcDbArc
 50
90.0
 51
180.0
  0
ARC
  5
2EB
330
1F
100
AcDbEntity
  8
仕上
  6
Continuous
 62
     6
370
     9
100
AcDbCircle
 10
-143.2497658054307
 20
296.7265832367981
 30
0.0
 40
0.5000000046026752
100
AcDbArc
 50
13.34358215332031
 51
90.0
  0
ARC
  5
2EC
330
1F
100
AcDbEntity
  8
仕上
  6
Continuous
 62
     6
370
     9
100
AcDbCircle
 10
-141.2666767560804
 20
292.6986201802706
 30
0.0
 40
0.5000000046026752
100
AcDbArc
 50
193.3435821533203
 51
270.0
  0
ARC
  5
2ED
330
1F
100
AcDbEntity
  8
仕上
  6
Continuous
 62
     6
370
     9
100
AcDbCircle
 10
-130.0093286181477
 20
296.7265832367981
 30
0.0
 40
0.5000000046026752
100
AcDbArc
 50
90.0
 51
168.8788146972656
  0
ARC
  5
2EE
330
1F
100
AcDbEntity
  8
仕上
  6
Continuous
 62
     6
370
     9
100
AcDbCircle
 10
-126.5525419800865
 20
296.7265832367981
 30
0.0
 40
0.5000000046026752
100
AcDbArc
 50
12.40010070800781
 51
90.0
  0
ARC
  5
2EF
330
1F
100
AcDbEntity
  8
仕上
  6
Continuous
 62
     6
370
     9
100
AcDbCircle
 10
-124.643005272271
 20
292.6986201802706
 30
0.0
 40
0.5000000046026752
100
AcDbArc
 50
192.4001007080078
 51
270.0
  0
ARC
  5
2F0
330
1F
100
AcDbEntity
  8
仕上
  6
Continuous
 62
     6
370
     9
100
AcDbCircle
 10
-115.1973883034606
 20
292.6986201802706
 30
0.0
 40
0.5000000046026752
100
AcDbArc
 50
270.0
 51
348.0821075439453
  0
ARC
  5
2F1
330
1F
100
AcDbEntity
  8
仕上
  6
Continuous
 62
     6
370
     9
100
AcDbCircle
 10
-113.3252347156776
 20
296.7265832367981
 30
0.0
 40
0.5000000046026752
100
AcDbArc
 50
89.99999999999999
 51
168.0821075439453
  0
ARC
  5
2F2
330
1F
100
AcDbEntity
  8
仕上
  6
Continuous
 62
     6
370
     9
100
AcDbCircle
 10
-109.8944849624103
 20
296.7265832367981
 30
0.0
 40
0.5000000046026752
100
AcDbArc
 50
11.91511535644532
 51
90.0
  0
ARC
  5
2F3
330
1F
100
AcDbEntity
  8
仕上
  6
Continuous
 62
     6
370
     9
100
AcDbCircle
 10
-108.0225047887029
 20
292.6986201802706
 30
0.0
 40
0.5000000046026752
100
AcDbArc
 50
191.9151153564454
 51
270.0
  0
ARC
  5
2F4
330
1F
100
AcDbEntity
  8
仕上
  6
Continuous
 62
     6
370
     9
100
AcDbCircle
 10
-98.58045519516412
 20
292.6986201802706
 30
0.0
 40
0.5000000046026752
100
AcDbArc
 50
270.0
 51
348.0848846435546
  0
ARC
  5
2F5
330
1F
100
AcDbEntity
  8
仕上
  6
Continuous
 62
     6
370
     9
100
AcDbCircle
 10
-96.70849979489589
 20
296.7265832367981
 30
0.0
 40
0.5000000046026752
100
AcDbArc
 50
89.99999999999997
 51
168.0848846435547
  0
ARC
  5
2F6
330
1F
100
AcDbEntity
  8
仕上
  6
Continuous
 62
     6
370
     9
100
AcDbCircle
 10
-93.27737844003804
 20
296.7265832367981
 30
0.0
 40
0.5000000046026752
100
AcDbArc
 50
11.91511535644532
 51
90.0
  0
ARC
  5
2F7
330
1F
100
AcDbEntity
  8
仕上
  6
Continuous
 62
     6
370
     9
100
AcDbCircle
 10
-91.40547258664873
 20
292.6986201802706
 30
0.0
 40
0.5000000046026752
100
AcDbArc
 50
191.9151153564454
 51
270.0
  0
ARC
  5
2F8
330
1F
100
AcDbEntity
  8
仕上
  6
Continuous
 62
     6
370
     9
100
AcDbCircle
 10
-81.96344776654922
 20
292.6986201802706
 30
0.0
 40
0.5000000046026752
100
AcDbArc
 50
270.0
 51
348.0848846435546
  0
ARC
  5
2F9
330
1F
100
AcDbEntity
  8
仕上
  6
Continuous
 62
     6
370
     9
100
AcDbCircle
 10
-80.09146759284175
 20
296.7265832367981
 30
0.0
 40
0.5000000046026752
100
AcDbArc
 50
89.99999999999997
 51
168.0848846435547
  0
ARC
  5
2FA
330
1F
100
AcDbEntity
  8
仕上
  6
Continuous
 62
     6
370
     9
100
AcDbCircle
 10
-76.66064351925655
 20
296.7265832367981
 30
0.0
 40
0.5000000046026752
100
AcDbArc
 50
11.91789245605469
 51
90.0
  0
ARC
  5
2FB
330
1F
100
AcDbEntity
  8
仕上
  6
Continuous
 62
     6
370
     9
100
AcDbCircle
 10
-74.78846515803383
 20
292.6986201802706
 30
0.0
 40
0.5000000046026752
100
AcDbArc
 50
191.9178924560547
 51
270.0
  0
ARC
  5
2FC
330
1F
100
AcDbEntity
  8
仕上
  6
Continuous
 62
     6
370
     9
100
AcDbCircle
 10
-65.34631647073746
 20
292.6986201802706
 30
0.0
 40
0.5000000046026752
100
AcDbArc
 50
270.0
 51
348.0765380859375
  0
ARC
  5
2FD
330
1F
100
AcDbEntity
  8
仕上
  6
Continuous
 62
     6
370
     9
100
AcDbCircle
 10
-63.47384082824232
 20
296.7265832367981
 30
0.0
 40
0.5000000046026752
100
AcDbArc
 50
89.99999999999997
 51
168.0765533447265
  0
ARC
  5
2FE
330
1F
100
AcDbEntity
  8
仕上
  6
Continuous
 62
     6
370
     9
100
AcDbCircle
 10
-60.04527113764101
 20
296.7265832367981
 30
0.0
 40
0.5000000046026752
100
AcDbArc
 50
11.93852233886719
 51
90.0
  0
ARC
  5
2FF
330
1F
100
AcDbEntity
  8
仕上
  6
Continuous
 62
     6
370
     9
100
AcDbCircle
 10
-58.17160637005549
 20
292.6986201802706
 30
0.0
 40
0.5000000046026752
100
AcDbArc
 50
191.9385223388672
 51
270.0
  0
ARC
  5
300
330
1F
100
AcDbEntity
  8
仕上
  6
Continuous
 62
     6
370
     9
100
AcDbCircle
 10
-48.72868970613803
 20
292.6986201802706
 30
0.0
 40
0.5000000046026752
100
AcDbArc
 50
270.0
 51
347.9841461181641
  0
ARC
  5
301
330
1F
100
AcDbEntity
  8
仕上
  6
Continuous
 62
     6
370
     9
100
AcDbCircle
 10
-46.84888112558491
 20
296.7265832367981
 30
0.0
 40
0.5000000046026752
100
AcDbArc
 50
89.99999999999997
 51
167.984146118164
  0
ARC
  5
302
330
1F
100
AcDbEntity
  8
仕上
  6
Continuous
 62
     6
370
     9
100
AcDbCircle
 10
-44.49292704004705
 20
305.481615809305
 30
0.0
 40
2.999999834073556
100
AcDbArc
 50
0.0
 51
90.0
  0
ARC
  5
303
330
1F
100
AcDbEntity
  8
仕上
  6
Continuous
 62
     6
370
     9
100
AcDbCircle
 10
-134.3438877605069
 20
239.9815339185067
 30
0.0
 40
4.000000036821402
100
AcDbArc
 50
90.0
 51
262.2408294677735
  0
ARC
  5
304
330
1F
100
AcDbEntity
  8
仕上
  6
Continuous
 62
     6
370
     9
100
AcDbCircle
 10
-132.4930145571558
 20
219.9816885683956
 30
0.0
 40
15.56700068367034
100
AcDbArc
 50
64.07133483886714
 51
82.24078369140622
  0
ARC
  5
305
330
1F
100
AcDbEntity
  8
仕上
  6
Continuous
 62
     6
370
     9
100
AcDbCircle
 10
-139.4219473656967
 20
254.9815541850063
 30
0.0
 40
2.000000018410701
100
AcDbArc
 50
180.0
 51
270.0
  0
ARC
  5
306
330
1F
100
AcDbEntity
  8
仕上
  6
Continuous
 62
     6
370
     9
100
AcDbCircle
 10
-139.4219473656967
 20
260.9817307509941
 30
0.0
 40
2.000000018410701
100
AcDbArc
 50
90.0
 51
180.0
  0
ARC
  5
307
330
1F
100
AcDbEntity
  8
仕上
  6
Continuous
 62
     6
370
     9
100
AcDbCircle
 10
-139.4219473656967
 20
273.9816426152858
 30
0.0
 40
2.000000018410701
100
AcDbArc
 50
180.0
 51
270.0
  0
ARC
  5
308
330
1F
100
AcDbEntity
  8
仕上
  6
Continuous
 62
     6
370
     9
100
AcDbCircle
 10
-139.4219473656967
 20
279.9816209937585
 30
0.0
 40
2.000000018410701
100
AcDbArc
 50
90.0
 51
180.0
  0
ARC
  5
309
330
1F
100
AcDbEntity
  8
仕上
  6
Continuous
 62
     6
370
     9
100
AcDbCircle
 10
-103.00340596925
 20
222.981603437314
 30
0.0
 40
2.000000018410701
100
AcDbArc
 50
0.0
 51
90.0
  0
ARC
  5
30A
330
1F
100
AcDbEntity
  8
仕上
  6
Continuous
 62
     6
370
     9
100
AcDbCircle
 10
-103.00340596925
 20
279.9816209937585
 30
0.0
 40
2.000000018410701
100
AcDbArc
 50
0.0
 51
90.0
  0
ARC
  5
30B
330
1F
100
AcDbEntity
  8
仕上
  6
Continuous
 62
     6
370
     9
100
AcDbCircle
 10
-103.00340596925
 20
273.9816426152858
 30
0.0
 40
2.000000018410701
100
AcDbArc
 50
270.0
 51
0.0
  0
ARC
  5
30C
330
1F
100
AcDbEntity
  8
仕上
  6
Continuous
 62
     6
370
     9
100
AcDbCircle
 10
-103.00340596925
 20
260.9817307509941
 30
0.0
 40
2.000000018410701
100
AcDbArc
 50
0.0
 51
90.0
  0
ARC
  5
30D
330
1F
100
AcDbEntity
  8
仕上
  6
Continuous
 62
     6
370
     9
100
AcDbCircle
 10
-103.00340596925
 20
254.9815541850063
 30
0.0
 40
2.000000018410701
100
AcDbArc
 50
270.0
 51
0.0
  0
ARC
  5
30E
330
1F
100
AcDbEntity
  8
仕上
  6
Continuous
 62
     6
370
     9
100
AcDbCircle
 10
-103.00340596925
 20
241.9816423207147
 30
0.0
 40
2.000000018410701
100
AcDbArc
 50
0.0
 51
90.0
  0
ARC
  5
30F
330
1F
100
AcDbEntity
  8
仕上
  6
Continuous
 62
     6
370
     9
100
AcDbCircle
 10
-103.00340596925
 20
235.9815153016057
 30
0.0
 40
2.000000018410701
100
AcDbArc
 50
270.0
 51
0.0
  0
ARC
  5
310
330
1F
100
AcDbEntity
  8
仕上
  6
Continuous
 62
     6
370
     9
100
AcDbCircle
 10
-54.45301402457102
 20
222.981603437314
 30
0.0
 40
2.000000018410701
100
AcDbArc
 50
0.0
 51
90.0
  0
ARC
  5
311
330
1F
100
AcDbEntity
  8
仕上
  6
Continuous
 62
     6
370
     9
100
AcDbCircle
 10
-54.45301402457102
 20
273.9816426152858
 30
0.0
 40
2.000000018410701
100
AcDbArc
 50
270.0
 51
0.0
  0
ARC
  5
312
330
1F
100
AcDbEntity
  8
仕上
  6
Continuous
 62
     6
370
     9
100
AcDbCircle
 10
-54.45301402457102
 20
279.9816209937585
 30
0.0
 40
2.000000018410701
100
AcDbArc
 50
0.0
 51
90.0
  0
ARC
  5
313
330
1F
100
AcDbEntity
  8
仕上
  6
Continuous
 62
     6
370
     9
100
AcDbCircle
 10
-54.45301402457102
 20
254.9815541850063
 30
0.0
 40
2.000000018410701
100
AcDbArc
 50
270.0
 51
0.0
  0
ARC
  5
314
330
1F
100
AcDbEntity
  8
仕上
  6
Continuous
 62
     6
370
     9
100
AcDbCircle
 10
-54.45301402457102
 20
260.9817307509941
 30
0.0
 40
2.000000018410701
100
AcDbArc
 50
0.0
 51
90.0
  0
ARC
  5
315
330
1F
100
AcDbEntity
  8
仕上
  6
Continuous
 62
     6
370
     9
100
AcDbCircle
 10
-54.45301402457102
 20
241.9816423207147
 30
0.0
 40
2.000000018410701
100
AcDbArc
 50
0.0
 51
90.0
  0
ARC
  5
316
330
1F
100
AcDbEntity
  8
仕上
  6
Continuous
 62
     6
370
     9
100
AcDbCircle
 10
-54.45301402457102
 20
235.9815153016057
 30
0.0
 40
2.000000018410701
100
AcDbArc
 50
270.0
 51
0.0
  0
ARC
  5
317
330
1F
100
AcDbEntity
  8
躯体
  6
Continuous
 62
     2
370
     9
100
AcDbCircle
 10
-20.49296397927782
 20
340.4820264415821
 30
0.0
 40
9.999998543713541
100
AcDbArc
 50
0.0
 51
90.0
  0
ARC
  5
318
330
1F
100
AcDbEntity
  8
躯体
  6
Continuous
 62
     2
370
     9
100
AcDbCircle
 10
-20.49296397927782
 20
341.4818824551711
 30
0.0
 40
9.999998543713541
100
AcDbArc
 50
0.0
 51
90.0
  0
ARC
  5
319
330
1F
100
AcDbEntity
  8
躯体
  6
Continuous
 62
     2
370
     9
100
AcDbCircle
 10
-19.49305841880999
 20
341.4822292833225
 30
0.0
 40
4.999999271856771
100
AcDbArc
 50
0.0
 51
90.0
  0
ARC
  5
31A
330
1F
100
AcDbEntity
  8
躯体
  6
Continuous
 62
     2
370
     9
100
AcDbCircle
 10
-26.64341622857631
 20
339.9821975285452
 30
0.0
 40
4.999999271856771
100
AcDbArc
 50
0.0
 51
90.0
  0
ARC
  5
31B
330
1F
100
AcDbEntity
  8
躯体
  6
Continuous
 62
     2
370
     9
100
AcDbCircle
 10
-159.4928181665252
 20
349.2457792647526
 30
0.0
 40
2.999999834073556
100
AcDbArc
 50
131.8111267089844
 51
180.0
  0
ARC
  5
31C
330
1F
100
AcDbEntity
  8
躯体
  6
Continuous
 62
     2
370
     9
100
AcDbCircle
 10
-42.9928705118304
 20
308.4818775063746
 30
0.0
 40
2.999999834073556
100
AcDbArc
 50
0.0
 51
90.0
  0
ARC
  5
31D
330
1F
100
AcDbEntity
  8
躯体
  6
Continuous
 62
     2
370
     9
100
AcDbCircle
 10
-37.99294633446192
 20
313.4817025899856
 30
0.0
 40
2.999999834073556
100
AcDbArc
 50
0.0
 51
90.0
  0
ARC
  5
31E
330
1F
100
AcDbEntity
  8
躯体
  6
Continuous
 62
     2
370
     9
100
AcDbCircle
 10
-92.4928779350252
 20
312.3740325681921
 30
0.0
 40
1.00000000920535
100
AcDbArc
 50
276.5266265869141
 51
0.0
  0
ARC
  5
31F
330
1F
100
AcDbEntity
  8
躯体
  6
Continuous
 62
     2
370
     9
100
AcDbCircle
 10
-92.4928779350252
 20
315.5550908258953
 30
0.0
 40
1.00000000920535
100
AcDbArc
 50
0.0000000000000127
 51
85.63882446289065
  0
ARC
  5
320
330
1F
100
AcDbEntity
  8
躯体
  6
Continuous
 62
     2
370
     9
100
AcDbCircle
 10
-50.43102136693545
 20
308.9820037006841
 30
0.0
 40
1.499999917036778
100
AcDbArc
 50
0.0
 51
90.0
  0
ARC
  5
321
330
1F
100
AcDbEntity
  8
躯体
  6
Continuous
 62
     2
370
     9
100
AcDbCircle
 10
-69.7599276581754
 20
308.9819541538054
 30
0.0
 40
1.00000000920535
100
AcDbArc
 50
0.0
 51
90.0
  0
ARC
  5
322
330
1F
100
AcDbEntity
  8
躯体
  6
Continuous
 62
     2
370
     9
100
AcDbCircle
 10
-67.75996789660365
 20
309.0946733030083
 30
0.0
 40
1.00000000920535
100
AcDbArc
 50
96.83552551269531
 51
180.0
  0
ARC
  5
323
330
1F
100
AcDbEntity
  8
躯体
  6
Continuous
 62
     2
370
     9
100
AcDbCircle
 10
-65.58872457512228
 20
309.3549430571898
 30
0.0
 40
1.00000000920535
100
AcDbArc
 50
0.0
 51
96.83752441406249
  0
ARC
  5
324
330
1F
100
AcDbEntity
  8
躯体
  6
Continuous
 62
     2
370
     9
100
AcDbCircle
 10
-63.58874004011108
 20
309.4820803481149
 30
0.0
 40
1.00000000920535
100
AcDbArc
 50
90.0
 51
180.0
  0
ARC
  5
325
330
1F
100
AcDbEntity
  8
躯体
  6
Continuous
 62
     2
370
     9
100
AcDbCircle
 10
-68.81965176630791
 20
310.9819634622559
 30
0.0
 40
1.00000000920535
100
AcDbArc
 50
270.0
 51
276.8355255126953
  0
ARC
  5
326
330
1F
100
AcDbEntity
  8
躯体
  6
Continuous
 62
     2
370
     9
100
AcDbCircle
 10
-64.52891683822094
 20
309.4820803481149
 30
0.0
 40
1.00000000920535
100
AcDbArc
 50
90.0
 51
96.83552551269531
  0
ARC
  5
327
330
1F
100
AcDbEntity
  8
躯体
  6
Continuous
 62
     2
370
     9
100
AcDbCircle
 10
-65.49285136470138
 20
347.2942763506186
 30
0.0
 40
1.00000000920535
100
AcDbArc
 50
281.8459014892578
 51
0.0
  0
ARC
  5
328
330
1F
100
AcDbEntity
  8
躯体
  6
Continuous
 62
     2
370
     9
100
AcDbCircle
 10
-65.49285136470138
 20
349.6120793395031
 30
0.0
 40
1.00000000920535
100
AcDbArc
 50
359.9999999999999
 51
82.04058837890622
  0
ARC
  5
329
330
1F
100
AcDbEntity
  8
躯体
  6
Continuous
 62
     2
370
     9
100
AcDbCircle
 10
-19.64358183651478
 20
332.9819172145747
 30
0.0
 40
2.000000018410701
100
AcDbArc
 50
180.0
 51
270.0
  0
ARC
  5
32A
330
1F
100
AcDbEntity
  8
躯体
  6
Continuous
 62
     2
370
     9
100
AcDbCircle
 10
-12.49287719859711
 20
334.4819489693519
 30
0.0
 40
2.000000018410701
100
AcDbArc
 50
180.0
 51
270.0
  0
ARC
  5
32B
330
1F
100
AcDbEntity
  8
躯体
  6
Continuous
 62
     2
370
     9
100
AcDbCircle
 10
-156.4929528444858
 20
348.9141124582628
 30
0.0
 40
2.000000018410701
100
AcDbArc
 50
0.0
 51
83.66004943847656
  0
ARC
  5
32C
330
1F
100
AcDbEntity
  8
躯体
  6
Continuous
 62
     2
370
     9
100
AcDbCircle
 10
-149.4932670930604
 20
314.6552699605439
 30
0.0
 40
2.000000018410701
100
AcDbArc
 50
0.0
 51
84.80563354492186
  0
ARC
  5
32D
330
1F
100
AcDbEntity
  8
仕上
  6
Continuous
 62
     6
370
     9
100
AcDbCircle
 10
-122.9451576040025
 20
301.7471189157353
 30
0.0
 40
1.00000000920535
100
AcDbArc
 50
86.12210083007811
 51
168.0762634277344
  0
ARC
  5
32E
330
1F
100
AcDbEntity
  8
仕上
  6
Continuous
 62
     6
370
     9
100
AcDbCircle
 10
-89.71121706709113
 20
299.4936773223736
 30
0.0
 40
1.00000000920535
100
AcDbArc
 50
86.12068176269528
 51
168.0762634277344
  0
ARC
  5
32F
330
1F
100
AcDbEntity
  8
仕上
  6
Continuous
 62
     6
370
     9
100
AcDbCircle
 10
-131.8202670372097
 20
292.6986201802706
 30
0.0
 40
0.5000000046026752
100
AcDbArc
 50
270.0
 51
348.8787994384766
  0
LINE
  5
330
330
1F
100
AcDbEntity
  8
躯体
  6
Continuous
 62
     2
370
     9
100
AcDbLine
 10
-20.49296397927782
 20
351.4819289974233
 30
0.0
 11
-161.492728381218
 21
351.4819289974233
 31
0.0
  0
LINE
  5
331
330
1F
100
AcDbEntity
  8
躯体
  6
Continuous
 62
     2
370
     9
100
AcDbLine
 10
-162.4928816760795
 20
219.9816885683956
 30
0.0
 11
-162.4928816760795
 21
349.2457792647526
 31
0.0
  0
LINE
  5
332
330
1F
100
AcDbEntity
  8
躯体
  6
Continuous
 62
     2
370
     9
100
AcDbLine
 10
-154.4929683094746
 20
219.9816885683956
 30
0.0
 11
-154.4929683094746
 21
348.9141124582628
 31
0.0
  0
LINE
  5
333
330
1F
100
AcDbEntity
  8
躯体
  6
Continuous
 62
     2
370
     9
100
AcDbLine
 10
-147.4932825580494
 20
219.9816885683956
 30
0.0
 11
-147.4932825580494
 21
314.6552699605439
 31
0.0
  0
LINE
  5
334
330
1F
100
AcDbEntity
  8
躯体
  6
Continuous
 62
     2
370
     9
100
AcDbLine
 10
-10.49294221046483
 20
219.9816885683956
 30
0.0
 11
-10.49294221046483
 21
341.4818824551711
 31
0.0
  0
LINE
  5
335
330
1F
100
AcDbEntity
  8
仕上
  6
Continuous
 62
     6
370
     9
100
AcDbLine
 10
-41.49293785081085
 20
219.9816885683956
 30
0.0
 11
-41.49293785081085
 21
305.481615809305
 31
0.0
  0
ARC
  5
336
330
1F
100
AcDbEntity
  8
仕上
  6
Continuous
 62
     6
370
     9
100
AcDbCircle
 10
-132.4930145571558
 20
219.9816885683956
 30
0.0
 40
10.0000000920535
100
AcDbArc
 50
0.0
 51
82.24078369140622
  0
ARC
  5
337
330
1F
100
AcDbEntity
  8
0-A
  6
Continuous
 62
     2
370
     9
100
AcDbCircle
 10
-153.893029927882
 20
219.9816885683956
 30
0.0
 40
10.00000086622349
100
AcDbArc
 50
2.745336558275378
 51
36.86987304687499
  0
LINE
  5
338
330
1F
100
AcDbEntity
  8
0-A
  6
Continuous
 62
     2
370
     9
100
AcDbLine
 10
-145.89299269408
 20
220.4606582454703
 30
0.0
 11
-145.89299269408
 21
219.9816885683956
 31
0.0
  0
LINE
  5
339
330
1F
100
AcDbEntity
  8
躯体
  6
JWW_HOJO
 62
     2
370
     9
100
AcDbLine
 10
-158.4928878326181
 20
219.9816885683956
 30
0.0
 11
-158.4928878326181
 21
349.2457792647526
 31
0.0
  0
TEXT
  5
33A
330
1F
100
AcDbEntity
  8
その他
  6
Continuous
 62
     2
370
   211
100
AcDbText
 10
110.2436807665614
 20
-264.1243830493873
 30
0.0
 40
12.192
  1
205
 50
90.0
 41
1.083333333333332
  7
ＭＳ ゴシック
100
AcDbText
  0
ARC
  5
33B
330
1F
100
AcDbEntity
  8
0-8
  6
Continuous
 62
     2
370
     9
100
AcDbCircle
 10
-200.7429976797439
 20
-188.2616712963257
 30
0.0
 40
2.099999941914238
100
AcDbArc
 50
180.0
 51
270.0
  0
ARC
  5
33C
330
1F
100
AcDbEntity
  8
0-8
  6
Continuous
 62
     2
370
     9
100
AcDbCircle
 10
-200.7429976797439
 20
-188.2616712963257
 30
0.0
 40
0.5000000046026752
100
AcDbArc
 50
180.0
 51
270.0
  0
LINE
  5
33D
330
1F
100
AcDbEntity
  8
0-8
  6
Continuous
 62
     2
370
     9
100
AcDbLine
 10
-201.2428265927811
 20
-163.6988407302838
 30
0.0
 11
-201.2428265927811
 21
-160.3617247668931
 31
0.0
  0
LINE
  5
33E
330
1F
100
AcDbEntity
  8
0-8
  6
Continuous
 62
     2
370
     9
100
AcDbLine
 10
-202.8428265927812
 20
-164.3615824300807
 30
0.0
 11
-202.8428265927812
 21
-160.3617247668931
 31
0.0
  0
LINE
  5
33F
330
1F
100
AcDbEntity
  8
0-8
  6
Continuous
 62
     2
370
     9
100
AcDbLine
 10
-201.2428265927811
 20
-160.3617247668931
 30
0.0
 11
-202.8428265927812
 21
-160.3617247668931
 31
0.0
  0
LINE
  5
340
330
1F
100
AcDbEntity
  8
0-A
  6
Continuous
 62
     2
370
     9
100
AcDbLine
 10
-193.7335477997408
 20
-166.6114194143691
 30
0.0
 11
-198.2429083304025
 21
-166.6114194143691
 31
0.0
  0
LINE
  5
341
330
1F
100
AcDbEntity
  8
0-A
  6
Continuous
 62
     2
370
     9
100
AcDbLine
 10
-193.7335477997408
 20
-178.1114481645198
 30
0.0
 11
-198.2429083304025
 21
-178.1114481645198
 31
0.0
  0
LINE
  5
342
330
1F
100
AcDbEntity
  8
0-A
  6
Continuous
 62
     2
370
     9
100
AcDbLine
 10
-193.7335477997408
 20
-169.4980701184179
 30
0.0
 11
-198.2429083304025
 21
-169.4980701184179
 31
0.0
  0
LINE
  5
343
330
1F
100
AcDbEntity
  8
0-A
  6
Continuous
 62
     2
370
     9
100
AcDbLine
 10
-193.7335477997408
 20
-175.2247479135922
 30
0.0
 11
-198.2429083304025
 21
-175.2247479135922
 31
0.0
  0
LINE
  5
344
330
1F
100
AcDbEntity
  8
0-A
  6
Continuous
 62
     2
370
     9
100
AcDbLine
 10
-193.2428355123975
 20
-168.0549181804691
 30
0.0
 11
-193.2428355123975
 21
-176.6680980390561
 31
0.0
  0
LINE
  5
345
330
1F
100
AcDbEntity
  8
0-8
  6
Continuous
 62
     2
370
     9
100
AcDbLine
 10
-198.2429083304025
 20
-167.0489183539126
 30
0.0
 11
-198.2429083304025
 21
-177.6738996780976
 31
0.0
  0
ARC
  5
346
330
1F
100
AcDbEntity
  8
0-A
  6
Continuous
 62
     2
370
     9
100
AcDbCircle
 10
-195.6107799425979
 20
-168.0549181804691
 30
0.0
 40
2.367928946800674
100
AcDbArc
 50
322.4427795410156
 51
37.55722045898438
  0
ARC
  5
347
330
1F
100
AcDbEntity
  8
0-A
  6
Continuous
 62
     2
370
     9
100
AcDbCircle
 10
-201.840804479202
 20
-172.361532883202
 30
0.0
 40
8.597918645755664
100
AcDbArc
 50
340.5480041503906
 51
19.4519958496094
  0
ARC
  5
348
330
1F
100
AcDbEntity
  8
0-A
  6
Continuous
 62
     2
370
     9
100
AcDbCircle
 10
-195.6107799425979
 20
-176.6680980390561
 30
0.0
 40
2.367928946800674
100
AcDbArc
 50
322.4427795410156
 51
37.55722045898438
  0
LINE
  5
349
330
1F
100
AcDbEntity
  8
0-A
  6
Continuous
 62
     2
370
     9
100
AcDbLine
 10
-198.2429083304025
 20
-178.1114481645198
 30
0.0
 11
-198.2429083304025
 21
-177.6738996780976
 31
0.0
  0
LINE
  5
34A
330
1F
100
AcDbEntity
  8
0-A
  6
Continuous
 62
     2
370
     9
100
AcDbLine
 10
-198.2429083304025
 20
-166.6114194143691
 30
0.0
 11
-198.2429083304025
 21
-167.0489183539126
 31
0.0
  0
LINE
  5
34B
330
1F
100
AcDbEntity
  8
0-8
  6
Continuous
 62
     2
370
     9
100
AcDbLine
 10
-198.2429083304025
 20
-178.0243067737416
 30
0.0
 11
-201.2428761396598
 21
-181.024274582999
 31
0.0
  0
LINE
  5
34C
330
1F
100
AcDbEntity
  8
0-A
  6
Continuous
 62
     2
370
     9
100
AcDbLine
 10
-187.9240500695887
 20
-175.361497298999
 30
0.0
 11
-187.9240500695887
 21
-169.3615684674051
 31
0.0
  0
LINE
  5
34D
330
1F
100
AcDbEntity
  8
0-A
  6
Continuous
 62
     2
370
     9
100
AcDbLine
 10
-193.2428355123975
 20
-175.361497298999
 30
0.0
 11
-187.9240500695887
 21
-175.361497298999
 31
0.0
  0
LINE
  5
34E
330
1F
100
AcDbEntity
  8
0-A
  6
Continuous
 62
     2
370
     9
100
AcDbLine
 10
-193.2428355123975
 20
-174.4914541077888
 30
0.0
 11
-187.9240500695887
 21
-174.4914541077888
 31
0.0
  0
LINE
  5
34F
330
1F
100
AcDbEntity
  8
0-A
  6
Continuous
 62
     2
370
     9
100
AcDbLine
 10
-193.2428355123975
 20
-170.2314134711001
 30
0.0
 11
-187.9240500695887
 21
-170.2314134711001
 31
0.0
  0
LINE
  5
350
330
1F
100
AcDbEntity
  8
0-A
  6
Continuous
 62
     2
370
     9
100
AcDbLine
 10
-193.2428355123975
 20
-169.3615684674051
 30
0.0
 11
-187.9240500695887
 21
-169.3615684674051
 31
0.0
  0
LINE
  5
351
330
1F
100
AcDbEntity
  8
0-A
  6
JWW_DASHED1
 62
     2
370
     9
100
AcDbLine
 10
-203.9241245371925
 20
-166.711603203243
 30
0.0
 11
-203.6241677331157
 21
-166.711603203243
 31
0.0
  0
LINE
  5
352
330
1F
100
AcDbEntity
  8
0-A
  6
JWW_DASHED1
 62
     2
370
     9
100
AcDbLine
 10
-203.9241245371925
 20
-178.0115121100398
 30
0.0
 11
-203.9241245371925
 21
-166.711603203243
 31
0.0
  0
LINE
  5
353
330
1F
100
AcDbEntity
  8
0-A
  6
JWW_DASHED1
 62
     2
370
     9
100
AcDbLine
 10
-203.9241245371925
 20
-178.0115121100398
 30
0.0
 11
-203.6241677331157
 21
-178.0115121100398
 31
0.0
  0
LINE
  5
354
330
1F
100
AcDbEntity
  8
0-A
  6
JWW_DASHED1
 62
     2
370
     9
100
AcDbLine
 10
-203.6241677331157
 20
-178.0115121100398
 30
0.0
 11
-203.6241677331157
 21
-166.711603203243
 31
0.0
  0
LINE
  5
355
330
1F
100
AcDbEntity
  8
0-A
  6
JWW_DASHED1
 62
     2
370
     9
100
AcDbLine
 10
-200.9742024689538
 20
-169.3615684674051
 30
0.0
 11
-200.9742024689538
 21
-175.361497298999
 31
0.0
  0
LINE
  5
356
330
1F
100
AcDbEntity
  8
0-A
  6
JWW_DASHED1
 62
     2
370
     9
100
AcDbLine
 10
-200.9742125815433
 20
-175.3614871868186
 30
0.0
 11
-203.6241490260277
 21
-178.0115308163712
 31
0.0
  0
LINE
  5
357
330
1F
100
AcDbEntity
  8
0-A
  6
JWW_DASHED1
 62
     2
370
     9
100
AcDbLine
 10
-200.9742125815433
 20
-169.3615785795856
 30
0.0
 11
-203.6241242525882
 21
-166.7115597244741
 31
0.0
  0
LINE
  5
358
330
1F
100
AcDbEntity
  8
0-A
  6
JWW_DASHED1
 62
     2
370
     9
100
AcDbLine
 10
-198.2429083304025
 20
-175.361497298999
 30
0.0
 11
-200.9742024689538
 21
-175.361497298999
 31
0.0
  0
LINE
  5
359
330
1F
100
AcDbEntity
  8
0-A
  6
JWW_DASHED1
 62
     2
370
     9
100
AcDbLine
 10
-200.9742024689538
 20
-174.4914541077888
 30
0.0
 11
-198.2429083304025
 21
-174.4914541077888
 31
0.0
  0
LINE
  5
35A
330
1F
100
AcDbEntity
  8
0-A
  6
JWW_DASHED1
 62
     2
370
     9
100
AcDbLine
 10
-200.9742024689538
 20
-170.2314134711001
 30
0.0
 11
-198.2429083304025
 21
-170.2314134711001
 31
0.0
  0
LINE
  5
35B
330
1F
100
AcDbEntity
  8
0-A
  6
JWW_DASHED1
 62
     2
370
     9
100
AcDbLine
 10
-198.2429083304025
 20
-169.3615684674051
 30
0.0
 11
-200.9742024689538
 21
-169.3615684674051
 31
0.0
  0
LINE
  5
35C
330
1F
100
AcDbEntity
  8
0-8
  6
Continuous
 62
     2
370
     9
100
AcDbLine
 10
-198.2429083304025
 20
-166.6987589926624
 30
0.0
 11
-201.2428761396598
 21
-163.6987911834051
 31
0.0
  0
LINE
  5
35D
330
1F
100
AcDbEntity
  8
0-8
  6
JWW_CENTER1
 62
     2
370
     9
100
AcDbLine
 10
-187.1141203802033
 20
-172.361532883202
 30
0.0
 11
-207.2426067837384
 21
-172.361532883202
 31
0.0
  0
LINE
  5
35E
330
1F
100
AcDbEntity
  8
0-8
  6
Continuous
 62
     2
370
     9
100
AcDbLine
 10
-201.2428265927811
 20
-188.2616712963257
 30
0.0
 11
-201.2428265927811
 21
-163.6988407302838
 31
0.0
  0
LINE
  5
35F
330
1F
100
AcDbEntity
  8
0-8
  6
Continuous
 62
     2
370
     9
100
AcDbLine
 10
-200.7429976797439
 20
-188.7616983968776
 30
0.0
 11
-183.9430849435216
 21
-188.7616983968776
 31
0.0
  0
LINE
  5
360
330
1F
100
AcDbEntity
  8
0-8
  6
Continuous
 62
     2
370
     9
100
AcDbLine
 10
-183.9430849435216
 20
-190.3618148467713
 30
0.0
 11
-200.7429976797439
 21
-190.3618148467713
 31
0.0
  0
LINE
  5
361
330
1F
100
AcDbEntity
  8
0-8
  6
Continuous
 62
     2
370
     9
100
AcDbLine
 10
-204.4432576800832
 20
9.866362403003137
 30
0.0
 11
-202.8429925895534
 21
9.866362403003137
 31
0.0
  0
LINE
  5
362
330
1F
100
AcDbEntity
  8
0-8
  6
Continuous
 62
     2
370
     9
100
AcDbLine
 10
-204.4432576800832
 20
-350.1336375969969
 30
0.0
 11
-202.8429925895534
 21
-350.1336375969969
 31
0.0
  0
LINE
  5
363
330
1F
100
AcDbEntity
  8
0-8
  6
Continuous
 62
     2
370
     9
100
AcDbLine
 10
-204.4432576800832
 20
9.866362403003137
 30
0.0
 11
-204.4432576800832
 21
-350.1336375969969
 31
0.0
  0
LINE
  5
364
330
1F
100
AcDbEntity
  8
0-8
  6
Continuous
 62
     2
370
     9
100
AcDbLine
 10
-202.8429925895534
 20
9.866362403003137
 30
0.0
 11
-202.8429925895534
 21
-350.1336375969969
 31
0.0
  0
LINE
  5
365
330
1F
100
AcDbEntity
  8
0-8
  6
Continuous
 62
     2
370
     9
100
AcDbLine
 10
-201.2431238740528
 20
392.9819598684865
 30
0.0
 11
-201.2431238740528
 21
348.9819532700915
 31
0.0
  0
LINE
  5
366
330
1F
100
AcDbEntity
  8
0-8
  6
Continuous
 62
     2
370
     9
100
AcDbLine
 10
-204.4432576800832
 20
500.981867962267
 30
0.0
 11
-202.8432898708252
 21
500.981867962267
 31
0.0
  0
LINE
  5
367
330
1F
100
AcDbEntity
  8
0-8
  6
JWW_CENTER1
 62
     2
370
     9
100
AcDbLine
 10
-207.0932229442451
 20
485.981847695767
 30
0.0
 11
-199.5365311816813
 21
485.981847695767
 31
0.0
  0
LINE
  5
368
330
1F
100
AcDbEntity
  8
0-A
  6
Continuous
 62
     2
370
     9
100
AcDbLine
 10
-193.7338450810125
 20
365.2318431004561
 30
0.0
 11
-198.2432056116743
 21
365.2318431004561
 31
0.0
  0
LINE
  5
369
330
1F
100
AcDbEntity
  8
0-A
  6
Continuous
 62
     2
370
     9
100
AcDbLine
 10
-193.7338450810125
 20
376.7318718506068
 30
0.0
 11
-198.2432056116743
 21
376.7318718506068
 31
0.0
  0
LINE
  5
36A
330
1F
100
AcDbEntity
  8
0-A
  6
Continuous
 62
     2
370
     9
100
AcDbLine
 10
-193.7338450810125
 20
368.118493804505
 30
0.0
 11
-198.2432056116743
 21
368.118493804505
 31
0.0
  0
LINE
  5
36B
330
1F
100
AcDbEntity
  8
0-A
  6
Continuous
 62
     2
370
     9
100
AcDbLine
 10
-193.7338450810125
 20
373.8451715996792
 30
0.0
 11
-198.2432056116743
 21
373.8451715996792
 31
0.0
  0
LINE
  5
36C
330
1F
100
AcDbEntity
  8
0-A
  6
Continuous
 62
     2
370
     9
100
AcDbLine
 10
-193.2431327936692
 20
366.6753418665561
 30
0.0
 11
-193.2431327936692
 21
375.2885217251431
 31
0.0
  0
LINE
  5
36D
330
1F
100
AcDbEntity
  8
0-8
  6
Continuous
 62
     2
370
     9
100
AcDbLine
 10
-198.2432056116743
 20
365.6693420399996
 30
0.0
 11
-198.2432056116743
 21
376.2943233641846
 31
0.0
  0
ARC
  5
36E
330
1F
100
AcDbEntity
  8
0-A
  6
Continuous
 62
     2
370
     9
100
AcDbCircle
 10
-195.6110772238696
 20
366.6753418665561
 30
0.0
 40
2.367928946800674
100
AcDbArc
 50
322.4427795410156
 51
37.55722045898439
  0
ARC
  5
36F
330
1F
100
AcDbEntity
  8
0-A
  6
Continuous
 62
     2
370
     9
100
AcDbCircle
 10
-201.8411017604737
 20
370.9819565692891
 30
0.0
 40
8.597918645755664
100
AcDbArc
 50
340.5480041503906
 51
19.45199584960935
  0
ARC
  5
370
330
1F
100
AcDbEntity
  8
0-A
  6
Continuous
 62
     2
370
     9
100
AcDbCircle
 10
-195.6110772238696
 20
375.2885217251431
 30
0.0
 40
2.367928946800674
100
AcDbArc
 50
322.4427795410156
 51
37.55722045898439
  0
LINE
  5
371
330
1F
100
AcDbEntity
  8
0-A
  6
Continuous
 62
     2
370
     9
100
AcDbLine
 10
-198.2432056116743
 20
376.7318718506068
 30
0.0
 11
-198.2432056116743
 21
376.2943233641846
 31
0.0
  0
LINE
  5
372
330
1F
100
AcDbEntity
  8
0-A
  6
Continuous
 62
     2
370
     9
100
AcDbLine
 10
-198.2432056116743
 20
365.2318431004561
 30
0.0
 11
-198.2432056116743
 21
365.6693420399996
 31
0.0
  0
LINE
  5
373
330
1F
100
AcDbEntity
  8
0-8
  6
Continuous
 62
     2
370
     9
100
AcDbLine
 10
-198.2432056116743
 20
376.6447304598287
 30
0.0
 11
-201.2431734209315
 21
379.6446982690861
 31
0.0
  0
LINE
  5
374
330
1F
100
AcDbEntity
  8
0-A
  6
Continuous
 62
     2
370
     9
100
AcDbLine
 10
-187.9243473508604
 20
373.981920985086
 30
0.0
 11
-187.9243473508604
 21
367.9819921534921
 31
0.0
  0
LINE
  5
375
330
1F
100
AcDbEntity
  8
0-A
  6
Continuous
 62
     2
370
     9
100
AcDbLine
 10
-193.2431327936692
 20
373.981920985086
 30
0.0
 11
-187.9243473508604
 21
373.981920985086
 31
0.0
  0
LINE
  5
376
330
1F
100
AcDbEntity
  8
0-A
  6
Continuous
 62
     2
370
     9
100
AcDbLine
 10
-193.2431327936692
 20
373.1118777938758
 30
0.0
 11
-187.9243473508604
 21
373.1118777938758
 31
0.0
  0
LINE
  5
377
330
1F
100
AcDbEntity
  8
0-A
  6
Continuous
 62
     2
370
     9
100
AcDbLine
 10
-193.2431327936692
 20
368.8518371571871
 30
0.0
 11
-187.9243473508604
 21
368.8518371571871
 31
0.0
  0
LINE
  5
378
330
1F
100
AcDbEntity
  8
0-A
  6
Continuous
 62
     2
370
     9
100
AcDbLine
 10
-193.2431327936692
 20
367.9819921534921
 30
0.0
 11
-187.9243473508604
 21
367.9819921534921
 31
0.0
  0
LINE
  5
379
330
1F
100
AcDbEntity
  8
0-8
  6
Continuous
 62
     2
370
     9
100
AcDbLine
 10
-198.2432056116743
 20
365.3191826787495
 30
0.0
 11
-201.2431734209315
 21
362.3192148694922
 31
0.0
  0
LINE
  5
37A
330
1F
100
AcDbEntity
  8
0-8
  6
Continuous
 62
     2
370
     9
100
AcDbLine
 10
-181.8434864087421
 20
348.9819532700915
 30
0.0
 11
-202.8432898708252
 21
348.9819532700915
 31
0.0
  0
LINE
  5
37B
330
1F
100
AcDbEntity
  8
0-8
  6
Continuous
 62
     2
370
     9
100
AcDbLine
 10
-181.8434864087421
 20
392.9819598684865
 30
0.0
 11
-202.8432898708252
 21
392.9819598684865
 31
0.0
  0
LINE
  5
37C
330
1F
100
AcDbEntity
  8
0-8
  6
Continuous
 62
     2
370
     9
100
AcDbLine
 10
-204.4432576800832
 20
219.9816885683956
 30
0.0
 11
-204.4432576800832
 21
500.981867962267
 31
0.0
  0
LINE
  5
37D
330
1F
100
AcDbEntity
  8
0-8
  6
Continuous
 62
     2
370
     9
100
AcDbLine
 10
-202.8432898708252
 20
500.981867962267
 30
0.0
 11
-202.8432898708252
 21
219.9816885683956
 31
0.0
  0
LWPOLYLINE
  5
37E
330
1F
100
AcDbEntity
  8
その他
  6
Continuous
 62
     7
370
     9
100
AcDbPolyline
 90
        4
 70
     1
 43
0.8
 10
-202.4429925895534
 20
65.81048985790916
 42
0.4142135623731
 10
-202.8429925895534
 20
66.21048985790917
 42
0.4142135623731
 10
-203.2429925895534
 20
65.81048985790916
 42
0.4142135623731
 10
-202.8429925895534
 20
65.41048985790916
 42
0.4142135623731
  0
LINE
  5
37F
330
1F
100
AcDbEntity
  8
その他
  6
Continuous
 62
     7
370
     9
100
AcDbLine
 10
-202.8429925895534
 20
73.81048985790916
 30
0.0
 11
-202.8429925895534
 21
17.86636240300314
 31
0.0
  0
LINE
  5
380
330
1F
100
AcDbEntity
  8
その他
  6
Continuous
 62
     7
370
     9
100
AcDbLine
 10
122.8996807665615
 20
9.866362403003109
 30
0.0
 11
-195.7848324514991
 21
9.866362403003128
 31
0.0
  0
ARC
  5
381
330
1F
100
AcDbEntity
  8
0-8
  6
Continuous
 62
     2
370
     9
100
AcDbCircle
 10
-0.5162403611107038
 20
-388.0333237437776
 30
0.0
 40
2.099999941914238
100
AcDbArc
 50
180.0
 51
270.0
  0
ARC
  5
382
330
1F
100
AcDbEntity
  8
0-8
  6
Continuous
 62
     2
370
     9
100
AcDbCircle
 10
-0.5162403611107038
 20
-388.0333237437776
 30
0.0
 40
0.5000000046026752
100
AcDbArc
 50
180.0
 51
270.0
  0
LINE
  5
383
330
1F
100
AcDbEntity
  8
0-8
  6
Continuous
 62
     2
370
     9
100
AcDbLine
 10
24.04649111117351
 20
-388.5332517505722
 30
0.0
 11
27.38360707456422
 21
-388.5332517505722
 31
0.0
  0
LINE
  5
384
330
1F
100
AcDbEntity
  8
0-8
  6
Continuous
 62
     2
370
     9
100
AcDbLine
 10
23.38374941137658
 20
-390.1332517505723
 30
0.0
 11
27.38360707456422
 21
-390.1332517505723
 31
0.0
  0
LINE
  5
385
330
1F
100
AcDbEntity
  8
0-8
  6
Continuous
 62
     2
370
     9
100
AcDbLine
 10
27.38360707456422
 20
-388.5332517505722
 30
0.0
 11
27.38360707456422
 21
-390.1332517505723
 31
0.0
  0
LINE
  5
386
330
1F
100
AcDbEntity
  8
0-A
  6
Continuous
 62
     2
370
     9
100
AcDbLine
 10
9.633635942543606
 20
-381.0239234106532
 30
0.0
 11
9.633635942543606
 21
-385.5332839413149
 31
0.0
  0
LINE
  5
387
330
1F
100
AcDbEntity
  8
0-A
  6
Continuous
 62
     2
370
     9
100
AcDbLine
 10
21.13366469269431
 20
-381.0239234106532
 30
0.0
 11
21.13366469269431
 21
-385.5332839413149
 31
0.0
  0
LINE
  5
388
330
1F
100
AcDbEntity
  8
0-A
  6
Continuous
 62
     2
370
     9
100
AcDbLine
 10
12.52028664659247
 20
-381.0239234106532
 30
0.0
 11
12.52028664659247
 21
-385.5332839413149
 31
0.0
  0
LINE
  5
389
330
1F
100
AcDbEntity
  8
0-A
  6
Continuous
 62
     2
370
     9
100
AcDbLine
 10
18.24696444176675
 20
-381.0239234106532
 30
0.0
 11
18.24696444176675
 21
-385.5332839413149
 31
0.0
  0
LINE
  5
38A
330
1F
100
AcDbEntity
  8
0-A
  6
Continuous
 62
     2
370
     9
100
AcDbLine
 10
11.0771347086436
 20
-380.5332111233099
 30
0.0
 11
19.69031456723064
 21
-380.5332111233099
 31
0.0
  0
LINE
  5
38B
330
1F
100
AcDbEntity
  8
0-8
  6
Continuous
 62
     2
370
     9
100
AcDbLine
 10
10.07113488208711
 20
-385.5332839413149
 30
0.0
 11
20.69611620627211
 21
-385.5332839413149
 31
0.0
  0
ARC
  5
38C
330
1F
100
AcDbEntity
  8
0-A
  6
Continuous
 62
     2
370
     9
100
AcDbCircle
 10
11.0771347086436
 20
-382.9011555535103
 30
0.0
 40
2.367928946800674
100
AcDbArc
 50
52.44277954101562
 51
127.5572204589844
  0
ARC
  5
38D
330
1F
100
AcDbEntity
  8
0-A
  6
Continuous
 62
     2
370
     9
100
AcDbCircle
 10
15.38374941137658
 20
-389.1311800901144
 30
0.0
 40
8.597918645755664
100
AcDbArc
 50
70.54800415039065
 51
109.4519958496094
  0
ARC
  5
38E
330
1F
100
AcDbEntity
  8
0-A
  6
Continuous
 62
     2
370
     9
100
AcDbCircle
 10
19.69031456723064
 20
-382.9011555535103
 30
0.0
 40
2.367928946800674
100
AcDbArc
 50
52.44277954101562
 51
127.5572204589844
  0
LINE
  5
38F
330
1F
100
AcDbEntity
  8
0-A
  6
Continuous
 62
     2
370
     9
100
AcDbLine
 10
21.13366469269431
 20
-385.5332839413149
 30
0.0
 11
20.69611620627211
 21
-385.5332839413149
 31
0.0
  0
LINE
  5
390
330
1F
100
AcDbEntity
  8
0-A
  6
Continuous
 62
     2
370
     9
100
AcDbLine
 10
9.633635942543606
 20
-385.5332839413149
 30
0.0
 11
10.07113488208711
 21
-385.5332839413149
 31
0.0
  0
LINE
  5
391
330
1F
100
AcDbEntity
  8
0-8
  6
Continuous
 62
     2
370
     9
100
AcDbLine
 10
21.0465233019163
 20
-385.5332839413149
 30
0.0
 11
24.04649111117351
 21
-388.5332517505722
 31
0.0
  0
LINE
  5
392
330
1F
100
AcDbEntity
  8
0-A
  6
Continuous
 62
     2
370
     9
100
AcDbLine
 10
18.38371382717355
 20
-375.2144256805011
 30
0.0
 11
12.38378499557962
 21
-375.2144256805011
 31
0.0
  0
LINE
  5
393
330
1F
100
AcDbEntity
  8
0-A
  6
Continuous
 62
     2
370
     9
100
AcDbLine
 10
18.38371382717355
 20
-380.5332111233099
 30
0.0
 11
18.38371382717355
 21
-375.2144256805011
 31
0.0
  0
LINE
  5
394
330
1F
100
AcDbEntity
  8
0-A
  6
Continuous
 62
     2
370
     9
100
AcDbLine
 10
17.51367063596331
 20
-380.5332111233099
 30
0.0
 11
17.51367063596331
 21
-375.2144256805011
 31
0.0
  0
LINE
  5
395
330
1F
100
AcDbEntity
  8
0-A
  6
Continuous
 62
     2
370
     9
100
AcDbLine
 10
13.25362999927461
 20
-380.5332111233099
 30
0.0
 11
13.25362999927461
 21
-375.2144256805011
 31
0.0
  0
LINE
  5
396
330
1F
100
AcDbEntity
  8
0-A
  6
Continuous
 62
     2
370
     9
100
AcDbLine
 10
12.38378499557962
 20
-380.5332111233099
 30
0.0
 11
12.38378499557962
 21
-375.2144256805011
 31
0.0
  0
LINE
  5
397
330
1F
100
AcDbEntity
  8
0-A
  6
JWW_DASHED1
 62
     2
370
     9
100
AcDbLine
 10
9.733819731417498
 20
-391.2145001481049
 30
0.0
 11
9.733819731417498
 21
-390.9145433440281
 31
0.0
  0
LINE
  5
398
330
1F
100
AcDbEntity
  8
0-A
  6
JWW_DASHED1
 62
     2
370
     9
100
AcDbLine
 10
21.03372863821437
 20
-391.2145001481049
 30
0.0
 11
9.733819731417498
 21
-391.2145001481049
 31
0.0
  0
LINE
  5
399
330
1F
100
AcDbEntity
  8
0-A
  6
JWW_DASHED1
 62
     2
370
     9
100
AcDbLine
 10
21.03372863821437
 20
-391.2145001481049
 30
0.0
 11
21.03372863821437
 21
-390.9145433440281
 31
0.0
  0
LINE
  5
39A
330
1F
100
AcDbEntity
  8
0-A
  6
JWW_DASHED1
 62
     2
370
     9
100
AcDbLine
 10
21.03372863821437
 20
-390.9145433440281
 30
0.0
 11
9.733819731417498
 21
-390.9145433440281
 31
0.0
  0
LINE
  5
39B
330
1F
100
AcDbEntity
  8
0-A
  6
JWW_DASHED1
 62
     2
370
     9
100
AcDbLine
 10
12.38378499557962
 20
-388.2645780798662
 30
0.0
 11
18.38371382717355
 21
-388.2645780798662
 31
0.0
  0
LINE
  5
39C
330
1F
100
AcDbEntity
  8
0-A
  6
JWW_DASHED1
 62
     2
370
     9
100
AcDbLine
 10
18.38370371499309
 20
-388.2645881924557
 30
0.0
 11
21.03374734454565
 21
-390.9145246369401
 31
0.0
  0
LINE
  5
39D
330
1F
100
AcDbEntity
  8
0-A
  6
JWW_DASHED1
 62
     2
370
     9
100
AcDbLine
 10
12.38379510776008
 20
-388.2645881924557
 30
0.0
 11
9.733776252648568
 21
-390.9144998635006
 31
0.0
  0
LINE
  5
39E
330
1F
100
AcDbEntity
  8
0-A
  6
JWW_DASHED1
 62
     2
370
     9
100
AcDbLine
 10
18.38371382717355
 20
-385.5332839413149
 30
0.0
 11
18.38371382717355
 21
-388.2645780798662
 31
0.0
  0
LINE
  5
39F
330
1F
100
AcDbEntity
  8
0-A
  6
JWW_DASHED1
 62
     2
370
     9
100
AcDbLine
 10
17.51367063596331
 20
-388.2645780798662
 30
0.0
 11
17.51367063596331
 21
-385.5332839413149
 31
0.0
  0
LINE
  5
3A0
330
1F
100
AcDbEntity
  8
0-A
  6
JWW_DASHED1
 62
     2
370
     9
100
AcDbLine
 10
13.25362999927461
 20
-388.2645780798662
 30
0.0
 11
13.25362999927461
 21
-385.5332839413149
 31
0.0
  0
LINE
  5
3A1
330
1F
100
AcDbEntity
  8
0-A
  6
JWW_DASHED1
 62
     2
370
     9
100
AcDbLine
 10
12.38378499557962
 20
-385.5332839413149
 30
0.0
 11
12.38378499557962
 21
-388.2645780798662
 31
0.0
  0
LINE
  5
3A2
330
1F
100
AcDbEntity
  8
0-8
  6
Continuous
 62
     2
370
     9
100
AcDbLine
 10
9.720975520836873
 20
-385.5332839413149
 30
0.0
 11
6.721007711579659
 21
-388.5332517505722
 31
0.0
  0
LINE
  5
3A3
330
1F
100
AcDbEntity
  8
0-8
  6
JWW_CENTER1
 62
     2
370
     9
100
AcDbLine
 10
15.38374941137658
 20
-374.4044959911157
 30
0.0
 11
15.38374941137658
 21
-394.5329823946508
 31
0.0
  0
LINE
  5
3A4
330
1F
100
AcDbEntity
  8
0-8
  6
Continuous
 62
     2
370
     9
100
AcDbLine
 10
-0.5162403611107038
 20
-388.5332022036935
 30
0.0
 11
24.04649111117351
 21
-388.5332022036935
 31
0.0
  0
LINE
  5
3A5
330
1F
100
AcDbEntity
  8
0-8
  6
Continuous
 62
     2
370
     9
100
AcDbLine
 10
-162.8428088680926
 20
-390.1333186535871
 30
0.0
 11
-162.8428088680926
 21
-391.7336332909958
 31
0.0
  0
LINE
  5
3A6
330
1F
100
AcDbEntity
  8
0-8
  6
Continuous
 62
     2
370
     9
100
AcDbLine
 10
197.1569838715991
 20
-390.1333186535871
 30
0.0
 11
-162.8428088680926
 21
-390.1333186535871
 31
0.0
  0
LINE
  5
3A7
330
1F
100
AcDbEntity
  8
0-8
  6
Continuous
 62
     2
370
     9
100
AcDbLine
 10
197.1569838715991
 20
-390.1333186535871
 30
0.0
 11
197.1569838715991
 21
-391.7336332909958
 31
0.0
  0
LINE
  5
3A8
330
1F
100
AcDbEntity
  8
0-8
  6
Continuous
 62
     2
370
     9
100
AcDbLine
 10
-162.8428088680926
 20
-391.7333112362837
 30
0.0
 11
197.1569838715991
 21
-391.7333112362837
 31
0.0
  0
LINE
  5
3A9
330
1F
100
AcDbEntity
  8
0-8
  6
Continuous
 62
     2
370
     9
100
AcDbLine
 10
-2.842856942115304
 20
-390.1333186535871
 30
0.0
 11
-2.842856942115304
 21
-391.7336332909958
 31
0.0
  0
LINE
  5
3AA
330
1F
100
AcDbEntity
  8
0-8
  6
Continuous
 62
     2
370
     9
100
AcDbLine
 10
-1.016267461662665
 20
-388.0333237437776
 30
0.0
 11
-1.016267461662665
 21
-371.2335596481914
 31
0.0
  0
LINE
  5
3AB
330
1F
100
AcDbEntity
  8
0-8
  6
Continuous
 62
     2
370
     9
100
AcDbLine
 10
-2.61643345843504
 20
-371.2335596481914
 30
0.0
 11
-2.61643345843504
 21
-388.0333237437776
 31
0.0
  0
LINE
  5
3AC
330
1F
100
AcDbEntity
  8
その他
  6
Continuous
 62
     7
370
     9
100
AcDbLine
 10
197.1569838715991
 20
73.81048985790916
 30
0.0
 11
197.1569838715991
 21
-382.1333186535871
 31
0.0
  0
LWPOLYLINE
  5
3AD
330
1F
100
AcDbEntity
  8
その他
  6
Continuous
 62
     7
370
     9
100
AcDbPolyline
 90
        4
 70
     1
 43
0.8
 10
115.2996807665615
 20
-390.1333186535871
 42
0.4142135623731
 10
114.8996807665615
 20
-389.7333186535872
 42
0.4142135623731
 10
114.4996807665615
 20
-390.1333186535871
 42
0.4142135623731
 10
114.8996807665615
 20
-390.5333186535871
 42
0.4142135623731
  0
LINE
  5
3AE
330
1F
100
AcDbEntity
  8
その他
  6
Continuous
 62
     7
370
     9
100
AcDbLine
 10
114.8996807665615
 20
-390.1333186535871
 30
0.0
 11
114.8996807665615
 21
-350.1334861984376
 31
0.0
  0
TEXT
  5
3AF
330
1F
100
AcDbEntity
  8
その他
  6
Continuous
 62
     2
370
   211
100
AcDbText
 10
110.2436807665614
 20
-378.6334024260124
 30
0.0
 40
12.192
  1
40
 50
90.0
 41
1.0625
  7
ＭＳ ゴシック
100
AcDbText
  0
TEXT
  5
3B0
330
1F
100
AcDbEntity
  8
寸法
  6
Continuous
 62
     7
370
     9
100
AcDbText
 10
-384.4244326404926
 20
25.3533704807919
 30
0.0
 40
9.144
  1
固定金具：ＳＧＨＣ
 41
1.148148148148148
  7
ＭＳ ゴシック
100
AcDbText
  0
LINE
  5
3B1
330
1F
100
AcDbEntity
  8
寸法
  6
Continuous
 62
     7
370
     9
100
AcDbLine
 10
-384.3088577822466
 20
19.66655432601419
 30
0.0
 11
-261.2405430853414
 21
19.66655432601419
 31
0.0
  0
LINE
  5
3B2
330
1F
100
AcDbEntity
  8
寸法
  6
Continuous
 62
     7
370
     9
100
AcDbLine
 10
-204.4432576800837
 20
-78.70922972788253
 30
0.0
 11
-261.2405430853414
 21
19.66655432601419
 31
0.0
  0
LINE
  5
3B3
330
1F
100
AcDbEntity
  8
寸法
  6
Continuous
 62
     7
370
     9
100
AcDbLine
 10
-204.4432576800837
 20
-78.70922972788253
 30
0.0
 11
-210.5308719701707
 21
-70.77569632497013
 31
0.0
  0
LINE
  5
3B4
330
1F
100
AcDbEntity
  8
寸法
  6
Continuous
 62
     7
370
     9
100
AcDbLine
 10
-204.4432576800837
 20
-78.70922972788253
 30
0.0
 11
-208.2700920037346
 21
-69.47043440276958
 31
0.0
  0
LINE
  5
3B5
330
1F
100
AcDbEntity
  8
寸法
  6
Continuous
 62
     7
370
     9
100
AcDbLine
 10
-203.9240749903142
 20
-172.3615824300803
 30
0.0
 11
-207.7509093139652
 21
-163.1227871049675
 31
0.0
  0
LINE
  5
3B6
330
1F
100
AcDbEntity
  8
寸法
  6
Continuous
 62
     7
370
     9
100
AcDbLine
 10
-203.9240749903142
 20
-172.3615824300803
 30
0.0
 11
-210.0116892804012
 21
-164.4280490271678
 31
0.0
  0
LINE
  5
3B7
330
1F
100
AcDbEntity
  8
その他
  6
Continuous
 62
     7
370
     9
100
AcDbLine
 10
-202.8429925895534
 20
65.81048985790916
 30
0.0
 11
-162.8429297601199
 21
65.81048985790916
 31
0.0
  0
TEXT
  5
3B8
330
1F
100
AcDbEntity
  8
その他
  6
Continuous
 62
     2
370
   211
100
AcDbText
 10
-191.3429611748367
 20
70.46648985790917
 30
0.0
 40
12.192
  1
40
 41
1.0625
  7
ＭＳ ゴシック
100
AcDbText
  0
TEXT
  5
3B9
330
1F
100
AcDbEntity
  8
F-5ﾚｲﾔ
  6
Continuous
 62
     2
370
     9
100
AcDbText
 10
-337.9240308472582
 20
-530.0811476666805
 30
0.0
 40
12.192
  1
鋳鉄製ルーフドレン　防水層張掛け幅100mm　よこ引き用　鋼製下地断熱屋根工法用
 41
0.7743333333333333
  7
ＭＳ ゴシック
100
AcDbText
  0
TEXT
  5
3BA
330
1F
100
AcDbEntity
  8
F-5ﾚｲﾔ
  6
Continuous
 62
     2
370
     9
100
AcDbText
 10
-338.116483249732
 20
-549.2680218372682
 30
0.0
 40
12.192
  1
ねじ込み式　改質アスファルトシート・シート防水用　　ＷＨＸＳ－６－１００－４０
 41
0.7743589743589743
  7
ＭＳ ゴシック
100
AcDbText
  0
TEXT
  5
3BB
330
1F
100
AcDbEntity
  8
寸法
  6
Continuous
 62
     7
370
     9
100
AcDbText
 10
212.9254431386687
 20
27.21459081206327
 30
0.0
 40
9.144
  1
ボルト：Ｍ１０×７０，ばね座金・平座金
 41
1.157894736842105
  7
ＭＳ ゴシック
100
AcDbText
  0
TEXT
  5
3BC
330
1F
100
AcDbEntity
  8
寸法
  6
Continuous
 62
     7
370
     9
100
AcDbText
 10
219.5209629552896
 20
119.1428336217411
 30
0.0
 40
9.144
  1
丸小ねじ：Ｍ６×１２
 41
1.15
  7
ＭＳ ゴシック
100
AcDbText
  0
LINE
  5
3BD
330
1F
100
AcDbEntity
  8
寸法
  6
Continuous
 62
     7
370
     9
100
AcDbLine
 10
210.882164526319
 20
22.48359116631348
 30
0.0
 11
477.7255637860083
 21
22.48359116631348
 31
0.0
  0
LINE
  5
3BE
330
1F
100
AcDbEntity
  8
寸法
  6
Continuous
 62
     7
370
     9
100
AcDbLine
 10
42.1569838715991
 20
-361.1334537845572
 30
0.0
 11
85.66066642622252
 21
-436.4840422855128
 31
0.0
  0
LINE
  5
3BF
330
1F
100
AcDbEntity
  8
寸法
  6
Continuous
 62
     7
370
     9
100
AcDbLine
 10
42.1569838715991
 20
-361.1334537845572
 30
0.0
 11
48.24459816168631
 21
-369.0669871874696
 31
0.0
  0
LINE
  5
3C0
330
1F
100
AcDbEntity
  8
寸法
  6
Continuous
 62
     7
370
     9
100
AcDbLine
 10
42.1569838715991
 20
-361.1334537845572
 30
0.0
 11
45.98381819525
 21
-370.3722491096701
 31
0.0
  0
LINE
  5
3C1
330
1F
100
AcDbEntity
  8
寸法
  6
Continuous
 62
     7
370
     9
100
AcDbLine
 10
-32.61647399143476
 20
-370.7337307351545
 30
0.0
 11
-65.88433801605939
 21
-428.3553614850972
 31
0.0
  0
LINE
  5
3C2
330
1F
100
AcDbEntity
  8
寸法
  6
Continuous
 62
     7
370
     9
100
AcDbLine
 10
-32.61647399143476
 20
-370.7337307351545
 30
0.0
 11
-36.44330831508566
 21
-379.9725260602673
 31
0.0
  0
LINE
  5
3C3
330
1F
100
AcDbEntity
  8
寸法
  6
Continuous
 62
     7
370
     9
100
AcDbLine
 10
-32.61647399143476
 20
-370.7337307351545
 30
0.0
 11
-38.70408828152196
 21
-378.6672641380669
 31
0.0
  0
TEXT
  5
3C4
330
1F
100
AcDbEntity
  8
寸法
  6
Continuous
 62
     7
370
     9
100
AcDbText
 10
86.76203061727472
 20
-430.7231418421007
 30
0.0
 40
9.144
  1
本体：ＦＣ１５０
 41
1.145833333333333
  7
ＭＳ ゴシック
100
AcDbText
  0
LINE
  5
3C5
330
1F
100
AcDbEntity
  8
寸法
  6
Continuous
 62
     7
370
     9
100
AcDbLine
 10
85.66066642622252
 20
-436.4840422855128
 30
0.0
 11
205.6812299083118
 21
-436.4840422855128
 31
0.0
  0
TEXT
  5
3C6
330
1F
100
AcDbEntity
  8
寸法
  6
Continuous
 62
     7
370
     9
100
AcDbText
 10
-203.0682275712105
 20
-422.6685453303195
 30
0.0
 40
9.144
  1
取付ピース：ＳＧＨＣ
 41
1.15
  7
ＭＳ ゴシック
100
AcDbText
  0
LINE
  5
3C7
330
1F
100
AcDbEntity
  8
寸法
  6
Continuous
 62
     7
370
     9
100
AcDbLine
 10
-203.7260512693182
 20
-428.3553614850972
 30
0.0
 11
-65.88433801605939
 21
-428.3553614850972
 31
0.0
  0
LINE
  5
3C8
330
1F
100
AcDbEntity
  8
寸法
  6
Continuous
 62
     7
370
     9
100
AcDbLine
 10
-203.9240749903142
 20
-172.3615824300803
 30
0.0
 11
-267.1860184828138
 21
-60.47894070988889
 31
0.0
  0
LINE
  5
3C9
330
1F
100
AcDbEntity
  8
寸法
  6
Continuous
 62
     7
370
     9
100
AcDbLine
 10
-267.1860184828138
 20
-60.47894070988889
 30
0.0
 11
-454.7654758754972
 21
-60.47894070988889
 31
0.0
  0
LINE
  5
3CA
330
1F
100
AcDbEntity
  8
寸法
  6
Continuous
 62
     7
370
     9
100
AcDbLine
 10
-188.0318556803709
 20
-204.8824690611664
 30
0.0
 11
-215.3983980022878
 21
-177.5159267392494
 31
0.0
  0
LINE
  5
3CB
330
1F
100
AcDbEntity
  8
寸法
  6
Continuous
 62
     7
370
     9
100
AcDbLine
 10
-188.0318556803709
 20
-204.8824690611664
 30
0.0
 11
-195.9653890832832
 21
-198.7948547710792
 31
0.0
  0
LINE
  5
3CC
330
1F
100
AcDbEntity
  8
寸法
  6
Continuous
 62
     7
370
     9
100
AcDbLine
 10
-188.0318556803709
 20
-204.8824690611664
 30
0.0
 11
-194.1194699704581
 21
-196.948935658254
 31
0.0
  0
LINE
  5
3CD
330
1F
100
AcDbEntity
  8
寸法
  6
Continuous
 62
     7
370
     9
100
AcDbLine
 10
-215.3983980022878
 20
-177.5159267392494
 30
0.0
 11
-399.0693191529292
 21
-177.5159267392494
 31
0.0
  0
TEXT
  5
3CE
330
1F
100
AcDbEntity
  8
寸法
  6
Continuous
 62
     7
370
     9
100
AcDbText
 10
-450.9757471791555
 20
-54.08235830671914
 30
0.0
 40
9.144
  1
皿小ねじ・六角ナット：Ｍ６
 41
1.153846153846154
  7
ＭＳ ゴシック
100
AcDbText
  0
TEXT
  5
3CF
330
1F
100
AcDbEntity
  8
寸法
  6
Continuous
 62
     7
370
     9
100
AcDbText
 10
-450.9757471791555
 20
-74.68514016580028
 30
0.0
 40
9.144
  1
ＳＳ４００　電気亜鉛めっき
 41
1.153846153846154
  7
ＭＳ ゴシック
100
AcDbText
  0
TEXT
  5
3D0
330
1F
100
AcDbEntity
  8
寸法
  6
Continuous
 62
     7
370
     9
100
AcDbText
 10
-369.2338585776085
 20
-172.2834590655807
 30
0.0
 40
9.144
  1
丸小ねじ：Ｍ６×８
 41
1.148148148148148
  7
ＭＳ ゴシック
100
AcDbText
  0
TEXT
  5
3D1
330
1F
100
AcDbEntity
  8
寸法
  6
Continuous
 62
     7
370
     9
100
AcDbText
 10
-397.2338585776085
 20
-190.6814878725204
 30
0.0
 40
9.144
  1
ＳＳ４００　電気亜鉛めっき
 41
1.153846153846154
  7
ＭＳ ゴシック
100
AcDbText
  0
TEXT
  5
3D2
330
1F
100
AcDbEntity
  8
寸法
  6
Continuous
 62
     7
370
     9
100
AcDbText
 10
244.6565500920658
 20
99.28621137196038
 30
0.0
 40
9.144
  1
ＳＵＳ３０４
 41
1.138888888888889
  7
ＭＳ ゴシック
100
AcDbText
  0
TEXT
  5
3D3
330
1F
100
AcDbEntity
  8
寸法
  6
Continuous
 62
     7
370
     9
100
AcDbText
 10
303.3038641561636
 20
9.501229266528465
 30
0.0
 40
9.144
  1
ＳＵＳ３０４
 41
1.138888888888889
  7
ＭＳ ゴシック
100
AcDbText
  0
TEXT
  5
3D4
330
1F
100
AcDbEntity
  8
寸法
  6
Continuous
 62
     7
370
     9
100
AcDbText
 10
262.7849470618353
 20
-49.13834105759398
 30
0.0
 40
9.144
  1
樹脂系塗装
 41
1.133333333333333
  7
ＭＳ ゴシック
100
AcDbText
  0
TEXT
  5
3D5
330
1F
100
AcDbEntity
  8
寸法
  6
Continuous
 62
     7
370
     9
100
AcDbText
 10
255.9138633152686
 20
-134.8179005318413
 30
0.0
 40
9.144
  1
樹脂系塗装
 41
1.133333333333333
  7
ＭＳ ゴシック
100
AcDbText
  0
TEXT
  5
3D6
330
1F
100
AcDbEntity
  8
寸法
  6
Continuous
 62
     7
370
     9
100
AcDbText
 10
111.6709481672672
 20
-450.9704324669402
 30
0.0
 40
9.144
  1
樹脂系塗装
 41
1.133333333333333
  7
ＭＳ ゴシック
100
AcDbText
  0
ENDSEC
  0
SECTION
  2
OBJECTS
  0
DICTIONARY
  5
C
330
0
100
AcDbDictionary
281
     1
  3
ACAD_DETAILVIEWSTYLE
350
41C
  3
ACAD_GROUP
350
D
  3
ACAD_LAYOUT
350
1A
  3
ACAD_MATERIAL
350
43
  3
ACAD_MLEADERSTYLE
350
6B
  3
ACAD_MLINESTYLE
350
17
  3
ACAD_PLOTSETTINGS
350
19
  3
ACAD_PLOTSTYLENAME
350
E
  3
ACAD_SCALELIST
350
47
  3
ACAD_SECTIONVIEWSTYLE
350
41D
  3
ACAD_TABLESTYLE
350
69
  3
ACAD_VISUALSTYLE
350
2A
  3
ACDB_RECOMPOSE_DATA
350
419
  3
AcDbVariableDictionary
350
3D9
  0
DICTIONARY
  5
3D7
330
8
100
AcDbDictionary
280
     1
281
     1
  3
ACAD_XREC_ROUNDTRIP
360
3D8
  0
DICTIONARY
  5
41C
102
{ACAD_REACTORS
330
C
102
}
330
C
100
AcDbDictionary
281
     1
  0
DICTIONARY
  5
D
102
{ACAD_REACTORS
330
C
102
}
330
C
100
AcDbDictionary
281
     1
  0
DICTIONARY
  5
1A
102
{ACAD_REACTORS
330
C
102
}
330
C
100
AcDbDictionary
281
     1
  3
Layout1
350
1E
  3
Layout2
350
26
  3
Model
350
22
  0
DICTIONARY
  5
43
102
{ACAD_REACTORS
330
C
102
}
330
C
100
AcDbDictionary
281
     1
  3
ByBlock
350
45
  3
ByLayer
350
44
  3
Global
350
46
  0
DICTIONARY
  5
6B
102
{ACAD_REACTORS
330
C
102
}
330
C
100
AcDbDictionary
281
     1
  3
Standard
350
6C
  0
DICTIONARY
  5
17
102
{ACAD_REACTORS
330
C
102
}
330
C
100
AcDbDictionary
281
     1
  3
Standard
350
18
  0
DICTIONARY
  5
19
102
{ACAD_REACTORS
330
C
102
}
330
C
100
AcDbDictionary
281
     1
  0
ACDBDICTIONARYWDFLT
  5
E
102
{ACAD_REACTORS
330
C
102
}
330
C
100
AcDbDictionary
281
     1
  3
Normal
350
F
100
AcDbDictionaryWithDefault
340
F
  0
DICTIONARY
  5
47
102
{ACAD_REACTORS
330
C
102
}
330
C
100
AcDbDictionary
281
     1
  3
A0
350
48
  3
A1
350
49
  3
A2
350
4A
  3
A3
350
4B
  3
A4
350
4C
  3
A5
350
4D
  3
A6
350
4E
  3
A7
350
4F
  3
A8
350
50
  3
A9
350
51
  3
B0
350
52
  3
B1
350
53
  3
B2
350
54
  3
B3
350
55
  3
B4
350
56
  3
B5
350
57
  3
B6
350
58
  3
B7
350
59
  3
B8
350
5A
  3
B9
350
5B
  3
C0
350
5C
  3
C1
350
5D
  3
C2
350
5E
  3
C3
350
5F
  3
C4
350
60
  3
C5
350
61
  3
C6
350
62
  3
C7
350
63
  3
C8
350
64
  3
C9
350
65
  3
D0
350
66
  3
D1
350
67
  3
D2
350
68
  0
DICTIONARY
  5
41D
102
{ACAD_REACTORS
330
C
102
}
330
C
100
AcDbDictionary
281
     1
  0
DICTIONARY
  5
69
102
{ACAD_REACTORS
330
C
102
}
330
C
100
AcDbDictionary
281
     1
  3
Standard
350
6A
  0
DICTIONARY
  5
2A
102
{ACAD_REACTORS
330
C
102
}
330
C
100
AcDbDictionary
281
     1
  3
2dWireframe
350
2F
  3
Basic
350
32
  3
Brighten
350
36
  3
ColorChange
350
3A
  3
Conceptual
350
34
  3
Dim
350
35
  3
EdgeColorOff
350
3D
  3
Facepattern
350
39
  3
Flat
350
2B
  3
FlatWithEdges
350
2C
  3
Gouraud
350
2D
  3
GouraudWithEdges
350
2E
  3
Hidden
350
31
  3
JitterOff
350
3B
  3
Linepattern
350
38
  3
OverhangOff
350
3C
  3
Realistic
350
33
  3
Shaded
350
42
  3
Shaded with edges
350
41
  3
Shades of Gray
350
3E
  3
Sketchy
350
3F
  3
Thicken
350
37
  3
Wireframe
350
30
  3
X-Ray
350
40
  0
XRECORD
  5
419
102
{ACAD_REACTORS
330
C
102
}
330
C
100
AcDbXrecord
280
     1
 90
        1
330
6A
  0
DICTIONARY
  5
3D9
102
{ACAD_REACTORS
330
C
102
}
330
C
100
AcDbDictionary
281
     1
  3
CANNOSCALE
350
3DA
  3
CENTEREXE
350
41E
  3
CENTERLTYPEFILE
350
41F
  3
CMLEADERSTYLE
350
41B
  3
CTABLESTYLE
350
41A
  3
MSLTSCALE
350
3DB
  3
XCLIPFRAME
350
3DC
  0
XRECORD
  5
3D8
102
{ACAD_REACTORS
330
3D7
102
}
330
3D7
100
AcDbXrecord
280
     1
102
VTR_0.000_0.000_1.000_1.000_VISUALSTYLE
340
2F
102
VTR_0.000_0.000_1.000_1.000_GRIDDISPLAY
 70
     3
102
VTR_0.000_0.000_1.000_1.000_GRIDMAJOR
 70
     5
102
VTR_0.000_0.000_1.000_1.000_DEFAULTLIGHTING
280
     1
102
VTR_0.000_0.000_1.000_1.000_DEFAULTLIGHTINGTYPE
 70
     1
102
VTR_0.000_0.000_1.000_1.000_BRIGHTNESS
141
0.0
102
VTR_0.000_0.000_1.000_1.000_CONTRAST
142
0.0
  0
LAYOUT
  5
1E
102
{ACAD_REACTORS
330
1A
102
}
330
1A
100
AcDbPlotSettings
  1

  2
none_device
  4

  6

 40
0.0
 41
0.0
 42
0.0
 43
0.0
 44
0.0
 45
0.0
 46
0.0
 47
0.0
 48
0.0
 49
0.0
140
0.0
141
0.0
142
1.0
143
1.0
 70
   688
 72
     1
 73
     0
 74
     5
  7

 75
    16
 76
     0
 77
     5
 78
   300
147
1.0
148
0.0
149
0.0
100
AcDbLayout
  1
Layout1
 70
     1
 71
     1
 10
0.0
 20
0.0
 11
420.0
 21
297.0
 12
0.0
 22
0.0
 32
0.0
 14
1.000000000000000E+20
 24
1.000000000000000E+20
 34
1.000000000000000E+20
 15
-1.000000000000000E+20
 25
-1.000000000000000E+20
 35
-1.000000000000000E+20
146
0.0
 13
0.0
 23
0.0
 33
0.0
 16
1.0
 26
0.0
 36
0.0
 17
0.0
 27
1.0
 37
0.0
 76
     0
330
1B
  0
LAYOUT
  5
26
102
{ACAD_REACTORS
330
1A
102
}
330
1A
100
AcDbPlotSettings
  1

  2
none_device
  4

  6

 40
0.0
 41
0.0
 42
0.0
 43
0.0
 44
0.0
 45
0.0
 46
0.0
 47
0.0
 48
0.0
 49
0.0
140
0.0
141
0.0
142
1.0
143
1.0
 70
   688
 72
     1
 73
     0
 74
     5
  7

 75
    16
 76
     0
 77
     5
 78
   300
147
1.0
148
0.0
149
0.0
100
AcDbLayout
  1
Layout2
 70
     1
 71
     2
 10
0.0
 20
0.0
 11
0.0
 21
0.0
 12
0.0
 22
0.0
 32
0.0
 14
0.0
 24
0.0
 34
0.0
 15
0.0
 25
0.0
 35
0.0
146
0.0
 13
0.0
 23
0.0
 33
0.0
 16
1.0
 26
0.0
 36
0.0
 17
0.0
 27
1.0
 37
0.0
 76
     0
330
23
  0
LAYOUT
  5
22
102
{ACAD_REACTORS
330
1A
102
}
330
1A
100
AcDbPlotSettings
  1

  2
none_device
  4
Letter_(8.50_x_11.00_Inches)
  6

 40
6.35
 41
6.35
 42
6.35000508
 43
6.35000508
 44
215.9
 45
279.4
 46
0.0
 47
0.0
 48
0.0
 49
0.0
140
0.0
141
0.0
142
1.0
143
1.0
 70
  1712
 72
     1
 73
     0
 74
     0
  7

 75
     0
 76
     0
 77
     5
 78
   300
147
1.0
148
0.0
149
0.0
100
AcDbLayout
  1
Model
 70
     1
 71
     0
 10
-840.0
 20
-594.0
 11
840.0
 21
594.0
 12
0.0
 22
0.0
 32
0.0
 14
-840.0
 24
-594.0
 34
0.0
 15
840.0
 25
594.0
 35
0.0
146
0.0
 13
0.0
 23
0.0
 33
0.0
 16
1.0
 26
0.0
 36
0.0
 17
0.0
 27
1.0
 37
0.0
 76
     0
330
1F
331
29
  0
MATERIAL
  5
45
102
{ACAD_REACTORS
330
43
102
}
102
{ACAD_XDICTIONARY
360
40F
102
}
330
43
100
AcDbMaterial
  1
ByBlock
  0
MATERIAL
  5
44
102
{ACAD_REACTORS
330
43
102
}
102
{ACAD_XDICTIONARY
360
40D
102
}
330
43
100
AcDbMaterial
  1
ByLayer
  0
MATERIAL
  5
46
102
{ACAD_REACTORS
330
43
102
}
102
{ACAD_XDICTIONARY
360
411
102
}
330
43
100
AcDbMaterial
  1
Global
  0
MLEADERSTYLE
  5
6C
102
{ACAD_REACTORS
330
6B
102
}
102
{ACAD_XDICTIONARY
360
417
102
}
330
6B
100
AcDbMLeaderStyle
170
     2
171
     1
172
     0
 90
        2
 40
0.0
 41
0.0
173
     1
 91
-1056964608
340
14
 92
       -2
290
     1
 42
2.0
291
     1
 43
8.0
  3
Standard
341
0
 44
4.0
300

342
11
174
     1
178
     6
175
     1
176
     0
 93
-1056964608
 45
4.0
292
     0
297
     0
 46
4.0
343
0
 94
-1056964608
 47
1.0
 49
1.0
140
1.0
293
     1
141
0.0
294
     1
177
     0
142
1.0
295
     0
296
     0
143
3.75
1001
ACAD_MLEADERVER
1070
     2
  0
MLINESTYLE
  5
18
102
{ACAD_REACTORS
330
17
102
}
330
17
100
AcDbMlineStyle
  2
Standard
 70
     0
  3

 62
   256
 51
90.0
 52
90.0
 71
     2
 49
0.5
 62
   256
  6
BYLAYER
 49
-0.5
 62
   256
  6
BYLAYER
  0
ACDBPLACEHOLDER
  5
F
102
{ACAD_REACTORS
330
E
102
}
330
E
  0
SCALE
  5
48
102
{ACAD_REACTORS
330
47
102
}
330
47
100
AcDbScale
 70
     0
300
1:1
140
1.0
141
1.0
290
     1
  0
SCALE
  5
49
102
{ACAD_REACTORS
330
47
102
}
330
47
100
AcDbScale
 70
     0
300
1:2
140
1.0
141
2.0
290
     0
  0
SCALE
  5
4A
102
{ACAD_REACTORS
330
47
102
}
330
47
100
AcDbScale
 70
     0
300
1:4
140
1.0
141
4.0
290
     0
  0
SCALE
  5
4B
102
{ACAD_REACTORS
330
47
102
}
330
47
100
AcDbScale
 70
     0
300
1:5
140
1.0
141
5.0
290
     0
  0
SCALE
  5
4C
102
{ACAD_REACTORS
330
47
102
}
330
47
100
AcDbScale
 70
     0
300
1:8
140
1.0
141
8.0
290
     0
  0
SCALE
  5
4D
102
{ACAD_REACTORS
330
47
102
}
330
47
100
AcDbScale
 70
     0
300
1:10
140
1.0
141
10.0
290
     0
  0
SCALE
  5
4E
102
{ACAD_REACTORS
330
47
102
}
330
47
100
AcDbScale
 70
     0
300
1:16
140
1.0
141
16.0
290
     0
  0
SCALE
  5
4F
102
{ACAD_REACTORS
330
47
102
}
330
47
100
AcDbScale
 70
     0
300
1:20
140
1.0
141
20.0
290
     0
  0
SCALE
  5
50
102
{ACAD_REACTORS
330
47
102
}
330
47
100
AcDbScale
 70
     0
300
1:30
140
1.0
141
30.0
290
     0
  0
SCALE
  5
51
102
{ACAD_REACTORS
330
47
102
}
330
47
100
AcDbScale
 70
     0
300
1:40
140
1.0
141
40.0
290
     0
  0
SCALE
  5
52
102
{ACAD_REACTORS
330
47
102
}
330
47
100
AcDbScale
 70
     0
300
1:50
140
1.0
141
50.0
290
     0
  0
SCALE
  5
53
102
{ACAD_REACTORS
330
47
102
}
330
47
100
AcDbScale
 70
     0
300
1:100
140
1.0
141
100.0
290
     0
  0
SCALE
  5
54
102
{ACAD_REACTORS
330
47
102
}
330
47
100
AcDbScale
 70
     0
300
2:1
140
2.0
141
1.0
290
     0
  0
SCALE
  5
55
102
{ACAD_REACTORS
330
47
102
}
330
47
100
AcDbScale
 70
     0
300
4:1
140
4.0
141
1.0
290
     0
  0
SCALE
  5
56
102
{ACAD_REACTORS
330
47
102
}
330
47
100
AcDbScale
 70
     0
300
8:1
140
8.0
141
1.0
290
     0
  0
SCALE
  5
57
102
{ACAD_REACTORS
330
47
102
}
330
47
100
AcDbScale
 70
     0
300
10:1
140
10.0
141
1.0
290
     0
  0
SCALE
  5
58
102
{ACAD_REACTORS
330
47
102
}
330
47
100
AcDbScale
 70
     0
300
100:1
140
100.0
141
1.0
290
     0
  0
SCALE
  5
59
102
{ACAD_REACTORS
330
47
102
}
330
47
100
AcDbScale
 70
     0
300
1/128" = 1'-0"
140
0.0078125
141
12.0
290
     0
  0
SCALE
  5
5A
102
{ACAD_REACTORS
330
47
102
}
330
47
100
AcDbScale
 70
     0
300
1/64" = 1'-0"
140
0.015625
141
12.0
290
     0
  0
SCALE
  5
5B
102
{ACAD_REACTORS
330
47
102
}
330
47
100
AcDbScale
 70
     0
300
1/32" = 1'-0"
140
0.03125
141
12.0
290
     0
  0
SCALE
  5
5C
102
{ACAD_REACTORS
330
47
102
}
330
47
100
AcDbScale
 70
     0
300
1/16" = 1'-0"
140
0.0625
141
12.0
290
     0
  0
SCALE
  5
5D
102
{ACAD_REACTORS
330
47
102
}
330
47
100
AcDbScale
 70
     0
300
3/32" = 1'-0"
140
0.09375
141
12.0
290
     0
  0
SCALE
  5
5E
102
{ACAD_REACTORS
330
47
102
}
330
47
100
AcDbScale
 70
     0
300
1/8" = 1'-0"
140
0.125
141
12.0
290
     0
  0
SCALE
  5
5F
102
{ACAD_REACTORS
330
47
102
}
330
47
100
AcDbScale
 70
     0
300
3/16" = 1'-0"
140
0.1875
141
12.0
290
     0
  0
SCALE
  5
60
102
{ACAD_REACTORS
330
47
102
}
330
47
100
AcDbScale
 70
     0
300
1/4" = 1'-0"
140
0.25
141
12.0
290
     0
  0
SCALE
  5
61
102
{ACAD_REACTORS
330
47
102
}
330
47
100
AcDbScale
 70
     0
300
3/8" = 1'-0"
140
0.375
141
12.0
290
     0
  0
SCALE
  5
62
102
{ACAD_REACTORS
330
47
102
}
330
47
100
AcDbScale
 70
     0
300
1/2" = 1'-0"
140
0.5
141
12.0
290
     0
  0
SCALE
  5
63
102
{ACAD_REACTORS
330
47
102
}
330
47
100
AcDbScale
 70
     0
300
3/4" = 1'-0"
140
0.75
141
12.0
290
     0
  0
SCALE
  5
64
102
{ACAD_REACTORS
330
47
102
}
330
47
100
AcDbScale
 70
     0
300
1" = 1'-0"
140
1.0
141
12.0
290
     0
  0
SCALE
  5
65
102
{ACAD_REACTORS
330
47
102
}
330
47
100
AcDbScale
 70
     0
300
1-1/2" = 1'-0"
140
1.5
141
12.0
290
     0
  0
SCALE
  5
66
102
{ACAD_REACTORS
330
47
102
}
330
47
100
AcDbScale
 70
     0
300
3" = 1'-0"
140
3.0
141
12.0
290
     0
  0
SCALE
  5
67
102
{ACAD_REACTORS
330
47
102
}
330
47
100
AcDbScale
 70
     0
300
6" = 1'-0"
140
6.0
141
12.0
290
     0
  0
SCALE
  5
68
102
{ACAD_REACTORS
330
47
102
}
330
47
100
AcDbScale
 70
     0
300
1'-0" = 1'-0"
140
12.0
141
12.0
290
     0
  0
TABLESTYLE
  5
6A
102
{ACAD_REACTORS
330
69
102
}
102
{ACAD_XDICTIONARY
360
413
102
}
330
69
100
AcDbTableStyle
  3
Standard
 70
     0
 71
     0
 40
0.06
 41
0.06
280
     0
281
     0
  7
Standard
140
4.5
170
     2
 62
     0
 63
   257
283
     0
274
    -2
284
     1
 64
     0
275
    -2
285
     1
 65
     0
276
    -2
286
     1
 66
     0
277
    -2
287
     1
 67
     0
278
    -2
288
     1
 68
     0
279
    -2
289
     1
 69
     0
  7
Standard
140
6.0
170
     5
 62
     0
 63
   257
283
     0
274
    -2
284
     1
 64
     0
275
    -2
285
     1
 65
     0
276
    -2
286
     1
 66
     0
277
    -2
287
     1
 67
     0
278
    -2
288
     1
 68
     0
279
    -2
289
     1
 69
     0
  7
Standard
140
4.5
170
     5
 62
     0
 63
   257
283
     0
274
    -2
284
     1
 64
     0
275
    -2
285
     1
 65
     0
276
    -2
286
     1
 66
     0
277
    -2
287
     1
 67
     0
278
    -2
288
     1
 68
     0
279
    -2
289
     1
 69
     0
  0
VISUALSTYLE
  5
2F
102
{ACAD_REACTORS
330
2A
102
}
102
{ACAD_XDICTIONARY
360
3E5
102
}
330
2A
100
AcDbVisualStyle
  2
2dWireframe
 70
     4
 71
     0
 72
     2
 73
     0
 90
        0
 40
0.6
 41
30.0
 62
     5
 63
     7
421
 16777215
 74
     1
 91
        4
 64
     7
 65
   257
 75
     1
175
     1
 42
1.0
 92
        0
 66
   257
 43
1.0
 76
     1
 77
     6
 78
     2
 67
     7
 79
     5
170
     0
171
     0
290
     0
174
     0
 93
        1
 44
0.0
173
     0
291
     0
 45
0.0
1001
ACAD
1000
AcDbSavedByObjectVersion
1070
     0
  0
VISUALSTYLE
  5
32
102
{ACAD_REACTORS
330
2A
102
}
102
{ACAD_XDICTIONARY
360
3EB
102
}
330
2A
100
AcDbVisualStyle
  2
Basic
 70
     7
 71
     1
 72
     0
 73
     1
 90
        0
 40
0.6
 41
30.0
 62
     5
 63
     7
421
 16777215
 74
     0
 91
        4
 64
     7
 65
   257
 75
     1
175
     1
 42
1.0
 92
        8
 66
     7
 43
1.0
 76
     1
 77
     6
 78
     2
 67
     7
 79
     5
170
     0
171
     0
290
     0
174
     0
 93
        1
 44
0.0
173
     0
291
     1
 45
0.0
1001
ACAD
1000
AcDbSavedByObjectVersion
1070
     0
  0
VISUALSTYLE
  5
36
102
{ACAD_REACTORS
330
2A
102
}
102
{ACAD_XDICTIONARY
360
3F3
102
}
330
2A
100
AcDbVisualStyle
  2
Brighten
 70
    12
 71
     2
 72
     2
 73
     0
 90
        0
 40
0.6
 41
30.0
 62
     5
 63
     7
421
 16777215
 74
     1
 91
        4
 64
     7
 65
   257
 75
     1
175
     1
 42
1.0
 92
        8
 66
     7
 43
1.0
 76
     1
 77
     6
 78
     2
 67
     7
 79
     5
170
     0
171
     0
290
     0
174
     0
 93
        1
 44
50.0
173
     0
291
     1
 45
0.0
1001
ACAD
1000
AcDbSavedByObjectVersion
1070
     0
  0
VISUALSTYLE
  5
3A
102
{ACAD_REACTORS
330
2A
102
}
102
{ACAD_XDICTIONARY
360
3FB
102
}
330
2A
100
AcDbVisualStyle
  2
ColorChange
 70
    16
 71
     2
 72
     2
 73
     3
 90
        0
 40
0.6
 41
30.0
 62
     5
 63
     8
421
  8421504
 74
     1
 91
        4
 64
     7
 65
   257
 75
     1
175
     1
 42
1.0
 92
        8
 66
     8
424
  8421504
 43
1.0
 76
     1
 77
     6
 78
     2
 67
     7
 79
     5
170
     0
171
     0
290
     0
174
     0
 93
        1
 44
0.0
173
     0
291
     1
 45
0.0
1001
ACAD
1000
AcDbSavedByObjectVersion
1070
     0
  0
VISUALSTYLE
  5
34
102
{ACAD_REACTORS
330
2A
102
}
102
{ACAD_XDICTIONARY
360
3EF
102
}
330
2A
100
AcDbVisualStyle
  2
Conceptual
 70
     9
 71
     3
 72
     2
 73
     0
 90
        0
 40
0.6
 41
30.0
 62
     5
 63
     7
421
 16777215
 74
     2
 91
        2
 64
     7
 65
   257
 75
     1
175
     1
 42
179.0
 92
        8
 66
     7
 43
1.0
 76
     1
 77
     6
 78
     2
 67
     7
 79
     3
170
     0
171
     0
290
     0
174
     0
 93
        1
 44
0.0
173
     0
291
     0
 45
0.0
1001
ACAD
1000
AcDbSavedByObjectVersion
1070
     0
  0
VISUALSTYLE
  5
35
102
{ACAD_REACTORS
330
2A
102
}
102
{ACAD_XDICTIONARY
360
3F1
102
}
330
2A
100
AcDbVisualStyle
  2
Dim
 70
    11
 71
     2
 72
     2
 73
     0
 90
        0
 40
0.6
 41
30.0
 62
     5
 63
     7
421
 16777215
 74
     1
 91
        4
 64
     7
 65
   257
 75
     1
175
     1
 42
1.0
 92
        8
 66
     7
 43
1.0
 76
     1
 77
     6
 78
     2
 67
     7
 79
     5
170
     0
171
     0
290
     0
174
     0
 93
        1
 44
-50.0
173
     0
291
     1
 45
0.0
1001
ACAD
1000
AcDbSavedByObjectVersion
1070
     0
  0
VISUALSTYLE
  5
3D
102
{ACAD_REACTORS
330
2A
102
}
102
{ACAD_XDICTIONARY
360
401
102
}
330
2A
100
AcDbVisualStyle
  2
EdgeColorOff
 70
    22
 71
     2
 72
     2
 73
     0
 90
        0
 40
0.6
 41
30.0
 62
     5
 63
     7
421
 16777215
 74
     1
 91
        4
 64
     7
 65
   257
 75
     1
175
     1
 42
1.0
 92
        8
 66
     7
 43
1.0
 76
     1
 77
     6
 78
     2
 67
     7
 79
     5
170
     0
171
     0
290
     0
174
     0
 93
        1
 44
0.0
173
     0
291
     1
 45
0.0
1001
ACAD
1000
AcDbSavedByObjectVersion
1070
     0
  0
VISUALSTYLE
  5
39
102
{ACAD_REACTORS
330
2A
102
}
102
{ACAD_XDICTIONARY
360
3F9
102
}
330
2A
100
AcDbVisualStyle
  2
Facepattern
 70
    15
 71
     2
 72
     2
 73
     0
 90
        0
 40
0.6
 41
30.0
 62
     5
 63
     7
421
 16777215
 74
     1
 91
        4
 64
     7
 65
   257
 75
     1
175
     1
 42
1.0
 92
        8
 66
     7
 43
1.0
 76
     1
 77
     6
 78
     2
 67
     7
 79
     5
170
     0
171
     0
290
     0
174
     0
 93
        1
 44
0.0
173
     0
291
     1
 45
0.0
1001
ACAD
1000
AcDbSavedByObjectVersion
1070
     0
  0
VISUALSTYLE
  5
2B
102
{ACAD_REACTORS
330
2A
102
}
102
{ACAD_XDICTIONARY
360
3DD
102
}
330
2A
100
AcDbVisualStyle
  2
Flat
 70
     0
 71
     2
 72
     1
 73
     1
 90
        2
 40
0.6
 41
30.0
 62
     5
 63
     7
421
 16777215
 74
     0
 91
        0
 64
     7
 65
   257
 75
     1
175
     1
 42
1.0
 92
        8
 66
     7
 43
1.0
 76
     1
 77
     6
 78
     2
 67
     7
 79
     5
170
     0
171
     0
290
     0
174
     0
 93
       13
 44
0.0
173
     0
291
     1
 45
0.0
1001
ACAD
1000
AcDbSavedByObjectVersion
1070
     0
  0
VISUALSTYLE
  5
2C
102
{ACAD_REACTORS
330
2A
102
}
102
{ACAD_XDICTIONARY
360
3DF
102
}
330
2A
100
AcDbVisualStyle
  2
FlatWithEdges
 70
     1
 71
     2
 72
     1
 73
     1
 90
        2
 40
0.6
 41
30.0
 62
     5
 63
     7
421
 16777215
 74
     1
 91
        0
 64
     7
 65
   257
 75
     1
175
     1
 42
1.0
 92
        0
 66
   257
 43
1.0
 76
     1
 77
     6
 78
     2
 67
     7
 79
     5
170
     0
171
     0
290
     0
174
     0
 93
       13
 44
0.0
173
     0
291
     1
 45
0.0
1001
ACAD
1000
AcDbSavedByObjectVersion
1070
     0
  0
VISUALSTYLE
  5
2D
102
{ACAD_REACTORS
330
2A
102
}
102
{ACAD_XDICTIONARY
360
3E1
102
}
330
2A
100
AcDbVisualStyle
  2
Gouraud
 70
     2
 71
     2
 72
     2
 73
     1
 90
        2
 40
0.6
 41
30.0
 62
     5
 63
     7
421
 16777215
 74
     0
 91
        0
 64
     7
 65
   257
 75
     1
175
     1
 42
1.0
 92
        0
 66
     7
 43
1.0
 76
     1
 77
     6
 78
     2
 67
     7
 79
     5
170
     0
171
     0
290
     0
174
     0
 93
       13
 44
0.0
173
     0
291
     1
 45
0.0
1001
ACAD
1000
AcDbSavedByObjectVersion
1070
     0
  0
VISUALSTYLE
  5
2E
102
{ACAD_REACTORS
330
2A
102
}
102
{ACAD_XDICTIONARY
360
3E3
102
}
330
2A
100
AcDbVisualStyle
  2
GouraudWithEdges
 70
     3
 71
     2
 72
     2
 73
     1
 90
        2
 40
0.6
 41
30.0
 62
     5
 63
     7
421
 16777215
 74
     1
 91
        0
 64
     7
 65
   257
 75
     1
175
     1
 42
1.0
 92
        0
 66
   257
 43
1.0
 76
     1
 77
     6
 78
     2
 67
     7
 79
     5
170
     0
171
     0
290
     0
174
     0
 93
       13
 44
0.0
173
     0
291
     1
 45
0.0
1001
ACAD
1000
AcDbSavedByObjectVersion
1070
     0
  0
VISUALSTYLE
  5
31
102
{ACAD_REACTORS
330
2A
102
}
102
{ACAD_XDICTIONARY
360
3E9
102
}
330
2A
100
AcDbVisualStyle
  2
Hidden
 70
     6
 71
     1
 72
     2
 73
     2
 90
        0
 40
0.6
 41
30.0
 62
     5
 63
     7
421
 16777215
 74
     2
 91
        2
 64
     7
 65
   257
 75
     2
175
     1
 42
40.0
 92
        0
 66
   257
 43
1.0
 76
     1
 77
     6
 78
     2
 67
     7
 79
     3
170
     0
171
     0
290
     0
174
     0
 93
        1
 44
0.0
173
     0
291
     0
 45
0.0
1001
ACAD
1000
AcDbSavedByObjectVersion
1070
     0
  0
VISUALSTYLE
  5
3B
102
{ACAD_REACTORS
330
2A
102
}
102
{ACAD_XDICTIONARY
360
3FD
102
}
330
2A
100
AcDbVisualStyle
  2
JitterOff
 70
    20
 71
     2
 72
     2
 73
     0
 90
        0
 40
0.6
 41
30.0
 62
     5
 63
     7
421
 16777215
 74
     1
 91
        4
 64
     7
 65
   257
 75
     1
175
     1
 42
1.0
 92
       10
 66
     7
 43
1.0
 76
     1
 77
     6
 78
     2
 67
     7
 79
     5
170
     0
171
     0
290
     0
174
     0
 93
        1
 44
0.0
173
     0
291
     1
 45
0.0
1001
ACAD
1000
AcDbSavedByObjectVersion
1070
     0
  0
VISUALSTYLE
  5
38
102
{ACAD_REACTORS
330
2A
102
}
102
{ACAD_XDICTIONARY
360
3F7
102
}
330
2A
100
AcDbVisualStyle
  2
Linepattern
 70
    14
 71
     2
 72
     2
 73
     0
 90
        0
 40
0.6
 41
30.0
 62
     5
 63
     7
421
 16777215
 74
     1
 91
        4
 64
     7
 65
   257
 75
     7
175
     7
 42
1.0
 92
        8
 66
     7
 43
1.0
 76
     1
 77
     6
 78
     2
 67
     7
 79
     5
170
     0
171
     0
290
     0
174
     0
 93
        1
 44
0.0
173
     0
291
     1
 45
0.0
1001
ACAD
1000
AcDbSavedByObjectVersion
1070
     0
  0
VISUALSTYLE
  5
3C
102
{ACAD_REACTORS
330
2A
102
}
102
{ACAD_XDICTIONARY
360
3FF
102
}
330
2A
100
AcDbVisualStyle
  2
OverhangOff
 70
    21
 71
     2
 72
     2
 73
     0
 90
        0
 40
0.6
 41
30.0
 62
     5
 63
     7
421
 16777215
 74
     1
 91
        4
 64
     7
 65
   257
 75
     1
175
     1
 42
1.0
 92
        9
 66
     7
 43
1.0
 76
     1
 77
     6
 78
     2
 67
     7
 79
     5
170
     0
171
     0
290
     0
174
     0
 93
        1
 44
0.0
173
     0
291
     1
 45
0.0
1001
ACAD
1000
AcDbSavedByObjectVersion
1070
     0
  0
VISUALSTYLE
  5
33
102
{ACAD_REACTORS
330
2A
102
}
102
{ACAD_XDICTIONARY
360
3ED
102
}
330
2A
100
AcDbVisualStyle
  2
Realistic
 70
     8
 71
     2
 72
     3
 73
     0
 90
        2
 40
0.6
 41
30.0
 62
     5
 63
     7
421
 16777215
 74
     0
 91
        0
 64
     7
 65
   257
 75
     1
175
     1
 42
1.0
 92
        8
 66
   257
 43
1.0
 76
     1
 77
     6
 78
     2
 67
     7
 79
     3
170
     0
171
     0
290
     0
174
     0
 93
       13
 44
0.0
173
     0
291
     0
 45
0.0
1001
ACAD
1000
AcDbSavedByObjectVersion
1070
     0
  0
VISUALSTYLE
  5
42
102
{ACAD_REACTORS
330
2A
102
}
102
{ACAD_XDICTIONARY
360
40B
102
}
330
2A
100
AcDbVisualStyle
  2
Shaded
 70
    27
 71
     2
 72
     2
 73
     1
 90
        2
 40
0.6
 41
30.0
 62
     5
 63
     7
421
 16777215
 74
     0
 91
        4
 64
     7
 65
   257
 75
     1
175
     1
 42
1.0
 92
        8
 66
   257
 43
1.0
 76
     1
 77
     6
 78
     2
 67
     8
425
  7895160
 79
     3
170
     0
171
     0
290
     0
174
     0
 93
        5
 44
0.0
173
     0
291
     0
 45
0.0
1001
ACAD
1000
AcDbSavedByObjectVersion
1070
     0
  0
VISUALSTYLE
  5
41
102
{ACAD_REACTORS
330
2A
102
}
102
{ACAD_XDICTIONARY
360
409
102
}
330
2A
100
AcDbVisualStyle
  2
Shaded with edges
 70
    26
 71
     2
 72
     2
 73
     1
 90
        2
 40
0.6
 41
30.0
 62
     5
 63
     7
421
 16777215
 74
     1
 91
       10
 64
     7
 65
   257
 75
     2
175
     1
 42
1.0
 92
        8
 66
   257
 43
1.0
 76
     1
 77
     6
 78
     2
 67
     7
 79
     3
170
     0
171
     0
290
     0
174
     0
 93
        5
 44
0.0
173
     0
291
     0
 45
0.0
1001
ACAD
1000
AcDbSavedByObjectVersion
1070
     0
  0
VISUALSTYLE
  5
3E
102
{ACAD_REACTORS
330
2A
102
}
102
{ACAD_XDICTIONARY
360
403
102
}
330
2A
100
AcDbVisualStyle
  2
Shades of Gray
 70
    23
 71
     2
 72
     2
 73
     3
 90
        0
 40
0.6
 41
30.0
 62
     5
 63
     7
421
 16777215
 74
     2
 91
        2
 64
     7
 65
     7
 75
     1
175
     1
 42
40.0
 92
        8
 66
     7
 43
1.0
 76
     1
 77
     6
 78
     2
 67
     7
 79
     3
170
     0
171
     0
290
     0
174
     0
 93
        1
 44
0.0
173
     0
291
     0
 45
0.0
1001
ACAD
1000
AcDbSavedByObjectVersion
1070
     0
  0
VISUALSTYLE
  5
3F
102
{ACAD_REACTORS
330
2A
102
}
102
{ACAD_XDICTIONARY
360
405
102
}
330
2A
100
AcDbVisualStyle
  2
Sketchy
 70
    24
 71
     1
 72
     2
 73
     2
 90
        0
 40
0.6
 41
30.0
 62
     5
 63
     7
421
 16777215
 74
     2
 91
        2
 64
     7
 65
     7
 75
     1
175
     1
 42
40.0
 92
       11
 66
     7
 43
1.0
 76
     1
 77
     6
 78
     2
 67
     7
 79
     6
170
     0
171
     0
290
     0
174
     0
 93
        1
 44
0.0
173
     0
291
     0
 45
0.0
1001
ACAD
1000
AcDbSavedByObjectVersion
1070
     0
  0
VISUALSTYLE
  5
37
102
{ACAD_REACTORS
330
2A
102
}
102
{ACAD_XDICTIONARY
360
3F5
102
}
330
2A
100
AcDbVisualStyle
  2
Thicken
 70
    13
 71
     2
 72
     2
 73
     0
 90
        0
 40
0.6
 41
30.0
 62
     5
 63
     7
421
 16777215
 74
     1
 91
        4
 64
     7
 65
   257
 75
     1
175
     1
 42
1.0
 92
       12
 66
     7
 43
1.0
 76
     1
 77
     6
 78
     2
 67
     7
 79
     5
170
     0
171
     0
290
     0
174
     0
 93
        1
 44
0.0
173
     0
291
     1
 45
0.0
1001
ACAD
1000
AcDbSavedByObjectVersion
1070
     0
  0
VISUALSTYLE
  5
30
102
{ACAD_REACTORS
330
2A
102
}
102
{ACAD_XDICTIONARY
360
3E7
102
}
330
2A
100
AcDbVisualStyle
  2
Wireframe
 70
     5
 71
     0
 72
     2
 73
     0
 90
        0
 40
0.6
 41
30.0
 62
     5
 63
     7
421
 16777215
 74
     1
 91
        4
 64
     7
 65
   257
 75
     1
175
     1
 42
1.0
 92
        0
 66
   257
 43
1.0
 76
     1
 77
     6
 78
     2
 67
     7
 79
     3
170
     0
171
     0
290
     0
174
     0
 93
        1
 44
0.0
173
     0
291
     0
 45
0.0
1001
ACAD
1000
AcDbSavedByObjectVersion
1070
     0
  0
VISUALSTYLE
  5
40
102
{ACAD_REACTORS
330
2A
102
}
102
{ACAD_XDICTIONARY
360
407
102
}
330
2A
100
AcDbVisualStyle
  2
X-Ray
 70
    25
 71
     2
 72
     2
 73
     1
 90
        1
 40
0.5
 41
30.0
 62
     5
 63
     7
421
 16777215
 74
     1
 91
        0
 64
     7
 65
   257
 75
     1
175
     1
 42
1.0
 92
        8
 66
     7
 43
1.0
 76
     1
 77
     6
 78
     2
 67
     7
 79
     3
170
     0
171
     0
290
     0
174
     0
 93
       13
 44
0.0
173
     0
291
     0
 45
0.0
1001
ACAD
1000
AcDbSavedByObjectVersion
1070
     0
  0
DICTIONARYVAR
  5
3DA
102
{ACAD_REACTORS
330
3D9
102
}
330
3D9
100
DictionaryVariables
280
     0
  1
1:1
  0
DICTIONARYVAR
  5
41E
102
{ACAD_REACTORS
330
3D9
102
}
330
3D9
100
DictionaryVariables
280
     0
  1
3.500000
  0
DICTIONARYVAR
  5
41F
102
{ACAD_REACTORS
330
3D9
102
}
330
3D9
100
DictionaryVariables
280
     0
  1
acadiso.lin
  0
DICTIONARYVAR
  5
41B
102
{ACAD_REACTORS
330
3D9
102
}
330
3D9
100
DictionaryVariables
280
     0
  1
Standard
  0
DICTIONARYVAR
  5
41A
102
{ACAD_REACTORS
330
3D9
102
}
330
3D9
100
DictionaryVariables
280
     0
  1
Standard
  0
DICTIONARYVAR
  5
3DB
102
{ACAD_REACTORS
330
3D9
102
}
330
3D9
100
DictionaryVariables
280
     0
  1
1
  0
DICTIONARYVAR
  5
3DC
102
{ACAD_REACTORS
330
3D9
102
}
330
3D9
100
DictionaryVariables
280
     0
  1
2
  0
DICTIONARY
  5
40F
330
45
100
AcDbDictionary
280
     1
281
     1
  3
ACAD_XREC_ROUNDTRIP
360
410
  0
DICTIONARY
  5
40D
330
44
100
AcDbDictionary
280
     1
281
     1
  3
ACAD_XREC_ROUNDTRIP
360
40E
  0
DICTIONARY
  5
411
330
46
100
AcDbDictionary
280
     1
281
     1
  3
ACAD_XREC_ROUNDTRIP
360
412
  0
DICTIONARY
  5
417
330
6C
100
AcDbDictionary
280
     1
281
     1
  3
ACAD_XREC_ROUNDTRIP
360
418
  0
DICTIONARY
  5
413
330
6A
100
AcDbDictionary
280
     1
281
     1
  3
ACAD_ROUNDTRIP_2008_TABLESTYLE_CELLSTYLEMAP
360
415
  3
ACAD_XREC_ROUNDTRIP
360
414
  0
DICTIONARY
  5
3E5
330
2F
100
AcDbDictionary
280
     1
281
     1
  3
ACAD_XREC_ROUNDTRIP
360
3E6
  0
DICTIONARY
  5
3EB
330
32
100
AcDbDictionary
280
     1
281
     1
  3
ACAD_XREC_ROUNDTRIP
360
3EC
  0
DICTIONARY
  5
3F3
330
36
100
AcDbDictionary
280
     1
281
     1
  3
ACAD_XREC_ROUNDTRIP
360
3F4
  0
DICTIONARY
  5
3FB
330
3A
100
AcDbDictionary
280
     1
281
     1
  3
ACAD_XREC_ROUNDTRIP
360
3FC
  0
DICTIONARY
  5
3EF
330
34
100
AcDbDictionary
280
     1
281
     1
  3
ACAD_XREC_ROUNDTRIP
360
3F0
  0
DICTIONARY
  5
3F1
330
35
100
AcDbDictionary
280
     1
281
     1
  3
ACAD_XREC_ROUNDTRIP
360
3F2
  0
DICTIONARY
  5
401
330
3D
100
AcDbDictionary
280
     1
281
     1
  3
ACAD_XREC_ROUNDTRIP
360
402
  0
DICTIONARY
  5
3F9
330
39
100
AcDbDictionary
280
     1
281
     1
  3
ACAD_XREC_ROUNDTRIP
360
3FA
  0
DICTIONARY
  5
3DD
330
2B
100
AcDbDictionary
280
     1
281
     1
  3
ACAD_XREC_ROUNDTRIP
360
3DE
  0
DICTIONARY
  5
3DF
330
2C
100
AcDbDictionary
280
     1
281
     1
  3
ACAD_XREC_ROUNDTRIP
360
3E0
  0
DICTIONARY
  5
3E1
330
2D
100
AcDbDictionary
280
     1
281
     1
  3
ACAD_XREC_ROUNDTRIP
360
3E2
  0
DICTIONARY
  5
3E3
330
2E
100
AcDbDictionary
280
     1
281
     1
  3
ACAD_XREC_ROUNDTRIP
360
3E4
  0
DICTIONARY
  5
3E9
330
31
100
AcDbDictionary
280
     1
281
     1
  3
ACAD_XREC_ROUNDTRIP
360
3EA
  0
DICTIONARY
  5
3FD
330
3B
100
AcDbDictionary
280
     1
281
     1
  3
ACAD_XREC_ROUNDTRIP
360
3FE
  0
DICTIONARY
  5
3F7
330
38
100
AcDbDictionary
280
     1
281
     1
  3
ACAD_XREC_ROUNDTRIP
360
3F8
  0
DICTIONARY
  5
3FF
330
3C
100
AcDbDictionary
280
     1
281
     1
  3
ACAD_XREC_ROUNDTRIP
360
400
  0
DICTIONARY
  5
3ED
330
33
100
AcDbDictionary
280
     1
281
     1
  3
ACAD_XREC_ROUNDTRIP
360
3EE
  0
DICTIONARY
  5
40B
330
42
100
AcDbDictionary
280
     1
281
     1
  3
ACAD_XREC_ROUNDTRIP
360
40C
  0
DICTIONARY
  5
409
330
41
100
AcDbDictionary
280
     1
281
     1
  3
ACAD_XREC_ROUNDTRIP
360
40A
  0
DICTIONARY
  5
403
330
3E
100
AcDbDictionary
280
     1
281
     1
  3
ACAD_XREC_ROUNDTRIP
360
404
  0
DICTIONARY
  5
405
330
3F
100
AcDbDictionary
280
     1
281
     1
  3
ACAD_XREC_ROUNDTRIP
360
406
  0
DICTIONARY
  5
3F5
330
37
100
AcDbDictionary
280
     1
281
     1
  3
ACAD_XREC_ROUNDTRIP
360
3F6
  0
DICTIONARY
  5
3E7
330
30
100
AcDbDictionary
280
     1
281
     1
  3
ACAD_XREC_ROUNDTRIP
360
3E8
  0
DICTIONARY
  5
407
330
40
100
AcDbDictionary
280
     1
281
     1
  3
ACAD_XREC_ROUNDTRIP
360
408
  0
XRECORD
  5
410
102
{ACAD_REACTORS
330
40F
102
}
330
40F
100
AcDbXrecord
280
     1
102
MATERIAL
148
0.0
149
0.0
149
0.0
 93
        0
 94
      127
282
     0
 72
     1
 77
     1
171
     1
175
     1
179
     1
273
     0
  0
XRECORD
  5
40E
102
{ACAD_REACTORS
330
40D
102
}
330
40D
100
AcDbXrecord
280
     1
102
MATERIAL
148
0.0
149
0.0
149
0.0
 93
        0
 94
      127
282
     0
 72
     1
 77
     1
171
     1
175
     1
179
     1
273
     0
  0
XRECORD
  5
412
102
{ACAD_REACTORS
330
411
102
}
330
411
100
AcDbXrecord
280
     1
102
MATERIAL
148
0.0
149
0.0
149
0.0
 93
        0
 94
      127
282
     0
 72
     1
 77
     1
171
     1
175
     1
179
     1
273
     0
  0
XRECORD
  5
418
102
{ACAD_REACTORS
330
417
102
}
330
417
100
AcDbXrecord
280
     1
102
ACAD_ROUNDTRIP_2010_MLEADER_STYLE
  0
CELLSTYLEMAP
  5
415
102
{ACAD_REACTORS
330
413
102
}
330
413
100
AcDbCellStyleMap
 90
        3
300
CELLSTYLE
  1
TABLEFORMAT_BEGIN
 90
        5
170
     1
 91
        0
 92
    32768
 62
   257
 93
        1
300
CONTENTFORMAT
  1
CONTENTFORMAT_BEGIN
 90
        0
 91
        0
 92
        4
 93
        0
300

 40
0.0
140
1.0
 94
        5
 62
     0
340
11
144
6.0
309
CONTENTFORMAT_END
171
     1
301
MARGIN
  1
CELLMARGIN_BEGIN
 40
1.5
 40
1.5
 40
1.5
 40
1.5
 40
1.5
 40
1.5
309
CELLMARGIN_END
 94
        6
 95
        1
302
GRIDFORMAT
  1
GRIDFORMAT_BEGIN
 90
        0
 91
        1
 62
     0
 92
       -2
340
14
 93
        0
 40
0.045
309
GRIDFORMAT_END
 95
        2
302
GRIDFORMAT
  1
GRIDFORMAT_BEGIN
 90
        0
 91
        1
 62
     0
 92
       -2
340
14
 93
        0
 40
0.045
309
GRIDFORMAT_END
 95
        4
302
GRIDFORMAT
  1
GRIDFORMAT_BEGIN
 90
        0
 91
        1
 62
     0
 92
       -2
340
14
 93
        0
 40
0.045
309
GRIDFORMAT_END
 95
        8
302
GRIDFORMAT
  1
GRIDFORMAT_BEGIN
 90
        0
 91
        1
 62
     0
 92
       -2
340
14
 93
        0
 40
0.045
309
GRIDFORMAT_END
 95
       16
302
GRIDFORMAT
  1
GRIDFORMAT_BEGIN
 90
        0
 91
        1
 62
     0
 92
       -2
340
14
 93
        0
 40
0.045
309
GRIDFORMAT_END
 95
       32
302
GRIDFORMAT
  1
GRIDFORMAT_BEGIN
 90
        0
 91
        1
 62
     0
 92
       -2
340
14
 93
        0
 40
0.045
309
GRIDFORMAT_END
309
TABLEFORMAT_END
  1
CELLSTYLE_BEGIN
 90
        1
 91
        1
300
_TITLE
309
CELLSTYLE_END
300
CELLSTYLE
  1
TABLEFORMAT_BEGIN
 90
        5
170
     1
 91
        0
 92
        0
 62
   257
 93
        1
300
CONTENTFORMAT
  1
CONTENTFORMAT_BEGIN
 90
        0
 91
        0
 92
        4
 93
        0
300

 40
0.0
140
1.0
 94
        5
 62
     0
340
11
144
4.5
309
CONTENTFORMAT_END
171
     1
301
MARGIN
  1
CELLMARGIN_BEGIN
 40
1.5
 40
1.5
 40
1.5
 40
1.5
 40
1.5
 40
1.5
309
CELLMARGIN_END
 94
        6
 95
        1
302
GRIDFORMAT
  1
GRIDFORMAT_BEGIN
 90
        0
 91
        1
 62
     0
 92
       -2
340
14
 93
        0
 40
0.045
309
GRIDFORMAT_END
 95
        2
302
GRIDFORMAT
  1
GRIDFORMAT_BEGIN
 90
        0
 91
        1
 62
     0
 92
       -2
340
14
 93
        0
 40
0.045
309
GRIDFORMAT_END
 95
        4
302
GRIDFORMAT
  1
GRIDFORMAT_BEGIN
 90
        0
 91
        1
 62
     0
 92
       -2
340
14
 93
        0
 40
0.045
309
GRIDFORMAT_END
 95
        8
302
GRIDFORMAT
  1
GRIDFORMAT_BEGIN
 90
        0
 91
        1
 62
     0
 92
       -2
340
14
 93
        0
 40
0.045
309
GRIDFORMAT_END
 95
       16
302
GRIDFORMAT
  1
GRIDFORMAT_BEGIN
 90
        0
 91
        1
 62
     0
 92
       -2
340
14
 93
        0
 40
0.045
309
GRIDFORMAT_END
 95
       32
302
GRIDFORMAT
  1
GRIDFORMAT_BEGIN
 90
        0
 91
        1
 62
     0
 92
       -2
340
14
 93
        0
 40
0.045
309
GRIDFORMAT_END
309
TABLEFORMAT_END
  1
CELLSTYLE_BEGIN
 90
        2
 91
        1
300
_HEADER
309
CELLSTYLE_END
300
CELLSTYLE
  1
TABLEFORMAT_BEGIN
 90
        5
170
     1
 91
        0
 92
        0
 62
   257
 93
        1
300
CONTENTFORMAT
  1
CONTENTFORMAT_BEGIN
 90
        0
 91
        0
 92
        4
 93
        0
300

 40
0.0
140
1.0
 94
        2
 62
     0
340
11
144
4.5
309
CONTENTFORMAT_END
171
     1
301
MARGIN
  1
CELLMARGIN_BEGIN
 40
1.5
 40
1.5
 40
1.5
 40
1.5
 40
1.5
 40
1.5
309
CELLMARGIN_END
 94
        6
 95
        1
302
GRIDFORMAT
  1
GRIDFORMAT_BEGIN
 90
        0
 91
        1
 62
     0
 92
       -2
340
14
 93
        0
 40
0.045
309
GRIDFORMAT_END
 95
        2
302
GRIDFORMAT
  1
GRIDFORMAT_BEGIN
 90
        0
 91
        1
 62
     0
 92
       -2
340
14
 93
        0
 40
0.045
309
GRIDFORMAT_END
 95
        4
302
GRIDFORMAT
  1
GRIDFORMAT_BEGIN
 90
        0
 91
        1
 62
     0
 92
       -2
340
14
 93
        0
 40
0.045
309
GRIDFORMAT_END
 95
        8
302
GRIDFORMAT
  1
GRIDFORMAT_BEGIN
 90
        0
 91
        1
 62
     0
 92
       -2
340
14
 93
        0
 40
0.045
309
GRIDFORMAT_END
 95
       16
302
GRIDFORMAT
  1
GRIDFORMAT_BEGIN
 90
        0
 91
        1
 62
     0
 92
       -2
340
14
 93
        0
 40
0.045
309
GRIDFORMAT_END
 95
       32
302
GRIDFORMAT
  1
GRIDFORMAT_BEGIN
 90
        0
 91
        1
 62
     0
 92
       -2
340
14
 93
        0
 40
0.045
309
GRIDFORMAT_END
309
TABLEFORMAT_END
  1
CELLSTYLE_BEGIN
 90
        3
 91
        2
300
_DATA
309
CELLSTYLE_END
  0
XRECORD
  5
414
102
{ACAD_REACTORS
330
413
102
}
330
413
100
AcDbXrecord
280
     1
102
ACAD_ROUNDTRIP_PRE2007_TABLESTYLE
 90
        4
 91
        0
  1

 92
        4
 93
        0
  2

 94
        4
 95
        0
  3

  0
XRECORD
  5
3E6
102
{ACAD_REACTORS
330
3E5
102
}
330
3E5
100
AcDbXrecord
280
     1
102
RTVSPropertyOp0
 70
     1
102
RTVSPropertyOp1
 70
     1
102
RTVSPropertyOp2
 70
     1
102
RTVSPropertyOp3
 70
     1
102
RTVSPropertyOp4
 70
     1
102
RTVSPropertyOp5
 70
     1
102
RTVSPropertyOp6
 70
     1
102
RTVSPropertyOp7
 70
     1
102
RTVSPropertyOp8
 70
     1
102
RTVSPropertyOp9
 70
     1
102
RTVSPropertyOp10
 70
     1
102
RTVSPropertyOp11
 70
     1
102
RTVSPropertyOp12
 70
     1
102
RTVSPropertyOp13
 70
     1
102
RTVSPropertyOp14
 70
     1
102
RTVSPropertyOp15
 70
     1
102
RTVSPropertyOp16
 70
     1
102
RTVSPropertyOp17
 70
     1
102
RTVSPropertyOp18
 70
     1
102
RTVSPropertyOp19
 70
     1
102
RTVSPropertyOp20
 70
     1
102
RTVSPropertyOp21
 70
     1
102
RTVSPropertyOp22
 70
     1
102
RTVSPropertyOp23
 70
     1
102
RTVSPropertyOp24
 70
     1
102
RTVSPropertyOp25
 70
     1
102
RTVSPropertyOp26
 70
     1
102
RTVSPropertyOp27
 70
     1
102
RTVSPropertyOp28
 70
     1
102
RTVSPropertyOp29
 70
     1
102
RTVSPropertyOp30
 70
     1
102
RTVSPropertyOp31
 70
     1
102
RTVSPropertyOp32
 70
     1
102
RTVSPropertyOp33
 70
     1
102
RTVSPropertyOp34
 70
     1
102
RTVSPropertyOp35
 70
     1
102
RTVSPropertyOp36
 70
     1
102
RTVSPropertyOp37
 70
     1
102
RTVSPropertyOp38
 70
     1
102
RTVSPropertyOp39
 70
     1
102
RTVSPropertyOp40
 70
     1
102
RTVSPropertyOp41
 70
     1
102
RTVSPropertyOp42
 70
     1
102
RTVSPropertyOp43
 70
     1
102
RTVSPropertyOp44
 70
     1
102
RTVSPropertyOp45
 70
     1
102
RTVSPropertyOp46
 70
     1
102
RTVSPropertyOp47
 70
     1
102
RTVSPropertyOp48
 70
     1
102
RTVSPropertyOp49
 70
     1
102
RTVSPropertyOp50
 70
     1
102
RTVSPropertyOp51
 70
     0
102
RTVSPropertyOp52
 70
     0
102
RTVSPropertyOp53
 70
     1
102
RTVSPropertyOp54
 70
     1
102
RTVSPropertyOp55
 70
     1
102
RTVSPropertyOp56
 70
     1
102
RTVSPropertyOp57
 70
     1
102
RTVSPost2010Prop28
280
     1
102
RTVSPost2010PropOp28
 70
     1
102
RTVSPost2010Prop29
280
     1
102
RTVSPost2010PropOp29
 70
     1
102
RTVSPost2010Prop30
280
     0
102
RTVSPost2010PropOp30
 70
     1
102
RTVSPost2010Prop31
280
     0
102
RTVSPost2010PropOp31
 70
     1
102
RTVSPost2010Prop32
280
     0
102
RTVSPost2010PropOp32
 70
     1
102
RTVSPost2010Prop33
280
     0
102
RTVSPost2010PropOp33
 70
     1
102
RTVSPost2010Prop34
280
     0
102
RTVSPost2010PropOp34
 70
     1
102
RTVSPost2010Prop35
280
     0
102
RTVSPost2010PropOp35
 70
     1
102
RTVSPost2010Prop36
280
     0
102
RTVSPost2010PropOp36
 70
     1
102
RTVSPost2010Prop37
 90
       50
102
RTVSPost2010PropOp37
 70
     1
102
RTVSPost2010Prop38
140
0.0
102
RTVSPost2010PropOp38
 70
     1
102
RTVSPost2010Prop39
140
1.0
102
RTVSPost2010PropOp39
 70
     1
102
RTVSPost2010Prop40
 90
        0
102
RTVSPost2010PropOp40
 70
     1
102
RTVSPost2010Prop41ColorIndex
 90
       18
102
RTVSPost2010Prop41ColorRGB
 90
        0
102
RTVSPost2010PropOp41
 70
     1
102
RTVSPost2010Prop42
 90
       50
102
RTVSPost2010PropOp42
 70
     1
102
RTVSPost2010Prop43
 90
        3
102
RTVSPost2010PropOp43
 70
     1
102
RTVSPost2010Prop44ColorIndex
 90
        5
102
RTVSPost2010Prop44ColorRGB
 90
      255
102
RTVSPost2010PropOp44
 70
     1
102
RTVSPost2010Prop45
280
     0
102
RTVSPost2010PropOp45
 70
     1
102
RTVSPost2010Prop46
 90
       50
102
RTVSPost2010PropOp46
 70
     1
102
RTVSPost2010Prop47
 90
       50
102
RTVSPost2010PropOp47
 70
     1
102
RTVSPost2010Prop48
 90
       50
102
RTVSPost2010PropOp48
 70
     1
102
RTVSPost2010Prop49
280
     0
102
RTVSPost2010PropOp49
 70
     1
102
RTVSPost2010Prop50
 90
       50
102
RTVSPost2010PropOp50
 70
     1
102
RTVSPost2010Prop51ColorIndex
 90
      256
102
RTVSPost2010Prop51ColorRGB
 90
-16777216
102
RTVSPost2010PropOp51
 70
     0
102
RTVSPost2010Prop52
140
1.0
102
RTVSPost2010PropOp52
 70
     0
102
RTVSPost2010Prop53
 90
        2
102
RTVSPost2010PropOp53
 70
     1
102
RTVSPost2010Prop54
  1
strokes_ogs.tif
102
RTVSPost2010PropOp54
 70
     1
102
RTVSPost2010Prop55
280
     0
102
RTVSPost2010PropOp55
 70
     1
102
RTVSPost2010Prop56
140
1.0
102
RTVSPost2010PropOp56
 70
     1
102
RTVSPost2010Prop57
140
1.0
102
RTVSPost2010PropOp57
 70
     1
  0
XRECORD
  5
3EC
102
{ACAD_REACTORS
330
3EB
102
}
330
3EB
100
AcDbXrecord
280
     1
102
RTVSPropertyOp0
 70
     1
102
RTVSPropertyOp1
 70
     1
102
RTVSPropertyOp2
 70
     1
102
RTVSPropertyOp3
 70
     1
102
RTVSPropertyOp4
 70
     1
102
RTVSPropertyOp5
 70
     1
102
RTVSPropertyOp6
 70
     1
102
RTVSPropertyOp7
 70
     1
102
RTVSPropertyOp8
 70
     1
102
RTVSPropertyOp9
 70
     1
102
RTVSPropertyOp10
 70
     1
102
RTVSPropertyOp11
 70
     1
102
RTVSPropertyOp12
 70
     1
102
RTVSPropertyOp13
 70
     1
102
RTVSPropertyOp14
 70
     1
102
RTVSPropertyOp15
 70
     1
102
RTVSPropertyOp16
 70
     1
102
RTVSPropertyOp17
 70
     1
102
RTVSPropertyOp18
 70
     1
102
RTVSPropertyOp19
 70
     1
102
RTVSPropertyOp20
 70
     1
102
RTVSPropertyOp21
 70
     1
102
RTVSPropertyOp22
 70
     1
102
RTVSPropertyOp23
 70
     1
102
RTVSPropertyOp24
 70
     1
102
RTVSPropertyOp25
 70
     1
102
RTVSPropertyOp26
 70
     1
102
RTVSPropertyOp27
 70
     1
102
RTVSPropertyOp28
 70
     1
102
RTVSPropertyOp29
 70
     1
102
RTVSPropertyOp30
 70
     1
102
RTVSPropertyOp31
 70
     1
102
RTVSPropertyOp32
 70
     1
102
RTVSPropertyOp33
 70
     1
102
RTVSPropertyOp34
 70
     1
102
RTVSPropertyOp35
 70
     1
102
RTVSPropertyOp36
 70
     1
102
RTVSPropertyOp37
 70
     1
102
RTVSPropertyOp38
 70
     1
102
RTVSPropertyOp39
 70
     1
102
RTVSPropertyOp40
 70
     1
102
RTVSPropertyOp41
 70
     1
102
RTVSPropertyOp42
 70
     1
102
RTVSPropertyOp43
 70
     1
102
RTVSPropertyOp44
 70
     1
102
RTVSPropertyOp45
 70
     1
102
RTVSPropertyOp46
 70
     1
102
RTVSPropertyOp47
 70
     1
102
RTVSPropertyOp48
 70
     1
102
RTVSPropertyOp49
 70
     1
102
RTVSPropertyOp50
 70
     1
102
RTVSPropertyOp51
 70
     0
102
RTVSPropertyOp52
 70
     0
102
RTVSPropertyOp53
 70
     1
102
RTVSPropertyOp54
 70
     1
102
RTVSPropertyOp55
 70
     1
102
RTVSPropertyOp56
 70
     1
102
RTVSPropertyOp57
 70
     1
102
RTVSPost2010Prop28
280
     0
102
RTVSPost2010PropOp28
 70
     1
102
RTVSPost2010Prop29
280
     1
102
RTVSPost2010PropOp29
 70
     1
102
RTVSPost2010Prop30
280
     1
102
RTVSPost2010PropOp30
 70
     1
102
RTVSPost2010Prop31
280
     0
102
RTVSPost2010PropOp31
 70
     1
102
RTVSPost2010Prop32
280
     0
102
RTVSPost2010PropOp32
 70
     1
102
RTVSPost2010Prop33
280
     0
102
RTVSPost2010PropOp33
 70
     1
102
RTVSPost2010Prop34
280
     0
102
RTVSPost2010PropOp34
 70
     1
102
RTVSPost2010Prop35
280
     0
102
RTVSPost2010PropOp35
 70
     1
102
RTVSPost2010Prop36
280
     0
102
RTVSPost2010PropOp36
 70
     1
102
RTVSPost2010Prop37
 90
       50
102
RTVSPost2010PropOp37
 70
     1
102
RTVSPost2010Prop38
140
0.0
102
RTVSPost2010PropOp38
 70
     1
102
RTVSPost2010Prop39
140
1.0
102
RTVSPost2010PropOp39
 70
     1
102
RTVSPost2010Prop40
 90
        0
102
RTVSPost2010PropOp40
 70
     1
102
RTVSPost2010Prop41ColorIndex
 90
       18
102
RTVSPost2010Prop41ColorRGB
 90
        0
102
RTVSPost2010PropOp41
 70
     1
102
RTVSPost2010Prop42
 90
       50
102
RTVSPost2010PropOp42
 70
     1
102
RTVSPost2010Prop43
 90
        3
102
RTVSPost2010PropOp43
 70
     1
102
RTVSPost2010Prop44ColorIndex
 90
        5
102
RTVSPost2010Prop44ColorRGB
 90
      255
102
RTVSPost2010PropOp44
 70
     1
102
RTVSPost2010Prop45
280
     0
102
RTVSPost2010PropOp45
 70
     1
102
RTVSPost2010Prop46
 90
       50
102
RTVSPost2010PropOp46
 70
     1
102
RTVSPost2010Prop47
 90
       50
102
RTVSPost2010PropOp47
 70
     1
102
RTVSPost2010Prop48
 90
       50
102
RTVSPost2010PropOp48
 70
     1
102
RTVSPost2010Prop49
280
     0
102
RTVSPost2010PropOp49
 70
     1
102
RTVSPost2010Prop50
 90
       50
102
RTVSPost2010PropOp50
 70
     1
102
RTVSPost2010Prop51ColorIndex
 90
      256
102
RTVSPost2010Prop51ColorRGB
 90
-16777216
102
RTVSPost2010PropOp51
 70
     0
102
RTVSPost2010Prop52
140
1.0
102
RTVSPost2010PropOp52
 70
     0
102
RTVSPost2010Prop53
 90
        2
102
RTVSPost2010PropOp53
 70
     1
102
RTVSPost2010Prop54
  1
strokes_ogs.tif
102
RTVSPost2010PropOp54
 70
     1
102
RTVSPost2010Prop55
280
     0
102
RTVSPost2010PropOp55
 70
     1
102
RTVSPost2010Prop56
140
1.0
102
RTVSPost2010PropOp56
 70
     1
102
RTVSPost2010Prop57
140
1.0
102
RTVSPost2010PropOp57
 70
     1
  0
XRECORD
  5
3F4
102
{ACAD_REACTORS
330
3F3
102
}
330
3F3
100
AcDbXrecord
280
     1
102
RTVSPropertyOp0
 70
     1
102
RTVSPropertyOp1
 70
     1
102
RTVSPropertyOp2
 70
     1
102
RTVSPropertyOp3
 70
     1
102
RTVSPropertyOp4
 70
     1
102
RTVSPropertyOp5
 70
     1
102
RTVSPropertyOp6
 70
     1
102
RTVSPropertyOp7
 70
     1
102
RTVSPropertyOp8
 70
     1
102
RTVSPropertyOp9
 70
     1
102
RTVSPropertyOp10
 70
     1
102
RTVSPropertyOp11
 70
     1
102
RTVSPropertyOp12
 70
     1
102
RTVSPropertyOp13
 70
     1
102
RTVSPropertyOp14
 70
     1
102
RTVSPropertyOp15
 70
     1
102
RTVSPropertyOp16
 70
     1
102
RTVSPropertyOp17
 70
     1
102
RTVSPropertyOp18
 70
     1
102
RTVSPropertyOp19
 70
     1
102
RTVSPropertyOp20
 70
     1
102
RTVSPropertyOp21
 70
     1
102
RTVSPropertyOp22
 70
     1
102
RTVSPropertyOp23
 70
     1
102
RTVSPropertyOp24
 70
     1
102
RTVSPropertyOp25
 70
     1
102
RTVSPropertyOp26
 70
     1
102
RTVSPropertyOp27
 70
     1
102
RTVSPropertyOp28
 70
     1
102
RTVSPropertyOp29
 70
     1
102
RTVSPropertyOp30
 70
     1
102
RTVSPropertyOp31
 70
     1
102
RTVSPropertyOp32
 70
     1
102
RTVSPropertyOp33
 70
     1
102
RTVSPropertyOp34
 70
     1
102
RTVSPropertyOp35
 70
     1
102
RTVSPropertyOp36
 70
     1
102
RTVSPropertyOp37
 70
     1
102
RTVSPropertyOp38
 70
     1
102
RTVSPropertyOp39
 70
     1
102
RTVSPropertyOp40
 70
     1
102
RTVSPropertyOp41
 70
     1
102
RTVSPropertyOp42
 70
     1
102
RTVSPropertyOp43
 70
     1
102
RTVSPropertyOp44
 70
     1
102
RTVSPropertyOp45
 70
     1
102
RTVSPropertyOp46
 70
     1
102
RTVSPropertyOp47
 70
     1
102
RTVSPropertyOp48
 70
     1
102
RTVSPropertyOp49
 70
     1
102
RTVSPropertyOp50
 70
     1
102
RTVSPropertyOp51
 70
     0
102
RTVSPropertyOp52
 70
     0
102
RTVSPropertyOp53
 70
     1
102
RTVSPropertyOp54
 70
     1
102
RTVSPropertyOp55
 70
     1
102
RTVSPropertyOp56
 70
     1
102
RTVSPropertyOp57
 70
     1
102
RTVSPost2010Prop28
280
     0
102
RTVSPost2010PropOp28
 70
     1
102
RTVSPost2010Prop29
280
     1
102
RTVSPost2010PropOp29
 70
     1
102
RTVSPost2010Prop30
280
     1
102
RTVSPost2010PropOp30
 70
     1
102
RTVSPost2010Prop31
280
     0
102
RTVSPost2010PropOp31
 70
     1
102
RTVSPost2010Prop32
280
     0
102
RTVSPost2010PropOp32
 70
     1
102
RTVSPost2010Prop33
280
     0
102
RTVSPost2010PropOp33
 70
     1
102
RTVSPost2010Prop34
280
     0
102
RTVSPost2010PropOp34
 70
     1
102
RTVSPost2010Prop35
280
     0
102
RTVSPost2010PropOp35
 70
     1
102
RTVSPost2010Prop36
280
     0
102
RTVSPost2010PropOp36
 70
     1
102
RTVSPost2010Prop37
 90
       50
102
RTVSPost2010PropOp37
 70
     1
102
RTVSPost2010Prop38
140
0.0
102
RTVSPost2010PropOp38
 70
     1
102
RTVSPost2010Prop39
140
1.0
102
RTVSPost2010PropOp39
 70
     1
102
RTVSPost2010Prop40
 90
        0
102
RTVSPost2010PropOp40
 70
     1
102
RTVSPost2010Prop41ColorIndex
 90
       18
102
RTVSPost2010Prop41ColorRGB
 90
        0
102
RTVSPost2010PropOp41
 70
     1
102
RTVSPost2010Prop42
 90
       50
102
RTVSPost2010PropOp42
 70
     1
102
RTVSPost2010Prop43
 90
        3
102
RTVSPost2010PropOp43
 70
     1
102
RTVSPost2010Prop44ColorIndex
 90
        5
102
RTVSPost2010Prop44ColorRGB
 90
      255
102
RTVSPost2010PropOp44
 70
     1
102
RTVSPost2010Prop45
280
     0
102
RTVSPost2010PropOp45
 70
     1
102
RTVSPost2010Prop46
 90
       50
102
RTVSPost2010PropOp46
 70
     1
102
RTVSPost2010Prop47
 90
       50
102
RTVSPost2010PropOp47
 70
     1
102
RTVSPost2010Prop48
 90
       50
102
RTVSPost2010PropOp48
 70
     1
102
RTVSPost2010Prop49
280
     0
102
RTVSPost2010PropOp49
 70
     1
102
RTVSPost2010Prop50
 90
       50
102
RTVSPost2010PropOp50
 70
     1
102
RTVSPost2010Prop51ColorIndex
 90
      256
102
RTVSPost2010Prop51ColorRGB
 90
-16777216
102
RTVSPost2010PropOp51
 70
     0
102
RTVSPost2010Prop52
140
1.0
102
RTVSPost2010PropOp52
 70
     0
102
RTVSPost2010Prop53
 90
        2
102
RTVSPost2010PropOp53
 70
     1
102
RTVSPost2010Prop54
  1
strokes_ogs.tif
102
RTVSPost2010PropOp54
 70
     1
102
RTVSPost2010Prop55
280
     0
102
RTVSPost2010PropOp55
 70
     1
102
RTVSPost2010Prop56
140
1.0
102
RTVSPost2010PropOp56
 70
     1
102
RTVSPost2010Prop57
140
1.0
102
RTVSPost2010PropOp57
 70
     1
  0
XRECORD
  5
3FC
102
{ACAD_REACTORS
330
3FB
102
}
330
3FB
100
AcDbXrecord
280
     1
102
RTVSPropertyOp0
 70
     1
102
RTVSPropertyOp1
 70
     1
102
RTVSPropertyOp2
 70
     1
102
RTVSPropertyOp3
 70
     1
102
RTVSPropertyOp4
 70
     1
102
RTVSPropertyOp5
 70
     1
102
RTVSPropertyOp6
 70
     1
102
RTVSPropertyOp7
 70
     1
102
RTVSPropertyOp8
 70
     1
102
RTVSPropertyOp9
 70
     1
102
RTVSPropertyOp10
 70
     1
102
RTVSPropertyOp11
 70
     1
102
RTVSPropertyOp12
 70
     1
102
RTVSPropertyOp13
 70
     1
102
RTVSPropertyOp14
 70
     1
102
RTVSPropertyOp15
 70
     1
102
RTVSPropertyOp16
 70
     1
102
RTVSPropertyOp17
 70
     1
102
RTVSPropertyOp18
 70
     1
102
RTVSPropertyOp19
 70
     1
102
RTVSPropertyOp20
 70
     1
102
RTVSPropertyOp21
 70
     1
102
RTVSPropertyOp22
 70
     1
102
RTVSPropertyOp23
 70
     1
102
RTVSPropertyOp24
 70
     1
102
RTVSPropertyOp25
 70
     1
102
RTVSPropertyOp26
 70
     1
102
RTVSPropertyOp27
 70
     1
102
RTVSPropertyOp28
 70
     1
102
RTVSPropertyOp29
 70
     1
102
RTVSPropertyOp30
 70
     1
102
RTVSPropertyOp31
 70
     1
102
RTVSPropertyOp32
 70
     1
102
RTVSPropertyOp33
 70
     1
102
RTVSPropertyOp34
 70
     1
102
RTVSPropertyOp35
 70
     1
102
RTVSPropertyOp36
 70
     1
102
RTVSPropertyOp37
 70
     1
102
RTVSPropertyOp38
 70
     1
102
RTVSPropertyOp39
 70
     1
102
RTVSPropertyOp40
 70
     1
102
RTVSPropertyOp41
 70
     1
102
RTVSPropertyOp42
 70
     1
102
RTVSPropertyOp43
 70
     1
102
RTVSPropertyOp44
 70
     1
102
RTVSPropertyOp45
 70
     1
102
RTVSPropertyOp46
 70
     1
102
RTVSPropertyOp47
 70
     1
102
RTVSPropertyOp48
 70
     1
102
RTVSPropertyOp49
 70
     1
102
RTVSPropertyOp50
 70
     1
102
RTVSPropertyOp51
 70
     0
102
RTVSPropertyOp52
 70
     0
102
RTVSPropertyOp53
 70
     1
102
RTVSPropertyOp54
 70
     1
102
RTVSPropertyOp55
 70
     1
102
RTVSPropertyOp56
 70
     1
102
RTVSPropertyOp57
 70
     1
102
RTVSPost2010Prop28
280
     0
102
RTVSPost2010PropOp28
 70
     1
102
RTVSPost2010Prop29
280
     1
102
RTVSPost2010PropOp29
 70
     1
102
RTVSPost2010Prop30
280
     1
102
RTVSPost2010PropOp30
 70
     1
102
RTVSPost2010Prop31
280
     0
102
RTVSPost2010PropOp31
 70
     1
102
RTVSPost2010Prop32
280
     0
102
RTVSPost2010PropOp32
 70
     1
102
RTVSPost2010Prop33
280
     0
102
RTVSPost2010PropOp33
 70
     1
102
RTVSPost2010Prop34
280
     0
102
RTVSPost2010PropOp34
 70
     1
102
RTVSPost2010Prop35
280
     0
102
RTVSPost2010PropOp35
 70
     1
102
RTVSPost2010Prop36
280
     0
102
RTVSPost2010PropOp36
 70
     1
102
RTVSPost2010Prop37
 90
       50
102
RTVSPost2010PropOp37
 70
     1
102
RTVSPost2010Prop38
140
0.0
102
RTVSPost2010PropOp38
 70
     1
102
RTVSPost2010Prop39
140
1.0
102
RTVSPost2010PropOp39
 70
     1
102
RTVSPost2010Prop40
 90
        0
102
RTVSPost2010PropOp40
 70
     1
102
RTVSPost2010Prop41ColorIndex
 90
       18
102
RTVSPost2010Prop41ColorRGB
 90
        0
102
RTVSPost2010PropOp41
 70
     1
102
RTVSPost2010Prop42
 90
       50
102
RTVSPost2010PropOp42
 70
     1
102
RTVSPost2010Prop43
 90
        3
102
RTVSPost2010PropOp43
 70
     1
102
RTVSPost2010Prop44ColorIndex
 90
        5
102
RTVSPost2010Prop44ColorRGB
 90
      255
102
RTVSPost2010PropOp44
 70
     1
102
RTVSPost2010Prop45
280
     0
102
RTVSPost2010PropOp45
 70
     1
102
RTVSPost2010Prop46
 90
       50
102
RTVSPost2010PropOp46
 70
     1
102
RTVSPost2010Prop47
 90
       50
102
RTVSPost2010PropOp47
 70
     1
102
RTVSPost2010Prop48
 90
       50
102
RTVSPost2010PropOp48
 70
     1
102
RTVSPost2010Prop49
280
     0
102
RTVSPost2010PropOp49
 70
     1
102
RTVSPost2010Prop50
 90
       50
102
RTVSPost2010PropOp50
 70
     1
102
RTVSPost2010Prop51ColorIndex
 90
      256
102
RTVSPost2010Prop51ColorRGB
 90
-16777216
102
RTVSPost2010PropOp51
 70
     0
102
RTVSPost2010Prop52
140
1.0
102
RTVSPost2010PropOp52
 70
     0
102
RTVSPost2010Prop53
 90
        2
102
RTVSPost2010PropOp53
 70
     1
102
RTVSPost2010Prop54
  1
strokes_ogs.tif
102
RTVSPost2010PropOp54
 70
     1
102
RTVSPost2010Prop55
280
     0
102
RTVSPost2010PropOp55
 70
     1
102
RTVSPost2010Prop56
140
1.0
102
RTVSPost2010PropOp56
 70
     1
102
RTVSPost2010Prop57
140
1.0
102
RTVSPost2010PropOp57
 70
     1
  0
XRECORD
  5
3F0
102
{ACAD_REACTORS
330
3EF
102
}
330
3EF
100
AcDbXrecord
280
     1
102
RTVSPropertyOp0
 70
     1
102
RTVSPropertyOp1
 70
     1
102
RTVSPropertyOp2
 70
     1
102
RTVSPropertyOp3
 70
     1
102
RTVSPropertyOp4
 70
     1
102
RTVSPropertyOp5
 70
     1
102
RTVSPropertyOp6
 70
     1
102
RTVSPropertyOp7
 70
     1
102
RTVSPropertyOp8
 70
     1
102
RTVSPropertyOp9
 70
     1
102
RTVSPropertyOp10
 70
     1
102
RTVSPropertyOp11
 70
     1
102
RTVSPropertyOp12
 70
     1
102
RTVSPropertyOp13
 70
     1
102
RTVSPropertyOp14
 70
     1
102
RTVSPropertyOp15
 70
     1
102
RTVSPropertyOp16
 70
     1
102
RTVSPropertyOp17
 70
     1
102
RTVSPropertyOp18
 70
     1
102
RTVSPropertyOp19
 70
     1
102
RTVSPropertyOp20
 70
     1
102
RTVSPropertyOp21
 70
     1
102
RTVSPropertyOp22
 70
     1
102
RTVSPropertyOp23
 70
     1
102
RTVSPropertyOp24
 70
     1
102
RTVSPropertyOp25
 70
     1
102
RTVSPropertyOp26
 70
     1
102
RTVSPropertyOp27
 70
     1
102
RTVSPropertyOp28
 70
     1
102
RTVSPropertyOp29
 70
     1
102
RTVSPropertyOp30
 70
     1
102
RTVSPropertyOp31
 70
     1
102
RTVSPropertyOp32
 70
     1
102
RTVSPropertyOp33
 70
     1
102
RTVSPropertyOp34
 70
     1
102
RTVSPropertyOp35
 70
     1
102
RTVSPropertyOp36
 70
     1
102
RTVSPropertyOp37
 70
     1
102
RTVSPropertyOp38
 70
     1
102
RTVSPropertyOp39
 70
     1
102
RTVSPropertyOp40
 70
     1
102
RTVSPropertyOp41
 70
     1
102
RTVSPropertyOp42
 70
     1
102
RTVSPropertyOp43
 70
     1
102
RTVSPropertyOp44
 70
     1
102
RTVSPropertyOp45
 70
     1
102
RTVSPropertyOp46
 70
     1
102
RTVSPropertyOp47
 70
     1
102
RTVSPropertyOp48
 70
     1
102
RTVSPropertyOp49
 70
     1
102
RTVSPropertyOp50
 70
     1
102
RTVSPropertyOp51
 70
     0
102
RTVSPropertyOp52
 70
     0
102
RTVSPropertyOp53
 70
     1
102
RTVSPropertyOp54
 70
     1
102
RTVSPropertyOp55
 70
     1
102
RTVSPropertyOp56
 70
     1
102
RTVSPropertyOp57
 70
     1
102
RTVSPost2010Prop28
280
     0
102
RTVSPost2010PropOp28
 70
     1
102
RTVSPost2010Prop29
280
     1
102
RTVSPost2010PropOp29
 70
     1
102
RTVSPost2010Prop30
280
     1
102
RTVSPost2010PropOp30
 70
     1
102
RTVSPost2010Prop31
280
     0
102
RTVSPost2010PropOp31
 70
     1
102
RTVSPost2010Prop32
280
     0
102
RTVSPost2010PropOp32
 70
     1
102
RTVSPost2010Prop33
280
     0
102
RTVSPost2010PropOp33
 70
     1
102
RTVSPost2010Prop34
280
     0
102
RTVSPost2010PropOp34
 70
     1
102
RTVSPost2010Prop35
280
     0
102
RTVSPost2010PropOp35
 70
     1
102
RTVSPost2010Prop36
280
     0
102
RTVSPost2010PropOp36
 70
     1
102
RTVSPost2010Prop37
 90
       50
102
RTVSPost2010PropOp37
 70
     1
102
RTVSPost2010Prop38
140
0.0
102
RTVSPost2010PropOp38
 70
     1
102
RTVSPost2010Prop39
140
1.0
102
RTVSPost2010PropOp39
 70
     1
102
RTVSPost2010Prop40
 90
        0
102
RTVSPost2010PropOp40
 70
     1
102
RTVSPost2010Prop41ColorIndex
 90
       18
102
RTVSPost2010Prop41ColorRGB
 90
        0
102
RTVSPost2010PropOp41
 70
     1
102
RTVSPost2010Prop42
 90
       50
102
RTVSPost2010PropOp42
 70
     1
102
RTVSPost2010Prop43
 90
        3
102
RTVSPost2010PropOp43
 70
     1
102
RTVSPost2010Prop44ColorIndex
 90
        5
102
RTVSPost2010Prop44ColorRGB
 90
      255
102
RTVSPost2010PropOp44
 70
     1
102
RTVSPost2010Prop45
280
     0
102
RTVSPost2010PropOp45
 70
     1
102
RTVSPost2010Prop46
 90
       50
102
RTVSPost2010PropOp46
 70
     1
102
RTVSPost2010Prop47
 90
       50
102
RTVSPost2010PropOp47
 70
     1
102
RTVSPost2010Prop48
 90
       50
102
RTVSPost2010PropOp48
 70
     1
102
RTVSPost2010Prop49
280
     0
102
RTVSPost2010PropOp49
 70
     1
102
RTVSPost2010Prop50
 90
       50
102
RTVSPost2010PropOp50
 70
     1
102
RTVSPost2010Prop51ColorIndex
 90
      256
102
RTVSPost2010Prop51ColorRGB
 90
-16777216
102
RTVSPost2010PropOp51
 70
     0
102
RTVSPost2010Prop52
140
1.0
102
RTVSPost2010PropOp52
 70
     0
102
RTVSPost2010Prop53
 90
        2
102
RTVSPost2010PropOp53
 70
     1
102
RTVSPost2010Prop54
  1
strokes_ogs.tif
102
RTVSPost2010PropOp54
 70
     1
102
RTVSPost2010Prop55
280
     0
102
RTVSPost2010PropOp55
 70
     1
102
RTVSPost2010Prop56
140
1.0
102
RTVSPost2010PropOp56
 70
     1
102
RTVSPost2010Prop57
140
1.0
102
RTVSPost2010PropOp57
 70
     1
  0
XRECORD
  5
3F2
102
{ACAD_REACTORS
330
3F1
102
}
330
3F1
100
AcDbXrecord
280
     1
102
RTVSPropertyOp0
 70
     1
102
RTVSPropertyOp1
 70
     1
102
RTVSPropertyOp2
 70
     1
102
RTVSPropertyOp3
 70
     1
102
RTVSPropertyOp4
 70
     1
102
RTVSPropertyOp5
 70
     1
102
RTVSPropertyOp6
 70
     1
102
RTVSPropertyOp7
 70
     1
102
RTVSPropertyOp8
 70
     1
102
RTVSPropertyOp9
 70
     1
102
RTVSPropertyOp10
 70
     1
102
RTVSPropertyOp11
 70
     1
102
RTVSPropertyOp12
 70
     1
102
RTVSPropertyOp13
 70
     1
102
RTVSPropertyOp14
 70
     1
102
RTVSPropertyOp15
 70
     1
102
RTVSPropertyOp16
 70
     1
102
RTVSPropertyOp17
 70
     1
102
RTVSPropertyOp18
 70
     1
102
RTVSPropertyOp19
 70
     1
102
RTVSPropertyOp20
 70
     1
102
RTVSPropertyOp21
 70
     1
102
RTVSPropertyOp22
 70
     1
102
RTVSPropertyOp23
 70
     1
102
RTVSPropertyOp24
 70
     1
102
RTVSPropertyOp25
 70
     1
102
RTVSPropertyOp26
 70
     1
102
RTVSPropertyOp27
 70
     1
102
RTVSPropertyOp28
 70
     1
102
RTVSPropertyOp29
 70
     1
102
RTVSPropertyOp30
 70
     1
102
RTVSPropertyOp31
 70
     1
102
RTVSPropertyOp32
 70
     1
102
RTVSPropertyOp33
 70
     1
102
RTVSPropertyOp34
 70
     1
102
RTVSPropertyOp35
 70
     1
102
RTVSPropertyOp36
 70
     1
102
RTVSPropertyOp37
 70
     1
102
RTVSPropertyOp38
 70
     1
102
RTVSPropertyOp39
 70
     1
102
RTVSPropertyOp40
 70
     1
102
RTVSPropertyOp41
 70
     1
102
RTVSPropertyOp42
 70
     1
102
RTVSPropertyOp43
 70
     1
102
RTVSPropertyOp44
 70
     1
102
RTVSPropertyOp45
 70
     1
102
RTVSPropertyOp46
 70
     1
102
RTVSPropertyOp47
 70
     1
102
RTVSPropertyOp48
 70
     1
102
RTVSPropertyOp49
 70
     1
102
RTVSPropertyOp50
 70
     1
102
RTVSPropertyOp51
 70
     0
102
RTVSPropertyOp52
 70
     0
102
RTVSPropertyOp53
 70
     1
102
RTVSPropertyOp54
 70
     1
102
RTVSPropertyOp55
 70
     1
102
RTVSPropertyOp56
 70
     1
102
RTVSPropertyOp57
 70
     1
102
RTVSPost2010Prop28
280
     0
102
RTVSPost2010PropOp28
 70
     1
102
RTVSPost2010Prop29
280
     1
102
RTVSPost2010PropOp29
 70
     1
102
RTVSPost2010Prop30
280
     1
102
RTVSPost2010PropOp30
 70
     1
102
RTVSPost2010Prop31
280
     0
102
RTVSPost2010PropOp31
 70
     1
102
RTVSPost2010Prop32
280
     0
102
RTVSPost2010PropOp32
 70
     1
102
RTVSPost2010Prop33
280
     0
102
RTVSPost2010PropOp33
 70
     1
102
RTVSPost2010Prop34
280
     0
102
RTVSPost2010PropOp34
 70
     1
102
RTVSPost2010Prop35
280
     0
102
RTVSPost2010PropOp35
 70
     1
102
RTVSPost2010Prop36
280
     0
102
RTVSPost2010PropOp36
 70
     1
102
RTVSPost2010Prop37
 90
       50
102
RTVSPost2010PropOp37
 70
     1
102
RTVSPost2010Prop38
140
0.0
102
RTVSPost2010PropOp38
 70
     1
102
RTVSPost2010Prop39
140
1.0
102
RTVSPost2010PropOp39
 70
     1
102
RTVSPost2010Prop40
 90
        0
102
RTVSPost2010PropOp40
 70
     1
102
RTVSPost2010Prop41ColorIndex
 90
       18
102
RTVSPost2010Prop41ColorRGB
 90
        0
102
RTVSPost2010PropOp41
 70
     1
102
RTVSPost2010Prop42
 90
       50
102
RTVSPost2010PropOp42
 70
     1
102
RTVSPost2010Prop43
 90
        3
102
RTVSPost2010PropOp43
 70
     1
102
RTVSPost2010Prop44ColorIndex
 90
        5
102
RTVSPost2010Prop44ColorRGB
 90
      255
102
RTVSPost2010PropOp44
 70
     1
102
RTVSPost2010Prop45
280
     0
102
RTVSPost2010PropOp45
 70
     1
102
RTVSPost2010Prop46
 90
       50
102
RTVSPost2010PropOp46
 70
     1
102
RTVSPost2010Prop47
 90
       50
102
RTVSPost2010PropOp47
 70
     1
102
RTVSPost2010Prop48
 90
       50
102
RTVSPost2010PropOp48
 70
     1
102
RTVSPost2010Prop49
280
     0
102
RTVSPost2010PropOp49
 70
     1
102
RTVSPost2010Prop50
 90
       50
102
RTVSPost2010PropOp50
 70
     1
102
RTVSPost2010Prop51ColorIndex
 90
      256
102
RTVSPost2010Prop51ColorRGB
 90
-16777216
102
RTVSPost2010PropOp51
 70
     0
102
RTVSPost2010Prop52
140
1.0
102
RTVSPost2010PropOp52
 70
     0
102
RTVSPost2010Prop53
 90
        2
102
RTVSPost2010PropOp53
 70
     1
102
RTVSPost2010Prop54
  1
strokes_ogs.tif
102
RTVSPost2010PropOp54
 70
     1
102
RTVSPost2010Prop55
280
     0
102
RTVSPost2010PropOp55
 70
     1
102
RTVSPost2010Prop56
140
1.0
102
RTVSPost2010PropOp56
 70
     1
102
RTVSPost2010Prop57
140
1.0
102
RTVSPost2010PropOp57
 70
     1
  0
XRECORD
  5
402
102
{ACAD_REACTORS
330
401
102
}
330
401
100
AcDbXrecord
280
     1
102
RTVSPropertyOp0
 70
     0
102
RTVSPropertyOp1
 70
     0
102
RTVSPropertyOp2
 70
     0
102
RTVSPropertyOp3
 70
     0
102
RTVSPropertyOp4
 70
     0
102
RTVSPropertyOp5
 70
     0
102
RTVSPropertyOp6
 70
     0
102
RTVSPropertyOp7
 70
     0
102
RTVSPropertyOp8
 70
     0
102
RTVSPropertyOp9
 70
     0
102
RTVSPropertyOp10
 70
     0
102
RTVSPropertyOp11
 70
     0
102
RTVSPropertyOp12
 70
     0
102
RTVSPropertyOp13
 70
     0
102
RTVSPropertyOp14
 70
     2
102
RTVSPropertyOp15
 70
     0
102
RTVSPropertyOp16
 70
     0
102
RTVSPropertyOp17
 70
     0
102
RTVSPropertyOp18
 70
     0
102
RTVSPropertyOp19
 70
     0
102
RTVSPropertyOp20
 70
     0
102
RTVSPropertyOp21
 70
     0
102
RTVSPropertyOp22
 70
     0
102
RTVSPropertyOp23
 70
     0
102
RTVSPropertyOp24
 70
     0
102
RTVSPropertyOp25
 70
     0
102
RTVSPropertyOp26
 70
     0
102
RTVSPropertyOp27
 70
     0
102
RTVSPropertyOp28
 70
     0
102
RTVSPropertyOp29
 70
     0
102
RTVSPropertyOp30
 70
     0
102
RTVSPropertyOp31
 70
     0
102
RTVSPropertyOp32
 70
     0
102
RTVSPropertyOp33
 70
     0
102
RTVSPropertyOp34
 70
     0
102
RTVSPropertyOp35
 70
     0
102
RTVSPropertyOp36
 70
     0
102
RTVSPropertyOp37
 70
     0
102
RTVSPropertyOp38
 70
     0
102
RTVSPropertyOp39
 70
     0
102
RTVSPropertyOp40
 70
     0
102
RTVSPropertyOp41
 70
     0
102
RTVSPropertyOp42
 70
     0
102
RTVSPropertyOp43
 70
     0
102
RTVSPropertyOp44
 70
     0
102
RTVSPropertyOp45
 70
     0
102
RTVSPropertyOp46
 70
     0
102
RTVSPropertyOp47
 70
     0
102
RTVSPropertyOp48
 70
     0
102
RTVSPropertyOp49
 70
     0
102
RTVSPropertyOp50
 70
     0
102
RTVSPropertyOp51
 70
     0
102
RTVSPropertyOp52
 70
     0
102
RTVSPropertyOp53
 70
     0
102
RTVSPropertyOp54
 70
     0
102
RTVSPropertyOp55
 70
     0
102
RTVSPropertyOp56
 70
     0
102
RTVSPropertyOp57
 70
     0
102
RTVSPost2010Prop28
280
     0
102
RTVSPost2010PropOp28
 70
     0
102
RTVSPost2010Prop29
280
     1
102
RTVSPost2010PropOp29
 70
     0
102
RTVSPost2010Prop30
280
     1
102
RTVSPost2010PropOp30
 70
     0
102
RTVSPost2010Prop31
280
     0
102
RTVSPost2010PropOp31
 70
     0
102
RTVSPost2010Prop32
280
     0
102
RTVSPost2010PropOp32
 70
     0
102
RTVSPost2010Prop33
280
     0
102
RTVSPost2010PropOp33
 70
     0
102
RTVSPost2010Prop34
280
     0
102
RTVSPost2010PropOp34
 70
     0
102
RTVSPost2010Prop35
280
     0
102
RTVSPost2010PropOp35
 70
     0
102
RTVSPost2010Prop36
280
     0
102
RTVSPost2010PropOp36
 70
     0
102
RTVSPost2010Prop37
 90
       50
102
RTVSPost2010PropOp37
 70
     0
102
RTVSPost2010Prop38
140
0.0
102
RTVSPost2010PropOp38
 70
     0
102
RTVSPost2010Prop39
140
1.0
102
RTVSPost2010PropOp39
 70
     0
102
RTVSPost2010Prop40
 90
        0
102
RTVSPost2010PropOp40
 70
     0
102
RTVSPost2010Prop41ColorIndex
 90
       18
102
RTVSPost2010Prop41ColorRGB
 90
        0
102
RTVSPost2010PropOp41
 70
     0
102
RTVSPost2010Prop42
 90
       50
102
RTVSPost2010PropOp42
 70
     0
102
RTVSPost2010Prop43
 90
        3
102
RTVSPost2010PropOp43
 70
     0
102
RTVSPost2010Prop44ColorIndex
 90
        5
102
RTVSPost2010Prop44ColorRGB
 90
      255
102
RTVSPost2010PropOp44
 70
     0
102
RTVSPost2010Prop45
280
     0
102
RTVSPost2010PropOp45
 70
     0
102
RTVSPost2010Prop46
 90
       50
102
RTVSPost2010PropOp46
 70
     0
102
RTVSPost2010Prop47
 90
       50
102
RTVSPost2010PropOp47
 70
     0
102
RTVSPost2010Prop48
 90
       50
102
RTVSPost2010PropOp48
 70
     0
102
RTVSPost2010Prop49
280
     0
102
RTVSPost2010PropOp49
 70
     0
102
RTVSPost2010Prop50
 90
       50
102
RTVSPost2010PropOp50
 70
     0
102
RTVSPost2010Prop51ColorIndex
 90
      256
102
RTVSPost2010Prop51ColorRGB
 90
-16777216
102
RTVSPost2010PropOp51
 70
     0
102
RTVSPost2010Prop52
140
1.0
102
RTVSPost2010PropOp52
 70
     0
102
RTVSPost2010Prop53
 90
        2
102
RTVSPost2010PropOp53
 70
     0
102
RTVSPost2010Prop54
  1
strokes_ogs.tif
102
RTVSPost2010PropOp54
 70
     0
102
RTVSPost2010Prop55
280
     0
102
RTVSPost2010PropOp55
 70
     0
102
RTVSPost2010Prop56
140
1.0
102
RTVSPost2010PropOp56
 70
     0
102
RTVSPost2010Prop57
140
1.0
102
RTVSPost2010PropOp57
 70
     0
  0
XRECORD
  5
3FA
102
{ACAD_REACTORS
330
3F9
102
}
330
3F9
100
AcDbXrecord
280
     1
102
RTVSPropertyOp0
 70
     1
102
RTVSPropertyOp1
 70
     1
102
RTVSPropertyOp2
 70
     1
102
RTVSPropertyOp3
 70
     1
102
RTVSPropertyOp4
 70
     1
102
RTVSPropertyOp5
 70
     1
102
RTVSPropertyOp6
 70
     1
102
RTVSPropertyOp7
 70
     1
102
RTVSPropertyOp8
 70
     1
102
RTVSPropertyOp9
 70
     1
102
RTVSPropertyOp10
 70
     1
102
RTVSPropertyOp11
 70
     1
102
RTVSPropertyOp12
 70
     1
102
RTVSPropertyOp13
 70
     1
102
RTVSPropertyOp14
 70
     1
102
RTVSPropertyOp15
 70
     1
102
RTVSPropertyOp16
 70
     1
102
RTVSPropertyOp17
 70
     1
102
RTVSPropertyOp18
 70
     1
102
RTVSPropertyOp19
 70
     1
102
RTVSPropertyOp20
 70
     1
102
RTVSPropertyOp21
 70
     1
102
RTVSPropertyOp22
 70
     1
102
RTVSPropertyOp23
 70
     1
102
RTVSPropertyOp24
 70
     1
102
RTVSPropertyOp25
 70
     1
102
RTVSPropertyOp26
 70
     1
102
RTVSPropertyOp27
 70
     1
102
RTVSPropertyOp28
 70
     1
102
RTVSPropertyOp29
 70
     1
102
RTVSPropertyOp30
 70
     1
102
RTVSPropertyOp31
 70
     1
102
RTVSPropertyOp32
 70
     1
102
RTVSPropertyOp33
 70
     1
102
RTVSPropertyOp34
 70
     1
102
RTVSPropertyOp35
 70
     1
102
RTVSPropertyOp36
 70
     1
102
RTVSPropertyOp37
 70
     1
102
RTVSPropertyOp38
 70
     1
102
RTVSPropertyOp39
 70
     1
102
RTVSPropertyOp40
 70
     1
102
RTVSPropertyOp41
 70
     1
102
RTVSPropertyOp42
 70
     1
102
RTVSPropertyOp43
 70
     1
102
RTVSPropertyOp44
 70
     1
102
RTVSPropertyOp45
 70
     1
102
RTVSPropertyOp46
 70
     1
102
RTVSPropertyOp47
 70
     1
102
RTVSPropertyOp48
 70
     1
102
RTVSPropertyOp49
 70
     1
102
RTVSPropertyOp50
 70
     1
102
RTVSPropertyOp51
 70
     0
102
RTVSPropertyOp52
 70
     0
102
RTVSPropertyOp53
 70
     1
102
RTVSPropertyOp54
 70
     1
102
RTVSPropertyOp55
 70
     1
102
RTVSPropertyOp56
 70
     1
102
RTVSPropertyOp57
 70
     1
102
RTVSPost2010Prop28
280
     0
102
RTVSPost2010PropOp28
 70
     1
102
RTVSPost2010Prop29
280
     1
102
RTVSPost2010PropOp29
 70
     1
102
RTVSPost2010Prop30
280
     1
102
RTVSPost2010PropOp30
 70
     1
102
RTVSPost2010Prop31
280
     0
102
RTVSPost2010PropOp31
 70
     1
102
RTVSPost2010Prop32
280
     0
102
RTVSPost2010PropOp32
 70
     1
102
RTVSPost2010Prop33
280
     0
102
RTVSPost2010PropOp33
 70
     1
102
RTVSPost2010Prop34
280
     0
102
RTVSPost2010PropOp34
 70
     1
102
RTVSPost2010Prop35
280
     0
102
RTVSPost2010PropOp35
 70
     1
102
RTVSPost2010Prop36
280
     0
102
RTVSPost2010PropOp36
 70
     1
102
RTVSPost2010Prop37
 90
       50
102
RTVSPost2010PropOp37
 70
     1
102
RTVSPost2010Prop38
140
0.0
102
RTVSPost2010PropOp38
 70
     1
102
RTVSPost2010Prop39
140
1.0
102
RTVSPost2010PropOp39
 70
     1
102
RTVSPost2010Prop40
 90
        0
102
RTVSPost2010PropOp40
 70
     1
102
RTVSPost2010Prop41ColorIndex
 90
       18
102
RTVSPost2010Prop41ColorRGB
 90
        0
102
RTVSPost2010PropOp41
 70
     1
102
RTVSPost2010Prop42
 90
       50
102
RTVSPost2010PropOp42
 70
     1
102
RTVSPost2010Prop43
 90
        3
102
RTVSPost2010PropOp43
 70
     1
102
RTVSPost2010Prop44ColorIndex
 90
        5
102
RTVSPost2010Prop44ColorRGB
 90
      255
102
RTVSPost2010PropOp44
 70
     1
102
RTVSPost2010Prop45
280
     0
102
RTVSPost2010PropOp45
 70
     1
102
RTVSPost2010Prop46
 90
       50
102
RTVSPost2010PropOp46
 70
     1
102
RTVSPost2010Prop47
 90
       50
102
RTVSPost2010PropOp47
 70
     1
102
RTVSPost2010Prop48
 90
       50
102
RTVSPost2010PropOp48
 70
     1
102
RTVSPost2010Prop49
280
     0
102
RTVSPost2010PropOp49
 70
     1
102
RTVSPost2010Prop50
 90
       50
102
RTVSPost2010PropOp50
 70
     1
102
RTVSPost2010Prop51ColorIndex
 90
      256
102
RTVSPost2010Prop51ColorRGB
 90
-16777216
102
RTVSPost2010PropOp51
 70
     0
102
RTVSPost2010Prop52
140
1.0
102
RTVSPost2010PropOp52
 70
     0
102
RTVSPost2010Prop53
 90
        2
102
RTVSPost2010PropOp53
 70
     1
102
RTVSPost2010Prop54
  1
strokes_ogs.tif
102
RTVSPost2010PropOp54
 70
     1
102
RTVSPost2010Prop55
280
     0
102
RTVSPost2010PropOp55
 70
     1
102
RTVSPost2010Prop56
140
1.0
102
RTVSPost2010PropOp56
 70
     1
102
RTVSPost2010Prop57
140
1.0
102
RTVSPost2010PropOp57
 70
     1
  0
XRECORD
  5
3DE
102
{ACAD_REACTORS
330
3DD
102
}
330
3DD
100
AcDbXrecord
280
     1
102
RTVSPropertyOp0
 70
     1
102
RTVSPropertyOp1
 70
     1
102
RTVSPropertyOp2
 70
     1
102
RTVSPropertyOp3
 70
     1
102
RTVSPropertyOp4
 70
     1
102
RTVSPropertyOp5
 70
     1
102
RTVSPropertyOp6
 70
     1
102
RTVSPropertyOp7
 70
     1
102
RTVSPropertyOp8
 70
     1
102
RTVSPropertyOp9
 70
     1
102
RTVSPropertyOp10
 70
     1
102
RTVSPropertyOp11
 70
     1
102
RTVSPropertyOp12
 70
     1
102
RTVSPropertyOp13
 70
     1
102
RTVSPropertyOp14
 70
     1
102
RTVSPropertyOp15
 70
     1
102
RTVSPropertyOp16
 70
     1
102
RTVSPropertyOp17
 70
     1
102
RTVSPropertyOp18
 70
     1
102
RTVSPropertyOp19
 70
     1
102
RTVSPropertyOp20
 70
     1
102
RTVSPropertyOp21
 70
     1
102
RTVSPropertyOp22
 70
     1
102
RTVSPropertyOp23
 70
     1
102
RTVSPropertyOp24
 70
     1
102
RTVSPropertyOp25
 70
     1
102
RTVSPropertyOp26
 70
     1
102
RTVSPropertyOp27
 70
     1
102
RTVSPropertyOp28
 70
     1
102
RTVSPropertyOp29
 70
     1
102
RTVSPropertyOp30
 70
     1
102
RTVSPropertyOp31
 70
     1
102
RTVSPropertyOp32
 70
     1
102
RTVSPropertyOp33
 70
     1
102
RTVSPropertyOp34
 70
     1
102
RTVSPropertyOp35
 70
     1
102
RTVSPropertyOp36
 70
     1
102
RTVSPropertyOp37
 70
     1
102
RTVSPropertyOp38
 70
     1
102
RTVSPropertyOp39
 70
     1
102
RTVSPropertyOp40
 70
     1
102
RTVSPropertyOp41
 70
     1
102
RTVSPropertyOp42
 70
     1
102
RTVSPropertyOp43
 70
     1
102
RTVSPropertyOp44
 70
     1
102
RTVSPropertyOp45
 70
     1
102
RTVSPropertyOp46
 70
     1
102
RTVSPropertyOp47
 70
     1
102
RTVSPropertyOp48
 70
     1
102
RTVSPropertyOp49
 70
     1
102
RTVSPropertyOp50
 70
     1
102
RTVSPropertyOp51
 70
     0
102
RTVSPropertyOp52
 70
     0
102
RTVSPropertyOp53
 70
     1
102
RTVSPropertyOp54
 70
     1
102
RTVSPropertyOp55
 70
     1
102
RTVSPropertyOp56
 70
     1
102
RTVSPropertyOp57
 70
     1
102
RTVSPost2010Prop28
280
     0
102
RTVSPost2010PropOp28
 70
     1
102
RTVSPost2010Prop29
280
     1
102
RTVSPost2010PropOp29
 70
     1
102
RTVSPost2010Prop30
280
     1
102
RTVSPost2010PropOp30
 70
     1
102
RTVSPost2010Prop31
280
     0
102
RTVSPost2010PropOp31
 70
     1
102
RTVSPost2010Prop32
280
     0
102
RTVSPost2010PropOp32
 70
     1
102
RTVSPost2010Prop33
280
     0
102
RTVSPost2010PropOp33
 70
     1
102
RTVSPost2010Prop34
280
     0
102
RTVSPost2010PropOp34
 70
     1
102
RTVSPost2010Prop35
280
     0
102
RTVSPost2010PropOp35
 70
     1
102
RTVSPost2010Prop36
280
     0
102
RTVSPost2010PropOp36
 70
     1
102
RTVSPost2010Prop37
 90
       50
102
RTVSPost2010PropOp37
 70
     1
102
RTVSPost2010Prop38
140
0.0
102
RTVSPost2010PropOp38
 70
     1
102
RTVSPost2010Prop39
140
1.0
102
RTVSPost2010PropOp39
 70
     1
102
RTVSPost2010Prop40
 90
        0
102
RTVSPost2010PropOp40
 70
     1
102
RTVSPost2010Prop41ColorIndex
 90
       18
102
RTVSPost2010Prop41ColorRGB
 90
        0
102
RTVSPost2010PropOp41
 70
     1
102
RTVSPost2010Prop42
 90
       50
102
RTVSPost2010PropOp42
 70
     1
102
RTVSPost2010Prop43
 90
        3
102
RTVSPost2010PropOp43
 70
     1
102
RTVSPost2010Prop44ColorIndex
 90
        5
102
RTVSPost2010Prop44ColorRGB
 90
      255
102
RTVSPost2010PropOp44
 70
     1
102
RTVSPost2010Prop45
280
     0
102
RTVSPost2010PropOp45
 70
     1
102
RTVSPost2010Prop46
 90
       50
102
RTVSPost2010PropOp46
 70
     1
102
RTVSPost2010Prop47
 90
       50
102
RTVSPost2010PropOp47
 70
     1
102
RTVSPost2010Prop48
 90
       50
102
RTVSPost2010PropOp48
 70
     1
102
RTVSPost2010Prop49
280
     0
102
RTVSPost2010PropOp49
 70
     1
102
RTVSPost2010Prop50
 90
       50
102
RTVSPost2010PropOp50
 70
     1
102
RTVSPost2010Prop51ColorIndex
 90
      256
102
RTVSPost2010Prop51ColorRGB
 90
-16777216
102
RTVSPost2010PropOp51
 70
     0
102
RTVSPost2010Prop52
140
1.0
102
RTVSPost2010PropOp52
 70
     0
102
RTVSPost2010Prop53
 90
        2
102
RTVSPost2010PropOp53
 70
     1
102
RTVSPost2010Prop54
  1
strokes_ogs.tif
102
RTVSPost2010PropOp54
 70
     1
102
RTVSPost2010Prop55
280
     0
102
RTVSPost2010PropOp55
 70
     1
102
RTVSPost2010Prop56
140
1.0
102
RTVSPost2010PropOp56
 70
     1
102
RTVSPost2010Prop57
140
1.0
102
RTVSPost2010PropOp57
 70
     1
  0
XRECORD
  5
3E0
102
{ACAD_REACTORS
330
3DF
102
}
330
3DF
100
AcDbXrecord
280
     1
102
RTVSPropertyOp0
 70
     1
102
RTVSPropertyOp1
 70
     1
102
RTVSPropertyOp2
 70
     1
102
RTVSPropertyOp3
 70
     1
102
RTVSPropertyOp4
 70
     1
102
RTVSPropertyOp5
 70
     1
102
RTVSPropertyOp6
 70
     1
102
RTVSPropertyOp7
 70
     1
102
RTVSPropertyOp8
 70
     1
102
RTVSPropertyOp9
 70
     1
102
RTVSPropertyOp10
 70
     1
102
RTVSPropertyOp11
 70
     1
102
RTVSPropertyOp12
 70
     1
102
RTVSPropertyOp13
 70
     1
102
RTVSPropertyOp14
 70
     1
102
RTVSPropertyOp15
 70
     1
102
RTVSPropertyOp16
 70
     1
102
RTVSPropertyOp17
 70
     1
102
RTVSPropertyOp18
 70
     1
102
RTVSPropertyOp19
 70
     1
102
RTVSPropertyOp20
 70
     1
102
RTVSPropertyOp21
 70
     1
102
RTVSPropertyOp22
 70
     1
102
RTVSPropertyOp23
 70
     1
102
RTVSPropertyOp24
 70
     1
102
RTVSPropertyOp25
 70
     1
102
RTVSPropertyOp26
 70
     1
102
RTVSPropertyOp27
 70
     1
102
RTVSPropertyOp28
 70
     1
102
RTVSPropertyOp29
 70
     1
102
RTVSPropertyOp30
 70
     1
102
RTVSPropertyOp31
 70
     1
102
RTVSPropertyOp32
 70
     1
102
RTVSPropertyOp33
 70
     1
102
RTVSPropertyOp34
 70
     1
102
RTVSPropertyOp35
 70
     1
102
RTVSPropertyOp36
 70
     1
102
RTVSPropertyOp37
 70
     1
102
RTVSPropertyOp38
 70
     1
102
RTVSPropertyOp39
 70
     1
102
RTVSPropertyOp40
 70
     1
102
RTVSPropertyOp41
 70
     1
102
RTVSPropertyOp42
 70
     1
102
RTVSPropertyOp43
 70
     1
102
RTVSPropertyOp44
 70
     1
102
RTVSPropertyOp45
 70
     1
102
RTVSPropertyOp46
 70
     1
102
RTVSPropertyOp47
 70
     1
102
RTVSPropertyOp48
 70
     1
102
RTVSPropertyOp49
 70
     1
102
RTVSPropertyOp50
 70
     1
102
RTVSPropertyOp51
 70
     0
102
RTVSPropertyOp52
 70
     0
102
RTVSPropertyOp53
 70
     1
102
RTVSPropertyOp54
 70
     1
102
RTVSPropertyOp55
 70
     1
102
RTVSPropertyOp56
 70
     1
102
RTVSPropertyOp57
 70
     1
102
RTVSPost2010Prop28
280
     0
102
RTVSPost2010PropOp28
 70
     1
102
RTVSPost2010Prop29
280
     1
102
RTVSPost2010PropOp29
 70
     1
102
RTVSPost2010Prop30
280
     1
102
RTVSPost2010PropOp30
 70
     1
102
RTVSPost2010Prop31
280
     0
102
RTVSPost2010PropOp31
 70
     1
102
RTVSPost2010Prop32
280
     0
102
RTVSPost2010PropOp32
 70
     1
102
RTVSPost2010Prop33
280
     0
102
RTVSPost2010PropOp33
 70
     1
102
RTVSPost2010Prop34
280
     0
102
RTVSPost2010PropOp34
 70
     1
102
RTVSPost2010Prop35
280
     0
102
RTVSPost2010PropOp35
 70
     1
102
RTVSPost2010Prop36
280
     0
102
RTVSPost2010PropOp36
 70
     1
102
RTVSPost2010Prop37
 90
       50
102
RTVSPost2010PropOp37
 70
     1
102
RTVSPost2010Prop38
140
0.0
102
RTVSPost2010PropOp38
 70
     1
102
RTVSPost2010Prop39
140
1.0
102
RTVSPost2010PropOp39
 70
     1
102
RTVSPost2010Prop40
 90
        0
102
RTVSPost2010PropOp40
 70
     1
102
RTVSPost2010Prop41ColorIndex
 90
       18
102
RTVSPost2010Prop41ColorRGB
 90
        0
102
RTVSPost2010PropOp41
 70
     1
102
RTVSPost2010Prop42
 90
       50
102
RTVSPost2010PropOp42
 70
     1
102
RTVSPost2010Prop43
 90
        3
102
RTVSPost2010PropOp43
 70
     1
102
RTVSPost2010Prop44ColorIndex
 90
        5
102
RTVSPost2010Prop44ColorRGB
 90
      255
102
RTVSPost2010PropOp44
 70
     1
102
RTVSPost2010Prop45
280
     0
102
RTVSPost2010PropOp45
 70
     1
102
RTVSPost2010Prop46
 90
       50
102
RTVSPost2010PropOp46
 70
     1
102
RTVSPost2010Prop47
 90
       50
102
RTVSPost2010PropOp47
 70
     1
102
RTVSPost2010Prop48
 90
       50
102
RTVSPost2010PropOp48
 70
     1
102
RTVSPost2010Prop49
280
     0
102
RTVSPost2010PropOp49
 70
     1
102
RTVSPost2010Prop50
 90
       50
102
RTVSPost2010PropOp50
 70
     1
102
RTVSPost2010Prop51ColorIndex
 90
      256
102
RTVSPost2010Prop51ColorRGB
 90
-16777216
102
RTVSPost2010PropOp51
 70
     0
102
RTVSPost2010Prop52
140
1.0
102
RTVSPost2010PropOp52
 70
     0
102
RTVSPost2010Prop53
 90
        2
102
RTVSPost2010PropOp53
 70
     1
102
RTVSPost2010Prop54
  1
strokes_ogs.tif
102
RTVSPost2010PropOp54
 70
     1
102
RTVSPost2010Prop55
280
     0
102
RTVSPost2010PropOp55
 70
     1
102
RTVSPost2010Prop56
140
1.0
102
RTVSPost2010PropOp56
 70
     1
102
RTVSPost2010Prop57
140
1.0
102
RTVSPost2010PropOp57
 70
     1
  0
XRECORD
  5
3E2
102
{ACAD_REACTORS
330
3E1
102
}
330
3E1
100
AcDbXrecord
280
     1
102
RTVSPropertyOp0
 70
     1
102
RTVSPropertyOp1
 70
     1
102
RTVSPropertyOp2
 70
     1
102
RTVSPropertyOp3
 70
     1
102
RTVSPropertyOp4
 70
     1
102
RTVSPropertyOp5
 70
     1
102
RTVSPropertyOp6
 70
     1
102
RTVSPropertyOp7
 70
     1
102
RTVSPropertyOp8
 70
     1
102
RTVSPropertyOp9
 70
     1
102
RTVSPropertyOp10
 70
     1
102
RTVSPropertyOp11
 70
     1
102
RTVSPropertyOp12
 70
     1
102
RTVSPropertyOp13
 70
     1
102
RTVSPropertyOp14
 70
     1
102
RTVSPropertyOp15
 70
     1
102
RTVSPropertyOp16
 70
     1
102
RTVSPropertyOp17
 70
     1
102
RTVSPropertyOp18
 70
     1
102
RTVSPropertyOp19
 70
     1
102
RTVSPropertyOp20
 70
     1
102
RTVSPropertyOp21
 70
     1
102
RTVSPropertyOp22
 70
     1
102
RTVSPropertyOp23
 70
     1
102
RTVSPropertyOp24
 70
     1
102
RTVSPropertyOp25
 70
     1
102
RTVSPropertyOp26
 70
     1
102
RTVSPropertyOp27
 70
     1
102
RTVSPropertyOp28
 70
     1
102
RTVSPropertyOp29
 70
     1
102
RTVSPropertyOp30
 70
     1
102
RTVSPropertyOp31
 70
     1
102
RTVSPropertyOp32
 70
     1
102
RTVSPropertyOp33
 70
     1
102
RTVSPropertyOp34
 70
     1
102
RTVSPropertyOp35
 70
     1
102
RTVSPropertyOp36
 70
     1
102
RTVSPropertyOp37
 70
     1
102
RTVSPropertyOp38
 70
     1
102
RTVSPropertyOp39
 70
     1
102
RTVSPropertyOp40
 70
     1
102
RTVSPropertyOp41
 70
     1
102
RTVSPropertyOp42
 70
     1
102
RTVSPropertyOp43
 70
     1
102
RTVSPropertyOp44
 70
     1
102
RTVSPropertyOp45
 70
     1
102
RTVSPropertyOp46
 70
     1
102
RTVSPropertyOp47
 70
     1
102
RTVSPropertyOp48
 70
     1
102
RTVSPropertyOp49
 70
     1
102
RTVSPropertyOp50
 70
     1
102
RTVSPropertyOp51
 70
     0
102
RTVSPropertyOp52
 70
     0
102
RTVSPropertyOp53
 70
     1
102
RTVSPropertyOp54
 70
     1
102
RTVSPropertyOp55
 70
     1
102
RTVSPropertyOp56
 70
     1
102
RTVSPropertyOp57
 70
     1
102
RTVSPost2010Prop28
280
     0
102
RTVSPost2010PropOp28
 70
     1
102
RTVSPost2010Prop29
280
     1
102
RTVSPost2010PropOp29
 70
     1
102
RTVSPost2010Prop30
280
     1
102
RTVSPost2010PropOp30
 70
     1
102
RTVSPost2010Prop31
280
     0
102
RTVSPost2010PropOp31
 70
     1
102
RTVSPost2010Prop32
280
     0
102
RTVSPost2010PropOp32
 70
     1
102
RTVSPost2010Prop33
280
     0
102
RTVSPost2010PropOp33
 70
     1
102
RTVSPost2010Prop34
280
     0
102
RTVSPost2010PropOp34
 70
     1
102
RTVSPost2010Prop35
280
     0
102
RTVSPost2010PropOp35
 70
     1
102
RTVSPost2010Prop36
280
     0
102
RTVSPost2010PropOp36
 70
     1
102
RTVSPost2010Prop37
 90
       50
102
RTVSPost2010PropOp37
 70
     1
102
RTVSPost2010Prop38
140
0.0
102
RTVSPost2010PropOp38
 70
     1
102
RTVSPost2010Prop39
140
1.0
102
RTVSPost2010PropOp39
 70
     1
102
RTVSPost2010Prop40
 90
        0
102
RTVSPost2010PropOp40
 70
     1
102
RTVSPost2010Prop41ColorIndex
 90
       18
102
RTVSPost2010Prop41ColorRGB
 90
        0
102
RTVSPost2010PropOp41
 70
     1
102
RTVSPost2010Prop42
 90
       50
102
RTVSPost2010PropOp42
 70
     1
102
RTVSPost2010Prop43
 90
        3
102
RTVSPost2010PropOp43
 70
     1
102
RTVSPost2010Prop44ColorIndex
 90
        5
102
RTVSPost2010Prop44ColorRGB
 90
      255
102
RTVSPost2010PropOp44
 70
     1
102
RTVSPost2010Prop45
280
     0
102
RTVSPost2010PropOp45
 70
     1
102
RTVSPost2010Prop46
 90
       50
102
RTVSPost2010PropOp46
 70
     1
102
RTVSPost2010Prop47
 90
       50
102
RTVSPost2010PropOp47
 70
     1
102
RTVSPost2010Prop48
 90
       50
102
RTVSPost2010PropOp48
 70
     1
102
RTVSPost2010Prop49
280
     0
102
RTVSPost2010PropOp49
 70
     1
102
RTVSPost2010Prop50
 90
       50
102
RTVSPost2010PropOp50
 70
     1
102
RTVSPost2010Prop51ColorIndex
 90
      256
102
RTVSPost2010Prop51ColorRGB
 90
-16777216
102
RTVSPost2010PropOp51
 70
     0
102
RTVSPost2010Prop52
140
1.0
102
RTVSPost2010PropOp52
 70
     0
102
RTVSPost2010Prop53
 90
        2
102
RTVSPost2010PropOp53
 70
     1
102
RTVSPost2010Prop54
  1
strokes_ogs.tif
102
RTVSPost2010PropOp54
 70
     1
102
RTVSPost2010Prop55
280
     0
102
RTVSPost2010PropOp55
 70
     1
102
RTVSPost2010Prop56
140
1.0
102
RTVSPost2010PropOp56
 70
     1
102
RTVSPost2010Prop57
140
1.0
102
RTVSPost2010PropOp57
 70
     1
  0
XRECORD
  5
3E4
102
{ACAD_REACTORS
330
3E3
102
}
330
3E3
100
AcDbXrecord
280
     1
102
RTVSPropertyOp0
 70
     1
102
RTVSPropertyOp1
 70
     1
102
RTVSPropertyOp2
 70
     1
102
RTVSPropertyOp3
 70
     1
102
RTVSPropertyOp4
 70
     1
102
RTVSPropertyOp5
 70
     1
102
RTVSPropertyOp6
 70
     1
102
RTVSPropertyOp7
 70
     1
102
RTVSPropertyOp8
 70
     1
102
RTVSPropertyOp9
 70
     1
102
RTVSPropertyOp10
 70
     1
102
RTVSPropertyOp11
 70
     1
102
RTVSPropertyOp12
 70
     1
102
RTVSPropertyOp13
 70
     1
102
RTVSPropertyOp14
 70
     1
102
RTVSPropertyOp15
 70
     1
102
RTVSPropertyOp16
 70
     1
102
RTVSPropertyOp17
 70
     1
102
RTVSPropertyOp18
 70
     1
102
RTVSPropertyOp19
 70
     1
102
RTVSPropertyOp20
 70
     1
102
RTVSPropertyOp21
 70
     1
102
RTVSPropertyOp22
 70
     1
102
RTVSPropertyOp23
 70
     1
102
RTVSPropertyOp24
 70
     1
102
RTVSPropertyOp25
 70
     1
102
RTVSPropertyOp26
 70
     1
102
RTVSPropertyOp27
 70
     1
102
RTVSPropertyOp28
 70
     1
102
RTVSPropertyOp29
 70
     1
102
RTVSPropertyOp30
 70
     1
102
RTVSPropertyOp31
 70
     1
102
RTVSPropertyOp32
 70
     1
102
RTVSPropertyOp33
 70
     1
102
RTVSPropertyOp34
 70
     1
102
RTVSPropertyOp35
 70
     1
102
RTVSPropertyOp36
 70
     1
102
RTVSPropertyOp37
 70
     1
102
RTVSPropertyOp38
 70
     1
102
RTVSPropertyOp39
 70
     1
102
RTVSPropertyOp40
 70
     1
102
RTVSPropertyOp41
 70
     1
102
RTVSPropertyOp42
 70
     1
102
RTVSPropertyOp43
 70
     1
102
RTVSPropertyOp44
 70
     1
102
RTVSPropertyOp45
 70
     1
102
RTVSPropertyOp46
 70
     1
102
RTVSPropertyOp47
 70
     1
102
RTVSPropertyOp48
 70
     1
102
RTVSPropertyOp49
 70
     1
102
RTVSPropertyOp50
 70
     1
102
RTVSPropertyOp51
 70
     0
102
RTVSPropertyOp52
 70
     0
102
RTVSPropertyOp53
 70
     1
102
RTVSPropertyOp54
 70
     1
102
RTVSPropertyOp55
 70
     1
102
RTVSPropertyOp56
 70
     1
102
RTVSPropertyOp57
 70
     1
102
RTVSPost2010Prop28
280
     0
102
RTVSPost2010PropOp28
 70
     1
102
RTVSPost2010Prop29
280
     1
102
RTVSPost2010PropOp29
 70
     1
102
RTVSPost2010Prop30
280
     1
102
RTVSPost2010PropOp30
 70
     1
102
RTVSPost2010Prop31
280
     0
102
RTVSPost2010PropOp31
 70
     1
102
RTVSPost2010Prop32
280
     0
102
RTVSPost2010PropOp32
 70
     1
102
RTVSPost2010Prop33
280
     0
102
RTVSPost2010PropOp33
 70
     1
102
RTVSPost2010Prop34
280
     0
102
RTVSPost2010PropOp34
 70
     1
102
RTVSPost2010Prop35
280
     0
102
RTVSPost2010PropOp35
 70
     1
102
RTVSPost2010Prop36
280
     0
102
RTVSPost2010PropOp36
 70
     1
102
RTVSPost2010Prop37
 90
       50
102
RTVSPost2010PropOp37
 70
     1
102
RTVSPost2010Prop38
140
0.0
102
RTVSPost2010PropOp38
 70
     1
102
RTVSPost2010Prop39
140
1.0
102
RTVSPost2010PropOp39
 70
     1
102
RTVSPost2010Prop40
 90
        0
102
RTVSPost2010PropOp40
 70
     1
102
RTVSPost2010Prop41ColorIndex
 90
       18
102
RTVSPost2010Prop41ColorRGB
 90
        0
102
RTVSPost2010PropOp41
 70
     1
102
RTVSPost2010Prop42
 90
       50
102
RTVSPost2010PropOp42
 70
     1
102
RTVSPost2010Prop43
 90
        3
102
RTVSPost2010PropOp43
 70
     1
102
RTVSPost2010Prop44ColorIndex
 90
        5
102
RTVSPost2010Prop44ColorRGB
 90
      255
102
RTVSPost2010PropOp44
 70
     1
102
RTVSPost2010Prop45
280
     0
102
RTVSPost2010PropOp45
 70
     1
102
RTVSPost2010Prop46
 90
       50
102
RTVSPost2010PropOp46
 70
     1
102
RTVSPost2010Prop47
 90
       50
102
RTVSPost2010PropOp47
 70
     1
102
RTVSPost2010Prop48
 90
       50
102
RTVSPost2010PropOp48
 70
     1
102
RTVSPost2010Prop49
280
     0
102
RTVSPost2010PropOp49
 70
     1
102
RTVSPost2010Prop50
 90
       50
102
RTVSPost2010PropOp50
 70
     1
102
RTVSPost2010Prop51ColorIndex
 90
      256
102
RTVSPost2010Prop51ColorRGB
 90
-16777216
102
RTVSPost2010PropOp51
 70
     0
102
RTVSPost2010Prop52
140
1.0
102
RTVSPost2010PropOp52
 70
     0
102
RTVSPost2010Prop53
 90
        2
102
RTVSPost2010PropOp53
 70
     1
102
RTVSPost2010Prop54
  1
strokes_ogs.tif
102
RTVSPost2010PropOp54
 70
     1
102
RTVSPost2010Prop55
280
     0
102
RTVSPost2010PropOp55
 70
     1
102
RTVSPost2010Prop56
140
1.0
102
RTVSPost2010PropOp56
 70
     1
102
RTVSPost2010Prop57
140
1.0
102
RTVSPost2010PropOp57
 70
     1
  0
XRECORD
  5
3EA
102
{ACAD_REACTORS
330
3E9
102
}
330
3E9
100
AcDbXrecord
280
     1
102
RTVSPropertyOp0
 70
     1
102
RTVSPropertyOp1
 70
     1
102
RTVSPropertyOp2
 70
     1
102
RTVSPropertyOp3
 70
     1
102
RTVSPropertyOp4
 70
     1
102
RTVSPropertyOp5
 70
     1
102
RTVSPropertyOp6
 70
     1
102
RTVSPropertyOp7
 70
     1
102
RTVSPropertyOp8
 70
     1
102
RTVSPropertyOp9
 70
     1
102
RTVSPropertyOp10
 70
     1
102
RTVSPropertyOp11
 70
     1
102
RTVSPropertyOp12
 70
     1
102
RTVSPropertyOp13
 70
     1
102
RTVSPropertyOp14
 70
     1
102
RTVSPropertyOp15
 70
     1
102
RTVSPropertyOp16
 70
     1
102
RTVSPropertyOp17
 70
     1
102
RTVSPropertyOp18
 70
     1
102
RTVSPropertyOp19
 70
     1
102
RTVSPropertyOp20
 70
     1
102
RTVSPropertyOp21
 70
     1
102
RTVSPropertyOp22
 70
     1
102
RTVSPropertyOp23
 70
     1
102
RTVSPropertyOp24
 70
     1
102
RTVSPropertyOp25
 70
     1
102
RTVSPropertyOp26
 70
     1
102
RTVSPropertyOp27
 70
     1
102
RTVSPropertyOp28
 70
     1
102
RTVSPropertyOp29
 70
     1
102
RTVSPropertyOp30
 70
     1
102
RTVSPropertyOp31
 70
     1
102
RTVSPropertyOp32
 70
     1
102
RTVSPropertyOp33
 70
     1
102
RTVSPropertyOp34
 70
     1
102
RTVSPropertyOp35
 70
     1
102
RTVSPropertyOp36
 70
     1
102
RTVSPropertyOp37
 70
     1
102
RTVSPropertyOp38
 70
     1
102
RTVSPropertyOp39
 70
     1
102
RTVSPropertyOp40
 70
     1
102
RTVSPropertyOp41
 70
     1
102
RTVSPropertyOp42
 70
     1
102
RTVSPropertyOp43
 70
     1
102
RTVSPropertyOp44
 70
     1
102
RTVSPropertyOp45
 70
     1
102
RTVSPropertyOp46
 70
     1
102
RTVSPropertyOp47
 70
     1
102
RTVSPropertyOp48
 70
     1
102
RTVSPropertyOp49
 70
     1
102
RTVSPropertyOp50
 70
     1
102
RTVSPropertyOp51
 70
     0
102
RTVSPropertyOp52
 70
     0
102
RTVSPropertyOp53
 70
     1
102
RTVSPropertyOp54
 70
     1
102
RTVSPropertyOp55
 70
     1
102
RTVSPropertyOp56
 70
     1
102
RTVSPropertyOp57
 70
     1
102
RTVSPost2010Prop28
280
     0
102
RTVSPost2010PropOp28
 70
     1
102
RTVSPost2010Prop29
280
     1
102
RTVSPost2010PropOp29
 70
     1
102
RTVSPost2010Prop30
280
     1
102
RTVSPost2010PropOp30
 70
     1
102
RTVSPost2010Prop31
280
     0
102
RTVSPost2010PropOp31
 70
     1
102
RTVSPost2010Prop32
280
     0
102
RTVSPost2010PropOp32
 70
     1
102
RTVSPost2010Prop33
280
     0
102
RTVSPost2010PropOp33
 70
     1
102
RTVSPost2010Prop34
280
     0
102
RTVSPost2010PropOp34
 70
     1
102
RTVSPost2010Prop35
280
     0
102
RTVSPost2010PropOp35
 70
     1
102
RTVSPost2010Prop36
280
     0
102
RTVSPost2010PropOp36
 70
     1
102
RTVSPost2010Prop37
 90
       50
102
RTVSPost2010PropOp37
 70
     1
102
RTVSPost2010Prop38
140
0.0
102
RTVSPost2010PropOp38
 70
     1
102
RTVSPost2010Prop39
140
1.0
102
RTVSPost2010PropOp39
 70
     1
102
RTVSPost2010Prop40
 90
        0
102
RTVSPost2010PropOp40
 70
     1
102
RTVSPost2010Prop41ColorIndex
 90
       18
102
RTVSPost2010Prop41ColorRGB
 90
        0
102
RTVSPost2010PropOp41
 70
     1
102
RTVSPost2010Prop42
 90
       50
102
RTVSPost2010PropOp42
 70
     1
102
RTVSPost2010Prop43
 90
        3
102
RTVSPost2010PropOp43
 70
     1
102
RTVSPost2010Prop44ColorIndex
 90
        5
102
RTVSPost2010Prop44ColorRGB
 90
      255
102
RTVSPost2010PropOp44
 70
     1
102
RTVSPost2010Prop45
280
     0
102
RTVSPost2010PropOp45
 70
     1
102
RTVSPost2010Prop46
 90
       50
102
RTVSPost2010PropOp46
 70
     1
102
RTVSPost2010Prop47
 90
       50
102
RTVSPost2010PropOp47
 70
     1
102
RTVSPost2010Prop48
 90
       50
102
RTVSPost2010PropOp48
 70
     1
102
RTVSPost2010Prop49
280
     0
102
RTVSPost2010PropOp49
 70
     1
102
RTVSPost2010Prop50
 90
       50
102
RTVSPost2010PropOp50
 70
     1
102
RTVSPost2010Prop51ColorIndex
 90
      256
102
RTVSPost2010Prop51ColorRGB
 90
-16777216
102
RTVSPost2010PropOp51
 70
     0
102
RTVSPost2010Prop52
140
1.0
102
RTVSPost2010PropOp52
 70
     0
102
RTVSPost2010Prop53
 90
        2
102
RTVSPost2010PropOp53
 70
     1
102
RTVSPost2010Prop54
  1
strokes_ogs.tif
102
RTVSPost2010PropOp54
 70
     1
102
RTVSPost2010Prop55
280
     0
102
RTVSPost2010PropOp55
 70
     1
102
RTVSPost2010Prop56
140
1.0
102
RTVSPost2010PropOp56
 70
     1
102
RTVSPost2010Prop57
140
1.0
102
RTVSPost2010PropOp57
 70
     1
  0
XRECORD
  5
3FE
102
{ACAD_REACTORS
330
3FD
102
}
330
3FD
100
AcDbXrecord
280
     1
102
RTVSPropertyOp0
 70
     0
102
RTVSPropertyOp1
 70
     0
102
RTVSPropertyOp2
 70
     0
102
RTVSPropertyOp3
 70
     0
102
RTVSPropertyOp4
 70
     0
102
RTVSPropertyOp5
 70
     0
102
RTVSPropertyOp6
 70
     0
102
RTVSPropertyOp7
 70
     0
102
RTVSPropertyOp8
 70
     0
102
RTVSPropertyOp9
 70
     0
102
RTVSPropertyOp10
 70
     0
102
RTVSPropertyOp11
 70
     0
102
RTVSPropertyOp12
 70
     0
102
RTVSPropertyOp13
 70
     0
102
RTVSPropertyOp14
 70
     2
102
RTVSPropertyOp15
 70
     0
102
RTVSPropertyOp16
 70
     0
102
RTVSPropertyOp17
 70
     0
102
RTVSPropertyOp18
 70
     0
102
RTVSPropertyOp19
 70
     0
102
RTVSPropertyOp20
 70
     0
102
RTVSPropertyOp21
 70
     0
102
RTVSPropertyOp22
 70
     0
102
RTVSPropertyOp23
 70
     0
102
RTVSPropertyOp24
 70
     0
102
RTVSPropertyOp25
 70
     0
102
RTVSPropertyOp26
 70
     0
102
RTVSPropertyOp27
 70
     0
102
RTVSPropertyOp28
 70
     0
102
RTVSPropertyOp29
 70
     0
102
RTVSPropertyOp30
 70
     0
102
RTVSPropertyOp31
 70
     0
102
RTVSPropertyOp32
 70
     0
102
RTVSPropertyOp33
 70
     0
102
RTVSPropertyOp34
 70
     0
102
RTVSPropertyOp35
 70
     0
102
RTVSPropertyOp36
 70
     0
102
RTVSPropertyOp37
 70
     0
102
RTVSPropertyOp38
 70
     0
102
RTVSPropertyOp39
 70
     0
102
RTVSPropertyOp40
 70
     0
102
RTVSPropertyOp41
 70
     0
102
RTVSPropertyOp42
 70
     0
102
RTVSPropertyOp43
 70
     0
102
RTVSPropertyOp44
 70
     0
102
RTVSPropertyOp45
 70
     0
102
RTVSPropertyOp46
 70
     0
102
RTVSPropertyOp47
 70
     0
102
RTVSPropertyOp48
 70
     0
102
RTVSPropertyOp49
 70
     0
102
RTVSPropertyOp50
 70
     0
102
RTVSPropertyOp51
 70
     0
102
RTVSPropertyOp52
 70
     0
102
RTVSPropertyOp53
 70
     0
102
RTVSPropertyOp54
 70
     0
102
RTVSPropertyOp55
 70
     0
102
RTVSPropertyOp56
 70
     0
102
RTVSPropertyOp57
 70
     0
102
RTVSPost2010Prop28
280
     0
102
RTVSPost2010PropOp28
 70
     0
102
RTVSPost2010Prop29
280
     1
102
RTVSPost2010PropOp29
 70
     0
102
RTVSPost2010Prop30
280
     1
102
RTVSPost2010PropOp30
 70
     0
102
RTVSPost2010Prop31
280
     0
102
RTVSPost2010PropOp31
 70
     0
102
RTVSPost2010Prop32
280
     0
102
RTVSPost2010PropOp32
 70
     0
102
RTVSPost2010Prop33
280
     0
102
RTVSPost2010PropOp33
 70
     0
102
RTVSPost2010Prop34
280
     0
102
RTVSPost2010PropOp34
 70
     0
102
RTVSPost2010Prop35
280
     0
102
RTVSPost2010PropOp35
 70
     0
102
RTVSPost2010Prop36
280
     0
102
RTVSPost2010PropOp36
 70
     0
102
RTVSPost2010Prop37
 90
       50
102
RTVSPost2010PropOp37
 70
     0
102
RTVSPost2010Prop38
140
0.0
102
RTVSPost2010PropOp38
 70
     0
102
RTVSPost2010Prop39
140
1.0
102
RTVSPost2010PropOp39
 70
     0
102
RTVSPost2010Prop40
 90
        0
102
RTVSPost2010PropOp40
 70
     0
102
RTVSPost2010Prop41ColorIndex
 90
       18
102
RTVSPost2010Prop41ColorRGB
 90
        0
102
RTVSPost2010PropOp41
 70
     0
102
RTVSPost2010Prop42
 90
       50
102
RTVSPost2010PropOp42
 70
     0
102
RTVSPost2010Prop43
 90
        3
102
RTVSPost2010PropOp43
 70
     0
102
RTVSPost2010Prop44ColorIndex
 90
        5
102
RTVSPost2010Prop44ColorRGB
 90
      255
102
RTVSPost2010PropOp44
 70
     0
102
RTVSPost2010Prop45
280
     0
102
RTVSPost2010PropOp45
 70
     0
102
RTVSPost2010Prop46
 90
       50
102
RTVSPost2010PropOp46
 70
     0
102
RTVSPost2010Prop47
 90
       50
102
RTVSPost2010PropOp47
 70
     0
102
RTVSPost2010Prop48
 90
       50
102
RTVSPost2010PropOp48
 70
     0
102
RTVSPost2010Prop49
280
     0
102
RTVSPost2010PropOp49
 70
     0
102
RTVSPost2010Prop50
 90
       50
102
RTVSPost2010PropOp50
 70
     0
102
RTVSPost2010Prop51ColorIndex
 90
      256
102
RTVSPost2010Prop51ColorRGB
 90
-16777216
102
RTVSPost2010PropOp51
 70
     0
102
RTVSPost2010Prop52
140
1.0
102
RTVSPost2010PropOp52
 70
     0
102
RTVSPost2010Prop53
 90
        2
102
RTVSPost2010PropOp53
 70
     0
102
RTVSPost2010Prop54
  1
strokes_ogs.tif
102
RTVSPost2010PropOp54
 70
     0
102
RTVSPost2010Prop55
280
     0
102
RTVSPost2010PropOp55
 70
     0
102
RTVSPost2010Prop56
140
1.0
102
RTVSPost2010PropOp56
 70
     0
102
RTVSPost2010Prop57
140
1.0
102
RTVSPost2010PropOp57
 70
     0
  0
XRECORD
  5
3F8
102
{ACAD_REACTORS
330
3F7
102
}
330
3F7
100
AcDbXrecord
280
     1
102
RTVSPropertyOp0
 70
     1
102
RTVSPropertyOp1
 70
     1
102
RTVSPropertyOp2
 70
     1
102
RTVSPropertyOp3
 70
     1
102
RTVSPropertyOp4
 70
     1
102
RTVSPropertyOp5
 70
     1
102
RTVSPropertyOp6
 70
     1
102
RTVSPropertyOp7
 70
     1
102
RTVSPropertyOp8
 70
     1
102
RTVSPropertyOp9
 70
     1
102
RTVSPropertyOp10
 70
     1
102
RTVSPropertyOp11
 70
     1
102
RTVSPropertyOp12
 70
     1
102
RTVSPropertyOp13
 70
     1
102
RTVSPropertyOp14
 70
     1
102
RTVSPropertyOp15
 70
     1
102
RTVSPropertyOp16
 70
     1
102
RTVSPropertyOp17
 70
     1
102
RTVSPropertyOp18
 70
     1
102
RTVSPropertyOp19
 70
     1
102
RTVSPropertyOp20
 70
     1
102
RTVSPropertyOp21
 70
     1
102
RTVSPropertyOp22
 70
     1
102
RTVSPropertyOp23
 70
     1
102
RTVSPropertyOp24
 70
     1
102
RTVSPropertyOp25
 70
     1
102
RTVSPropertyOp26
 70
     1
102
RTVSPropertyOp27
 70
     1
102
RTVSPropertyOp28
 70
     1
102
RTVSPropertyOp29
 70
     1
102
RTVSPropertyOp30
 70
     1
102
RTVSPropertyOp31
 70
     1
102
RTVSPropertyOp32
 70
     1
102
RTVSPropertyOp33
 70
     1
102
RTVSPropertyOp34
 70
     1
102
RTVSPropertyOp35
 70
     1
102
RTVSPropertyOp36
 70
     1
102
RTVSPropertyOp37
 70
     1
102
RTVSPropertyOp38
 70
     1
102
RTVSPropertyOp39
 70
     1
102
RTVSPropertyOp40
 70
     1
102
RTVSPropertyOp41
 70
     1
102
RTVSPropertyOp42
 70
     1
102
RTVSPropertyOp43
 70
     1
102
RTVSPropertyOp44
 70
     1
102
RTVSPropertyOp45
 70
     1
102
RTVSPropertyOp46
 70
     1
102
RTVSPropertyOp47
 70
     1
102
RTVSPropertyOp48
 70
     1
102
RTVSPropertyOp49
 70
     1
102
RTVSPropertyOp50
 70
     1
102
RTVSPropertyOp51
 70
     0
102
RTVSPropertyOp52
 70
     0
102
RTVSPropertyOp53
 70
     1
102
RTVSPropertyOp54
 70
     1
102
RTVSPropertyOp55
 70
     1
102
RTVSPropertyOp56
 70
     1
102
RTVSPropertyOp57
 70
     1
102
RTVSPost2010Prop28
280
     0
102
RTVSPost2010PropOp28
 70
     1
102
RTVSPost2010Prop29
280
     1
102
RTVSPost2010PropOp29
 70
     1
102
RTVSPost2010Prop30
280
     1
102
RTVSPost2010PropOp30
 70
     1
102
RTVSPost2010Prop31
280
     0
102
RTVSPost2010PropOp31
 70
     1
102
RTVSPost2010Prop32
280
     0
102
RTVSPost2010PropOp32
 70
     1
102
RTVSPost2010Prop33
280
     0
102
RTVSPost2010PropOp33
 70
     1
102
RTVSPost2010Prop34
280
     0
102
RTVSPost2010PropOp34
 70
     1
102
RTVSPost2010Prop35
280
     0
102
RTVSPost2010PropOp35
 70
     1
102
RTVSPost2010Prop36
280
     0
102
RTVSPost2010PropOp36
 70
     1
102
RTVSPost2010Prop37
 90
       50
102
RTVSPost2010PropOp37
 70
     1
102
RTVSPost2010Prop38
140
0.0
102
RTVSPost2010PropOp38
 70
     1
102
RTVSPost2010Prop39
140
1.0
102
RTVSPost2010PropOp39
 70
     1
102
RTVSPost2010Prop40
 90
        0
102
RTVSPost2010PropOp40
 70
     1
102
RTVSPost2010Prop41ColorIndex
 90
       18
102
RTVSPost2010Prop41ColorRGB
 90
        0
102
RTVSPost2010PropOp41
 70
     1
102
RTVSPost2010Prop42
 90
       50
102
RTVSPost2010PropOp42
 70
     1
102
RTVSPost2010Prop43
 90
        3
102
RTVSPost2010PropOp43
 70
     1
102
RTVSPost2010Prop44ColorIndex
 90
        5
102
RTVSPost2010Prop44ColorRGB
 90
      255
102
RTVSPost2010PropOp44
 70
     1
102
RTVSPost2010Prop45
280
     0
102
RTVSPost2010PropOp45
 70
     1
102
RTVSPost2010Prop46
 90
       50
102
RTVSPost2010PropOp46
 70
     1
102
RTVSPost2010Prop47
 90
       50
102
RTVSPost2010PropOp47
 70
     1
102
RTVSPost2010Prop48
 90
       50
102
RTVSPost2010PropOp48
 70
     1
102
RTVSPost2010Prop49
280
     0
102
RTVSPost2010PropOp49
 70
     1
102
RTVSPost2010Prop50
 90
       50
102
RTVSPost2010PropOp50
 70
     1
102
RTVSPost2010Prop51ColorIndex
 90
      256
102
RTVSPost2010Prop51ColorRGB
 90
-16777216
102
RTVSPost2010PropOp51
 70
     0
102
RTVSPost2010Prop52
140
1.0
102
RTVSPost2010PropOp52
 70
     0
102
RTVSPost2010Prop53
 90
        2
102
RTVSPost2010PropOp53
 70
     1
102
RTVSPost2010Prop54
  1
strokes_ogs.tif
102
RTVSPost2010PropOp54
 70
     1
102
RTVSPost2010Prop55
280
     0
102
RTVSPost2010PropOp55
 70
     1
102
RTVSPost2010Prop56
140
1.0
102
RTVSPost2010PropOp56
 70
     1
102
RTVSPost2010Prop57
140
1.0
102
RTVSPost2010PropOp57
 70
     1
  0
XRECORD
  5
400
102
{ACAD_REACTORS
330
3FF
102
}
330
3FF
100
AcDbXrecord
280
     1
102
RTVSPropertyOp0
 70
     0
102
RTVSPropertyOp1
 70
     0
102
RTVSPropertyOp2
 70
     0
102
RTVSPropertyOp3
 70
     0
102
RTVSPropertyOp4
 70
     0
102
RTVSPropertyOp5
 70
     0
102
RTVSPropertyOp6
 70
     0
102
RTVSPropertyOp7
 70
     0
102
RTVSPropertyOp8
 70
     0
102
RTVSPropertyOp9
 70
     0
102
RTVSPropertyOp10
 70
     0
102
RTVSPropertyOp11
 70
     0
102
RTVSPropertyOp12
 70
     0
102
RTVSPropertyOp13
 70
     0
102
RTVSPropertyOp14
 70
     2
102
RTVSPropertyOp15
 70
     0
102
RTVSPropertyOp16
 70
     0
102
RTVSPropertyOp17
 70
     0
102
RTVSPropertyOp18
 70
     0
102
RTVSPropertyOp19
 70
     0
102
RTVSPropertyOp20
 70
     0
102
RTVSPropertyOp21
 70
     0
102
RTVSPropertyOp22
 70
     0
102
RTVSPropertyOp23
 70
     0
102
RTVSPropertyOp24
 70
     0
102
RTVSPropertyOp25
 70
     0
102
RTVSPropertyOp26
 70
     0
102
RTVSPropertyOp27
 70
     0
102
RTVSPropertyOp28
 70
     0
102
RTVSPropertyOp29
 70
     0
102
RTVSPropertyOp30
 70
     0
102
RTVSPropertyOp31
 70
     0
102
RTVSPropertyOp32
 70
     0
102
RTVSPropertyOp33
 70
     0
102
RTVSPropertyOp34
 70
     0
102
RTVSPropertyOp35
 70
     0
102
RTVSPropertyOp36
 70
     0
102
RTVSPropertyOp37
 70
     0
102
RTVSPropertyOp38
 70
     0
102
RTVSPropertyOp39
 70
     0
102
RTVSPropertyOp40
 70
     0
102
RTVSPropertyOp41
 70
     0
102
RTVSPropertyOp42
 70
     0
102
RTVSPropertyOp43
 70
     0
102
RTVSPropertyOp44
 70
     0
102
RTVSPropertyOp45
 70
     0
102
RTVSPropertyOp46
 70
     0
102
RTVSPropertyOp47
 70
     0
102
RTVSPropertyOp48
 70
     0
102
RTVSPropertyOp49
 70
     0
102
RTVSPropertyOp50
 70
     0
102
RTVSPropertyOp51
 70
     0
102
RTVSPropertyOp52
 70
     0
102
RTVSPropertyOp53
 70
     0
102
RTVSPropertyOp54
 70
     0
102
RTVSPropertyOp55
 70
     0
102
RTVSPropertyOp56
 70
     0
102
RTVSPropertyOp57
 70
     0
102
RTVSPost2010Prop28
280
     0
102
RTVSPost2010PropOp28
 70
     0
102
RTVSPost2010Prop29
280
     1
102
RTVSPost2010PropOp29
 70
     0
102
RTVSPost2010Prop30
280
     1
102
RTVSPost2010PropOp30
 70
     0
102
RTVSPost2010Prop31
280
     0
102
RTVSPost2010PropOp31
 70
     0
102
RTVSPost2010Prop32
280
     0
102
RTVSPost2010PropOp32
 70
     0
102
RTVSPost2010Prop33
280
     0
102
RTVSPost2010PropOp33
 70
     0
102
RTVSPost2010Prop34
280
     0
102
RTVSPost2010PropOp34
 70
     0
102
RTVSPost2010Prop35
280
     0
102
RTVSPost2010PropOp35
 70
     0
102
RTVSPost2010Prop36
280
     0
102
RTVSPost2010PropOp36
 70
     0
102
RTVSPost2010Prop37
 90
       50
102
RTVSPost2010PropOp37
 70
     0
102
RTVSPost2010Prop38
140
0.0
102
RTVSPost2010PropOp38
 70
     0
102
RTVSPost2010Prop39
140
1.0
102
RTVSPost2010PropOp39
 70
     0
102
RTVSPost2010Prop40
 90
        0
102
RTVSPost2010PropOp40
 70
     0
102
RTVSPost2010Prop41ColorIndex
 90
       18
102
RTVSPost2010Prop41ColorRGB
 90
        0
102
RTVSPost2010PropOp41
 70
     0
102
RTVSPost2010Prop42
 90
       50
102
RTVSPost2010PropOp42
 70
     0
102
RTVSPost2010Prop43
 90
        3
102
RTVSPost2010PropOp43
 70
     0
102
RTVSPost2010Prop44ColorIndex
 90
        5
102
RTVSPost2010Prop44ColorRGB
 90
      255
102
RTVSPost2010PropOp44
 70
     0
102
RTVSPost2010Prop45
280
     0
102
RTVSPost2010PropOp45
 70
     0
102
RTVSPost2010Prop46
 90
       50
102
RTVSPost2010PropOp46
 70
     0
102
RTVSPost2010Prop47
 90
       50
102
RTVSPost2010PropOp47
 70
     0
102
RTVSPost2010Prop48
 90
       50
102
RTVSPost2010PropOp48
 70
     0
102
RTVSPost2010Prop49
280
     0
102
RTVSPost2010PropOp49
 70
     0
102
RTVSPost2010Prop50
 90
       50
102
RTVSPost2010PropOp50
 70
     0
102
RTVSPost2010Prop51ColorIndex
 90
      256
102
RTVSPost2010Prop51ColorRGB
 90
-16777216
102
RTVSPost2010PropOp51
 70
     0
102
RTVSPost2010Prop52
140
1.0
102
RTVSPost2010PropOp52
 70
     0
102
RTVSPost2010Prop53
 90
        2
102
RTVSPost2010PropOp53
 70
     0
102
RTVSPost2010Prop54
  1
strokes_ogs.tif
102
RTVSPost2010PropOp54
 70
     0
102
RTVSPost2010Prop55
280
     0
102
RTVSPost2010PropOp55
 70
     0
102
RTVSPost2010Prop56
140
1.0
102
RTVSPost2010PropOp56
 70
     0
102
RTVSPost2010Prop57
140
1.0
102
RTVSPost2010PropOp57
 70
     0
  0
XRECORD
  5
3EE
102
{ACAD_REACTORS
330
3ED
102
}
330
3ED
100
AcDbXrecord
280
     1
102
RTVSPropertyOp0
 70
     1
102
RTVSPropertyOp1
 70
     1
102
RTVSPropertyOp2
 70
     1
102
RTVSPropertyOp3
 70
     1
102
RTVSPropertyOp4
 70
     1
102
RTVSPropertyOp5
 70
     1
102
RTVSPropertyOp6
 70
     1
102
RTVSPropertyOp7
 70
     1
102
RTVSPropertyOp8
 70
     1
102
RTVSPropertyOp9
 70
     1
102
RTVSPropertyOp10
 70
     1
102
RTVSPropertyOp11
 70
     1
102
RTVSPropertyOp12
 70
     1
102
RTVSPropertyOp13
 70
     1
102
RTVSPropertyOp14
 70
     1
102
RTVSPropertyOp15
 70
     1
102
RTVSPropertyOp16
 70
     1
102
RTVSPropertyOp17
 70
     1
102
RTVSPropertyOp18
 70
     1
102
RTVSPropertyOp19
 70
     1
102
RTVSPropertyOp20
 70
     1
102
RTVSPropertyOp21
 70
     1
102
RTVSPropertyOp22
 70
     1
102
RTVSPropertyOp23
 70
     1
102
RTVSPropertyOp24
 70
     1
102
RTVSPropertyOp25
 70
     1
102
RTVSPropertyOp26
 70
     1
102
RTVSPropertyOp27
 70
     1
102
RTVSPropertyOp28
 70
     1
102
RTVSPropertyOp29
 70
     1
102
RTVSPropertyOp30
 70
     1
102
RTVSPropertyOp31
 70
     1
102
RTVSPropertyOp32
 70
     1
102
RTVSPropertyOp33
 70
     1
102
RTVSPropertyOp34
 70
     1
102
RTVSPropertyOp35
 70
     1
102
RTVSPropertyOp36
 70
     1
102
RTVSPropertyOp37
 70
     1
102
RTVSPropertyOp38
 70
     1
102
RTVSPropertyOp39
 70
     1
102
RTVSPropertyOp40
 70
     1
102
RTVSPropertyOp41
 70
     1
102
RTVSPropertyOp42
 70
     1
102
RTVSPropertyOp43
 70
     1
102
RTVSPropertyOp44
 70
     1
102
RTVSPropertyOp45
 70
     1
102
RTVSPropertyOp46
 70
     1
102
RTVSPropertyOp47
 70
     1
102
RTVSPropertyOp48
 70
     1
102
RTVSPropertyOp49
 70
     1
102
RTVSPropertyOp50
 70
     1
102
RTVSPropertyOp51
 70
     0
102
RTVSPropertyOp52
 70
     0
102
RTVSPropertyOp53
 70
     1
102
RTVSPropertyOp54
 70
     1
102
RTVSPropertyOp55
 70
     1
102
RTVSPropertyOp56
 70
     1
102
RTVSPropertyOp57
 70
     1
102
RTVSPost2010Prop28
280
     0
102
RTVSPost2010PropOp28
 70
     1
102
RTVSPost2010Prop29
280
     1
102
RTVSPost2010PropOp29
 70
     1
102
RTVSPost2010Prop30
280
     1
102
RTVSPost2010PropOp30
 70
     1
102
RTVSPost2010Prop31
280
     0
102
RTVSPost2010PropOp31
 70
     1
102
RTVSPost2010Prop32
280
     0
102
RTVSPost2010PropOp32
 70
     1
102
RTVSPost2010Prop33
280
     0
102
RTVSPost2010PropOp33
 70
     1
102
RTVSPost2010Prop34
280
     0
102
RTVSPost2010PropOp34
 70
     1
102
RTVSPost2010Prop35
280
     0
102
RTVSPost2010PropOp35
 70
     1
102
RTVSPost2010Prop36
280
     0
102
RTVSPost2010PropOp36
 70
     1
102
RTVSPost2010Prop37
 90
       50
102
RTVSPost2010PropOp37
 70
     1
102
RTVSPost2010Prop38
140
0.0
102
RTVSPost2010PropOp38
 70
     1
102
RTVSPost2010Prop39
140
1.0
102
RTVSPost2010PropOp39
 70
     1
102
RTVSPost2010Prop40
 90
        0
102
RTVSPost2010PropOp40
 70
     1
102
RTVSPost2010Prop41ColorIndex
 90
       18
102
RTVSPost2010Prop41ColorRGB
 90
        0
102
RTVSPost2010PropOp41
 70
     1
102
RTVSPost2010Prop42
 90
       50
102
RTVSPost2010PropOp42
 70
     1
102
RTVSPost2010Prop43
 90
        3
102
RTVSPost2010PropOp43
 70
     1
102
RTVSPost2010Prop44ColorIndex
 90
        5
102
RTVSPost2010Prop44ColorRGB
 90
      255
102
RTVSPost2010PropOp44
 70
     1
102
RTVSPost2010Prop45
280
     0
102
RTVSPost2010PropOp45
 70
     1
102
RTVSPost2010Prop46
 90
       50
102
RTVSPost2010PropOp46
 70
     1
102
RTVSPost2010Prop47
 90
       50
102
RTVSPost2010PropOp47
 70
     1
102
RTVSPost2010Prop48
 90
       50
102
RTVSPost2010PropOp48
 70
     1
102
RTVSPost2010Prop49
280
     0
102
RTVSPost2010PropOp49
 70
     1
102
RTVSPost2010Prop50
 90
       50
102
RTVSPost2010PropOp50
 70
     1
102
RTVSPost2010Prop51ColorIndex
 90
      256
102
RTVSPost2010Prop51ColorRGB
 90
-16777216
102
RTVSPost2010PropOp51
 70
     0
102
RTVSPost2010Prop52
140
1.0
102
RTVSPost2010PropOp52
 70
     0
102
RTVSPost2010Prop53
 90
        2
102
RTVSPost2010PropOp53
 70
     1
102
RTVSPost2010Prop54
  1
strokes_ogs.tif
102
RTVSPost2010PropOp54
 70
     1
102
RTVSPost2010Prop55
280
     0
102
RTVSPost2010PropOp55
 70
     1
102
RTVSPost2010Prop56
140
1.0
102
RTVSPost2010PropOp56
 70
     1
102
RTVSPost2010Prop57
140
1.0
102
RTVSPost2010PropOp57
 70
     1
  0
XRECORD
  5
40C
102
{ACAD_REACTORS
330
40B
102
}
330
40B
100
AcDbXrecord
280
     1
102
RTVSPropertyOp0
 70
     1
102
RTVSPropertyOp1
 70
     1
102
RTVSPropertyOp2
 70
     1
102
RTVSPropertyOp3
 70
     1
102
RTVSPropertyOp4
 70
     1
102
RTVSPropertyOp5
 70
     1
102
RTVSPropertyOp6
 70
     1
102
RTVSPropertyOp7
 70
     1
102
RTVSPropertyOp8
 70
     1
102
RTVSPropertyOp9
 70
     1
102
RTVSPropertyOp10
 70
     1
102
RTVSPropertyOp11
 70
     1
102
RTVSPropertyOp12
 70
     1
102
RTVSPropertyOp13
 70
     1
102
RTVSPropertyOp14
 70
     1
102
RTVSPropertyOp15
 70
     1
102
RTVSPropertyOp16
 70
     1
102
RTVSPropertyOp17
 70
     1
102
RTVSPropertyOp18
 70
     1
102
RTVSPropertyOp19
 70
     1
102
RTVSPropertyOp20
 70
     1
102
RTVSPropertyOp21
 70
     1
102
RTVSPropertyOp22
 70
     1
102
RTVSPropertyOp23
 70
     1
102
RTVSPropertyOp24
 70
     1
102
RTVSPropertyOp25
 70
     1
102
RTVSPropertyOp26
 70
     1
102
RTVSPropertyOp27
 70
     1
102
RTVSPropertyOp28
 70
     1
102
RTVSPropertyOp29
 70
     1
102
RTVSPropertyOp30
 70
     1
102
RTVSPropertyOp31
 70
     1
102
RTVSPropertyOp32
 70
     1
102
RTVSPropertyOp33
 70
     1
102
RTVSPropertyOp34
 70
     1
102
RTVSPropertyOp35
 70
     1
102
RTVSPropertyOp36
 70
     1
102
RTVSPropertyOp37
 70
     1
102
RTVSPropertyOp38
 70
     1
102
RTVSPropertyOp39
 70
     1
102
RTVSPropertyOp40
 70
     1
102
RTVSPropertyOp41
 70
     1
102
RTVSPropertyOp42
 70
     1
102
RTVSPropertyOp43
 70
     1
102
RTVSPropertyOp44
 70
     1
102
RTVSPropertyOp45
 70
     1
102
RTVSPropertyOp46
 70
     1
102
RTVSPropertyOp47
 70
     1
102
RTVSPropertyOp48
 70
     1
102
RTVSPropertyOp49
 70
     1
102
RTVSPropertyOp50
 70
     1
102
RTVSPropertyOp51
 70
     0
102
RTVSPropertyOp52
 70
     0
102
RTVSPropertyOp53
 70
     1
102
RTVSPropertyOp54
 70
     1
102
RTVSPropertyOp55
 70
     1
102
RTVSPropertyOp56
 70
     1
102
RTVSPropertyOp57
 70
     1
102
RTVSPost2010Prop28
280
     0
102
RTVSPost2010PropOp28
 70
     1
102
RTVSPost2010Prop29
280
     1
102
RTVSPost2010PropOp29
 70
     1
102
RTVSPost2010Prop30
280
     1
102
RTVSPost2010PropOp30
 70
     1
102
RTVSPost2010Prop31
280
     0
102
RTVSPost2010PropOp31
 70
     1
102
RTVSPost2010Prop32
280
     0
102
RTVSPost2010PropOp32
 70
     1
102
RTVSPost2010Prop33
280
     0
102
RTVSPost2010PropOp33
 70
     1
102
RTVSPost2010Prop34
280
     0
102
RTVSPost2010PropOp34
 70
     1
102
RTVSPost2010Prop35
280
     0
102
RTVSPost2010PropOp35
 70
     1
102
RTVSPost2010Prop36
280
     0
102
RTVSPost2010PropOp36
 70
     1
102
RTVSPost2010Prop37
 90
       50
102
RTVSPost2010PropOp37
 70
     1
102
RTVSPost2010Prop38
140
0.0
102
RTVSPost2010PropOp38
 70
     1
102
RTVSPost2010Prop39
140
1.0
102
RTVSPost2010PropOp39
 70
     1
102
RTVSPost2010Prop40
 90
        0
102
RTVSPost2010PropOp40
 70
     1
102
RTVSPost2010Prop41ColorIndex
 90
       18
102
RTVSPost2010Prop41ColorRGB
 90
        0
102
RTVSPost2010PropOp41
 70
     1
102
RTVSPost2010Prop42
 90
       50
102
RTVSPost2010PropOp42
 70
     1
102
RTVSPost2010Prop43
 90
        3
102
RTVSPost2010PropOp43
 70
     1
102
RTVSPost2010Prop44ColorIndex
 90
        5
102
RTVSPost2010Prop44ColorRGB
 90
      255
102
RTVSPost2010PropOp44
 70
     1
102
RTVSPost2010Prop45
280
     0
102
RTVSPost2010PropOp45
 70
     1
102
RTVSPost2010Prop46
 90
       50
102
RTVSPost2010PropOp46
 70
     1
102
RTVSPost2010Prop47
 90
       50
102
RTVSPost2010PropOp47
 70
     1
102
RTVSPost2010Prop48
 90
       50
102
RTVSPost2010PropOp48
 70
     1
102
RTVSPost2010Prop49
280
     0
102
RTVSPost2010PropOp49
 70
     1
102
RTVSPost2010Prop50
 90
       50
102
RTVSPost2010PropOp50
 70
     1
102
RTVSPost2010Prop51ColorIndex
 90
      256
102
RTVSPost2010Prop51ColorRGB
 90
-16777216
102
RTVSPost2010PropOp51
 70
     0
102
RTVSPost2010Prop52
140
1.0
102
RTVSPost2010PropOp52
 70
     0
102
RTVSPost2010Prop53
 90
        2
102
RTVSPost2010PropOp53
 70
     1
102
RTVSPost2010Prop54
  1
strokes_ogs.tif
102
RTVSPost2010PropOp54
 70
     1
102
RTVSPost2010Prop55
280
     0
102
RTVSPost2010PropOp55
 70
     1
102
RTVSPost2010Prop56
140
1.0
102
RTVSPost2010PropOp56
 70
     1
102
RTVSPost2010Prop57
140
1.0
102
RTVSPost2010PropOp57
 70
     1
  0
XRECORD
  5
40A
102
{ACAD_REACTORS
330
409
102
}
330
409
100
AcDbXrecord
280
     1
102
RTVSPropertyOp0
 70
     1
102
RTVSPropertyOp1
 70
     1
102
RTVSPropertyOp2
 70
     1
102
RTVSPropertyOp3
 70
     1
102
RTVSPropertyOp4
 70
     1
102
RTVSPropertyOp5
 70
     1
102
RTVSPropertyOp6
 70
     1
102
RTVSPropertyOp7
 70
     1
102
RTVSPropertyOp8
 70
     1
102
RTVSPropertyOp9
 70
     1
102
RTVSPropertyOp10
 70
     1
102
RTVSPropertyOp11
 70
     1
102
RTVSPropertyOp12
 70
     1
102
RTVSPropertyOp13
 70
     1
102
RTVSPropertyOp14
 70
     1
102
RTVSPropertyOp15
 70
     1
102
RTVSPropertyOp16
 70
     1
102
RTVSPropertyOp17
 70
     1
102
RTVSPropertyOp18
 70
     1
102
RTVSPropertyOp19
 70
     1
102
RTVSPropertyOp20
 70
     1
102
RTVSPropertyOp21
 70
     1
102
RTVSPropertyOp22
 70
     1
102
RTVSPropertyOp23
 70
     1
102
RTVSPropertyOp24
 70
     1
102
RTVSPropertyOp25
 70
     1
102
RTVSPropertyOp26
 70
     1
102
RTVSPropertyOp27
 70
     1
102
RTVSPropertyOp28
 70
     1
102
RTVSPropertyOp29
 70
     1
102
RTVSPropertyOp30
 70
     1
102
RTVSPropertyOp31
 70
     1
102
RTVSPropertyOp32
 70
     1
102
RTVSPropertyOp33
 70
     1
102
RTVSPropertyOp34
 70
     1
102
RTVSPropertyOp35
 70
     1
102
RTVSPropertyOp36
 70
     1
102
RTVSPropertyOp37
 70
     1
102
RTVSPropertyOp38
 70
     1
102
RTVSPropertyOp39
 70
     1
102
RTVSPropertyOp40
 70
     1
102
RTVSPropertyOp41
 70
     1
102
RTVSPropertyOp42
 70
     1
102
RTVSPropertyOp43
 70
     1
102
RTVSPropertyOp44
 70
     1
102
RTVSPropertyOp45
 70
     1
102
RTVSPropertyOp46
 70
     1
102
RTVSPropertyOp47
 70
     1
102
RTVSPropertyOp48
 70
     1
102
RTVSPropertyOp49
 70
     1
102
RTVSPropertyOp50
 70
     1
102
RTVSPropertyOp51
 70
     0
102
RTVSPropertyOp52
 70
     0
102
RTVSPropertyOp53
 70
     1
102
RTVSPropertyOp54
 70
     1
102
RTVSPropertyOp55
 70
     1
102
RTVSPropertyOp56
 70
     1
102
RTVSPropertyOp57
 70
     1
102
RTVSPost2010Prop28
280
     0
102
RTVSPost2010PropOp28
 70
     1
102
RTVSPost2010Prop29
280
     1
102
RTVSPost2010PropOp29
 70
     1
102
RTVSPost2010Prop30
280
     1
102
RTVSPost2010PropOp30
 70
     1
102
RTVSPost2010Prop31
280
     0
102
RTVSPost2010PropOp31
 70
     1
102
RTVSPost2010Prop32
280
     0
102
RTVSPost2010PropOp32
 70
     1
102
RTVSPost2010Prop33
280
     0
102
RTVSPost2010PropOp33
 70
     1
102
RTVSPost2010Prop34
280
     0
102
RTVSPost2010PropOp34
 70
     1
102
RTVSPost2010Prop35
280
     0
102
RTVSPost2010PropOp35
 70
     1
102
RTVSPost2010Prop36
280
     0
102
RTVSPost2010PropOp36
 70
     1
102
RTVSPost2010Prop37
 90
       50
102
RTVSPost2010PropOp37
 70
     1
102
RTVSPost2010Prop38
140
0.0
102
RTVSPost2010PropOp38
 70
     1
102
RTVSPost2010Prop39
140
1.0
102
RTVSPost2010PropOp39
 70
     1
102
RTVSPost2010Prop40
 90
        0
102
RTVSPost2010PropOp40
 70
     1
102
RTVSPost2010Prop41ColorIndex
 90
       18
102
RTVSPost2010Prop41ColorRGB
 90
        0
102
RTVSPost2010PropOp41
 70
     1
102
RTVSPost2010Prop42
 90
       50
102
RTVSPost2010PropOp42
 70
     1
102
RTVSPost2010Prop43
 90
        3
102
RTVSPost2010PropOp43
 70
     1
102
RTVSPost2010Prop44ColorIndex
 90
        5
102
RTVSPost2010Prop44ColorRGB
 90
      255
102
RTVSPost2010PropOp44
 70
     1
102
RTVSPost2010Prop45
280
     0
102
RTVSPost2010PropOp45
 70
     1
102
RTVSPost2010Prop46
 90
       50
102
RTVSPost2010PropOp46
 70
     1
102
RTVSPost2010Prop47
 90
       50
102
RTVSPost2010PropOp47
 70
     1
102
RTVSPost2010Prop48
 90
       50
102
RTVSPost2010PropOp48
 70
     1
102
RTVSPost2010Prop49
280
     0
102
RTVSPost2010PropOp49
 70
     1
102
RTVSPost2010Prop50
 90
       50
102
RTVSPost2010PropOp50
 70
     1
102
RTVSPost2010Prop51ColorIndex
 90
      256
102
RTVSPost2010Prop51ColorRGB
 90
-16777216
102
RTVSPost2010PropOp51
 70
     0
102
RTVSPost2010Prop52
140
1.0
102
RTVSPost2010PropOp52
 70
     0
102
RTVSPost2010Prop53
 90
        2
102
RTVSPost2010PropOp53
 70
     1
102
RTVSPost2010Prop54
  1
strokes_ogs.tif
102
RTVSPost2010PropOp54
 70
     1
102
RTVSPost2010Prop55
280
     0
102
RTVSPost2010PropOp55
 70
     1
102
RTVSPost2010Prop56
140
1.0
102
RTVSPost2010PropOp56
 70
     1
102
RTVSPost2010Prop57
140
1.0
102
RTVSPost2010PropOp57
 70
     1
  0
XRECORD
  5
404
102
{ACAD_REACTORS
330
403
102
}
330
403
100
AcDbXrecord
280
     1
102
RTVSPropertyOp0
 70
     1
102
RTVSPropertyOp1
 70
     1
102
RTVSPropertyOp2
 70
     1
102
RTVSPropertyOp3
 70
     1
102
RTVSPropertyOp4
 70
     1
102
RTVSPropertyOp5
 70
     1
102
RTVSPropertyOp6
 70
     1
102
RTVSPropertyOp7
 70
     1
102
RTVSPropertyOp8
 70
     1
102
RTVSPropertyOp9
 70
     1
102
RTVSPropertyOp10
 70
     1
102
RTVSPropertyOp11
 70
     1
102
RTVSPropertyOp12
 70
     1
102
RTVSPropertyOp13
 70
     1
102
RTVSPropertyOp14
 70
     1
102
RTVSPropertyOp15
 70
     1
102
RTVSPropertyOp16
 70
     1
102
RTVSPropertyOp17
 70
     1
102
RTVSPropertyOp18
 70
     1
102
RTVSPropertyOp19
 70
     1
102
RTVSPropertyOp20
 70
     1
102
RTVSPropertyOp21
 70
     1
102
RTVSPropertyOp22
 70
     1
102
RTVSPropertyOp23
 70
     1
102
RTVSPropertyOp24
 70
     1
102
RTVSPropertyOp25
 70
     1
102
RTVSPropertyOp26
 70
     1
102
RTVSPropertyOp27
 70
     1
102
RTVSPropertyOp28
 70
     1
102
RTVSPropertyOp29
 70
     1
102
RTVSPropertyOp30
 70
     1
102
RTVSPropertyOp31
 70
     1
102
RTVSPropertyOp32
 70
     1
102
RTVSPropertyOp33
 70
     1
102
RTVSPropertyOp34
 70
     1
102
RTVSPropertyOp35
 70
     1
102
RTVSPropertyOp36
 70
     1
102
RTVSPropertyOp37
 70
     1
102
RTVSPropertyOp38
 70
     1
102
RTVSPropertyOp39
 70
     1
102
RTVSPropertyOp40
 70
     1
102
RTVSPropertyOp41
 70
     1
102
RTVSPropertyOp42
 70
     1
102
RTVSPropertyOp43
 70
     1
102
RTVSPropertyOp44
 70
     1
102
RTVSPropertyOp45
 70
     1
102
RTVSPropertyOp46
 70
     1
102
RTVSPropertyOp47
 70
     1
102
RTVSPropertyOp48
 70
     1
102
RTVSPropertyOp49
 70
     1
102
RTVSPropertyOp50
 70
     1
102
RTVSPropertyOp51
 70
     0
102
RTVSPropertyOp52
 70
     0
102
RTVSPropertyOp53
 70
     1
102
RTVSPropertyOp54
 70
     1
102
RTVSPropertyOp55
 70
     1
102
RTVSPropertyOp56
 70
     1
102
RTVSPropertyOp57
 70
     1
102
RTVSPost2010Prop28
280
     0
102
RTVSPost2010PropOp28
 70
     1
102
RTVSPost2010Prop29
280
     1
102
RTVSPost2010PropOp29
 70
     1
102
RTVSPost2010Prop30
280
     1
102
RTVSPost2010PropOp30
 70
     1
102
RTVSPost2010Prop31
280
     0
102
RTVSPost2010PropOp31
 70
     1
102
RTVSPost2010Prop32
280
     0
102
RTVSPost2010PropOp32
 70
     1
102
RTVSPost2010Prop33
280
     0
102
RTVSPost2010PropOp33
 70
     1
102
RTVSPost2010Prop34
280
     0
102
RTVSPost2010PropOp34
 70
     1
102
RTVSPost2010Prop35
280
     0
102
RTVSPost2010PropOp35
 70
     1
102
RTVSPost2010Prop36
280
     0
102
RTVSPost2010PropOp36
 70
     1
102
RTVSPost2010Prop37
 90
       50
102
RTVSPost2010PropOp37
 70
     1
102
RTVSPost2010Prop38
140
0.0
102
RTVSPost2010PropOp38
 70
     1
102
RTVSPost2010Prop39
140
1.0
102
RTVSPost2010PropOp39
 70
     1
102
RTVSPost2010Prop40
 90
        0
102
RTVSPost2010PropOp40
 70
     1
102
RTVSPost2010Prop41ColorIndex
 90
       18
102
RTVSPost2010Prop41ColorRGB
 90
        0
102
RTVSPost2010PropOp41
 70
     1
102
RTVSPost2010Prop42
 90
       50
102
RTVSPost2010PropOp42
 70
     1
102
RTVSPost2010Prop43
 90
        3
102
RTVSPost2010PropOp43
 70
     1
102
RTVSPost2010Prop44ColorIndex
 90
        5
102
RTVSPost2010Prop44ColorRGB
 90
      255
102
RTVSPost2010PropOp44
 70
     1
102
RTVSPost2010Prop45
280
     0
102
RTVSPost2010PropOp45
 70
     1
102
RTVSPost2010Prop46
 90
       50
102
RTVSPost2010PropOp46
 70
     1
102
RTVSPost2010Prop47
 90
       50
102
RTVSPost2010PropOp47
 70
     1
102
RTVSPost2010Prop48
 90
       50
102
RTVSPost2010PropOp48
 70
     1
102
RTVSPost2010Prop49
280
     0
102
RTVSPost2010PropOp49
 70
     1
102
RTVSPost2010Prop50
 90
       50
102
RTVSPost2010PropOp50
 70
     1
102
RTVSPost2010Prop51ColorIndex
 90
      256
102
RTVSPost2010Prop51ColorRGB
 90
-16777216
102
RTVSPost2010PropOp51
 70
     0
102
RTVSPost2010Prop52
140
1.0
102
RTVSPost2010PropOp52
 70
     0
102
RTVSPost2010Prop53
 90
        2
102
RTVSPost2010PropOp53
 70
     1
102
RTVSPost2010Prop54
  1
strokes_ogs.tif
102
RTVSPost2010PropOp54
 70
     1
102
RTVSPost2010Prop55
280
     0
102
RTVSPost2010PropOp55
 70
     1
102
RTVSPost2010Prop56
140
1.0
102
RTVSPost2010PropOp56
 70
     1
102
RTVSPost2010Prop57
140
1.0
102
RTVSPost2010PropOp57
 70
     1
  0
XRECORD
  5
406
102
{ACAD_REACTORS
330
405
102
}
330
405
100
AcDbXrecord
280
     1
102
RTVSPropertyOp0
 70
     1
102
RTVSPropertyOp1
 70
     1
102
RTVSPropertyOp2
 70
     1
102
RTVSPropertyOp3
 70
     1
102
RTVSPropertyOp4
 70
     1
102
RTVSPropertyOp5
 70
     1
102
RTVSPropertyOp6
 70
     1
102
RTVSPropertyOp7
 70
     1
102
RTVSPropertyOp8
 70
     1
102
RTVSPropertyOp9
 70
     1
102
RTVSPropertyOp10
 70
     1
102
RTVSPropertyOp11
 70
     1
102
RTVSPropertyOp12
 70
     1
102
RTVSPropertyOp13
 70
     1
102
RTVSPropertyOp14
 70
     1
102
RTVSPropertyOp15
 70
     1
102
RTVSPropertyOp16
 70
     1
102
RTVSPropertyOp17
 70
     1
102
RTVSPropertyOp18
 70
     1
102
RTVSPropertyOp19
 70
     1
102
RTVSPropertyOp20
 70
     1
102
RTVSPropertyOp21
 70
     1
102
RTVSPropertyOp22
 70
     1
102
RTVSPropertyOp23
 70
     1
102
RTVSPropertyOp24
 70
     1
102
RTVSPropertyOp25
 70
     1
102
RTVSPropertyOp26
 70
     1
102
RTVSPropertyOp27
 70
     1
102
RTVSPropertyOp28
 70
     1
102
RTVSPropertyOp29
 70
     1
102
RTVSPropertyOp30
 70
     1
102
RTVSPropertyOp31
 70
     1
102
RTVSPropertyOp32
 70
     1
102
RTVSPropertyOp33
 70
     1
102
RTVSPropertyOp34
 70
     1
102
RTVSPropertyOp35
 70
     1
102
RTVSPropertyOp36
 70
     1
102
RTVSPropertyOp37
 70
     1
102
RTVSPropertyOp38
 70
     1
102
RTVSPropertyOp39
 70
     1
102
RTVSPropertyOp40
 70
     1
102
RTVSPropertyOp41
 70
     1
102
RTVSPropertyOp42
 70
     1
102
RTVSPropertyOp43
 70
     1
102
RTVSPropertyOp44
 70
     1
102
RTVSPropertyOp45
 70
     1
102
RTVSPropertyOp46
 70
     1
102
RTVSPropertyOp47
 70
     1
102
RTVSPropertyOp48
 70
     1
102
RTVSPropertyOp49
 70
     1
102
RTVSPropertyOp50
 70
     1
102
RTVSPropertyOp51
 70
     0
102
RTVSPropertyOp52
 70
     0
102
RTVSPropertyOp53
 70
     1
102
RTVSPropertyOp54
 70
     1
102
RTVSPropertyOp55
 70
     1
102
RTVSPropertyOp56
 70
     1
102
RTVSPropertyOp57
 70
     1
102
RTVSPost2010Prop28
280
     0
102
RTVSPost2010PropOp28
 70
     1
102
RTVSPost2010Prop29
280
     1
102
RTVSPost2010PropOp29
 70
     1
102
RTVSPost2010Prop30
280
     1
102
RTVSPost2010PropOp30
 70
     1
102
RTVSPost2010Prop31
280
     0
102
RTVSPost2010PropOp31
 70
     1
102
RTVSPost2010Prop32
280
     0
102
RTVSPost2010PropOp32
 70
     1
102
RTVSPost2010Prop33
280
     0
102
RTVSPost2010PropOp33
 70
     1
102
RTVSPost2010Prop34
280
     0
102
RTVSPost2010PropOp34
 70
     1
102
RTVSPost2010Prop35
280
     0
102
RTVSPost2010PropOp35
 70
     1
102
RTVSPost2010Prop36
280
     0
102
RTVSPost2010PropOp36
 70
     1
102
RTVSPost2010Prop37
 90
       50
102
RTVSPost2010PropOp37
 70
     1
102
RTVSPost2010Prop38
140
0.0
102
RTVSPost2010PropOp38
 70
     1
102
RTVSPost2010Prop39
140
1.0
102
RTVSPost2010PropOp39
 70
     1
102
RTVSPost2010Prop40
 90
        0
102
RTVSPost2010PropOp40
 70
     1
102
RTVSPost2010Prop41ColorIndex
 90
       18
102
RTVSPost2010Prop41ColorRGB
 90
        0
102
RTVSPost2010PropOp41
 70
     1
102
RTVSPost2010Prop42
 90
       50
102
RTVSPost2010PropOp42
 70
     1
102
RTVSPost2010Prop43
 90
        3
102
RTVSPost2010PropOp43
 70
     1
102
RTVSPost2010Prop44ColorIndex
 90
        5
102
RTVSPost2010Prop44ColorRGB
 90
      255
102
RTVSPost2010PropOp44
 70
     1
102
RTVSPost2010Prop45
280
     0
102
RTVSPost2010PropOp45
 70
     1
102
RTVSPost2010Prop46
 90
       50
102
RTVSPost2010PropOp46
 70
     1
102
RTVSPost2010Prop47
 90
       50
102
RTVSPost2010PropOp47
 70
     1
102
RTVSPost2010Prop48
 90
       50
102
RTVSPost2010PropOp48
 70
     1
102
RTVSPost2010Prop49
280
     0
102
RTVSPost2010PropOp49
 70
     1
102
RTVSPost2010Prop50
 90
       50
102
RTVSPost2010PropOp50
 70
     1
102
RTVSPost2010Prop51ColorIndex
 90
      256
102
RTVSPost2010Prop51ColorRGB
 90
-16777216
102
RTVSPost2010PropOp51
 70
     0
102
RTVSPost2010Prop52
140
1.0
102
RTVSPost2010PropOp52
 70
     0
102
RTVSPost2010Prop53
 90
        2
102
RTVSPost2010PropOp53
 70
     1
102
RTVSPost2010Prop54
  1
strokes_ogs.tif
102
RTVSPost2010PropOp54
 70
     1
102
RTVSPost2010Prop55
280
     0
102
RTVSPost2010PropOp55
 70
     1
102
RTVSPost2010Prop56
140
1.0
102
RTVSPost2010PropOp56
 70
     1
102
RTVSPost2010Prop57
140
1.0
102
RTVSPost2010PropOp57
 70
     1
  0
XRECORD
  5
3F6
102
{ACAD_REACTORS
330
3F5
102
}
330
3F5
100
AcDbXrecord
280
     1
102
RTVSPropertyOp0
 70
     1
102
RTVSPropertyOp1
 70
     1
102
RTVSPropertyOp2
 70
     1
102
RTVSPropertyOp3
 70
     1
102
RTVSPropertyOp4
 70
     1
102
RTVSPropertyOp5
 70
     1
102
RTVSPropertyOp6
 70
     1
102
RTVSPropertyOp7
 70
     1
102
RTVSPropertyOp8
 70
     1
102
RTVSPropertyOp9
 70
     1
102
RTVSPropertyOp10
 70
     1
102
RTVSPropertyOp11
 70
     1
102
RTVSPropertyOp12
 70
     1
102
RTVSPropertyOp13
 70
     1
102
RTVSPropertyOp14
 70
     1
102
RTVSPropertyOp15
 70
     1
102
RTVSPropertyOp16
 70
     1
102
RTVSPropertyOp17
 70
     1
102
RTVSPropertyOp18
 70
     1
102
RTVSPropertyOp19
 70
     1
102
RTVSPropertyOp20
 70
     1
102
RTVSPropertyOp21
 70
     1
102
RTVSPropertyOp22
 70
     1
102
RTVSPropertyOp23
 70
     1
102
RTVSPropertyOp24
 70
     1
102
RTVSPropertyOp25
 70
     1
102
RTVSPropertyOp26
 70
     1
102
RTVSPropertyOp27
 70
     1
102
RTVSPropertyOp28
 70
     1
102
RTVSPropertyOp29
 70
     1
102
RTVSPropertyOp30
 70
     1
102
RTVSPropertyOp31
 70
     1
102
RTVSPropertyOp32
 70
     1
102
RTVSPropertyOp33
 70
     1
102
RTVSPropertyOp34
 70
     1
102
RTVSPropertyOp35
 70
     1
102
RTVSPropertyOp36
 70
     1
102
RTVSPropertyOp37
 70
     1
102
RTVSPropertyOp38
 70
     1
102
RTVSPropertyOp39
 70
     1
102
RTVSPropertyOp40
 70
     1
102
RTVSPropertyOp41
 70
     1
102
RTVSPropertyOp42
 70
     1
102
RTVSPropertyOp43
 70
     1
102
RTVSPropertyOp44
 70
     1
102
RTVSPropertyOp45
 70
     1
102
RTVSPropertyOp46
 70
     1
102
RTVSPropertyOp47
 70
     1
102
RTVSPropertyOp48
 70
     1
102
RTVSPropertyOp49
 70
     1
102
RTVSPropertyOp50
 70
     1
102
RTVSPropertyOp51
 70
     0
102
RTVSPropertyOp52
 70
     0
102
RTVSPropertyOp53
 70
     1
102
RTVSPropertyOp54
 70
     1
102
RTVSPropertyOp55
 70
     1
102
RTVSPropertyOp56
 70
     1
102
RTVSPropertyOp57
 70
     1
102
RTVSPost2010Prop28
280
     0
102
RTVSPost2010PropOp28
 70
     1
102
RTVSPost2010Prop29
280
     1
102
RTVSPost2010PropOp29
 70
     1
102
RTVSPost2010Prop30
280
     1
102
RTVSPost2010PropOp30
 70
     1
102
RTVSPost2010Prop31
280
     0
102
RTVSPost2010PropOp31
 70
     1
102
RTVSPost2010Prop32
280
     0
102
RTVSPost2010PropOp32
 70
     1
102
RTVSPost2010Prop33
280
     0
102
RTVSPost2010PropOp33
 70
     1
102
RTVSPost2010Prop34
280
     0
102
RTVSPost2010PropOp34
 70
     1
102
RTVSPost2010Prop35
280
     0
102
RTVSPost2010PropOp35
 70
     1
102
RTVSPost2010Prop36
280
     0
102
RTVSPost2010PropOp36
 70
     1
102
RTVSPost2010Prop37
 90
       50
102
RTVSPost2010PropOp37
 70
     1
102
RTVSPost2010Prop38
140
0.0
102
RTVSPost2010PropOp38
 70
     1
102
RTVSPost2010Prop39
140
1.0
102
RTVSPost2010PropOp39
 70
     1
102
RTVSPost2010Prop40
 90
        0
102
RTVSPost2010PropOp40
 70
     1
102
RTVSPost2010Prop41ColorIndex
 90
       18
102
RTVSPost2010Prop41ColorRGB
 90
        0
102
RTVSPost2010PropOp41
 70
     1
102
RTVSPost2010Prop42
 90
       50
102
RTVSPost2010PropOp42
 70
     1
102
RTVSPost2010Prop43
 90
        3
102
RTVSPost2010PropOp43
 70
     1
102
RTVSPost2010Prop44ColorIndex
 90
        5
102
RTVSPost2010Prop44ColorRGB
 90
      255
102
RTVSPost2010PropOp44
 70
     1
102
RTVSPost2010Prop45
280
     0
102
RTVSPost2010PropOp45
 70
     1
102
RTVSPost2010Prop46
 90
       50
102
RTVSPost2010PropOp46
 70
     1
102
RTVSPost2010Prop47
 90
       50
102
RTVSPost2010PropOp47
 70
     1
102
RTVSPost2010Prop48
 90
       50
102
RTVSPost2010PropOp48
 70
     1
102
RTVSPost2010Prop49
280
     0
102
RTVSPost2010PropOp49
 70
     1
102
RTVSPost2010Prop50
 90
       50
102
RTVSPost2010PropOp50
 70
     1
102
RTVSPost2010Prop51ColorIndex
 90
      256
102
RTVSPost2010Prop51ColorRGB
 90
-16777216
102
RTVSPost2010PropOp51
 70
     0
102
RTVSPost2010Prop52
140
1.0
102
RTVSPost2010PropOp52
 70
     0
102
RTVSPost2010Prop53
 90
        2
102
RTVSPost2010PropOp53
 70
     1
102
RTVSPost2010Prop54
  1
strokes_ogs.tif
102
RTVSPost2010PropOp54
 70
     1
102
RTVSPost2010Prop55
280
     0
102
RTVSPost2010PropOp55
 70
     1
102
RTVSPost2010Prop56
140
1.0
102
RTVSPost2010PropOp56
 70
     1
102
RTVSPost2010Prop57
140
1.0
102
RTVSPost2010PropOp57
 70
     1
  0
XRECORD
  5
3E8
102
{ACAD_REACTORS
330
3E7
102
}
330
3E7
100
AcDbXrecord
280
     1
102
RTVSPropertyOp0
 70
     1
102
RTVSPropertyOp1
 70
     1
102
RTVSPropertyOp2
 70
     1
102
RTVSPropertyOp3
 70
     1
102
RTVSPropertyOp4
 70
     1
102
RTVSPropertyOp5
 70
     1
102
RTVSPropertyOp6
 70
     1
102
RTVSPropertyOp7
 70
     1
102
RTVSPropertyOp8
 70
     1
102
RTVSPropertyOp9
 70
     1
102
RTVSPropertyOp10
 70
     1
102
RTVSPropertyOp11
 70
     1
102
RTVSPropertyOp12
 70
     1
102
RTVSPropertyOp13
 70
     1
102
RTVSPropertyOp14
 70
     1
102
RTVSPropertyOp15
 70
     1
102
RTVSPropertyOp16
 70
     1
102
RTVSPropertyOp17
 70
     1
102
RTVSPropertyOp18
 70
     1
102
RTVSPropertyOp19
 70
     1
102
RTVSPropertyOp20
 70
     1
102
RTVSPropertyOp21
 70
     1
102
RTVSPropertyOp22
 70
     1
102
RTVSPropertyOp23
 70
     1
102
RTVSPropertyOp24
 70
     1
102
RTVSPropertyOp25
 70
     1
102
RTVSPropertyOp26
 70
     1
102
RTVSPropertyOp27
 70
     1
102
RTVSPropertyOp28
 70
     1
102
RTVSPropertyOp29
 70
     1
102
RTVSPropertyOp30
 70
     1
102
RTVSPropertyOp31
 70
     1
102
RTVSPropertyOp32
 70
     1
102
RTVSPropertyOp33
 70
     1
102
RTVSPropertyOp34
 70
     1
102
RTVSPropertyOp35
 70
     1
102
RTVSPropertyOp36
 70
     1
102
RTVSPropertyOp37
 70
     1
102
RTVSPropertyOp38
 70
     1
102
RTVSPropertyOp39
 70
     1
102
RTVSPropertyOp40
 70
     1
102
RTVSPropertyOp41
 70
     1
102
RTVSPropertyOp42
 70
     1
102
RTVSPropertyOp43
 70
     1
102
RTVSPropertyOp44
 70
     1
102
RTVSPropertyOp45
 70
     1
102
RTVSPropertyOp46
 70
     1
102
RTVSPropertyOp47
 70
     1
102
RTVSPropertyOp48
 70
     1
102
RTVSPropertyOp49
 70
     1
102
RTVSPropertyOp50
 70
     1
102
RTVSPropertyOp51
 70
     0
102
RTVSPropertyOp52
 70
     0
102
RTVSPropertyOp53
 70
     1
102
RTVSPropertyOp54
 70
     1
102
RTVSPropertyOp55
 70
     1
102
RTVSPropertyOp56
 70
     1
102
RTVSPropertyOp57
 70
     1
102
RTVSPost2010Prop28
280
     0
102
RTVSPost2010PropOp28
 70
     1
102
RTVSPost2010Prop29
280
     1
102
RTVSPost2010PropOp29
 70
     1
102
RTVSPost2010Prop30
280
     1
102
RTVSPost2010PropOp30
 70
     1
102
RTVSPost2010Prop31
280
     0
102
RTVSPost2010PropOp31
 70
     1
102
RTVSPost2010Prop32
280
     0
102
RTVSPost2010PropOp32
 70
     1
102
RTVSPost2010Prop33
280
     0
102
RTVSPost2010PropOp33
 70
     1
102
RTVSPost2010Prop34
280
     0
102
RTVSPost2010PropOp34
 70
     1
102
RTVSPost2010Prop35
280
     0
102
RTVSPost2010PropOp35
 70
     1
102
RTVSPost2010Prop36
280
     0
102
RTVSPost2010PropOp36
 70
     1
102
RTVSPost2010Prop37
 90
       50
102
RTVSPost2010PropOp37
 70
     1
102
RTVSPost2010Prop38
140
0.0
102
RTVSPost2010PropOp38
 70
     1
102
RTVSPost2010Prop39
140
1.0
102
RTVSPost2010PropOp39
 70
     1
102
RTVSPost2010Prop40
 90
        0
102
RTVSPost2010PropOp40
 70
     1
102
RTVSPost2010Prop41ColorIndex
 90
       18
102
RTVSPost2010Prop41ColorRGB
 90
        0
102
RTVSPost2010PropOp41
 70
     1
102
RTVSPost2010Prop42
 90
       50
102
RTVSPost2010PropOp42
 70
     1
102
RTVSPost2010Prop43
 90
        3
102
RTVSPost2010PropOp43
 70
     1
102
RTVSPost2010Prop44ColorIndex
 90
        5
102
RTVSPost2010Prop44ColorRGB
 90
      255
102
RTVSPost2010PropOp44
 70
     1
102
RTVSPost2010Prop45
280
     0
102
RTVSPost2010PropOp45
 70
     1
102
RTVSPost2010Prop46
 90
       50
102
RTVSPost2010PropOp46
 70
     1
102
RTVSPost2010Prop47
 90
       50
102
RTVSPost2010PropOp47
 70
     1
102
RTVSPost2010Prop48
 90
       50
102
RTVSPost2010PropOp48
 70
     1
102
RTVSPost2010Prop49
280
     0
102
RTVSPost2010PropOp49
 70
     1
102
RTVSPost2010Prop50
 90
       50
102
RTVSPost2010PropOp50
 70
     1
102
RTVSPost2010Prop51ColorIndex
 90
      256
102
RTVSPost2010Prop51ColorRGB
 90
-16777216
102
RTVSPost2010PropOp51
 70
     0
102
RTVSPost2010Prop52
140
1.0
102
RTVSPost2010PropOp52
 70
     0
102
RTVSPost2010Prop53
 90
        2
102
RTVSPost2010PropOp53
 70
     1
102
RTVSPost2010Prop54
  1
strokes_ogs.tif
102
RTVSPost2010PropOp54
 70
     1
102
RTVSPost2010Prop55
280
     0
102
RTVSPost2010PropOp55
 70
     1
102
RTVSPost2010Prop56
140
1.0
102
RTVSPost2010PropOp56
 70
     1
102
RTVSPost2010Prop57
140
1.0
102
RTVSPost2010PropOp57
 70
     1
  0
XRECORD
  5
408
102
{ACAD_REACTORS
330
407
102
}
330
407
100
AcDbXrecord
280
     1
102
RTVSPropertyOp0
 70
     1
102
RTVSPropertyOp1
 70
     1
102
RTVSPropertyOp2
 70
     1
102
RTVSPropertyOp3
 70
     1
102
RTVSPropertyOp4
 70
     1
102
RTVSPropertyOp5
 70
     1
102
RTVSPropertyOp6
 70
     1
102
RTVSPropertyOp7
 70
     1
102
RTVSPropertyOp8
 70
     1
102
RTVSPropertyOp9
 70
     1
102
RTVSPropertyOp10
 70
     1
102
RTVSPropertyOp11
 70
     1
102
RTVSPropertyOp12
 70
     1
102
RTVSPropertyOp13
 70
     1
102
RTVSPropertyOp14
 70
     1
102
RTVSPropertyOp15
 70
     1
102
RTVSPropertyOp16
 70
     1
102
RTVSPropertyOp17
 70
     1
102
RTVSPropertyOp18
 70
     1
102
RTVSPropertyOp19
 70
     1
102
RTVSPropertyOp20
 70
     1
102
RTVSPropertyOp21
 70
     1
102
RTVSPropertyOp22
 70
     1
102
RTVSPropertyOp23
 70
     1
102
RTVSPropertyOp24
 70
     1
102
RTVSPropertyOp25
 70
     1
102
RTVSPropertyOp26
 70
     1
102
RTVSPropertyOp27
 70
     1
102
RTVSPropertyOp28
 70
     1
102
RTVSPropertyOp29
 70
     1
102
RTVSPropertyOp30
 70
     1
102
RTVSPropertyOp31
 70
     1
102
RTVSPropertyOp32
 70
     1
102
RTVSPropertyOp33
 70
     1
102
RTVSPropertyOp34
 70
     1
102
RTVSPropertyOp35
 70
     1
102
RTVSPropertyOp36
 70
     1
102
RTVSPropertyOp37
 70
     1
102
RTVSPropertyOp38
 70
     1
102
RTVSPropertyOp39
 70
     1
102
RTVSPropertyOp40
 70
     1
102
RTVSPropertyOp41
 70
     1
102
RTVSPropertyOp42
 70
     1
102
RTVSPropertyOp43
 70
     1
102
RTVSPropertyOp44
 70
     1
102
RTVSPropertyOp45
 70
     1
102
RTVSPropertyOp46
 70
     1
102
RTVSPropertyOp47
 70
     1
102
RTVSPropertyOp48
 70
     1
102
RTVSPropertyOp49
 70
     1
102
RTVSPropertyOp50
 70
     1
102
RTVSPropertyOp51
 70
     0
102
RTVSPropertyOp52
 70
     0
102
RTVSPropertyOp53
 70
     1
102
RTVSPropertyOp54
 70
     1
102
RTVSPropertyOp55
 70
     1
102
RTVSPropertyOp56
 70
     1
102
RTVSPropertyOp57
 70
     1
102
RTVSPost2010Prop28
280
     0
102
RTVSPost2010PropOp28
 70
     1
102
RTVSPost2010Prop29
280
     1
102
RTVSPost2010PropOp29
 70
     1
102
RTVSPost2010Prop30
280
     1
102
RTVSPost2010PropOp30
 70
     1
102
RTVSPost2010Prop31
280
     0
102
RTVSPost2010PropOp31
 70
     1
102
RTVSPost2010Prop32
280
     0
102
RTVSPost2010PropOp32
 70
     1
102
RTVSPost2010Prop33
280
     0
102
RTVSPost2010PropOp33
 70
     1
102
RTVSPost2010Prop34
280
     0
102
RTVSPost2010PropOp34
 70
     1
102
RTVSPost2010Prop35
280
     0
102
RTVSPost2010PropOp35
 70
     1
102
RTVSPost2010Prop36
280
     0
102
RTVSPost2010PropOp36
 70
     1
102
RTVSPost2010Prop37
 90
       50
102
RTVSPost2010PropOp37
 70
     1
102
RTVSPost2010Prop38
140
0.0
102
RTVSPost2010PropOp38
 70
     1
102
RTVSPost2010Prop39
140
1.0
102
RTVSPost2010PropOp39
 70
     1
102
RTVSPost2010Prop40
 90
        0
102
RTVSPost2010PropOp40
 70
     1
102
RTVSPost2010Prop41ColorIndex
 90
       18
102
RTVSPost2010Prop41ColorRGB
 90
        0
102
RTVSPost2010PropOp41
 70
     1
102
RTVSPost2010Prop42
 90
       50
102
RTVSPost2010PropOp42
 70
     1
102
RTVSPost2010Prop43
 90
        3
102
RTVSPost2010PropOp43
 70
     1
102
RTVSPost2010Prop44ColorIndex
 90
        5
102
RTVSPost2010Prop44ColorRGB
 90
      255
102
RTVSPost2010PropOp44
 70
     1
102
RTVSPost2010Prop45
280
     0
102
RTVSPost2010PropOp45
 70
     1
102
RTVSPost2010Prop46
 90
       50
102
RTVSPost2010PropOp46
 70
     1
102
RTVSPost2010Prop47
 90
       50
102
RTVSPost2010PropOp47
 70
     1
102
RTVSPost2010Prop48
 90
       50
102
RTVSPost2010PropOp48
 70
     1
102
RTVSPost2010Prop49
280
     0
102
RTVSPost2010PropOp49
 70
     1
102
RTVSPost2010Prop50
 90
       50
102
RTVSPost2010PropOp50
 70
     1
102
RTVSPost2010Prop51ColorIndex
 90
      256
102
RTVSPost2010Prop51ColorRGB
 90
-16777216
102
RTVSPost2010PropOp51
 70
     0
102
RTVSPost2010Prop52
140
1.0
102
RTVSPost2010PropOp52
 70
     0
102
RTVSPost2010Prop53
 90
        2
102
RTVSPost2010PropOp53
 70
     1
102
RTVSPost2010Prop54
  1
strokes_ogs.tif
102
RTVSPost2010PropOp54
 70
     1
102
RTVSPost2010Prop55
280
     0
102
RTVSPost2010PropOp55
 70
     1
102
RTVSPost2010Prop56
140
1.0
102
RTVSPost2010PropOp56
 70
     1
102
RTVSPost2010Prop57
140
1.0
102
RTVSPost2010PropOp57
 70
     1
  0
ENDSEC
  0
EOF
