  0
SECTION
  2
HEADER
  9
$ACADVER
  1
AC1018
  9
$ACADMAINTVER
 70
     0
  9
$DWGCODEPAGE
  3
ANSI_932
  9
$INSBASE
 10
0.0
 20
0.0
 30
0.0
  9
$EXTMIN
 10
-840.0
 20
-594.0
 30
0.0
  9
$EXTMAX
 10
840.0
 20
594.0
 30
0.0
  9
$LIMMIN
 10
-840.0
 20
-594.0
  9
$LIMMAX
 10
840.0
 20
594.0
  9
$ORTHOMODE
 70
     0
  9
$REGENMODE
 70
     1
  9
$FILLMODE
 70
     1
  9
$QTEXTMODE
 70
     0
  9
$MIRRTEXT
 70
     1
  9
$LTSCALE
 40
4.0
  9
$ATTMODE
 70
     1
  9
$TEXTSIZE
 40
2.5
  9
$TRACEWID
 40
1.0
  9
$TEXTSTYLE
  7
Standard
  9
$CLAYER
  8
0
  9
$CELTYPE
  6
ByLayer
  9
$CECOLOR
 62
   256
  9
$CELTSCALE
 40
1.0
  9
$DISPSILH
 70
     0
  9
$DIMSCALE
 40
1.0
  9
$DIMASZ
 40
2.5
  9
$DIMEXO
 40
0.625
  9
$DIMDLI
 40
3.75
  9
$DIMRND
 40
0.0
  9
$DIMDLE
 40
0.0
  9
$DIMEXE
 40
1.25
  9
$DIMTP
 40
0.0
  9
$DIMTM
 40
0.0
  9
$DIMTXT
 40
2.5
  9
$DIMCEN
 40
2.5
  9
$DIMTSZ
 40
0.0
  9
$DIMTOL
 70
     0
  9
$DIMLIM
 70
     0
  9
$DIMTIH
 70
     0
  9
$DIMTOH
 70
     0
  9
$DIMSE1
 70
     0
  9
$DIMSE2
 70
     0
  9
$DIMTAD
 70
     1
  9
$DIMZIN
 70
     8
  9
$DIMBLK
  1

  9
$DIMASO
 70
     1
  9
$DIMSHO
 70
     1
  9
$DIMPOST
  1

  9
$DIMAPOST
  1

  9
$DIMALT
 70
     0
  9
$DIMALTD
 70
     3
  9
$DIMALTF
 40
0.03937007874016
  9
$DIMLFAC
 40
1.0
  9
$DIMTOFL
 70
     1
  9
$DIMTVP
 40
0.0
  9
$DIMTIX
 70
     0
  9
$DIMSOXD
 70
     0
  9
$DIMSAH
 70
     0
  9
$DIMBLK1
  1

  9
$DIMBLK2
  1

  9
$DIMSTYLE
  2
ISO-25
  9
$DIMCLRD
 70
     0
  9
$DIMCLRE
 70
     0
  9
$DIMCLRT
 70
     0
  9
$DIMTFAC
 40
1.0
  9
$DIMGAP
 40
0.625
  9
$DIMJUST
 70
     0
  9
$DIMSD1
 70
     0
  9
$DIMSD2
 70
     0
  9
$DIMTOLJ
 70
     0
  9
$DIMTZIN
 70
     8
  9
$DIMALTZ
 70
     0
  9
$DIMALTTZ
 70
     0
  9
$DIMUPT
 70
     0
  9
$DIMDEC
 70
     2
  9
$DIMTDEC
 70
     2
  9
$DIMALTU
 70
     2
  9
$DIMALTTD
 70
     3
  9
$DIMTXSTY
  7
Standard
  9
$DIMAUNIT
 70
     0
  9
$DIMADEC
 70
     0
  9
$DIMALTRND
 40
0.0
  9
$DIMAZIN
 70
     0
  9
$DIMDSEP
 70
    44
  9
$DIMATFIT
 70
     3
  9
$DIMFRAC
 70
     0
  9
$DIMLDRBLK
  1

  9
$DIMLUNIT
 70
     2
  9
$DIMLWD
 70
    -2
  9
$DIMLWE
 70
    -2
  9
$DIMTMOVE
 70
     0
  9
$LUNITS
 70
     2
  9
$LUPREC
 70
     4
  9
$SKETCHINC
 40
1.0
  9
$FILLETRAD
 40
10.0
  9
$AUNITS
 70
     0
  9
$AUPREC
 70
     0
  9
$MENU
  1
.
  9
$ELEVATION
 40
0.0
  9
$PELEVATION
 40
0.0
  9
$THICKNESS
 40
0.0
  9
$LIMCHECK
 70
     0
  9
$CHAMFERA
 40
0.0
  9
$CHAMFERB
 40
0.0
  9
$CHAMFERC
 40
0.0
  9
$CHAMFERD
 40
0.0
  9
$SKPOLY
 70
     0
  9
$TDCREATE
 40
2460096.488180614
  9
$TDUCREATE
 40
2460096.113180614
  9
$TDUPDATE
 40
2460096.488180776
  9
$TDUUPDATE
 40
2460096.113180776
  9
$TDINDWG
 40
0.0000000116
  9
$TDUSRTIMER
 40
0.0000000116
  9
$USRTIMER
 70
     1
  9
$ANGBASE
 50
0.0
  9
$ANGDIR
 70
     0
  9
$PDMODE
 70
     0
  9
$PDSIZE
 40
0.0
  9
$PLINEWID
 40
0.0
  9
$SPLFRAME
 70
     0
  9
$SPLINETYPE
 70
     6
  9
$SPLINESEGS
 70
     8
  9
$HANDSEED
  5
470
  9
$SURFTAB1
 70
     6
  9
$SURFTAB2
 70
     6
  9
$SURFTYPE
 70
     6
  9
$SURFU
 70
     6
  9
$SURFV
 70
     6
  9
$UCSBASE
  2

  9
$UCSNAME
  2

  9
$UCSORG
 10
0.0
 20
0.0
 30
0.0
  9
$UCSXDIR
 10
1.0
 20
0.0
 30
0.0
  9
$UCSYDIR
 10
0.0
 20
1.0
 30
0.0
  9
$UCSORTHOREF
  2

  9
$UCSORTHOVIEW
 70
     0
  9
$UCSORGTOP
 10
0.0
 20
0.0
 30
0.0
  9
$UCSORGBOTTOM
 10
0.0
 20
0.0
 30
0.0
  9
$UCSORGLEFT
 10
0.0
 20
0.0
 30
0.0
  9
$UCSORGRIGHT
 10
0.0
 20
0.0
 30
0.0
  9
$UCSORGFRONT
 10
0.0
 20
0.0
 30
0.0
  9
$UCSORGBACK
 10
0.0
 20
0.0
 30
0.0
  9
$PUCSBASE
  2

  9
$PUCSNAME
  2

  9
$PUCSORG
 10
0.0
 20
0.0
 30
0.0
  9
$PUCSXDIR
 10
1.0
 20
0.0
 30
0.0
  9
$PUCSYDIR
 10
0.0
 20
1.0
 30
0.0
  9
$PUCSORTHOREF
  2

  9
$PUCSORTHOVIEW
 70
     0
  9
$PUCSORGTOP
 10
0.0
 20
0.0
 30
0.0
  9
$PUCSORGBOTTOM
 10
0.0
 20
0.0
 30
0.0
  9
$PUCSORGLEFT
 10
0.0
 20
0.0
 30
0.0
  9
$PUCSORGRIGHT
 10
0.0
 20
0.0
 30
0.0
  9
$PUCSORGFRONT
 10
0.0
 20
0.0
 30
0.0
  9
$PUCSORGBACK
 10
0.0
 20
0.0
 30
0.0
  9
$USERI1
 70
     0
  9
$USERI2
 70
     0
  9
$USERI3
 70
     0
  9
$USERI4
 70
     0
  9
$USERI5
 70
     0
  9
$USERR1
 40
0.0
  9
$USERR2
 40
0.0
  9
$USERR3
 40
0.0
  9
$USERR4
 40
0.0
  9
$USERR5
 40
0.0
  9
$WORLDVIEW
 70
     1
  9
$SHADEDGE
 70
     3
  9
$SHADEDIF
 70
    70
  9
$TILEMODE
 70
     1
  9
$MAXACTVP
 70
    64
  9
$PINSBASE
 10
0.0
 20
0.0
 30
0.0
  9
$PLIMCHECK
 70
     0
  9
$PEXTMIN
 10
1.000000000000000E+20
 20
1.000000000000000E+20
 30
1.000000000000000E+20
  9
$PEXTMAX
 10
-1.000000000000000E+20
 20
-1.000000000000000E+20
 30
-1.000000000000000E+20
  9
$PLIMMIN
 10
0.0
 20
0.0
  9
$PLIMMAX
 10
420.0
 20
297.0
  9
$UNITMODE
 70
     0
  9
$VISRETAIN
 70
     1
  9
$PLINEGEN
 70
     0
  9
$PSLTSCALE
 70
     1
  9
$TREEDEPTH
 70
  3020
  9
$CMLSTYLE
  2
Standard
  9
$CMLJUST
 70
     0
  9
$CMLSCALE
 40
20.0
  9
$PROXYGRAPHICS
 70
     1
  9
$MEASUREMENT
 70
     1
  9
$CELWEIGHT
370
    -1
  9
$ENDCAPS
280
     0
  9
$JOINSTYLE
280
     0
  9
$LWDISPLAY
290
     0
  9
$INSUNITS
 70
     4
  9
$HYPERLINKBASE
  1

  9
$STYLESHEET
  1

  9
$XEDIT
290
     1
  9
$CEPSNTYPE
380
     0
  9
$PSTYLEMODE
290
     1
  9
$FINGERPRINTGUID
  2
{8F44D9BF-82E7-4E2B-89B4-0ED350301CFB}
  9
$VERSIONGUID
  2
{FAEB1C32-E019-11D5-929B-00C0DF256EC4}
  9
$EXTNAMES
290
     1
  9
$PSVPSCALE
 40
0.0
  9
$OLESTARTUP
290
     0
  9
$SORTENTS
280
   127
  9
$INDEXCTL
280
     0
  9
$HIDETEXT
280
     1
  9
$XCLIPFRAME
290
     0
  9
$HALOGAP
280
     0
  9
$OBSCOLOR
 70
   257
  9
$OBSLTYPE
280
     0
  9
$INTERSECTIONDISPLAY
280
     0
  9
$INTERSECTIONCOLOR
 70
   257
  9
$DIMASSOC
280
     2
  9
$PROJECTNAME
  1

  0
ENDSEC
  0
SECTION
  2
CLASSES
  0
CLASS
  1
ACDBDICTIONARYWDFLT
  2
AcDbDictionaryWithDefault
  3
ObjectDBX Classes
 90
        0
 91
        4
280
     0
281
     0
  0
CLASS
  1
VISUALSTYLE
  2
AcDbVisualStyle
  3
ObjectDBX Classes
 90
     4095
 91
        4
280
     0
281
     0
  0
CLASS
  1
MATERIAL
  2
AcDbMaterial
  3
ObjectDBX Classes
 90
     1153
 91
        4
280
     0
281
     0
  0
CLASS
  1
SCALE
  2
AcDbScale
  3
ObjectDBX Classes
 90
     1153
 91
        4
280
     0
281
     0
  0
CLASS
  1
TABLESTYLE
  2
AcDbTableStyle
  3
ObjectDBX Classes
 90
     4095
 91
        4
280
     0
281
     0
  0
CLASS
  1
MLEADERSTYLE
  2
AcDbMLeaderStyle
  3
ACDB_MLEADERSTYLE_CLASS
 90
     4095
 91
        4
280
     0
281
     0
  0
CLASS
  1
SUN
  2
AcDbSun
  3
SCENEOE
 90
     1153
 91
        4
280
     0
281
     0
  0
CLASS
  1
DICTIONARYVAR
  2
AcDbDictionaryVar
  3
ObjectDBX Classes
 90
        0
 91
        4
280
     0
281
     0
  0
CLASS
  1
CELLSTYLEMAP
  2
AcDbCellStyleMap
  3
ObjectDBX Classes
 90
     1152
 91
        4
280
     0
281
     0
  0
ENDSEC
  0
SECTION
  2
TABLES
  0
TABLE
  2
VPORT
  5
8
102
{ACAD_XDICTIONARY
360
427
102
}
330
0
100
AcDbSymbolTable
 70
     1
  0
VPORT
  5
29
330
8
100
AcDbSymbolTableRecord
100
AcDbViewportTableRecord
  2
*Active
 70
     0
 10
0.0
 20
0.0
 11
1.0
 21
1.0
 12
0.0
 22
0.0
 13
0.0
 23
0.0
 14
10.0
 24
10.0
 15
10.0
 25
10.0
 16
0.0
 26
0.0
 36
1.0
 17
0.0
 27
0.0
 37
0.0
 40
1306.8
 41
1.414141414141414
 42
50.0
 43
0.0
 44
0.0
 50
0.0
 51
0.0
 71
     0
 72
 10000
 73
     1
 74
     3
 75
     0
 76
     0
 77
     0
 78
     0
281
     0
 65
     1
110
0.0
120
0.0
130
0.0
111
1.0
121
0.0
131
0.0
112
0.0
122
1.0
132
0.0
 79
     0
146
0.0
  0
ENDTAB
  0
TABLE
  2
LTYPE
  5
5
330
0
100
AcDbSymbolTable
 70
     5
  0
LTYPE
  5
14
330
5
100
AcDbSymbolTableRecord
100
AcDbLinetypeTableRecord
  2
ByBlock
 70
     0
  3

 72
    65
 73
     0
 40
0.0
  0
LTYPE
  5
15
330
5
100
AcDbSymbolTableRecord
100
AcDbLinetypeTableRecord
  2
ByLayer
 70
     0
  3

 72
    65
 73
     0
 40
0.0
  0
LTYPE
  5
16
330
5
100
AcDbSymbolTableRecord
100
AcDbLinetypeTableRecord
  2
Continuous
 70
     0
  3
Solid line
 72
    65
 73
     0
 40
0.0
  0
LTYPE
  5
6F
330
5
100
AcDbSymbolTableRecord
100
AcDbLinetypeTableRecord
  2
JWW_HOJO
 70
     0
  3
  -   -   -   -   -   -   -   - 
 72
    65
 73
     2
 40
1.693333333333333
 49
-1.27
 74
     0
 49
0.4233333333333333
 74
     0
  0
LTYPE
  5
70
330
5
100
AcDbSymbolTableRecord
100
AcDbLinetypeTableRecord
  2
JWW_CENTER1
 70
     0
  3
-----  --  ----------  --  -----
 72
    65
 73
     4
 40
6.773333333333333
 49
4.233333333333333
 74
     0
 49
-0.8466666666666667
 74
     0
 49
0.8466666666666667
 74
     0
 49
-0.8466666666666667
 74
     0
  0
LTYPE
  5
71
330
5
100
AcDbSymbolTableRecord
100
AcDbLinetypeTableRecord
  2
JWW_DASHED2
 70
     0
  3
--    ----    ----    ----    --
 72
    65
 73
     2
 40
3.386666666666667
 49
1.693333333333333
 74
     0
 49
-1.693333333333333
 74
     0
  0
LTYPE
  5
72
330
5
100
AcDbSymbolTableRecord
100
AcDbLinetypeTableRecord
  2
JWW_DASHED1
 70
     0
  3
-  --  --  --  --  --  --  --  -
 72
    65
 73
     2
 40
1.693333333333333
 49
0.8466666666666667
 74
     0
 49
-0.8466666666666667
 74
     0
  0
ENDTAB
  0
TABLE
  2
LAYER
  5
2
330
0
100
AcDbSymbolTable
 70
    10
  0
LAYER
  5
10
330
2
100
AcDbSymbolTableRecord
100
AcDbLayerTableRecord
  2
0
 70
     0
 62
     7
  6
Continuous
370
    -3
390
F
  0
LAYER
  5
73
330
2
100
AcDbSymbolTableRecord
100
AcDbLayerTableRecord
  2
その他
 70
     0
 62
     7
  6
Continuous
370
    -3
390
F
  0
LAYER
  5
74
330
2
100
AcDbSymbolTableRecord
100
AcDbLayerTableRecord
  2
通り芯
 70
     0
 62
     7
  6
Continuous
370
    -3
390
F
  0
LAYER
  5
75
330
2
100
AcDbSymbolTableRecord
100
AcDbLayerTableRecord
  2
0-A
 70
     0
 62
     7
  6
Continuous
370
    -3
390
F
  0
LAYER
  5
76
330
2
100
AcDbSymbolTableRecord
100
AcDbLayerTableRecord
  2
0-8
 70
     0
 62
     7
  6
Continuous
370
    -3
390
F
  0
LAYER
  5
77
330
2
100
AcDbSymbolTableRecord
100
AcDbLayerTableRecord
  2
0-F
 70
     0
 62
     7
  6
Continuous
370
    -3
390
F
  0
LAYER
  5
78
330
2
100
AcDbSymbolTableRecord
100
AcDbLayerTableRecord
  2
仕上
 70
     0
 62
     7
  6
Continuous
370
    -3
390
F
  0
LAYER
  5
79
330
2
100
AcDbSymbolTableRecord
100
AcDbLayerTableRecord
  2
躯体
 70
     0
 62
     7
  6
Continuous
370
    -3
390
F
  0
LAYER
  5
7A
330
2
100
AcDbSymbolTableRecord
100
AcDbLayerTableRecord
  2
寸法
 70
     0
 62
     7
  6
Continuous
370
    -3
390
F
  0
LAYER
  5
7B
330
2
100
AcDbSymbolTableRecord
100
AcDbLayerTableRecord
  2
F-5ﾚｲﾔ
 70
     0
 62
     7
  6
Continuous
370
    -3
390
F
  0
ENDTAB
  0
TABLE
  2
STYLE
  5
3
330
0
100
AcDbSymbolTable
 70
     2
  0
STYLE
  5
11
330
3
100
AcDbSymbolTableRecord
100
AcDbTextStyleTableRecord
  2
Standard
 70
     0
 40
0.0
 41
1.0
 50
0.0
 71
     0
 42
2.5
  3
txt
  4

  0
STYLE
  5
6E
330
3
100
AcDbSymbolTableRecord
100
AcDbTextStyleTableRecord
  2
ＭＳ ゴシック
 70
     0
 40
1.0
 41
1.0
 50
0.0
 71
     0
 42
2.5
  3

  4

1001
ACAD
1000
MS Gothic
1071
    32817
  0
ENDTAB
  0
TABLE
  2
VIEW
  5
6
330
0
100
AcDbSymbolTable
 70
     0
  0
ENDTAB
  0
TABLE
  2
UCS
  5
7
330
0
100
AcDbSymbolTable
 70
     0
  0
ENDTAB
  0
TABLE
  2
APPID
  5
9
330
0
100
AcDbSymbolTable
 70
     2
  0
APPID
  5
12
330
9
100
AcDbSymbolTableRecord
100
AcDbRegAppTableRecord
  2
ACAD
 70
     0
  0
APPID
  5
466
330
9
100
AcDbSymbolTableRecord
100
AcDbRegAppTableRecord
  2
ACAD_MLEADERVER
 70
     0
  0
ENDTAB
  0
TABLE
  2
DIMSTYLE
  5
A
330
0
100
AcDbSymbolTable
 70
     1
100
AcDbDimStyleTable
  0
DIMSTYLE
105
27
330
A
100
AcDbSymbolTableRecord
100
AcDbDimStyleTableRecord
  2
ISO-25
 70
     0
 41
2.5
 42
0.625
 43
3.75
 44
1.25
 73
     0
 74
     0
 77
     1
 78
     8
140
2.5
141
2.5
143
0.03937007874016
147
0.625
171
     3
172
     1
178
     0
271
     2
272
     2
274
     3
278
    44
283
     0
284
     8
340
11
  0
ENDTAB
  0
TABLE
  2
BLOCK_RECORD
  5
1
330
0
100
AcDbSymbolTable
 70
     1
  0
BLOCK_RECORD
  5
1F
330
1
100
AcDbSymbolTableRecord
100
AcDbBlockTableRecord
  2
*Model_Space
340
22
  0
BLOCK_RECORD
  5
1B
330
1
100
AcDbSymbolTableRecord
100
AcDbBlockTableRecord
  2
*Paper_Space
340
1E
  0
BLOCK_RECORD
  5
23
330
1
100
AcDbSymbolTableRecord
100
AcDbBlockTableRecord
  2
*Paper_Space0
340
26
  0
ENDTAB
  0
ENDSEC
  0
SECTION
  2
BLOCKS
  0
BLOCK
  5
20
330
1F
100
AcDbEntity
  8
0
100
AcDbBlockBegin
  2
*Model_Space
 70
     0
 10
0.0
 20
0.0
 30
0.0
  3
*Model_Space
  1

  0
ENDBLK
  5
21
330
1F
100
AcDbEntity
  8
0
100
AcDbBlockEnd
  0
BLOCK
  5
1C
330
1B
100
AcDbEntity
 67
     1
  8
0
100
AcDbBlockBegin
  2
*Paper_Space
 70
     0
 10
0.0
 20
0.0
 30
0.0
  3
*Paper_Space
  1

  0
ENDBLK
  5
1D
330
1B
100
AcDbEntity
 67
     1
  8
0
100
AcDbBlockEnd
  0
BLOCK
  5
24
330
23
100
AcDbEntity
  8
0
100
AcDbBlockBegin
  2
*Paper_Space0
 70
     0
 10
0.0
 20
0.0
 30
0.0
  3
*Paper_Space0
  1

  0
ENDBLK
  5
25
330
23
100
AcDbEntity
  8
0
100
AcDbBlockEnd
  0
ENDSEC
  0
SECTION
  2
ENTITIES
  0
TEXT
  5
7C
330
1F
100
AcDbEntity
  8
その他
  6
Continuous
 62
     2
370
   211
100
AcDbText
 10
103.660694423935
 20
-222.3229766323667
 30
0.0
 40
12.192
  1
254
 50
90.0
 41
1.083333333333333
  7
ＭＳ ゴシック
100
AcDbText
  0
ARC
  5
7D
330
1F
100
AcDbEntity
  8
通り芯
  6
Continuous
 62
     4
370
     9
100
AcDbCircle
 10
23.95944757213965
 20
-338.3229766323666
 30
0.0
 40
2.0
100
AcDbArc
 50
0.0
 51
90.0
  0
ARC
  5
7E
330
1F
100
AcDbEntity
  8
通り芯
  6
Continuous
 62
     4
370
     9
100
AcDbCircle
 10
-29.40438340666651
 20
-354.323040141921
 30
0.0
 40
1.00000000920535
100
AcDbArc
 50
270.0
 51
309.9997100830079
  0
LINE
  5
7F
330
1F
100
AcDbEntity
  8
通り芯
  6
Continuous
 62
     4
370
     9
100
AcDbLine
 10
-39.04047300516322
 20
-355.3230447961462
 30
0.0
 11
-29.04043402617845
 21
-355.3230447961462
 31
0.0
  0
LINE
  5
80
330
1F
100
AcDbEntity
  8
通り芯
  6
Continuous
 62
     4
370
     9
100
AcDbLine
 10
-29.04043402617845
 20
-355.3230447961462
 30
0.0
 11
-14.73940900577145
 21
-343.3230245296466
 31
0.0
  0
ARC
  5
81
330
1F
100
AcDbEntity
  8
通り芯
  6
Continuous
 62
     4
370
     9
100
AcDbCircle
 10
-13.64749583220282
 20
-346.3230245296466
 30
0.0
 40
3.0
100
AcDbArc
 50
90.0
 51
130.0000833364968
  0
LINE
  5
82
330
1F
100
AcDbEntity
  8
通り芯
  6
Continuous
 62
     4
370
     9
100
AcDbLine
 10
25.95944757213965
 20
-347.3229766323666
 30
0.0
 11
-19.50635221345283
 21
-347.3229766323666
 31
0.0
  0
ARC
  5
83
330
1F
100
AcDbEntity
  8
通り芯
  6
Continuous
 62
     4
370
     9
100
AcDbCircle
 10
-79.67922186161559
 20
-335.3230308334708
 30
0.0
 40
2.0
100
AcDbArc
 50
270.0
 51
292.0000000000005
  0
LINE
  5
84
330
1F
100
AcDbEntity
  8
通り芯
  6
Continuous
 62
     4
370
     9
100
AcDbLine
 10
-77.17569280603993
 20
-336.468608923233
 30
0.0
 11
-78.9300086747835
 21
-337.1773985426044
 31
0.0
  0
ARC
  5
85
330
1F
100
AcDbEntity
  8
通り芯
  6
Continuous
 62
     4
370
     9
100
AcDbCircle
 10
-76.42647961920784
 20
-338.3229766323666
 30
0.0
 40
2.0
100
AcDbArc
 50
90.0
 51
112.0000000000003
  0
ARC
  5
86
330
1F
100
AcDbEntity
  8
通り芯
  6
Continuous
 62
     4
370
     9
100
AcDbCircle
 10
-79.84149667662496
 20
-336.3230308334708
 30
0.0
 40
1.0
100
AcDbArc
 50
209.998207058104
 51
270.0
  0
LINE
  5
87
330
1F
100
AcDbEntity
  8
通り芯
  6
Continuous
 62
     4
370
     9
100
AcDbLine
 10
-79.67922186161559
 20
-337.3230308334708
 30
0.0
 11
-79.84149667662496
 21
-337.3230308334708
 31
0.0
  0
ARC
  5
88
330
1F
100
AcDbEntity
  8
通り芯
  6
Continuous
 62
     4
370
     9
100
AcDbCircle
 10
-81.57357877608547
 20
-337.3229766323666
 30
0.0
 40
1.0
100
AcDbArc
 50
29.99820705810239
 51
90.0
  0
LINE
  5
89
330
1F
100
AcDbEntity
  8
通り芯
  6
Continuous
 62
     4
370
     9
100
AcDbLine
 10
-40.37381544727805
 20
-347.3229766323666
 30
0.0
 11
-85.25953767842975
 21
-347.3229766323666
 31
0.0
  0
LINE
  5
8A
330
1F
100
AcDbEntity
  8
通り芯
  6
Continuous
 62
     4
370
     9
100
AcDbLine
 10
-229.0406066289643
 20
-187.5729562774955
 30
0.0
 11
-229.0405075352069
 21
-189.0730375791515
 31
0.0
  0
ARC
  5
8B
330
1F
100
AcDbEntity
  8
通り芯
  6
Continuous
 62
     4
370
     9
100
AcDbCircle
 10
-227.0405570804492
 20
-188.0163961733284
 30
0.0
 40
2.0
100
AcDbArc
 50
155.0040028853098
 51
180.0
  0
ARC
  5
8C
330
1F
100
AcDbEntity
  8
通り芯
  6
Continuous
 62
     4
370
     9
100
AcDbCircle
 10
-227.0405570804492
 20
-188.5372701794556
 30
0.0
 40
2.0
100
AcDbArc
 50
180.0
 51
209.9943220910382
  0
ARC
  5
8D
330
1F
100
AcDbEntity
  8
通り芯
  6
Continuous
 62
     4
370
     9
100
AcDbCircle
 10
-230.0405524278603
 20
-184.9848559980016
 30
0.0
 40
2.0
100
AcDbArc
 50
335.0040028853105
 51
0.0
  0
ARC
  5
8E
330
1F
100
AcDbEntity
  8
通り芯
  6
Continuous
 62
     4
370
     9
100
AcDbCircle
 10
-230.0405524278603
 20
-191.3413098545347
 30
0.0
 40
2.0
100
AcDbArc
 50
0.0
 51
29.99432209103749
  0
LINE
  5
8F
330
1F
100
AcDbEntity
  8
通り芯
  6
Continuous
 62
     4
370
     9
100
AcDbLine
 10
-236.3837839197645
 20
-91.67199452338102
 30
0.0
 11
-239.0405045305802
 21
-88.82301046906437
 31
0.0
  0
LINE
  5
90
330
1F
100
AcDbEntity
  8
通り芯
  6
Continuous
 62
     4
370
     9
100
AcDbLine
 10
-247.0405028809819
 20
-148.3229766323666
 30
0.0
 11
-247.0405028809819
 21
-136.3229766323666
 31
0.0
  0
ARC
  5
91
330
1F
100
AcDbEntity
  8
通り芯
  6
Continuous
 62
     4
370
     9
100
AcDbCircle
 10
-240.0405524278603
 20
-95.08198632369349
 30
0.0
 40
5.0
100
AcDbArc
 50
0.0
 51
42.9999999999999
  0
ARC
  5
92
330
1F
100
AcDbEntity
  8
通り芯
  6
Continuous
 62
     4
370
     9
100
AcDbCircle
 10
-230.0405524278603
 20
-84.32297663236656
 30
0.0
 40
2.0
100
AcDbArc
 50
0.0
 51
90.0
  0
ARC
  5
93
330
1F
100
AcDbEntity
  8
通り芯
  6
Continuous
 62
     4
370
     9
100
AcDbCircle
 10
-218.0405524278603
 20
-326.3229766323666
 30
0.0
 40
10.0
100
AcDbArc
 50
180.0
 51
270.0
  0
ARC
  5
94
330
1F
100
AcDbEntity
  8
通り芯
  6
Continuous
 62
     4
370
     9
100
AcDbCircle
 10
-218.0405524278603
 20
-337.6852004659925
 30
0.0
 40
10.0
100
AcDbArc
 50
180.0
 51
270.0
  0
ARC
  5
95
330
1F
100
AcDbEntity
  8
通り芯
  6
Continuous
 62
     4
370
     9
100
AcDbCircle
 10
-215.1405984717076
 20
-344.6852004659925
 30
0.0
 40
3.0
100
AcDbArc
 50
180.0
 51
270.0
  0
LINE
  5
96
330
1F
100
AcDbEntity
  8
通り芯
  6
Continuous
 62
     4
370
     9
100
AcDbLine
 10
-218.1405984717076
 20
-336.3224761592986
 30
0.0
 11
-218.1405984717076
 21
-344.6852004659925
 31
0.0
  0
ARC
  5
97
330
1F
100
AcDbEntity
  8
通り芯
  6
Continuous
 62
     4
370
     9
100
AcDbCircle
 10
-243.2081427647445
 20
-353.6670284196906
 30
0.0
 40
4.0
100
AcDbArc
 50
196.0982266122061
 51
271.1668094340695
  0
LINE
  5
98
330
1F
100
AcDbEntity
  8
通り芯
  6
Continuous
 62
     4
370
     9
100
AcDbLine
 10
-238.2180266683235
 20
-357.5662219023232
 30
0.0
 11
-243.1266897295745
 21
-357.6661990090832
 31
0.0
  0
ARC
  5
99
330
1F
100
AcDbEntity
  8
通り芯
  6
Continuous
 62
     4
370
     9
100
AcDbCircle
 10
-238.2994797034935
 20
-353.5670513129308
 30
0.0
 40
4.0
100
AcDbArc
 50
271.1668094340695
 51
345.2214135331472
  0
ARC
  5
9A
330
1F
100
AcDbEntity
  8
通り芯
  6
Continuous
 62
     4
370
     9
100
AcDbCircle
 10
-241.5983276278826
 20
-191.6006424425366
 30
0.0
 40
4.0
100
AcDbArc
 50
17.11220533499255
 51
91.16680943406945
  0
LINE
  5
9B
330
1F
100
AcDbEntity
  8
通り芯
  6
Continuous
 62
     4
370
     9
100
AcDbLine
 10
-246.5884437243039
 20
-187.7014489599039
 30
0.0
 11
-241.6797806630525
 21
-187.601471853144
 31
0.0
  0
ARC
  5
9C
330
1F
100
AcDbEntity
  8
通り芯
  6
Continuous
 62
     4
370
     9
100
AcDbCircle
 10
-246.506990689134
 20
-191.7006195492963
 30
0.0
 40
4.0
100
AcDbArc
 50
91.16680943406949
 51
166.2353922559315
  0
LINE
  5
9D
330
1F
100
AcDbEntity
  8
通り芯
  6
Continuous
 62
     4
370
     9
100
AcDbLine
 10
-236.9649697476116
 20
-193.0560362124946
 30
0.0
 11
-237.7754062051736
 21
-190.4236667436405
 31
0.0
  0
LINE
  5
9E
330
1F
100
AcDbEntity
  8
通り芯
  6
Continuous
 62
     4
370
     9
100
AcDbLine
 10
-235.0127825186723
 20
-194.4671336577429
 30
0.0
 11
-228.0405524278603
 21
-194.3251268865621
 31
0.0
  0
ARC
  5
9F
330
1F
100
AcDbEntity
  8
通り芯
  6
Continuous
 62
     4
370
     9
100
AcDbCircle
 10
-235.0535090362573
 20
-192.4675483630467
 30
0.0
 40
2.0
100
AcDbArc
 50
197.1122053349924
 51
271.1668094340694
  0
LINE
  5
A0
330
1F
100
AcDbEntity
  8
通り芯
  6
Continuous
 62
     4
370
     9
100
AcDbLine
 10
-233.7306089854164
 20
-351.9294484479231
 30
0.0
 11
-234.4318045413993
 21
-354.5873889239786
 31
0.0
  0
ARC
  5
A1
330
1F
100
AcDbEntity
  8
通り芯
  6
Continuous
 62
     4
370
     9
100
AcDbCircle
 10
-231.7967714043693
 20
-352.4396172534469
 30
0.0
 40
2.0
100
AcDbArc
 50
91.16680943406949
 51
165.2214135331471
  0
LINE
  5
A2
330
1F
100
AcDbEntity
  8
通り芯
  6
JWW_HOJO
 62
     4
370
     9
100
AcDbLine
 10
-247.908849991175
 20
-351.8047494813957
 30
0.0
 11
-247.8862839422309
 21
-351.882940475113
 31
0.0
  0
LINE
  5
A3
330
1F
100
AcDbEntity
  8
通り芯
  6
JWW_HOJO
 62
     4
370
     9
100
AcDbLine
 10
-251.1279710938966
 20
-193.7527577930386
 30
0.0
 11
-251.1111698027917
 21
-193.6841723266965
 31
0.0
  0
LINE
  5
A4
330
1F
100
AcDbEntity
  8
通り芯
  6
Continuous
 62
     4
370
     9
100
AcDbLine
 10
-236.5350609385446
 20
-193.8110527213683
 30
0.0
 11
-233.3303443637565
 21
-351.1558127596721
 31
0.0
  0
ARC
  5
A5
330
1F
100
AcDbEntity
  8
通り芯
  6
Continuous
 62
     4
370
     9
100
AcDbCircle
 10
-238.0405524278603
 20
-129.3230659074814
 30
0.0
 40
3.0
100
AcDbArc
 50
292.6195349669711
 51
0.0
  0
LINE
  5
A6
330
1F
100
AcDbEntity
  8
通り芯
  6
Continuous
 62
     4
370
     9
100
AcDbLine
 10
-247.0405028809819
 20
-136.3229766323666
 30
0.0
 11
-236.8867222227427
 21
-132.0923033219618
 31
0.0
  0
ARC
  5
A7
330
1F
100
AcDbEntity
  8
通り芯
  6
Continuous
 62
     4
370
     9
100
AcDbCircle
 10
-238.0405524278603
 20
-155.3228873572518
 30
0.0
 40
3.0
100
AcDbArc
 50
0.0
 51
67.38046503302888
  0
LINE
  5
A8
330
1F
100
AcDbEntity
  8
通り芯
  6
Continuous
 62
     4
370
     9
100
AcDbLine
 10
-247.0405028809819
 20
-148.3229766323666
 30
0.0
 11
-236.8867222227427
 21
-152.5536499427714
 31
0.0
  0
LINE
  5
A9
330
1F
100
AcDbEntity
  8
通り芯
  6
Continuous
 62
     4
370
     9
100
AcDbLine
 10
-40.62268105222211
 20
-345.8297804808852
 30
0.0
 11
-39.04047300516322
 21
-355.3230447961462
 31
0.0
  0
ARC
  5
AA
330
1F
100
AcDbEntity
  8
通り芯
  6
Continuous
 62
     4
370
     9
100
AcDbCircle
 10
-43.58186295879068
 20
-346.3229766323666
 30
0.0
 40
3.0
100
AcDbArc
 50
9.462306516363542
 51
90.00000000000001
  0
LINE
  5
AB
330
1F
100
AcDbEntity
  8
通り芯
  6
Continuous
 62
     4
370
     9
100
AcDbLine
 10
-239.0405045305802
 20
-82.32297663236656
 30
0.0
 11
-239.0405045305802
 21
-132.989698059241
 31
0.0
  0
LINE
  5
AC
330
1F
100
AcDbEntity
  8
通り芯
  6
Continuous
 62
     4
370
     9
100
AcDbLine
 10
-230.0405524278603
 20
-82.32297663236656
 30
0.0
 11
-239.0405045305802
 21
-82.32297663236656
 31
0.0
  0
LINE
  5
AD
330
1F
100
AcDbEntity
  8
通り芯
  6
Continuous
 62
     4
370
     9
100
AcDbLine
 10
25.95944757213965
 20
-338.3229766323666
 30
0.0
 11
25.95944757213965
 21
-347.3229766323666
 31
0.0
  0
LINE
  5
AE
330
1F
100
AcDbEntity
  8
通り芯
  6
Continuous
 62
     4
370
     9
100
AcDbLine
 10
-76.42647961920784
 20
-336.3229766323666
 30
0.0
 11
23.95944757213965
 21
-336.3229766323666
 31
0.0
  0
LINE
  5
AF
330
1F
100
AcDbEntity
  8
0-A
  6
Continuous
 62
     2
370
     9
100
AcDbLine
 10
-251.2405917943584
 20
-136.3228496132576
 30
0.0
 11
-248.6405697839969
 21
-136.3228496132576
 31
0.0
  0
LINE
  5
B0
330
1F
100
AcDbEntity
  8
0-A
  6
Continuous
 62
     2
370
     9
100
AcDbLine
 10
-251.2405917943584
 20
-148.3231036514755
 30
0.0
 11
-248.6405697839969
 21
-148.3231036514755
 31
0.0
  0
LINE
  5
B1
330
1F
100
AcDbEntity
  8
0-A
  6
Continuous
 62
     2
370
     9
100
AcDbLine
 10
-251.2405917943584
 20
-142.8022435907137
 30
0.0
 11
-251.2405917943584
 21
-141.8440565021708
 31
0.0
  0
LINE
  5
B2
330
1F
100
AcDbEntity
  8
0-A
  6
Continuous
 62
     2
370
     9
100
AcDbLine
 10
-253.2292053206916
 20
-141.8440565021708
 30
0.0
 11
-251.2405917943584
 21
-141.8440565021708
 31
0.0
  0
LINE
  5
B3
330
1F
100
AcDbEntity
  8
0-A
  6
Continuous
 62
     2
370
     9
100
AcDbLine
 10
-253.2292053206916
 20
-142.8022435907137
 30
0.0
 11
-251.2405917943584
 21
-142.8022435907137
 31
0.0
  0
ARC
  5
B4
330
1F
100
AcDbEntity
  8
0-A
  6
Continuous
 62
     2
370
     9
100
AcDbCircle
 10
-243.240653654314
 20
-142.3231748198816
 30
0.0
 40
10.00000009205351
100
AcDbArc
 50
143.130126953125
 51
177.254379272461
  0
ARC
  5
B5
330
1F
100
AcDbEntity
  8
0-A
  6
Continuous
 62
     2
370
     9
100
AcDbCircle
 10
-243.240653654314
 20
-142.3231748198816
 30
0.0
 40
10.00000009205351
100
AcDbArc
 50
182.745620727539
 51
216.869873046875
  0
LINE
  5
B6
330
1F
100
AcDbEntity
  8
通り芯
  6
JWW_CENTER1
 62
     4
370
     9
100
AcDbLine
 10
-34.04038575946561
 20
-343.874910244969
 30
0.0
 11
-34.04038575946561
 21
-363.6540451105021
 31
0.0
  0
LINE
  5
B7
330
1F
100
AcDbEntity
  8
通り芯
  6
JWW_CENTER1
 62
     4
370
     9
100
AcDbLine
 10
-255.4353553676538
 20
-142.3229766323666
 30
0.0
 11
-232.1731681192205
 21
-142.3229766323666
 31
0.0
  0
LINE
  5
B8
330
1F
100
AcDbEntity
  8
通り芯
  6
Continuous
 62
     4
370
     9
100
AcDbLine
 10
-97.63837984340944
 20
-347.7067338309732
 30
0.0
 11
-231.8374979219543
 21
-350.4400319587508
 31
0.0
  0
ARC
  5
B9
330
1F
100
AcDbEntity
  8
通り芯
  6
Continuous
 62
     4
370
     9
100
AcDbCircle
 10
-97.69946961978712
 20
-344.7073558889289
 30
0.0
 40
3.0
100
AcDbArc
 50
271.1668094340695
 51
310.0006143147615
  0
LINE
  5
BA
330
1F
100
AcDbEntity
  8
通り芯
  6
Continuous
 62
     4
370
     9
100
AcDbLine
 10
-97.33554424989279
 20
-347.6852004659925
 30
0.0
 11
-218.0405524278603
 21
-347.6852004659925
 31
0.0
  0
LINE
  5
BB
330
1F
100
AcDbEntity
  8
通り芯
  6
Continuous
 62
     4
370
     9
100
AcDbLine
 10
-251.4844568331839
 20
-195.2079876631978
 30
0.0
 11
-250.3921164469689
 21
-190.7488854237084
 31
0.0
  0
LINE
  5
BC
330
1F
100
AcDbEntity
  8
通り芯
  6
Continuous
 62
     4
370
     9
100
AcDbLine
 10
-248.3212618263933
 20
-350.3757491590036
 30
0.0
 11
-247.0512937127032
 21
-354.7761680823142
 31
0.0
  0
LINE
  5
BD
330
1F
100
AcDbEntity
  8
通り芯
  6
Continuous
 62
     4
370
     9
100
AcDbLine
 10
-251.5097093517106
 20
-195.2085019304367
 30
0.0
 11
-248.3493315871006
 21
-350.376320799346
 31
0.0
  0
ARC
  5
BE
330
1F
100
AcDbEntity
  8
通り芯
  6
Continuous
 62
     4
370
     9
100
AcDbCircle
 10
-79.40069818965685
 20
-346.3229766323666
 30
0.0
 40
3.0
100
AcDbArc
 50
90.0
 51
130.0006143147612
  0
LINE
  5
BF
330
1F
100
AcDbEntity
  8
通り芯
  6
Continuous
 62
     4
370
     9
100
AcDbLine
 10
14.55556554011741
 20
-343.3229766323666
 30
0.0
 11
-79.40069818965685
 21
-343.3229766323666
 31
0.0
  0
LINE
  5
C0
330
1F
100
AcDbEntity
  8
通り芯
  6
Continuous
 62
     4
370
     9
100
AcDbLine
 10
19.4062780408442
 20
-347.110298507185
 30
0.0
 11
19.45944757213965
 21
-347.3229766323666
 31
0.0
  0
ARC
  5
C1
330
1F
100
AcDbEntity
  8
通り芯
  6
Continuous
 62
     4
370
     9
100
AcDbCircle
 10
14.55556554011741
 20
-348.3229766323666
 30
0.0
 40
5.0
100
AcDbArc
 50
14.03624346792643
 51
89.99999999999994
  0
LINE
  5
C2
330
1F
100
AcDbEntity
  8
通り芯
  6
Continuous
 62
     4
370
     9
100
AcDbLine
 10
-83.87691979634474
 20
-337.0248639786918
 30
0.0
 11
-95.77108215067733
 21
-347.0054685426038
 31
0.0
  0
LINE
  5
C3
330
1F
100
AcDbEntity
  8
通り芯
  6
Continuous
 62
     4
370
     9
100
AcDbLine
 10
-81.94853232723517
 20
-336.3229766323666
 30
0.0
 11
-81.57357877608547
 21
-336.3229766323666
 31
0.0
  0
ARC
  5
C4
330
1F
100
AcDbEntity
  8
通り芯
  6
Continuous
 62
     4
370
     9
100
AcDbCircle
 10
-81.94853232723517
 20
-339.3229766323666
 30
0.0
 40
3.0
100
AcDbArc
 50
90.0
 51
130.0006143147615
  0
LINE
  5
C5
330
1F
100
AcDbEntity
  8
通り芯
  6
Continuous
 62
     4
370
     9
100
AcDbLine
 10
-81.94853232723517
 20
-336.3229766323666
 30
0.0
 11
-218.0405524278603
 21
-336.3229766323666
 31
0.0
  0
LINE
  5
C6
330
1F
100
AcDbEntity
  8
通り芯
  6
Continuous
 62
     4
370
     9
100
AcDbLine
 10
-228.0405524278603
 20
-337.6852004659925
 30
0.0
 11
-228.0405524278603
 21
-191.3413098545347
 31
0.0
  0
LINE
  5
C7
330
1F
100
AcDbEntity
  8
通り芯
  6
Continuous
 62
     4
370
     9
100
AcDbLine
 10
-228.0405524278603
 20
-184.9848559980016
 30
0.0
 11
-228.0405524278603
 21
-84.32297663236656
 31
0.0
  0
LINE
  5
C8
330
1F
100
AcDbEntity
  8
通り芯
  6
Continuous
 62
     4
370
     9
100
AcDbLine
 10
-228.2278778070051
 20
-185.829965883701
 30
0.0
 11
-229.0405570804492
 21
-187.5730801446924
 31
0.0
  0
LINE
  5
C9
330
1F
100
AcDbEntity
  8
通り芯
  6
Continuous
 62
     4
370
     9
100
AcDbLine
 10
-228.3084025305905
 20
-190.3414815025725
 30
0.0
 11
-229.0405570804492
 21
-189.0730623525909
 31
0.0
  0
LINE
  5
CA
330
1F
100
AcDbEntity
  8
0-8
  6
Continuous
 62
     2
370
     9
100
AcDbLine
 10
-248.6405697839969
 20
-127.8233302945702
 30
0.0
 11
-248.6405697839969
 21
-157.3231950863814
 31
0.0
  0
LINE
  5
CB
330
1F
100
AcDbEntity
  8
0-8
  6
Continuous
 62
     2
370
     9
100
AcDbLine
 10
-247.0405028809819
 20
-127.8233302945702
 30
0.0
 11
-247.0405028809819
 21
-157.3231950863814
 31
0.0
  0
LINE
  5
CC
330
1F
100
AcDbEntity
  8
0-8
  6
Continuous
 62
     2
370
     9
100
AcDbLine
 10
-248.6405697839969
 20
-157.3231950863814
 30
0.0
 11
-247.0405028809819
 21
-157.3231950863814
 31
0.0
  0
ARC
  5
CD
330
1F
100
AcDbEntity
  8
0-8
  6
Continuous
 62
     2
370
     9
100
AcDbCircle
 10
-249.140398697034
 20
-127.8233302945702
 30
0.0
 40
0.5000000046026752
100
AcDbArc
 50
0.0
 51
90.0
  0
ARC
  5
CE
330
1F
100
AcDbEntity
  8
0-8
  6
Continuous
 62
     2
370
     9
100
AcDbCircle
 10
-249.140398697034
 20
-127.8233302945702
 30
0.0
 40
2.099999941914238
100
AcDbArc
 50
0.0
 51
90.0
  0
LINE
  5
CF
330
1F
100
AcDbEntity
  8
0-F
  6
JWW_CENTER1
 62
     7
370
     9
100
AcDbLine
 10
-228.0405524278603
 20
-272.3466427915297
 30
0.0
 11
-306.7582145544475
 21
-272.3466427915297
 31
0.0
  0
LINE
  5
D0
330
1F
100
AcDbEntity
  8
通り芯
  6
JWW_CENTER1
 62
     4
370
     9
100
AcDbLine
 10
-306.7255812968508
 20
-273.9490624669241
 30
0.0
 11
-215.3991110641196
 21
-272.0891999887783
 31
0.0
  0
LINE
  5
D1
330
1F
100
AcDbEntity
  8
その他
  6
Continuous
 62
     7
370
     9
100
AcDbLine
 10
-342.5220211994815
 20
-355.1361074477512
 30
0.0
 11
-277.5166393787513
 21
-353.8121115007581
 31
0.0
  0
LINE
  5
D2
330
1F
100
AcDbEntity
  8
その他
  6
Continuous
 62
     7
370
     9
100
AcDbLine
 10
-337.7997703784454
 20
-194.1241405715096
 30
0.0
 11
-334.5236800206967
 21
-354.973201377411
 31
0.0
  0
LINE
  5
D3
330
1F
100
AcDbEntity
  8
その他
  6
Continuous
 62
     7
370
     9
100
AcDbLine
 10
-345.7981115572302
 20
-194.2870466418497
 30
0.0
 11
-280.7927297365018
 21
-192.9630506948567
 31
0.0
  0
LWPOLYLINE
  5
D4
330
1F
100
AcDbEntity
  8
その他
  6
Continuous
 62
     7
370
     9
100
AcDbPolyline
 90
        4
 70
     1
 43
0.8
 10
-337.3997703784454
 20
-194.1241405715096
 42
0.4142135623731
 10
-337.7997703784454
 20
-193.7241405715096
 42
0.4142135623731
 10
-338.1997703784454
 20
-194.1241405715096
 42
0.4142135623731
 10
-337.7997703784454
 20
-194.5241405715096
 42
0.4142135623731
  0
TEXT
  5
D5
330
1F
100
AcDbEntity
  8
その他
  6
Continuous
 62
     2
370
   211
100
AcDbText
 10
-344.9763936602377
 20
-290.3687084011023
 30
0.0
 40
12.192
  1
Rc6
 50
90.00000002406935
 41
1.083333333333333
  7
ＭＳ ゴシック
100
AcDbText
  0
LINE
  5
D6
330
1F
100
AcDbEntity
  8
仕上
  6
Continuous
 62
     3
370
     9
100
AcDbLine
 10
-136.3761237547301
 20
-248.377823122644
 30
0.0
 11
-181.3975641680777
 21
-295.2461942880947
 31
0.0
  0
LINE
  5
D7
330
1F
100
AcDbEntity
  8
躯体
  6
Continuous
 62
     6
370
     9
100
AcDbLine
 10
-27.09850075121585
 20
-335.3237017001526
 30
0.0
 11
-26.74315053667397
 21
-335.0254294899541
 31
0.0
  0
LINE
  5
D8
330
1F
100
AcDbEntity
  8
躯体
  6
Continuous
 62
     6
370
     9
100
AcDbLine
 10
-212.2431468250766
 20
-151.0255392766468
 30
0.0
 11
-212.5223434869486
 21
-151.221100807154
 31
0.0
  0
LINE
  5
D9
330
1F
100
AcDbEntity
  8
躯体
  6
Continuous
 62
     6
370
     9
100
AcDbLine
 10
-227.041238787147
 20
-135.3810132111001
 30
0.0
 11
-226.7430408972668
 21
-135.025662996558
 31
0.0
  0
LINE
  5
DA
330
1F
100
AcDbEntity
  8
躯体
  6
Continuous
 62
     6
370
     9
100
AcDbLine
 10
-218.2431747504279
 20
-135.025662996558
 30
0.0
 11
-226.7430408972668
 21
-135.025662996558
 31
0.0
  0
LINE
  5
DB
330
1F
100
AcDbEntity
  8
躯体
  6
Continuous
 62
     6
370
     9
100
AcDbLine
 10
-217.2431700962029
 20
-136.0256676507834
 30
0.0
 11
-217.2431700962029
 21
-148.7636747138941
 31
0.0
  0
LINE
  5
DC
330
1F
100
AcDbEntity
  8
躯体
  6
Continuous
 62
     6
370
     9
100
AcDbLine
 10
-219.7430826380082
 20
-166.0555849516814
 30
0.0
 11
-219.7430826380082
 21
-175.3958157093469
 31
0.0
  0
LINE
  5
DD
330
1F
100
AcDbEntity
  8
躯体
  6
Continuous
 62
     6
370
     9
100
AcDbLine
 10
-219.041176779906
 20
-164.1272204299332
 30
0.0
 11
-212.2431468250766
 21
-156.0255625477729
 31
0.0
  0
LINE
  5
DE
330
1F
100
AcDbEntity
  8
躯体
  6
Continuous
 62
     6
370
     9
100
AcDbLine
 10
-158.3024508451958
 20
-331.0255099668105
 30
0.0
 11
-193.3019448602158
 21
-331.0255099668105
 31
0.0
  0
LINE
  5
DF
330
1F
100
AcDbEntity
  8
躯体
  6
Continuous
 62
     6
370
     9
100
AcDbLine
 10
-58.93489725208701
 20
-320.5255601912033
 30
0.0
 11
-50.74311359744297
 21
-320.5255601912033
 31
0.0
  0
LINE
  5
E0
330
1F
100
AcDbEntity
  8
躯体
  6
Continuous
 62
     6
370
     9
100
AcDbLine
 10
-154.756430278469
 20
-324.5255540346647
 30
0.0
 11
-154.756430278469
 21
-329.0255254317996
 31
0.0
  0
LINE
  5
E1
330
1F
100
AcDbEntity
  8
躯体
  6
Continuous
 62
     6
370
     9
100
AcDbLine
 10
-225.7431353367992
 20
-175.3958157093469
 30
0.0
 11
-227.7430950983708
 21
-175.3958157093469
 31
0.0
  0
LINE
  5
E2
330
1F
100
AcDbEntity
  8
躯体
  6
Continuous
 62
     6
370
     9
100
AcDbLine
 10
-225.7431353367992
 20
-174.5257229712579
 30
0.0
 11
-227.7430950983708
 21
-174.5257229712579
 31
0.0
  0
LINE
  5
E3
330
1F
100
AcDbEntity
  8
躯体
  6
Continuous
 62
     6
370
     9
100
AcDbLine
 10
-225.7431353367992
 20
-179.6557077053992
 30
0.0
 11
-227.7430950983708
 21
-179.6557077053992
 31
0.0
  0
LINE
  5
E4
330
1F
100
AcDbEntity
  8
躯体
  6
Continuous
 62
     6
370
     9
100
AcDbLine
 10
-225.7431353367992
 20
-180.5258004434881
 30
0.0
 11
-227.7430950983708
 21
-180.5258004434881
 31
0.0
  0
LINE
  5
E5
330
1F
100
AcDbEntity
  8
躯体
  6
Continuous
 62
     6
370
     9
100
AcDbLine
 10
-212.2431468250766
 20
-164.0254263674992
 30
0.0
 11
-212.2431468250766
 21
-151.0255392766468
 31
0.0
  0
LINE
  5
E6
330
1F
100
AcDbEntity
  8
躯体
  6
Continuous
 62
     6
370
     9
100
AcDbLine
 10
-54.93859465109381
 20
-325.5255339154507
 30
0.0
 11
-27.74320473777789
 21
-325.5255339154507
 31
0.0
  0
LINE
  5
E7
330
1F
100
AcDbEntity
  8
躯体
  6
JWW_HOJO
 62
     6
370
     9
100
AcDbLine
 10
-26.74315053667397
 20
-325.5255339154507
 30
0.0
 11
-26.74315053667397
 21
-326.5255385696759
 31
0.0
  0
LINE
  5
E8
330
1F
100
AcDbEntity
  8
躯体
  6
JWW_HOJO
 62
     6
370
     9
100
AcDbLine
 10
-27.74320473777789
 20
-325.5255339154507
 30
0.0
 11
-26.74315053667397
 21
-325.5255339154507
 31
0.0
  0
LINE
  5
E9
330
1F
100
AcDbEntity
  8
躯体
  6
JWW_HOJO
 62
     6
370
     9
100
AcDbLine
 10
-30.74309483325669
 20
-325.5255339154507
 30
0.0
 11
-31.02189512009818
 21
-325.759457116846
 31
0.0
  0
LINE
  5
EA
330
1F
100
AcDbEntity
  8
躯体
  6
Continuous
 62
     6
370
     9
100
AcDbLine
 10
-199.3019480121279
 20
-330.0609561043458
 30
0.0
 11
-199.3019480121279
 21
-336.0255084644974
 31
0.0
  0
LINE
  5
EB
330
1F
100
AcDbEntity
  8
躯体
  6
Continuous
 62
     6
370
     9
100
AcDbLine
 10
-193.3019448602158
 20
-327.5757342120957
 30
0.0
 11
-193.3019448602158
 21
-336.0255084644975
 31
0.0
  0
LINE
  5
EC
330
1F
100
AcDbEntity
  8
躯体
  6
Continuous
 62
     6
370
     9
100
AcDbLine
 10
-219.2933456194082
 20
-301.584382999782
 30
0.0
 11
-227.7430950983708
 21
-301.584382999782
 31
0.0
  0
LINE
  5
ED
330
1F
100
AcDbEntity
  8
躯体
  6
Continuous
 62
     6
370
     9
100
AcDbLine
 10
-194.180609208332
 20
-325.4543845975362
 30
0.0
 11
-217.1720083915684
 21
-302.4630101877391
 31
0.0
  0
LINE
  5
EE
330
1F
100
AcDbEntity
  8
躯体
  6
Continuous
 62
     6
370
     9
100
AcDbLine
 10
-221.7785427382191
 20
-307.5843861516939
 30
0.0
 11
-227.7430950983708
 21
-307.5843861516939
 31
0.0
  0
LINE
  5
EF
330
1F
100
AcDbEntity
  8
躯体
  6
Continuous
 62
     6
370
     9
100
AcDbLine
 10
-26.74315053667397
 20
-326.5255385696759
 30
0.0
 11
-26.74315053667397
 21
-335.0254294899541
 31
0.0
  0
LINE
  5
F0
330
1F
100
AcDbEntity
  8
躯体
  6
JWW_HOJO
 62
     6
370
     9
100
AcDbLine
 10
-26.74315053667397
 20
-335.0254294899541
 30
0.0
 11
-26.74315053667397
 21
-336.025483691058
 31
0.0
  0
LINE
  5
F1
330
1F
100
AcDbEntity
  8
躯体
  6
JWW_HOJO
 62
     6
370
     9
100
AcDbLine
 10
-222.0412402894603
 20
-157.7436501160192
 30
0.0
 11
-217.2431700962029
 21
-152.0254448371145
 31
0.0
  0
LINE
  5
F2
330
1F
100
AcDbEntity
  8
躯体
  6
JWW_HOJO
 62
     6
370
     9
100
AcDbLine
 10
-217.2431700962029
 20
-152.0254448371145
 30
0.0
 11
-217.2431700962029
 21
-148.7636747138941
 31
0.0
  0
LINE
  5
F3
330
1F
100
AcDbEntity
  8
躯体
  6
JWW_HOJO
 62
     6
370
     9
100
AcDbLine
 10
-79.743124702778
 20
-327.5255432239011
 30
0.0
 11
-79.01520673332107
 21
-327.5255432239011
 31
0.0
  0
LINE
  5
F4
330
1F
100
AcDbEntity
  8
躯体
  6
JWW_HOJO
 62
     6
370
     9
100
AcDbLine
 10
-80.30075004990067
 20
-327.9934391735705
 30
0.0
 11
-79.743124702778
 21
-327.5255432239011
 31
0.0
  0
LINE
  5
F5
330
1F
100
AcDbEntity
  8
躯体
  6
Continuous
 62
     6
370
     9
100
AcDbLine
 10
-83.35667766526922
 20
-330.5576264038611
 30
0.0
 11
-80.30077482334036
 21
-327.9934515602901
 31
0.0
  0
LINE
  5
F6
330
1F
100
AcDbEntity
  8
躯体
  6
JWW_HOJO
 62
     6
370
     9
100
AcDbLine
 10
-83.91430301239188
 20
-331.0255099668106
 30
0.0
 11
-83.35667766526922
 21
-330.5576140171412
 31
0.0
  0
LINE
  5
F7
330
1F
100
AcDbEntity
  8
躯体
  6
Continuous
 62
     6
370
     9
100
AcDbLine
 10
-79.01520673332107
 20
-327.5255432239011
 30
0.0
 11
-64.81331236349615
 21
-327.5255432239011
 31
0.0
  0
LINE
  5
F8
330
1F
100
AcDbEntity
  8
躯体
  6
JWW_HOJO
 62
     6
370
     9
100
AcDbLine
 10
-64.81331236349615
 20
-327.5255432239011
 30
0.0
 11
-64.08541916747845
 21
-327.5255432239011
 31
0.0
  0
LINE
  5
F9
330
1F
100
AcDbEntity
  8
躯体
  6
Continuous
 62
     6
370
     9
100
AcDbLine
 10
-212.2431468250766
 20
-192.3642839225203
 30
0.0
 11
-212.2431468250766
 21
-196.0138079189987
 31
0.0
  0
LINE
  5
FA
330
1F
100
AcDbEntity
  8
躯体
  6
Continuous
 62
     6
370
     9
100
AcDbLine
 10
-212.2431468250766
 20
-214.6720724326404
 30
0.0
 11
-212.2431468250766
 21
-232.1525333175889
 31
0.0
  0
LINE
  5
FB
330
1F
100
AcDbEntity
  8
躯体
  6
Continuous
 62
     6
370
     9
100
AcDbLine
 10
-212.2431468250766
 20
-252.0948423547275
 30
0.0
 11
-212.2431468250766
 21
-268.2912958763382
 31
0.0
  0
LINE
  5
FC
330
1F
100
AcDbEntity
  8
躯体
  6
Continuous
 62
     6
370
     9
100
AcDbLine
 10
-212.2431468250766
 20
-289.5175503432162
 30
0.0
 11
-212.2431468250766
 21
-303.7199030216697
 31
0.0
  0
LINE
  5
FD
330
1F
100
AcDbEntity
  8
躯体
  6
Continuous
 62
     6
370
     9
100
AcDbLine
 10
-146.33839080192
 20
-330.6746065846381
 30
0.0
 11
-139.010184470807
 21
-324.5255540346647
 31
0.0
  0
LINE
  5
FE
330
1F
100
AcDbEntity
  8
躯体
  6
JWW_HOJO
 62
     6
370
     9
100
AcDbLine
 10
-146.7565664587432
 20
-331.0255099668105
 30
0.0
 11
-146.3383660284803
 21
-330.6745818111989
 31
0.0
  0
LINE
  5
FF
330
1F
100
AcDbEntity
  8
躯体
  6
JWW_HOJO
 62
     6
370
     9
100
AcDbLine
 10
-188.3920473615731
 20
-196.3618747423615
 30
0.0
 11
-187.7225451621866
 21
-195.9601734227296
 31
0.0
  0
LINE
  5
100
330
1F
100
AcDbEntity
  8
躯体
  6
Continuous
 62
     6
370
     9
100
AcDbLine
 10
-39.71338382058184
 20
-331.5255122939233
 30
0.0
 11
-27.74315519089896
 21
-331.5255122939233
 31
0.0
  0
LINE
  5
101
330
1F
100
AcDbEntity
  8
躯体
  6
Continuous
 62
     6
370
     9
100
AcDbLine
 10
-53.53961375556901
 20
-331.5255122939233
 30
0.0
 11
-39.71338382058184
 21
-331.5255122939233
 31
0.0
  0
LINE
  5
102
330
1F
100
AcDbEntity
  8
躯体
  6
Continuous
 62
     6
370
     9
100
AcDbLine
 10
-55.83774663358145
 20
-326.5971585829388
 30
0.0
 11
-50.74311359744297
 21
-320.5255601912033
 31
0.0
  0
LINE
  5
103
330
1F
100
AcDbEntity
  8
躯体
  6
JWW_HOJO
 62
     6
370
     9
100
AcDbLine
 10
-68.8523986943078
 20
-331.5255122939233
 30
0.0
 11
-68.29474857374544
 21
-331.0575915708145
 31
0.0
  0
LINE
  5
104
330
1F
100
AcDbEntity
  8
躯体
  6
Continuous
 62
     6
370
     9
100
AcDbLine
 10
-68.29477334718467
 20
-331.0576039575343
 30
0.0
 11
-55.74313686856931
 21
-320.5255601912032
 31
0.0
  0
LINE
  5
105
330
1F
100
AcDbEntity
  8
躯体
  6
Continuous
 62
     6
370
     9
100
AcDbLine
 10
-36.49942643537543
 20
-330.3557104861515
 30
0.0
 11
-31.02194466697711
 21
-325.7595066637247
 31
0.0
  0
LINE
  5
106
330
1F
100
AcDbEntity
  8
躯体
  6
JWW_HOJO
 62
     6
370
     9
100
AcDbLine
 10
-37.89350218990194
 20
-331.5255122939233
 30
0.0
 11
-36.4993768884965
 21
-330.355648552553
 31
0.0
  0
LINE
  5
107
330
1F
100
AcDbEntity
  8
躯体
  6
Continuous
 62
     6
370
     9
100
AcDbLine
 10
-84.64224575528806
 20
-331.0255099668106
 30
0.0
 11
-158.3024508451958
 21
-331.0255099668106
 31
0.0
  0
LINE
  5
108
330
1F
100
AcDbEntity
  8
躯体
  6
Continuous
 62
     6
370
     9
100
AcDbLine
 10
-200.1806371336834
 20
-327.9396312632256
 30
0.0
 11
-219.6572302838185
 21
-308.4630752732496
 31
0.0
  0
ARC
  5
109
330
1F
100
AcDbEntity
  8
躯体
  6
Continuous
 62
     6
370
     9
100
AcDbCircle
 10
-224.7431802294527
 20
-137.3093777328484
 30
0.0
 40
3.000000027616052
100
AcDbArc
 50
140.0000152587891
 51
180.0007019042969
  0
ARC
  5
10A
330
1F
100
AcDbEntity
  8
躯体
  6
Continuous
 62
     6
370
     9
100
AcDbCircle
 10
-214.2430818132088
 20
-148.7636747138941
 30
0.0
 40
3.000000027616052
100
AcDbArc
 50
180.0
 51
304.9998168945312
  0
ARC
  5
10B
330
1F
100
AcDbEntity
  8
躯体
  6
Continuous
 62
     6
370
     9
100
AcDbCircle
 10
-29.02691481984311
 20
-333.025519275261
 30
0.0
 40
3.000000027616052
100
AcDbArc
 50
270.0
 51
309.9990844726562
  0
ARC
  5
10C
330
1F
100
AcDbEntity
  8
躯体
  6
Continuous
 62
     6
370
     9
100
AcDbCircle
 10
-152.7564705168975
 20
-329.0255254317996
 30
0.0
 40
2.000000018410701
100
AcDbArc
 50
180.0
 51
270.0
  0
ARC
  5
10D
330
1F
100
AcDbEntity
  8
躯体
  6
Continuous
 62
     6
370
     9
100
AcDbCircle
 10
-219.2933456194082
 20
-304.5843474155789
 30
0.0
 40
3.000000027616052
100
AcDbArc
 50
44.99975585937499
 51
90.0
  0
ARC
  5
10E
330
1F
100
AcDbEntity
  8
躯体
  6
Continuous
 62
     6
370
     9
100
AcDbCircle
 10
-196.3019588228917
 20
-327.5757342120957
 30
0.0
 40
3.000000027616052
100
AcDbArc
 50
0.0
 51
45.0
  0
ARC
  5
10F
330
1F
100
AcDbEntity
  8
躯体
  6
Continuous
 62
     6
370
     9
100
AcDbCircle
 10
-30.37914823524761
 20
-326.5255385696759
 30
0.0
 40
1.00000000920535
100
AcDbArc
 50
90.0
 51
129.9997100830078
  0
ARC
  5
110
330
1F
100
AcDbEntity
  8
躯体
  6
Continuous
 62
     6
370
     9
100
AcDbCircle
 10
-27.74320473777789
 20
-326.5255385696759
 30
0.0
 40
1.00000000920535
100
AcDbArc
 50
0.0
 51
90.0
  0
ARC
  5
111
330
1F
100
AcDbEntity
  8
躯体
  6
Continuous
 62
     6
370
     9
100
AcDbCircle
 10
-218.2431747504279
 20
-136.0256676507834
 30
0.0
 40
1.00000000920535
100
AcDbArc
 50
0.0
 51
90.0
  0
ARC
  5
112
330
1F
100
AcDbEntity
  8
躯体
  6
Continuous
 62
     6
370
     9
100
AcDbCircle
 10
-216.7430191284539
 20
-166.0555849516814
 30
0.0
 40
3.000000027616052
100
AcDbArc
 50
140.0001983642578
 51
180.0
  0
ARC
  5
113
330
1F
100
AcDbEntity
  8
躯体
  6
Continuous
 62
     6
370
     9
100
AcDbCircle
 10
-64.81331236349615
 20
-325.5255339154507
 30
0.0
 40
2.000000018410701
100
AcDbArc
 50
270.0
 51
310.0000762939453
  0
ARC
  5
114
330
1F
100
AcDbEntity
  8
躯体
  6
Continuous
 62
     6
370
     9
100
AcDbCircle
 10
-84.64224575528806
 20
-329.0255254317996
 30
0.0
 40
2.000000018410701
100
AcDbArc
 50
270.0
 51
309.9998474121093
  0
ARC
  5
115
330
1F
100
AcDbEntity
  8
躯体
  6
Continuous
 62
     6
370
     9
100
AcDbCircle
 10
-147.3025482893545
 20
-329.5255525323515
 30
0.0
 40
1.500000013808026
100
AcDbArc
 50
270.0
 51
310.0000305175782
  0
ARC
  5
116
330
1F
100
AcDbEntity
  8
躯体
  6
Continuous
 62
     6
370
     9
100
AcDbCircle
 10
-221.7785427382191
 20
-310.5843877276499
 30
0.0
 40
3.000000027616052
100
AcDbArc
 50
45.00016784667969
 51
90.0
  0
ARC
  5
117
330
1F
100
AcDbEntity
  8
躯体
  6
Continuous
 62
     6
370
     9
100
AcDbCircle
 10
-202.301949588084
 20
-330.0609561043458
 30
0.0
 40
3.000000027616052
100
AcDbArc
 50
0.0
 51
44.99983215332031
  0
ARC
  5
118
330
1F
100
AcDbEntity
  8
躯体
  6
Continuous
 62
     6
370
     9
100
AcDbCircle
 10
-219.7431074114475
 20
-328.0255083908547
 30
0.0
 40
8.000000073642804
100
AcDbArc
 50
180.0
 51
186.6280059814453
  0
ARC
  5
119
330
1F
100
AcDbEntity
  8
躯体
  6
JWW_HOJO
 62
     6
370
     9
100
AcDbCircle
 10
-220.2431716721585
 20
-150.9335554962093
 30
0.0
 40
3.000000027616052
100
AcDbArc
 50
320.00048828125
 51
0.0000000000000254
  0
ARC
  5
11A
330
1F
100
AcDbEntity
  8
躯体
  6
JWW_HOJO
 62
     6
370
     9
100
AcDbCircle
 10
-219.7430950247281
 20
-159.6719898643282
 30
0.0
 40
3.000000027616052
100
AcDbArc
 50
140.00048828125
 51
180.0
  0
ARC
  5
11B
330
1F
100
AcDbEntity
  8
躯体
  6
Continuous
 62
     6
370
     9
100
AcDbCircle
 10
-79.01520673332107
 20
-329.5255525323516
 30
0.0
 40
2.000000018410701
100
AcDbArc
 50
90.0
 51
129.9998474121094
  0
ARC
  5
11C
330
1F
100
AcDbEntity
  8
躯体
  6
Continuous
 62
     6
370
     9
100
AcDbCircle
 10
-219.7431074114475
 20
-328.0255083908547
 30
0.0
 40
8.000000073642804
100
AcDbArc
 50
263.9934844970703
 51
270.0
  0
ARC
  5
11D
330
1F
100
AcDbEntity
  8
躯体
  6
Continuous
 62
     6
370
     9
100
AcDbCircle
 10
-27.74315519089896
 20
-332.525541721588
 30
0.0
 40
1.00000000920535
100
AcDbArc
 50
0.0
 51
90.0
  0
ARC
  5
11E
330
1F
100
AcDbEntity
  8
躯体
  6
Continuous
 62
     6
370
     9
100
AcDbCircle
 10
-39.71338382058184
 20
-326.5255137962365
 30
0.0
 40
5.000000046026753
100
AcDbArc
 50
270.0
 51
310.0002593994141
  0
ARC
  5
11F
330
1F
100
AcDbEntity
  8
躯体
  6
Continuous
 62
     6
370
     9
100
AcDbCircle
 10
-53.53961375556901
 20
-328.5255107179673
 30
0.0
 40
3.000000027616052
100
AcDbArc
 50
140.0001525878906
 51
270.0
  0
ARC
  5
120
330
1F
100
AcDbEntity
  8
躯体
  6
Continuous
 62
     6
370
     9
100
AcDbCircle
 10
-69.58034143720397
 20
-329.5255153721924
 30
0.0
 40
2.000000018410701
100
AcDbArc
 50
270.0
 51
309.9998474121093
  0
LINE
  5
121
330
1F
100
AcDbEntity
  8
0-A
  6
Continuous
 62
     2
370
     9
100
AcDbLine
 10
-211.1431565694925
 20
-171.5256099148247
 30
0.0
 11
-213.743129032975
 21
-171.5256099148247
 31
0.0
  0
LINE
  5
122
330
1F
100
AcDbEntity
  8
0-A
  6
Continuous
 62
     2
370
     9
100
AcDbLine
 10
-211.1431565694925
 20
-183.5256657655275
 30
0.0
 11
-213.743129032975
 21
-183.5256657655275
 31
0.0
  0
LINE
  5
123
330
1F
100
AcDbEntity
  8
0-A
  6
Continuous
 62
     2
370
     9
100
AcDbLine
 10
-211.1431565694925
 20
-178.0047066110082
 30
0.0
 11
-211.1431565694925
 21
-177.0466186162228
 31
0.0
  0
LINE
  5
124
330
1F
100
AcDbEntity
  8
0-A
  6
Continuous
 62
     2
370
     9
100
AcDbLine
 10
-225.7431353367992
 20
-174.5257229712579
 30
0.0
 11
-225.7431353367992
 21
-180.5258004434881
 31
0.0
  0
LINE
  5
125
330
1F
100
AcDbEntity
  8
0-A
  6
Continuous
 62
     2
370
     9
100
AcDbLine
 10
-215.7432126617437
 20
-174.5257229712579
 30
0.0
 11
-225.7431353367992
 21
-174.5257229712579
 31
0.0
  0
LINE
  5
126
330
1F
100
AcDbEntity
  8
0-A
  6
Continuous
 62
     2
370
     9
100
AcDbLine
 10
-213.743129032975
 20
-171.5256099148247
 30
0.0
 11
-213.743129032975
 21
-183.5256657655275
 31
0.0
  0
LINE
  5
127
330
1F
100
AcDbEntity
  8
0-A
  6
Continuous
 62
     2
370
     9
100
AcDbLine
 10
-215.7432126617437
 20
-180.5258004434881
 30
0.0
 11
-225.7431353367992
 21
-180.5258004434881
 31
0.0
  0
LINE
  5
128
330
1F
100
AcDbEntity
  8
0-A
  6
Continuous
 62
     2
370
     9
100
AcDbLine
 10
-215.7432126617437
 20
-175.3958157093469
 30
0.0
 11
-225.7431353367992
 21
-175.3958157093469
 31
0.0
  0
LINE
  5
129
330
1F
100
AcDbEntity
  8
0-A
  6
Continuous
 62
     2
370
     9
100
AcDbLine
 10
-215.7432126617437
 20
-179.6557077053992
 30
0.0
 11
-225.7431353367992
 21
-179.6557077053992
 31
0.0
  0
LINE
  5
12A
330
1F
100
AcDbEntity
  8
0-A
  6
Continuous
 62
     2
370
     9
100
AcDbLine
 10
-215.7432126617437
 20
-179.6557077053992
 30
0.0
 11
-213.8706626989301
 21
-180.707835676091
 31
0.0
  0
LINE
  5
12B
330
1F
100
AcDbEntity
  8
0-A
  6
Continuous
 62
     2
370
     9
100
AcDbLine
 10
-215.7432126617437
 20
-180.5258004434881
 30
0.0
 11
-214.9793236582991
 21
-180.0848827693093
 31
0.0
  0
LINE
  5
12C
330
1F
100
AcDbEntity
  8
0-A
  6
Continuous
 62
     2
370
     9
100
AcDbLine
 10
-215.7432126617437
 20
-175.3958157093469
 30
0.0
 11
-213.8706626989301
 21
-174.3436877386551
 31
0.0
  0
LINE
  5
12D
330
1F
100
AcDbEntity
  8
0-A
  6
Continuous
 62
     2
370
     9
100
AcDbLine
 10
-215.7432126617437
 20
-174.5257229712579
 30
0.0
 11
-214.9793236582991
 21
-174.9666406454367
 31
0.0
  0
LINE
  5
12E
330
1F
100
AcDbEntity
  8
0-A
  6
Continuous
 62
     2
370
     9
100
AcDbLine
 10
-209.1546421369167
 20
-177.0466186162228
 30
0.0
 11
-211.1431565694925
 21
-177.0466186162228
 31
0.0
  0
LINE
  5
12F
330
1F
100
AcDbEntity
  8
0-A
  6
Continuous
 62
     2
370
     9
100
AcDbLine
 10
-215.7432126617437
 20
-174.5257229712579
 30
0.0
 11
-215.7432126617437
 21
-180.5258004434881
 31
0.0
  0
LINE
  5
130
330
1F
100
AcDbEntity
  8
0-A
  6
Continuous
 62
     2
370
     9
100
AcDbLine
 10
-209.1546421369167
 20
-178.0047066110082
 30
0.0
 11
-211.1431565694925
 21
-178.0047066110082
 31
0.0
  0
LINE
  5
131
330
1F
100
AcDbEntity
  8
0-A
  6
Continuous
 62
     2
370
     9
100
AcDbLine
 10
-213.743129032975
 20
-183.6766351051413
 30
0.0
 11
-213.743129032975
 21
-183.5256657655275
 31
0.0
  0
ARC
  5
132
330
1F
100
AcDbEntity
  8
0-A
  6
Continuous
 62
     2
370
     9
100
AcDbCircle
 10
-213.9932416770084
 20
-180.9257923958025
 30
0.0
 40
0.2500000264941495
100
AcDbArc
 50
0.0
 51
60.67082214355469
  0
ARC
  5
133
330
1F
100
AcDbEntity
  8
0-A
  6
Continuous
 62
     2
370
     9
100
AcDbCircle
 10
-213.9932416770084
 20
-174.1257310189436
 30
0.0
 40
0.2500000264941495
100
AcDbArc
 50
299.3291778564453
 51
0.0
  0
ARC
  5
134
330
1F
100
AcDbEntity
  8
0-A
  6
Continuous
 62
     2
370
     9
100
AcDbCircle
 10
-219.1431442564153
 20
-177.5257864808124
 30
0.0
 40
10.00000086622349
100
AcDbArc
 50
2.745620727539062
 51
36.869873046875
  0
ARC
  5
135
330
1F
100
AcDbEntity
  8
0-A
  6
Continuous
 62
     2
370
     9
100
AcDbCircle
 10
-219.1431442564153
 20
-177.5257864808124
 30
0.0
 40
10.00000086622349
100
AcDbArc
 50
323.130126953125
 51
357.2543792724609
  0
LINE
  5
136
330
1F
100
AcDbEntity
  8
0-A
  6
JWW_CENTER1
 62
     2
370
     9
100
AcDbLine
 10
-207.0689662750719
 20
-177.524795543237
 30
0.0
 11
-228.362728364275
 21
-177.5269260590241
 31
0.0
  0
LINE
  5
137
330
1F
100
AcDbEntity
  8
仕上
  6
Continuous
 62
     3
370
     9
100
AcDbLine
 10
-213.7431042595358
 20
-162.52546893304
 30
0.0
 11
-214.7431089137608
 21
-162.5255680267975
 31
0.0
  0
LINE
  5
138
330
1F
100
AcDbEntity
  8
仕上
  6
Continuous
 62
     3
370
     9
100
AcDbLine
 10
-57.74304708326235
 20
-318.5255508827528
 30
0.0
 11
-57.74314617701975
 21
-319.525555536978
 31
0.0
  0
LINE
  5
139
330
1F
100
AcDbEntity
  8
仕上
  6
Continuous
 62
     3
370
     9
100
AcDbLine
 10
-63.70190155235559
 20
-324.5255540346647
 30
0.0
 11
-192.7431056145633
 21
-324.5255540346647
 31
0.0
  0
LINE
  5
13A
330
1F
100
AcDbEntity
  8
仕上
  6
Continuous
 62
     3
370
     9
100
AcDbLine
 10
-70.05623920779453
 20
-314.6977076695792
 30
0.0
 11
-73.14823695090809
 21
-317.6835759983661
 31
0.0
  0
LINE
  5
13B
330
1F
100
AcDbEntity
  8
仕上
  6
Continuous
 62
     3
370
     9
100
AcDbLine
 10
-81.22185129968375
 20
-303.5321203511295
 30
0.0
 11
-90.79131069198138
 21
-313.4415456521105
 31
0.0
  0
LINE
  5
13C
330
1F
100
AcDbEntity
  8
仕上
  6
Continuous
 62
     3
370
     9
100
AcDbLine
 10
-88.44100495062321
 20
-296.3129419267509
 30
0.0
 11
-110.5709944862751
 21
-317.6835759983662
 31
0.0
  0
LINE
  5
13D
330
1F
100
AcDbEntity
  8
仕上
  6
Continuous
 62
     3
370
     9
100
AcDbLine
 10
-99.60661704251243
 20
-285.1473298348616
 30
0.0
 11
-126.930060864011
 21
-313.4415704255499
 31
0.0
  0
LINE
  5
13E
330
1F
100
AcDbEntity
  8
仕上
  6
Continuous
 62
     3
370
     9
100
AcDbLine
 10
-106.8257954668911
 20
-277.9281514104829
 30
0.0
 11
-147.9937520216426
 21
-317.6835759983662
 31
0.0
  0
LINE
  5
13F
330
1F
100
AcDbEntity
  8
仕上
  6
Continuous
 62
     3
370
     9
100
AcDbLine
 10
-117.9914075587803
 20
-266.7625393185937
 30
0.0
 11
-163.0688358094799
 21
-313.44157042555
 31
0.0
  0
LINE
  5
140
330
1F
100
AcDbEntity
  8
仕上
  6
Continuous
 62
     3
370
     9
100
AcDbLine
 10
-125.2105612097198
 20
-259.5434104410938
 30
0.0
 11
-185.416435236692
 21
-317.6835759983662
 31
0.0
  0
LINE
  5
141
330
1F
100
AcDbEntity
  8
仕上
  6
Continuous
 62
     3
370
     9
100
AcDbLine
 10
-154.7609390444372
 20
-229.9930078329367
 30
0.0
 11
-212.9011293751487
 21
-290.1989066333485
 31
0.0
  0
LINE
  5
142
330
1F
100
AcDbEntity
  8
仕上
  6
Continuous
 62
     3
370
     9
100
AcDbLine
 10
-161.9800926953767
 20
-222.773878955437
 30
0.0
 11
-208.6591238023329
 21
-267.8512576592576
 31
0.0
  0
LINE
  5
143
330
1F
100
AcDbEntity
  8
仕上
  6
Continuous
 62
     3
370
     9
100
AcDbLine
 10
-173.1457047872659
 20
-211.6082420901083
 30
0.0
 11
-212.9011293751487
 21
-252.7761986448598
 31
0.0
  0
LINE
  5
144
330
1F
100
AcDbEntity
  8
仕上
  6
Continuous
 62
     3
370
     9
100
AcDbLine
 10
-180.3648832116446
 20
-204.3890636657296
 30
0.0
 11
-208.6591238023329
 21
-231.7125322606674
 31
0.0
  0
LINE
  5
145
330
1F
100
AcDbEntity
  8
仕上
  6
Continuous
 62
     3
370
     9
100
AcDbLine
 10
-88.6332963871314
 20
-318.5255508827528
 30
0.0
 11
-75.23220344543506
 21
-318.5255508827528
 31
0.0
  0
LINE
  5
146
330
1F
100
AcDbEntity
  8
仕上
  6
Continuous
 62
     3
370
     9
100
AcDbLine
 10
-124.772046559161
 20
-318.5255508827528
 30
0.0
 11
-112.6549609808026
 21
-318.5255508827528
 31
0.0
  0
LINE
  5
147
330
1F
100
AcDbEntity
  8
仕上
  6
Continuous
 62
     3
370
     9
100
AcDbLine
 10
-160.9107967311907
 20
-318.5255508827528
 30
0.0
 11
-150.0777185161696
 21
-318.5255508827528
 31
0.0
  0
LINE
  5
148
330
1F
100
AcDbEntity
  8
仕上
  6
Continuous
 62
     3
370
     9
100
AcDbLine
 10
-192.7431056145633
 20
-318.5255508827528
 30
0.0
 11
-187.5004265046587
 21
-318.5255508827528
 31
0.0
  0
LINE
  5
149
330
1F
100
AcDbEntity
  8
仕上
  6
Continuous
 62
     3
370
     9
100
AcDbLine
 10
-213.7431042595358
 20
-297.5255522377803
 30
0.0
 11
-213.7431042595358
 21
-292.2828731278756
 31
0.0
  0
LINE
  5
14A
330
1F
100
AcDbEntity
  8
仕上
  6
Continuous
 62
     3
370
     9
100
AcDbLine
 10
-213.7431042595358
 20
-265.6932433544079
 30
0.0
 11
-213.7431042595358
 21
-254.8601899128264
 31
0.0
  0
LINE
  5
14B
330
1F
100
AcDbEntity
  8
仕上
  6
Continuous
 62
     3
370
     9
100
AcDbLine
 10
-213.7431042595358
 20
-229.554468408939
 30
0.0
 11
-213.7431042595358
 21
-217.4374323774589
 31
0.0
  0
LINE
  5
14C
330
1F
100
AcDbEntity
  8
仕上
  6
Continuous
 62
     3
370
     9
100
AcDbLine
 10
-213.7431042595358
 20
-182.6818328731869
 30
0.0
 11
-213.7431042595358
 21
-162.52546893304
 31
0.0
  0
LINE
  5
14D
330
1F
100
AcDbEntity
  8
仕上
  6
Continuous
 62
     3
370
     9
100
AcDbLine
 10
-209.9026018188365
 20
-186.6786804898466
 30
0.0
 11
-188.7455891150403
 21
-187.5230088509748
 31
0.0
  0
LINE
  5
14E
330
1F
100
AcDbEntity
  8
仕上
  6
Continuous
 62
     3
370
     9
100
AcDbLine
 10
-205.8342332826714
 20
-192.8457804904121
 30
0.0
 11
-208.6590990288933
 21
-195.5737325417589
 31
0.0
  0
LINE
  5
14F
330
1F
100
AcDbEntity
  8
仕上
  6
Continuous
 62
     3
370
     9
100
AcDbLine
 10
-213.7430794860961
 20
-193.4157677837881
 30
0.0
 11
-213.7430794860961
 21
-191.8470145081562
 31
0.0
  0
LINE
  5
150
330
1F
100
AcDbEntity
  8
仕上
  6
Continuous
 62
     3
370
     9
100
AcDbLine
 10
-191.8953089719212
 20
-193.6012712979049
 30
0.0
 11
-212.9011293751487
 21
-215.3534411094925
 31
0.0
  0
LINE
  5
151
330
1F
100
AcDbEntity
  8
仕上
  6
Continuous
 62
     3
370
     9
100
AcDbLine
 10
-214.7431089137608
 20
-162.5255680267975
 30
0.0
 11
-219.7430826380082
 21
-168.4842986286938
 31
0.0
  0
LINE
  5
152
330
1F
100
AcDbEntity
  8
仕上
  6
Continuous
 62
     3
370
     9
100
AcDbLine
 10
-219.7431074114475
 20
-184.2793481119451
 30
0.0
 11
-219.7431074114475
 21
-297.5255522377803
 31
0.0
  0
LINE
  5
153
330
1F
100
AcDbEntity
  8
仕上
  6
Continuous
 62
     3
370
     9
100
AcDbLine
 10
-219.7430826380082
 20
-173.5258174107902
 30
0.0
 11
-213.743129032975
 21
-173.5258174107902
 31
0.0
  0
LINE
  5
154
330
1F
100
AcDbEntity
  8
仕上
  6
Continuous
 62
     3
370
     9
100
AcDbLine
 10
-219.7422898879481
 20
-181.5263005665011
 30
0.0
 11
-213.7423362829145
 21
-181.5251114414106
 31
0.0
  0
LINE
  5
155
330
1F
100
AcDbEntity
  8
仕上
  6
Continuous
 62
     3
370
     9
100
AcDbLine
 10
-193.2828940853287
 20
-193.346699434782
 30
0.0
 11
-210.141863696419
 21
-192.6738528210785
 31
0.0
  0
LINE
  5
156
330
1F
100
AcDbEntity
  8
仕上
  6
Continuous
 62
     3
370
     9
100
AcDbLine
 10
-189.9467540970736
 20
-194.807168006861
 30
0.0
 11
-61.81319930706286
 21
-322.9407475703112
 31
0.0
  0
LINE
  5
157
330
1F
100
AcDbEntity
  8
仕上
  6
Continuous
 62
     3
370
     9
100
AcDbLine
 10
-143.5953764994269
 20
-241.1585456045078
 30
0.0
 11
-203.8057840658066
 21
-299.3030712871118
 31
0.0
  0
LINE
  5
158
330
1F
100
AcDbEntity
  8
仕上
  6
Continuous
 62
     3
370
     9
100
AcDbLine
 10
-142.7660608425658
 20
-240.9166825157896
 30
0.0
 11
-139.9857377403587
 21
-236.2828849990957
 31
0.0
  0
LINE
  5
159
330
1F
100
AcDbEntity
  8
仕上
  6
Continuous
 62
     3
370
     9
100
AcDbLine
 10
-136.1342606660119
 20
-247.5484826923438
 30
0.0
 11
-131.500463149318
 21
-244.768184363576
 31
0.0
  0
LINE
  5
15A
330
1F
100
AcDbEntity
  8
仕上
  6
Continuous
 62
     3
370
     9
100
AcDbLine
 10
-69.00864477651021
 20
-314.6740861951254
 30
0.0
 11
-66.22832167430306
 21
-310.0402762917119
 31
0.0
  0
LINE
  5
15B
330
1F
100
AcDbEntity
  8
仕上
  6
Continuous
 62
     3
370
     9
100
AcDbLine
 10
-78.41450037510731
 20
-326.1841358015078
 30
0.0
 11
-78.15849165250029
 21
-326.6962647271993
 31
0.0
  0
LINE
  5
15C
330
1F
100
AcDbEntity
  8
仕上
  6
Continuous
 62
     3
370
     9
100
AcDbLine
 10
-67.82306228785001
 20
-327.5255432239011
 30
0.0
 11
-76.8167869488343
 21
-327.5255432239011
 31
0.0
  0
LINE
  5
15D
330
1F
100
AcDbEntity
  8
仕上
  6
Continuous
 62
     3
370
     9
100
AcDbLine
 10
-66.85888002697584
 20
-327.1746026815696
 30
0.0
 11
-57.74314617701975
 21
-319.5255555369781
 31
0.0
  0
LINE
  5
15E
330
1F
100
AcDbEntity
  8
仕上
  6
Continuous
 62
     3
370
     9
100
AcDbLine
 10
-187.7225203887474
 20
-195.9601734227296
 30
0.0
 11
-183.0887476454927
 21
-193.1798255470829
 31
0.0
  0
ARC
  5
15F
330
1F
100
AcDbEntity
  8
仕上
  6
Continuous
 62
     3
370
     9
100
AcDbCircle
 10
-210.7431150702992
 20
-292.2828731278756
 30
0.0
 40
3.000000027616052
100
AcDbArc
 50
136.0000305175782
 51
179.9998321533203
  0
ARC
  5
160
330
1F
100
AcDbEntity
  8
仕上
  6
Continuous
 62
     3
370
     9
100
AcDbCircle
 10
-210.7431150702992
 20
-254.8601899128264
 30
0.0
 40
3.000000027616052
100
AcDbArc
 50
136.0000305175782
 51
179.9998321533203
  0
ARC
  5
161
330
1F
100
AcDbEntity
  8
仕上
  6
Continuous
 62
     3
370
     9
100
AcDbCircle
 10
-210.7431150702992
 20
-265.6932433544079
 30
0.0
 40
3.000000027616052
100
AcDbArc
 50
179.9998321533203
 51
313.9999694824219
  0
ARC
  5
162
330
1F
100
AcDbEntity
  8
仕上
  6
Continuous
 62
     3
370
     9
100
AcDbCircle
 10
-210.7431150702992
 20
-229.554468408939
 30
0.0
 40
3.000000027616052
100
AcDbArc
 50
179.9999237060547
 51
313.9999694824218
  0
ARC
  5
163
330
1F
100
AcDbEntity
  8
仕上
  6
Continuous
 62
     3
370
     9
100
AcDbCircle
 10
-210.7431150702992
 20
-217.4374323774589
 30
0.0
 40
3.000000027616052
100
AcDbArc
 50
136.0000305175782
 51
179.9999237060547
  0
ARC
  5
164
330
1F
100
AcDbEntity
  8
仕上
  6
Continuous
 62
     3
370
     9
100
AcDbCircle
 10
-210.7430902968599
 20
-193.4157677837881
 30
0.0
 40
3.000000027616052
100
AcDbArc
 50
179.9999237060547
 51
314.0002136230469
  0
ARC
  5
165
330
1F
100
AcDbEntity
  8
仕上
  6
Continuous
 62
     3
370
     9
100
AcDbCircle
 10
-187.5004265046587
 20
-315.5255369200771
 30
0.0
 40
3.000000027616052
100
AcDbArc
 50
270.0001678466797
 51
313.9999694824219
  0
ARC
  5
166
330
1F
100
AcDbEntity
  8
仕上
  6
Continuous
 62
     3
370
     9
100
AcDbCircle
 10
-150.0777185161696
 20
-315.5255369200772
 30
0.0
 40
3.000000027616052
100
AcDbArc
 50
270.0001678466797
 51
313.9999694824219
  0
ARC
  5
167
330
1F
100
AcDbEntity
  8
仕上
  6
Continuous
 62
     3
370
     9
100
AcDbCircle
 10
-160.9107967311907
 20
-315.5255369200772
 30
0.0
 40
3.000000027616052
100
AcDbArc
 50
136.0000305175782
 51
270.0001678466797
  0
ARC
  5
168
330
1F
100
AcDbEntity
  8
仕上
  6
Continuous
 62
     3
370
     9
100
AcDbCircle
 10
-124.772046559161
 20
-315.5255369200772
 30
0.0
 40
3.000000027616052
100
AcDbArc
 50
136.0000305175782
 51
270.0000762939453
  0
ARC
  5
169
330
1F
100
AcDbEntity
  8
仕上
  6
Continuous
 62
     3
370
     9
100
AcDbCircle
 10
-112.6549609808026
 20
-315.5255369200772
 30
0.0
 40
3.000000027616052
100
AcDbArc
 50
270.0000762939453
 51
313.9999694824219
  0
ARC
  5
16A
330
1F
100
AcDbEntity
  8
仕上
  6
Continuous
 62
     3
370
     9
100
AcDbCircle
 10
-88.6332963871314
 20
-315.5255369200772
 30
0.0
 40
3.000000027616052
100
AcDbArc
 50
135.9997863769531
 51
270.0000762939453
  0
ARC
  5
16B
330
1F
100
AcDbEntity
  8
仕上
  6
Continuous
 62
     3
370
     9
100
AcDbCircle
 10
-75.23220344543506
 20
-315.5255369200772
 30
0.0
 40
3.000000027616052
100
AcDbArc
 50
270.0
 51
313.9997406005859
  0
ARC
  5
16C
330
1F
100
AcDbEntity
  8
仕上
  6
Continuous
 62
     3
370
     9
100
AcDbCircle
 10
-192.7431056145633
 20
-297.5255522377803
 30
0.0
 40
21.00000019331236
100
AcDbArc
 50
180.0
 51
192.4957122802734
  0
ARC
  5
16D
330
1F
100
AcDbEntity
  8
仕上
  6
Continuous
 62
     3
370
     9
100
AcDbCircle
 10
-209.7431104160742
 20
-182.6818328731869
 30
0.0
 40
4.000000036821402
100
AcDbArc
 50
180.0
 51
267.7146759033203
  0
ARC
  5
16E
330
1F
100
AcDbEntity
  8
仕上
  6
Continuous
 62
     3
370
     9
100
AcDbCircle
 10
-209.7431104160742
 20
-182.6818328731869
 30
0.0
 40
10.00000009205351
100
AcDbArc
 50
180.0
 51
267.7146759033203
  0
ARC
  5
16F
330
1F
100
AcDbEntity
  8
仕上
  6
Continuous
 62
     3
370
     9
100
AcDbCircle
 10
-193.4822707255012
 20
-198.3427094087278
 30
0.0
 40
5.000000046026753
100
AcDbArc
 50
44.9998779296875
 51
87.71455383300781
  0
ARC
  5
170
330
1F
100
AcDbEntity
  8
仕上
  6
Continuous
 62
     3
370
     9
100
AcDbCircle
 10
-192.7431056145633
 20
-297.5255522377803
 30
0.0
 40
27.00000179688443
100
AcDbArc
 50
180.0
 51
188.6458740234375
  0
ARC
  5
171
330
1F
100
AcDbEntity
  8
仕上
  6
Continuous
 62
     3
370
     9
100
AcDbCircle
 10
-192.7431056145633
 20
-297.5255522377803
 30
0.0
 40
27.00000179688443
100
AcDbArc
 50
264.7287139892578
 51
270.0
  0
ARC
  5
172
330
1F
100
AcDbEntity
  8
仕上
  6
Continuous
 62
     3
370
     9
100
AcDbCircle
 10
-210.3167394050397
 20
-301.4201350966577
 30
0.0
 40
3.000000027616052
100
AcDbArc
 50
192.4957733154297
 51
285.3346710205079
  0
ARC
  5
173
330
1F
100
AcDbEntity
  8
仕上
  6
Continuous
 62
     3
370
     9
100
AcDbCircle
 10
-192.7431056145633
 20
-297.5255522377803
 30
0.0
 40
21.00000019331236
100
AcDbArc
 50
258.8873443603516
 51
269.9999694824219
  0
ARC
  5
174
330
1F
100
AcDbEntity
  8
仕上
  6
Continuous
 62
     3
370
     9
100
AcDbCircle
 10
-188.2370399513397
 20
-195.1026655918483
 30
0.0
 40
1.00000000920535
100
AcDbArc
 50
225.0
 51
300.9640045166016
  0
ARC
  5
175
330
1F
100
AcDbEntity
  8
仕上
  6
Continuous
 62
     3
370
     9
100
AcDbCircle
 10
-136.648755455165
 20
-246.6909748614625
 30
0.0
 40
1.00000000920535
100
AcDbArc
 50
225.0
 51
300.9632720947266
  0
ARC
  5
176
330
1F
100
AcDbEntity
  8
仕上
  6
Continuous
 62
     3
370
     9
100
AcDbCircle
 10
-141.9085530116849
 20
-241.4311773049426
 30
0.0
 40
1.00000000920535
100
AcDbArc
 50
149.0367279052734
 51
225.0
  0
ARC
  5
177
330
1F
100
AcDbEntity
  8
仕上
  6
Continuous
 62
     3
370
     9
100
AcDbCircle
 10
-68.15113694562933
 20
-315.1885933709981
 30
0.0
 40
1.00000000920535
100
AcDbArc
 50
149.0361175537109
 51
225.0
  0
ARC
  5
178
330
1F
100
AcDbEntity
  8
仕上
  6
Continuous
 62
     3
370
     9
100
AcDbCircle
 10
-76.8167869488343
 20
-326.025548629283
 30
0.0
 40
1.500000013808026
100
AcDbArc
 50
206.5603942871094
 51
270.0
  0
ARC
  5
179
330
1F
100
AcDbEntity
  8
仕上
  6
Continuous
 62
     3
370
     9
100
AcDbCircle
 10
-81.09788500900004
 20
-327.5255556106207
 30
0.0
 40
3.000000027616052
100
AcDbArc
 50
26.56037902832031
 51
90.0
  0
ARC
  5
17A
330
1F
100
AcDbEntity
  8
仕上
  6
Continuous
 62
     3
370
     9
100
AcDbCircle
 10
-67.82306228785001
 20
-326.025548629283
 30
0.0
 40
1.500000013808026
100
AcDbArc
 50
270.0
 51
310.0003356933594
  0
LINE
  5
17B
330
1F
100
AcDbEntity
  8
躯体
  6
Continuous
 62
     6
370
     9
100
AcDbLine
 10
-219.7430826380082
 20
-179.6557077053992
 30
0.0
 11
-219.7430826380082
 21
-183.6834101161083
 31
0.0
  0
LINE
  5
17C
330
1F
100
AcDbEntity
  8
躯体
  6
Continuous
 62
     6
370
     9
100
AcDbLine
 10
-222.7430966006841
 20
-301.584382999782
 30
0.0
 11
-222.7430966006841
 21
-187.2587624350671
 31
0.0
  0
LINE
  5
17D
330
1F
100
AcDbEntity
  8
躯体
  6
Continuous
 62
     6
370
     9
100
AcDbLine
 10
-226.7430408972668
 20
-192.0256676415781
 30
0.0
 11
-219.7430826380082
 21
-183.6834101161083
 31
0.0
  0
LINE
  5
17E
330
1F
100
AcDbEntity
  8
躯体
  6
JWW_HOJO
 62
     6
370
     9
100
AcDbLine
 10
-222.7430966006841
 20
-159.6719898643282
 30
0.0
 11
-222.7430966006841
 21
-187.2587624350671
 31
0.0
  0
LINE
  5
17F
330
1F
100
AcDbEntity
  8
躯体
  6
Continuous
 62
     6
370
     9
100
AcDbLine
 10
-226.7430408972668
 20
-192.0256676415781
 30
0.0
 11
-227.0412140137078
 21
-191.670317427036
 31
0.0
  0
ARC
  5
180
330
1F
100
AcDbEntity
  8
躯体
  6
Continuous
 62
     6
370
     9
100
AcDbCircle
 10
-224.7430935224147
 20
-189.7419529052876
 30
0.0
 40
3.000000027616052
100
AcDbArc
 50
180.0
 51
220.0001831054688
  0
LINE
  5
181
330
1F
100
AcDbEntity
  8
躯体
  6
Continuous
 62
     6
370
     9
100
AcDbLine
 10
-85.74315053667397
 20
-335.0254171032345
 30
0.0
 11
-85.3877507752527
 21
-335.3236273798345
 31
0.0
  0
LINE
  5
182
330
1F
100
AcDbEntity
  8
躯体
  6
Continuous
 62
     6
370
     9
100
AcDbLine
 10
-81.85097070141683
 20
-331.7594726554777
 30
0.0
 11
-85.74315053667397
 21
-335.0254171032344
 31
0.0
  0
ARC
  5
183
330
1F
100
AcDbEntity
  8
躯体
  6
Continuous
 62
     6
370
     9
100
AcDbCircle
 10
-83.45938625350482
 20
-333.0255068885414
 30
0.0
 40
3.000000027616052
100
AcDbArc
 50
229.9998168945312
 51
270.0
  0
ARC
  5
184
330
1F
100
AcDbEntity
  8
躯体
  6
Continuous
 62
     6
370
     9
100
AcDbCircle
 10
-81.20817426968779
 20
-332.5255169481485
 30
0.0
 40
1.00000000920535
100
AcDbArc
 50
90.0
 51
130.0003967285156
  0
LINE
  5
185
330
1F
100
AcDbEntity
  8
躯体
  6
JWW_DASHED2
 62
     6
370
     9
100
AcDbLine
 10
-212.161766076696
 20
-308.6345074737955
 30
0.0
 11
-215.1579649297064
 21
-312.9623158539224
 31
0.0
  0
ARC
  5
186
330
1F
100
AcDbEntity
  8
躯体
  6
JWW_DASHED2
 62
     6
370
     9
100
AcDbCircle
 10
-212.9839222095743
 20
-308.0653129304798
 30
0.0
 40
1.00000000920535
100
AcDbArc
 50
325.3048400878906
 51
45.00074768066404
  0
ARC
  5
187
330
1F
100
AcDbEntity
  8
躯体
  6
JWW_DASHED2
 62
     6
370
     9
100
AcDbCircle
 10
-199.7828747909139
 20
-321.2663851225799
 30
0.0
 40
1.00000000920535
100
AcDbArc
 50
44.99925231933594
 51
124.6951599121094
  0
LINE
  5
188
330
1F
100
AcDbEntity
  8
躯体
  6
JWW_DASHED2
 62
     6
370
     9
100
AcDbLine
 10
-200.352094107669
 20
-320.444204216262
 30
0.0
 11
-204.679902487796
 21
-323.4403782958331
 31
0.0
  0
LINE
  5
189
330
1F
100
AcDbEntity
  8
仕上
  6
Continuous
 62
     3
370
     9
100
AcDbLine
 10
-213.7431042595358
 20
-162.52546893304
 30
0.0
 11
-135.7430880581187
 21
-240.5255346813358
 31
0.0
  0
LINE
  5
18A
330
1F
100
AcDbEntity
  8
仕上
  6
Continuous
 62
     3
370
     9
100
AcDbLine
 10
-57.74304708326235
 20
-318.5255508827528
 30
0.0
 11
-135.7430880581187
 21
-240.5255346813358
 31
0.0
  0
LINE
  5
18B
330
1F
100
AcDbEntity
  8
躯体
  6
Continuous
 62
     6
370
     9
100
AcDbLine
 10
-219.7431074114475
 20
-336.0255084644974
 30
0.0
 11
-29.02691481984311
 21
-336.0255084644975
 31
0.0
  0
LINE
  5
18C
330
1F
100
AcDbEntity
  8
躯体
  6
Continuous
 62
     6
370
     9
100
AcDbLine
 10
-227.7430950983708
 20
-328.0255083908547
 30
0.0
 11
-227.7430950983708
 21
-137.3093777328484
 31
0.0
  0
LINE
  5
18D
330
1F
100
AcDbEntity
  8
0-A
  6
Continuous
 62
     2
370
     9
100
AcDbLine
 10
-196.7428108663958
 20
-320.6294934589297
 30
0.0
 11
-212.2991434877308
 21
-305.0731112907159
 31
0.0
  0
LINE
  5
18E
330
1F
100
AcDbEntity
  8
0-A
  6
Continuous
 62
     2
370
     9
100
AcDbLine
 10
-213.4305216910161
 20
-306.2044647205618
 30
0.0
 11
-212.2991434877308
 21
-305.073111290716
 31
0.0
  0
LINE
  5
18F
330
1F
100
AcDbEntity
  8
0-A
  6
Continuous
 62
     2
370
     9
100
AcDbLine
 10
-197.8741890696811
 20
-321.7608468887755
 30
0.0
 11
-196.7428108663958
 21
-320.6294934589297
 31
0.0
  0
LINE
  5
190
330
1F
100
AcDbEntity
  8
0-A
  6
Continuous
 62
     2
370
     9
100
AcDbLine
 10
-211.0263832658738
 20
-306.3459706063304
 30
0.0
 11
-209.2585258579024
 21
-304.5781379717984
 31
0.0
  0
LINE
  5
191
330
1F
100
AcDbEntity
  8
0-A
  6
Continuous
 62
     2
370
     9
100
AcDbLine
 10
-198.0155215413738
 20
-319.3567332370727
 30
0.0
 11
-196.2477632271602
 21
-317.5889501494197
 31
0.0
  0
LINE
  5
192
330
1F
100
AcDbEntity
  8
0-A
  6
Continuous
 62
     2
370
     9
100
AcDbLine
 10
-201.1886275250345
 20
-302.5998797431284
 30
0.0
 11
-206.2126562589247
 21
-307.623982797337
 31
0.0
  0
LINE
  5
193
330
1F
100
AcDbEntity
  8
0-A
  6
Continuous
 62
     2
370
     9
100
AcDbLine
 10
-194.2696288656871
 20
-309.5190022696726
 30
0.0
 11
-199.2936575995773
 21
-314.5430557770025
 31
0.0
  0
LINE
  5
194
330
1F
100
AcDbEntity
  8
0-A
  6
Continuous
 62
     2
370
     9
100
AcDbLine
 10
-202.2908969370419
 20
-300.2320839535643
 30
0.0
 11
-191.9017587558046
 21
-310.6212221348015
 31
0.0
  0
LINE
  5
195
330
1F
100
AcDbEntity
  8
0-A
  6
Continuous
 62
     2
370
     9
100
AcDbLine
 10
-204.6587670469239
 20
-299.1298145415566
 30
0.0
 11
-209.6827710073753
 21
-304.153892822326
 31
0.0
  0
LINE
  5
196
330
1F
100
AcDbEntity
  8
0-A
  6
Continuous
 62
     2
370
     9
100
AcDbLine
 10
-195.8235180776878
 20
-318.0132200723316
 30
0.0
 11
-209.6827710073753
 21
-304.153892822326
 31
0.0
  0
LINE
  5
197
330
1F
100
AcDbEntity
  8
0-A
  6
Continuous
 62
     2
370
     9
100
AcDbLine
 10
-190.7994397969183
 20
-312.9890922446836
 30
0.0
 11
-195.8235180776878
 21
-318.0132200723316
 31
0.0
  0
LINE
  5
198
330
1F
100
AcDbEntity
  8
0-A
  6
Continuous
 62
     2
370
     9
100
AcDbLine
 10
-205.9880354840188
 20
-311.384219294428
 30
0.0
 11
-204.2202771698048
 21
-309.6164114333355
 31
0.0
  0
LINE
  5
199
330
1F
100
AcDbEntity
  8
0-A
  6
Continuous
 62
     2
370
     9
100
AcDbLine
 10
-206.6951685378313
 20
-310.6771110140546
 30
0.0
 11
-204.9274102236177
 21
-308.9093279264015
 31
0.0
  0
ARC
  5
19A
330
1F
100
AcDbEntity
  8
0-A
  6
Continuous
 62
     2
370
     9
100
AcDbCircle
 10
-204.9860489546427
 20
-302.9271368774075
 30
0.0
 40
3.811438164195499
100
AcDbArc
 50
4.925643920898438
 51
85.07435607910156
  0
ARC
  5
19B
330
1F
100
AcDbEntity
  8
0-A
  6
Continuous
 62
     2
370
     9
100
AcDbCircle
 10
-206.8695983245429
 20
-315.2000473894994
 30
0.0
 40
13.8216220752613
100
AcDbArc
 50
24.26925659179688
 51
65.73074340820312
  0
ARC
  5
19C
330
1F
100
AcDbEntity
  8
0-A
  6
Continuous
 62
     2
370
     9
100
AcDbCircle
 10
-194.5968364530872
 20
-313.3163246055234
 30
0.0
 40
3.811438164195499
100
AcDbArc
 50
4.925643920898438
 51
85.07435607910156
  0
LINE
  5
19D
330
1F
100
AcDbEntity
  8
0-A
  6
JWW_DASHED2
 62
     2
370
     9
100
AcDbLine
 10
-212.7233758291718
 20
-315.3968843308234
 30
0.0
 11
-208.4807342725089
 21
-311.1542427741603
 31
0.0
  0
LINE
  5
19E
330
1F
100
AcDbEntity
  8
0-A
  6
JWW_DASHED2
 62
     2
370
     9
100
AcDbLine
 10
-213.4305033642031
 20
-314.6897581449488
 30
0.0
 11
-209.1878615139299
 21
-310.4471162946754
 31
0.0
  0
LINE
  5
19F
330
1F
100
AcDbEntity
  8
0-A
  6
JWW_DASHED2
 62
     2
370
     9
100
AcDbLine
 10
-206.359469555156
 20
-321.7607784628914
 30
0.0
 11
-202.1168306408849
 21
-317.5181395486205
 31
0.0
  0
LINE
  5
1A0
330
1F
100
AcDbEntity
  8
0-A
  6
JWW_DASHED2
 62
     2
370
     9
100
AcDbLine
 10
-207.0664652155092
 20
-321.0537841514432
 30
0.0
 11
-202.8238198143258
 21
-316.8111511369669
 31
0.0
  0
ARC
  5
1A1
330
1F
100
AcDbEntity
  8
躯体
  6
Continuous
 62
     6
370
     9
100
AcDbCircle
 10
-219.743107411447
 20
-328.0255083908547
 30
0.0
 40
8.000000073642804
100
AcDbArc
 50
180.1008256072273
 51
186.6280059814453
  0
ARC
  5
1A2
330
1F
100
AcDbEntity
  8
躯体
  6
Continuous
 62
     6
370
     9
100
AcDbCircle
 10
-219.743107411447
 20
-328.0255083908547
 30
0.0
 40
8.000000073642804
100
AcDbArc
 50
263.9936578621398
 51
270.0
  0
LINE
  5
1A3
330
1F
100
AcDbEntity
  8
0-A
  6
Continuous
 62
     2
370
     9
100
AcDbLine
 10
-188.3994316839114
 20
-289.6585966159467
 30
0.0
 11
-186.985091255968
 21
-289.6586461628254
 31
0.0
  0
LINE
  5
1A4
330
1F
100
AcDbEntity
  8
0-A
  6
Continuous
 62
     2
370
     9
100
AcDbLine
 10
-181.3282497864204
 20
-295.3155124058123
 30
0.0
 11
-181.3283984270568
 21
-296.7296298728015
 31
0.0
  0
LINE
  5
1A5
330
1F
100
AcDbEntity
  8
0-A
  6
JWW_HOJO
 62
     2
370
     9
100
AcDbLine
 10
-184.5103485285779
 20
-292.1334632105338
 30
0.0
 11
-183.8031411544468
 21
-292.8404971705889
 31
0.0
  0
LINE
  5
1A6
330
1F
100
AcDbEntity
  8
0-A
  6
Continuous
 62
     2
370
     9
100
AcDbLine
 10
-184.6870326982732
 20
-291.9567047205199
 30
0.0
 11
-186.985091255968
 21
-289.6586461628254
 31
0.0
  0
LINE
  5
1A7
330
1F
100
AcDbEntity
  8
0-A
  6
Continuous
 62
     2
370
     9
100
AcDbLine
 10
-181.3282497864204
 20
-295.3155124058123
 30
0.0
 11
-183.6263331175544
 21
-293.0173052074815
 31
0.0
  0
LINE
  5
1A8
330
1F
100
AcDbEntity
  8
0-A
  6
Continuous
 62
     2
370
     9
100
AcDbLine
 10
-185.3941657520861
 20
-292.6638377743327
 30
0.0
 11
-188.3994316839114
 21
-289.6585966159467
 31
0.0
  0
LINE
  5
1A9
330
1F
100
AcDbEntity
  8
0-A
  6
Continuous
 62
     2
370
     9
100
AcDbLine
 10
-181.3283984270568
 20
-296.7296298728015
 30
0.0
 11
-184.3334909448065
 21
-293.724487808173
 31
0.0
  0
LINE
  5
1AA
330
1F
100
AcDbEntity
  8
0-A
  6
Continuous
 62
     2
370
     9
100
AcDbLine
 10
-186.1012244855808
 20
-293.3708965078272
 30
0.0
 11
-184.6870326982732
 21
-291.9567047205199
 31
0.0
  0
LINE
  5
1AB
330
1F
100
AcDbEntity
  8
0-A
  6
Continuous
 62
     2
370
     9
100
AcDbLine
 10
-185.0405496783012
 20
-294.4315465416677
 30
0.0
 11
-186.1012244855808
 21
-293.3708965078273
 31
0.0
  0
LINE
  5
1AC
330
1F
100
AcDbEntity
  8
0-A
  6
Continuous
 62
     2
370
     9
100
AcDbLine
 10
-185.0405496783012
 20
-294.4315465416677
 30
0.0
 11
-183.6263331175544
 21
-293.0173052074815
 31
0.0
  0
LINE
  5
1AD
330
1F
100
AcDbEntity
  8
0-A
  6
Continuous
 62
     2
370
     9
100
AcDbLine
 10
-200.6318719627648
 20
-301.8911089278416
 30
0.0
 11
-188.3994316839114
 21
-289.6585966159467
 31
0.0
  0
LINE
  5
1AE
330
1F
100
AcDbEntity
  8
0-A
  6
Continuous
 62
     2
370
     9
100
AcDbLine
 10
-199.9246158360202
 20
-302.598365054586
 30
0.0
 11
-186.985091255968
 21
-289.6586461628254
 31
0.0
  0
LINE
  5
1AF
330
1F
100
AcDbEntity
  8
0-A
  6
Continuous
 62
     2
370
     9
100
AcDbLine
 10
-194.2678236782081
 20
-308.2551572123979
 30
0.0
 11
-181.3282497864204
 21
-295.3155124058123
 31
0.0
  0
LINE
  5
1B0
330
1F
100
AcDbEntity
  8
0-A
  6
Continuous
 62
     2
370
     9
100
AcDbLine
 10
-193.560823095117
 20
-308.9621577954891
 30
0.0
 11
-181.3283984270568
 21
-296.7296298728015
 31
0.0
  0
LINE
  5
1B1
330
1F
100
AcDbEntity
  8
躯体
  6
Continuous
 62
     6
370
     9
100
AcDbLine
 10
-81.20817426968779
 20
-331.5255122939233
 30
0.0
 11
-69.5768219613874
 21
-331.5255122939233
 31
0.0
  0
LINE
  5
1B2
330
1F
100
AcDbEntity
  8
躯体
  6
JWW_DASHED2
 62
     6
370
     9
100
AcDbLine
 10
-69.5768219613874
 20
-331.5255122939233
 30
0.0
 11
-53.53961375556901
 21
-331.5255122939233
 31
0.0
  0
LINE
  5
1B3
330
1F
100
AcDbEntity
  8
0-A
  6
Continuous
 62
     2
370
     9
100
AcDbLine
 10
-227.6896189803076
 20
-328.9489078322353
 30
0.0
 11
-213.430497170837
 21
-314.6897643383026
 31
0.0
  0
LINE
  5
1B4
330
1F
100
AcDbEntity
  8
0-A
  6
Continuous
 62
     2
370
     9
100
AcDbLine
 10
-227.3361531606445
 20
-330.0096834306709
 30
0.0
 11
-212.7233758291718
 21
-315.3968843308232
 31
0.0
  0
LINE
  5
1B5
330
1F
100
AcDbEntity
  8
0-A
  6
Continuous
 62
     2
370
     9
100
AcDbLine
 10
-221.6583728150079
 20
-335.6456037109502
 30
0.0
 11
-207.0664726397122
 21
-321.0537767272546
 31
0.0
  0
LINE
  5
1B6
330
1F
100
AcDbEntity
  8
0-A
  6
Continuous
 62
     2
370
     9
100
AcDbLine
 10
-220.590916017672
 20
-335.9922912699076
 30
0.0
 11
-206.3594600701617
 21
-321.7607879478679
 31
0.0
  0
LINE
  5
1B7
330
1F
100
AcDbEntity
  8
通り芯
  6
Continuous
 62
     4
370
     9
100
AcDbLine
 10
-249.6316061105433
 20
-189.2032652555904
 30
0.0
 11
-246.2284794116426
 21
-356.2895399143086
 31
0.0
  0
LINE
  5
1B8
330
1F
100
AcDbEntity
  8
通り芯
  6
Continuous
 62
     4
370
     9
100
AcDbLine
 10
-238.635223823308
 20
-188.9136337258934
 30
0.0
 11
-235.2294234572191
 21
-356.1311797505703
 31
0.0
  0
LWPOLYLINE
  5
1B9
330
1F
100
AcDbEntity
  8
その他
  6
Continuous
 62
     7
370
     9
100
AcDbPolyline
 90
        4
 70
     1
 43
0.8
 10
-334.1236800206967
 20
-354.973201377411
 42
0.4142135623731
 10
-334.5236800206967
 20
-354.5732013774111
 42
0.4142135623731
 10
-334.9236800206967
 20
-354.973201377411
 42
0.4142135623731
 10
-334.5236800206967
 20
-355.373201377411
 42
0.4142135623731
  0
ARC
  5
1BA
330
1F
100
AcDbEntity
  8
その他
  6
Continuous
 62
     7
370
     9
100
AcDbCircle
 10
-247.9828315602074
 20
-272.3466427915297
 30
0.0
 40
45.0840832818559
100
AcDbArc
 50
156.6340206435594
 51
202.7846029352762
  0
LINE
  5
1BB
330
1F
100
AcDbEntity
  8
その他
  6
Continuous
 62
     7
370
     9
100
AcDbLine
 10
-293.0666104781626
 20
-272.3536167743965
 30
0.0
 11
-290.4691649054976
 21
-260.6380838750334
 31
0.0
  0
LINE
  5
1BC
330
1F
100
AcDbEntity
  8
その他
  6
Continuous
 62
     7
370
     9
100
AcDbLine
 10
-293.0666104781626
 20
-272.3536167743965
 30
0.0
 11
-293.5898255179795
 21
-260.3650310261291
 31
0.0
  0
TEXT
  5
1BD
330
1F
100
AcDbEntity
  8
その他
  6
Continuous
 62
     2
370
     9
100
AcDbText
 10
-297.9882880794628
 20
-325.6258436781
 30
0.0
 40
12.192
  1
1ﾟ10'
 50
90.58335496
 41
1.100000000000001
  7
ＭＳ ゴシック
100
AcDbText
  0
LINE
  5
1BE
330
1F
100
AcDbEntity
  8
その他
  6
Continuous
 62
     7
370
     9
100
AcDbLine
 10
-293.0474734246766
 20
-273.6705079630802
 30
0.0
 11
-290.2122028339129
 21
-285.330721772296
 31
0.0
  0
LINE
  5
1BF
330
1F
100
AcDbEntity
  8
その他
  6
Continuous
 62
     7
370
     9
100
AcDbLine
 10
-293.0474734246766
 20
-273.6705079630802
 30
0.0
 11
-293.3265214459122
 21
-285.6672441729054
 31
0.0
  0
LINE
  5
1C0
330
1F
100
AcDbEntity
  8
通り芯
  6
Continuous
 62
     4
370
     9
100
AcDbLine
 10
-239.0405293040199
 20
455.2105498050935
 30
0.0
 11
-229.8672839145306
 21
454.3694172176459
 31
0.0
  0
ARC
  5
1C1
330
1F
100
AcDbEntity
  8
通り芯
  6
Continuous
 62
     4
370
     9
100
AcDbCircle
 10
-230.0405493495909
 20
452.3769142613291
 30
0.0
 40
2.000000018410701
100
AcDbArc
 50
0.0000000000000127
 51
85.03048706054689
  0
ARC
  5
1C2
330
1F
100
AcDbEntity
  8
通り芯
  6
Continuous
 62
     4
370
     9
100
AcDbCircle
 10
15.95950012364483
 20
444.2105977023734
 30
0.0
 40
10.00000009205351
100
AcDbArc
 50
0.0
 51
90.0
  0
ARC
  5
1C3
330
1F
100
AcDbEntity
  8
通り芯
  6
Continuous
 62
     4
370
     9
100
AcDbCircle
 10
15.95950012364483
 20
445.2106023565987
 30
0.0
 40
10.00000009205351
100
AcDbArc
 50
0.0
 51
90.0
  0
LINE
  5
1C4
330
1F
100
AcDbEntity
  8
通り芯
  6
JWW_DASHED2
 62
     4
370
     9
100
AcDbLine
 10
-238.8278376132089
 20
449.1573788652088
 30
0.0
 11
-239.0405169173
 21
449.2105486693043
 31
0.0
  0
ARC
  5
1C5
330
1F
100
AcDbEntity
  8
通り芯
  6
JWW_DASHED2
 62
     4
370
     9
100
AcDbCircle
 10
-240.0405152677008
 20
444.3066662468096
 30
0.0
 40
5.0
100
AcDbArc
 50
0.0
 51
75.96376209178035
  0
LINE
  5
1C6
330
1F
100
AcDbEntity
  8
通り芯
  6
Continuous
 62
     4
370
     9
100
AcDbLine
 10
15.96736991324815
 20
454.2105946977471
 30
0.0
 11
-229.2255527406951
 21
454.2105946977471
 31
0.0
  0
LINE
  5
1C7
330
1F
100
AcDbEntity
  8
通り芯
  6
Continuous
 62
     4
370
     9
100
AcDbLine
 10
15.99194805750858
 20
455.2105498050935
 30
0.0
 11
-239.0405293040199
 21
455.2105498050935
 31
0.0
  0
ARC
  5
1C8
330
1F
100
AcDbEntity
  8
通り芯
  6
Continuous
 62
     4
370
     9
100
AcDbCircle
 10
-246.0407470934083
 20
396.3770124872086
 30
0.0
 40
1.0
100
AcDbArc
 50
180.0
 51
247.380465033029
  0
ARC
  5
1C9
330
1F
100
AcDbEntity
  8
通り芯
  6
Continuous
 62
     4
370
     9
100
AcDbCircle
 10
-246.0407470934083
 20
407.0436708349338
 30
0.0
 40
1.0
100
AcDbArc
 50
112.619534966971
 51
180.0
  0
ARC
  5
1CA
330
1F
100
AcDbEntity
  8
通り芯
  6
JWW_DASHED2
 62
     4
370
     9
100
AcDbCircle
 10
-238.0407470934083
 20
388.7104102919883
 30
0.0
 40
3.0
100
AcDbArc
 50
0.0
 51
67.38046503302878
  0
ARC
  5
1CB
330
1F
100
AcDbEntity
  8
通り芯
  6
JWW_DASHED2
 62
     4
370
     9
100
AcDbCircle
 10
-238.0407470934083
 20
414.7102730301543
 30
0.0
 40
3.0
100
AcDbArc
 50
292.6195349669712
 51
0.0
  0
LINE
  5
1CC
330
1F
100
AcDbEntity
  8
通り芯
  6
Continuous
 62
     4
370
     9
100
AcDbLine
 10
-246.425357161781
 20
407.9667499730939
 30
0.0
 11
-239.040748743007
 21
411.0436202341967
 31
0.0
  0
LINE
  5
1CD
330
1F
100
AcDbEntity
  8
通り芯
  6
JWW_DASHED2
 62
     4
370
     9
100
AcDbLine
 10
-239.040748743007
 20
411.0436202341967
 30
0.0
 11
-235.0405524278603
 21
412.7103416610713
 31
0.0
  0
LINE
  5
1CE
330
1F
100
AcDbEntity
  8
通り芯
  6
Continuous
 62
     4
370
     9
100
AcDbLine
 10
-246.425357161781
 20
395.4539333490485
 30
0.0
 11
-239.040748743007
 21
392.3770630879457
 31
0.0
  0
LINE
  5
1CF
330
1F
100
AcDbEntity
  8
通り芯
  6
JWW_DASHED2
 62
     4
370
     9
100
AcDbLine
 10
-239.040748743007
 20
392.3770630879457
 30
0.0
 11
-235.0405524278603
 21
390.7103416610713
 31
0.0
  0
LINE
  5
1D0
330
1F
100
AcDbEntity
  8
0-8
  6
JWW_CENTER1
 62
     2
370
     9
100
AcDbLine
 10
165.9593559604905
 20
520.1868381771186
 30
0.0
 11
165.9593559604905
 21
512.9240584994217
 31
0.0
  0
LINE
  5
1D1
330
1F
100
AcDbEntity
  8
0-8
  6
JWW_CENTER1
 62
     2
370
     9
100
AcDbLine
 10
162.0968794790565
 20
516.710232787549
 30
0.0
 11
169.6535712416198
 21
516.710232787549
 31
0.0
  0
CIRCLE
  5
1D2
330
1F
100
AcDbEntity
  8
0-8
  6
Continuous
 62
     2
370
     9
100
AcDbCircle
 10
165.9593559604905
 20
516.710232787549
 30
0.0
 40
2.099999941914238
  0
LINE
  5
1D3
330
1F
100
AcDbEntity
  8
0-8
  6
Continuous
 62
     2
370
     9
100
AcDbLine
 10
180.9593762269906
 20
531.7102530540491
 30
0.0
 11
-179.0404165127011
 21
531.7102530540491
 31
0.0
  0
LINE
  5
1D4
330
1F
100
AcDbEntity
  8
0-8
  6
JWW_CENTER1
 62
     2
370
     9
100
AcDbLine
 10
-164.040396246201
 20
520.1868381771186
 30
0.0
 11
-164.040396246201
 21
512.9240584994217
 31
0.0
  0
LINE
  5
1D5
330
1F
100
AcDbEntity
  8
0-8
  6
JWW_CENTER1
 62
     2
370
     9
100
AcDbLine
 10
-167.9026745401197
 20
516.710232787549
 30
0.0
 11
-160.3461809650717
 21
516.710232787549
 31
0.0
  0
CIRCLE
  5
1D6
330
1F
100
AcDbEntity
  8
0-8
  6
Continuous
 62
     2
370
     9
100
AcDbCircle
 10
-164.040396246201
 20
516.710232787549
 30
0.0
 40
2.099999941914238
  0
LINE
  5
1D7
330
1F
100
AcDbEntity
  8
0-8
  6
Continuous
 62
     2
370
     9
100
AcDbLine
 10
-179.0404165127011
 20
455.2105498050935
 30
0.0
 11
-179.0404165127011
 21
531.7102530540491
 31
0.0
  0
LINE
  5
1D8
330
1F
100
AcDbEntity
  8
通り芯
  6
Continuous
 62
     4
370
     9
100
AcDbLine
 10
-247.0407470934083
 20
407.0436708349338
 30
0.0
 11
-247.0407470934083
 21
404.7103060768681
 31
0.0
  0
LINE
  5
1D9
330
1F
100
AcDbEntity
  8
通り芯
  6
Continuous
 62
     4
370
     9
100
AcDbLine
 10
-247.0407470934083
 20
398.7103772452741
 30
0.0
 11
-247.0407470934083
 21
396.3770124872086
 31
0.0
  0
LINE
  5
1DA
330
1F
100
AcDbEntity
  8
通り芯
  6
Continuous
 62
     4
370
     9
100
AcDbLine
 10
-272.9789611354126
 20
341.4186761422874
 30
0.0
 11
-276.9781317248048
 21
341.4186761422874
 31
0.0
  0
LINE
  5
1DB
330
1F
100
AcDbEntity
  8
0-8
  6
JWW_CENTER1
 62
     2
370
     9
100
AcDbLine
 10
0.9594798571447427
 20
520.1868381771186
 30
0.0
 11
0.9594798571447427
 21
512.9240584994217
 31
0.0
  0
LINE
  5
1DC
330
1F
100
AcDbEntity
  8
0-8
  6
JWW_CENTER1
 62
     2
370
     9
100
AcDbLine
 10
-2.902996624289244
 20
516.710232787549
 30
0.0
 11
4.653695138273633
 21
516.710232787549
 31
0.0
  0
CIRCLE
  5
1DD
330
1F
100
AcDbEntity
  8
0-8
  6
Continuous
 62
     2
370
     9
100
AcDbCircle
 10
0.9594798571447427
 20
516.710232787549
 30
0.0
 40
2.099999941914238
  0
LINE
  5
1DE
330
1F
100
AcDbEntity
  8
通り芯
  6
Continuous
 62
     4
370
     9
100
AcDbLine
 10
-276.9781317248048
 20
341.4186761422874
 30
0.0
 11
-276.9781317248048
 21
250.7103416610713
 31
0.0
  0
LINE
  5
1DF
330
1F
100
AcDbEntity
  8
通り芯
  6
Continuous
 62
     4
370
     9
100
AcDbLine
 10
-272.9789611354126
 20
343.4259117748304
 30
0.0
 11
-272.9789611354126
 21
250.7103416610713
 31
0.0
  0
LINE
  5
1E0
330
1F
100
AcDbEntity
  8
通り芯
  6
Continuous
 62
     4
370
     9
100
AcDbLine
 10
-239.0405169173
 20
455.2105498050935
 30
0.0
 11
-239.0405169173
 21
250.7103416610713
 31
0.0
  0
LINE
  5
1E1
330
1F
100
AcDbEntity
  8
通り芯
  6
JWW_DASHED2
 62
     4
370
     9
100
AcDbLine
 10
-235.0405524278603
 20
444.3259431815595
 30
0.0
 11
-235.0405524278603
 21
250.7103416610713
 31
0.0
  0
LINE
  5
1E2
330
1F
100
AcDbEntity
  8
通り芯
  6
Continuous
 62
     4
370
     9
100
AcDbLine
 10
-228.0405524278603
 20
452.3769142613291
 30
0.0
 11
-228.0405524278603
 21
250.7103416610713
 31
0.0
  0
LINE
  5
1E3
330
1F
100
AcDbEntity
  8
通り芯
  6
Continuous
 62
     4
370
     9
100
AcDbLine
 10
25.95944757213965
 20
445.2106023565987
 30
0.0
 11
25.95944757213965
 21
250.7103416610713
 31
0.0
  0
LINE
  5
1E4
330
1F
100
AcDbEntity
  8
0-8
  6
Continuous
 62
     2
370
     9
100
AcDbLine
 10
180.9593762269906
 20
531.7102530540491
 30
0.0
 11
180.9593762269906
 21
250.7103416610713
 31
0.0
  0
LINE
  5
1E5
330
1F
100
AcDbEntity
  8
通り芯
  6
Continuous
 62
     6
370
     9
100
AcDbLine
 10
-274.7931174430594
 20
-193.8842257482545
 30
0.0
 11
-271.5216316108292
 21
-354.5268845387198
 31
0.0
  0
LINE
  5
1E6
330
1F
100
AcDbEntity
  8
通り芯
  6
Continuous
 62
     6
370
     9
100
AcDbLine
 10
-274.7931174430594
 20
-193.8842257482545
 30
0.0
 11
-277.8535778365404
 21
-190.945929953081
 31
0.0
  0
LINE
  5
1E7
330
1F
100
AcDbEntity
  8
通り芯
  6
Continuous
 62
     6
370
     9
100
AcDbLine
 10
-271.5216316108292
 20
-354.5268845387198
 30
0.0
 11
-274.4599274060026
 21
-357.5873449322008
 31
0.0
  0
LINE
  5
1E8
330
1F
100
AcDbEntity
  8
通り芯
  6
Continuous
 62
     6
370
     9
100
AcDbLine
 10
-277.9790412126918
 20
-184.7851909618783
 30
0.0
 11
-273.9798704202553
 21
-184.70374789634
 31
0.0
  0
LINE
  5
1E9
330
1F
100
AcDbEntity
  8
通り芯
  6
Continuous
 62
     6
370
     9
100
AcDbLine
 10
-274.0441703763042
 20
-181.5463703530732
 30
0.0
 11
-273.9798704202553
 21
-184.70374789634
 31
0.0
  0
LINE
  5
1EA
330
1F
100
AcDbEntity
  8
通り芯
  6
Continuous
 62
     6
370
     9
100
AcDbLine
 10
-277.9790412126918
 20
-184.7851909618783
 30
0.0
 11
-274.3344640298515
 21
-363.7480839234034
 31
0.0
  0
LINE
  5
1EB
330
1F
100
AcDbEntity
  8
通り芯
  6
Continuous
 62
     6
370
     9
100
AcDbLine
 10
-271.5216316108292
 20
-354.5268845387198
 30
0.0
 11
-247.8877594548276
 21
-352.8231501609421
 31
0.0
  0
LINE
  5
1EC
330
1F
100
AcDbEntity
  8
通り芯
  6
Continuous
 62
     6
370
     9
100
AcDbLine
 10
-273.0491018140942
 20
-356.1178618892621
 30
0.0
 11
-247.4677206557262
 21
-354.2737341804018
 31
0.0
  0
LINE
  5
1ED
330
1F
100
AcDbEntity
  8
通り芯
  6
Continuous
 62
     6
370
     9
100
AcDbLine
 10
-274.3344640298515
 20
-363.7480839234034
 30
0.0
 11
-270.335293237415
 21
-363.6666408578652
 31
0.0
  0
LINE
  5
1EE
330
1F
100
AcDbEntity
  8
通り芯
  6
Continuous
 62
     6
370
     9
100
AcDbLine
 10
-270.335293237415
 20
-363.6666408578652
 30
0.0
 11
-270.2707810234383
 21
-366.834441089667
 31
0.0
  0
LINE
  5
1EF
330
1F
100
AcDbEntity
  8
通り芯
  6
Continuous
 62
     4
370
     9
100
AcDbLine
 10
-274.0441703763042
 20
-181.5463703530732
 30
0.0
 11
-238.8222992673871
 21
-179.6216820001528
 31
0.0
  0
ARC
  5
1F0
330
1F
100
AcDbEntity
  8
通り芯
  6
Continuous
 62
     4
370
     9
100
AcDbCircle
 10
-239.0405524278601
 20
-175.627640743738
 30
0.0
 40
4.0
100
AcDbArc
 50
273.1277995407171
 51
0.0000000000000254
  0
LINE
  5
1F1
330
1F
100
AcDbEntity
  8
通り芯
  6
Continuous
 62
     4
370
     9
100
AcDbLine
 10
-239.0405045305802
 20
-151.6562552054922
 30
0.0
 11
-239.0405045305802
 21
-179.6216820001528
 31
0.0
  0
LINE
  5
1F2
330
1F
100
AcDbEntity
  8
通り芯
  6
Continuous
 62
     4
370
     9
100
AcDbLine
 10
-235.0405524278603
 20
-175.627640743738
 30
0.0
 11
-235.0405524278603
 21
-95.08198632369349
 31
0.0
  0
LINE
  5
1F3
330
1F
100
AcDbEntity
  8
通り芯
  6
Continuous
 62
     4
370
     9
100
AcDbLine
 10
-270.2707810234383
 20
-366.834441089667
 30
0.0
 11
-235.0405524278603
 21
-367.3229766323665
 31
0.0
  0
ARC
  5
1F4
330
1F
100
AcDbEntity
  8
通り芯
  6
Continuous
 62
     4
370
     9
100
AcDbCircle
 10
-236.5574725105619
 20
-357.3009801750872
 30
0.0
 40
10.0
100
AcDbArc
 50
269.205533659283
 51
288.0082782804424
  0
ARC
  5
1F5
330
1F
100
AcDbEntity
  8
通り芯
  6
Continuous
 62
     4
370
     9
100
AcDbCircle
 10
-94.64255353992826
 20
-351.2798406437503
 30
0.0
 40
3.0
100
AcDbArc
 50
271.7066814444855
 51
310.0
  0
ARC
  5
1F6
330
1F
100
AcDbEntity
  8
通り芯
  6
Continuous
 62
     4
370
     9
100
AcDbCircle
 10
-203.3111022477356
 20
-367.5235007099098
 30
0.0
 40
10.0
100
AcDbArc
 50
91.70668144448543
 51
108.0082782804424
  0
LINE
  5
1F7
330
1F
100
AcDbEntity
  8
通り芯
  6
Continuous
 62
     4
370
     9
100
AcDbLine
 10
-81.32921291425782
 20
-344.0248433030096
 30
0.0
 11
-92.71419071086848
 21
-353.5779739731074
 31
0.0
  0
LINE
  5
1F8
330
1F
100
AcDbEntity
  8
通り芯
  6
Continuous
 62
     4
370
     9
100
AcDbLine
 10
-206.4026462765912
 20
-358.0133821240221
 30
0.0
 11
-235.0405524278603
 21
-367.3229766323665
 31
0.0
  0
LINE
  5
1F9
330
1F
100
AcDbEntity
  8
通り芯
  6
Continuous
 62
     4
370
     9
100
AcDbLine
 10
-94.55320512264188
 20
-354.2785098252921
 30
0.0
 11
-203.6089303053564
 21
-357.5279367714372
 31
0.0
  0
LWPOLYLINE
  5
1FA
330
1F
100
AcDbEntity
  8
その他
  6
Continuous
 62
     7
370
     9
100
AcDbPolyline
 90
        4
 70
     1
 43
0.8
 10
64.29968482174073
 20
363.2102954723044
 42
0.4142135623731
 10
63.89968482174072
 20
363.6102954723044
 42
0.4142135623731
 10
63.49968482174072
 20
363.2102954723044
 42
0.4142135623731
 10
63.89968482174072
 20
362.8102954723045
 42
0.4142135623731
  0
TEXT
  5
1FB
330
1F
100
AcDbEntity
  8
その他
  6
Continuous
 62
     2
370
   211
100
AcDbText
 10
59.24368482174063
 20
245.6281141872692
 30
0.0
 40
12.192
  1
225
 50
90.0
 41
1.083333333333335
  7
ＭＳ ゴシック
100
AcDbText
  0
LINE
  5
1FC
330
1F
100
AcDbEntity
  8
その他
  6
Continuous
 62
     7
370
     9
100
AcDbLine
 10
63.89968482174072
 20
363.2102954723044
 30
0.0
 11
63.89968482174072
 21
245.6281141872692
 31
0.0
  0
LINE
  5
1FD
330
1F
100
AcDbEntity
  8
通り芯
  6
JWW_CENTER1
 62
     4
370
     9
100
AcDbLine
 10
-281.6815079640342
 20
250.7103416610713
 30
0.0
 11
40.27436638160702
 21
250.7103416610713
 31
0.0
  0
LWPOLYLINE
  5
1FE
330
1F
100
AcDbEntity
  8
その他
  6
Continuous
 62
     7
370
     9
100
AcDbPolyline
 90
        4
 70
     1
 43
0.8
 10
108.7166944239351
 20
406.210597794427
 42
0.4142135623731
 10
108.3166944239351
 20
406.610597794427
 42
0.4142135623731
 10
107.9166944239351
 20
406.210597794427
 42
0.4142135623731
 10
108.3166944239351
 20
405.8105977944271
 42
0.4142135623731
  0
LINE
  5
1FF
330
1F
100
AcDbEntity
  8
その他
  6
Continuous
 62
     7
370
     9
100
AcDbLine
 10
108.3166944239351
 20
406.210597794427
 30
0.0
 11
108.3166944239351
 21
245.6281141872692
 31
0.0
  0
TEXT
  5
200
330
1F
100
AcDbEntity
  8
その他
  6
Continuous
 62
     2
370
   211
100
AcDbText
 10
103.660694423935
 20
245.6281141872692
 30
0.0
 40
12.192
  1
311
 50
90.0
 41
1.083333333333335
  7
ＭＳ ゴシック
100
AcDbText
  0
LINE
  5
201
330
1F
100
AcDbEntity
  8
通り芯
  6
JWW_CENTER1
 62
     4
370
     9
100
AcDbLine
 10
69.33962211352946
 20
250.7103416610713
 30
0.0
 11
82.6847132363987
 21
250.7103416610713
 31
0.0
  0
LWPOLYLINE
  5
202
330
1F
100
AcDbEntity
  8
その他
  6
Continuous
 62
     7
370
     9
100
AcDbPolyline
 90
        4
 70
     1
 43
0.8
 10
151.7972352822539
 20
455.2105498050935
 42
0.4142135623731
 10
151.3972352822539
 20
455.6105498050935
 42
0.4142135623731
 10
150.9972352822539
 20
455.2105498050935
 42
0.4142135623731
 10
151.3972352822539
 20
454.8105498050935
 42
0.4142135623731
  0
TEXT
  5
203
330
1F
100
AcDbEntity
  8
その他
  6
Continuous
 62
     2
370
   211
100
AcDbText
 10
146.7412352822538
 20
245.6281141872692
 30
0.0
 40
12.192
  1
409
 50
90.0
 41
1.083333333333335
  7
ＭＳ ゴシック
100
AcDbText
  0
LINE
  5
204
330
1F
100
AcDbEntity
  8
通り芯
  6
JWW_CENTER1
 62
     4
370
     9
100
AcDbLine
 10
114.6659007731419
 20
250.7103416610713
 30
0.0
 11
127.4583757878383
 21
250.7103416610713
 31
0.0
  0
LINE
  5
205
330
1F
100
AcDbEntity
  8
通り芯
  6
JWW_CENTER1
 62
     4
370
     9
100
AcDbLine
 10
159.4395633245815
 20
250.7103416610713
 30
0.0
 11
196.4047005721188
 21
250.7103416610713
 31
0.0
  0
LINE
  5
206
330
1F
100
AcDbEntity
  8
その他
  6
Continuous
 62
     7
370
     9
100
AcDbLine
 10
151.3972352822539
 20
455.2105498050935
 30
0.0
 11
151.3972352822539
 21
245.6281141872692
 31
0.0
  0
LWPOLYLINE
  5
207
330
1F
100
AcDbEntity
  8
その他
  6
Continuous
 62
     7
370
     9
100
AcDbPolyline
 90
        4
 70
     1
 43
0.8
 10
241.0506156467449
 20
531.7102530540491
 42
0.4142135623731
 10
240.6506156467449
 20
532.110253054049
 42
0.4142135623731
 10
240.2506156467449
 20
531.7102530540491
 42
0.4142135623731
 10
240.6506156467449
 20
531.3102530540491
 42
0.4142135623731
  0
LINE
  5
208
330
1F
100
AcDbEntity
  8
その他
  6
Continuous
 62
     7
370
     9
100
AcDbLine
 10
248.6506156467449
 20
531.7102530540491
 30
0.0
 11
188.9593762269906
 21
531.7102530540491
 31
0.0
  0
TEXT
  5
209
330
1F
100
AcDbEntity
  8
その他
  6
Continuous
 62
     2
370
   211
100
AcDbText
 10
235.9946156467448
 20
245.6281141872692
 30
0.0
 40
12.192
  1
562
 50
90.0
 41
1.083333333333335
  7
ＭＳ ゴシック
100
AcDbText
  0
LINE
  5
20A
330
1F
100
AcDbEntity
  8
その他
  6
Continuous
 62
     7
370
     9
100
AcDbLine
 10
240.6506156467449
 20
531.7102530540491
 30
0.0
 11
240.6506156467449
 21
245.6281141872692
 31
0.0
  0
LINE
  5
20B
330
1F
100
AcDbEntity
  8
その他
  6
Continuous
 62
     7
370
     9
100
AcDbLine
 10
63.89968482174072
 20
-336.0255193028771
 30
0.0
 11
63.89968482174072
 21
-325.5255339154506
 31
0.0
  0
LWPOLYLINE
  5
20C
330
1F
100
AcDbEntity
  8
その他
  6
Continuous
 62
     7
370
     9
100
AcDbPolyline
 90
        4
 70
     1
 43
0.8
 10
64.29968482174073
 20
-336.0255193028771
 42
0.4142135623731
 10
63.89968482174072
 20
-335.6255193028771
 42
0.4142135623731
 10
63.49968482174072
 20
-336.0255193028771
 42
0.4142135623731
 10
63.89968482174072
 20
-336.4255193028771
 42
0.4142135623731
  0
LWPOLYLINE
  5
20D
330
1F
100
AcDbEntity
  8
その他
  6
Continuous
 62
     7
370
     9
100
AcDbPolyline
 90
        4
 70
     1
 43
0.8
 10
64.29968482174073
 20
-325.5255339154506
 42
0.4142135623731
 10
63.89968482174072
 20
-325.1255339154507
 42
0.4142135623731
 10
63.49968482174072
 20
-325.5255339154506
 42
0.4142135623731
 10
63.89968482174072
 20
-325.9255339154506
 42
0.4142135623731
  0
LINE
  5
20E
330
1F
100
AcDbEntity
  8
その他
  6
Continuous
 62
     7
370
     9
100
AcDbLine
 10
71.89968482174072
 20
-336.0255193028771
 30
0.0
 11
-21.02691481984311
 21
-336.0255193028771
 31
0.0
  0
LINE
  5
20F
330
1F
100
AcDbEntity
  8
その他
  6
Continuous
 62
     7
370
     9
100
AcDbLine
 10
71.89968482174072
 20
-325.5255339154506
 30
0.0
 11
-18.74315053667397
 21
-325.5255339154506
 31
0.0
  0
LINE
  5
210
330
1F
100
AcDbEntity
  8
その他
  6
Continuous
 62
     7
370
     9
100
AcDbLine
 10
63.89968482174072
 20
-325.5255339154506
 30
0.0
 11
63.89968482174072
 21
-135.025662996558
 31
0.0
  0
LWPOLYLINE
  5
211
330
1F
100
AcDbEntity
  8
その他
  6
Continuous
 62
     7
370
     9
100
AcDbPolyline
 90
        4
 70
     1
 43
0.8
 10
64.29968482174073
 20
-135.025662996558
 42
0.4142135623731
 10
63.89968482174072
 20
-134.625662996558
 42
0.4142135623731
 10
63.49968482174072
 20
-135.025662996558
 42
0.4142135623731
 10
63.89968482174072
 20
-135.425662996558
 42
0.4142135623731
  0
LINE
  5
212
330
1F
100
AcDbEntity
  8
その他
  6
Continuous
 62
     7
370
     9
100
AcDbLine
 10
71.89968482174072
 20
-135.025662996558
 30
0.0
 11
-210.2431747504279
 21
-135.025662996558
 31
0.0
  0
LINE
  5
213
330
1F
100
AcDbEntity
  8
0-A
  6
Continuous
 62
     2
370
     9
100
AcDbLine
 10
-28.04035783411427
 20
-359.5232823501588
 30
0.0
 11
-28.04035783411427
 21
-356.9233098866762
 31
0.0
  0
LINE
  5
214
330
1F
100
AcDbEntity
  8
0-A
  6
Continuous
 62
     2
370
     9
100
AcDbLine
 10
-40.04041368481739
 20
-359.5232823501588
 30
0.0
 11
-40.04041368481739
 21
-356.9233098866762
 31
0.0
  0
LINE
  5
215
330
1F
100
AcDbEntity
  8
0-A
  6
Continuous
 62
     2
370
     9
100
AcDbLine
 10
-34.51950407717686
 20
-359.5232823501588
 30
0.0
 11
-33.56146562927006
 21
-359.5232823501588
 31
0.0
  0
LINE
  5
216
330
1F
100
AcDbEntity
  8
0-A
  6
Continuous
 62
     2
370
     9
100
AcDbLine
 10
-33.56146562927006
 20
-361.5118463296133
 30
0.0
 11
-33.56146562927006
 21
-359.5232823501588
 31
0.0
  0
LINE
  5
217
330
1F
100
AcDbEntity
  8
0-A
  6
Continuous
 62
     2
370
     9
100
AcDbLine
 10
-34.51950407717686
 20
-361.5118463296133
 30
0.0
 11
-34.51950407717686
 21
-359.5232823501588
 31
0.0
  0
LINE
  5
218
330
1F
100
AcDbEntity
  8
0-8
  6
Continuous
 62
     2
370
     9
100
AcDbLine
 10
-19.54068987479059
 20
-356.9232107929186
 30
0.0
 11
-49.04070330723835
 21
-356.9232107929186
 31
0.0
  0
LINE
  5
219
330
1F
100
AcDbEntity
  8
0-8
  6
Continuous
 62
     2
370
     9
100
AcDbLine
 10
-19.54068987479059
 20
-355.3230447961462
 30
0.0
 11
-49.04070330723835
 21
-355.3230447961462
 31
0.0
  0
LINE
  5
21A
330
1F
100
AcDbEntity
  8
0-8
  6
Continuous
 62
     2
370
     9
100
AcDbLine
 10
-49.04070330723835
 20
-356.9232107929186
 30
0.0
 11
-49.04070330723835
 21
-355.3230447961462
 31
0.0
  0
ARC
  5
21B
330
1F
100
AcDbEntity
  8
0-A
  6
Continuous
 62
     2
370
     9
100
AcDbCircle
 10
-34.04048485322346
 20
-351.5231955694781
 30
0.0
 40
10.00000009205351
100
AcDbArc
 50
272.7456207275391
 51
306.869873046875
  0
ARC
  5
21C
330
1F
100
AcDbEntity
  8
0-A
  6
Continuous
 62
     2
370
     9
100
AcDbCircle
 10
-34.04048485322346
 20
-351.5231955694781
 30
0.0
 40
10.00000009205351
100
AcDbArc
 50
233.130126953125
 51
267.2543792724609
  0
ARC
  5
21D
330
1F
100
AcDbEntity
  8
0-8
  6
Continuous
 62
     2
370
     9
100
AcDbCircle
 10
-19.54068987479059
 20
-357.4230397059555
 30
0.0
 40
0.5000000046026752
100
AcDbArc
 50
0.0
 51
90.0
  0
ARC
  5
21E
330
1F
100
AcDbEntity
  8
0-8
  6
Continuous
 62
     2
370
     9
100
AcDbCircle
 10
-19.54068987479059
 20
-357.4230397059555
 30
0.0
 40
2.099999941914238
100
AcDbArc
 50
0.0
 51
90.0
  0
LWPOLYLINE
  5
21F
330
1F
100
AcDbEntity
  8
その他
  6
Continuous
 62
     7
370
     9
100
AcDbPolyline
 90
        4
 70
     1
 43
0.8
 10
108.7166944239351
 20
-336.3229766323667
 42
0.4142135623731
 10
108.3166944239351
 20
-335.9229766323667
 42
0.4142135623731
 10
107.9166944239351
 20
-336.3229766323667
 42
0.4142135623731
 10
108.3166944239351
 20
-336.7229766323667
 42
0.4142135623731
  0
LINE
  5
220
330
1F
100
AcDbEntity
  8
その他
  6
Continuous
 62
     7
370
     9
100
AcDbLine
 10
116.3166944239351
 20
-336.3229766323667
 30
0.0
 11
31.95944757213965
 21
-336.3229766323667
 31
0.0
  0
LINE
  5
221
330
1F
100
AcDbEntity
  8
その他
  6
Continuous
 62
     7
370
     9
100
AcDbLine
 10
108.3166944239351
 20
-336.3229766323667
 30
0.0
 11
108.3166944239351
 21
-82.32297663236656
 31
0.0
  0
LWPOLYLINE
  5
222
330
1F
100
AcDbEntity
  8
その他
  6
Continuous
 62
     7
370
     9
100
AcDbPolyline
 90
        4
 70
     1
 43
0.8
 10
108.7166944239351
 20
-82.32297663236656
 42
0.4142135623731
 10
108.3166944239351
 20
-81.92297663236656
 42
0.4142135623731
 10
107.9166944239351
 20
-82.32297663236656
 42
0.4142135623731
 10
108.3166944239351
 20
-82.72297663236657
 42
0.4142135623731
  0
LINE
  5
223
330
1F
100
AcDbEntity
  8
その他
  6
Continuous
 62
     7
370
     9
100
AcDbLine
 10
116.3166944239351
 20
-82.32297663236656
 30
0.0
 11
-222.0405524278603
 21
-82.32297663236653
 31
0.0
  0
LINE
  5
224
330
1F
100
AcDbEntity
  8
その他
  6
Continuous
 62
     7
370
     9
100
AcDbLine
 10
108.3166944239351
 20
-82.32297663236656
 30
0.0
 11
108.3166944239351
 21
72.67713218224111
 31
0.0
  0
LWPOLYLINE
  5
225
330
1F
100
AcDbEntity
  8
その他
  6
Continuous
 62
     7
370
     9
100
AcDbPolyline
 90
        4
 70
     1
 43
0.8
 10
108.7166944239351
 20
72.67713218224111
 42
0.4142135623731
 10
108.3166944239351
 20
73.07713218224112
 42
0.4142135623731
 10
107.9166944239351
 20
72.67713218224111
 42
0.4142135623731
 10
108.3166944239351
 20
72.2771321822411
 42
0.4142135623731
  0
LINE
  5
226
330
1F
100
AcDbEntity
  8
寸法
  6
Continuous
 62
     7
370
     9
100
AcDbLine
 10
295.1807345213911
 20
176.7817882881112
 30
0.0
 11
145.6319633898975
 21
176.7817882881112
 31
0.0
  0
LINE
  5
227
330
1F
100
AcDbEntity
  8
寸法
  6
Continuous
 62
     7
370
     9
100
AcDbLine
 10
-209.1546502739761
 20
-178.0048253757624
 30
0.0
 11
-203.0670359838891
 21
-170.07129197285
 31
0.0
  0
LINE
  5
228
330
1F
100
AcDbEntity
  8
寸法
  6
Continuous
 62
     7
370
     9
100
AcDbLine
 10
-209.1546502739761
 20
-178.0048253757624
 30
0.0
 11
145.6319633898975
 21
176.7817882881112
 31
0.0
  0
LINE
  5
229
330
1F
100
AcDbEntity
  8
寸法
  6
Continuous
 62
     7
370
     9
100
AcDbLine
 10
-209.1546502739761
 20
-178.0048253757624
 30
0.0
 11
-201.2211168710637
 21
-171.9172110856754
 31
0.0
  0
LINE
  5
22A
330
1F
100
AcDbEntity
  8
寸法
  6
Continuous
 62
     7
370
     9
100
AcDbLine
 10
-183.6263331175544
 20
-293.0173052074815
 30
0.0
 11
-175.692799714642
 21
-286.9296909173945
 31
0.0
  0
LINE
  5
22B
330
1F
100
AcDbEntity
  8
寸法
  6
Continuous
 62
     7
370
     9
100
AcDbLine
 10
-183.6263331175544
 20
-293.0173052074815
 30
0.0
 11
-177.5387188274674
 21
-285.0837718045691
 31
0.0
  0
LINE
  5
22C
330
1F
100
AcDbEntity
  8
躯体
  6
JWW_CENTER1
 62
     6
370
     9
100
AcDbLine
 10
-226.1135174413848
 20
-334.3958705376645
 30
0.0
 11
-183.2127667893435
 21
-291.4950815137802
 31
0.0
  0
LINE
  5
22D
330
1F
100
AcDbEntity
  8
寸法
  6
Continuous
 62
     7
370
     9
100
AcDbLine
 10
-183.6263331175544
 20
-293.0173052074815
 30
0.0
 11
195.720994955376
 21
86.33002286544885
 31
0.0
  0
LINE
  5
22E
330
1F
100
AcDbEntity
  8
寸法
  6
Continuous
 62
     7
370
     9
100
AcDbLine
 10
367.5265600264086
 20
0.5647663814554917
 30
0.0
 11
195.720994955376
 21
0.5647663814554917
 31
0.0
  0
TEXT
  5
22F
330
1F
100
AcDbEntity
  8
寸法
  6
Continuous
 62
     7
370
     9
100
AcDbText
 10
200.3932358520462
 20
8.265792986185296
 30
0.0
 40
9.144
  1
ストレーナー：ＦＣ１５０
 41
1.152777777777778
  7
ＭＳ ゴシック
100
AcDbText
  0
LINE
  5
230
330
1F
100
AcDbEntity
  8
寸法
  6
Continuous
 62
     7
370
     9
100
AcDbLine
 10
-90.55618990690641
 20
-285.7124184808263
 30
0.0
 11
195.720994955376
 21
0.5647663814554917
 31
0.0
  0
LINE
  5
231
330
1F
100
AcDbEntity
  8
寸法
  6
Continuous
 62
     7
370
     9
100
AcDbLine
 10
-90.55618990690641
 20
-285.7124184808263
 30
0.0
 11
-82.622656503994
 21
-279.6248041907389
 31
0.0
  0
LINE
  5
232
330
1F
100
AcDbEntity
  8
寸法
  6
Continuous
 62
     7
370
     9
100
AcDbLine
 10
-90.55618990690641
 20
-285.7124184808263
 30
0.0
 11
-84.46857561681895
 21
-277.7788850779139
 31
0.0
  0
LINE
  5
233
330
1F
100
AcDbEntity
  8
寸法
  6
Continuous
 62
     7
370
     9
100
AcDbLine
 10
-45.25341058974095
 20
-325.506437303059
 30
0.0
 11
-37.31987718682853
 21
-319.418823012972
 31
0.0
  0
LINE
  5
234
330
1F
100
AcDbEntity
  8
寸法
  6
Continuous
 62
     7
370
     9
100
AcDbLine
 10
-45.25341058974095
 20
-325.506437303059
 30
0.0
 11
-39.16579629965395
 21
-317.5729039001466
 31
0.0
  0
TEXT
  5
235
330
1F
100
AcDbEntity
  8
その他
  6
Continuous
 62
     2
370
   211
100
AcDbText
 10
59.24368482174063
 20
-281.6262361142158
 30
0.0
 40
12.192
  1
190.5
 50
90.0
 41
1.099999999999999
  7
ＭＳ ゴシック
100
AcDbText
  0
LINE
  5
236
330
1F
100
AcDbEntity
  8
寸法
  6
Continuous
 62
     7
370
     9
100
AcDbLine
 10
-45.25341058974095
 20
-325.506437303059
 30
0.0
 11
195.720994955376
 21
-84.5320317579424
 31
0.0
  0
TEXT
  5
237
330
1F
100
AcDbEntity
  8
寸法
  6
Continuous
 62
     7
370
     9
100
AcDbText
 10
202.2144093014338
 20
-75.52244439518861
 30
0.0
 40
9.144
  1
防水層押え：ＦＣ１５０
 41
1.151515151515152
  7
ＭＳ ゴシック
100
AcDbText
  0
LINE
  5
238
330
1F
100
AcDbEntity
  8
寸法
  6
Continuous
 62
     7
370
     9
100
AcDbLine
 10
353.7843925332752
 20
-84.5320317579424
 30
0.0
 11
195.720994955376
 21
-84.5320317579424
 31
0.0
  0
TEXT
  5
239
330
1F
100
AcDbEntity
  8
その他
  6
Continuous
 62
     2
370
   211
100
AcDbText
 10
103.660694423935
 20
-1.726765214745022
 30
0.0
 40
12.192
  1
155
 50
90.0
 41
1.083333333333333
  7
ＭＳ ゴシック
100
AcDbText
  0
LINE
  5
23A
330
1F
100
AcDbEntity
  8
躯体
  6
Continuous
 62
     6
370
     9
100
AcDbLine
 10
-146.7565664587428
 20
372.2103869072104
 30
0.0
 11
-146.7565664587428
 21
364.7103767739603
 31
0.0
  0
LINE
  5
23B
330
1F
100
AcDbEntity
  8
躯体
  6
Continuous
 62
     6
370
     9
100
AcDbLine
 10
-154.7564550519082
 20
372.2103869072104
 30
0.0
 11
-154.7564550519082
 21
364.7103767739603
 31
0.0
  0
LINE
  5
23C
330
1F
100
AcDbEntity
  8
躯体
  6
Continuous
 62
     6
370
     9
100
AcDbLine
 10
-154.7564550519082
 20
366.2103589818588
 30
0.0
 11
-212.243196371955
 21
366.2103589818588
 31
0.0
  0
LINE
  5
23D
330
1F
100
AcDbEntity
  8
躯体
  6
Continuous
 62
     6
370
     9
100
AcDbLine
 10
-226.8643564299364
 20
406.0892048447594
 30
0.0
 11
-226.7429913503879
 21
406.2105946977471
 31
0.0
  0
LINE
  5
23E
330
1F
100
AcDbEntity
  8
躯体
  6
Continuous
 62
     6
370
     9
100
AcDbLine
 10
-154.7564550519082
 20
364.7103767739603
 30
0.0
 11
-212.243196371955
 21
364.7103767739603
 31
0.0
  0
LINE
  5
23F
330
1F
100
AcDbEntity
  8
躯体
  6
Continuous
 62
     6
370
     9
100
AcDbLine
 10
-113.7977349662046
 20
406.2105946977471
 30
0.0
 11
-113.7977349662046
 21
399.7108369531162
 31
0.0
  0
LINE
  5
240
330
1F
100
AcDbEntity
  8
躯体
  6
Continuous
 62
     6
370
     9
100
AcDbLine
 10
-121.7976978796883
 20
401.2109182547723
 30
0.0
 11
-217.2429966821269
 21
401.2109182547723
 31
0.0
  0
LINE
  5
241
330
1F
100
AcDbEntity
  8
躯体
  6
Continuous
 62
     6
370
     9
100
AcDbLine
 10
-121.7976978796883
 20
406.2105946977471
 30
0.0
 11
-121.7976978796883
 21
399.7108369531162
 31
0.0
  0
LINE
  5
242
330
1F
100
AcDbEntity
  8
躯体
  6
Continuous
 62
     6
370
     9
100
AcDbLine
 10
-121.7976978796883
 20
399.7108369531162
 30
0.0
 11
-217.2429966821269
 21
399.7108369531162
 31
0.0
  0
LINE
  5
243
330
1F
100
AcDbEntity
  8
躯体
  6
Continuous
 62
     6
370
     9
100
AcDbLine
 10
-121.7976978796883
 20
405.2106395904005
 30
0.0
 11
-218.3510383055113
 21
405.2106395904005
 31
0.0
  0
LINE
  5
244
330
1F
100
AcDbEntity
  8
躯体
  6
Continuous
 62
     6
370
     9
100
AcDbLine
 10
-135.1241732219567
 20
366.1047745831989
 30
0.0
 11
-146.7565664587428
 21
364.7103767739603
 31
0.0
  0
LINE
  5
245
330
1F
100
AcDbEntity
  8
躯体
  6
Continuous
 62
     6
370
     9
100
AcDbLine
 10
-134.2431801705382
 20
370.2871257139753
 30
0.0
 11
-134.2431801705382
 21
367.0976444868812
 31
0.0
  0
LINE
  5
246
330
1F
100
AcDbEntity
  8
躯体
  6
Continuous
 62
     6
370
     9
100
AcDbLine
 10
-135.1635134437004
 20
371.2839098210806
 30
0.0
 11
-146.7565664587428
 21
372.2103869072104
 31
0.0
  0
LINE
  5
247
330
1F
100
AcDbEntity
  8
躯体
  6
Continuous
 62
     6
370
     9
100
AcDbLine
 10
-58.74317560468444
 20
366.2103589818588
 30
0.0
 11
-134.7819529302885
 21
366.2103589818588
 31
0.0
  0
LINE
  5
248
330
1F
100
AcDbEntity
  8
躯体
  6
Continuous
 62
     6
370
     9
100
AcDbLine
 10
-154.7564550519082
 20
371.2103822529849
 30
0.0
 11
-213.4108181170609
 21
371.2103822529849
 31
0.0
  0
LINE
  5
249
330
1F
100
AcDbEntity
  8
躯体
  6
Continuous
 62
     6
370
     9
100
AcDbLine
 10
-108.0199991124571
 20
401.0330945068648
 30
0.0
 11
-113.7977349662046
 21
399.7108369531162
 31
0.0
  0
LINE
  5
24A
330
1F
100
AcDbEntity
  8
躯体
  6
Continuous
 62
     6
370
     9
100
AcDbLine
 10
-107.2430545064567
 20
404.3516453531562
 30
0.0
 11
-107.2430545064567
 21
402.0079293466746
 31
0.0
  0
LINE
  5
24B
330
1F
100
AcDbEntity
  8
躯体
  6
Continuous
 62
     6
370
     9
100
AcDbLine
 10
-108.0922384617045
 20
405.3402046783855
 30
0.0
 11
-113.7977349662046
 21
406.2105946977471
 31
0.0
  0
LINE
  5
24C
330
1F
100
AcDbEntity
  8
躯体
  6
Continuous
 62
     6
370
     9
100
AcDbLine
 10
-35.74321719813997
 20
401.2109182547723
 30
0.0
 11
-107.6390827084695
 21
401.2109182547723
 31
0.0
  0
LINE
  5
24D
330
1F
100
AcDbEntity
  8
躯体
  6
Continuous
 62
     6
370
     9
100
AcDbLine
 10
-36.7431723054865
 20
405.2106395904005
 30
0.0
 11
-107.7310912623461
 21
405.2106395904005
 31
0.0
  0
LINE
  5
24E
330
1F
100
AcDbEntity
  8
躯体
  6
Continuous
 62
     6
370
     9
100
AcDbLine
 10
-79.7432237965354
 20
364.0834105699984
 30
0.0
 11
-79.7432237965354
 21
363.2107413942132
 31
0.0
  0
LINE
  5
24F
330
1F
100
AcDbEntity
  8
躯体
  6
Continuous
 62
     6
370
     9
100
AcDbLine
 10
-83.91437733270959
 20
363.8230912689381
 30
0.0
 11
-83.91437733270959
 21
363.2106918473345
 31
0.0
  0
LINE
  5
250
330
1F
100
AcDbEntity
  8
躯体
  6
Continuous
 62
     6
370
     9
100
AcDbLine
 10
-83.97422996226442
 20
364.7103767739603
 30
0.0
 11
-146.7565664587428
 21
364.7103767739603
 31
0.0
  0
LINE
  5
251
330
1F
100
AcDbEntity
  8
躯体
  6
Continuous
 62
     6
370
     9
100
AcDbLine
 10
-64.70668748038179
 20
365.1359844625991
 30
0.0
 11
-57.60721431511274
 21
365.9869521054826
 31
0.0
  0
LINE
  5
252
330
1F
100
AcDbEntity
  8
躯体
  6
Continuous
 62
     6
370
     9
100
AcDbLine
 10
-36.7431723054865
 20
406.2105946977471
 30
0.0
 11
-226.7429913503879
 21
406.2105946977471
 31
0.0
  0
LINE
  5
253
330
1F
100
AcDbEntity
  8
躯体
  6
Continuous
 62
     6
370
     9
100
AcDbLine
 10
-219.0336456543323
 20
405.3991406906829
 30
0.0
 11
-226.7429913503879
 21
406.2105946977471
 31
0.0
  0
LINE
  5
254
330
1F
100
AcDbEntity
  8
躯体
  6
Continuous
 62
     6
370
     9
100
AcDbLine
 10
-50.74318791776113
 20
326.51037735132
 30
0.0
 11
-56.12018861601291
 21
323.5103633886444
 31
0.0
  0
LINE
  5
255
330
1F
100
AcDbEntity
  8
躯体
  6
Continuous
 62
     6
370
     9
100
AcDbLine
 10
-50.74318791776113
 20
313.5104159401495
 30
0.0
 11
-55.74321118888747
 21
313.5104159401495
 31
0.0
  0
LINE
  5
256
330
1F
100
AcDbEntity
  8
躯体
  6
Continuous
 62
     6
370
     9
100
AcDbLine
 10
-50.74318791776113
 20
313.5104159401495
 30
0.0
 11
-56.12018861601291
 21
316.5103803559463
 31
0.0
  0
LINE
  5
257
330
1F
100
AcDbEntity
  8
躯体
  6
Continuous
 62
     6
370
     9
100
AcDbLine
 10
-50.74318791776113
 20
326.51037735132
 30
0.0
 11
-55.74321118888747
 21
326.51037735132
 31
0.0
  0
LINE
  5
258
330
1F
100
AcDbEntity
  8
躯体
  6
Continuous
 62
     6
370
     9
100
AcDbLine
 10
-55.74321118888747
 20
326.51037735132
 30
0.0
 11
-55.74321118888747
 21
363.2103450191831
 31
0.0
  0
LINE
  5
259
330
1F
100
AcDbEntity
  8
躯体
  6
Continuous
 62
     6
370
     9
100
AcDbLine
 10
-83.85521835945792
 20
364.7174619776246
 30
0.0
 11
-79.80240754322676
 21
365.203368217727
 31
0.0
  0
LINE
  5
25A
330
1F
100
AcDbEntity
  8
躯体
  6
Continuous
 62
     6
370
     9
100
AcDbLine
 10
-53.74310278667917
 20
371.2103822529849
 30
0.0
 11
-134.8589983267768
 21
371.2103822529849
 31
0.0
  0
LINE
  5
25B
330
1F
100
AcDbEntity
  8
躯体
  6
Continuous
 62
     6
370
     9
100
AcDbLine
 10
-50.74318791776113
 20
326.51037735132
 30
0.0
 11
-50.74318791776113
 21
368.2104178371882
 31
0.0
  0
LINE
  5
25C
330
1F
100
AcDbEntity
  8
躯体
  6
Continuous
 62
     6
370
     9
100
AcDbLine
 10
-214.0535154550325
 20
371.3828053911064
 30
0.0
 11
-217.2429966821269
 21
371.6866268517273
 31
0.0
  0
LINE
  5
25D
330
1F
100
AcDbEntity
  8
躯体
  6
Continuous
 62
     6
370
     9
100
AcDbLine
 10
-154.7564550519082
 20
372.2103869072104
 30
0.0
 11
-217.2429966821269
 21
372.2103869072104
 31
0.0
  0
LINE
  5
25E
330
1F
100
AcDbEntity
  8
躯体
  6
Continuous
 62
     6
370
     9
100
AcDbLine
 10
-65.08539904826421
 20
365.2104534213912
 30
0.0
 11
-79.68337116698058
 21
365.2104534213912
 31
0.0
  0
LINE
  5
25F
330
1F
100
AcDbEntity
  8
躯体
  6
Continuous
 62
     6
370
     9
100
AcDbLine
 10
-64.08541916747845
 20
364.210448767166
 30
0.0
 11
-64.08541916747845
 21
363.2107413942132
 31
0.0
  0
LINE
  5
260
330
1F
100
AcDbEntity
  8
躯体
  6
Continuous
 62
     6
370
     9
100
AcDbLine
 10
-50.74318791776113
 20
280.3103406948777
 30
0.0
 11
-56.12018861601291
 21
277.3103267322018
 31
0.0
  0
LINE
  5
261
330
1F
100
AcDbEntity
  8
躯体
  6
Continuous
 62
     6
370
     9
100
AcDbLine
 10
-50.74318791776113
 20
267.3103792837072
 30
0.0
 11
-55.74321118888747
 21
267.3103792837072
 31
0.0
  0
LINE
  5
262
330
1F
100
AcDbEntity
  8
躯体
  6
Continuous
 62
     6
370
     9
100
AcDbLine
 10
-50.74318791776113
 20
267.3103792837072
 30
0.0
 11
-56.12018861601291
 21
270.310343699504
 31
0.0
  0
LINE
  5
263
330
1F
100
AcDbEntity
  8
躯体
  6
Continuous
 62
     6
370
     9
100
AcDbLine
 10
-50.74318791776113
 20
280.3103406948777
 30
0.0
 11
-55.74321118888747
 21
280.3103406948777
 31
0.0
  0
LINE
  5
264
330
1F
100
AcDbEntity
  8
躯体
  6
Continuous
 62
     6
370
     9
100
AcDbLine
 10
-55.74321118888747
 20
280.3103406948777
 30
0.0
 11
-55.74321118888747
 21
313.5104159401495
 31
0.0
  0
LINE
  5
265
330
1F
100
AcDbEntity
  8
躯体
  6
Continuous
 62
     6
370
     9
100
AcDbLine
 10
-50.74318791776113
 20
280.3103406948777
 30
0.0
 11
-50.74318791776113
 21
313.5104159401495
 31
0.0
  0
LINE
  5
266
330
1F
100
AcDbEntity
  8
躯体
  6
Continuous
 62
     6
370
     9
100
AcDbLine
 10
-56.12018861601291
 20
323.5103633886444
 30
0.0
 11
-57.74307185670159
 21
323.5103633886444
 31
0.0
  0
LINE
  5
267
330
1F
100
AcDbEntity
  8
躯体
  6
Continuous
 62
     6
370
     9
100
AcDbLine
 10
-55.74321118888747
 20
326.51037735132
 30
0.0
 11
-57.74307185670159
 21
326.0527128321168
 31
0.0
  0
LINE
  5
268
330
1F
100
AcDbEntity
  8
躯体
  6
Continuous
 62
     6
370
     9
100
AcDbLine
 10
-56.12018861601291
 20
316.5103803559463
 30
0.0
 11
-57.74307185670159
 21
316.5103803559463
 31
0.0
  0
LINE
  5
269
330
1F
100
AcDbEntity
  8
躯体
  6
Continuous
 62
     6
370
     9
100
AcDbLine
 10
-55.74321118888747
 20
313.5104159401495
 30
0.0
 11
-57.74307185670159
 21
313.9680804593526
 31
0.0
  0
LINE
  5
26A
330
1F
100
AcDbEntity
  8
躯体
  6
Continuous
 62
     6
370
     9
100
AcDbLine
 10
-56.12018861601291
 20
277.3103267322018
 30
0.0
 11
-57.74307185670159
 21
277.3103267322018
 31
0.0
  0
LINE
  5
26B
330
1F
100
AcDbEntity
  8
躯体
  6
Continuous
 62
     6
370
     9
100
AcDbLine
 10
-55.74321118888747
 20
280.3103406948777
 30
0.0
 11
-57.74307185670159
 21
279.8526761756744
 31
0.0
  0
LINE
  5
26C
330
1F
100
AcDbEntity
  8
躯体
  6
Continuous
 62
     6
370
     9
100
AcDbLine
 10
-55.74321118888747
 20
267.3103792837072
 30
0.0
 11
-57.74307185670159
 21
267.7680438029103
 31
0.0
  0
LINE
  5
26D
330
1F
100
AcDbEntity
  8
躯体
  6
Continuous
 62
     6
370
     9
100
AcDbLine
 10
-56.12018861601291
 20
270.310343699504
 30
0.0
 11
-57.74307185670159
 21
270.310343699504
 31
0.0
  0
LINE
  5
26E
330
1F
100
AcDbEntity
  8
躯体
  6
Continuous
 62
     6
370
     9
100
AcDbLine
 10
-36.81679896733976
 20
384.9365027194161
 30
0.0
 11
-29.66646593101268
 21
386.4364849273146
 31
0.0
  0
LINE
  5
26F
330
1F
100
AcDbEntity
  8
躯体
  6
Continuous
 62
     6
370
     9
100
AcDbLine
 10
-30.74319392701409
 20
388.2106100154502
 30
0.0
 11
-30.74319392701409
 21
396.210894983646
 31
0.0
  0
LINE
  5
270
330
1F
100
AcDbEntity
  8
躯体
  6
Continuous
 62
     6
370
     9
100
AcDbLine
 10
-28.74318461856365
 20
386.2106007069998
 30
0.0
 11
-26.74322485699167
 21
386.2106007069998
 31
0.0
  0
LINE
  5
271
330
1F
100
AcDbEntity
  8
躯体
  6
Continuous
 62
     6
370
     9
100
AcDbLine
 10
-35.89351765489073
 20
384.7106184991013
 30
0.0
 11
-26.74322485699167
 21
384.7106184991013
 31
0.0
  0
LINE
  5
272
330
1F
100
AcDbEntity
  8
躯体
  6
Continuous
 62
     6
370
     9
100
AcDbLine
 10
-57.74317095045899
 20
372.2103869072104
 30
0.0
 11
-57.74317095045899
 21
399.7108369531162
 31
0.0
  0
LINE
  5
273
330
1F
100
AcDbEntity
  8
躯体
  6
Continuous
 62
     6
370
     9
100
AcDbLine
 10
-57.74317095045899
 20
399.7108369531162
 30
0.0
 11
-113.7977349662046
 21
399.7108369531162
 31
0.0
  0
LINE
  5
274
330
1F
100
AcDbEntity
  8
躯体
  6
Continuous
 62
     6
370
     9
100
AcDbLine
 10
-42.89352546102782
 20
399.5741866614673
 30
0.0
 11
-57.74317095045899
 21
399.5741866614673
 31
0.0
  0
LINE
  5
275
330
1F
100
AcDbEntity
  8
躯体
  6
Continuous
 62
     6
370
     9
100
AcDbLine
 10
-37.89352696334117
 20
394.5741633903409
 30
0.0
 11
-37.89352696334117
 21
386.7106278075518
 31
0.0
  0
LINE
  5
276
330
1F
100
AcDbEntity
  8
躯体
  6
Continuous
 62
     6
370
     9
100
AcDbLine
 10
-56.25773075147981
 20
372.2581005514663
 30
0.0
 11
-52.75994407123608
 21
371.0446974903765
 31
0.0
  0
LINE
  5
277
330
1F
100
AcDbEntity
  8
躯体
  6
Continuous
 62
     6
370
     9
100
AcDbLine
 10
-57.74317095045899
 20
372.2103869072104
 30
0.0
 11
-146.7565664587428
 21
372.2103869072104
 31
0.0
  0
LINE
  5
278
330
1F
100
AcDbEntity
  8
躯体
  6
Continuous
 62
     6
370
     9
100
AcDbLine
 10
-56.25773075147981
 20
372.2581005514663
 30
0.0
 11
-57.74317095045899
 21
372.2581005514663
 31
0.0
  0
ARC
  5
279
330
1F
100
AcDbEntity
  8
躯体
  6
Continuous
 62
     6
370
     9
100
AcDbCircle
 10
-224.7430315888159
 20
403.9679047770786
 30
0.0
 40
3.000000027616052
100
AcDbArc
 50
134.9982299804688
 51
180.0
  0
ARC
  5
27A
330
1F
100
AcDbEntity
  8
躯体
  6
Continuous
 62
     6
370
     9
100
AcDbCircle
 10
-36.7431723054865
 20
396.2105977023735
 30
0.0
 40
10.00000009205351
100
AcDbArc
 50
0.0
 51
90.0
  0
ARC
  5
27B
330
1F
100
AcDbEntity
  8
躯体
  6
Continuous
 62
     6
370
     9
100
AcDbCircle
 10
-36.7431723054865
 20
395.2105930481481
 30
0.0
 40
10.00000009205351
100
AcDbArc
 50
0.0
 51
90.0
  0
ARC
  5
27C
330
1F
100
AcDbEntity
  8
躯体
  6
Continuous
 62
     6
370
     9
100
AcDbCircle
 10
-35.74321719813997
 20
396.210894983646
 30
0.0
 40
5.000000046026753
100
AcDbArc
 50
0.0
 51
90.0
  0
ARC
  5
27D
330
1F
100
AcDbEntity
  8
躯体
  6
Continuous
 62
     6
370
     9
100
AcDbCircle
 10
-58.74317560468444
 20
363.2103450191831
 30
0.0
 40
3.000000027616052
100
AcDbArc
 50
0.0
 51
90.0
  0
ARC
  5
27E
330
1F
100
AcDbEntity
  8
躯体
  6
Continuous
 62
     6
370
     9
100
AcDbCircle
 10
-53.74310278667917
 20
368.2104178371882
 30
0.0
 40
3.000000027616052
100
AcDbArc
 50
0.0
 51
90.0
  0
ARC
  5
27F
330
1F
100
AcDbEntity
  8
躯体
  6
Continuous
 62
     6
370
     9
100
AcDbCircle
 10
-214.2431809069662
 20
369.3918136145923
 30
0.0
 40
2.000000018410701
100
AcDbArc
 50
0.0000000000000127
 51
84.55903625488283
  0
ARC
  5
280
330
1F
100
AcDbEntity
  8
躯体
  6
Continuous
 62
     6
370
     9
100
AcDbCircle
 10
-135.2431848247631
 20
367.0976444868812
 30
0.0
 40
1.00000000920535
100
AcDbArc
 50
276.8352203369141
 51
0.0
  0
ARC
  5
281
330
1F
100
AcDbEntity
  8
躯体
  6
Continuous
 62
     6
370
     9
100
AcDbCircle
 10
-135.2431848247631
 20
370.2871257139753
 30
0.0
 40
1.00000000920535
100
AcDbArc
 50
0.0
 51
85.43016052246091
  0
ARC
  5
282
330
1F
100
AcDbEntity
  8
躯体
  6
Continuous
 62
     6
370
     9
100
AcDbCircle
 10
-108.2430839341214
 20
402.0079293466746
 30
0.0
 40
1.00000000920535
100
AcDbArc
 50
282.8898315429688
 51
0.0
  0
ARC
  5
283
330
1F
100
AcDbEntity
  8
躯体
  6
Continuous
 62
     6
370
     9
100
AcDbCircle
 10
-108.2430839341214
 20
404.3516453531562
 30
0.0
 40
1.00000000920535
100
AcDbArc
 50
0.0
 51
81.32550048828124
  0
ARC
  5
284
330
1F
100
AcDbEntity
  8
躯体
  6
Continuous
 62
     6
370
     9
100
AcDbCircle
 10
-78.74321914231041
 20
364.210448767166
 30
0.0
 40
1.00000000920535
100
AcDbArc
 50
90.0
 51
180.0
  0
ARC
  5
285
330
1F
100
AcDbEntity
  8
躯体
  6
Continuous
 62
     6
370
     9
100
AcDbCircle
 10
-80.74320367732116
 20
364.0834105699984
 30
0.0
 40
1.00000000920535
100
AcDbArc
 50
0.0
 51
96.8366241455078
  0
ARC
  5
286
330
1F
100
AcDbEntity
  8
躯体
  6
Continuous
 62
     6
370
     9
100
AcDbCircle
 10
-79.68337116698058
 20
364.210448767166
 30
0.0
 40
1.00000000920535
100
AcDbArc
 50
89.99999999999999
 51
96.83628845214842
  0
ARC
  5
287
330
1F
100
AcDbEntity
  8
躯体
  6
Continuous
 62
     6
370
     9
100
AcDbCircle
 10
-84.91438198693504
 20
363.7103721197351
 30
0.0
 40
1.00000000920535
100
AcDbArc
 50
0.0
 51
90.0
  0
ARC
  5
288
330
1F
100
AcDbEntity
  8
躯体
  6
Continuous
 62
     6
370
     9
100
AcDbCircle
 10
-82.9143479050449
 20
363.8230912689381
 30
0.0
 40
1.00000000920535
100
AcDbArc
 50
96.83628845214842
 51
180.0
  0
ARC
  5
289
330
1F
100
AcDbEntity
  8
躯体
  6
Continuous
 62
     6
370
     9
100
AcDbCircle
 10
-83.97422996226442
 20
365.7103814281855
 30
0.0
 40
1.00000000920535
100
AcDbArc
 50
270.0
 51
276.8362884521484
  0
ARC
  5
28A
330
1F
100
AcDbEntity
  8
躯体
  6
Continuous
 62
     6
370
     9
100
AcDbCircle
 10
-65.08539904826421
 20
364.210448767166
 30
0.0
 40
1.00000000920535
100
AcDbArc
 50
0.0
 51
90.0
  0
ARC
  5
28B
330
1F
100
AcDbEntity
  8
躯体
  6
Continuous
 62
     6
370
     9
100
AcDbCircle
 10
-28.74318461856365
 20
388.2106100154502
 30
0.0
 40
2.000000018410701
100
AcDbArc
 50
180.0
 51
270.0
  0
ARC
  5
28C
330
1F
100
AcDbEntity
  8
躯体
  6
Continuous
 62
     6
370
     9
100
AcDbCircle
 10
-35.89351765489073
 20
386.7106278075518
 30
0.0
 40
2.000000018410701
100
AcDbArc
 50
180.0
 51
270.0
  0
ARC
  5
28D
330
1F
100
AcDbEntity
  8
躯体
  6
Continuous
 62
     6
370
     9
100
AcDbCircle
 10
-219.2430059905773
 20
403.4101307893196
 30
0.0
 40
2.000000018410701
100
AcDbArc
 50
0.0000000000000127
 51
83.9912567138672
  0
ARC
  5
28E
330
1F
100
AcDbEntity
  8
躯体
  6
Continuous
 62
     6
370
     9
100
AcDbCircle
 10
-42.89352546102782
 20
394.5741633903409
 30
0.0
 40
5.000000046026753
100
AcDbArc
 50
0.0
 51
90.0
  0
LINE
  5
28F
330
1F
100
AcDbEntity
  8
0-A
  6
Continuous
 62
     2
370
     9
100
AcDbLine
 10
-208.6541691144557
 20
251.1891626975094
 30
0.0
 11
-210.6427826407889
 21
251.1891626975094
 31
0.0
  0
LINE
  5
290
330
1F
100
AcDbEntity
  8
0-A
  6
Continuous
 62
     2
370
     9
100
AcDbLine
 10
-210.6427826407889
 20
256.7101713989076
 30
0.0
 11
-212.243196371955
 21
256.7101713989076
 31
0.0
  0
ARC
  5
291
330
1F
100
AcDbEntity
  8
0-A
  6
Continuous
 62
     2
370
     9
100
AcDbCircle
 10
-218.6428694214696
 20
250.710143473556
 30
0.0
 40
10.00000086622349
100
AcDbArc
 50
2.745910644531243
 51
36.86987304687499
  0
LINE
  5
292
330
1F
100
AcDbEntity
  8
仕上
  6
Continuous
 62
     3
370
     9
100
AcDbLine
 10
-205.2579039888128
 20
291.7102847499119
 30
0.0
 11
-205.2579039888128
 21
285.7102568245606
 31
0.0
  0
LINE
  5
293
330
1F
100
AcDbEntity
  8
仕上
  6
Continuous
 62
     3
370
     9
100
AcDbLine
 10
-139.9858368341158
 20
285.7103559183182
 30
0.0
 11
-139.9858368341158
 21
291.7102847499119
 31
0.0
  0
LINE
  5
294
330
1F
100
AcDbEntity
  8
仕上
  6
Continuous
 62
     3
370
     9
100
AcDbLine
 10
-139.9858368341158
 20
266.7103170349175
 30
0.0
 11
-139.9858368341158
 21
272.7104440540264
 31
0.0
  0
LINE
  5
295
330
1F
100
AcDbEntity
  8
仕上
  6
Continuous
 62
     3
370
     9
100
AcDbLine
 10
-205.2579039888128
 20
310.7103236333127
 30
0.0
 11
-205.2579039888128
 21
304.710394801719
 31
0.0
  0
LINE
  5
296
330
1F
100
AcDbEntity
  8
仕上
  6
Continuous
 62
     3
370
     9
100
AcDbLine
 10
-139.9858368341158
 20
304.710394801719
 30
0.0
 11
-139.9858368341158
 21
310.7103236333127
 31
0.0
  0
LINE
  5
297
330
1F
100
AcDbEntity
  8
仕上
  6
Continuous
 62
     3
370
     9
100
AcDbLine
 10
-205.2579039888128
 20
329.710263422956
 30
0.0
 11
-205.2579039888128
 21
323.7103345913621
 31
0.0
  0
LINE
  5
298
330
1F
100
AcDbEntity
  8
仕上
  6
Continuous
 62
     3
370
     9
100
AcDbLine
 10
-139.9858368341158
 20
323.7102354976045
 30
0.0
 11
-139.9858368341158
 21
329.7103625167134
 31
0.0
  0
LINE
  5
299
330
1F
100
AcDbEntity
  8
仕上
  6
Continuous
 62
     3
370
     9
100
AcDbLine
 10
-66.22847031493939
 20
291.7102847499119
 30
0.0
 11
-66.22847031493939
 21
285.7103559183182
 31
0.0
  0
LINE
  5
29A
330
1F
100
AcDbEntity
  8
仕上
  6
Continuous
 62
     3
370
     9
100
AcDbLine
 10
-131.5006365633933
 20
285.7103559183182
 30
0.0
 11
-131.5006365633933
 21
291.7102847499119
 31
0.0
  0
LINE
  5
29B
330
1F
100
AcDbEntity
  8
仕上
  6
Continuous
 62
     3
370
     9
100
AcDbLine
 10
-131.5006365633933
 20
266.7103170349175
 30
0.0
 11
-131.500438375878
 21
272.7104440540264
 31
0.0
  0
LINE
  5
29C
330
1F
100
AcDbEntity
  8
仕上
  6
Continuous
 62
     3
370
     9
100
AcDbLine
 10
-66.22847031493939
 20
310.7103236333127
 30
0.0
 11
-66.22847031493939
 21
304.710394801719
 31
0.0
  0
LINE
  5
29D
330
1F
100
AcDbEntity
  8
仕上
  6
Continuous
 62
     3
370
     9
100
AcDbLine
 10
-131.5006365633933
 20
304.710394801719
 30
0.0
 11
-131.5006365633933
 21
310.7103236333127
 31
0.0
  0
LINE
  5
29E
330
1F
100
AcDbEntity
  8
仕上
  6
Continuous
 62
     3
370
     9
100
AcDbLine
 10
-66.22847031493939
 20
329.7103625167134
 30
0.0
 11
-66.22847031493939
 21
323.7103345913621
 31
0.0
  0
LINE
  5
29F
330
1F
100
AcDbEntity
  8
仕上
  6
Continuous
 62
     3
370
     9
100
AcDbLine
 10
-131.5006365633933
 20
323.7102354976045
 30
0.0
 11
-131.5006365633933
 21
329.710263422956
 31
0.0
  0
LINE
  5
2A0
330
1F
100
AcDbEntity
  8
仕上
  6
Continuous
 62
     3
370
     9
100
AcDbLine
 10
-66.22847031493939
 20
266.7102179411598
 30
0.0
 11
-66.22827212742413
 21
272.7101467727538
 31
0.0
  0
LINE
  5
2A1
330
1F
100
AcDbEntity
  8
仕上
  6
Continuous
 62
     3
370
     9
100
AcDbLine
 10
-208.8306303231966
 20
358.8740517360667
 30
0.0
 11
-212.243196371955
 21
359.1076652694697
 31
0.0
  0
LINE
  5
2A2
330
1F
100
AcDbEntity
  8
仕上
  6
Continuous
 62
     3
370
     9
100
AcDbLine
 10
-60.74313536625596
 20
363.2102954723044
 30
0.0
 11
-212.243196371955
 21
363.2102954723044
 31
0.0
  0
LINE
  5
2A3
330
1F
100
AcDbEntity
  8
仕上
  6
Continuous
 62
     3
370
     9
100
AcDbLine
 10
-66.22837122118153
 20
250.7103416610713
 30
0.0
 11
-66.22827212742413
 21
253.7102069831106
 31
0.0
  0
LINE
  5
2A4
330
1F
100
AcDbEntity
  8
仕上
  6
Continuous
 62
     3
370
     9
100
AcDbLine
 10
-207.6629094843333
 20
348.5304471364196
 30
0.0
 11
-212.243196371955
 21
348.5304471364196
 31
0.0
  0
LINE
  5
2A5
330
1F
100
AcDbEntity
  8
仕上
  6
Continuous
 62
     3
370
     9
100
AcDbLine
 10
-205.8942840997411
 20
343.3212864900032
 30
0.0
 11
-206.6785120969207
 21
347.706482542466
 31
0.0
  0
LINE
  5
2A6
330
1F
100
AcDbEntity
  8
仕上
  6
Continuous
 62
     3
370
     9
100
AcDbLine
 10
-195.275372268206
 20
342.4973218960496
 30
0.0
 11
-204.9098990990483
 21
342.4973218960496
 31
0.0
  0
LINE
  5
2A7
330
1F
100
AcDbEntity
  8
仕上
  6
Continuous
 62
     3
370
     9
100
AcDbLine
 10
-193.5345179091646
 20
347.70068555765
 30
0.0
 11
-194.2899591697783
 21
343.3270834748192
 31
0.0
  0
LINE
  5
2A8
330
1F
100
AcDbEntity
  8
仕上
  6
Continuous
 62
     3
370
     9
100
AcDbLine
 10
-189.2781437415047
 20
348.5304471364196
 30
0.0
 11
-192.5491048107369
 21
348.5304471364196
 31
0.0
  0
LINE
  5
2A9
330
1F
100
AcDbEntity
  8
仕上
  6
Continuous
 62
     3
370
     9
100
AcDbLine
 10
-187.5095183569128
 20
343.3212864900032
 30
0.0
 11
-188.2937463540925
 21
347.706482542466
 31
0.0
  0
LINE
  5
2AA
330
1F
100
AcDbEntity
  8
仕上
  6
Continuous
 62
     3
370
     9
100
AcDbLine
 10
-176.890457884741
 20
342.4973218960496
 30
0.0
 11
-186.5251209695002
 21
342.4973218960496
 31
0.0
  0
LINE
  5
2AB
330
1F
100
AcDbEntity
  8
仕上
  6
Continuous
 62
     3
370
     9
100
AcDbLine
 10
-175.1496035256996
 20
347.70068555765
 30
0.0
 11
-175.9050447863137
 21
343.3270834748192
 31
0.0
  0
LINE
  5
2AC
330
1F
100
AcDbEntity
  8
仕上
  6
Continuous
 62
     3
370
     9
100
AcDbLine
 10
-170.8934275455549
 20
348.5304471364196
 30
0.0
 11
-174.1641904272724
 21
348.5304471364196
 31
0.0
  0
LINE
  5
2AD
330
1F
100
AcDbEntity
  8
仕上
  6
Continuous
 62
     3
370
     9
100
AcDbLine
 10
-169.1246287468871
 20
343.3212369431243
 30
0.0
 11
-169.9090549315817
 21
347.7065320893447
 31
0.0
  0
LINE
  5
2AE
330
1F
100
AcDbEntity
  8
仕上
  6
Continuous
 62
     3
370
     9
100
AcDbLine
 10
-158.5056178215941
 20
342.4973218960496
 30
0.0
 11
-168.1402561329139
 21
342.4973218960496
 31
0.0
  0
LINE
  5
2AF
330
1F
100
AcDbEntity
  8
仕上
  6
Continuous
 62
     3
370
     9
100
AcDbLine
 10
-156.7649121031891
 20
347.7006360107711
 30
0.0
 11
-157.5202047231667
 21
343.3271330216982
 31
0.0
  0
LINE
  5
2B0
330
1F
100
AcDbEntity
  8
仕上
  6
Continuous
 62
     3
370
     9
100
AcDbLine
 10
-152.5085131620901
 20
348.5304471364196
 30
0.0
 11
-155.7794990047619
 21
348.5304471364196
 31
0.0
  0
LINE
  5
2B1
330
1F
100
AcDbEntity
  8
仕上
  6
Continuous
 62
     3
370
     9
100
AcDbLine
 10
-150.739763910301
 20
343.3212369431243
 30
0.0
 11
-151.5241405481172
 21
347.7065320893447
 31
0.0
  0
LINE
  5
2B2
330
1F
100
AcDbEntity
  8
仕上
  6
Continuous
 62
     3
370
     9
100
AcDbLine
 10
-140.1207777584475
 20
342.4973218960496
 30
0.0
 11
-149.7553912963278
 21
342.4973218960496
 31
0.0
  0
LINE
  5
2B3
330
1F
100
AcDbEntity
  8
仕上
  6
Continuous
 62
     3
370
     9
100
AcDbLine
 10
-134.1236730989435
 20
348.5304471364196
 30
0.0
 11
-137.394708488494
 21
348.5304471364196
 31
0.0
  0
LINE
  5
2B4
330
1F
100
AcDbEntity
  8
仕上
  6
Continuous
 62
     3
370
     9
100
AcDbLine
 10
-132.3550724877907
 20
343.3212864900032
 30
0.0
 11
-133.1393004849704
 21
347.706482542466
 31
0.0
  0
LINE
  5
2B5
330
1F
100
AcDbEntity
  8
仕上
  6
Continuous
 62
     3
370
     9
100
AcDbLine
 10
-121.7360863359372
 20
342.4973218960496
 30
0.0
 11
-131.3706998738176
 21
342.4973218960496
 31
0.0
  0
LINE
  5
2B6
330
1F
100
AcDbEntity
  8
仕上
  6
Continuous
 62
     3
370
     9
100
AcDbLine
 10
-119.9952815237746
 20
347.7006360107711
 30
0.0
 11
-120.7506732375098
 21
343.3271330216982
 31
0.0
  0
LINE
  5
2B7
330
1F
100
AcDbEntity
  8
仕上
  6
Continuous
 62
     3
370
     9
100
AcDbLine
 10
-115.738783488918
 20
348.5304471364196
 30
0.0
 11
-119.0098684253473
 21
348.5304471364196
 31
0.0
  0
LINE
  5
2B8
330
1F
100
AcDbEntity
  8
仕上
  6
Continuous
 62
     3
370
     9
100
AcDbLine
 10
-113.9701828777654
 20
343.3212864900032
 30
0.0
 11
-114.7544108749451
 21
347.706482542466
 31
0.0
  0
LINE
  5
2B9
330
1F
100
AcDbEntity
  8
仕上
  6
Continuous
 62
     3
370
     9
100
AcDbLine
 10
-103.3511719524727
 20
342.4973218960496
 30
0.0
 11
-112.9858102637922
 21
342.4973218960496
 31
0.0
  0
LINE
  5
2BA
330
1F
100
AcDbEntity
  8
仕上
  6
Continuous
 62
     3
370
     9
100
AcDbLine
 10
-101.6103671403098
 20
347.7006360107711
 30
0.0
 11
-102.365758854045
 21
343.3271330216982
 31
0.0
  0
LINE
  5
2BB
330
1F
100
AcDbEntity
  8
仕上
  6
Continuous
 62
     3
370
     9
100
AcDbLine
 10
-97.35391865233214
 20
348.5304471364196
 30
0.0
 11
-100.6249540418826
 21
348.5304471364196
 31
0.0
  0
LINE
  5
2BC
330
1F
100
AcDbEntity
  8
仕上
  6
Continuous
 62
     3
370
     9
100
AcDbLine
 10
-95.58529326773987
 20
343.3212864900032
 30
0.0
 11
-96.3695460383592
 21
347.706482542466
 31
0.0
  0
LINE
  5
2BD
330
1F
100
AcDbEntity
  8
仕上
  6
Continuous
 62
     3
370
     9
100
AcDbLine
 10
-84.9663071158866
 20
342.4973218960496
 30
0.0
 11
-94.60092065376693
 21
342.4973218960496
 31
0.0
  0
LINE
  5
2BE
330
1F
100
AcDbEntity
  8
仕上
  6
Continuous
 62
     3
370
     9
100
AcDbLine
 10
-83.22555185060264
 20
347.7006360107711
 30
0.0
 11
-83.98089401745892
 21
343.3271330216982
 31
0.0
  0
LINE
  5
2BF
330
1F
100
AcDbEntity
  8
仕上
  6
Continuous
 62
     3
370
     9
100
AcDbLine
 10
-78.96922722982208
 20
348.5304471364196
 30
0.0
 11
-82.24013875217543
 21
348.5304471364196
 31
0.0
  0
LINE
  5
2C0
330
1F
100
AcDbEntity
  8
仕上
  6
Continuous
 62
     3
370
     9
100
AcDbLine
 10
-77.20052752491165
 20
343.3212369431243
 30
0.0
 11
-77.98485461584869
 21
347.7065320893447
 31
0.0
  0
LINE
  5
2C1
330
1F
100
AcDbEntity
  8
仕上
  6
Continuous
 62
     3
370
     9
100
AcDbLine
 10
-66.58154137305792
 20
342.4973218960496
 30
0.0
 11
-76.21615491093826
 21
342.4973218960496
 31
0.0
  0
LINE
  5
2C2
330
1F
100
AcDbEntity
  8
仕上
  6
Continuous
 62
     3
370
     9
100
AcDbLine
 10
-72.01398502865368
 20
348.6078393610593
 30
0.0
 11
-72.90015572890388
 21
343.4776564394029
 31
0.0
  0
LINE
  5
2C3
330
1F
100
AcDbEntity
  8
仕上
  6
Continuous
 62
     3
370
     9
100
AcDbLine
 10
-70.96027155784122
 20
349.4353217834056
 30
0.0
 11
-57.74307185670159
 21
348.5304471364196
 31
0.0
  0
LINE
  5
2C4
330
1F
100
AcDbEntity
  8
仕上
  6
Continuous
 62
     3
370
     9
100
AcDbLine
 10
-64.84083565465289
 20
347.7006360107711
 30
0.0
 11
-65.5961282746307
 21
343.3271330216982
 31
0.0
  0
LINE
  5
2C5
330
1F
100
AcDbEntity
  8
仕上
  6
Continuous
 62
     3
370
     9
100
AcDbLine
 10
-63.85542255622568
 20
348.5304471364196
 30
0.0
 11
-57.74307185670159
 21
348.5304471364196
 31
0.0
  0
LINE
  5
2C6
330
1F
100
AcDbEntity
  8
仕上
  6
Continuous
 62
     3
370
     9
100
AcDbLine
 10
-66.22354040050186
 20
342.5636156198444
 30
0.0
 11
-77.3371778165606
 21
344.0852993606444
 31
0.0
  0
LINE
  5
2C7
330
1F
100
AcDbEntity
  8
仕上
  6
Continuous
 62
     3
370
     9
100
AcDbLine
 10
-64.21342352878219
 20
348.4642029595035
 30
0.0
 11
-71.20674250628508
 21
349.4216468448648
 31
0.0
  0
LINE
  5
2C8
330
1F
100
AcDbEntity
  8
仕上
  6
Continuous
 62
     3
370
     9
100
AcDbLine
 10
-84.60830614333008
 20
342.5636156198444
 30
0.0
 11
-95.72201787970744
 21
344.0852993606444
 31
0.0
  0
LINE
  5
2C9
330
1F
100
AcDbEntity
  8
仕上
  6
Continuous
 62
     3
370
     9
100
AcDbLine
 10
-100.9829550144391
 20
348.4641534126248
 30
0.0
 11
-145.1913805583824
 21
354.5171964982607
 31
0.0
  0
LINE
  5
2CA
330
1F
100
AcDbEntity
  8
仕上
  6
Continuous
 62
     3
370
     9
100
AcDbLine
 10
-102.9931709799162
 20
342.5636156198444
 30
0.0
 11
-114.1068827162933
 21
344.085398454402
 31
0.0
  0
LINE
  5
2CB
330
1F
100
AcDbEntity
  8
仕上
  6
Continuous
 62
     3
370
     9
100
AcDbLine
 10
-121.3780853633809
 20
342.5636156198444
 30
0.0
 11
-132.4917723263186
 21
344.085398454402
 31
0.0
  0
LINE
  5
2CC
330
1F
100
AcDbEntity
  8
仕上
  6
Continuous
 62
     3
370
     9
100
AcDbLine
 10
-138.3801215869214
 20
347.7005864638924
 30
0.0
 11
-139.1353646600203
 21
343.3271825685769
 31
0.0
  0
LINE
  5
2CD
330
1F
100
AcDbEntity
  8
仕上
  6
Continuous
 62
     3
370
     9
100
AcDbLine
 10
-137.7527094610502
 20
348.4641534126248
 30
0.0
 11
-212.243196371955
 21
358.6635270481707
 31
0.0
  0
LINE
  5
2CE
330
1F
100
AcDbEntity
  8
仕上
  6
Continuous
 62
     3
370
     9
100
AcDbLine
 10
-139.7627520124518
 20
342.5636156198444
 30
0.0
 11
-150.8763894285107
 21
344.085398454402
 31
0.0
  0
LINE
  5
2CF
330
1F
100
AcDbEntity
  8
仕上
  6
Continuous
 62
     3
370
     9
100
AcDbLine
 10
-156.1374999773182
 20
348.4641534126248
 30
0.0
 11
-212.243196371955
 21
356.1462483253562
 31
0.0
  0
LINE
  5
2D0
330
1F
100
AcDbEntity
  8
仕上
  6
Continuous
 62
     3
370
     9
100
AcDbLine
 10
-158.1476168490378
 20
342.5636156198444
 30
0.0
 11
-169.2612047182181
 21
344.0852993606444
 31
0.0
  0
LINE
  5
2D1
330
1F
100
AcDbEntity
  8
仕上
  6
Continuous
 62
     3
370
     9
100
AcDbLine
 10
-174.5221913998284
 20
348.4642029595035
 30
0.0
 11
-212.243196371955
 21
353.6289696025416
 31
0.0
  0
LINE
  5
2D2
330
1F
100
AcDbEntity
  8
仕上
  6
Continuous
 62
     3
370
     9
100
AcDbLine
 10
-176.5324569121844
 20
342.5636156198444
 30
0.0
 11
-187.6461191016829
 21
344.085398454402
 31
0.0
  0
LINE
  5
2D3
330
1F
100
AcDbEntity
  8
仕上
  6
Continuous
 62
     3
370
     9
100
AcDbLine
 10
-192.9071057832934
 20
348.4642029595035
 30
0.0
 11
-212.243196371955
 21
351.111690879727
 31
0.0
  0
LINE
  5
2D4
330
1F
100
AcDbEntity
  8
仕上
  6
Continuous
 62
     3
370
     9
100
AcDbLine
 10
-194.9173712956494
 20
342.5636156198444
 30
0.0
 11
-206.0309839382689
 21
344.085398454402
 31
0.0
  0
LINE
  5
2D5
330
1F
100
AcDbEntity
  8
仕上
  6
Continuous
 62
     3
370
     9
100
AcDbLine
 10
-212.243196371955
 20
349.2721639116143
 30
0.0
 11
-207.5053008629643
 21
348.5179117760907
 31
0.0
  0
LINE
  5
2D6
330
1F
100
AcDbEntity
  8
仕上
  6
Continuous
 62
     3
370
     9
100
AcDbLine
 10
-212.243196371955
 20
351.7895912750652
 30
0.0
 11
-189.1380251683418
 21
348.5205873075444
 31
0.0
  0
LINE
  5
2D7
330
1F
100
AcDbEntity
  8
仕上
  6
Continuous
 62
     3
370
     9
100
AcDbLine
 10
-212.243196371955
 20
354.3067709041221
 30
0.0
 11
-170.7553156209822
 21
348.520884588817
 31
0.0
  0
LINE
  5
2D8
330
1F
100
AcDbEntity
  8
仕上
  6
Continuous
 62
     3
370
     9
100
AcDbLine
 10
-212.243196371955
 20
356.8240496269369
 30
0.0
 11
-152.3711444406988
 21
348.5209836825744
 31
0.0
  0
LINE
  5
2D9
330
1F
100
AcDbEntity
  8
仕上
  6
Continuous
 62
     3
370
     9
100
AcDbLine
 10
-208.8306303231966
 20
358.8740517360667
 30
0.0
 11
-133.9866512057035
 21
348.5209836825744
 31
0.0
  0
LINE
  5
2DA
330
1F
100
AcDbEntity
  8
仕上
  6
Continuous
 62
     3
370
     9
100
AcDbLine
 10
-119.3678693979036
 20
348.4641534126248
 30
0.0
 11
-181.9608129502817
 21
357.0344752210752
 31
0.0
  0
LINE
  5
2DB
330
1F
100
AcDbEntity
  8
仕上
  6
Continuous
 62
     3
370
     9
100
AcDbLine
 10
-184.2824310488318
 20
356.2937989303349
 30
0.0
 11
-184.4142257463614
 21
355.5308265441478
 31
0.0
  0
LINE
  5
2DC
330
1F
100
AcDbEntity
  8
仕上
  6
Continuous
 62
     3
370
     9
100
AcDbLine
 10
-183.2287175780193
 20
357.1212813526812
 30
0.0
 11
-172.0606529156307
 21
356.3566739194945
 31
0.0
  0
LINE
  5
2DD
330
1F
100
AcDbEntity
  8
仕上
  6
Continuous
 62
     3
370
     9
100
AcDbLine
 10
-172.0606529156307
 20
356.3566739194945
 30
0.0
 11
-115.6013156737692
 21
348.5209836825744
 31
0.0
  0
LINE
  5
2DE
330
1F
100
AcDbEntity
  8
仕上
  6
Continuous
 62
     3
370
     9
100
AcDbLine
 10
-146.859723060343
 20
353.7318289228691
 30
0.0
 11
-146.9990984303242
 21
352.925255283364
 31
0.0
  0
LINE
  5
2DF
330
1F
100
AcDbEntity
  8
仕上
  6
Continuous
 62
     3
370
     9
100
AcDbLine
 10
-145.8060343629697
 20
354.5592617983367
 30
0.0
 11
-135.2913196174889
 21
353.8394942904375
 31
0.0
  0
LINE
  5
2E0
330
1F
100
AcDbEntity
  8
仕上
  6
Continuous
 62
     3
370
     9
100
AcDbLine
 10
-135.2913196174889
 20
353.8394942904375
 30
0.0
 11
-97.21558376680514
 21
348.5208350419381
 31
0.0
  0
LINE
  5
2E1
330
1F
100
AcDbEntity
  8
仕上
  6
Continuous
 62
     3
370
     9
100
AcDbLine
 10
-109.4407310877621
 20
351.1700571029186
 30
0.0
 11
-109.5875384895592
 21
350.3199813038531
 31
0.0
  0
LINE
  5
2E2
330
1F
100
AcDbEntity
  8
仕上
  6
Continuous
 62
     3
370
     9
100
AcDbLine
 10
-108.3869928435101
 20
351.9975395252649
 30
0.0
 11
-98.52114402240795
 21
351.3221164738653
 31
0.0
  0
LINE
  5
2E3
330
1F
100
AcDbEntity
  8
仕上
  6
Continuous
 62
     3
370
     9
100
AcDbLine
 10
-82.59813972473148
 20
348.4641534126248
 30
0.0
 11
-108.4154079784851
 21
351.9990754785068
 31
0.0
  0
LINE
  5
2E4
330
1F
100
AcDbEntity
  8
仕上
  6
Continuous
 62
     3
370
     9
100
AcDbLine
 10
-98.52114402240795
 20
351.3221164738653
 30
0.0
 11
-78.82839022691678
 21
348.5204882137867
 31
0.0
  0
LINE
  5
2E5
330
1F
100
AcDbEntity
  8
仕上
  6
Continuous
 62
     3
370
     9
100
AcDbLine
 10
-143.167786935637
 20
272.7102458665114
 30
0.0
 11
-143.167786935637
 21
266.7103170349175
 31
0.0
  0
LINE
  5
2E6
330
1F
100
AcDbEntity
  8
仕上
  6
Continuous
 62
     3
370
     9
100
AcDbLine
 10
-143.167786935637
 20
291.7103838436695
 30
0.0
 11
-143.167786935637
 21
285.7104550120756
 31
0.0
  0
LINE
  5
2E7
330
1F
100
AcDbEntity
  8
仕上
  6
Continuous
 62
     3
370
     9
100
AcDbLine
 10
-143.167786935637
 20
310.7102245395553
 30
0.0
 11
-143.167786935637
 21
304.7102957079613
 31
0.0
  0
LINE
  5
2E8
330
1F
100
AcDbEntity
  8
仕上
  6
Continuous
 62
     3
370
     9
100
AcDbLine
 10
-143.167786935637
 20
329.710263422956
 30
0.0
 11
-143.167786935637
 21
323.7104336851195
 31
0.0
  0
LINE
  5
2E9
330
1F
100
AcDbEntity
  8
仕上
  6
Continuous
 62
     3
370
     9
100
AcDbLine
 10
-142.0140135431475
 20
321.710424376669
 30
0.0
 11
-203.2579937741198
 21
321.710226189154
 31
0.0
  0
LINE
  5
2EA
330
1F
100
AcDbEntity
  8
仕上
  6
Continuous
 62
     3
370
     9
100
AcDbLine
 10
-141.9859452363241
 20
331.7102727314065
 30
0.0
 11
-203.2579937741198
 21
331.7102727314065
 31
0.0
  0
LINE
  5
2EB
330
1F
100
AcDbEntity
  8
仕上
  6
Continuous
 62
     3
370
     9
100
AcDbLine
 10
-141.9857470488089
 20
312.7102338480057
 30
0.0
 11
-203.2579937741198
 21
312.7102338480057
 31
0.0
  0
LINE
  5
2EC
330
1F
100
AcDbEntity
  8
仕上
  6
Continuous
 62
     3
370
     9
100
AcDbLine
 10
-141.9857470488089
 20
302.7102863995109
 30
0.0
 11
-203.2579937741198
 21
302.7102863995109
 31
0.0
  0
LINE
  5
2ED
330
1F
100
AcDbEntity
  8
仕上
  6
Continuous
 62
     3
370
     9
100
AcDbLine
 10
-141.9859452363241
 20
293.71039315212
 30
0.0
 11
-203.2579937741198
 21
293.71039315212
 31
0.0
  0
LINE
  5
2EE
330
1F
100
AcDbEntity
  8
仕上
  6
Continuous
 62
     3
370
     9
100
AcDbLine
 10
-141.9859452363241
 20
283.7104457036252
 30
0.0
 11
-203.2579937741198
 21
283.7104457036252
 31
0.0
  0
LINE
  5
2EF
330
1F
100
AcDbEntity
  8
仕上
  6
Continuous
 62
     3
370
     9
100
AcDbLine
 10
-142.0134437540416
 20
274.7102551749618
 30
0.0
 11
-195.1623310642908
 21
274.7102551749618
 31
0.0
  0
LINE
  5
2F0
330
1F
100
AcDbEntity
  8
仕上
  6
Continuous
 62
     3
370
     9
100
AcDbLine
 10
-141.9859452363241
 20
264.710307726467
 30
0.0
 11
-188.1184494970021
 21
264.710307726467
 31
0.0
  0
LINE
  5
2F1
330
1F
100
AcDbEntity
  8
仕上
  6
Continuous
 62
     3
370
     9
100
AcDbLine
 10
-141.9859452363241
 20
255.7103153853187
 30
0.0
 11
-180.3018843552877
 21
255.7103153853187
 31
0.0
  0
LINE
  5
2F2
330
1F
100
AcDbEntity
  8
仕上
  6
Continuous
 62
     3
370
     9
100
AcDbLine
 10
-69.41037086958158
 20
272.7101467727538
 30
0.0
 11
-69.41037086958158
 21
266.7102179411598
 31
0.0
  0
LINE
  5
2F3
330
1F
100
AcDbEntity
  8
仕上
  6
Continuous
 62
     3
370
     9
100
AcDbLine
 10
-69.41037086958158
 20
291.7103838436695
 30
0.0
 11
-69.41037086958158
 21
285.7104550120756
 31
0.0
  0
LINE
  5
2F4
330
1F
100
AcDbEntity
  8
仕上
  6
Continuous
 62
     3
370
     9
100
AcDbLine
 10
-69.41037086958158
 20
310.7103236333127
 30
0.0
 11
-69.41037086958158
 21
304.7102957079613
 31
0.0
  0
LINE
  5
2F5
330
1F
100
AcDbEntity
  8
仕上
  6
Continuous
 62
     3
370
     9
100
AcDbLine
 10
-69.41037086958158
 20
329.7103625167134
 30
0.0
 11
-69.41037086958158
 21
323.7102354976045
 31
0.0
  0
LINE
  5
2F6
330
1F
100
AcDbEntity
  8
仕上
  6
Continuous
 62
     3
370
     9
100
AcDbLine
 10
-68.22838052963243
 20
331.7103718251639
 30
0.0
 11
-129.5005281611852
 21
331.7102727314065
 31
0.0
  0
LINE
  5
2F7
330
1F
100
AcDbEntity
  8
仕上
  6
Continuous
 62
     3
370
     9
100
AcDbLine
 10
-68.22838052963243
 20
321.710226189154
 30
0.0
 11
-129.5005281611852
 21
321.710226189154
 31
0.0
  0
LINE
  5
2F8
330
1F
100
AcDbEntity
  8
仕上
  6
Continuous
 62
     3
370
     9
100
AcDbLine
 10
-68.22838052963243
 20
312.7103329417631
 30
0.0
 11
-129.5005281611852
 21
312.7103329417631
 31
0.0
  0
LINE
  5
2F9
330
1F
100
AcDbEntity
  8
仕上
  6
Continuous
 62
     3
370
     9
100
AcDbLine
 10
-68.22838052963243
 20
302.7102863995109
 30
0.0
 11
-129.5005281611852
 21
302.7102863995109
 31
0.0
  0
LINE
  5
2FA
330
1F
100
AcDbEntity
  8
仕上
  6
Continuous
 62
     3
370
     9
100
AcDbLine
 10
-68.22838052963243
 20
293.71039315212
 30
0.0
 11
-129.5005281611852
 21
293.71039315212
 31
0.0
  0
LINE
  5
2FB
330
1F
100
AcDbEntity
  8
仕上
  6
Continuous
 62
     3
370
     9
100
AcDbLine
 10
-68.22838052963243
 20
283.7104457036252
 30
0.0
 11
-129.5005281611852
 21
283.7104457036252
 31
0.0
  0
LINE
  5
2FC
330
1F
100
AcDbEntity
  8
仕上
  6
Continuous
 62
     3
370
     9
100
AcDbLine
 10
-68.22838052963243
 20
274.7101560812042
 30
0.0
 11
-129.5005281611852
 21
274.7101560812042
 31
0.0
  0
LINE
  5
2FD
330
1F
100
AcDbEntity
  8
仕上
  6
Continuous
 62
     3
370
     9
100
AcDbLine
 10
-68.22838052963243
 20
264.7102086327094
 30
0.0
 11
-129.5005281611852
 21
264.7102086327094
 31
0.0
  0
LINE
  5
2FE
330
1F
100
AcDbEntity
  8
仕上
  6
Continuous
 62
     3
370
     9
100
AcDbLine
 10
-68.22838052963243
 20
255.7102162915611
 30
0.0
 11
-129.5005281611852
 21
255.7102162915611
 31
0.0
  0
LINE
  5
2FF
330
1F
100
AcDbEntity
  8
仕上
  6
Continuous
 62
     3
370
     9
100
AcDbLine
 10
-212.243196371955
 20
262.612393785566
 30
0.0
 11
-198.3200527420931
 21
261.7022176225518
 31
0.0
  0
ARC
  5
300
330
1F
100
AcDbEntity
  8
仕上
  6
Continuous
 62
     3
370
     9
100
AcDbCircle
 10
-195.1623310642908
 20
271.7103898529225
 30
0.0
 40
3.000000221158547
100
AcDbArc
 50
90.0
 51
252.658203125
  0
ARC
  5
301
330
1F
100
AcDbEntity
  8
仕上
  6
Continuous
 62
     3
370
     9
100
AcDbCircle
 10
-188.1184494970021
 20
266.7103170349175
 30
0.0
 40
2.000000211953196
100
AcDbArc
 50
229.63232421875
 51
270.0
  0
ARC
  5
302
330
1F
100
AcDbEntity
  8
仕上
  6
Continuous
 62
     3
370
     9
100
AcDbCircle
 10
-201.7200091102045
 20
250.7103416610713
 30
0.0
 40
19.00000172324162
100
AcDbArc
 50
49.63224792480469
 51
72.65841674804688
  0
ARC
  5
303
330
1F
100
AcDbEntity
  8
仕上
  6
Continuous
 62
     3
370
     9
100
AcDbCircle
 10
-180.3018843552877
 20
253.710306076868
 30
0.0
 40
2.000000211953196
100
AcDbArc
 50
90.0
 51
188.2135620117188
  0
ARC
  5
304
330
1F
100
AcDbEntity
  8
仕上
  6
Continuous
 62
     3
370
     9
100
AcDbCircle
 10
-203.2579937741198
 20
285.7103559183182
 30
0.0
 40
2.000000211953196
100
AcDbArc
 50
180.0
 51
270.0
  0
ARC
  5
305
330
1F
100
AcDbEntity
  8
仕上
  6
Continuous
 62
     3
370
     9
100
AcDbCircle
 10
-203.2579937741198
 20
291.7102847499119
 30
0.0
 40
2.000000211953196
100
AcDbArc
 50
90.0
 51
180.0
  0
ARC
  5
306
330
1F
100
AcDbEntity
  8
仕上
  6
Continuous
 62
     3
370
     9
100
AcDbCircle
 10
-141.9859452363241
 20
291.7102847499119
 30
0.0
 40
2.000000211953196
100
AcDbArc
 50
0.0
 51
89.99949645996091
  0
ARC
  5
307
330
1F
100
AcDbEntity
  8
仕上
  6
Continuous
 62
     3
370
     9
100
AcDbCircle
 10
-141.9859452363241
 20
285.7103559183182
 30
0.0
 40
2.000000211953196
100
AcDbArc
 50
270.0
 51
0.0
  0
ARC
  5
308
330
1F
100
AcDbEntity
  8
仕上
  6
Continuous
 62
     3
370
     9
100
AcDbCircle
 10
-141.9859452363241
 20
272.7104440540264
 30
0.0
 40
2.000000211953196
100
AcDbArc
 50
0.0
 51
90.0
  0
ARC
  5
309
330
1F
100
AcDbEntity
  8
仕上
  6
Continuous
 62
     3
370
     9
100
AcDbCircle
 10
-141.9859452363241
 20
266.7103170349175
 30
0.0
 40
2.000000211953196
100
AcDbArc
 50
270.0
 51
0.0
  0
ARC
  5
30A
330
1F
100
AcDbEntity
  8
仕上
  6
Continuous
 62
     3
370
     9
100
AcDbCircle
 10
-141.9859452363241
 20
253.710306076868
 30
0.0
 40
2.000000211953196
100
AcDbArc
 50
0.0000000000000127
 51
89.99899291992189
  0
ARC
  5
30B
330
1F
100
AcDbEntity
  8
仕上
  6
Continuous
 62
     3
370
     9
100
AcDbCircle
 10
-203.2579937741198
 20
304.710394801719
 30
0.0
 40
2.000000211953196
100
AcDbArc
 50
180.0
 51
270.0
  0
ARC
  5
30C
330
1F
100
AcDbEntity
  8
仕上
  6
Continuous
 62
     3
370
     9
100
AcDbCircle
 10
-203.2579937741198
 20
310.7103236333127
 30
0.0
 40
2.000000211953196
100
AcDbArc
 50
90.0
 51
180.0
  0
ARC
  5
30D
330
1F
100
AcDbEntity
  8
仕上
  6
Continuous
 62
     3
370
     9
100
AcDbCircle
 10
-141.9857470488089
 20
310.7103236333127
 30
0.0
 40
2.000000211953196
100
AcDbArc
 50
0.0
 51
90.0
  0
ARC
  5
30E
330
1F
100
AcDbEntity
  8
仕上
  6
Continuous
 62
     3
370
     9
100
AcDbCircle
 10
-141.9857470488089
 20
304.710394801719
 30
0.0
 40
2.000000211953196
100
AcDbArc
 50
270.0005035400391
 51
0.0
  0
ARC
  5
30F
330
1F
100
AcDbEntity
  8
仕上
  6
Continuous
 62
     3
370
     9
100
AcDbCircle
 10
-203.2579937741198
 20
323.7103345913621
 30
0.0
 40
2.000000211953196
100
AcDbArc
 50
180.0
 51
270.0
  0
ARC
  5
310
330
1F
100
AcDbEntity
  8
仕上
  6
Continuous
 62
     3
370
     9
100
AcDbCircle
 10
-203.2579937741198
 20
329.710263422956
 30
0.0
 40
2.000000211953196
100
AcDbArc
 50
90.0
 51
180.0
  0
ARC
  5
311
330
1F
100
AcDbEntity
  8
仕上
  6
Continuous
 62
     3
370
     9
100
AcDbCircle
 10
-141.9859452363241
 20
329.710263422956
 30
0.0
 40
2.000000211953196
100
AcDbArc
 50
0.0
 51
90.0
  0
ARC
  5
312
330
1F
100
AcDbEntity
  8
仕上
  6
Continuous
 62
     3
370
     9
100
AcDbCircle
 10
-141.9857470488089
 20
323.7102354976045
 30
0.0
 40
2.000000211953196
100
AcDbArc
 50
270.0
 51
0.0
  0
ARC
  5
313
330
1F
100
AcDbEntity
  8
仕上
  6
Continuous
 62
     3
370
     9
100
AcDbCircle
 10
-68.22838052963243
 20
285.7103559183182
 30
0.0
 40
2.000000211953196
100
AcDbArc
 50
270.0
 51
0.0
  0
ARC
  5
314
330
1F
100
AcDbEntity
  8
仕上
  6
Continuous
 62
     3
370
     9
100
AcDbCircle
 10
-68.22838052963243
 20
291.7103838436695
 30
0.0
 40
2.000000211953196
100
AcDbArc
 50
0.0
 51
90.0
  0
ARC
  5
315
330
1F
100
AcDbEntity
  8
仕上
  6
Continuous
 62
     3
370
     9
100
AcDbCircle
 10
-129.5005281611852
 20
291.7102847499119
 30
0.0
 40
2.000000211953196
100
AcDbArc
 50
90.00050354003909
 51
180.0
  0
ARC
  5
316
330
1F
100
AcDbEntity
  8
仕上
  6
Continuous
 62
     3
370
     9
100
AcDbCircle
 10
-129.5005281611852
 20
285.7103559183182
 30
0.0
 40
2.000000211953196
100
AcDbArc
 50
180.0
 51
270.0
  0
ARC
  5
317
330
1F
100
AcDbEntity
  8
仕上
  6
Continuous
 62
     3
370
     9
100
AcDbCircle
 10
-129.5005281611852
 20
272.7104440540264
 30
0.0
 40
2.000000211953196
100
AcDbArc
 50
90.0
 51
180.0
  0
ARC
  5
318
330
1F
100
AcDbEntity
  8
仕上
  6
Continuous
 62
     3
370
     9
100
AcDbCircle
 10
-129.5005281611852
 20
266.7103170349175
 30
0.0
 40
2.000000211953196
100
AcDbArc
 50
180.0
 51
270.0
  0
ARC
  5
319
330
1F
100
AcDbEntity
  8
仕上
  6
Continuous
 62
     3
370
     9
100
AcDbCircle
 10
-129.5005281611852
 20
253.710306076868
 30
0.0
 40
2.000000211953196
100
AcDbArc
 50
90.00100708007811
 51
180.0
  0
ARC
  5
31A
330
1F
100
AcDbEntity
  8
仕上
  6
Continuous
 62
     3
370
     9
100
AcDbCircle
 10
-68.22838052963243
 20
304.710394801719
 30
0.0
 40
2.000000211953196
100
AcDbArc
 50
270.0
 51
0.0
  0
ARC
  5
31B
330
1F
100
AcDbEntity
  8
仕上
  6
Continuous
 62
     3
370
     9
100
AcDbCircle
 10
-68.22838052963243
 20
310.7103236333127
 30
0.0
 40
2.000000211953196
100
AcDbArc
 50
0.0
 51
90.0
  0
ARC
  5
31C
330
1F
100
AcDbEntity
  8
仕上
  6
Continuous
 62
     3
370
     9
100
AcDbCircle
 10
-129.5005281611852
 20
310.7103236333127
 30
0.0
 40
2.000000211953196
100
AcDbArc
 50
90.0
 51
180.0
  0
ARC
  5
31D
330
1F
100
AcDbEntity
  8
仕上
  6
Continuous
 62
     3
370
     9
100
AcDbCircle
 10
-129.5005281611852
 20
304.710394801719
 30
0.0
 40
2.000000211953196
100
AcDbArc
 50
180.0
 51
269.99951171875
  0
ARC
  5
31E
330
1F
100
AcDbEntity
  8
仕上
  6
Continuous
 62
     3
370
     9
100
AcDbCircle
 10
-68.22838052963243
 20
323.7103345913621
 30
0.0
 40
2.000000211953196
100
AcDbArc
 50
270.0
 51
0.0
  0
ARC
  5
31F
330
1F
100
AcDbEntity
  8
仕上
  6
Continuous
 62
     3
370
     9
100
AcDbCircle
 10
-68.22838052963243
 20
329.7103625167134
 30
0.0
 40
2.000000211953196
100
AcDbArc
 50
0.0
 51
90.0
  0
ARC
  5
320
330
1F
100
AcDbEntity
  8
仕上
  6
Continuous
 62
     3
370
     9
100
AcDbCircle
 10
-129.5005281611852
 20
329.710263422956
 30
0.0
 40
2.000000211953196
100
AcDbArc
 50
90.0
 51
180.0
  0
ARC
  5
321
330
1F
100
AcDbEntity
  8
仕上
  6
Continuous
 62
     3
370
     9
100
AcDbCircle
 10
-129.5005281611852
 20
323.7102354976045
 30
0.0
 40
2.000000211953196
100
AcDbArc
 50
180.0
 51
270.0
  0
ARC
  5
322
330
1F
100
AcDbEntity
  8
仕上
  6
Continuous
 62
     3
370
     9
100
AcDbCircle
 10
-68.22838052963243
 20
253.7102069831106
 30
0.0
 40
2.000000211953196
100
AcDbArc
 50
0.0
 51
90.0
  0
ARC
  5
323
330
1F
100
AcDbEntity
  8
仕上
  6
Continuous
 62
     3
370
     9
100
AcDbCircle
 10
-68.22838052963243
 20
272.7101467727538
 30
0.0
 40
2.000000211953196
100
AcDbArc
 50
0.0
 51
90.0
  0
ARC
  5
324
330
1F
100
AcDbEntity
  8
仕上
  6
Continuous
 62
     3
370
     9
100
AcDbCircle
 10
-68.22838052963243
 20
266.7102179411598
 30
0.0
 40
2.000000211953196
100
AcDbArc
 50
270.0
 51
0.0
  0
ARC
  5
325
330
1F
100
AcDbEntity
  8
仕上
  6
Continuous
 62
     3
370
     9
100
AcDbCircle
 10
-60.74313536625596
 20
360.2104301502649
 30
0.0
 40
3.000000221158547
100
AcDbArc
 50
0.0003356933593827
 51
89.99966430664062
  0
ARC
  5
326
330
1F
100
AcDbEntity
  8
仕上
  6
Continuous
 62
     3
370
     9
100
AcDbCircle
 10
-207.6629094843333
 20
347.5304424821944
 30
0.0
 40
1.00000000920535
100
AcDbArc
 50
10.13917541503907
 51
90.0
  0
ARC
  5
327
330
1F
100
AcDbEntity
  8
仕上
  6
Continuous
 62
     3
370
     9
100
AcDbCircle
 10
-204.9098990990483
 20
343.4973265502748
 30
0.0
 40
1.00000000920535
100
AcDbArc
 50
190.1391754150391
 51
270.0
  0
ARC
  5
328
330
1F
100
AcDbEntity
  8
仕上
  6
Continuous
 62
     3
370
     9
100
AcDbCircle
 10
-195.275372268206
 20
343.4973265502748
 30
0.0
 40
1.00000000920535
100
AcDbArc
 50
270.0
 51
350.1994323730469
  0
ARC
  5
329
330
1F
100
AcDbEntity
  8
仕上
  6
Continuous
 62
     3
370
     9
100
AcDbCircle
 10
-192.5491048107369
 20
347.5304424821944
 30
0.0
 40
1.00000000920535
100
AcDbArc
 50
89.99999999999999
 51
170.1994323730469
  0
ARC
  5
32A
330
1F
100
AcDbEntity
  8
仕上
  6
Continuous
 62
     3
370
     9
100
AcDbCircle
 10
-189.2781437415047
 20
347.5304424821944
 30
0.0
 40
1.00000000920535
100
AcDbArc
 50
10.13917541503907
 51
90.0
  0
ARC
  5
32B
330
1F
100
AcDbEntity
  8
仕上
  6
Continuous
 62
     3
370
     9
100
AcDbCircle
 10
-186.5251209695002
 20
343.4973265502748
 30
0.0
 40
1.00000000920535
100
AcDbArc
 50
190.1391754150391
 51
270.0
  0
ARC
  5
32C
330
1F
100
AcDbEntity
  8
仕上
  6
Continuous
 62
     3
370
     9
100
AcDbCircle
 10
-176.890457884741
 20
343.4973265502748
 30
0.0
 40
1.00000000920535
100
AcDbArc
 50
270.0
 51
350.1995544433594
  0
ARC
  5
32D
330
1F
100
AcDbEntity
  8
仕上
  6
Continuous
 62
     3
370
     9
100
AcDbCircle
 10
-174.1641904272724
 20
347.5304424821944
 30
0.0
 40
1.00000000920535
100
AcDbArc
 50
89.99999999999999
 51
170.1995544433594
  0
ARC
  5
32E
330
1F
100
AcDbEntity
  8
仕上
  6
Continuous
 62
     3
370
     9
100
AcDbCircle
 10
-170.8934275455549
 20
347.5304424821944
 30
0.0
 40
1.00000000920535
100
AcDbArc
 50
10.14208984375
 51
90.0
  0
ARC
  5
32F
330
1F
100
AcDbEntity
  8
仕上
  6
Continuous
 62
     3
370
     9
100
AcDbCircle
 10
-168.1402561329139
 20
343.4973265502748
 30
0.0
 40
1.00000000920535
100
AcDbArc
 50
190.14208984375
 51
270.0
  0
ARC
  5
330
330
1F
100
AcDbEntity
  8
仕上
  6
Continuous
 62
     3
370
     9
100
AcDbCircle
 10
-158.5056178215941
 20
343.4973265502748
 30
0.0
 40
1.00000000920535
100
AcDbArc
 50
270.0
 51
350.2009582519531
  0
ARC
  5
331
330
1F
100
AcDbEntity
  8
仕上
  6
Continuous
 62
     3
370
     9
100
AcDbCircle
 10
-155.7794990047619
 20
347.5304424821944
 30
0.0
 40
1.00000000920535
100
AcDbArc
 50
90.00000000000001
 51
170.2009582519531
  0
ARC
  5
332
330
1F
100
AcDbEntity
  8
仕上
  6
Continuous
 62
     3
370
     9
100
AcDbCircle
 10
-152.5085131620901
 20
347.5304424821944
 30
0.0
 40
1.00000000920535
100
AcDbArc
 50
10.14208984375
 51
90.0
  0
ARC
  5
333
330
1F
100
AcDbEntity
  8
仕上
  6
Continuous
 62
     3
370
     9
100
AcDbCircle
 10
-149.7553912963278
 20
343.4973265502748
 30
0.0
 40
1.00000000920535
100
AcDbArc
 50
190.1406860351562
 51
270.0
  0
ARC
  5
334
330
1F
100
AcDbEntity
  8
仕上
  6
Continuous
 62
     3
370
     9
100
AcDbCircle
 10
-140.1207777584475
 20
343.4973265502748
 30
0.0
 40
1.00000000920535
100
AcDbArc
 50
270.0
 51
350.2023468017578
  0
ARC
  5
335
330
1F
100
AcDbEntity
  8
仕上
  6
Continuous
 62
     3
370
     9
100
AcDbCircle
 10
-134.1236730989435
 20
347.5304424821944
 30
0.0
 40
1.00000000920535
100
AcDbArc
 50
10.13929748535156
 51
90.0
  0
ARC
  5
336
330
1F
100
AcDbEntity
  8
仕上
  6
Continuous
 62
     3
370
     9
100
AcDbCircle
 10
-131.3706998738176
 20
343.4973265502748
 30
0.0
 40
1.00000000920535
100
AcDbArc
 50
190.1392974853516
 51
270.0
  0
ARC
  5
337
330
1F
100
AcDbEntity
  8
仕上
  6
Continuous
 62
     3
370
     9
100
AcDbCircle
 10
-121.7360863359372
 20
343.4973265502748
 30
0.0
 40
1.00000000920535
100
AcDbArc
 50
270.0
 51
350.2009582519531
  0
ARC
  5
338
330
1F
100
AcDbEntity
  8
仕上
  6
Continuous
 62
     3
370
     9
100
AcDbCircle
 10
-119.0098684253473
 20
347.5304424821944
 30
0.0
 40
1.00000000920535
100
AcDbArc
 50
90.00000000000001
 51
170.2009582519531
  0
ARC
  5
339
330
1F
100
AcDbEntity
  8
仕上
  6
Continuous
 62
     3
370
     9
100
AcDbCircle
 10
-115.738783488918
 20
347.5304424821944
 30
0.0
 40
1.00000000920535
100
AcDbArc
 50
10.13929748535156
 51
90.0
  0
ARC
  5
33A
330
1F
100
AcDbEntity
  8
仕上
  6
Continuous
 62
     3
370
     9
100
AcDbCircle
 10
-112.9858102637922
 20
343.4973265502748
 30
0.0
 40
1.00000000920535
100
AcDbArc
 50
190.1392974853516
 51
270.0
  0
ARC
  5
33B
330
1F
100
AcDbEntity
  8
仕上
  6
Continuous
 62
     3
370
     9
100
AcDbCircle
 10
-103.3511719524727
 20
343.4973265502748
 30
0.0
 40
1.00000000920535
100
AcDbArc
 50
270.0
 51
350.2009582519531
  0
ARC
  5
33C
330
1F
100
AcDbEntity
  8
仕上
  6
Continuous
 62
     3
370
     9
100
AcDbCircle
 10
-100.6249540418826
 20
347.5304424821944
 30
0.0
 40
1.00000000920535
100
AcDbArc
 50
90.00000000000001
 51
170.2009582519531
  0
ARC
  5
33D
330
1F
100
AcDbEntity
  8
仕上
  6
Continuous
 62
     3
370
     9
100
AcDbCircle
 10
-97.35391865233214
 20
347.5304424821944
 30
0.0
 40
1.00000000920535
100
AcDbArc
 50
10.13929748535156
 51
90.0
  0
ARC
  5
33E
330
1F
100
AcDbEntity
  8
仕上
  6
Continuous
 62
     3
370
     9
100
AcDbCircle
 10
-94.60092065376693
 20
343.4973265502748
 30
0.0
 40
1.00000000920535
100
AcDbArc
 50
190.1392974853516
 51
270.0
  0
ARC
  5
33F
330
1F
100
AcDbEntity
  8
仕上
  6
Continuous
 62
     3
370
     9
100
AcDbCircle
 10
-84.9663071158866
 20
343.4973265502748
 30
0.0
 40
1.00000000920535
100
AcDbArc
 50
270.0
 51
350.2009582519531
  0
ARC
  5
340
330
1F
100
AcDbEntity
  8
仕上
  6
Continuous
 62
     3
370
     9
100
AcDbCircle
 10
-82.24013875217543
 20
347.5304424821944
 30
0.0
 40
1.00000000920535
100
AcDbArc
 50
90.00000000000001
 51
170.2009582519531
  0
ARC
  5
341
330
1F
100
AcDbEntity
  8
仕上
  6
Continuous
 62
     3
370
     9
100
AcDbCircle
 10
-78.96922722982208
 20
347.5304424821944
 30
0.0
 40
1.00000000920535
100
AcDbArc
 50
10.14068603515624
 51
90.0
  0
ARC
  5
342
330
1F
100
AcDbEntity
  8
仕上
  6
Continuous
 62
     3
370
     9
100
AcDbCircle
 10
-76.21615491093826
 20
343.4973265502748
 30
0.0
 40
1.00000000920535
100
AcDbArc
 50
190.1406860351562
 51
270.0
  0
ARC
  5
343
330
1F
100
AcDbEntity
  8
仕上
  6
Continuous
 62
     3
370
     9
100
AcDbCircle
 10
-66.58154137305792
 20
343.4973265502748
 30
0.0
 40
1.00000000920535
100
AcDbArc
 50
270.0
 51
350.2009582519531
  0
ARC
  5
344
330
1F
100
AcDbEntity
  8
仕上
  6
Continuous
 62
     3
370
     9
100
AcDbCircle
 10
-71.02857193022646
 20
348.4376458324824
 30
0.0
 40
1.00000000920535
100
AcDbArc
 50
86.08366394042967
 51
170.1995544433594
  0
ARC
  5
345
330
1F
100
AcDbEntity
  8
仕上
  6
Continuous
 62
     3
370
     9
100
AcDbCircle
 10
-63.85542255622568
 20
347.5304424821944
 30
0.0
 40
1.00000000920535
100
AcDbArc
 50
90.00000000000001
 51
170.2009582519531
  0
ARC
  5
346
330
1F
100
AcDbEntity
  8
仕上
  6
Continuous
 62
     3
370
     9
100
AcDbCircle
 10
-137.394708488494
 20
347.5304424821944
 30
0.0
 40
1.00000000920535
100
AcDbArc
 50
90.0
 51
170.2023620605469
  0
ARC
  5
347
330
1F
100
AcDbEntity
  8
仕上
  6
Continuous
 62
     3
370
     9
100
AcDbCircle
 10
-183.2970427238438
 20
356.123654948637
 30
0.0
 40
1.00000000920535
100
AcDbArc
 50
86.08357238769531
 51
170.2009582519531
  0
ARC
  5
348
330
1F
100
AcDbEntity
  8
仕上
  6
Continuous
 62
     3
370
     9
100
AcDbCircle
 10
-145.874334735355
 20
353.5615858474138
 30
0.0
 40
1.00000000920535
100
AcDbArc
 50
86.08366394042969
 51
170.1965179443359
  0
ARC
  5
349
330
1F
100
AcDbEntity
  8
仕上
  6
Continuous
 62
     3
370
     9
100
AcDbCircle
 10
-108.4552932158954
 20
350.9999131212206
 30
0.0
 40
1.00000000920535
100
AcDbArc
 50
86.08357238769531
 51
170.2012023925781
  0
ARC
  5
34A
330
1F
100
AcDbEntity
  8
仕上
  6
Continuous
 62
     3
370
     9
100
AcDbCircle
 10
-145.1677962440874
 20
253.710306076868
 30
0.0
 40
2.000000018410701
100
AcDbArc
 50
0.0
 51
90.0
  0
ARC
  5
34B
330
1F
100
AcDbEntity
  8
仕上
  6
Continuous
 62
     3
370
     9
100
AcDbCircle
 10
-145.1677962440874
 20
266.7103170349175
 30
0.0
 40
2.000000018410701
100
AcDbArc
 50
270.0
 51
0.0
  0
ARC
  5
34C
330
1F
100
AcDbEntity
  8
仕上
  6
Continuous
 62
     3
370
     9
100
AcDbCircle
 10
-145.1677962440874
 20
272.7102458665114
 30
0.0
 40
2.000000018410701
100
AcDbArc
 50
0.0
 51
90.0
  0
ARC
  5
34D
330
1F
100
AcDbEntity
  8
仕上
  6
Continuous
 62
     3
370
     9
100
AcDbCircle
 10
-145.1677962440874
 20
285.7104550120756
 30
0.0
 40
2.000000018410701
100
AcDbArc
 50
270.0
 51
0.0
  0
ARC
  5
34E
330
1F
100
AcDbEntity
  8
仕上
  6
Continuous
 62
     3
370
     9
100
AcDbCircle
 10
-145.1677962440874
 20
291.7103838436695
 30
0.0
 40
2.000000018410701
100
AcDbArc
 50
0.0
 51
90.0
  0
ARC
  5
34F
330
1F
100
AcDbEntity
  8
仕上
  6
Continuous
 62
     3
370
     9
100
AcDbCircle
 10
-145.1677962440874
 20
304.7102957079613
 30
0.0
 40
2.000000018410701
100
AcDbArc
 50
270.0
 51
0.0
  0
ARC
  5
350
330
1F
100
AcDbEntity
  8
仕上
  6
Continuous
 62
     3
370
     9
100
AcDbCircle
 10
-145.1677962440874
 20
310.7102245395553
 30
0.0
 40
2.000000018410701
100
AcDbArc
 50
0.0
 51
90.0
  0
ARC
  5
351
330
1F
100
AcDbEntity
  8
仕上
  6
Continuous
 62
     3
370
     9
100
AcDbCircle
 10
-145.1677962440874
 20
323.7104336851195
 30
0.0
 40
2.000000018410701
100
AcDbArc
 50
270.0007171630859
 51
0.0
  0
ARC
  5
352
330
1F
100
AcDbEntity
  8
仕上
  6
Continuous
 62
     3
370
     9
100
AcDbCircle
 10
-145.1677962440874
 20
329.710263422956
 30
0.0
 40
2.000000018410701
100
AcDbArc
 50
0.0
 51
90.0
  0
ARC
  5
353
330
1F
100
AcDbEntity
  8
仕上
  6
Continuous
 62
     3
370
     9
100
AcDbCircle
 10
-71.41038017803203
 20
253.7102069831106
 30
0.0
 40
2.000000018410701
100
AcDbArc
 50
0.0
 51
90.0
  0
ARC
  5
354
330
1F
100
AcDbEntity
  8
仕上
  6
Continuous
 62
     3
370
     9
100
AcDbCircle
 10
-71.41038017803203
 20
266.7102179411598
 30
0.0
 40
2.000000018410701
100
AcDbArc
 50
270.0
 51
0.0
  0
ARC
  5
355
330
1F
100
AcDbEntity
  8
仕上
  6
Continuous
 62
     3
370
     9
100
AcDbCircle
 10
-71.41038017803203
 20
272.7101467727538
 30
0.0
 40
2.000000018410701
100
AcDbArc
 50
0.0
 51
90.0
  0
ARC
  5
356
330
1F
100
AcDbEntity
  8
仕上
  6
Continuous
 62
     3
370
     9
100
AcDbCircle
 10
-71.41038017803203
 20
285.7104550120756
 30
0.0
 40
2.000000018410701
100
AcDbArc
 50
270.0
 51
0.0
  0
ARC
  5
357
330
1F
100
AcDbEntity
  8
仕上
  6
Continuous
 62
     3
370
     9
100
AcDbCircle
 10
-71.41038017803203
 20
291.7103838436695
 30
0.0
 40
2.000000018410701
100
AcDbArc
 50
0.0
 51
90.0
  0
ARC
  5
358
330
1F
100
AcDbEntity
  8
仕上
  6
Continuous
 62
     3
370
     9
100
AcDbCircle
 10
-71.41038017803203
 20
304.7102957079613
 30
0.0
 40
2.000000018410701
100
AcDbArc
 50
270.0
 51
0.0
  0
ARC
  5
359
330
1F
100
AcDbEntity
  8
仕上
  6
Continuous
 62
     3
370
     9
100
AcDbCircle
 10
-71.41038017803203
 20
310.7103236333127
 30
0.0
 40
2.000000018410701
100
AcDbArc
 50
0.0
 51
90.0
  0
ARC
  5
35A
330
1F
100
AcDbEntity
  8
仕上
  6
Continuous
 62
     3
370
     9
100
AcDbCircle
 10
-71.41038017803203
 20
323.7102354976045
 30
0.0
 40
2.000000018410701
100
AcDbArc
 50
270.0
 51
0.0
  0
ARC
  5
35B
330
1F
100
AcDbEntity
  8
仕上
  6
Continuous
 62
     3
370
     9
100
AcDbCircle
 10
-71.41038017803203
 20
329.7103625167134
 30
0.0
 40
2.000000018410701
100
AcDbArc
 50
0.0
 51
90.0
  0
LINE
  5
35C
330
1F
100
AcDbEntity
  8
躯体
  6
Continuous
 62
     6
370
     9
100
AcDbLine
 10
-227.7430950983708
 20
403.9681029645936
 30
0.0
 11
-227.7430950983708
 21
250.7103416610713
 31
0.0
  0
LINE
  5
35D
330
1F
100
AcDbEntity
  8
躯体
  6
Continuous
 62
     6
370
     9
100
AcDbLine
 10
-217.2429966821269
 20
403.4101307893196
 30
0.0
 11
-217.2429966821269
 21
250.7103416610713
 31
0.0
  0
LINE
  5
35E
330
1F
100
AcDbEntity
  8
躯体
  6
Continuous
 62
     6
370
     9
100
AcDbLine
 10
-212.243196371955
 20
369.3918136145923
 30
0.0
 11
-212.243196371955
 21
250.7103416610713
 31
0.0
  0
ARC
  5
35F
330
1F
100
AcDbEntity
  8
仕上
  6
Continuous
 62
     3
370
     9
100
AcDbCircle
 10
-198.7431830867931
 20
250.7103416610713
 30
0.0
 40
11.00000087542884
100
AcDbArc
 50
0.0
 51
87.79574584960939
  0
LINE
  5
360
330
1F
100
AcDbEntity
  8
0-A
  6
Continuous
 62
     2
370
     9
100
AcDbLine
 10
-210.6427826407889
 20
251.1891626975094
 30
0.0
 11
-210.6427826407889
 21
250.7103416610713
 31
0.0
  0
ARC
  5
361
330
1F
100
AcDbEntity
  8
仕上
  6
Continuous
 62
     3
370
     9
100
AcDbCircle
 10
-201.0863540776081
 20
250.7103416610713
 30
0.0
 40
19.00000172324162
100
AcDbArc
 50
0.0
 51
8.213150024414077
  0
LINE
  5
362
330
1F
100
AcDbEntity
  8
仕上
  6
Continuous
 62
     3
370
     9
100
AcDbLine
 10
-57.74307185670159
 20
360.2104301502649
 30
0.0
 11
-57.74307185670159
 21
250.7103416610713
 31
0.0
  0
LINE
  5
363
330
1F
100
AcDbEntity
  8
躯体
  6
Continuous
 62
     6
370
     9
100
AcDbLine
 10
-55.74321118888747
 20
250.7103416610713
 30
0.0
 11
-55.74321118888747
 21
267.3103792837072
 31
0.0
  0
LINE
  5
364
330
1F
100
AcDbEntity
  8
躯体
  6
Continuous
 62
     6
370
     9
100
AcDbLine
 10
-50.74318791776113
 20
250.7103416610713
 30
0.0
 11
-50.74318791776113
 21
267.3103792837072
 31
0.0
  0
LINE
  5
365
330
1F
100
AcDbEntity
  8
躯体
  6
Continuous
 62
     6
370
     9
100
AcDbLine
 10
-26.74322485699167
 20
250.7103416610713
 30
0.0
 11
-26.74322485699167
 21
396.2107958898886
 31
0.0
  0
LINE
  5
366
330
1F
100
AcDbEntity
  8
仕上
  6
Continuous
 62
     3
370
     9
100
AcDbLine
 10
-143.167786935637
 20
253.710306076868
 30
0.0
 11
-143.167786935637
 21
250.7103416610713
 31
0.0
  0
LINE
  5
367
330
1F
100
AcDbEntity
  8
仕上
  6
Continuous
 62
     3
370
     9
100
AcDbLine
 10
-139.9858368341158
 20
253.710306076868
 30
0.0
 11
-139.9858368341158
 21
250.7103416610713
 31
0.0
  0
LINE
  5
368
330
1F
100
AcDbEntity
  8
仕上
  6
Continuous
 62
     3
370
     9
100
AcDbLine
 10
-131.5006365633933
 20
253.710306076868
 30
0.0
 11
-131.5006365633933
 21
250.7103416610713
 31
0.0
  0
LINE
  5
369
330
1F
100
AcDbEntity
  8
仕上
  6
Continuous
 62
     3
370
     9
100
AcDbLine
 10
-69.41037086958158
 20
253.7102069831106
 30
0.0
 11
-69.41037086958158
 21
250.7103416610713
 31
0.0
  0
LINE
  5
36A
330
1F
100
AcDbEntity
  8
その他
  6
Continuous
 62
     7
370
     9
100
AcDbLine
 10
71.89968482174072
 20
363.2102954723044
 30
0.0
 11
-52.64982228656504
 21
363.2102954723044
 31
0.0
  0
LINE
  5
36B
330
1F
100
AcDbEntity
  8
その他
  6
Continuous
 62
     7
370
     9
100
AcDbLine
 10
116.3166944239351
 20
406.210597794427
 30
0.0
 11
-28.82070216114835
 21
406.210597794427
 31
0.0
  0
LINE
  5
36C
330
1F
100
AcDbEntity
  8
その他
  6
Continuous
 62
     7
370
     9
100
AcDbLine
 10
159.3972352822539
 20
455.2105498050935
 30
0.0
 11
21.26748126036841
 21
455.2105498050935
 31
0.0
  0
LINE
  5
36D
330
1F
100
AcDbEntity
  8
0-8
  6
Continuous
 62
     2
370
     9
100
AcDbLine
 10
-259.6405714335956
 20
72.67713218224117
 30
0.0
 11
-258.0403063430658
 21
72.67713218224117
 31
0.0
  0
ARC
  5
36E
330
1F
100
AcDbEntity
  8
0-8
  6
Continuous
 62
     2
370
     9
100
AcDbCircle
 10
-255.9403114332563
 20
-125.22325873733
 30
0.0
 40
2.099999941914238
100
AcDbArc
 50
180.0
 51
270.0
  0
ARC
  5
36F
330
1F
100
AcDbEntity
  8
0-8
  6
Continuous
 62
     2
370
     9
100
AcDbCircle
 10
-255.9403114332563
 20
-125.22325873733
 30
0.0
 40
0.5000000046026752
100
AcDbArc
 50
180.0
 51
270.0
  0
LINE
  5
370
330
1F
100
AcDbEntity
  8
0-8
  6
Continuous
 62
     2
370
     9
100
AcDbLine
 10
-258.0401403462938
 20
-101.3231698710851
 30
0.0
 11
-258.0401403462938
 21
-97.32331220789749
 31
0.0
  0
LINE
  5
371
330
1F
100
AcDbEntity
  8
0-8
  6
Continuous
 62
     2
370
     9
100
AcDbLine
 10
-256.4401403462934
 20
-97.32331220789749
 30
0.0
 11
-258.0401403462938
 21
-97.32331220789749
 31
0.0
  0
LINE
  5
372
330
1F
100
AcDbEntity
  8
0-8
  6
Continuous
 62
     2
370
     9
100
AcDbLine
 10
-253.4401725370362
 20
-104.0105553417957
 30
0.0
 11
-253.4401725370362
 21
-114.6355366659807
 31
0.0
  0
LINE
  5
373
330
1F
100
AcDbEntity
  8
0-8
  6
Continuous
 62
     2
370
     9
100
AcDbLine
 10
-253.4401725370362
 20
-114.9859437616247
 30
0.0
 11
-256.4401403462934
 21
-117.9859115708821
 31
0.0
  0
LINE
  5
374
330
1F
100
AcDbEntity
  8
0-8
  6
Continuous
 62
     2
370
     9
100
AcDbLine
 10
-253.4401725370362
 20
-103.6603959805455
 30
0.0
 11
-256.4401403462934
 21
-100.6604281712882
 31
0.0
  0
LINE
  5
375
330
1F
100
AcDbEntity
  8
0-8
  6
JWW_CENTER1
 62
     2
370
     9
100
AcDbLine
 10
-242.311384586837
 20
-109.3231698710851
 30
0.0
 11
-262.4398709903721
 21
-109.3231698710851
 31
0.0
  0
LINE
  5
376
330
1F
100
AcDbEntity
  8
0-8
  6
Continuous
 62
     2
370
     9
100
AcDbLine
 10
-256.4401403462934
 20
-125.22325873733
 30
0.0
 11
-256.4401403462934
 21
-97.32331220789749
 31
0.0
  0
LINE
  5
377
330
1F
100
AcDbEntity
  8
0-A
  6
Continuous
 62
     2
370
     9
100
AcDbLine
 10
-248.9308120063747
 20
-103.5730564022521
 30
0.0
 11
-253.4401725370362
 21
-103.5730564022521
 31
0.0
  0
LINE
  5
378
330
1F
100
AcDbEntity
  8
0-A
  6
Continuous
 62
     2
370
     9
100
AcDbLine
 10
-248.9308120063747
 20
-115.0730851524029
 30
0.0
 11
-253.4401725370362
 21
-115.0730851524029
 31
0.0
  0
LINE
  5
379
330
1F
100
AcDbEntity
  8
0-A
  6
Continuous
 62
     2
370
     9
100
AcDbLine
 10
-248.9308120063747
 20
-106.459707106301
 30
0.0
 11
-253.4401725370362
 21
-106.459707106301
 31
0.0
  0
LINE
  5
37A
330
1F
100
AcDbEntity
  8
0-A
  6
Continuous
 62
     2
370
     9
100
AcDbLine
 10
-248.9308120063747
 20
-112.1863849014753
 30
0.0
 11
-253.4401725370362
 21
-112.1863849014753
 31
0.0
  0
LINE
  5
37B
330
1F
100
AcDbEntity
  8
0-A
  6
Continuous
 62
     2
370
     9
100
AcDbLine
 10
-248.4400997190314
 20
-105.0165551683521
 30
0.0
 11
-248.4400997190314
 21
-113.6297350269392
 31
0.0
  0
ARC
  5
37C
330
1F
100
AcDbEntity
  8
0-A
  6
Continuous
 62
     2
370
     9
100
AcDbCircle
 10
-250.8080441492316
 20
-105.0165551683521
 30
0.0
 40
2.367928946800674
100
AcDbArc
 50
322.4427795410156
 51
37.55722045898438
  0
ARC
  5
37D
330
1F
100
AcDbEntity
  8
0-A
  6
Continuous
 62
     2
370
     9
100
AcDbCircle
 10
-257.0380686858357
 20
-109.3231698710851
 30
0.0
 40
8.597918645755664
100
AcDbArc
 50
340.5480041503906
 51
19.4519958496094
  0
ARC
  5
37E
330
1F
100
AcDbEntity
  8
0-A
  6
Continuous
 62
     2
370
     9
100
AcDbCircle
 10
-250.8080441492316
 20
-113.6297350269392
 30
0.0
 40
2.367928946800674
100
AcDbArc
 50
322.4427795410156
 51
37.55722045898438
  0
LINE
  5
37F
330
1F
100
AcDbEntity
  8
0-A
  6
Continuous
 62
     2
370
     9
100
AcDbLine
 10
-253.4401725370362
 20
-115.0730851524029
 30
0.0
 11
-253.4401725370362
 21
-114.6355366659807
 31
0.0
  0
LINE
  5
380
330
1F
100
AcDbEntity
  8
0-A
  6
Continuous
 62
     2
370
     9
100
AcDbLine
 10
-253.4401725370362
 20
-103.5730564022521
 30
0.0
 11
-253.4401725370362
 21
-104.0105553417957
 31
0.0
  0
LINE
  5
381
330
1F
100
AcDbEntity
  8
0-A
  6
Continuous
 62
     2
370
     9
100
AcDbLine
 10
-243.1213142762226
 20
-112.3231342868821
 30
0.0
 11
-243.1213142762226
 21
-106.3232054552882
 31
0.0
  0
LINE
  5
382
330
1F
100
AcDbEntity
  8
0-A
  6
Continuous
 62
     2
370
     9
100
AcDbLine
 10
-248.4400997190314
 20
-112.3231342868821
 30
0.0
 11
-243.1213142762226
 21
-112.3231342868821
 31
0.0
  0
LINE
  5
383
330
1F
100
AcDbEntity
  8
0-A
  6
Continuous
 62
     2
370
     9
100
AcDbLine
 10
-248.4400997190314
 20
-111.4530910956719
 30
0.0
 11
-243.1213142762226
 21
-111.4530910956719
 31
0.0
  0
LINE
  5
384
330
1F
100
AcDbEntity
  8
0-A
  6
Continuous
 62
     2
370
     9
100
AcDbLine
 10
-248.4400997190314
 20
-107.1930504589832
 30
0.0
 11
-243.1213142762226
 21
-107.1930504589832
 31
0.0
  0
LINE
  5
385
330
1F
100
AcDbEntity
  8
0-A
  6
Continuous
 62
     2
370
     9
100
AcDbLine
 10
-248.4400997190314
 20
-106.3232054552882
 30
0.0
 11
-243.1213142762226
 21
-106.3232054552882
 31
0.0
  0
LINE
  5
386
330
1F
100
AcDbEntity
  8
0-A
  6
JWW_DASHED1
 62
     2
370
     9
100
AcDbLine
 10
-259.1213887438262
 20
-103.673240191126
 30
0.0
 11
-258.8214319397493
 21
-103.673240191126
 31
0.0
  0
LINE
  5
387
330
1F
100
AcDbEntity
  8
0-A
  6
JWW_DASHED1
 62
     2
370
     9
100
AcDbLine
 10
-259.1213887438262
 20
-114.9731490979229
 30
0.0
 11
-259.1213887438262
 21
-103.673240191126
 31
0.0
  0
LINE
  5
388
330
1F
100
AcDbEntity
  8
0-A
  6
JWW_DASHED1
 62
     2
370
     9
100
AcDbLine
 10
-259.1213887438262
 20
-114.9731490979229
 30
0.0
 11
-258.8214319397493
 21
-114.9731490979229
 31
0.0
  0
LINE
  5
389
330
1F
100
AcDbEntity
  8
0-A
  6
JWW_DASHED1
 62
     2
370
     9
100
AcDbLine
 10
-258.8214319397493
 20
-114.9731490979229
 30
0.0
 11
-258.8214319397493
 21
-103.673240191126
 31
0.0
  0
LINE
  5
38A
330
1F
100
AcDbEntity
  8
0-A
  6
JWW_DASHED1
 62
     2
370
     9
100
AcDbLine
 10
-256.1714666755875
 20
-106.3232054552882
 30
0.0
 11
-256.1714666755875
 21
-112.3231342868821
 31
0.0
  0
LINE
  5
38B
330
1F
100
AcDbEntity
  8
0-A
  6
JWW_DASHED1
 62
     2
370
     9
100
AcDbLine
 10
-256.1714767881772
 20
-112.3231241747016
 30
0.0
 11
-258.8214132326616
 21
-114.9731678042543
 31
0.0
  0
LINE
  5
38C
330
1F
100
AcDbEntity
  8
0-A
  6
JWW_DASHED1
 62
     2
370
     9
100
AcDbLine
 10
-256.1714767881772
 20
-106.3232155674687
 30
0.0
 11
-258.8213884592219
 21
-103.6731967123572
 31
0.0
  0
LINE
  5
38D
330
1F
100
AcDbEntity
  8
0-A
  6
JWW_DASHED1
 62
     2
370
     9
100
AcDbLine
 10
-253.4401725370362
 20
-112.3231342868821
 30
0.0
 11
-256.1714666755875
 21
-112.3231342868821
 31
0.0
  0
LINE
  5
38E
330
1F
100
AcDbEntity
  8
0-A
  6
JWW_DASHED1
 62
     2
370
     9
100
AcDbLine
 10
-256.1714666755875
 20
-111.4530910956719
 30
0.0
 11
-253.4401725370362
 21
-111.4530910956719
 31
0.0
  0
LINE
  5
38F
330
1F
100
AcDbEntity
  8
0-A
  6
JWW_DASHED1
 62
     2
370
     9
100
AcDbLine
 10
-256.1714666755875
 20
-107.1930504589832
 30
0.0
 11
-253.4401725370362
 21
-107.1930504589832
 31
0.0
  0
LINE
  5
390
330
1F
100
AcDbEntity
  8
0-A
  6
JWW_DASHED1
 62
     2
370
     9
100
AcDbLine
 10
-253.4401725370362
 20
-106.3232054552882
 30
0.0
 11
-256.1714666755875
 21
-106.3232054552882
 31
0.0
  0
LINE
  5
391
330
1F
100
AcDbEntity
  8
0-8
  6
Continuous
 62
     2
370
     9
100
AcDbLine
 10
-255.9403114332563
 20
-125.723285837882
 30
0.0
 11
-249.140398697034
 21
-125.723285837882
 31
0.0
  0
LINE
  5
392
330
1F
100
AcDbEntity
  8
0-8
  6
Continuous
 62
     2
370
     9
100
AcDbLine
 10
-249.140398697034
 20
-127.3234022877757
 30
0.0
 11
-255.9403114332563
 21
-127.3234022877757
 31
0.0
  0
LINE
  5
393
330
1F
100
AcDbEntity
  8
その他
  6
Continuous
 62
     7
370
     9
100
AcDbLine
 10
116.3166944239351
 20
72.67713218224111
 30
0.0
 11
-251.1101675847904
 21
72.67713218224114
 31
0.0
  0
LINE
  5
394
330
1F
100
AcDbEntity
  8
0-8
  6
Continuous
 62
     2
370
     9
100
AcDbLine
 10
-19.04046458672383
 20
-366.3227987113513
 30
0.0
 11
-19.04046458672383
 21
-367.92311334876
 31
0.0
  0
LINE
  5
395
330
1F
100
AcDbEntity
  8
0-8
  6
Continuous
 62
     2
370
     9
100
AcDbLine
 10
-179.0404165127011
 20
-366.3227987113513
 30
0.0
 11
-179.0404165127011
 21
-367.92311334876
 31
0.0
  0
LINE
  5
396
330
1F
100
AcDbEntity
  8
0-8
  6
Continuous
 62
     2
370
     9
100
AcDbLine
 10
180.9593762269906
 20
-366.3227987113513
 30
0.0
 11
180.9593762269906
 21
-367.92311334876
 31
0.0
  0
ARC
  5
397
330
1F
100
AcDbEntity
  8
0-8
  6
Continuous
 62
     2
370
     9
100
AcDbCircle
 10
-16.94046967691429
 20
-364.2228038015417
 30
0.0
 40
2.099999941914238
100
AcDbArc
 50
180.0
 51
270.0
  0
ARC
  5
398
330
1F
100
AcDbEntity
  8
0-8
  6
Continuous
 62
     2
370
     9
100
AcDbCircle
 10
-16.94046967691429
 20
-364.2228038015417
 30
0.0
 40
0.5000000046026752
100
AcDbArc
 50
180.0
 51
270.0
  0
LINE
  5
399
330
1F
100
AcDbEntity
  8
0-8
  6
Continuous
 62
     2
370
     9
100
AcDbLine
 10
7.622261795369923
 20
-364.7226822614576
 30
0.0
 11
10.95937775876064
 21
-364.7226822614576
 31
0.0
  0
LINE
  5
39A
330
1F
100
AcDbEntity
  8
0-8
  6
Continuous
 62
     2
370
     9
100
AcDbLine
 10
6.959520095572771
 20
-366.3226822614577
 30
0.0
 11
10.95937775876064
 21
-366.3226822614577
 31
0.0
  0
LINE
  5
39B
330
1F
100
AcDbEntity
  8
0-8
  6
Continuous
 62
     2
370
     9
100
AcDbLine
 10
10.95937775876064
 20
-364.7226822614576
 30
0.0
 11
10.95937775876064
 21
-366.3226822614577
 31
0.0
  0
LINE
  5
39C
330
1F
100
AcDbEntity
  8
0-A
  6
Continuous
 62
     2
370
     9
100
AcDbLine
 10
-6.790593373259981
 20
-357.2133539215386
 30
0.0
 11
-6.790593373259981
 21
-361.7227144522004
 31
0.0
  0
LINE
  5
39D
330
1F
100
AcDbEntity
  8
0-A
  6
Continuous
 62
     2
370
     9
100
AcDbLine
 10
4.709435376890724
 20
-357.2133539215386
 30
0.0
 11
4.709435376890724
 21
-361.7227144522004
 31
0.0
  0
LINE
  5
39E
330
1F
100
AcDbEntity
  8
0-A
  6
Continuous
 62
     2
370
     9
100
AcDbLine
 10
-3.903942669211119
 20
-357.2133539215386
 30
0.0
 11
-3.903942669211119
 21
-361.7227144522004
 31
0.0
  0
LINE
  5
39F
330
1F
100
AcDbEntity
  8
0-A
  6
Continuous
 62
     2
370
     9
100
AcDbLine
 10
1.822735125962936
 20
-357.2133539215386
 30
0.0
 11
1.822735125962936
 21
-361.7227144522004
 31
0.0
  0
LINE
  5
3A0
330
1F
100
AcDbEntity
  8
0-A
  6
Continuous
 62
     2
370
     9
100
AcDbLine
 10
-5.347094607160216
 20
-356.7226416341953
 30
0.0
 11
3.26608525142683
 21
-356.7226416341953
 31
0.0
  0
LINE
  5
3A1
330
1F
100
AcDbEntity
  8
0-8
  6
Continuous
 62
     2
370
     9
100
AcDbLine
 10
-6.353094433716706
 20
-361.7227144522004
 30
0.0
 11
4.271886890468522
 21
-361.7227144522004
 31
0.0
  0
ARC
  5
3A2
330
1F
100
AcDbEntity
  8
0-A
  6
Continuous
 62
     2
370
     9
100
AcDbCircle
 10
-5.347094607160216
 20
-359.0905860643957
 30
0.0
 40
2.367928946800674
100
AcDbArc
 50
52.44277954101562
 51
127.5572204589844
  0
ARC
  5
3A3
330
1F
100
AcDbEntity
  8
0-A
  6
Continuous
 62
     2
370
     9
100
AcDbCircle
 10
-1.040479904427229
 20
-365.3206106009998
 30
0.0
 40
8.597918645755664
100
AcDbArc
 50
70.54800415039065
 51
109.4519958496094
  0
ARC
  5
3A4
330
1F
100
AcDbEntity
  8
0-A
  6
Continuous
 62
     2
370
     9
100
AcDbCircle
 10
3.26608525142683
 20
-359.0905860643957
 30
0.0
 40
2.367928946800674
100
AcDbArc
 50
52.44277954101562
 51
127.5572204589844
  0
LINE
  5
3A5
330
1F
100
AcDbEntity
  8
0-A
  6
Continuous
 62
     2
370
     9
100
AcDbLine
 10
4.709435376890724
 20
-361.7227144522004
 30
0.0
 11
4.271886890468522
 21
-361.7227144522004
 31
0.0
  0
LINE
  5
3A6
330
1F
100
AcDbEntity
  8
0-A
  6
Continuous
 62
     2
370
     9
100
AcDbLine
 10
-6.790593373259981
 20
-361.7227144522004
 30
0.0
 11
-6.353094433716706
 21
-361.7227144522004
 31
0.0
  0
LINE
  5
3A7
330
1F
100
AcDbEntity
  8
0-8
  6
Continuous
 62
     2
370
     9
100
AcDbLine
 10
4.622293986112481
 20
-361.7227144522004
 30
0.0
 11
7.622261795369923
 21
-364.7226822614576
 31
0.0
  0
LINE
  5
3A8
330
1F
100
AcDbEntity
  8
0-A
  6
Continuous
 62
     2
370
     9
100
AcDbLine
 10
1.959484511369737
 20
-351.4038561913865
 30
0.0
 11
-4.040444320224196
 21
-351.4038561913865
 31
0.0
  0
LINE
  5
3A9
330
1F
100
AcDbEntity
  8
0-A
  6
Continuous
 62
     2
370
     9
100
AcDbLine
 10
1.959484511369737
 20
-356.7226416341953
 30
0.0
 11
1.959484511369737
 21
-351.4038561913865
 31
0.0
  0
LINE
  5
3AA
330
1F
100
AcDbEntity
  8
0-A
  6
Continuous
 62
     2
370
     9
100
AcDbLine
 10
1.089441320159494
 20
-356.7226416341953
 30
0.0
 11
1.089441320159494
 21
-351.4038561913865
 31
0.0
  0
LINE
  5
3AB
330
1F
100
AcDbEntity
  8
0-A
  6
Continuous
 62
     2
370
     9
100
AcDbLine
 10
-3.170599316529206
 20
-356.7226416341953
 30
0.0
 11
-3.170599316529206
 21
-351.4038561913865
 31
0.0
  0
LINE
  5
3AC
330
1F
100
AcDbEntity
  8
0-A
  6
Continuous
 62
     2
370
     9
100
AcDbLine
 10
-4.040444320224196
 20
-356.7226416341953
 30
0.0
 11
-4.040444320224196
 21
-351.4038561913865
 31
0.0
  0
LINE
  5
3AD
330
1F
100
AcDbEntity
  8
0-A
  6
JWW_DASHED1
 62
     2
370
     9
100
AcDbLine
 10
-6.690409584386089
 20
-367.4039306589903
 30
0.0
 11
-6.690409584386089
 21
-367.1039738549135
 31
0.0
  0
LINE
  5
3AE
330
1F
100
AcDbEntity
  8
0-A
  6
JWW_DASHED1
 62
     2
370
     9
100
AcDbLine
 10
4.609499322410556
 20
-367.4039306589903
 30
0.0
 11
-6.690409584386089
 21
-367.4039306589903
 31
0.0
  0
LINE
  5
3AF
330
1F
100
AcDbEntity
  8
0-A
  6
JWW_DASHED1
 62
     2
370
     9
100
AcDbLine
 10
4.609499322410556
 20
-367.4039306589903
 30
0.0
 11
4.609499322410556
 21
-367.1039738549135
 31
0.0
  0
LINE
  5
3B0
330
1F
100
AcDbEntity
  8
0-A
  6
JWW_DASHED1
 62
     2
370
     9
100
AcDbLine
 10
4.609499322410556
 20
-367.1039738549135
 30
0.0
 11
-6.690409584386089
 21
-367.1039738549135
 31
0.0
  0
LINE
  5
3B1
330
1F
100
AcDbEntity
  8
0-A
  6
JWW_DASHED1
 62
     2
370
     9
100
AcDbLine
 10
-4.040444320224196
 20
-364.4540085907516
 30
0.0
 11
1.959484511369737
 21
-364.4540085907516
 31
0.0
  0
LINE
  5
3B2
330
1F
100
AcDbEntity
  8
0-A
  6
JWW_DASHED1
 62
     2
370
     9
100
AcDbLine
 10
1.959474399189276
 20
-364.4540187033411
 30
0.0
 11
4.609518028742059
 21
-367.1039551478255
 31
0.0
  0
LINE
  5
3B3
330
1F
100
AcDbEntity
  8
0-A
  6
JWW_DASHED1
 62
     2
370
     9
100
AcDbLine
 10
-4.040434208043507
 20
-364.4540187033411
 30
0.0
 11
-6.690453063155019
 21
-367.103930374386
 31
0.0
  0
LINE
  5
3B4
330
1F
100
AcDbEntity
  8
0-A
  6
JWW_DASHED1
 62
     2
370
     9
100
AcDbLine
 10
1.959484511369737
 20
-361.7227144522004
 30
0.0
 11
1.959484511369737
 21
-364.4540085907516
 31
0.0
  0
LINE
  5
3B5
330
1F
100
AcDbEntity
  8
0-A
  6
JWW_DASHED1
 62
     2
370
     9
100
AcDbLine
 10
1.089441320159494
 20
-364.4540085907516
 30
0.0
 11
1.089441320159494
 21
-361.7227144522004
 31
0.0
  0
LINE
  5
3B6
330
1F
100
AcDbEntity
  8
0-A
  6
JWW_DASHED1
 62
     2
370
     9
100
AcDbLine
 10
-3.170599316529206
 20
-364.4540085907516
 30
0.0
 11
-3.170599316529206
 21
-361.7227144522004
 31
0.0
  0
LINE
  5
3B7
330
1F
100
AcDbEntity
  8
0-A
  6
JWW_DASHED1
 62
     2
370
     9
100
AcDbLine
 10
-4.040444320224196
 20
-361.7227144522004
 30
0.0
 11
-4.040444320224196
 21
-364.4540085907516
 31
0.0
  0
LINE
  5
3B8
330
1F
100
AcDbEntity
  8
0-8
  6
Continuous
 62
     2
370
     9
100
AcDbLine
 10
-6.703253794966713
 20
-361.7227144522004
 30
0.0
 11
-9.703221604224154
 21
-364.7226822614576
 31
0.0
  0
LINE
  5
3B9
330
1F
100
AcDbEntity
  8
0-8
  6
JWW_CENTER1
 62
     2
370
     9
100
AcDbLine
 10
-1.040479904427229
 20
-350.5939265020011
 30
0.0
 11
-1.040479904427229
 21
-370.7224129055363
 31
0.0
  0
LINE
  5
3BA
330
1F
100
AcDbEntity
  8
0-8
  6
Continuous
 62
     2
370
     9
100
AcDbLine
 10
180.9593762269906
 20
-366.3227987113513
 30
0.0
 11
-179.0404165127011
 21
-366.3227987113513
 31
0.0
  0
LINE
  5
3BB
330
1F
100
AcDbEntity
  8
0-8
  6
Continuous
 62
     2
370
     9
100
AcDbLine
 10
-16.94046967691429
 20
-364.7226822614576
 30
0.0
 11
7.622261795369923
 21
-364.7226822614576
 31
0.0
  0
LINE
  5
3BC
330
1F
100
AcDbEntity
  8
0-8
  6
Continuous
 62
     2
370
     9
100
AcDbLine
 10
180.9593762269906
 20
-367.9227912940478
 30
0.0
 11
-179.0404165127011
 21
-367.9227912940478
 31
0.0
  0
LINE
  5
3BD
330
1F
100
AcDbEntity
  8
0-8
  6
Continuous
 62
     2
370
     9
100
AcDbLine
 10
-17.44049677746625
 20
-364.2228038015417
 30
0.0
 11
-17.44049677746625
 21
-357.4230397059555
 31
0.0
  0
LINE
  5
3BE
330
1F
100
AcDbEntity
  8
0-8
  6
Continuous
 62
     2
370
     9
100
AcDbLine
 10
-19.04066277423863
 20
-357.4230397059555
 30
0.0
 11
-19.04066277423863
 21
-364.2228038015417
 31
0.0
  0
LWPOLYLINE
  5
3BF
330
1F
100
AcDbEntity
  8
その他
  6
Continuous
 62
     7
370
     9
100
AcDbPolyline
 90
        4
 70
     1
 43
0.8
 10
108.7166944239351
 20
-366.3227987113513
 42
0.4142135623731
 10
108.3166944239351
 20
-365.9227987113513
 42
0.4142135623731
 10
107.9166944239351
 20
-366.3227987113513
 42
0.4142135623731
 10
108.3166944239351
 20
-366.7227987113513
 42
0.4142135623731
  0
TEXT
  5
3C0
330
1F
100
AcDbEntity
  8
その他
  6
Continuous
 62
     2
370
   211
100
AcDbText
 10
89.00919621718523
 20
-333.0946070616088
 30
0.0
 40
12.192
  1
10.5
 50
90.0
 41
1.09375
  7
ＭＳ ゴシック
100
AcDbText
  0
LINE
  5
3C1
330
1F
100
AcDbEntity
  8
その他
  6
Continuous
 62
     7
370
     9
100
AcDbLine
 10
108.3166944239351
 20
-366.3227987113513
 30
0.0
 11
108.3166944239351
 21
-336.3229766323667
 31
0.0
  0
TEXT
  5
3C2
330
1F
100
AcDbEntity
  8
その他
  6
Continuous
 62
     2
370
   211
100
AcDbText
 10
103.660694423935
 20
-359.822887671859
 30
0.0
 40
12.192
  1
30
 50
90.0
 41
1.0625
  7
ＭＳ ゴシック
100
AcDbText
  0
LINE
  5
3C3
330
1F
100
AcDbEntity
  8
0-8
  6
Continuous
 62
     2
370
     9
100
AcDbLine
 10
-259.6405714335956
 20
72.67713218224117
 30
0.0
 11
-259.6405714335956
 21
-180.7592901028661
 31
0.0
  0
LINE
  5
3C4
330
1F
100
AcDbEntity
  8
0-8
  6
Continuous
 62
     2
370
     9
100
AcDbLine
 10
-258.0403063430658
 20
72.67713218224117
 30
0.0
 11
-258.0403063430658
 21
-180.6718441073992
 31
0.0
  0
LINE
  5
3C5
330
1F
100
AcDbEntity
  8
0-8
  6
Continuous
 62
     2
370
     9
100
AcDbLine
 10
-256.440384558719
 20
423.7103449602686
 30
0.0
 11
-256.440384558719
 21
379.7103383618736
 31
0.0
  0
LINE
  5
3C6
330
1F
100
AcDbEntity
  8
0-8
  6
Continuous
 62
     2
370
     9
100
AcDbLine
 10
-259.6405183647494
 20
531.7102530540491
 30
0.0
 11
-258.0405505554913
 21
531.7102530540491
 31
0.0
  0
LINE
  5
3C7
330
1F
100
AcDbEntity
  8
0-8
  6
JWW_CENTER1
 62
     2
370
     9
100
AcDbLine
 10
-262.2904836289113
 20
516.710232787549
 30
0.0
 11
-254.7337918663475
 21
516.710232787549
 31
0.0
  0
LINE
  5
3C8
330
1F
100
AcDbEntity
  8
0-8
  6
Continuous
 62
     2
370
     9
100
AcDbLine
 10
-253.4404167494617
 20
396.3977271317818
 30
0.0
 11
-253.4404167494617
 21
407.0227084559668
 31
0.0
  0
LINE
  5
3C9
330
1F
100
AcDbEntity
  8
0-8
  6
Continuous
 62
     2
370
     9
100
AcDbLine
 10
-253.4404167494617
 20
407.3731155516109
 30
0.0
 11
-256.440384558719
 21
410.3730833608682
 31
0.0
  0
LINE
  5
3CA
330
1F
100
AcDbEntity
  8
0-8
  6
Continuous
 62
     2
370
     9
100
AcDbLine
 10
-253.4404167494617
 20
396.0475677705317
 30
0.0
 11
-256.440384558719
 21
393.0475999612744
 31
0.0
  0
LINE
  5
3CB
330
1F
100
AcDbEntity
  8
0-A
  6
Continuous
 62
     2
370
     9
100
AcDbLine
 10
-248.9310562188002
 20
395.9602281922383
 30
0.0
 11
-253.4404167494617
 21
395.9602281922383
 31
0.0
  0
LINE
  5
3CC
330
1F
100
AcDbEntity
  8
0-A
  6
Continuous
 62
     2
370
     9
100
AcDbLine
 10
-248.9310562188002
 20
407.460256942389
 30
0.0
 11
-253.4404167494617
 21
407.460256942389
 31
0.0
  0
LINE
  5
3CD
330
1F
100
AcDbEntity
  8
0-A
  6
Continuous
 62
     2
370
     9
100
AcDbLine
 10
-248.9310562188002
 20
398.8468788962872
 30
0.0
 11
-253.4404167494617
 21
398.8468788962872
 31
0.0
  0
LINE
  5
3CE
330
1F
100
AcDbEntity
  8
0-A
  6
Continuous
 62
     2
370
     9
100
AcDbLine
 10
-248.9310562188002
 20
404.5735566914615
 30
0.0
 11
-253.4404167494617
 21
404.5735566914615
 31
0.0
  0
LINE
  5
3CF
330
1F
100
AcDbEntity
  8
0-A
  6
Continuous
 62
     2
370
     9
100
AcDbLine
 10
-248.4403439314569
 20
397.4037269583383
 30
0.0
 11
-248.4403439314569
 21
406.0169068169254
 31
0.0
  0
ARC
  5
3D0
330
1F
100
AcDbEntity
  8
0-A
  6
Continuous
 62
     2
370
     9
100
AcDbCircle
 10
-250.8082883616571
 20
397.4037269583383
 30
0.0
 40
2.367928946800674
100
AcDbArc
 50
322.4427795410156
 51
37.55722045898439
  0
ARC
  5
3D1
330
1F
100
AcDbEntity
  8
0-A
  6
Continuous
 62
     2
370
     9
100
AcDbCircle
 10
-257.0383128982612
 20
401.7103416610713
 30
0.0
 40
8.597918645755664
100
AcDbArc
 50
340.5480041503906
 51
19.45199584960935
  0
ARC
  5
3D2
330
1F
100
AcDbEntity
  8
0-A
  6
Continuous
 62
     2
370
     9
100
AcDbCircle
 10
-250.8082883616571
 20
406.0169068169254
 30
0.0
 40
2.367928946800674
100
AcDbArc
 50
322.4427795410156
 51
37.55722045898439
  0
LINE
  5
3D3
330
1F
100
AcDbEntity
  8
0-A
  6
Continuous
 62
     2
370
     9
100
AcDbLine
 10
-253.4404167494617
 20
407.460256942389
 30
0.0
 11
-253.4404167494617
 21
407.0227084559668
 31
0.0
  0
LINE
  5
3D4
330
1F
100
AcDbEntity
  8
0-A
  6
Continuous
 62
     2
370
     9
100
AcDbLine
 10
-253.4404167494617
 20
395.9602281922383
 30
0.0
 11
-253.4404167494617
 21
396.3977271317818
 31
0.0
  0
LINE
  5
3D5
330
1F
100
AcDbEntity
  8
0-A
  6
Continuous
 62
     2
370
     9
100
AcDbLine
 10
-243.1215584886481
 20
404.7103060768683
 30
0.0
 11
-243.1215584886481
 21
398.7103772452743
 31
0.0
  0
LINE
  5
3D6
330
1F
100
AcDbEntity
  8
0-A
  6
Continuous
 62
     2
370
     9
100
AcDbLine
 10
-248.4403439314569
 20
404.7103060768683
 30
0.0
 11
-243.1215584886481
 21
404.7103060768683
 31
0.0
  0
LINE
  5
3D7
330
1F
100
AcDbEntity
  8
0-A
  6
Continuous
 62
     2
370
     9
100
AcDbLine
 10
-248.4403439314569
 20
403.840262885658
 30
0.0
 11
-243.1215584886481
 21
403.840262885658
 31
0.0
  0
LINE
  5
3D8
330
1F
100
AcDbEntity
  8
0-A
  6
Continuous
 62
     2
370
     9
100
AcDbLine
 10
-248.4403439314569
 20
399.5802222489693
 30
0.0
 11
-243.1215584886481
 21
399.5802222489693
 31
0.0
  0
LINE
  5
3D9
330
1F
100
AcDbEntity
  8
0-A
  6
Continuous
 62
     2
370
     9
100
AcDbLine
 10
-248.4403439314569
 20
398.7103772452743
 30
0.0
 11
-243.1215584886481
 21
398.7103772452743
 31
0.0
  0
LINE
  5
3DA
330
1F
100
AcDbEntity
  8
0-8
  6
Continuous
 62
     2
370
     9
100
AcDbLine
 10
-247.0407470934083
 20
379.7103383618736
 30
0.0
 11
-258.0405505554913
 21
379.7103383618736
 31
0.0
  0
LINE
  5
3DB
330
1F
100
AcDbEntity
  8
0-8
  6
Continuous
 62
     2
370
     9
100
AcDbLine
 10
-247.0407470934083
 20
423.7103449602686
 30
0.0
 11
-258.0405505554913
 21
423.7103449602686
 31
0.0
  0
LINE
  5
3DC
330
1F
100
AcDbEntity
  8
0-8
  6
Continuous
 62
     2
370
     9
100
AcDbLine
 10
-259.6405183647494
 20
250.7103416610713
 30
0.0
 11
-259.6405183647494
 21
531.7102530540491
 31
0.0
  0
LINE
  5
3DD
330
1F
100
AcDbEntity
  8
0-8
  6
Continuous
 62
     2
370
     9
100
AcDbLine
 10
-258.0405505554913
 20
531.7102530540491
 30
0.0
 11
-258.0405505554913
 21
250.7103416610713
 31
0.0
  0
LINE
  5
3DE
330
1F
100
AcDbEntity
  8
0-8
  6
Continuous
 62
     2
370
     9
100
AcDbLine
 10
-247.0407470934083
 20
379.7103383618736
 30
0.0
 11
-247.0407470934083
 21
398.7103772452741
 31
0.0
  0
LINE
  5
3DF
330
1F
100
AcDbEntity
  8
0-8
  6
Continuous
 62
     2
370
     9
100
AcDbLine
 10
-247.0407470934083
 20
404.7103060768683
 30
0.0
 11
-247.0407470934083
 21
423.7103449602686
 31
0.0
  0
LINE
  5
3E0
330
1F
100
AcDbEntity
  8
通り芯
  6
Continuous
 62
     4
370
     9
100
AcDbLine
 10
-238.8222992673877
 20
345.292392095218
 30
0.0
 11
-258.0405505554913
 21
344.2422166430587
 31
0.0
  0
LINE
  5
3E1
330
1F
100
AcDbEntity
  8
通り芯
  6
Continuous
 62
     4
370
     9
100
AcDbLine
 10
-259.6405183647494
 20
344.1547868924357
 30
0.0
 11
-272.9789611354126
 21
343.4259117748305
 31
0.0
  0
LINE
  5
3E2
330
1F
100
AcDbEntity
  8
通り芯
  6
Continuous
 62
     6
370
     9
100
AcDbLine
 10
-276.3840947936017
 20
-192.3567555449895
 30
0.0
 11
-250.9804659360104
 21
-193.1506189467892
 31
0.0
  0
LINE
  5
3E3
330
1F
100
AcDbEntity
  8
通り芯
  6
Continuous
 62
     6
370
     9
100
AcDbLine
 10
-274.7931174430594
 20
-193.8842257482545
 30
0.0
 11
-251.3397187533973
 21
-194.6171444573064
 31
0.0
  0
LINE
  5
3E4
330
1F
100
AcDbEntity
  8
寸法
  6
Continuous
 62
     7
370
     9
100
AcDbLine
 10
-259.1213887438262
 20
-109.3231698710851
 30
0.0
 11
-262.9482230674771
 21
-100.0843745459724
 31
0.0
  0
LINE
  5
3E5
330
1F
100
AcDbEntity
  8
寸法
  6
Continuous
 62
     7
370
     9
100
AcDbLine
 10
-259.1213887438262
 20
-109.3231698710851
 30
0.0
 11
-265.2090030339132
 21
-101.3896364681727
 31
0.0
  0
TEXT
  5
3E6
330
1F
100
AcDbEntity
  8
寸法
  6
Continuous
 62
     7
370
     9
100
AcDbText
 10
-439.9369689699986
 20
88.39178303978704
 30
0.0
 40
9.144
  1
固定金具：ＳＧＨＣ
 41
1.148148148148148
  7
ＭＳ ゴシック
100
AcDbText
  0
LINE
  5
3E7
330
1F
100
AcDbEntity
  8
寸法
  6
Continuous
 62
     7
370
     9
100
AcDbLine
 10
-439.8213941117526
 20
82.70496688500933
 30
0.0
 11
-316.7530794148474
 21
82.70496688500933
 31
0.0
  0
LINE
  5
3E8
330
1F
100
AcDbEntity
  8
寸法
  6
Continuous
 62
     7
370
     9
100
AcDbLine
 10
-259.9557940095897
 20
-15.6708171688874
 30
0.0
 11
-316.7530794148474
 21
82.70496688500933
 31
0.0
  0
LINE
  5
3E9
330
1F
100
AcDbEntity
  8
寸法
  6
Continuous
 62
     7
370
     9
100
AcDbLine
 10
-259.9557940095897
 20
-15.6708171688874
 30
0.0
 11
-266.0434082996767
 21
-7.737283765974993
 31
0.0
  0
LINE
  5
3EA
330
1F
100
AcDbEntity
  8
寸法
  6
Continuous
 62
     7
370
     9
100
AcDbLine
 10
-259.9557940095897
 20
-15.6708171688874
 30
0.0
 11
-263.7826283332406
 21
-6.43202184377445
 31
0.0
  0
LINE
  5
3EB
330
1F
100
AcDbEntity
  8
寸法
  6
Continuous
 62
     7
370
     9
100
AcDbLine
 10
-259.1213887438262
 20
-109.3231698710851
 30
0.0
 11
-306.9327016623831
 21
-26.51154671957127
 31
0.0
  0
LWPOLYLINE
  5
3EC
330
1F
100
AcDbEntity
  8
その他
  6
Continuous
 62
     7
370
     9
100
AcDbPolyline
 90
        4
 70
     1
 43
0.8
 10
-227.6405524278603
 20
124.6771321822412
 42
0.4142135623731
 10
-228.0405524278603
 20
125.0771321822412
 42
0.4142135623731
 10
-228.4405524278604
 20
124.6771321822412
 42
0.4142135623731
 10
-228.0405524278603
 20
124.2771321822412
 42
0.4142135623731
  0
LINE
  5
3ED
330
1F
100
AcDbEntity
  8
その他
  6
Continuous
 62
     7
370
     9
100
AcDbLine
 10
-228.0405524278603
 20
132.6771321822412
 30
0.0
 11
-228.0405524278603
 21
-76.32297663236656
 31
0.0
  0
LINE
  5
3EE
330
1F
100
AcDbEntity
  8
その他
  6
Continuous
 62
     7
370
     9
100
AcDbLine
 10
-228.0405524278603
 20
124.6771321822412
 30
0.0
 11
25.95944757213965
 21
124.6771321822412
 31
0.0
  0
LWPOLYLINE
  5
3EF
330
1F
100
AcDbEntity
  8
その他
  6
Continuous
 62
     7
370
     9
100
AcDbPolyline
 90
        4
 70
     1
 43
0.8
 10
26.35944757213965
 20
124.6771321822412
 42
0.4142135623731
 10
25.95944757213965
 20
125.0771321822412
 42
0.4142135623731
 10
25.55944757213965
 20
124.6771321822412
 42
0.4142135623731
 10
25.95944757213965
 20
124.2771321822412
 42
0.4142135623731
  0
LINE
  5
3F0
330
1F
100
AcDbEntity
  8
その他
  6
Continuous
 62
     7
370
     9
100
AcDbLine
 10
25.95944757213965
 20
132.6771321822412
 30
0.0
 11
25.95944757213965
 21
-330.3229766323666
 31
0.0
  0
TEXT
  5
3F1
330
1F
100
AcDbEntity
  8
その他
  6
Continuous
 62
     2
370
   211
100
AcDbText
 10
-114.0405524278603
 20
129.3331321822412
 30
0.0
 40
12.192
  1
254
 41
1.083333333333333
  7
ＭＳ ゴシック
100
AcDbText
  0
LINE
  5
3F2
330
1F
100
AcDbEntity
  8
その他
  6
Continuous
 62
     7
370
     9
100
AcDbLine
 10
25.95944757213965
 20
124.6771321822412
 30
0.0
 11
180.9593762269906
 21
124.6771321822412
 31
0.0
  0
LWPOLYLINE
  5
3F3
330
1F
100
AcDbEntity
  8
その他
  6
Continuous
 62
     7
370
     9
100
AcDbPolyline
 90
        4
 70
     1
 43
0.8
 10
181.3593762269906
 20
124.6771321822412
 42
0.4142135623731
 10
180.9593762269906
 20
125.0771321822412
 42
0.4142135623731
 10
180.5593762269906
 20
124.6771321822412
 42
0.4142135623731
 10
180.9593762269906
 20
124.2771321822412
 42
0.4142135623731
  0
LINE
  5
3F4
330
1F
100
AcDbEntity
  8
その他
  6
Continuous
 62
     7
370
     9
100
AcDbLine
 10
180.9593762269906
 20
132.6771321822412
 30
0.0
 11
180.9593762269906
 21
-358.3227987113513
 31
0.0
  0
LINE
  5
3F5
330
1F
100
AcDbEntity
  8
その他
  6
Continuous
 62
     7
370
     9
100
AcDbLine
 10
-277.9790412126918
 20
124.6771321822412
 30
0.0
 11
-228.0405524278603
 21
124.6771321822412
 31
0.0
  0
LWPOLYLINE
  5
3F6
330
1F
100
AcDbEntity
  8
その他
  6
Continuous
 62
     7
370
     9
100
AcDbPolyline
 90
        4
 70
     1
 43
0.8
 10
-277.5790412126918
 20
124.6771321822412
 42
0.4142135623731
 10
-277.9790412126918
 20
125.0771321822412
 42
0.4142135623731
 10
-278.3790412126917
 20
124.6771321822412
 42
0.4142135623731
 10
-277.9790412126918
 20
124.2771321822412
 42
0.4142135623731
  0
LINE
  5
3F7
330
1F
100
AcDbEntity
  8
その他
  6
Continuous
 62
     7
370
     9
100
AcDbLine
 10
-277.9790412126918
 20
132.6771321822412
 30
0.0
 11
-277.9790412126918
 21
-176.7851909618783
 31
0.0
  0
TEXT
  5
3F8
330
1F
100
AcDbEntity
  8
その他
  6
Continuous
 62
     2
370
     5
100
AcDbText
 10
-261.5097968202761
 20
129.3331321822412
 30
0.0
 40
12.192
  1
50
 41
1.0625
  7
ＭＳ ゴシック
100
AcDbText
  0
TEXT
  5
3F9
330
1F
100
AcDbEntity
  8
その他
  6
Continuous
 62
     2
370
   211
100
AcDbText
 10
65.17166372721945
 20
129.3331321822412
 30
0.0
 40
12.192
  1
155
 41
1.083333333333333
  7
ＭＳ ゴシック
100
AcDbText
  0
LINE
  5
3FA
330
1F
100
AcDbEntity
  8
その他
  6
Continuous
 62
     7
370
     9
100
AcDbLine
 10
-227.7430950983708
 20
98.67713218224117
 30
0.0
 11
-217.2431700962029
 21
98.67713218224117
 31
0.0
  0
LWPOLYLINE
  5
3FB
330
1F
100
AcDbEntity
  8
その他
  6
Continuous
 62
     7
370
     9
100
AcDbPolyline
 90
        4
 70
     1
 43
0.8
 10
-227.3430950983708
 20
98.67713218224117
 42
0.4142135623731
 10
-227.7430950983708
 20
99.07713218224117
 42
0.4142135623731
 10
-228.1430950983708
 20
98.67713218224117
 42
0.4142135623731
 10
-227.7430950983708
 20
98.27713218224116
 42
0.4142135623731
  0
LWPOLYLINE
  5
3FC
330
1F
100
AcDbEntity
  8
その他
  6
Continuous
 62
     7
370
     9
100
AcDbPolyline
 90
        4
 70
     1
 43
0.8
 10
-216.8431700962029
 20
98.67713218224117
 42
0.4142135623731
 10
-217.2431700962029
 20
99.07713218224117
 42
0.4142135623731
 10
-217.6431700962029
 20
98.67713218224117
 42
0.4142135623731
 10
-217.2431700962029
 20
98.27713218224116
 42
0.4142135623731
  0
LINE
  5
3FD
330
1F
100
AcDbEntity
  8
その他
  6
Continuous
 62
     7
370
     9
100
AcDbLine
 10
-227.7430950983708
 20
106.6771321822412
 30
0.0
 11
-227.7430950983708
 21
-129.3093777328484
 31
0.0
  0
LINE
  5
3FE
330
1F
100
AcDbEntity
  8
その他
  6
Continuous
 62
     7
370
     9
100
AcDbLine
 10
-217.2431700962029
 20
106.6771321822412
 30
0.0
 11
-217.2431700962029
 21
-128.0256676507834
 31
0.0
  0
LINE
  5
3FF
330
1F
100
AcDbEntity
  8
その他
  6
Continuous
 62
     7
370
     9
100
AcDbLine
 10
-217.2431700962029
 20
98.67713218224117
 30
0.0
 11
-26.74315053667397
 21
98.67713218224117
 31
0.0
  0
LWPOLYLINE
  5
400
330
1F
100
AcDbEntity
  8
その他
  6
Continuous
 62
     7
370
     9
100
AcDbPolyline
 90
        4
 70
     1
 43
0.8
 10
-26.34315053667397
 20
98.67713218224117
 42
0.4142135623731
 10
-26.74315053667397
 20
99.07713218224117
 42
0.4142135623731
 10
-27.14315053667396
 20
98.67713218224117
 42
0.4142135623731
 10
-26.74315053667397
 20
98.27713218224116
 42
0.4142135623731
  0
LINE
  5
401
330
1F
100
AcDbEntity
  8
その他
  6
Continuous
 62
     7
370
     9
100
AcDbLine
 10
-26.74315053667397
 20
106.6771321822412
 30
0.0
 11
-26.74315053667397
 21
-317.5255339154507
 31
0.0
  0
TEXT
  5
402
330
1F
100
AcDbEntity
  8
その他
  6
Continuous
 62
     2
370
   211
100
AcDbText
 10
-143.9931603164384
 20
103.3331321822412
 30
0.0
 40
12.192
  1
190.5
 41
1.1
  7
ＭＳ ゴシック
100
AcDbText
  0
TEXT
  5
403
330
1F
100
AcDbEntity
  8
その他
  6
Continuous
 62
     2
370
   211
100
AcDbText
 10
-213.9364462444022
 20
103.3331321822412
 30
0.0
 40
12.192
  1
10.5
 41
1.09375
  7
ＭＳ ゴシック
100
AcDbText
  0
LINE
  5
404
330
1F
100
AcDbEntity
  8
その他
  6
Continuous
 62
     7
370
     9
100
AcDbLine
 10
-258.0403063430658
 20
98.67713218224117
 30
0.0
 11
-228.0405524278603
 21
98.67713218224117
 31
0.0
  0
LWPOLYLINE
  5
405
330
1F
100
AcDbEntity
  8
その他
  6
Continuous
 62
     7
370
     9
100
AcDbPolyline
 90
        4
 70
     1
 43
0.8
 10
-257.6403063430658
 20
98.67713218224117
 42
0.4142135623731
 10
-258.0403063430658
 20
99.07713218224117
 42
0.4142135623731
 10
-258.4403063430658
 20
98.67713218224117
 42
0.4142135623731
 10
-258.0403063430658
 20
98.27713218224116
 42
0.4142135623731
  0
LWPOLYLINE
  5
406
330
1F
100
AcDbEntity
  8
その他
  6
Continuous
 62
     7
370
     9
100
AcDbPolyline
 90
        4
 70
     1
 43
0.8
 10
-227.6405524278603
 20
98.67713218224117
 42
0.4142135623731
 10
-228.0405524278603
 20
99.07713218224117
 42
0.4142135623731
 10
-228.4405524278604
 20
98.67713218224117
 42
0.4142135623731
 10
-228.0405524278603
 20
98.27713218224116
 42
0.4142135623731
  0
LINE
  5
407
330
1F
100
AcDbEntity
  8
その他
  6
Continuous
 62
     7
370
     9
100
AcDbLine
 10
-258.0403063430658
 20
106.6771321822412
 30
0.0
 11
-258.0403063430658
 21
80.67713218224117
 31
0.0
  0
TEXT
  5
408
330
1F
100
AcDbEntity
  8
その他
  6
Continuous
 62
     2
370
   211
100
AcDbText
 10
-251.5404293854631
 20
103.3331321822412
 30
0.0
 40
12.192
  1
30
 41
1.0625
  7
ＭＳ ゴシック
100
AcDbText
  0
LINE
  5
409
330
1F
100
AcDbEntity
  8
通り芯
  6
JWW_CENTER1
 62
     4
370
     9
100
AcDbLine
 10
-261.3306301707458
 20
401.7103416610713
 30
0.0
 11
-231.2213728743263
 21
401.7103416610713
 31
0.0
  0
TEXT
  5
40A
330
1F
100
AcDbEntity
  8
F-5ﾚｲﾔ
  6
Continuous
 62
     2
370
     9
100
AcDbText
 10
-337.9240308472582
 20
-530.0811476666805
 30
0.0
 40
12.192
  1
鋳鉄製ルーフドレン　防水層張掛け幅100mm　よこ引き用　鋼製下地断熱屋根工法用
 41
0.7743333333333333
  7
ＭＳ ゴシック
100
AcDbText
  0
TEXT
  5
40B
330
1F
100
AcDbEntity
  8
F-5ﾚｲﾔ
  6
Continuous
 62
     2
370
     9
100
AcDbText
 10
-338.116483249732
 20
-549.2680218372682
 30
0.0
 40
12.192
  1
ねじ込み式　改質アスファルトシート・シート防水用　　ＷＨＸＳ－６－１５０－３０
 41
0.7743589743589744
  7
ＭＳ ゴシック
100
AcDbText
  0
TEXT
  5
40C
330
1F
100
AcDbEntity
  8
寸法
  6
Continuous
 62
     7
370
     9
100
AcDbText
 10
154.2707618188681
 20
181.898723724125
 30
0.0
 40
9.144
  1
丸小ねじ：Ｍ６×１２
 41
1.15
  7
ＭＳ ゴシック
100
AcDbText
  0
TEXT
  5
40D
330
1F
100
AcDbEntity
  8
寸法
  6
Continuous
 62
     7
370
     9
100
AcDbText
 10
197.7642735677257
 20
91.06102251119864
 30
0.0
 40
9.144
  1
ボルト：Ｍ１０×７０，ばね座金・平座金
 41
1.157894736842105
  7
ＭＳ ゴシック
100
AcDbText
  0
LINE
  5
40E
330
1F
100
AcDbEntity
  8
寸法
  6
Continuous
 62
     7
370
     9
100
AcDbLine
 10
195.720994955376
 20
86.33002286544885
 30
0.0
 11
464.3329103795153
 21
86.33002286544885
 31
0.0
  0
LINE
  5
40F
330
1F
100
AcDbEntity
  8
寸法
  6
Continuous
 62
     7
370
     9
100
AcDbLine
 10
-306.9327016623831
 20
-26.51154671957127
 30
0.0
 11
-493.9078020690442
 21
-26.51154671957127
 31
0.0
  0
LINE
  5
410
330
1F
100
AcDbEntity
  8
寸法
  6
Continuous
 62
     7
370
     9
100
AcDbLine
 10
25.95944757213965
 20
-347.3229766323666
 30
0.0
 11
65.33110122952412
 21
-415.5166811449615
 31
0.0
  0
LINE
  5
411
330
1F
100
AcDbEntity
  8
寸法
  6
Continuous
 62
     7
370
     9
100
AcDbLine
 10
25.95944757213965
 20
-347.3229766323666
 30
0.0
 11
32.04706186222686
 21
-355.256510035279
 31
0.0
  0
LINE
  5
412
330
1F
100
AcDbEntity
  8
寸法
  6
Continuous
 62
     7
370
     9
100
AcDbLine
 10
25.95944757213965
 20
-347.3229766323666
 30
0.0
 11
29.78628189579055
 21
-356.5617719574795
 31
0.0
  0
LINE
  5
413
330
1F
100
AcDbEntity
  8
寸法
  6
Continuous
 62
     7
370
     9
100
AcDbLine
 10
-49.04070330723835
 20
-356.9232107929186
 30
0.0
 11
-76.66085147045101
 21
-404.7627107241831
 31
0.0
  0
LINE
  5
414
330
1F
100
AcDbEntity
  8
寸法
  6
Continuous
 62
     7
370
     9
100
AcDbLine
 10
-49.04070330723835
 20
-356.9232107929186
 30
0.0
 11
-52.86753763088925
 21
-366.1620061180315
 31
0.0
  0
LINE
  5
415
330
1F
100
AcDbEntity
  8
寸法
  6
Continuous
 62
     7
370
     9
100
AcDbLine
 10
-49.04070330723835
 20
-356.9232107929186
 30
0.0
 11
-55.12831759732556
 21
-364.856744195831
 31
0.0
  0
LINE
  5
416
330
1F
100
AcDbEntity
  8
寸法
  6
Continuous
 62
     7
370
     9
100
AcDbLine
 10
65.33110122952411
 20
-415.5166811449615
 30
0.0
 11
185.3516647116134
 21
-415.5166811449615
 31
0.0
  0
TEXT
  5
417
330
1F
100
AcDbEntity
  8
寸法
  6
Continuous
 62
     7
370
     9
100
AcDbText
 10
-213.8447410256022
 20
-399.0758945694055
 30
0.0
 40
9.144
  1
取付ピース：ＳＧＨＣ
 41
1.15
  7
ＭＳ ゴシック
100
AcDbText
  0
LINE
  5
418
330
1F
100
AcDbEntity
  8
寸法
  6
Continuous
 62
     7
370
     9
100
AcDbLine
 10
-214.5025647237098
 20
-404.7627107241832
 30
0.0
 11
-76.66085147045101
 21
-404.7627107241832
 31
0.0
  0
LINE
  5
419
330
1F
100
AcDbEntity
  8
寸法
  6
Continuous
 62
     7
370
     9
100
AcDbLine
 10
-253.2292053206916
 20
-141.8440565021708
 30
0.0
 11
-289.4469313016388
 21
-79.11311496856273
 31
0.0
  0
LINE
  5
41A
330
1F
100
AcDbEntity
  8
寸法
  6
Continuous
 62
     7
370
     9
100
AcDbLine
 10
-253.2292053206916
 20
-141.8440565021708
 30
0.0
 11
-259.3168196107788
 21
-133.9105230992584
 31
0.0
  0
LINE
  5
41B
330
1F
100
AcDbEntity
  8
寸法
  6
Continuous
 62
     7
370
     9
100
AcDbLine
 10
-253.2292053206916
 20
-141.8440565021708
 30
0.0
 11
-257.0560396443424
 21
-132.6052611770579
 31
0.0
  0
LINE
  5
41C
330
1F
100
AcDbEntity
  8
寸法
  6
Continuous
 62
     7
370
     9
100
AcDbLine
 10
-289.4469313016388
 20
-79.11311496856273
 30
0.0
 11
-470.2656036742082
 21
-79.11311496856273
 31
0.0
  0
TEXT
  5
41D
330
1F
100
AcDbEntity
  8
寸法
  6
Continuous
 62
     7
370
     9
100
AcDbText
 10
-490.4202518657137
 20
-20.11496431640152
 30
0.0
 40
9.144
  1
皿小ねじ・六角ナット：Ｍ６
 41
1.153846153846154
  7
ＭＳ ゴシック
100
AcDbText
  0
TEXT
  5
41E
330
1F
100
AcDbEntity
  8
寸法
  6
Continuous
 62
     7
370
     9
100
AcDbText
 10
-490.4202518657137
 20
-40.71774617548267
 30
0.0
 40
9.144
  1
ＳＳ４００　電気亜鉛めっき
 41
1.153846153846154
  7
ＭＳ ゴシック
100
AcDbText
  0
TEXT
  5
41F
330
1F
100
AcDbEntity
  8
寸法
  6
Continuous
 62
     7
370
     9
100
AcDbText
 10
-441.8562674879235
 20
-73.88064729489406
 30
0.0
 40
9.144
  1
丸小ねじ：Ｍ６×８
 41
1.148148148148148
  7
ＭＳ ゴシック
100
AcDbText
  0
TEXT
  5
420
330
1F
100
AcDbEntity
  8
寸法
  6
Continuous
 62
     7
370
     9
100
AcDbText
 10
-469.8562674879235
 20
-92.27867610183378
 30
0.0
 40
9.144
  1
ＳＳ４００　電気亜鉛めっき
 41
1.153846153846154
  7
ＭＳ ゴシック
100
AcDbText
  0
TEXT
  5
421
330
1F
100
AcDbEntity
  8
寸法
  6
Continuous
 62
     7
370
     9
100
AcDbText
 10
179.4063489556443
 20
162.0421014743443
 30
0.0
 40
9.144
  1
ＳＵＳ３０４
 41
1.138888888888889
  7
ＭＳ ゴシック
100
AcDbText
  0
TEXT
  5
422
330
1F
100
AcDbEntity
  8
寸法
  6
Continuous
 62
     7
370
     9
100
AcDbText
 10
289.0269526674457
 20
73.34766096566383
 30
0.0
 40
9.144
  1
ＳＵＳ３０４
 41
1.138888888888889
  7
ＭＳ ゴシック
100
AcDbText
  0
TEXT
  5
423
330
1F
100
AcDbEntity
  8
寸法
  6
Continuous
 62
     7
370
     9
100
AcDbText
 10
247.6237774908923
 20
-13.44764530562222
 30
0.0
 40
9.144
  1
樹脂系塗装
 41
1.133333333333333
  7
ＭＳ ゴシック
100
AcDbText
  0
TEXT
  5
424
330
1F
100
AcDbEntity
  8
寸法
  6
Continuous
 62
     7
370
     9
100
AcDbText
 10
240.7526937443256
 20
-99.94327025034067
 30
0.0
 40
9.144
  1
樹脂系塗装
 41
1.133333333333333
  7
ＭＳ ゴシック
100
AcDbText
  0
TEXT
  5
425
330
1F
100
AcDbEntity
  8
寸法
  6
Continuous
 62
     7
370
     9
100
AcDbText
 10
91.34138297056876
 20
-430.0030713263889
 30
0.0
 40
9.144
  1
樹脂系塗装
 41
1.133333333333333
  7
ＭＳ ゴシック
100
AcDbText
  0
TEXT
  5
426
330
1F
100
AcDbEntity
  8
寸法
  6
Continuous
 62
     7
370
     9
100
AcDbText
 10
70.34138297056876
 20
-409.7557807015494
 30
0.0
 40
9.144
  1
本体：ＦＣ１５０
 41
1.145833333333333
  7
ＭＳ ゴシック
100
AcDbText
  0
ENDSEC
  0
SECTION
  2
OBJECTS
  0
DICTIONARY
  5
C
330
0
100
AcDbDictionary
281
     1
  3
ACAD_DETAILVIEWSTYLE
350
46C
  3
ACAD_GROUP
350
D
  3
ACAD_LAYOUT
350
1A
  3
ACAD_MATERIAL
350
43
  3
ACAD_MLEADERSTYLE
350
6B
  3
ACAD_MLINESTYLE
350
17
  3
ACAD_PLOTSETTINGS
350
19
  3
ACAD_PLOTSTYLENAME
350
E
  3
ACAD_SCALELIST
350
47
  3
ACAD_SECTIONVIEWSTYLE
350
46D
  3
ACAD_TABLESTYLE
350
69
  3
ACAD_VISUALSTYLE
350
2A
  3
ACDB_RECOMPOSE_DATA
350
469
  3
AcDbVariableDictionary
350
429
  0
DICTIONARY
  5
427
330
8
100
AcDbDictionary
280
     1
281
     1
  3
ACAD_XREC_ROUNDTRIP
360
428
  0
DICTIONARY
  5
46C
102
{ACAD_REACTORS
330
C
102
}
330
C
100
AcDbDictionary
281
     1
  0
DICTIONARY
  5
D
102
{ACAD_REACTORS
330
C
102
}
330
C
100
AcDbDictionary
281
     1
  0
DICTIONARY
  5
1A
102
{ACAD_REACTORS
330
C
102
}
330
C
100
AcDbDictionary
281
     1
  3
Layout1
350
1E
  3
Layout2
350
26
  3
Model
350
22
  0
DICTIONARY
  5
43
102
{ACAD_REACTORS
330
C
102
}
330
C
100
AcDbDictionary
281
     1
  3
ByBlock
350
45
  3
ByLayer
350
44
  3
Global
350
46
  0
DICTIONARY
  5
6B
102
{ACAD_REACTORS
330
C
102
}
330
C
100
AcDbDictionary
281
     1
  3
Standard
350
6C
  0
DICTIONARY
  5
17
102
{ACAD_REACTORS
330
C
102
}
330
C
100
AcDbDictionary
281
     1
  3
Standard
350
18
  0
DICTIONARY
  5
19
102
{ACAD_REACTORS
330
C
102
}
330
C
100
AcDbDictionary
281
     1
  0
ACDBDICTIONARYWDFLT
  5
E
102
{ACAD_REACTORS
330
C
102
}
330
C
100
AcDbDictionary
281
     1
  3
Normal
350
F
100
AcDbDictionaryWithDefault
340
F
  0
DICTIONARY
  5
47
102
{ACAD_REACTORS
330
C
102
}
330
C
100
AcDbDictionary
281
     1
  3
A0
350
48
  3
A1
350
49
  3
A2
350
4A
  3
A3
350
4B
  3
A4
350
4C
  3
A5
350
4D
  3
A6
350
4E
  3
A7
350
4F
  3
A8
350
50
  3
A9
350
51
  3
B0
350
52
  3
B1
350
53
  3
B2
350
54
  3
B3
350
55
  3
B4
350
56
  3
B5
350
57
  3
B6
350
58
  3
B7
350
59
  3
B8
350
5A
  3
B9
350
5B
  3
C0
350
5C
  3
C1
350
5D
  3
C2
350
5E
  3
C3
350
5F
  3
C4
350
60
  3
C5
350
61
  3
C6
350
62
  3
C7
350
63
  3
C8
350
64
  3
C9
350
65
  3
D0
350
66
  3
D1
350
67
  3
D2
350
68
  0
DICTIONARY
  5
46D
102
{ACAD_REACTORS
330
C
102
}
330
C
100
AcDbDictionary
281
     1
  0
DICTIONARY
  5
69
102
{ACAD_REACTORS
330
C
102
}
330
C
100
AcDbDictionary
281
     1
  3
Standard
350
6A
  0
DICTIONARY
  5
2A
102
{ACAD_REACTORS
330
C
102
}
330
C
100
AcDbDictionary
281
     1
  3
2dWireframe
350
2F
  3
Basic
350
32
  3
Brighten
350
36
  3
ColorChange
350
3A
  3
Conceptual
350
34
  3
Dim
350
35
  3
EdgeColorOff
350
3D
  3
Facepattern
350
39
  3
Flat
350
2B
  3
FlatWithEdges
350
2C
  3
Gouraud
350
2D
  3
GouraudWithEdges
350
2E
  3
Hidden
350
31
  3
JitterOff
350
3B
  3
Linepattern
350
38
  3
OverhangOff
350
3C
  3
Realistic
350
33
  3
Shaded
350
42
  3
Shaded with edges
350
41
  3
Shades of Gray
350
3E
  3
Sketchy
350
3F
  3
Thicken
350
37
  3
Wireframe
350
30
  3
X-Ray
350
40
  0
XRECORD
  5
469
102
{ACAD_REACTORS
330
C
102
}
330
C
100
AcDbXrecord
280
     1
 90
        1
330
6A
  0
DICTIONARY
  5
429
102
{ACAD_REACTORS
330
C
102
}
330
C
100
AcDbDictionary
281
     1
  3
CANNOSCALE
350
42A
  3
CENTEREXE
350
46E
  3
CENTERLTYPEFILE
350
46F
  3
CMLEADERSTYLE
350
46B
  3
CTABLESTYLE
350
46A
  3
MSLTSCALE
350
42B
  3
XCLIPFRAME
350
42C
  0
XRECORD
  5
428
102
{ACAD_REACTORS
330
427
102
}
330
427
100
AcDbXrecord
280
     1
102
VTR_0.000_0.000_1.000_1.000_VISUALSTYLE
340
2F
102
VTR_0.000_0.000_1.000_1.000_GRIDDISPLAY
 70
     3
102
VTR_0.000_0.000_1.000_1.000_GRIDMAJOR
 70
     5
102
VTR_0.000_0.000_1.000_1.000_DEFAULTLIGHTING
280
     1
102
VTR_0.000_0.000_1.000_1.000_DEFAULTLIGHTINGTYPE
 70
     1
102
VTR_0.000_0.000_1.000_1.000_BRIGHTNESS
141
0.0
102
VTR_0.000_0.000_1.000_1.000_CONTRAST
142
0.0
  0
LAYOUT
  5
1E
102
{ACAD_REACTORS
330
1A
102
}
330
1A
100
AcDbPlotSettings
  1

  2
none_device
  4

  6

 40
0.0
 41
0.0
 42
0.0
 43
0.0
 44
0.0
 45
0.0
 46
0.0
 47
0.0
 48
0.0
 49
0.0
140
0.0
141
0.0
142
1.0
143
1.0
 70
   688
 72
     1
 73
     0
 74
     5
  7

 75
    16
 76
     0
 77
     5
 78
   300
147
1.0
148
0.0
149
0.0
100
AcDbLayout
  1
Layout1
 70
     1
 71
     1
 10
0.0
 20
0.0
 11
420.0
 21
297.0
 12
0.0
 22
0.0
 32
0.0
 14
1.000000000000000E+20
 24
1.000000000000000E+20
 34
1.000000000000000E+20
 15
-1.000000000000000E+20
 25
-1.000000000000000E+20
 35
-1.000000000000000E+20
146
0.0
 13
0.0
 23
0.0
 33
0.0
 16
1.0
 26
0.0
 36
0.0
 17
0.0
 27
1.0
 37
0.0
 76
     0
330
1B
  0
LAYOUT
  5
26
102
{ACAD_REACTORS
330
1A
102
}
330
1A
100
AcDbPlotSettings
  1

  2
none_device
  4

  6

 40
0.0
 41
0.0
 42
0.0
 43
0.0
 44
0.0
 45
0.0
 46
0.0
 47
0.0
 48
0.0
 49
0.0
140
0.0
141
0.0
142
1.0
143
1.0
 70
   688
 72
     1
 73
     0
 74
     5
  7

 75
    16
 76
     0
 77
     5
 78
   300
147
1.0
148
0.0
149
0.0
100
AcDbLayout
  1
Layout2
 70
     1
 71
     2
 10
0.0
 20
0.0
 11
0.0
 21
0.0
 12
0.0
 22
0.0
 32
0.0
 14
0.0
 24
0.0
 34
0.0
 15
0.0
 25
0.0
 35
0.0
146
0.0
 13
0.0
 23
0.0
 33
0.0
 16
1.0
 26
0.0
 36
0.0
 17
0.0
 27
1.0
 37
0.0
 76
     0
330
23
  0
LAYOUT
  5
22
102
{ACAD_REACTORS
330
1A
102
}
330
1A
100
AcDbPlotSettings
  1

  2
none_device
  4
Letter_(8.50_x_11.00_Inches)
  6

 40
6.35
 41
6.35
 42
6.35000508
 43
6.35000508
 44
215.9
 45
279.4
 46
0.0
 47
0.0
 48
0.0
 49
0.0
140
0.0
141
0.0
142
1.0
143
1.0
 70
  1712
 72
     1
 73
     0
 74
     0
  7

 75
     0
 76
     0
 77
     5
 78
   300
147
1.0
148
0.0
149
0.0
100
AcDbLayout
  1
Model
 70
     1
 71
     0
 10
-840.0
 20
-594.0
 11
840.0
 21
594.0
 12
0.0
 22
0.0
 32
0.0
 14
-840.0
 24
-594.0
 34
0.0
 15
840.0
 25
594.0
 35
0.0
146
0.0
 13
0.0
 23
0.0
 33
0.0
 16
1.0
 26
0.0
 36
0.0
 17
0.0
 27
1.0
 37
0.0
 76
     0
330
1F
331
29
  0
MATERIAL
  5
45
102
{ACAD_REACTORS
330
43
102
}
102
{ACAD_XDICTIONARY
360
45F
102
}
330
43
100
AcDbMaterial
  1
ByBlock
  0
MATERIAL
  5
44
102
{ACAD_REACTORS
330
43
102
}
102
{ACAD_XDICTIONARY
360
45D
102
}
330
43
100
AcDbMaterial
  1
ByLayer
  0
MATERIAL
  5
46
102
{ACAD_REACTORS
330
43
102
}
102
{ACAD_XDICTIONARY
360
461
102
}
330
43
100
AcDbMaterial
  1
Global
  0
MLEADERSTYLE
  5
6C
102
{ACAD_REACTORS
330
6B
102
}
102
{ACAD_XDICTIONARY
360
467
102
}
330
6B
100
AcDbMLeaderStyle
170
     2
171
     1
172
     0
 90
        2
 40
0.0
 41
0.0
173
     1
 91
-1056964608
340
14
 92
       -2
290
     1
 42
2.0
291
     1
 43
8.0
  3
Standard
341
0
 44
4.0
300

342
11
174
     1
178
     6
175
     1
176
     0
 93
-1056964608
 45
4.0
292
     0
297
     0
 46
4.0
343
0
 94
-1056964608
 47
1.0
 49
1.0
140
1.0
293
     1
141
0.0
294
     1
177
     0
142
1.0
295
     0
296
     0
143
3.75
1001
ACAD_MLEADERVER
1070
     2
  0
MLINESTYLE
  5
18
102
{ACAD_REACTORS
330
17
102
}
330
17
100
AcDbMlineStyle
  2
Standard
 70
     0
  3

 62
   256
 51
90.0
 52
90.0
 71
     2
 49
0.5
 62
   256
  6
BYLAYER
 49
-0.5
 62
   256
  6
BYLAYER
  0
ACDBPLACEHOLDER
  5
F
102
{ACAD_REACTORS
330
E
102
}
330
E
  0
SCALE
  5
48
102
{ACAD_REACTORS
330
47
102
}
330
47
100
AcDbScale
 70
     0
300
1:1
140
1.0
141
1.0
290
     1
  0
SCALE
  5
49
102
{ACAD_REACTORS
330
47
102
}
330
47
100
AcDbScale
 70
     0
300
1:2
140
1.0
141
2.0
290
     0
  0
SCALE
  5
4A
102
{ACAD_REACTORS
330
47
102
}
330
47
100
AcDbScale
 70
     0
300
1:4
140
1.0
141
4.0
290
     0
  0
SCALE
  5
4B
102
{ACAD_REACTORS
330
47
102
}
330
47
100
AcDbScale
 70
     0
300
1:5
140
1.0
141
5.0
290
     0
  0
SCALE
  5
4C
102
{ACAD_REACTORS
330
47
102
}
330
47
100
AcDbScale
 70
     0
300
1:8
140
1.0
141
8.0
290
     0
  0
SCALE
  5
4D
102
{ACAD_REACTORS
330
47
102
}
330
47
100
AcDbScale
 70
     0
300
1:10
140
1.0
141
10.0
290
     0
  0
SCALE
  5
4E
102
{ACAD_REACTORS
330
47
102
}
330
47
100
AcDbScale
 70
     0
300
1:16
140
1.0
141
16.0
290
     0
  0
SCALE
  5
4F
102
{ACAD_REACTORS
330
47
102
}
330
47
100
AcDbScale
 70
     0
300
1:20
140
1.0
141
20.0
290
     0
  0
SCALE
  5
50
102
{ACAD_REACTORS
330
47
102
}
330
47
100
AcDbScale
 70
     0
300
1:30
140
1.0
141
30.0
290
     0
  0
SCALE
  5
51
102
{ACAD_REACTORS
330
47
102
}
330
47
100
AcDbScale
 70
     0
300
1:40
140
1.0
141
40.0
290
     0
  0
SCALE
  5
52
102
{ACAD_REACTORS
330
47
102
}
330
47
100
AcDbScale
 70
     0
300
1:50
140
1.0
141
50.0
290
     0
  0
SCALE
  5
53
102
{ACAD_REACTORS
330
47
102
}
330
47
100
AcDbScale
 70
     0
300
1:100
140
1.0
141
100.0
290
     0
  0
SCALE
  5
54
102
{ACAD_REACTORS
330
47
102
}
330
47
100
AcDbScale
 70
     0
300
2:1
140
2.0
141
1.0
290
     0
  0
SCALE
  5
55
102
{ACAD_REACTORS
330
47
102
}
330
47
100
AcDbScale
 70
     0
300
4:1
140
4.0
141
1.0
290
     0
  0
SCALE
  5
56
102
{ACAD_REACTORS
330
47
102
}
330
47
100
AcDbScale
 70
     0
300
8:1
140
8.0
141
1.0
290
     0
  0
SCALE
  5
57
102
{ACAD_REACTORS
330
47
102
}
330
47
100
AcDbScale
 70
     0
300
10:1
140
10.0
141
1.0
290
     0
  0
SCALE
  5
58
102
{ACAD_REACTORS
330
47
102
}
330
47
100
AcDbScale
 70
     0
300
100:1
140
100.0
141
1.0
290
     0
  0
SCALE
  5
59
102
{ACAD_REACTORS
330
47
102
}
330
47
100
AcDbScale
 70
     0
300
1/128" = 1'-0"
140
0.0078125
141
12.0
290
     0
  0
SCALE
  5
5A
102
{ACAD_REACTORS
330
47
102
}
330
47
100
AcDbScale
 70
     0
300
1/64" = 1'-0"
140
0.015625
141
12.0
290
     0
  0
SCALE
  5
5B
102
{ACAD_REACTORS
330
47
102
}
330
47
100
AcDbScale
 70
     0
300
1/32" = 1'-0"
140
0.03125
141
12.0
290
     0
  0
SCALE
  5
5C
102
{ACAD_REACTORS
330
47
102
}
330
47
100
AcDbScale
 70
     0
300
1/16" = 1'-0"
140
0.0625
141
12.0
290
     0
  0
SCALE
  5
5D
102
{ACAD_REACTORS
330
47
102
}
330
47
100
AcDbScale
 70
     0
300
3/32" = 1'-0"
140
0.09375
141
12.0
290
     0
  0
SCALE
  5
5E
102
{ACAD_REACTORS
330
47
102
}
330
47
100
AcDbScale
 70
     0
300
1/8" = 1'-0"
140
0.125
141
12.0
290
     0
  0
SCALE
  5
5F
102
{ACAD_REACTORS
330
47
102
}
330
47
100
AcDbScale
 70
     0
300
3/16" = 1'-0"
140
0.1875
141
12.0
290
     0
  0
SCALE
  5
60
102
{ACAD_REACTORS
330
47
102
}
330
47
100
AcDbScale
 70
     0
300
1/4" = 1'-0"
140
0.25
141
12.0
290
     0
  0
SCALE
  5
61
102
{ACAD_REACTORS
330
47
102
}
330
47
100
AcDbScale
 70
     0
300
3/8" = 1'-0"
140
0.375
141
12.0
290
     0
  0
SCALE
  5
62
102
{ACAD_REACTORS
330
47
102
}
330
47
100
AcDbScale
 70
     0
300
1/2" = 1'-0"
140
0.5
141
12.0
290
     0
  0
SCALE
  5
63
102
{ACAD_REACTORS
330
47
102
}
330
47
100
AcDbScale
 70
     0
300
3/4" = 1'-0"
140
0.75
141
12.0
290
     0
  0
SCALE
  5
64
102
{ACAD_REACTORS
330
47
102
}
330
47
100
AcDbScale
 70
     0
300
1" = 1'-0"
140
1.0
141
12.0
290
     0
  0
SCALE
  5
65
102
{ACAD_REACTORS
330
47
102
}
330
47
100
AcDbScale
 70
     0
300
1-1/2" = 1'-0"
140
1.5
141
12.0
290
     0
  0
SCALE
  5
66
102
{ACAD_REACTORS
330
47
102
}
330
47
100
AcDbScale
 70
     0
300
3" = 1'-0"
140
3.0
141
12.0
290
     0
  0
SCALE
  5
67
102
{ACAD_REACTORS
330
47
102
}
330
47
100
AcDbScale
 70
     0
300
6" = 1'-0"
140
6.0
141
12.0
290
     0
  0
SCALE
  5
68
102
{ACAD_REACTORS
330
47
102
}
330
47
100
AcDbScale
 70
     0
300
1'-0" = 1'-0"
140
12.0
141
12.0
290
     0
  0
TABLESTYLE
  5
6A
102
{ACAD_REACTORS
330
69
102
}
102
{ACAD_XDICTIONARY
360
463
102
}
330
69
100
AcDbTableStyle
  3
Standard
 70
     0
 71
     0
 40
0.06
 41
0.06
280
     0
281
     0
  7
Standard
140
4.5
170
     2
 62
     0
 63
   257
283
     0
274
    -2
284
     1
 64
     0
275
    -2
285
     1
 65
     0
276
    -2
286
     1
 66
     0
277
    -2
287
     1
 67
     0
278
    -2
288
     1
 68
     0
279
    -2
289
     1
 69
     0
  7
Standard
140
6.0
170
     5
 62
     0
 63
   257
283
     0
274
    -2
284
     1
 64
     0
275
    -2
285
     1
 65
     0
276
    -2
286
     1
 66
     0
277
    -2
287
     1
 67
     0
278
    -2
288
     1
 68
     0
279
    -2
289
     1
 69
     0
  7
Standard
140
4.5
170
     5
 62
     0
 63
   257
283
     0
274
    -2
284
     1
 64
     0
275
    -2
285
     1
 65
     0
276
    -2
286
     1
 66
     0
277
    -2
287
     1
 67
     0
278
    -2
288
     1
 68
     0
279
    -2
289
     1
 69
     0
  0
VISUALSTYLE
  5
2F
102
{ACAD_REACTORS
330
2A
102
}
102
{ACAD_XDICTIONARY
360
435
102
}
330
2A
100
AcDbVisualStyle
  2
2dWireframe
 70
     4
 71
     0
 72
     2
 73
     0
 90
        0
 40
0.6
 41
30.0
 62
     5
 63
     7
421
 16777215
 74
     1
 91
        4
 64
     7
 65
   257
 75
     1
175
     1
 42
1.0
 92
        0
 66
   257
 43
1.0
 76
     1
 77
     6
 78
     2
 67
     7
 79
     5
170
     0
171
     0
290
     0
174
     0
 93
        1
 44
0.0
173
     0
291
     0
 45
0.0
1001
ACAD
1000
AcDbSavedByObjectVersion
1070
     0
  0
VISUALSTYLE
  5
32
102
{ACAD_REACTORS
330
2A
102
}
102
{ACAD_XDICTIONARY
360
43B
102
}
330
2A
100
AcDbVisualStyle
  2
Basic
 70
     7
 71
     1
 72
     0
 73
     1
 90
        0
 40
0.6
 41
30.0
 62
     5
 63
     7
421
 16777215
 74
     0
 91
        4
 64
     7
 65
   257
 75
     1
175
     1
 42
1.0
 92
        8
 66
     7
 43
1.0
 76
     1
 77
     6
 78
     2
 67
     7
 79
     5
170
     0
171
     0
290
     0
174
     0
 93
        1
 44
0.0
173
     0
291
     1
 45
0.0
1001
ACAD
1000
AcDbSavedByObjectVersion
1070
     0
  0
VISUALSTYLE
  5
36
102
{ACAD_REACTORS
330
2A
102
}
102
{ACAD_XDICTIONARY
360
443
102
}
330
2A
100
AcDbVisualStyle
  2
Brighten
 70
    12
 71
     2
 72
     2
 73
     0
 90
        0
 40
0.6
 41
30.0
 62
     5
 63
     7
421
 16777215
 74
     1
 91
        4
 64
     7
 65
   257
 75
     1
175
     1
 42
1.0
 92
        8
 66
     7
 43
1.0
 76
     1
 77
     6
 78
     2
 67
     7
 79
     5
170
     0
171
     0
290
     0
174
     0
 93
        1
 44
50.0
173
     0
291
     1
 45
0.0
1001
ACAD
1000
AcDbSavedByObjectVersion
1070
     0
  0
VISUALSTYLE
  5
3A
102
{ACAD_REACTORS
330
2A
102
}
102
{ACAD_XDICTIONARY
360
44B
102
}
330
2A
100
AcDbVisualStyle
  2
ColorChange
 70
    16
 71
     2
 72
     2
 73
     3
 90
        0
 40
0.6
 41
30.0
 62
     5
 63
     8
421
  8421504
 74
     1
 91
        4
 64
     7
 65
   257
 75
     1
175
     1
 42
1.0
 92
        8
 66
     8
424
  8421504
 43
1.0
 76
     1
 77
     6
 78
     2
 67
     7
 79
     5
170
     0
171
     0
290
     0
174
     0
 93
        1
 44
0.0
173
     0
291
     1
 45
0.0
1001
ACAD
1000
AcDbSavedByObjectVersion
1070
     0
  0
VISUALSTYLE
  5
34
102
{ACAD_REACTORS
330
2A
102
}
102
{ACAD_XDICTIONARY
360
43F
102
}
330
2A
100
AcDbVisualStyle
  2
Conceptual
 70
     9
 71
     3
 72
     2
 73
     0
 90
        0
 40
0.6
 41
30.0
 62
     5
 63
     7
421
 16777215
 74
     2
 91
        2
 64
     7
 65
   257
 75
     1
175
     1
 42
179.0
 92
        8
 66
     7
 43
1.0
 76
     1
 77
     6
 78
     2
 67
     7
 79
     3
170
     0
171
     0
290
     0
174
     0
 93
        1
 44
0.0
173
     0
291
     0
 45
0.0
1001
ACAD
1000
AcDbSavedByObjectVersion
1070
     0
  0
VISUALSTYLE
  5
35
102
{ACAD_REACTORS
330
2A
102
}
102
{ACAD_XDICTIONARY
360
441
102
}
330
2A
100
AcDbVisualStyle
  2
Dim
 70
    11
 71
     2
 72
     2
 73
     0
 90
        0
 40
0.6
 41
30.0
 62
     5
 63
     7
421
 16777215
 74
     1
 91
        4
 64
     7
 65
   257
 75
     1
175
     1
 42
1.0
 92
        8
 66
     7
 43
1.0
 76
     1
 77
     6
 78
     2
 67
     7
 79
     5
170
     0
171
     0
290
     0
174
     0
 93
        1
 44
-50.0
173
     0
291
     1
 45
0.0
1001
ACAD
1000
AcDbSavedByObjectVersion
1070
     0
  0
VISUALSTYLE
  5
3D
102
{ACAD_REACTORS
330
2A
102
}
102
{ACAD_XDICTIONARY
360
451
102
}
330
2A
100
AcDbVisualStyle
  2
EdgeColorOff
 70
    22
 71
     2
 72
     2
 73
     0
 90
        0
 40
0.6
 41
30.0
 62
     5
 63
     7
421
 16777215
 74
     1
 91
        4
 64
     7
 65
   257
 75
     1
175
     1
 42
1.0
 92
        8
 66
     7
 43
1.0
 76
     1
 77
     6
 78
     2
 67
     7
 79
     5
170
     0
171
     0
290
     0
174
     0
 93
        1
 44
0.0
173
     0
291
     1
 45
0.0
1001
ACAD
1000
AcDbSavedByObjectVersion
1070
     0
  0
VISUALSTYLE
  5
39
102
{ACAD_REACTORS
330
2A
102
}
102
{ACAD_XDICTIONARY
360
449
102
}
330
2A
100
AcDbVisualStyle
  2
Facepattern
 70
    15
 71
     2
 72
     2
 73
     0
 90
        0
 40
0.6
 41
30.0
 62
     5
 63
     7
421
 16777215
 74
     1
 91
        4
 64
     7
 65
   257
 75
     1
175
     1
 42
1.0
 92
        8
 66
     7
 43
1.0
 76
     1
 77
     6
 78
     2
 67
     7
 79
     5
170
     0
171
     0
290
     0
174
     0
 93
        1
 44
0.0
173
     0
291
     1
 45
0.0
1001
ACAD
1000
AcDbSavedByObjectVersion
1070
     0
  0
VISUALSTYLE
  5
2B
102
{ACAD_REACTORS
330
2A
102
}
102
{ACAD_XDICTIONARY
360
42D
102
}
330
2A
100
AcDbVisualStyle
  2
Flat
 70
     0
 71
     2
 72
     1
 73
     1
 90
        2
 40
0.6
 41
30.0
 62
     5
 63
     7
421
 16777215
 74
     0
 91
        0
 64
     7
 65
   257
 75
     1
175
     1
 42
1.0
 92
        8
 66
     7
 43
1.0
 76
     1
 77
     6
 78
     2
 67
     7
 79
     5
170
     0
171
     0
290
     0
174
     0
 93
       13
 44
0.0
173
     0
291
     1
 45
0.0
1001
ACAD
1000
AcDbSavedByObjectVersion
1070
     0
  0
VISUALSTYLE
  5
2C
102
{ACAD_REACTORS
330
2A
102
}
102
{ACAD_XDICTIONARY
360
42F
102
}
330
2A
100
AcDbVisualStyle
  2
FlatWithEdges
 70
     1
 71
     2
 72
     1
 73
     1
 90
        2
 40
0.6
 41
30.0
 62
     5
 63
     7
421
 16777215
 74
     1
 91
        0
 64
     7
 65
   257
 75
     1
175
     1
 42
1.0
 92
        0
 66
   257
 43
1.0
 76
     1
 77
     6
 78
     2
 67
     7
 79
     5
170
     0
171
     0
290
     0
174
     0
 93
       13
 44
0.0
173
     0
291
     1
 45
0.0
1001
ACAD
1000
AcDbSavedByObjectVersion
1070
     0
  0
VISUALSTYLE
  5
2D
102
{ACAD_REACTORS
330
2A
102
}
102
{ACAD_XDICTIONARY
360
431
102
}
330
2A
100
AcDbVisualStyle
  2
Gouraud
 70
     2
 71
     2
 72
     2
 73
     1
 90
        2
 40
0.6
 41
30.0
 62
     5
 63
     7
421
 16777215
 74
     0
 91
        0
 64
     7
 65
   257
 75
     1
175
     1
 42
1.0
 92
        0
 66
     7
 43
1.0
 76
     1
 77
     6
 78
     2
 67
     7
 79
     5
170
     0
171
     0
290
     0
174
     0
 93
       13
 44
0.0
173
     0
291
     1
 45
0.0
1001
ACAD
1000
AcDbSavedByObjectVersion
1070
     0
  0
VISUALSTYLE
  5
2E
102
{ACAD_REACTORS
330
2A
102
}
102
{ACAD_XDICTIONARY
360
433
102
}
330
2A
100
AcDbVisualStyle
  2
GouraudWithEdges
 70
     3
 71
     2
 72
     2
 73
     1
 90
        2
 40
0.6
 41
30.0
 62
     5
 63
     7
421
 16777215
 74
     1
 91
        0
 64
     7
 65
   257
 75
     1
175
     1
 42
1.0
 92
        0
 66
   257
 43
1.0
 76
     1
 77
     6
 78
     2
 67
     7
 79
     5
170
     0
171
     0
290
     0
174
     0
 93
       13
 44
0.0
173
     0
291
     1
 45
0.0
1001
ACAD
1000
AcDbSavedByObjectVersion
1070
     0
  0
VISUALSTYLE
  5
31
102
{ACAD_REACTORS
330
2A
102
}
102
{ACAD_XDICTIONARY
360
439
102
}
330
2A
100
AcDbVisualStyle
  2
Hidden
 70
     6
 71
     1
 72
     2
 73
     2
 90
        0
 40
0.6
 41
30.0
 62
     5
 63
     7
421
 16777215
 74
     2
 91
        2
 64
     7
 65
   257
 75
     2
175
     1
 42
40.0
 92
        0
 66
   257
 43
1.0
 76
     1
 77
     6
 78
     2
 67
     7
 79
     3
170
     0
171
     0
290
     0
174
     0
 93
        1
 44
0.0
173
     0
291
     0
 45
0.0
1001
ACAD
1000
AcDbSavedByObjectVersion
1070
     0
  0
VISUALSTYLE
  5
3B
102
{ACAD_REACTORS
330
2A
102
}
102
{ACAD_XDICTIONARY
360
44D
102
}
330
2A
100
AcDbVisualStyle
  2
JitterOff
 70
    20
 71
     2
 72
     2
 73
     0
 90
        0
 40
0.6
 41
30.0
 62
     5
 63
     7
421
 16777215
 74
     1
 91
        4
 64
     7
 65
   257
 75
     1
175
     1
 42
1.0
 92
       10
 66
     7
 43
1.0
 76
     1
 77
     6
 78
     2
 67
     7
 79
     5
170
     0
171
     0
290
     0
174
     0
 93
        1
 44
0.0
173
     0
291
     1
 45
0.0
1001
ACAD
1000
AcDbSavedByObjectVersion
1070
     0
  0
VISUALSTYLE
  5
38
102
{ACAD_REACTORS
330
2A
102
}
102
{ACAD_XDICTIONARY
360
447
102
}
330
2A
100
AcDbVisualStyle
  2
Linepattern
 70
    14
 71
     2
 72
     2
 73
     0
 90
        0
 40
0.6
 41
30.0
 62
     5
 63
     7
421
 16777215
 74
     1
 91
        4
 64
     7
 65
   257
 75
     7
175
     7
 42
1.0
 92
        8
 66
     7
 43
1.0
 76
     1
 77
     6
 78
     2
 67
     7
 79
     5
170
     0
171
     0
290
     0
174
     0
 93
        1
 44
0.0
173
     0
291
     1
 45
0.0
1001
ACAD
1000
AcDbSavedByObjectVersion
1070
     0
  0
VISUALSTYLE
  5
3C
102
{ACAD_REACTORS
330
2A
102
}
102
{ACAD_XDICTIONARY
360
44F
102
}
330
2A
100
AcDbVisualStyle
  2
OverhangOff
 70
    21
 71
     2
 72
     2
 73
     0
 90
        0
 40
0.6
 41
30.0
 62
     5
 63
     7
421
 16777215
 74
     1
 91
        4
 64
     7
 65
   257
 75
     1
175
     1
 42
1.0
 92
        9
 66
     7
 43
1.0
 76
     1
 77
     6
 78
     2
 67
     7
 79
     5
170
     0
171
     0
290
     0
174
     0
 93
        1
 44
0.0
173
     0
291
     1
 45
0.0
1001
ACAD
1000
AcDbSavedByObjectVersion
1070
     0
  0
VISUALSTYLE
  5
33
102
{ACAD_REACTORS
330
2A
102
}
102
{ACAD_XDICTIONARY
360
43D
102
}
330
2A
100
AcDbVisualStyle
  2
Realistic
 70
     8
 71
     2
 72
     3
 73
     0
 90
        2
 40
0.6
 41
30.0
 62
     5
 63
     7
421
 16777215
 74
     0
 91
        0
 64
     7
 65
   257
 75
     1
175
     1
 42
1.0
 92
        8
 66
   257
 43
1.0
 76
     1
 77
     6
 78
     2
 67
     7
 79
     3
170
     0
171
     0
290
     0
174
     0
 93
       13
 44
0.0
173
     0
291
     0
 45
0.0
1001
ACAD
1000
AcDbSavedByObjectVersion
1070
     0
  0
VISUALSTYLE
  5
42
102
{ACAD_REACTORS
330
2A
102
}
102
{ACAD_XDICTIONARY
360
45B
102
}
330
2A
100
AcDbVisualStyle
  2
Shaded
 70
    27
 71
     2
 72
     2
 73
     1
 90
        2
 40
0.6
 41
30.0
 62
     5
 63
     7
421
 16777215
 74
     0
 91
        4
 64
     7
 65
   257
 75
     1
175
     1
 42
1.0
 92
        8
 66
   257
 43
1.0
 76
     1
 77
     6
 78
     2
 67
     8
425
  7895160
 79
     3
170
     0
171
     0
290
     0
174
     0
 93
        5
 44
0.0
173
     0
291
     0
 45
0.0
1001
ACAD
1000
AcDbSavedByObjectVersion
1070
     0
  0
VISUALSTYLE
  5
41
102
{ACAD_REACTORS
330
2A
102
}
102
{ACAD_XDICTIONARY
360
459
102
}
330
2A
100
AcDbVisualStyle
  2
Shaded with edges
 70
    26
 71
     2
 72
     2
 73
     1
 90
        2
 40
0.6
 41
30.0
 62
     5
 63
     7
421
 16777215
 74
     1
 91
       10
 64
     7
 65
   257
 75
     2
175
     1
 42
1.0
 92
        8
 66
   257
 43
1.0
 76
     1
 77
     6
 78
     2
 67
     7
 79
     3
170
     0
171
     0
290
     0
174
     0
 93
        5
 44
0.0
173
     0
291
     0
 45
0.0
1001
ACAD
1000
AcDbSavedByObjectVersion
1070
     0
  0
VISUALSTYLE
  5
3E
102
{ACAD_REACTORS
330
2A
102
}
102
{ACAD_XDICTIONARY
360
453
102
}
330
2A
100
AcDbVisualStyle
  2
Shades of Gray
 70
    23
 71
     2
 72
     2
 73
     3
 90
        0
 40
0.6
 41
30.0
 62
     5
 63
     7
421
 16777215
 74
     2
 91
        2
 64
     7
 65
     7
 75
     1
175
     1
 42
40.0
 92
        8
 66
     7
 43
1.0
 76
     1
 77
     6
 78
     2
 67
     7
 79
     3
170
     0
171
     0
290
     0
174
     0
 93
        1
 44
0.0
173
     0
291
     0
 45
0.0
1001
ACAD
1000
AcDbSavedByObjectVersion
1070
     0
  0
VISUALSTYLE
  5
3F
102
{ACAD_REACTORS
330
2A
102
}
102
{ACAD_XDICTIONARY
360
455
102
}
330
2A
100
AcDbVisualStyle
  2
Sketchy
 70
    24
 71
     1
 72
     2
 73
     2
 90
        0
 40
0.6
 41
30.0
 62
     5
 63
     7
421
 16777215
 74
     2
 91
        2
 64
     7
 65
     7
 75
     1
175
     1
 42
40.0
 92
       11
 66
     7
 43
1.0
 76
     1
 77
     6
 78
     2
 67
     7
 79
     6
170
     0
171
     0
290
     0
174
     0
 93
        1
 44
0.0
173
     0
291
     0
 45
0.0
1001
ACAD
1000
AcDbSavedByObjectVersion
1070
     0
  0
VISUALSTYLE
  5
37
102
{ACAD_REACTORS
330
2A
102
}
102
{ACAD_XDICTIONARY
360
445
102
}
330
2A
100
AcDbVisualStyle
  2
Thicken
 70
    13
 71
     2
 72
     2
 73
     0
 90
        0
 40
0.6
 41
30.0
 62
     5
 63
     7
421
 16777215
 74
     1
 91
        4
 64
     7
 65
   257
 75
     1
175
     1
 42
1.0
 92
       12
 66
     7
 43
1.0
 76
     1
 77
     6
 78
     2
 67
     7
 79
     5
170
     0
171
     0
290
     0
174
     0
 93
        1
 44
0.0
173
     0
291
     1
 45
0.0
1001
ACAD
1000
AcDbSavedByObjectVersion
1070
     0
  0
VISUALSTYLE
  5
30
102
{ACAD_REACTORS
330
2A
102
}
102
{ACAD_XDICTIONARY
360
437
102
}
330
2A
100
AcDbVisualStyle
  2
Wireframe
 70
     5
 71
     0
 72
     2
 73
     0
 90
        0
 40
0.6
 41
30.0
 62
     5
 63
     7
421
 16777215
 74
     1
 91
        4
 64
     7
 65
   257
 75
     1
175
     1
 42
1.0
 92
        0
 66
   257
 43
1.0
 76
     1
 77
     6
 78
     2
 67
     7
 79
     3
170
     0
171
     0
290
     0
174
     0
 93
        1
 44
0.0
173
     0
291
     0
 45
0.0
1001
ACAD
1000
AcDbSavedByObjectVersion
1070
     0
  0
VISUALSTYLE
  5
40
102
{ACAD_REACTORS
330
2A
102
}
102
{ACAD_XDICTIONARY
360
457
102
}
330
2A
100
AcDbVisualStyle
  2
X-Ray
 70
    25
 71
     2
 72
     2
 73
     1
 90
        1
 40
0.5
 41
30.0
 62
     5
 63
     7
421
 16777215
 74
     1
 91
        0
 64
     7
 65
   257
 75
     1
175
     1
 42
1.0
 92
        8
 66
     7
 43
1.0
 76
     1
 77
     6
 78
     2
 67
     7
 79
     3
170
     0
171
     0
290
     0
174
     0
 93
       13
 44
0.0
173
     0
291
     0
 45
0.0
1001
ACAD
1000
AcDbSavedByObjectVersion
1070
     0
  0
DICTIONARYVAR
  5
42A
102
{ACAD_REACTORS
330
429
102
}
330
429
100
DictionaryVariables
280
     0
  1
1:1
  0
DICTIONARYVAR
  5
46E
102
{ACAD_REACTORS
330
429
102
}
330
429
100
DictionaryVariables
280
     0
  1
3.500000
  0
DICTIONARYVAR
  5
46F
102
{ACAD_REACTORS
330
429
102
}
330
429
100
DictionaryVariables
280
     0
  1
acadiso.lin
  0
DICTIONARYVAR
  5
46B
102
{ACAD_REACTORS
330
429
102
}
330
429
100
DictionaryVariables
280
     0
  1
Standard
  0
DICTIONARYVAR
  5
46A
102
{ACAD_REACTORS
330
429
102
}
330
429
100
DictionaryVariables
280
     0
  1
Standard
  0
DICTIONARYVAR
  5
42B
102
{ACAD_REACTORS
330
429
102
}
330
429
100
DictionaryVariables
280
     0
  1
1
  0
DICTIONARYVAR
  5
42C
102
{ACAD_REACTORS
330
429
102
}
330
429
100
DictionaryVariables
280
     0
  1
2
  0
DICTIONARY
  5
45F
330
45
100
AcDbDictionary
280
     1
281
     1
  3
ACAD_XREC_ROUNDTRIP
360
460
  0
DICTIONARY
  5
45D
330
44
100
AcDbDictionary
280
     1
281
     1
  3
ACAD_XREC_ROUNDTRIP
360
45E
  0
DICTIONARY
  5
461
330
46
100
AcDbDictionary
280
     1
281
     1
  3
ACAD_XREC_ROUNDTRIP
360
462
  0
DICTIONARY
  5
467
330
6C
100
AcDbDictionary
280
     1
281
     1
  3
ACAD_XREC_ROUNDTRIP
360
468
  0
DICTIONARY
  5
463
330
6A
100
AcDbDictionary
280
     1
281
     1
  3
ACAD_ROUNDTRIP_2008_TABLESTYLE_CELLSTYLEMAP
360
465
  3
ACAD_XREC_ROUNDTRIP
360
464
  0
DICTIONARY
  5
435
330
2F
100
AcDbDictionary
280
     1
281
     1
  3
ACAD_XREC_ROUNDTRIP
360
436
  0
DICTIONARY
  5
43B
330
32
100
AcDbDictionary
280
     1
281
     1
  3
ACAD_XREC_ROUNDTRIP
360
43C
  0
DICTIONARY
  5
443
330
36
100
AcDbDictionary
280
     1
281
     1
  3
ACAD_XREC_ROUNDTRIP
360
444
  0
DICTIONARY
  5
44B
330
3A
100
AcDbDictionary
280
     1
281
     1
  3
ACAD_XREC_ROUNDTRIP
360
44C
  0
DICTIONARY
  5
43F
330
34
100
AcDbDictionary
280
     1
281
     1
  3
ACAD_XREC_ROUNDTRIP
360
440
  0
DICTIONARY
  5
441
330
35
100
AcDbDictionary
280
     1
281
     1
  3
ACAD_XREC_ROUNDTRIP
360
442
  0
DICTIONARY
  5
451
330
3D
100
AcDbDictionary
280
     1
281
     1
  3
ACAD_XREC_ROUNDTRIP
360
452
  0
DICTIONARY
  5
449
330
39
100
AcDbDictionary
280
     1
281
     1
  3
ACAD_XREC_ROUNDTRIP
360
44A
  0
DICTIONARY
  5
42D
330
2B
100
AcDbDictionary
280
     1
281
     1
  3
ACAD_XREC_ROUNDTRIP
360
42E
  0
DICTIONARY
  5
42F
330
2C
100
AcDbDictionary
280
     1
281
     1
  3
ACAD_XREC_ROUNDTRIP
360
430
  0
DICTIONARY
  5
431
330
2D
100
AcDbDictionary
280
     1
281
     1
  3
ACAD_XREC_ROUNDTRIP
360
432
  0
DICTIONARY
  5
433
330
2E
100
AcDbDictionary
280
     1
281
     1
  3
ACAD_XREC_ROUNDTRIP
360
434
  0
DICTIONARY
  5
439
330
31
100
AcDbDictionary
280
     1
281
     1
  3
ACAD_XREC_ROUNDTRIP
360
43A
  0
DICTIONARY
  5
44D
330
3B
100
AcDbDictionary
280
     1
281
     1
  3
ACAD_XREC_ROUNDTRIP
360
44E
  0
DICTIONARY
  5
447
330
38
100
AcDbDictionary
280
     1
281
     1
  3
ACAD_XREC_ROUNDTRIP
360
448
  0
DICTIONARY
  5
44F
330
3C
100
AcDbDictionary
280
     1
281
     1
  3
ACAD_XREC_ROUNDTRIP
360
450
  0
DICTIONARY
  5
43D
330
33
100
AcDbDictionary
280
     1
281
     1
  3
ACAD_XREC_ROUNDTRIP
360
43E
  0
DICTIONARY
  5
45B
330
42
100
AcDbDictionary
280
     1
281
     1
  3
ACAD_XREC_ROUNDTRIP
360
45C
  0
DICTIONARY
  5
459
330
41
100
AcDbDictionary
280
     1
281
     1
  3
ACAD_XREC_ROUNDTRIP
360
45A
  0
DICTIONARY
  5
453
330
3E
100
AcDbDictionary
280
     1
281
     1
  3
ACAD_XREC_ROUNDTRIP
360
454
  0
DICTIONARY
  5
455
330
3F
100
AcDbDictionary
280
     1
281
     1
  3
ACAD_XREC_ROUNDTRIP
360
456
  0
DICTIONARY
  5
445
330
37
100
AcDbDictionary
280
     1
281
     1
  3
ACAD_XREC_ROUNDTRIP
360
446
  0
DICTIONARY
  5
437
330
30
100
AcDbDictionary
280
     1
281
     1
  3
ACAD_XREC_ROUNDTRIP
360
438
  0
DICTIONARY
  5
457
330
40
100
AcDbDictionary
280
     1
281
     1
  3
ACAD_XREC_ROUNDTRIP
360
458
  0
XRECORD
  5
460
102
{ACAD_REACTORS
330
45F
102
}
330
45F
100
AcDbXrecord
280
     1
102
MATERIAL
148
0.0
149
0.0
149
0.0
 93
        0
 94
      127
282
     0
 72
     1
 77
     1
171
     1
175
     1
179
     1
273
     0
  0
XRECORD
  5
45E
102
{ACAD_REACTORS
330
45D
102
}
330
45D
100
AcDbXrecord
280
     1
102
MATERIAL
148
0.0
149
0.0
149
0.0
 93
        0
 94
      127
282
     0
 72
     1
 77
     1
171
     1
175
     1
179
     1
273
     0
  0
XRECORD
  5
462
102
{ACAD_REACTORS
330
461
102
}
330
461
100
AcDbXrecord
280
     1
102
MATERIAL
148
0.0
149
0.0
149
0.0
 93
        0
 94
      127
282
     0
 72
     1
 77
     1
171
     1
175
     1
179
     1
273
     0
  0
XRECORD
  5
468
102
{ACAD_REACTORS
330
467
102
}
330
467
100
AcDbXrecord
280
     1
102
ACAD_ROUNDTRIP_2010_MLEADER_STYLE
  0
CELLSTYLEMAP
  5
465
102
{ACAD_REACTORS
330
463
102
}
330
463
100
AcDbCellStyleMap
 90
        3
300
CELLSTYLE
  1
TABLEFORMAT_BEGIN
 90
        5
170
     1
 91
        0
 92
    32768
 62
   257
 93
        1
300
CONTENTFORMAT
  1
CONTENTFORMAT_BEGIN
 90
        0
 91
        0
 92
        4
 93
        0
300

 40
0.0
140
1.0
 94
        5
 62
     0
340
11
144
6.0
309
CONTENTFORMAT_END
171
     1
301
MARGIN
  1
CELLMARGIN_BEGIN
 40
1.5
 40
1.5
 40
1.5
 40
1.5
 40
1.5
 40
1.5
309
CELLMARGIN_END
 94
        6
 95
        1
302
GRIDFORMAT
  1
GRIDFORMAT_BEGIN
 90
        0
 91
        1
 62
     0
 92
       -2
340
14
 93
        0
 40
0.045
309
GRIDFORMAT_END
 95
        2
302
GRIDFORMAT
  1
GRIDFORMAT_BEGIN
 90
        0
 91
        1
 62
     0
 92
       -2
340
14
 93
        0
 40
0.045
309
GRIDFORMAT_END
 95
        4
302
GRIDFORMAT
  1
GRIDFORMAT_BEGIN
 90
        0
 91
        1
 62
     0
 92
       -2
340
14
 93
        0
 40
0.045
309
GRIDFORMAT_END
 95
        8
302
GRIDFORMAT
  1
GRIDFORMAT_BEGIN
 90
        0
 91
        1
 62
     0
 92
       -2
340
14
 93
        0
 40
0.045
309
GRIDFORMAT_END
 95
       16
302
GRIDFORMAT
  1
GRIDFORMAT_BEGIN
 90
        0
 91
        1
 62
     0
 92
       -2
340
14
 93
        0
 40
0.045
309
GRIDFORMAT_END
 95
       32
302
GRIDFORMAT
  1
GRIDFORMAT_BEGIN
 90
        0
 91
        1
 62
     0
 92
       -2
340
14
 93
        0
 40
0.045
309
GRIDFORMAT_END
309
TABLEFORMAT_END
  1
CELLSTYLE_BEGIN
 90
        1
 91
        1
300
_TITLE
309
CELLSTYLE_END
300
CELLSTYLE
  1
TABLEFORMAT_BEGIN
 90
        5
170
     1
 91
        0
 92
        0
 62
   257
 93
        1
300
CONTENTFORMAT
  1
CONTENTFORMAT_BEGIN
 90
        0
 91
        0
 92
        4
 93
        0
300

 40
0.0
140
1.0
 94
        5
 62
     0
340
11
144
4.5
309
CONTENTFORMAT_END
171
     1
301
MARGIN
  1
CELLMARGIN_BEGIN
 40
1.5
 40
1.5
 40
1.5
 40
1.5
 40
1.5
 40
1.5
309
CELLMARGIN_END
 94
        6
 95
        1
302
GRIDFORMAT
  1
GRIDFORMAT_BEGIN
 90
        0
 91
        1
 62
     0
 92
       -2
340
14
 93
        0
 40
0.045
309
GRIDFORMAT_END
 95
        2
302
GRIDFORMAT
  1
GRIDFORMAT_BEGIN
 90
        0
 91
        1
 62
     0
 92
       -2
340
14
 93
        0
 40
0.045
309
GRIDFORMAT_END
 95
        4
302
GRIDFORMAT
  1
GRIDFORMAT_BEGIN
 90
        0
 91
        1
 62
     0
 92
       -2
340
14
 93
        0
 40
0.045
309
GRIDFORMAT_END
 95
        8
302
GRIDFORMAT
  1
GRIDFORMAT_BEGIN
 90
        0
 91
        1
 62
     0
 92
       -2
340
14
 93
        0
 40
0.045
309
GRIDFORMAT_END
 95
       16
302
GRIDFORMAT
  1
GRIDFORMAT_BEGIN
 90
        0
 91
        1
 62
     0
 92
       -2
340
14
 93
        0
 40
0.045
309
GRIDFORMAT_END
 95
       32
302
GRIDFORMAT
  1
GRIDFORMAT_BEGIN
 90
        0
 91
        1
 62
     0
 92
       -2
340
14
 93
        0
 40
0.045
309
GRIDFORMAT_END
309
TABLEFORMAT_END
  1
CELLSTYLE_BEGIN
 90
        2
 91
        1
300
_HEADER
309
CELLSTYLE_END
300
CELLSTYLE
  1
TABLEFORMAT_BEGIN
 90
        5
170
     1
 91
        0
 92
        0
 62
   257
 93
        1
300
CONTENTFORMAT
  1
CONTENTFORMAT_BEGIN
 90
        0
 91
        0
 92
        4
 93
        0
300

 40
0.0
140
1.0
 94
        2
 62
     0
340
11
144
4.5
309
CONTENTFORMAT_END
171
     1
301
MARGIN
  1
CELLMARGIN_BEGIN
 40
1.5
 40
1.5
 40
1.5
 40
1.5
 40
1.5
 40
1.5
309
CELLMARGIN_END
 94
        6
 95
        1
302
GRIDFORMAT
  1
GRIDFORMAT_BEGIN
 90
        0
 91
        1
 62
     0
 92
       -2
340
14
 93
        0
 40
0.045
309
GRIDFORMAT_END
 95
        2
302
GRIDFORMAT
  1
GRIDFORMAT_BEGIN
 90
        0
 91
        1
 62
     0
 92
       -2
340
14
 93
        0
 40
0.045
309
GRIDFORMAT_END
 95
        4
302
GRIDFORMAT
  1
GRIDFORMAT_BEGIN
 90
        0
 91
        1
 62
     0
 92
       -2
340
14
 93
        0
 40
0.045
309
GRIDFORMAT_END
 95
        8
302
GRIDFORMAT
  1
GRIDFORMAT_BEGIN
 90
        0
 91
        1
 62
     0
 92
       -2
340
14
 93
        0
 40
0.045
309
GRIDFORMAT_END
 95
       16
302
GRIDFORMAT
  1
GRIDFORMAT_BEGIN
 90
        0
 91
        1
 62
     0
 92
       -2
340
14
 93
        0
 40
0.045
309
GRIDFORMAT_END
 95
       32
302
GRIDFORMAT
  1
GRIDFORMAT_BEGIN
 90
        0
 91
        1
 62
     0
 92
       -2
340
14
 93
        0
 40
0.045
309
GRIDFORMAT_END
309
TABLEFORMAT_END
  1
CELLSTYLE_BEGIN
 90
        3
 91
        2
300
_DATA
309
CELLSTYLE_END
  0
XRECORD
  5
464
102
{ACAD_REACTORS
330
463
102
}
330
463
100
AcDbXrecord
280
     1
102
ACAD_ROUNDTRIP_PRE2007_TABLESTYLE
 90
        4
 91
        0
  1

 92
        4
 93
        0
  2

 94
        4
 95
        0
  3

  0
XRECORD
  5
436
102
{ACAD_REACTORS
330
435
102
}
330
435
100
AcDbXrecord
280
     1
102
RTVSPropertyOp0
 70
     1
102
RTVSPropertyOp1
 70
     1
102
RTVSPropertyOp2
 70
     1
102
RTVSPropertyOp3
 70
     1
102
RTVSPropertyOp4
 70
     1
102
RTVSPropertyOp5
 70
     1
102
RTVSPropertyOp6
 70
     1
102
RTVSPropertyOp7
 70
     1
102
RTVSPropertyOp8
 70
     1
102
RTVSPropertyOp9
 70
     1
102
RTVSPropertyOp10
 70
     1
102
RTVSPropertyOp11
 70
     1
102
RTVSPropertyOp12
 70
     1
102
RTVSPropertyOp13
 70
     1
102
RTVSPropertyOp14
 70
     1
102
RTVSPropertyOp15
 70
     1
102
RTVSPropertyOp16
 70
     1
102
RTVSPropertyOp17
 70
     1
102
RTVSPropertyOp18
 70
     1
102
RTVSPropertyOp19
 70
     1
102
RTVSPropertyOp20
 70
     1
102
RTVSPropertyOp21
 70
     1
102
RTVSPropertyOp22
 70
     1
102
RTVSPropertyOp23
 70
     1
102
RTVSPropertyOp24
 70
     1
102
RTVSPropertyOp25
 70
     1
102
RTVSPropertyOp26
 70
     1
102
RTVSPropertyOp27
 70
     1
102
RTVSPropertyOp28
 70
     1
102
RTVSPropertyOp29
 70
     1
102
RTVSPropertyOp30
 70
     1
102
RTVSPropertyOp31
 70
     1
102
RTVSPropertyOp32
 70
     1
102
RTVSPropertyOp33
 70
     1
102
RTVSPropertyOp34
 70
     1
102
RTVSPropertyOp35
 70
     1
102
RTVSPropertyOp36
 70
     1
102
RTVSPropertyOp37
 70
     1
102
RTVSPropertyOp38
 70
     1
102
RTVSPropertyOp39
 70
     1
102
RTVSPropertyOp40
 70
     1
102
RTVSPropertyOp41
 70
     1
102
RTVSPropertyOp42
 70
     1
102
RTVSPropertyOp43
 70
     1
102
RTVSPropertyOp44
 70
     1
102
RTVSPropertyOp45
 70
     1
102
RTVSPropertyOp46
 70
     1
102
RTVSPropertyOp47
 70
     1
102
RTVSPropertyOp48
 70
     1
102
RTVSPropertyOp49
 70
     1
102
RTVSPropertyOp50
 70
     1
102
RTVSPropertyOp51
 70
     0
102
RTVSPropertyOp52
 70
     0
102
RTVSPropertyOp53
 70
     1
102
RTVSPropertyOp54
 70
     1
102
RTVSPropertyOp55
 70
     1
102
RTVSPropertyOp56
 70
     1
102
RTVSPropertyOp57
 70
     1
102
RTVSPost2010Prop28
280
     1
102
RTVSPost2010PropOp28
 70
     1
102
RTVSPost2010Prop29
280
     1
102
RTVSPost2010PropOp29
 70
     1
102
RTVSPost2010Prop30
280
     0
102
RTVSPost2010PropOp30
 70
     1
102
RTVSPost2010Prop31
280
     0
102
RTVSPost2010PropOp31
 70
     1
102
RTVSPost2010Prop32
280
     0
102
RTVSPost2010PropOp32
 70
     1
102
RTVSPost2010Prop33
280
     0
102
RTVSPost2010PropOp33
 70
     1
102
RTVSPost2010Prop34
280
     0
102
RTVSPost2010PropOp34
 70
     1
102
RTVSPost2010Prop35
280
     0
102
RTVSPost2010PropOp35
 70
     1
102
RTVSPost2010Prop36
280
     0
102
RTVSPost2010PropOp36
 70
     1
102
RTVSPost2010Prop37
 90
       50
102
RTVSPost2010PropOp37
 70
     1
102
RTVSPost2010Prop38
140
0.0
102
RTVSPost2010PropOp38
 70
     1
102
RTVSPost2010Prop39
140
1.0
102
RTVSPost2010PropOp39
 70
     1
102
RTVSPost2010Prop40
 90
        0
102
RTVSPost2010PropOp40
 70
     1
102
RTVSPost2010Prop41ColorIndex
 90
       18
102
RTVSPost2010Prop41ColorRGB
 90
        0
102
RTVSPost2010PropOp41
 70
     1
102
RTVSPost2010Prop42
 90
       50
102
RTVSPost2010PropOp42
 70
     1
102
RTVSPost2010Prop43
 90
        3
102
RTVSPost2010PropOp43
 70
     1
102
RTVSPost2010Prop44ColorIndex
 90
        5
102
RTVSPost2010Prop44ColorRGB
 90
      255
102
RTVSPost2010PropOp44
 70
     1
102
RTVSPost2010Prop45
280
     0
102
RTVSPost2010PropOp45
 70
     1
102
RTVSPost2010Prop46
 90
       50
102
RTVSPost2010PropOp46
 70
     1
102
RTVSPost2010Prop47
 90
       50
102
RTVSPost2010PropOp47
 70
     1
102
RTVSPost2010Prop48
 90
       50
102
RTVSPost2010PropOp48
 70
     1
102
RTVSPost2010Prop49
280
     0
102
RTVSPost2010PropOp49
 70
     1
102
RTVSPost2010Prop50
 90
       50
102
RTVSPost2010PropOp50
 70
     1
102
RTVSPost2010Prop51ColorIndex
 90
      256
102
RTVSPost2010Prop51ColorRGB
 90
-16777216
102
RTVSPost2010PropOp51
 70
     0
102
RTVSPost2010Prop52
140
1.0
102
RTVSPost2010PropOp52
 70
     0
102
RTVSPost2010Prop53
 90
        2
102
RTVSPost2010PropOp53
 70
     1
102
RTVSPost2010Prop54
  1
strokes_ogs.tif
102
RTVSPost2010PropOp54
 70
     1
102
RTVSPost2010Prop55
280
     0
102
RTVSPost2010PropOp55
 70
     1
102
RTVSPost2010Prop56
140
1.0
102
RTVSPost2010PropOp56
 70
     1
102
RTVSPost2010Prop57
140
1.0
102
RTVSPost2010PropOp57
 70
     1
  0
XRECORD
  5
43C
102
{ACAD_REACTORS
330
43B
102
}
330
43B
100
AcDbXrecord
280
     1
102
RTVSPropertyOp0
 70
     1
102
RTVSPropertyOp1
 70
     1
102
RTVSPropertyOp2
 70
     1
102
RTVSPropertyOp3
 70
     1
102
RTVSPropertyOp4
 70
     1
102
RTVSPropertyOp5
 70
     1
102
RTVSPropertyOp6
 70
     1
102
RTVSPropertyOp7
 70
     1
102
RTVSPropertyOp8
 70
     1
102
RTVSPropertyOp9
 70
     1
102
RTVSPropertyOp10
 70
     1
102
RTVSPropertyOp11
 70
     1
102
RTVSPropertyOp12
 70
     1
102
RTVSPropertyOp13
 70
     1
102
RTVSPropertyOp14
 70
     1
102
RTVSPropertyOp15
 70
     1
102
RTVSPropertyOp16
 70
     1
102
RTVSPropertyOp17
 70
     1
102
RTVSPropertyOp18
 70
     1
102
RTVSPropertyOp19
 70
     1
102
RTVSPropertyOp20
 70
     1
102
RTVSPropertyOp21
 70
     1
102
RTVSPropertyOp22
 70
     1
102
RTVSPropertyOp23
 70
     1
102
RTVSPropertyOp24
 70
     1
102
RTVSPropertyOp25
 70
     1
102
RTVSPropertyOp26
 70
     1
102
RTVSPropertyOp27
 70
     1
102
RTVSPropertyOp28
 70
     1
102
RTVSPropertyOp29
 70
     1
102
RTVSPropertyOp30
 70
     1
102
RTVSPropertyOp31
 70
     1
102
RTVSPropertyOp32
 70
     1
102
RTVSPropertyOp33
 70
     1
102
RTVSPropertyOp34
 70
     1
102
RTVSPropertyOp35
 70
     1
102
RTVSPropertyOp36
 70
     1
102
RTVSPropertyOp37
 70
     1
102
RTVSPropertyOp38
 70
     1
102
RTVSPropertyOp39
 70
     1
102
RTVSPropertyOp40
 70
     1
102
RTVSPropertyOp41
 70
     1
102
RTVSPropertyOp42
 70
     1
102
RTVSPropertyOp43
 70
     1
102
RTVSPropertyOp44
 70
     1
102
RTVSPropertyOp45
 70
     1
102
RTVSPropertyOp46
 70
     1
102
RTVSPropertyOp47
 70
     1
102
RTVSPropertyOp48
 70
     1
102
RTVSPropertyOp49
 70
     1
102
RTVSPropertyOp50
 70
     1
102
RTVSPropertyOp51
 70
     0
102
RTVSPropertyOp52
 70
     0
102
RTVSPropertyOp53
 70
     1
102
RTVSPropertyOp54
 70
     1
102
RTVSPropertyOp55
 70
     1
102
RTVSPropertyOp56
 70
     1
102
RTVSPropertyOp57
 70
     1
102
RTVSPost2010Prop28
280
     0
102
RTVSPost2010PropOp28
 70
     1
102
RTVSPost2010Prop29
280
     1
102
RTVSPost2010PropOp29
 70
     1
102
RTVSPost2010Prop30
280
     1
102
RTVSPost2010PropOp30
 70
     1
102
RTVSPost2010Prop31
280
     0
102
RTVSPost2010PropOp31
 70
     1
102
RTVSPost2010Prop32
280
     0
102
RTVSPost2010PropOp32
 70
     1
102
RTVSPost2010Prop33
280
     0
102
RTVSPost2010PropOp33
 70
     1
102
RTVSPost2010Prop34
280
     0
102
RTVSPost2010PropOp34
 70
     1
102
RTVSPost2010Prop35
280
     0
102
RTVSPost2010PropOp35
 70
     1
102
RTVSPost2010Prop36
280
     0
102
RTVSPost2010PropOp36
 70
     1
102
RTVSPost2010Prop37
 90
       50
102
RTVSPost2010PropOp37
 70
     1
102
RTVSPost2010Prop38
140
0.0
102
RTVSPost2010PropOp38
 70
     1
102
RTVSPost2010Prop39
140
1.0
102
RTVSPost2010PropOp39
 70
     1
102
RTVSPost2010Prop40
 90
        0
102
RTVSPost2010PropOp40
 70
     1
102
RTVSPost2010Prop41ColorIndex
 90
       18
102
RTVSPost2010Prop41ColorRGB
 90
        0
102
RTVSPost2010PropOp41
 70
     1
102
RTVSPost2010Prop42
 90
       50
102
RTVSPost2010PropOp42
 70
     1
102
RTVSPost2010Prop43
 90
        3
102
RTVSPost2010PropOp43
 70
     1
102
RTVSPost2010Prop44ColorIndex
 90
        5
102
RTVSPost2010Prop44ColorRGB
 90
      255
102
RTVSPost2010PropOp44
 70
     1
102
RTVSPost2010Prop45
280
     0
102
RTVSPost2010PropOp45
 70
     1
102
RTVSPost2010Prop46
 90
       50
102
RTVSPost2010PropOp46
 70
     1
102
RTVSPost2010Prop47
 90
       50
102
RTVSPost2010PropOp47
 70
     1
102
RTVSPost2010Prop48
 90
       50
102
RTVSPost2010PropOp48
 70
     1
102
RTVSPost2010Prop49
280
     0
102
RTVSPost2010PropOp49
 70
     1
102
RTVSPost2010Prop50
 90
       50
102
RTVSPost2010PropOp50
 70
     1
102
RTVSPost2010Prop51ColorIndex
 90
      256
102
RTVSPost2010Prop51ColorRGB
 90
-16777216
102
RTVSPost2010PropOp51
 70
     0
102
RTVSPost2010Prop52
140
1.0
102
RTVSPost2010PropOp52
 70
     0
102
RTVSPost2010Prop53
 90
        2
102
RTVSPost2010PropOp53
 70
     1
102
RTVSPost2010Prop54
  1
strokes_ogs.tif
102
RTVSPost2010PropOp54
 70
     1
102
RTVSPost2010Prop55
280
     0
102
RTVSPost2010PropOp55
 70
     1
102
RTVSPost2010Prop56
140
1.0
102
RTVSPost2010PropOp56
 70
     1
102
RTVSPost2010Prop57
140
1.0
102
RTVSPost2010PropOp57
 70
     1
  0
XRECORD
  5
444
102
{ACAD_REACTORS
330
443
102
}
330
443
100
AcDbXrecord
280
     1
102
RTVSPropertyOp0
 70
     1
102
RTVSPropertyOp1
 70
     1
102
RTVSPropertyOp2
 70
     1
102
RTVSPropertyOp3
 70
     1
102
RTVSPropertyOp4
 70
     1
102
RTVSPropertyOp5
 70
     1
102
RTVSPropertyOp6
 70
     1
102
RTVSPropertyOp7
 70
     1
102
RTVSPropertyOp8
 70
     1
102
RTVSPropertyOp9
 70
     1
102
RTVSPropertyOp10
 70
     1
102
RTVSPropertyOp11
 70
     1
102
RTVSPropertyOp12
 70
     1
102
RTVSPropertyOp13
 70
     1
102
RTVSPropertyOp14
 70
     1
102
RTVSPropertyOp15
 70
     1
102
RTVSPropertyOp16
 70
     1
102
RTVSPropertyOp17
 70
     1
102
RTVSPropertyOp18
 70
     1
102
RTVSPropertyOp19
 70
     1
102
RTVSPropertyOp20
 70
     1
102
RTVSPropertyOp21
 70
     1
102
RTVSPropertyOp22
 70
     1
102
RTVSPropertyOp23
 70
     1
102
RTVSPropertyOp24
 70
     1
102
RTVSPropertyOp25
 70
     1
102
RTVSPropertyOp26
 70
     1
102
RTVSPropertyOp27
 70
     1
102
RTVSPropertyOp28
 70
     1
102
RTVSPropertyOp29
 70
     1
102
RTVSPropertyOp30
 70
     1
102
RTVSPropertyOp31
 70
     1
102
RTVSPropertyOp32
 70
     1
102
RTVSPropertyOp33
 70
     1
102
RTVSPropertyOp34
 70
     1
102
RTVSPropertyOp35
 70
     1
102
RTVSPropertyOp36
 70
     1
102
RTVSPropertyOp37
 70
     1
102
RTVSPropertyOp38
 70
     1
102
RTVSPropertyOp39
 70
     1
102
RTVSPropertyOp40
 70
     1
102
RTVSPropertyOp41
 70
     1
102
RTVSPropertyOp42
 70
     1
102
RTVSPropertyOp43
 70
     1
102
RTVSPropertyOp44
 70
     1
102
RTVSPropertyOp45
 70
     1
102
RTVSPropertyOp46
 70
     1
102
RTVSPropertyOp47
 70
     1
102
RTVSPropertyOp48
 70
     1
102
RTVSPropertyOp49
 70
     1
102
RTVSPropertyOp50
 70
     1
102
RTVSPropertyOp51
 70
     0
102
RTVSPropertyOp52
 70
     0
102
RTVSPropertyOp53
 70
     1
102
RTVSPropertyOp54
 70
     1
102
RTVSPropertyOp55
 70
     1
102
RTVSPropertyOp56
 70
     1
102
RTVSPropertyOp57
 70
     1
102
RTVSPost2010Prop28
280
     0
102
RTVSPost2010PropOp28
 70
     1
102
RTVSPost2010Prop29
280
     1
102
RTVSPost2010PropOp29
 70
     1
102
RTVSPost2010Prop30
280
     1
102
RTVSPost2010PropOp30
 70
     1
102
RTVSPost2010Prop31
280
     0
102
RTVSPost2010PropOp31
 70
     1
102
RTVSPost2010Prop32
280
     0
102
RTVSPost2010PropOp32
 70
     1
102
RTVSPost2010Prop33
280
     0
102
RTVSPost2010PropOp33
 70
     1
102
RTVSPost2010Prop34
280
     0
102
RTVSPost2010PropOp34
 70
     1
102
RTVSPost2010Prop35
280
     0
102
RTVSPost2010PropOp35
 70
     1
102
RTVSPost2010Prop36
280
     0
102
RTVSPost2010PropOp36
 70
     1
102
RTVSPost2010Prop37
 90
       50
102
RTVSPost2010PropOp37
 70
     1
102
RTVSPost2010Prop38
140
0.0
102
RTVSPost2010PropOp38
 70
     1
102
RTVSPost2010Prop39
140
1.0
102
RTVSPost2010PropOp39
 70
     1
102
RTVSPost2010Prop40
 90
        0
102
RTVSPost2010PropOp40
 70
     1
102
RTVSPost2010Prop41ColorIndex
 90
       18
102
RTVSPost2010Prop41ColorRGB
 90
        0
102
RTVSPost2010PropOp41
 70
     1
102
RTVSPost2010Prop42
 90
       50
102
RTVSPost2010PropOp42
 70
     1
102
RTVSPost2010Prop43
 90
        3
102
RTVSPost2010PropOp43
 70
     1
102
RTVSPost2010Prop44ColorIndex
 90
        5
102
RTVSPost2010Prop44ColorRGB
 90
      255
102
RTVSPost2010PropOp44
 70
     1
102
RTVSPost2010Prop45
280
     0
102
RTVSPost2010PropOp45
 70
     1
102
RTVSPost2010Prop46
 90
       50
102
RTVSPost2010PropOp46
 70
     1
102
RTVSPost2010Prop47
 90
       50
102
RTVSPost2010PropOp47
 70
     1
102
RTVSPost2010Prop48
 90
       50
102
RTVSPost2010PropOp48
 70
     1
102
RTVSPost2010Prop49
280
     0
102
RTVSPost2010PropOp49
 70
     1
102
RTVSPost2010Prop50
 90
       50
102
RTVSPost2010PropOp50
 70
     1
102
RTVSPost2010Prop51ColorIndex
 90
      256
102
RTVSPost2010Prop51ColorRGB
 90
-16777216
102
RTVSPost2010PropOp51
 70
     0
102
RTVSPost2010Prop52
140
1.0
102
RTVSPost2010PropOp52
 70
     0
102
RTVSPost2010Prop53
 90
        2
102
RTVSPost2010PropOp53
 70
     1
102
RTVSPost2010Prop54
  1
strokes_ogs.tif
102
RTVSPost2010PropOp54
 70
     1
102
RTVSPost2010Prop55
280
     0
102
RTVSPost2010PropOp55
 70
     1
102
RTVSPost2010Prop56
140
1.0
102
RTVSPost2010PropOp56
 70
     1
102
RTVSPost2010Prop57
140
1.0
102
RTVSPost2010PropOp57
 70
     1
  0
XRECORD
  5
44C
102
{ACAD_REACTORS
330
44B
102
}
330
44B
100
AcDbXrecord
280
     1
102
RTVSPropertyOp0
 70
     1
102
RTVSPropertyOp1
 70
     1
102
RTVSPropertyOp2
 70
     1
102
RTVSPropertyOp3
 70
     1
102
RTVSPropertyOp4
 70
     1
102
RTVSPropertyOp5
 70
     1
102
RTVSPropertyOp6
 70
     1
102
RTVSPropertyOp7
 70
     1
102
RTVSPropertyOp8
 70
     1
102
RTVSPropertyOp9
 70
     1
102
RTVSPropertyOp10
 70
     1
102
RTVSPropertyOp11
 70
     1
102
RTVSPropertyOp12
 70
     1
102
RTVSPropertyOp13
 70
     1
102
RTVSPropertyOp14
 70
     1
102
RTVSPropertyOp15
 70
     1
102
RTVSPropertyOp16
 70
     1
102
RTVSPropertyOp17
 70
     1
102
RTVSPropertyOp18
 70
     1
102
RTVSPropertyOp19
 70
     1
102
RTVSPropertyOp20
 70
     1
102
RTVSPropertyOp21
 70
     1
102
RTVSPropertyOp22
 70
     1
102
RTVSPropertyOp23
 70
     1
102
RTVSPropertyOp24
 70
     1
102
RTVSPropertyOp25
 70
     1
102
RTVSPropertyOp26
 70
     1
102
RTVSPropertyOp27
 70
     1
102
RTVSPropertyOp28
 70
     1
102
RTVSPropertyOp29
 70
     1
102
RTVSPropertyOp30
 70
     1
102
RTVSPropertyOp31
 70
     1
102
RTVSPropertyOp32
 70
     1
102
RTVSPropertyOp33
 70
     1
102
RTVSPropertyOp34
 70
     1
102
RTVSPropertyOp35
 70
     1
102
RTVSPropertyOp36
 70
     1
102
RTVSPropertyOp37
 70
     1
102
RTVSPropertyOp38
 70
     1
102
RTVSPropertyOp39
 70
     1
102
RTVSPropertyOp40
 70
     1
102
RTVSPropertyOp41
 70
     1
102
RTVSPropertyOp42
 70
     1
102
RTVSPropertyOp43
 70
     1
102
RTVSPropertyOp44
 70
     1
102
RTVSPropertyOp45
 70
     1
102
RTVSPropertyOp46
 70
     1
102
RTVSPropertyOp47
 70
     1
102
RTVSPropertyOp48
 70
     1
102
RTVSPropertyOp49
 70
     1
102
RTVSPropertyOp50
 70
     1
102
RTVSPropertyOp51
 70
     0
102
RTVSPropertyOp52
 70
     0
102
RTVSPropertyOp53
 70
     1
102
RTVSPropertyOp54
 70
     1
102
RTVSPropertyOp55
 70
     1
102
RTVSPropertyOp56
 70
     1
102
RTVSPropertyOp57
 70
     1
102
RTVSPost2010Prop28
280
     0
102
RTVSPost2010PropOp28
 70
     1
102
RTVSPost2010Prop29
280
     1
102
RTVSPost2010PropOp29
 70
     1
102
RTVSPost2010Prop30
280
     1
102
RTVSPost2010PropOp30
 70
     1
102
RTVSPost2010Prop31
280
     0
102
RTVSPost2010PropOp31
 70
     1
102
RTVSPost2010Prop32
280
     0
102
RTVSPost2010PropOp32
 70
     1
102
RTVSPost2010Prop33
280
     0
102
RTVSPost2010PropOp33
 70
     1
102
RTVSPost2010Prop34
280
     0
102
RTVSPost2010PropOp34
 70
     1
102
RTVSPost2010Prop35
280
     0
102
RTVSPost2010PropOp35
 70
     1
102
RTVSPost2010Prop36
280
     0
102
RTVSPost2010PropOp36
 70
     1
102
RTVSPost2010Prop37
 90
       50
102
RTVSPost2010PropOp37
 70
     1
102
RTVSPost2010Prop38
140
0.0
102
RTVSPost2010PropOp38
 70
     1
102
RTVSPost2010Prop39
140
1.0
102
RTVSPost2010PropOp39
 70
     1
102
RTVSPost2010Prop40
 90
        0
102
RTVSPost2010PropOp40
 70
     1
102
RTVSPost2010Prop41ColorIndex
 90
       18
102
RTVSPost2010Prop41ColorRGB
 90
        0
102
RTVSPost2010PropOp41
 70
     1
102
RTVSPost2010Prop42
 90
       50
102
RTVSPost2010PropOp42
 70
     1
102
RTVSPost2010Prop43
 90
        3
102
RTVSPost2010PropOp43
 70
     1
102
RTVSPost2010Prop44ColorIndex
 90
        5
102
RTVSPost2010Prop44ColorRGB
 90
      255
102
RTVSPost2010PropOp44
 70
     1
102
RTVSPost2010Prop45
280
     0
102
RTVSPost2010PropOp45
 70
     1
102
RTVSPost2010Prop46
 90
       50
102
RTVSPost2010PropOp46
 70
     1
102
RTVSPost2010Prop47
 90
       50
102
RTVSPost2010PropOp47
 70
     1
102
RTVSPost2010Prop48
 90
       50
102
RTVSPost2010PropOp48
 70
     1
102
RTVSPost2010Prop49
280
     0
102
RTVSPost2010PropOp49
 70
     1
102
RTVSPost2010Prop50
 90
       50
102
RTVSPost2010PropOp50
 70
     1
102
RTVSPost2010Prop51ColorIndex
 90
      256
102
RTVSPost2010Prop51ColorRGB
 90
-16777216
102
RTVSPost2010PropOp51
 70
     0
102
RTVSPost2010Prop52
140
1.0
102
RTVSPost2010PropOp52
 70
     0
102
RTVSPost2010Prop53
 90
        2
102
RTVSPost2010PropOp53
 70
     1
102
RTVSPost2010Prop54
  1
strokes_ogs.tif
102
RTVSPost2010PropOp54
 70
     1
102
RTVSPost2010Prop55
280
     0
102
RTVSPost2010PropOp55
 70
     1
102
RTVSPost2010Prop56
140
1.0
102
RTVSPost2010PropOp56
 70
     1
102
RTVSPost2010Prop57
140
1.0
102
RTVSPost2010PropOp57
 70
     1
  0
XRECORD
  5
440
102
{ACAD_REACTORS
330
43F
102
}
330
43F
100
AcDbXrecord
280
     1
102
RTVSPropertyOp0
 70
     1
102
RTVSPropertyOp1
 70
     1
102
RTVSPropertyOp2
 70
     1
102
RTVSPropertyOp3
 70
     1
102
RTVSPropertyOp4
 70
     1
102
RTVSPropertyOp5
 70
     1
102
RTVSPropertyOp6
 70
     1
102
RTVSPropertyOp7
 70
     1
102
RTVSPropertyOp8
 70
     1
102
RTVSPropertyOp9
 70
     1
102
RTVSPropertyOp10
 70
     1
102
RTVSPropertyOp11
 70
     1
102
RTVSPropertyOp12
 70
     1
102
RTVSPropertyOp13
 70
     1
102
RTVSPropertyOp14
 70
     1
102
RTVSPropertyOp15
 70
     1
102
RTVSPropertyOp16
 70
     1
102
RTVSPropertyOp17
 70
     1
102
RTVSPropertyOp18
 70
     1
102
RTVSPropertyOp19
 70
     1
102
RTVSPropertyOp20
 70
     1
102
RTVSPropertyOp21
 70
     1
102
RTVSPropertyOp22
 70
     1
102
RTVSPropertyOp23
 70
     1
102
RTVSPropertyOp24
 70
     1
102
RTVSPropertyOp25
 70
     1
102
RTVSPropertyOp26
 70
     1
102
RTVSPropertyOp27
 70
     1
102
RTVSPropertyOp28
 70
     1
102
RTVSPropertyOp29
 70
     1
102
RTVSPropertyOp30
 70
     1
102
RTVSPropertyOp31
 70
     1
102
RTVSPropertyOp32
 70
     1
102
RTVSPropertyOp33
 70
     1
102
RTVSPropertyOp34
 70
     1
102
RTVSPropertyOp35
 70
     1
102
RTVSPropertyOp36
 70
     1
102
RTVSPropertyOp37
 70
     1
102
RTVSPropertyOp38
 70
     1
102
RTVSPropertyOp39
 70
     1
102
RTVSPropertyOp40
 70
     1
102
RTVSPropertyOp41
 70
     1
102
RTVSPropertyOp42
 70
     1
102
RTVSPropertyOp43
 70
     1
102
RTVSPropertyOp44
 70
     1
102
RTVSPropertyOp45
 70
     1
102
RTVSPropertyOp46
 70
     1
102
RTVSPropertyOp47
 70
     1
102
RTVSPropertyOp48
 70
     1
102
RTVSPropertyOp49
 70
     1
102
RTVSPropertyOp50
 70
     1
102
RTVSPropertyOp51
 70
     0
102
RTVSPropertyOp52
 70
     0
102
RTVSPropertyOp53
 70
     1
102
RTVSPropertyOp54
 70
     1
102
RTVSPropertyOp55
 70
     1
102
RTVSPropertyOp56
 70
     1
102
RTVSPropertyOp57
 70
     1
102
RTVSPost2010Prop28
280
     0
102
RTVSPost2010PropOp28
 70
     1
102
RTVSPost2010Prop29
280
     1
102
RTVSPost2010PropOp29
 70
     1
102
RTVSPost2010Prop30
280
     1
102
RTVSPost2010PropOp30
 70
     1
102
RTVSPost2010Prop31
280
     0
102
RTVSPost2010PropOp31
 70
     1
102
RTVSPost2010Prop32
280
     0
102
RTVSPost2010PropOp32
 70
     1
102
RTVSPost2010Prop33
280
     0
102
RTVSPost2010PropOp33
 70
     1
102
RTVSPost2010Prop34
280
     0
102
RTVSPost2010PropOp34
 70
     1
102
RTVSPost2010Prop35
280
     0
102
RTVSPost2010PropOp35
 70
     1
102
RTVSPost2010Prop36
280
     0
102
RTVSPost2010PropOp36
 70
     1
102
RTVSPost2010Prop37
 90
       50
102
RTVSPost2010PropOp37
 70
     1
102
RTVSPost2010Prop38
140
0.0
102
RTVSPost2010PropOp38
 70
     1
102
RTVSPost2010Prop39
140
1.0
102
RTVSPost2010PropOp39
 70
     1
102
RTVSPost2010Prop40
 90
        0
102
RTVSPost2010PropOp40
 70
     1
102
RTVSPost2010Prop41ColorIndex
 90
       18
102
RTVSPost2010Prop41ColorRGB
 90
        0
102
RTVSPost2010PropOp41
 70
     1
102
RTVSPost2010Prop42
 90
       50
102
RTVSPost2010PropOp42
 70
     1
102
RTVSPost2010Prop43
 90
        3
102
RTVSPost2010PropOp43
 70
     1
102
RTVSPost2010Prop44ColorIndex
 90
        5
102
RTVSPost2010Prop44ColorRGB
 90
      255
102
RTVSPost2010PropOp44
 70
     1
102
RTVSPost2010Prop45
280
     0
102
RTVSPost2010PropOp45
 70
     1
102
RTVSPost2010Prop46
 90
       50
102
RTVSPost2010PropOp46
 70
     1
102
RTVSPost2010Prop47
 90
       50
102
RTVSPost2010PropOp47
 70
     1
102
RTVSPost2010Prop48
 90
       50
102
RTVSPost2010PropOp48
 70
     1
102
RTVSPost2010Prop49
280
     0
102
RTVSPost2010PropOp49
 70
     1
102
RTVSPost2010Prop50
 90
       50
102
RTVSPost2010PropOp50
 70
     1
102
RTVSPost2010Prop51ColorIndex
 90
      256
102
RTVSPost2010Prop51ColorRGB
 90
-16777216
102
RTVSPost2010PropOp51
 70
     0
102
RTVSPost2010Prop52
140
1.0
102
RTVSPost2010PropOp52
 70
     0
102
RTVSPost2010Prop53
 90
        2
102
RTVSPost2010PropOp53
 70
     1
102
RTVSPost2010Prop54
  1
strokes_ogs.tif
102
RTVSPost2010PropOp54
 70
     1
102
RTVSPost2010Prop55
280
     0
102
RTVSPost2010PropOp55
 70
     1
102
RTVSPost2010Prop56
140
1.0
102
RTVSPost2010PropOp56
 70
     1
102
RTVSPost2010Prop57
140
1.0
102
RTVSPost2010PropOp57
 70
     1
  0
XRECORD
  5
442
102
{ACAD_REACTORS
330
441
102
}
330
441
100
AcDbXrecord
280
     1
102
RTVSPropertyOp0
 70
     1
102
RTVSPropertyOp1
 70
     1
102
RTVSPropertyOp2
 70
     1
102
RTVSPropertyOp3
 70
     1
102
RTVSPropertyOp4
 70
     1
102
RTVSPropertyOp5
 70
     1
102
RTVSPropertyOp6
 70
     1
102
RTVSPropertyOp7
 70
     1
102
RTVSPropertyOp8
 70
     1
102
RTVSPropertyOp9
 70
     1
102
RTVSPropertyOp10
 70
     1
102
RTVSPropertyOp11
 70
     1
102
RTVSPropertyOp12
 70
     1
102
RTVSPropertyOp13
 70
     1
102
RTVSPropertyOp14
 70
     1
102
RTVSPropertyOp15
 70
     1
102
RTVSPropertyOp16
 70
     1
102
RTVSPropertyOp17
 70
     1
102
RTVSPropertyOp18
 70
     1
102
RTVSPropertyOp19
 70
     1
102
RTVSPropertyOp20
 70
     1
102
RTVSPropertyOp21
 70
     1
102
RTVSPropertyOp22
 70
     1
102
RTVSPropertyOp23
 70
     1
102
RTVSPropertyOp24
 70
     1
102
RTVSPropertyOp25
 70
     1
102
RTVSPropertyOp26
 70
     1
102
RTVSPropertyOp27
 70
     1
102
RTVSPropertyOp28
 70
     1
102
RTVSPropertyOp29
 70
     1
102
RTVSPropertyOp30
 70
     1
102
RTVSPropertyOp31
 70
     1
102
RTVSPropertyOp32
 70
     1
102
RTVSPropertyOp33
 70
     1
102
RTVSPropertyOp34
 70
     1
102
RTVSPropertyOp35
 70
     1
102
RTVSPropertyOp36
 70
     1
102
RTVSPropertyOp37
 70
     1
102
RTVSPropertyOp38
 70
     1
102
RTVSPropertyOp39
 70
     1
102
RTVSPropertyOp40
 70
     1
102
RTVSPropertyOp41
 70
     1
102
RTVSPropertyOp42
 70
     1
102
RTVSPropertyOp43
 70
     1
102
RTVSPropertyOp44
 70
     1
102
RTVSPropertyOp45
 70
     1
102
RTVSPropertyOp46
 70
     1
102
RTVSPropertyOp47
 70
     1
102
RTVSPropertyOp48
 70
     1
102
RTVSPropertyOp49
 70
     1
102
RTVSPropertyOp50
 70
     1
102
RTVSPropertyOp51
 70
     0
102
RTVSPropertyOp52
 70
     0
102
RTVSPropertyOp53
 70
     1
102
RTVSPropertyOp54
 70
     1
102
RTVSPropertyOp55
 70
     1
102
RTVSPropertyOp56
 70
     1
102
RTVSPropertyOp57
 70
     1
102
RTVSPost2010Prop28
280
     0
102
RTVSPost2010PropOp28
 70
     1
102
RTVSPost2010Prop29
280
     1
102
RTVSPost2010PropOp29
 70
     1
102
RTVSPost2010Prop30
280
     1
102
RTVSPost2010PropOp30
 70
     1
102
RTVSPost2010Prop31
280
     0
102
RTVSPost2010PropOp31
 70
     1
102
RTVSPost2010Prop32
280
     0
102
RTVSPost2010PropOp32
 70
     1
102
RTVSPost2010Prop33
280
     0
102
RTVSPost2010PropOp33
 70
     1
102
RTVSPost2010Prop34
280
     0
102
RTVSPost2010PropOp34
 70
     1
102
RTVSPost2010Prop35
280
     0
102
RTVSPost2010PropOp35
 70
     1
102
RTVSPost2010Prop36
280
     0
102
RTVSPost2010PropOp36
 70
     1
102
RTVSPost2010Prop37
 90
       50
102
RTVSPost2010PropOp37
 70
     1
102
RTVSPost2010Prop38
140
0.0
102
RTVSPost2010PropOp38
 70
     1
102
RTVSPost2010Prop39
140
1.0
102
RTVSPost2010PropOp39
 70
     1
102
RTVSPost2010Prop40
 90
        0
102
RTVSPost2010PropOp40
 70
     1
102
RTVSPost2010Prop41ColorIndex
 90
       18
102
RTVSPost2010Prop41ColorRGB
 90
        0
102
RTVSPost2010PropOp41
 70
     1
102
RTVSPost2010Prop42
 90
       50
102
RTVSPost2010PropOp42
 70
     1
102
RTVSPost2010Prop43
 90
        3
102
RTVSPost2010PropOp43
 70
     1
102
RTVSPost2010Prop44ColorIndex
 90
        5
102
RTVSPost2010Prop44ColorRGB
 90
      255
102
RTVSPost2010PropOp44
 70
     1
102
RTVSPost2010Prop45
280
     0
102
RTVSPost2010PropOp45
 70
     1
102
RTVSPost2010Prop46
 90
       50
102
RTVSPost2010PropOp46
 70
     1
102
RTVSPost2010Prop47
 90
       50
102
RTVSPost2010PropOp47
 70
     1
102
RTVSPost2010Prop48
 90
       50
102
RTVSPost2010PropOp48
 70
     1
102
RTVSPost2010Prop49
280
     0
102
RTVSPost2010PropOp49
 70
     1
102
RTVSPost2010Prop50
 90
       50
102
RTVSPost2010PropOp50
 70
     1
102
RTVSPost2010Prop51ColorIndex
 90
      256
102
RTVSPost2010Prop51ColorRGB
 90
-16777216
102
RTVSPost2010PropOp51
 70
     0
102
RTVSPost2010Prop52
140
1.0
102
RTVSPost2010PropOp52
 70
     0
102
RTVSPost2010Prop53
 90
        2
102
RTVSPost2010PropOp53
 70
     1
102
RTVSPost2010Prop54
  1
strokes_ogs.tif
102
RTVSPost2010PropOp54
 70
     1
102
RTVSPost2010Prop55
280
     0
102
RTVSPost2010PropOp55
 70
     1
102
RTVSPost2010Prop56
140
1.0
102
RTVSPost2010PropOp56
 70
     1
102
RTVSPost2010Prop57
140
1.0
102
RTVSPost2010PropOp57
 70
     1
  0
XRECORD
  5
452
102
{ACAD_REACTORS
330
451
102
}
330
451
100
AcDbXrecord
280
     1
102
RTVSPropertyOp0
 70
     0
102
RTVSPropertyOp1
 70
     0
102
RTVSPropertyOp2
 70
     0
102
RTVSPropertyOp3
 70
     0
102
RTVSPropertyOp4
 70
     0
102
RTVSPropertyOp5
 70
     0
102
RTVSPropertyOp6
 70
     0
102
RTVSPropertyOp7
 70
     0
102
RTVSPropertyOp8
 70
     0
102
RTVSPropertyOp9
 70
     0
102
RTVSPropertyOp10
 70
     0
102
RTVSPropertyOp11
 70
     0
102
RTVSPropertyOp12
 70
     0
102
RTVSPropertyOp13
 70
     0
102
RTVSPropertyOp14
 70
     2
102
RTVSPropertyOp15
 70
     0
102
RTVSPropertyOp16
 70
     0
102
RTVSPropertyOp17
 70
     0
102
RTVSPropertyOp18
 70
     0
102
RTVSPropertyOp19
 70
     0
102
RTVSPropertyOp20
 70
     0
102
RTVSPropertyOp21
 70
     0
102
RTVSPropertyOp22
 70
     0
102
RTVSPropertyOp23
 70
     0
102
RTVSPropertyOp24
 70
     0
102
RTVSPropertyOp25
 70
     0
102
RTVSPropertyOp26
 70
     0
102
RTVSPropertyOp27
 70
     0
102
RTVSPropertyOp28
 70
     0
102
RTVSPropertyOp29
 70
     0
102
RTVSPropertyOp30
 70
     0
102
RTVSPropertyOp31
 70
     0
102
RTVSPropertyOp32
 70
     0
102
RTVSPropertyOp33
 70
     0
102
RTVSPropertyOp34
 70
     0
102
RTVSPropertyOp35
 70
     0
102
RTVSPropertyOp36
 70
     0
102
RTVSPropertyOp37
 70
     0
102
RTVSPropertyOp38
 70
     0
102
RTVSPropertyOp39
 70
     0
102
RTVSPropertyOp40
 70
     0
102
RTVSPropertyOp41
 70
     0
102
RTVSPropertyOp42
 70
     0
102
RTVSPropertyOp43
 70
     0
102
RTVSPropertyOp44
 70
     0
102
RTVSPropertyOp45
 70
     0
102
RTVSPropertyOp46
 70
     0
102
RTVSPropertyOp47
 70
     0
102
RTVSPropertyOp48
 70
     0
102
RTVSPropertyOp49
 70
     0
102
RTVSPropertyOp50
 70
     0
102
RTVSPropertyOp51
 70
     0
102
RTVSPropertyOp52
 70
     0
102
RTVSPropertyOp53
 70
     0
102
RTVSPropertyOp54
 70
     0
102
RTVSPropertyOp55
 70
     0
102
RTVSPropertyOp56
 70
     0
102
RTVSPropertyOp57
 70
     0
102
RTVSPost2010Prop28
280
     0
102
RTVSPost2010PropOp28
 70
     0
102
RTVSPost2010Prop29
280
     1
102
RTVSPost2010PropOp29
 70
     0
102
RTVSPost2010Prop30
280
     1
102
RTVSPost2010PropOp30
 70
     0
102
RTVSPost2010Prop31
280
     0
102
RTVSPost2010PropOp31
 70
     0
102
RTVSPost2010Prop32
280
     0
102
RTVSPost2010PropOp32
 70
     0
102
RTVSPost2010Prop33
280
     0
102
RTVSPost2010PropOp33
 70
     0
102
RTVSPost2010Prop34
280
     0
102
RTVSPost2010PropOp34
 70
     0
102
RTVSPost2010Prop35
280
     0
102
RTVSPost2010PropOp35
 70
     0
102
RTVSPost2010Prop36
280
     0
102
RTVSPost2010PropOp36
 70
     0
102
RTVSPost2010Prop37
 90
       50
102
RTVSPost2010PropOp37
 70
     0
102
RTVSPost2010Prop38
140
0.0
102
RTVSPost2010PropOp38
 70
     0
102
RTVSPost2010Prop39
140
1.0
102
RTVSPost2010PropOp39
 70
     0
102
RTVSPost2010Prop40
 90
        0
102
RTVSPost2010PropOp40
 70
     0
102
RTVSPost2010Prop41ColorIndex
 90
       18
102
RTVSPost2010Prop41ColorRGB
 90
        0
102
RTVSPost2010PropOp41
 70
     0
102
RTVSPost2010Prop42
 90
       50
102
RTVSPost2010PropOp42
 70
     0
102
RTVSPost2010Prop43
 90
        3
102
RTVSPost2010PropOp43
 70
     0
102
RTVSPost2010Prop44ColorIndex
 90
        5
102
RTVSPost2010Prop44ColorRGB
 90
      255
102
RTVSPost2010PropOp44
 70
     0
102
RTVSPost2010Prop45
280
     0
102
RTVSPost2010PropOp45
 70
     0
102
RTVSPost2010Prop46
 90
       50
102
RTVSPost2010PropOp46
 70
     0
102
RTVSPost2010Prop47
 90
       50
102
RTVSPost2010PropOp47
 70
     0
102
RTVSPost2010Prop48
 90
       50
102
RTVSPost2010PropOp48
 70
     0
102
RTVSPost2010Prop49
280
     0
102
RTVSPost2010PropOp49
 70
     0
102
RTVSPost2010Prop50
 90
       50
102
RTVSPost2010PropOp50
 70
     0
102
RTVSPost2010Prop51ColorIndex
 90
      256
102
RTVSPost2010Prop51ColorRGB
 90
-16777216
102
RTVSPost2010PropOp51
 70
     0
102
RTVSPost2010Prop52
140
1.0
102
RTVSPost2010PropOp52
 70
     0
102
RTVSPost2010Prop53
 90
        2
102
RTVSPost2010PropOp53
 70
     0
102
RTVSPost2010Prop54
  1
strokes_ogs.tif
102
RTVSPost2010PropOp54
 70
     0
102
RTVSPost2010Prop55
280
     0
102
RTVSPost2010PropOp55
 70
     0
102
RTVSPost2010Prop56
140
1.0
102
RTVSPost2010PropOp56
 70
     0
102
RTVSPost2010Prop57
140
1.0
102
RTVSPost2010PropOp57
 70
     0
  0
XRECORD
  5
44A
102
{ACAD_REACTORS
330
449
102
}
330
449
100
AcDbXrecord
280
     1
102
RTVSPropertyOp0
 70
     1
102
RTVSPropertyOp1
 70
     1
102
RTVSPropertyOp2
 70
     1
102
RTVSPropertyOp3
 70
     1
102
RTVSPropertyOp4
 70
     1
102
RTVSPropertyOp5
 70
     1
102
RTVSPropertyOp6
 70
     1
102
RTVSPropertyOp7
 70
     1
102
RTVSPropertyOp8
 70
     1
102
RTVSPropertyOp9
 70
     1
102
RTVSPropertyOp10
 70
     1
102
RTVSPropertyOp11
 70
     1
102
RTVSPropertyOp12
 70
     1
102
RTVSPropertyOp13
 70
     1
102
RTVSPropertyOp14
 70
     1
102
RTVSPropertyOp15
 70
     1
102
RTVSPropertyOp16
 70
     1
102
RTVSPropertyOp17
 70
     1
102
RTVSPropertyOp18
 70
     1
102
RTVSPropertyOp19
 70
     1
102
RTVSPropertyOp20
 70
     1
102
RTVSPropertyOp21
 70
     1
102
RTVSPropertyOp22
 70
     1
102
RTVSPropertyOp23
 70
     1
102
RTVSPropertyOp24
 70
     1
102
RTVSPropertyOp25
 70
     1
102
RTVSPropertyOp26
 70
     1
102
RTVSPropertyOp27
 70
     1
102
RTVSPropertyOp28
 70
     1
102
RTVSPropertyOp29
 70
     1
102
RTVSPropertyOp30
 70
     1
102
RTVSPropertyOp31
 70
     1
102
RTVSPropertyOp32
 70
     1
102
RTVSPropertyOp33
 70
     1
102
RTVSPropertyOp34
 70
     1
102
RTVSPropertyOp35
 70
     1
102
RTVSPropertyOp36
 70
     1
102
RTVSPropertyOp37
 70
     1
102
RTVSPropertyOp38
 70
     1
102
RTVSPropertyOp39
 70
     1
102
RTVSPropertyOp40
 70
     1
102
RTVSPropertyOp41
 70
     1
102
RTVSPropertyOp42
 70
     1
102
RTVSPropertyOp43
 70
     1
102
RTVSPropertyOp44
 70
     1
102
RTVSPropertyOp45
 70
     1
102
RTVSPropertyOp46
 70
     1
102
RTVSPropertyOp47
 70
     1
102
RTVSPropertyOp48
 70
     1
102
RTVSPropertyOp49
 70
     1
102
RTVSPropertyOp50
 70
     1
102
RTVSPropertyOp51
 70
     0
102
RTVSPropertyOp52
 70
     0
102
RTVSPropertyOp53
 70
     1
102
RTVSPropertyOp54
 70
     1
102
RTVSPropertyOp55
 70
     1
102
RTVSPropertyOp56
 70
     1
102
RTVSPropertyOp57
 70
     1
102
RTVSPost2010Prop28
280
     0
102
RTVSPost2010PropOp28
 70
     1
102
RTVSPost2010Prop29
280
     1
102
RTVSPost2010PropOp29
 70
     1
102
RTVSPost2010Prop30
280
     1
102
RTVSPost2010PropOp30
 70
     1
102
RTVSPost2010Prop31
280
     0
102
RTVSPost2010PropOp31
 70
     1
102
RTVSPost2010Prop32
280
     0
102
RTVSPost2010PropOp32
 70
     1
102
RTVSPost2010Prop33
280
     0
102
RTVSPost2010PropOp33
 70
     1
102
RTVSPost2010Prop34
280
     0
102
RTVSPost2010PropOp34
 70
     1
102
RTVSPost2010Prop35
280
     0
102
RTVSPost2010PropOp35
 70
     1
102
RTVSPost2010Prop36
280
     0
102
RTVSPost2010PropOp36
 70
     1
102
RTVSPost2010Prop37
 90
       50
102
RTVSPost2010PropOp37
 70
     1
102
RTVSPost2010Prop38
140
0.0
102
RTVSPost2010PropOp38
 70
     1
102
RTVSPost2010Prop39
140
1.0
102
RTVSPost2010PropOp39
 70
     1
102
RTVSPost2010Prop40
 90
        0
102
RTVSPost2010PropOp40
 70
     1
102
RTVSPost2010Prop41ColorIndex
 90
       18
102
RTVSPost2010Prop41ColorRGB
 90
        0
102
RTVSPost2010PropOp41
 70
     1
102
RTVSPost2010Prop42
 90
       50
102
RTVSPost2010PropOp42
 70
     1
102
RTVSPost2010Prop43
 90
        3
102
RTVSPost2010PropOp43
 70
     1
102
RTVSPost2010Prop44ColorIndex
 90
        5
102
RTVSPost2010Prop44ColorRGB
 90
      255
102
RTVSPost2010PropOp44
 70
     1
102
RTVSPost2010Prop45
280
     0
102
RTVSPost2010PropOp45
 70
     1
102
RTVSPost2010Prop46
 90
       50
102
RTVSPost2010PropOp46
 70
     1
102
RTVSPost2010Prop47
 90
       50
102
RTVSPost2010PropOp47
 70
     1
102
RTVSPost2010Prop48
 90
       50
102
RTVSPost2010PropOp48
 70
     1
102
RTVSPost2010Prop49
280
     0
102
RTVSPost2010PropOp49
 70
     1
102
RTVSPost2010Prop50
 90
       50
102
RTVSPost2010PropOp50
 70
     1
102
RTVSPost2010Prop51ColorIndex
 90
      256
102
RTVSPost2010Prop51ColorRGB
 90
-16777216
102
RTVSPost2010PropOp51
 70
     0
102
RTVSPost2010Prop52
140
1.0
102
RTVSPost2010PropOp52
 70
     0
102
RTVSPost2010Prop53
 90
        2
102
RTVSPost2010PropOp53
 70
     1
102
RTVSPost2010Prop54
  1
strokes_ogs.tif
102
RTVSPost2010PropOp54
 70
     1
102
RTVSPost2010Prop55
280
     0
102
RTVSPost2010PropOp55
 70
     1
102
RTVSPost2010Prop56
140
1.0
102
RTVSPost2010PropOp56
 70
     1
102
RTVSPost2010Prop57
140
1.0
102
RTVSPost2010PropOp57
 70
     1
  0
XRECORD
  5
42E
102
{ACAD_REACTORS
330
42D
102
}
330
42D
100
AcDbXrecord
280
     1
102
RTVSPropertyOp0
 70
     1
102
RTVSPropertyOp1
 70
     1
102
RTVSPropertyOp2
 70
     1
102
RTVSPropertyOp3
 70
     1
102
RTVSPropertyOp4
 70
     1
102
RTVSPropertyOp5
 70
     1
102
RTVSPropertyOp6
 70
     1
102
RTVSPropertyOp7
 70
     1
102
RTVSPropertyOp8
 70
     1
102
RTVSPropertyOp9
 70
     1
102
RTVSPropertyOp10
 70
     1
102
RTVSPropertyOp11
 70
     1
102
RTVSPropertyOp12
 70
     1
102
RTVSPropertyOp13
 70
     1
102
RTVSPropertyOp14
 70
     1
102
RTVSPropertyOp15
 70
     1
102
RTVSPropertyOp16
 70
     1
102
RTVSPropertyOp17
 70
     1
102
RTVSPropertyOp18
 70
     1
102
RTVSPropertyOp19
 70
     1
102
RTVSPropertyOp20
 70
     1
102
RTVSPropertyOp21
 70
     1
102
RTVSPropertyOp22
 70
     1
102
RTVSPropertyOp23
 70
     1
102
RTVSPropertyOp24
 70
     1
102
RTVSPropertyOp25
 70
     1
102
RTVSPropertyOp26
 70
     1
102
RTVSPropertyOp27
 70
     1
102
RTVSPropertyOp28
 70
     1
102
RTVSPropertyOp29
 70
     1
102
RTVSPropertyOp30
 70
     1
102
RTVSPropertyOp31
 70
     1
102
RTVSPropertyOp32
 70
     1
102
RTVSPropertyOp33
 70
     1
102
RTVSPropertyOp34
 70
     1
102
RTVSPropertyOp35
 70
     1
102
RTVSPropertyOp36
 70
     1
102
RTVSPropertyOp37
 70
     1
102
RTVSPropertyOp38
 70
     1
102
RTVSPropertyOp39
 70
     1
102
RTVSPropertyOp40
 70
     1
102
RTVSPropertyOp41
 70
     1
102
RTVSPropertyOp42
 70
     1
102
RTVSPropertyOp43
 70
     1
102
RTVSPropertyOp44
 70
     1
102
RTVSPropertyOp45
 70
     1
102
RTVSPropertyOp46
 70
     1
102
RTVSPropertyOp47
 70
     1
102
RTVSPropertyOp48
 70
     1
102
RTVSPropertyOp49
 70
     1
102
RTVSPropertyOp50
 70
     1
102
RTVSPropertyOp51
 70
     0
102
RTVSPropertyOp52
 70
     0
102
RTVSPropertyOp53
 70
     1
102
RTVSPropertyOp54
 70
     1
102
RTVSPropertyOp55
 70
     1
102
RTVSPropertyOp56
 70
     1
102
RTVSPropertyOp57
 70
     1
102
RTVSPost2010Prop28
280
     0
102
RTVSPost2010PropOp28
 70
     1
102
RTVSPost2010Prop29
280
     1
102
RTVSPost2010PropOp29
 70
     1
102
RTVSPost2010Prop30
280
     1
102
RTVSPost2010PropOp30
 70
     1
102
RTVSPost2010Prop31
280
     0
102
RTVSPost2010PropOp31
 70
     1
102
RTVSPost2010Prop32
280
     0
102
RTVSPost2010PropOp32
 70
     1
102
RTVSPost2010Prop33
280
     0
102
RTVSPost2010PropOp33
 70
     1
102
RTVSPost2010Prop34
280
     0
102
RTVSPost2010PropOp34
 70
     1
102
RTVSPost2010Prop35
280
     0
102
RTVSPost2010PropOp35
 70
     1
102
RTVSPost2010Prop36
280
     0
102
RTVSPost2010PropOp36
 70
     1
102
RTVSPost2010Prop37
 90
       50
102
RTVSPost2010PropOp37
 70
     1
102
RTVSPost2010Prop38
140
0.0
102
RTVSPost2010PropOp38
 70
     1
102
RTVSPost2010Prop39
140
1.0
102
RTVSPost2010PropOp39
 70
     1
102
RTVSPost2010Prop40
 90
        0
102
RTVSPost2010PropOp40
 70
     1
102
RTVSPost2010Prop41ColorIndex
 90
       18
102
RTVSPost2010Prop41ColorRGB
 90
        0
102
RTVSPost2010PropOp41
 70
     1
102
RTVSPost2010Prop42
 90
       50
102
RTVSPost2010PropOp42
 70
     1
102
RTVSPost2010Prop43
 90
        3
102
RTVSPost2010PropOp43
 70
     1
102
RTVSPost2010Prop44ColorIndex
 90
        5
102
RTVSPost2010Prop44ColorRGB
 90
      255
102
RTVSPost2010PropOp44
 70
     1
102
RTVSPost2010Prop45
280
     0
102
RTVSPost2010PropOp45
 70
     1
102
RTVSPost2010Prop46
 90
       50
102
RTVSPost2010PropOp46
 70
     1
102
RTVSPost2010Prop47
 90
       50
102
RTVSPost2010PropOp47
 70
     1
102
RTVSPost2010Prop48
 90
       50
102
RTVSPost2010PropOp48
 70
     1
102
RTVSPost2010Prop49
280
     0
102
RTVSPost2010PropOp49
 70
     1
102
RTVSPost2010Prop50
 90
       50
102
RTVSPost2010PropOp50
 70
     1
102
RTVSPost2010Prop51ColorIndex
 90
      256
102
RTVSPost2010Prop51ColorRGB
 90
-16777216
102
RTVSPost2010PropOp51
 70
     0
102
RTVSPost2010Prop52
140
1.0
102
RTVSPost2010PropOp52
 70
     0
102
RTVSPost2010Prop53
 90
        2
102
RTVSPost2010PropOp53
 70
     1
102
RTVSPost2010Prop54
  1
strokes_ogs.tif
102
RTVSPost2010PropOp54
 70
     1
102
RTVSPost2010Prop55
280
     0
102
RTVSPost2010PropOp55
 70
     1
102
RTVSPost2010Prop56
140
1.0
102
RTVSPost2010PropOp56
 70
     1
102
RTVSPost2010Prop57
140
1.0
102
RTVSPost2010PropOp57
 70
     1
  0
XRECORD
  5
430
102
{ACAD_REACTORS
330
42F
102
}
330
42F
100
AcDbXrecord
280
     1
102
RTVSPropertyOp0
 70
     1
102
RTVSPropertyOp1
 70
     1
102
RTVSPropertyOp2
 70
     1
102
RTVSPropertyOp3
 70
     1
102
RTVSPropertyOp4
 70
     1
102
RTVSPropertyOp5
 70
     1
102
RTVSPropertyOp6
 70
     1
102
RTVSPropertyOp7
 70
     1
102
RTVSPropertyOp8
 70
     1
102
RTVSPropertyOp9
 70
     1
102
RTVSPropertyOp10
 70
     1
102
RTVSPropertyOp11
 70
     1
102
RTVSPropertyOp12
 70
     1
102
RTVSPropertyOp13
 70
     1
102
RTVSPropertyOp14
 70
     1
102
RTVSPropertyOp15
 70
     1
102
RTVSPropertyOp16
 70
     1
102
RTVSPropertyOp17
 70
     1
102
RTVSPropertyOp18
 70
     1
102
RTVSPropertyOp19
 70
     1
102
RTVSPropertyOp20
 70
     1
102
RTVSPropertyOp21
 70
     1
102
RTVSPropertyOp22
 70
     1
102
RTVSPropertyOp23
 70
     1
102
RTVSPropertyOp24
 70
     1
102
RTVSPropertyOp25
 70
     1
102
RTVSPropertyOp26
 70
     1
102
RTVSPropertyOp27
 70
     1
102
RTVSPropertyOp28
 70
     1
102
RTVSPropertyOp29
 70
     1
102
RTVSPropertyOp30
 70
     1
102
RTVSPropertyOp31
 70
     1
102
RTVSPropertyOp32
 70
     1
102
RTVSPropertyOp33
 70
     1
102
RTVSPropertyOp34
 70
     1
102
RTVSPropertyOp35
 70
     1
102
RTVSPropertyOp36
 70
     1
102
RTVSPropertyOp37
 70
     1
102
RTVSPropertyOp38
 70
     1
102
RTVSPropertyOp39
 70
     1
102
RTVSPropertyOp40
 70
     1
102
RTVSPropertyOp41
 70
     1
102
RTVSPropertyOp42
 70
     1
102
RTVSPropertyOp43
 70
     1
102
RTVSPropertyOp44
 70
     1
102
RTVSPropertyOp45
 70
     1
102
RTVSPropertyOp46
 70
     1
102
RTVSPropertyOp47
 70
     1
102
RTVSPropertyOp48
 70
     1
102
RTVSPropertyOp49
 70
     1
102
RTVSPropertyOp50
 70
     1
102
RTVSPropertyOp51
 70
     0
102
RTVSPropertyOp52
 70
     0
102
RTVSPropertyOp53
 70
     1
102
RTVSPropertyOp54
 70
     1
102
RTVSPropertyOp55
 70
     1
102
RTVSPropertyOp56
 70
     1
102
RTVSPropertyOp57
 70
     1
102
RTVSPost2010Prop28
280
     0
102
RTVSPost2010PropOp28
 70
     1
102
RTVSPost2010Prop29
280
     1
102
RTVSPost2010PropOp29
 70
     1
102
RTVSPost2010Prop30
280
     1
102
RTVSPost2010PropOp30
 70
     1
102
RTVSPost2010Prop31
280
     0
102
RTVSPost2010PropOp31
 70
     1
102
RTVSPost2010Prop32
280
     0
102
RTVSPost2010PropOp32
 70
     1
102
RTVSPost2010Prop33
280
     0
102
RTVSPost2010PropOp33
 70
     1
102
RTVSPost2010Prop34
280
     0
102
RTVSPost2010PropOp34
 70
     1
102
RTVSPost2010Prop35
280
     0
102
RTVSPost2010PropOp35
 70
     1
102
RTVSPost2010Prop36
280
     0
102
RTVSPost2010PropOp36
 70
     1
102
RTVSPost2010Prop37
 90
       50
102
RTVSPost2010PropOp37
 70
     1
102
RTVSPost2010Prop38
140
0.0
102
RTVSPost2010PropOp38
 70
     1
102
RTVSPost2010Prop39
140
1.0
102
RTVSPost2010PropOp39
 70
     1
102
RTVSPost2010Prop40
 90
        0
102
RTVSPost2010PropOp40
 70
     1
102
RTVSPost2010Prop41ColorIndex
 90
       18
102
RTVSPost2010Prop41ColorRGB
 90
        0
102
RTVSPost2010PropOp41
 70
     1
102
RTVSPost2010Prop42
 90
       50
102
RTVSPost2010PropOp42
 70
     1
102
RTVSPost2010Prop43
 90
        3
102
RTVSPost2010PropOp43
 70
     1
102
RTVSPost2010Prop44ColorIndex
 90
        5
102
RTVSPost2010Prop44ColorRGB
 90
      255
102
RTVSPost2010PropOp44
 70
     1
102
RTVSPost2010Prop45
280
     0
102
RTVSPost2010PropOp45
 70
     1
102
RTVSPost2010Prop46
 90
       50
102
RTVSPost2010PropOp46
 70
     1
102
RTVSPost2010Prop47
 90
       50
102
RTVSPost2010PropOp47
 70
     1
102
RTVSPost2010Prop48
 90
       50
102
RTVSPost2010PropOp48
 70
     1
102
RTVSPost2010Prop49
280
     0
102
RTVSPost2010PropOp49
 70
     1
102
RTVSPost2010Prop50
 90
       50
102
RTVSPost2010PropOp50
 70
     1
102
RTVSPost2010Prop51ColorIndex
 90
      256
102
RTVSPost2010Prop51ColorRGB
 90
-16777216
102
RTVSPost2010PropOp51
 70
     0
102
RTVSPost2010Prop52
140
1.0
102
RTVSPost2010PropOp52
 70
     0
102
RTVSPost2010Prop53
 90
        2
102
RTVSPost2010PropOp53
 70
     1
102
RTVSPost2010Prop54
  1
strokes_ogs.tif
102
RTVSPost2010PropOp54
 70
     1
102
RTVSPost2010Prop55
280
     0
102
RTVSPost2010PropOp55
 70
     1
102
RTVSPost2010Prop56
140
1.0
102
RTVSPost2010PropOp56
 70
     1
102
RTVSPost2010Prop57
140
1.0
102
RTVSPost2010PropOp57
 70
     1
  0
XRECORD
  5
432
102
{ACAD_REACTORS
330
431
102
}
330
431
100
AcDbXrecord
280
     1
102
RTVSPropertyOp0
 70
     1
102
RTVSPropertyOp1
 70
     1
102
RTVSPropertyOp2
 70
     1
102
RTVSPropertyOp3
 70
     1
102
RTVSPropertyOp4
 70
     1
102
RTVSPropertyOp5
 70
     1
102
RTVSPropertyOp6
 70
     1
102
RTVSPropertyOp7
 70
     1
102
RTVSPropertyOp8
 70
     1
102
RTVSPropertyOp9
 70
     1
102
RTVSPropertyOp10
 70
     1
102
RTVSPropertyOp11
 70
     1
102
RTVSPropertyOp12
 70
     1
102
RTVSPropertyOp13
 70
     1
102
RTVSPropertyOp14
 70
     1
102
RTVSPropertyOp15
 70
     1
102
RTVSPropertyOp16
 70
     1
102
RTVSPropertyOp17
 70
     1
102
RTVSPropertyOp18
 70
     1
102
RTVSPropertyOp19
 70
     1
102
RTVSPropertyOp20
 70
     1
102
RTVSPropertyOp21
 70
     1
102
RTVSPropertyOp22
 70
     1
102
RTVSPropertyOp23
 70
     1
102
RTVSPropertyOp24
 70
     1
102
RTVSPropertyOp25
 70
     1
102
RTVSPropertyOp26
 70
     1
102
RTVSPropertyOp27
 70
     1
102
RTVSPropertyOp28
 70
     1
102
RTVSPropertyOp29
 70
     1
102
RTVSPropertyOp30
 70
     1
102
RTVSPropertyOp31
 70
     1
102
RTVSPropertyOp32
 70
     1
102
RTVSPropertyOp33
 70
     1
102
RTVSPropertyOp34
 70
     1
102
RTVSPropertyOp35
 70
     1
102
RTVSPropertyOp36
 70
     1
102
RTVSPropertyOp37
 70
     1
102
RTVSPropertyOp38
 70
     1
102
RTVSPropertyOp39
 70
     1
102
RTVSPropertyOp40
 70
     1
102
RTVSPropertyOp41
 70
     1
102
RTVSPropertyOp42
 70
     1
102
RTVSPropertyOp43
 70
     1
102
RTVSPropertyOp44
 70
     1
102
RTVSPropertyOp45
 70
     1
102
RTVSPropertyOp46
 70
     1
102
RTVSPropertyOp47
 70
     1
102
RTVSPropertyOp48
 70
     1
102
RTVSPropertyOp49
 70
     1
102
RTVSPropertyOp50
 70
     1
102
RTVSPropertyOp51
 70
     0
102
RTVSPropertyOp52
 70
     0
102
RTVSPropertyOp53
 70
     1
102
RTVSPropertyOp54
 70
     1
102
RTVSPropertyOp55
 70
     1
102
RTVSPropertyOp56
 70
     1
102
RTVSPropertyOp57
 70
     1
102
RTVSPost2010Prop28
280
     0
102
RTVSPost2010PropOp28
 70
     1
102
RTVSPost2010Prop29
280
     1
102
RTVSPost2010PropOp29
 70
     1
102
RTVSPost2010Prop30
280
     1
102
RTVSPost2010PropOp30
 70
     1
102
RTVSPost2010Prop31
280
     0
102
RTVSPost2010PropOp31
 70
     1
102
RTVSPost2010Prop32
280
     0
102
RTVSPost2010PropOp32
 70
     1
102
RTVSPost2010Prop33
280
     0
102
RTVSPost2010PropOp33
 70
     1
102
RTVSPost2010Prop34
280
     0
102
RTVSPost2010PropOp34
 70
     1
102
RTVSPost2010Prop35
280
     0
102
RTVSPost2010PropOp35
 70
     1
102
RTVSPost2010Prop36
280
     0
102
RTVSPost2010PropOp36
 70
     1
102
RTVSPost2010Prop37
 90
       50
102
RTVSPost2010PropOp37
 70
     1
102
RTVSPost2010Prop38
140
0.0
102
RTVSPost2010PropOp38
 70
     1
102
RTVSPost2010Prop39
140
1.0
102
RTVSPost2010PropOp39
 70
     1
102
RTVSPost2010Prop40
 90
        0
102
RTVSPost2010PropOp40
 70
     1
102
RTVSPost2010Prop41ColorIndex
 90
       18
102
RTVSPost2010Prop41ColorRGB
 90
        0
102
RTVSPost2010PropOp41
 70
     1
102
RTVSPost2010Prop42
 90
       50
102
RTVSPost2010PropOp42
 70
     1
102
RTVSPost2010Prop43
 90
        3
102
RTVSPost2010PropOp43
 70
     1
102
RTVSPost2010Prop44ColorIndex
 90
        5
102
RTVSPost2010Prop44ColorRGB
 90
      255
102
RTVSPost2010PropOp44
 70
     1
102
RTVSPost2010Prop45
280
     0
102
RTVSPost2010PropOp45
 70
     1
102
RTVSPost2010Prop46
 90
       50
102
RTVSPost2010PropOp46
 70
     1
102
RTVSPost2010Prop47
 90
       50
102
RTVSPost2010PropOp47
 70
     1
102
RTVSPost2010Prop48
 90
       50
102
RTVSPost2010PropOp48
 70
     1
102
RTVSPost2010Prop49
280
     0
102
RTVSPost2010PropOp49
 70
     1
102
RTVSPost2010Prop50
 90
       50
102
RTVSPost2010PropOp50
 70
     1
102
RTVSPost2010Prop51ColorIndex
 90
      256
102
RTVSPost2010Prop51ColorRGB
 90
-16777216
102
RTVSPost2010PropOp51
 70
     0
102
RTVSPost2010Prop52
140
1.0
102
RTVSPost2010PropOp52
 70
     0
102
RTVSPost2010Prop53
 90
        2
102
RTVSPost2010PropOp53
 70
     1
102
RTVSPost2010Prop54
  1
strokes_ogs.tif
102
RTVSPost2010PropOp54
 70
     1
102
RTVSPost2010Prop55
280
     0
102
RTVSPost2010PropOp55
 70
     1
102
RTVSPost2010Prop56
140
1.0
102
RTVSPost2010PropOp56
 70
     1
102
RTVSPost2010Prop57
140
1.0
102
RTVSPost2010PropOp57
 70
     1
  0
XRECORD
  5
434
102
{ACAD_REACTORS
330
433
102
}
330
433
100
AcDbXrecord
280
     1
102
RTVSPropertyOp0
 70
     1
102
RTVSPropertyOp1
 70
     1
102
RTVSPropertyOp2
 70
     1
102
RTVSPropertyOp3
 70
     1
102
RTVSPropertyOp4
 70
     1
102
RTVSPropertyOp5
 70
     1
102
RTVSPropertyOp6
 70
     1
102
RTVSPropertyOp7
 70
     1
102
RTVSPropertyOp8
 70
     1
102
RTVSPropertyOp9
 70
     1
102
RTVSPropertyOp10
 70
     1
102
RTVSPropertyOp11
 70
     1
102
RTVSPropertyOp12
 70
     1
102
RTVSPropertyOp13
 70
     1
102
RTVSPropertyOp14
 70
     1
102
RTVSPropertyOp15
 70
     1
102
RTVSPropertyOp16
 70
     1
102
RTVSPropertyOp17
 70
     1
102
RTVSPropertyOp18
 70
     1
102
RTVSPropertyOp19
 70
     1
102
RTVSPropertyOp20
 70
     1
102
RTVSPropertyOp21
 70
     1
102
RTVSPropertyOp22
 70
     1
102
RTVSPropertyOp23
 70
     1
102
RTVSPropertyOp24
 70
     1
102
RTVSPropertyOp25
 70
     1
102
RTVSPropertyOp26
 70
     1
102
RTVSPropertyOp27
 70
     1
102
RTVSPropertyOp28
 70
     1
102
RTVSPropertyOp29
 70
     1
102
RTVSPropertyOp30
 70
     1
102
RTVSPropertyOp31
 70
     1
102
RTVSPropertyOp32
 70
     1
102
RTVSPropertyOp33
 70
     1
102
RTVSPropertyOp34
 70
     1
102
RTVSPropertyOp35
 70
     1
102
RTVSPropertyOp36
 70
     1
102
RTVSPropertyOp37
 70
     1
102
RTVSPropertyOp38
 70
     1
102
RTVSPropertyOp39
 70
     1
102
RTVSPropertyOp40
 70
     1
102
RTVSPropertyOp41
 70
     1
102
RTVSPropertyOp42
 70
     1
102
RTVSPropertyOp43
 70
     1
102
RTVSPropertyOp44
 70
     1
102
RTVSPropertyOp45
 70
     1
102
RTVSPropertyOp46
 70
     1
102
RTVSPropertyOp47
 70
     1
102
RTVSPropertyOp48
 70
     1
102
RTVSPropertyOp49
 70
     1
102
RTVSPropertyOp50
 70
     1
102
RTVSPropertyOp51
 70
     0
102
RTVSPropertyOp52
 70
     0
102
RTVSPropertyOp53
 70
     1
102
RTVSPropertyOp54
 70
     1
102
RTVSPropertyOp55
 70
     1
102
RTVSPropertyOp56
 70
     1
102
RTVSPropertyOp57
 70
     1
102
RTVSPost2010Prop28
280
     0
102
RTVSPost2010PropOp28
 70
     1
102
RTVSPost2010Prop29
280
     1
102
RTVSPost2010PropOp29
 70
     1
102
RTVSPost2010Prop30
280
     1
102
RTVSPost2010PropOp30
 70
     1
102
RTVSPost2010Prop31
280
     0
102
RTVSPost2010PropOp31
 70
     1
102
RTVSPost2010Prop32
280
     0
102
RTVSPost2010PropOp32
 70
     1
102
RTVSPost2010Prop33
280
     0
102
RTVSPost2010PropOp33
 70
     1
102
RTVSPost2010Prop34
280
     0
102
RTVSPost2010PropOp34
 70
     1
102
RTVSPost2010Prop35
280
     0
102
RTVSPost2010PropOp35
 70
     1
102
RTVSPost2010Prop36
280
     0
102
RTVSPost2010PropOp36
 70
     1
102
RTVSPost2010Prop37
 90
       50
102
RTVSPost2010PropOp37
 70
     1
102
RTVSPost2010Prop38
140
0.0
102
RTVSPost2010PropOp38
 70
     1
102
RTVSPost2010Prop39
140
1.0
102
RTVSPost2010PropOp39
 70
     1
102
RTVSPost2010Prop40
 90
        0
102
RTVSPost2010PropOp40
 70
     1
102
RTVSPost2010Prop41ColorIndex
 90
       18
102
RTVSPost2010Prop41ColorRGB
 90
        0
102
RTVSPost2010PropOp41
 70
     1
102
RTVSPost2010Prop42
 90
       50
102
RTVSPost2010PropOp42
 70
     1
102
RTVSPost2010Prop43
 90
        3
102
RTVSPost2010PropOp43
 70
     1
102
RTVSPost2010Prop44ColorIndex
 90
        5
102
RTVSPost2010Prop44ColorRGB
 90
      255
102
RTVSPost2010PropOp44
 70
     1
102
RTVSPost2010Prop45
280
     0
102
RTVSPost2010PropOp45
 70
     1
102
RTVSPost2010Prop46
 90
       50
102
RTVSPost2010PropOp46
 70
     1
102
RTVSPost2010Prop47
 90
       50
102
RTVSPost2010PropOp47
 70
     1
102
RTVSPost2010Prop48
 90
       50
102
RTVSPost2010PropOp48
 70
     1
102
RTVSPost2010Prop49
280
     0
102
RTVSPost2010PropOp49
 70
     1
102
RTVSPost2010Prop50
 90
       50
102
RTVSPost2010PropOp50
 70
     1
102
RTVSPost2010Prop51ColorIndex
 90
      256
102
RTVSPost2010Prop51ColorRGB
 90
-16777216
102
RTVSPost2010PropOp51
 70
     0
102
RTVSPost2010Prop52
140
1.0
102
RTVSPost2010PropOp52
 70
     0
102
RTVSPost2010Prop53
 90
        2
102
RTVSPost2010PropOp53
 70
     1
102
RTVSPost2010Prop54
  1
strokes_ogs.tif
102
RTVSPost2010PropOp54
 70
     1
102
RTVSPost2010Prop55
280
     0
102
RTVSPost2010PropOp55
 70
     1
102
RTVSPost2010Prop56
140
1.0
102
RTVSPost2010PropOp56
 70
     1
102
RTVSPost2010Prop57
140
1.0
102
RTVSPost2010PropOp57
 70
     1
  0
XRECORD
  5
43A
102
{ACAD_REACTORS
330
439
102
}
330
439
100
AcDbXrecord
280
     1
102
RTVSPropertyOp0
 70
     1
102
RTVSPropertyOp1
 70
     1
102
RTVSPropertyOp2
 70
     1
102
RTVSPropertyOp3
 70
     1
102
RTVSPropertyOp4
 70
     1
102
RTVSPropertyOp5
 70
     1
102
RTVSPropertyOp6
 70
     1
102
RTVSPropertyOp7
 70
     1
102
RTVSPropertyOp8
 70
     1
102
RTVSPropertyOp9
 70
     1
102
RTVSPropertyOp10
 70
     1
102
RTVSPropertyOp11
 70
     1
102
RTVSPropertyOp12
 70
     1
102
RTVSPropertyOp13
 70
     1
102
RTVSPropertyOp14
 70
     1
102
RTVSPropertyOp15
 70
     1
102
RTVSPropertyOp16
 70
     1
102
RTVSPropertyOp17
 70
     1
102
RTVSPropertyOp18
 70
     1
102
RTVSPropertyOp19
 70
     1
102
RTVSPropertyOp20
 70
     1
102
RTVSPropertyOp21
 70
     1
102
RTVSPropertyOp22
 70
     1
102
RTVSPropertyOp23
 70
     1
102
RTVSPropertyOp24
 70
     1
102
RTVSPropertyOp25
 70
     1
102
RTVSPropertyOp26
 70
     1
102
RTVSPropertyOp27
 70
     1
102
RTVSPropertyOp28
 70
     1
102
RTVSPropertyOp29
 70
     1
102
RTVSPropertyOp30
 70
     1
102
RTVSPropertyOp31
 70
     1
102
RTVSPropertyOp32
 70
     1
102
RTVSPropertyOp33
 70
     1
102
RTVSPropertyOp34
 70
     1
102
RTVSPropertyOp35
 70
     1
102
RTVSPropertyOp36
 70
     1
102
RTVSPropertyOp37
 70
     1
102
RTVSPropertyOp38
 70
     1
102
RTVSPropertyOp39
 70
     1
102
RTVSPropertyOp40
 70
     1
102
RTVSPropertyOp41
 70
     1
102
RTVSPropertyOp42
 70
     1
102
RTVSPropertyOp43
 70
     1
102
RTVSPropertyOp44
 70
     1
102
RTVSPropertyOp45
 70
     1
102
RTVSPropertyOp46
 70
     1
102
RTVSPropertyOp47
 70
     1
102
RTVSPropertyOp48
 70
     1
102
RTVSPropertyOp49
 70
     1
102
RTVSPropertyOp50
 70
     1
102
RTVSPropertyOp51
 70
     0
102
RTVSPropertyOp52
 70
     0
102
RTVSPropertyOp53
 70
     1
102
RTVSPropertyOp54
 70
     1
102
RTVSPropertyOp55
 70
     1
102
RTVSPropertyOp56
 70
     1
102
RTVSPropertyOp57
 70
     1
102
RTVSPost2010Prop28
280
     0
102
RTVSPost2010PropOp28
 70
     1
102
RTVSPost2010Prop29
280
     1
102
RTVSPost2010PropOp29
 70
     1
102
RTVSPost2010Prop30
280
     1
102
RTVSPost2010PropOp30
 70
     1
102
RTVSPost2010Prop31
280
     0
102
RTVSPost2010PropOp31
 70
     1
102
RTVSPost2010Prop32
280
     0
102
RTVSPost2010PropOp32
 70
     1
102
RTVSPost2010Prop33
280
     0
102
RTVSPost2010PropOp33
 70
     1
102
RTVSPost2010Prop34
280
     0
102
RTVSPost2010PropOp34
 70
     1
102
RTVSPost2010Prop35
280
     0
102
RTVSPost2010PropOp35
 70
     1
102
RTVSPost2010Prop36
280
     0
102
RTVSPost2010PropOp36
 70
     1
102
RTVSPost2010Prop37
 90
       50
102
RTVSPost2010PropOp37
 70
     1
102
RTVSPost2010Prop38
140
0.0
102
RTVSPost2010PropOp38
 70
     1
102
RTVSPost2010Prop39
140
1.0
102
RTVSPost2010PropOp39
 70
     1
102
RTVSPost2010Prop40
 90
        0
102
RTVSPost2010PropOp40
 70
     1
102
RTVSPost2010Prop41ColorIndex
 90
       18
102
RTVSPost2010Prop41ColorRGB
 90
        0
102
RTVSPost2010PropOp41
 70
     1
102
RTVSPost2010Prop42
 90
       50
102
RTVSPost2010PropOp42
 70
     1
102
RTVSPost2010Prop43
 90
        3
102
RTVSPost2010PropOp43
 70
     1
102
RTVSPost2010Prop44ColorIndex
 90
        5
102
RTVSPost2010Prop44ColorRGB
 90
      255
102
RTVSPost2010PropOp44
 70
     1
102
RTVSPost2010Prop45
280
     0
102
RTVSPost2010PropOp45
 70
     1
102
RTVSPost2010Prop46
 90
       50
102
RTVSPost2010PropOp46
 70
     1
102
RTVSPost2010Prop47
 90
       50
102
RTVSPost2010PropOp47
 70
     1
102
RTVSPost2010Prop48
 90
       50
102
RTVSPost2010PropOp48
 70
     1
102
RTVSPost2010Prop49
280
     0
102
RTVSPost2010PropOp49
 70
     1
102
RTVSPost2010Prop50
 90
       50
102
RTVSPost2010PropOp50
 70
     1
102
RTVSPost2010Prop51ColorIndex
 90
      256
102
RTVSPost2010Prop51ColorRGB
 90
-16777216
102
RTVSPost2010PropOp51
 70
     0
102
RTVSPost2010Prop52
140
1.0
102
RTVSPost2010PropOp52
 70
     0
102
RTVSPost2010Prop53
 90
        2
102
RTVSPost2010PropOp53
 70
     1
102
RTVSPost2010Prop54
  1
strokes_ogs.tif
102
RTVSPost2010PropOp54
 70
     1
102
RTVSPost2010Prop55
280
     0
102
RTVSPost2010PropOp55
 70
     1
102
RTVSPost2010Prop56
140
1.0
102
RTVSPost2010PropOp56
 70
     1
102
RTVSPost2010Prop57
140
1.0
102
RTVSPost2010PropOp57
 70
     1
  0
XRECORD
  5
44E
102
{ACAD_REACTORS
330
44D
102
}
330
44D
100
AcDbXrecord
280
     1
102
RTVSPropertyOp0
 70
     0
102
RTVSPropertyOp1
 70
     0
102
RTVSPropertyOp2
 70
     0
102
RTVSPropertyOp3
 70
     0
102
RTVSPropertyOp4
 70
     0
102
RTVSPropertyOp5
 70
     0
102
RTVSPropertyOp6
 70
     0
102
RTVSPropertyOp7
 70
     0
102
RTVSPropertyOp8
 70
     0
102
RTVSPropertyOp9
 70
     0
102
RTVSPropertyOp10
 70
     0
102
RTVSPropertyOp11
 70
     0
102
RTVSPropertyOp12
 70
     0
102
RTVSPropertyOp13
 70
     0
102
RTVSPropertyOp14
 70
     2
102
RTVSPropertyOp15
 70
     0
102
RTVSPropertyOp16
 70
     0
102
RTVSPropertyOp17
 70
     0
102
RTVSPropertyOp18
 70
     0
102
RTVSPropertyOp19
 70
     0
102
RTVSPropertyOp20
 70
     0
102
RTVSPropertyOp21
 70
     0
102
RTVSPropertyOp22
 70
     0
102
RTVSPropertyOp23
 70
     0
102
RTVSPropertyOp24
 70
     0
102
RTVSPropertyOp25
 70
     0
102
RTVSPropertyOp26
 70
     0
102
RTVSPropertyOp27
 70
     0
102
RTVSPropertyOp28
 70
     0
102
RTVSPropertyOp29
 70
     0
102
RTVSPropertyOp30
 70
     0
102
RTVSPropertyOp31
 70
     0
102
RTVSPropertyOp32
 70
     0
102
RTVSPropertyOp33
 70
     0
102
RTVSPropertyOp34
 70
     0
102
RTVSPropertyOp35
 70
     0
102
RTVSPropertyOp36
 70
     0
102
RTVSPropertyOp37
 70
     0
102
RTVSPropertyOp38
 70
     0
102
RTVSPropertyOp39
 70
     0
102
RTVSPropertyOp40
 70
     0
102
RTVSPropertyOp41
 70
     0
102
RTVSPropertyOp42
 70
     0
102
RTVSPropertyOp43
 70
     0
102
RTVSPropertyOp44
 70
     0
102
RTVSPropertyOp45
 70
     0
102
RTVSPropertyOp46
 70
     0
102
RTVSPropertyOp47
 70
     0
102
RTVSPropertyOp48
 70
     0
102
RTVSPropertyOp49
 70
     0
102
RTVSPropertyOp50
 70
     0
102
RTVSPropertyOp51
 70
     0
102
RTVSPropertyOp52
 70
     0
102
RTVSPropertyOp53
 70
     0
102
RTVSPropertyOp54
 70
     0
102
RTVSPropertyOp55
 70
     0
102
RTVSPropertyOp56
 70
     0
102
RTVSPropertyOp57
 70
     0
102
RTVSPost2010Prop28
280
     0
102
RTVSPost2010PropOp28
 70
     0
102
RTVSPost2010Prop29
280
     1
102
RTVSPost2010PropOp29
 70
     0
102
RTVSPost2010Prop30
280
     1
102
RTVSPost2010PropOp30
 70
     0
102
RTVSPost2010Prop31
280
     0
102
RTVSPost2010PropOp31
 70
     0
102
RTVSPost2010Prop32
280
     0
102
RTVSPost2010PropOp32
 70
     0
102
RTVSPost2010Prop33
280
     0
102
RTVSPost2010PropOp33
 70
     0
102
RTVSPost2010Prop34
280
     0
102
RTVSPost2010PropOp34
 70
     0
102
RTVSPost2010Prop35
280
     0
102
RTVSPost2010PropOp35
 70
     0
102
RTVSPost2010Prop36
280
     0
102
RTVSPost2010PropOp36
 70
     0
102
RTVSPost2010Prop37
 90
       50
102
RTVSPost2010PropOp37
 70
     0
102
RTVSPost2010Prop38
140
0.0
102
RTVSPost2010PropOp38
 70
     0
102
RTVSPost2010Prop39
140
1.0
102
RTVSPost2010PropOp39
 70
     0
102
RTVSPost2010Prop40
 90
        0
102
RTVSPost2010PropOp40
 70
     0
102
RTVSPost2010Prop41ColorIndex
 90
       18
102
RTVSPost2010Prop41ColorRGB
 90
        0
102
RTVSPost2010PropOp41
 70
     0
102
RTVSPost2010Prop42
 90
       50
102
RTVSPost2010PropOp42
 70
     0
102
RTVSPost2010Prop43
 90
        3
102
RTVSPost2010PropOp43
 70
     0
102
RTVSPost2010Prop44ColorIndex
 90
        5
102
RTVSPost2010Prop44ColorRGB
 90
      255
102
RTVSPost2010PropOp44
 70
     0
102
RTVSPost2010Prop45
280
     0
102
RTVSPost2010PropOp45
 70
     0
102
RTVSPost2010Prop46
 90
       50
102
RTVSPost2010PropOp46
 70
     0
102
RTVSPost2010Prop47
 90
       50
102
RTVSPost2010PropOp47
 70
     0
102
RTVSPost2010Prop48
 90
       50
102
RTVSPost2010PropOp48
 70
     0
102
RTVSPost2010Prop49
280
     0
102
RTVSPost2010PropOp49
 70
     0
102
RTVSPost2010Prop50
 90
       50
102
RTVSPost2010PropOp50
 70
     0
102
RTVSPost2010Prop51ColorIndex
 90
      256
102
RTVSPost2010Prop51ColorRGB
 90
-16777216
102
RTVSPost2010PropOp51
 70
     0
102
RTVSPost2010Prop52
140
1.0
102
RTVSPost2010PropOp52
 70
     0
102
RTVSPost2010Prop53
 90
        2
102
RTVSPost2010PropOp53
 70
     0
102
RTVSPost2010Prop54
  1
strokes_ogs.tif
102
RTVSPost2010PropOp54
 70
     0
102
RTVSPost2010Prop55
280
     0
102
RTVSPost2010PropOp55
 70
     0
102
RTVSPost2010Prop56
140
1.0
102
RTVSPost2010PropOp56
 70
     0
102
RTVSPost2010Prop57
140
1.0
102
RTVSPost2010PropOp57
 70
     0
  0
XRECORD
  5
448
102
{ACAD_REACTORS
330
447
102
}
330
447
100
AcDbXrecord
280
     1
102
RTVSPropertyOp0
 70
     1
102
RTVSPropertyOp1
 70
     1
102
RTVSPropertyOp2
 70
     1
102
RTVSPropertyOp3
 70
     1
102
RTVSPropertyOp4
 70
     1
102
RTVSPropertyOp5
 70
     1
102
RTVSPropertyOp6
 70
     1
102
RTVSPropertyOp7
 70
     1
102
RTVSPropertyOp8
 70
     1
102
RTVSPropertyOp9
 70
     1
102
RTVSPropertyOp10
 70
     1
102
RTVSPropertyOp11
 70
     1
102
RTVSPropertyOp12
 70
     1
102
RTVSPropertyOp13
 70
     1
102
RTVSPropertyOp14
 70
     1
102
RTVSPropertyOp15
 70
     1
102
RTVSPropertyOp16
 70
     1
102
RTVSPropertyOp17
 70
     1
102
RTVSPropertyOp18
 70
     1
102
RTVSPropertyOp19
 70
     1
102
RTVSPropertyOp20
 70
     1
102
RTVSPropertyOp21
 70
     1
102
RTVSPropertyOp22
 70
     1
102
RTVSPropertyOp23
 70
     1
102
RTVSPropertyOp24
 70
     1
102
RTVSPropertyOp25
 70
     1
102
RTVSPropertyOp26
 70
     1
102
RTVSPropertyOp27
 70
     1
102
RTVSPropertyOp28
 70
     1
102
RTVSPropertyOp29
 70
     1
102
RTVSPropertyOp30
 70
     1
102
RTVSPropertyOp31
 70
     1
102
RTVSPropertyOp32
 70
     1
102
RTVSPropertyOp33
 70
     1
102
RTVSPropertyOp34
 70
     1
102
RTVSPropertyOp35
 70
     1
102
RTVSPropertyOp36
 70
     1
102
RTVSPropertyOp37
 70
     1
102
RTVSPropertyOp38
 70
     1
102
RTVSPropertyOp39
 70
     1
102
RTVSPropertyOp40
 70
     1
102
RTVSPropertyOp41
 70
     1
102
RTVSPropertyOp42
 70
     1
102
RTVSPropertyOp43
 70
     1
102
RTVSPropertyOp44
 70
     1
102
RTVSPropertyOp45
 70
     1
102
RTVSPropertyOp46
 70
     1
102
RTVSPropertyOp47
 70
     1
102
RTVSPropertyOp48
 70
     1
102
RTVSPropertyOp49
 70
     1
102
RTVSPropertyOp50
 70
     1
102
RTVSPropertyOp51
 70
     0
102
RTVSPropertyOp52
 70
     0
102
RTVSPropertyOp53
 70
     1
102
RTVSPropertyOp54
 70
     1
102
RTVSPropertyOp55
 70
     1
102
RTVSPropertyOp56
 70
     1
102
RTVSPropertyOp57
 70
     1
102
RTVSPost2010Prop28
280
     0
102
RTVSPost2010PropOp28
 70
     1
102
RTVSPost2010Prop29
280
     1
102
RTVSPost2010PropOp29
 70
     1
102
RTVSPost2010Prop30
280
     1
102
RTVSPost2010PropOp30
 70
     1
102
RTVSPost2010Prop31
280
     0
102
RTVSPost2010PropOp31
 70
     1
102
RTVSPost2010Prop32
280
     0
102
RTVSPost2010PropOp32
 70
     1
102
RTVSPost2010Prop33
280
     0
102
RTVSPost2010PropOp33
 70
     1
102
RTVSPost2010Prop34
280
     0
102
RTVSPost2010PropOp34
 70
     1
102
RTVSPost2010Prop35
280
     0
102
RTVSPost2010PropOp35
 70
     1
102
RTVSPost2010Prop36
280
     0
102
RTVSPost2010PropOp36
 70
     1
102
RTVSPost2010Prop37
 90
       50
102
RTVSPost2010PropOp37
 70
     1
102
RTVSPost2010Prop38
140
0.0
102
RTVSPost2010PropOp38
 70
     1
102
RTVSPost2010Prop39
140
1.0
102
RTVSPost2010PropOp39
 70
     1
102
RTVSPost2010Prop40
 90
        0
102
RTVSPost2010PropOp40
 70
     1
102
RTVSPost2010Prop41ColorIndex
 90
       18
102
RTVSPost2010Prop41ColorRGB
 90
        0
102
RTVSPost2010PropOp41
 70
     1
102
RTVSPost2010Prop42
 90
       50
102
RTVSPost2010PropOp42
 70
     1
102
RTVSPost2010Prop43
 90
        3
102
RTVSPost2010PropOp43
 70
     1
102
RTVSPost2010Prop44ColorIndex
 90
        5
102
RTVSPost2010Prop44ColorRGB
 90
      255
102
RTVSPost2010PropOp44
 70
     1
102
RTVSPost2010Prop45
280
     0
102
RTVSPost2010PropOp45
 70
     1
102
RTVSPost2010Prop46
 90
       50
102
RTVSPost2010PropOp46
 70
     1
102
RTVSPost2010Prop47
 90
       50
102
RTVSPost2010PropOp47
 70
     1
102
RTVSPost2010Prop48
 90
       50
102
RTVSPost2010PropOp48
 70
     1
102
RTVSPost2010Prop49
280
     0
102
RTVSPost2010PropOp49
 70
     1
102
RTVSPost2010Prop50
 90
       50
102
RTVSPost2010PropOp50
 70
     1
102
RTVSPost2010Prop51ColorIndex
 90
      256
102
RTVSPost2010Prop51ColorRGB
 90
-16777216
102
RTVSPost2010PropOp51
 70
     0
102
RTVSPost2010Prop52
140
1.0
102
RTVSPost2010PropOp52
 70
     0
102
RTVSPost2010Prop53
 90
        2
102
RTVSPost2010PropOp53
 70
     1
102
RTVSPost2010Prop54
  1
strokes_ogs.tif
102
RTVSPost2010PropOp54
 70
     1
102
RTVSPost2010Prop55
280
     0
102
RTVSPost2010PropOp55
 70
     1
102
RTVSPost2010Prop56
140
1.0
102
RTVSPost2010PropOp56
 70
     1
102
RTVSPost2010Prop57
140
1.0
102
RTVSPost2010PropOp57
 70
     1
  0
XRECORD
  5
450
102
{ACAD_REACTORS
330
44F
102
}
330
44F
100
AcDbXrecord
280
     1
102
RTVSPropertyOp0
 70
     0
102
RTVSPropertyOp1
 70
     0
102
RTVSPropertyOp2
 70
     0
102
RTVSPropertyOp3
 70
     0
102
RTVSPropertyOp4
 70
     0
102
RTVSPropertyOp5
 70
     0
102
RTVSPropertyOp6
 70
     0
102
RTVSPropertyOp7
 70
     0
102
RTVSPropertyOp8
 70
     0
102
RTVSPropertyOp9
 70
     0
102
RTVSPropertyOp10
 70
     0
102
RTVSPropertyOp11
 70
     0
102
RTVSPropertyOp12
 70
     0
102
RTVSPropertyOp13
 70
     0
102
RTVSPropertyOp14
 70
     2
102
RTVSPropertyOp15
 70
     0
102
RTVSPropertyOp16
 70
     0
102
RTVSPropertyOp17
 70
     0
102
RTVSPropertyOp18
 70
     0
102
RTVSPropertyOp19
 70
     0
102
RTVSPropertyOp20
 70
     0
102
RTVSPropertyOp21
 70
     0
102
RTVSPropertyOp22
 70
     0
102
RTVSPropertyOp23
 70
     0
102
RTVSPropertyOp24
 70
     0
102
RTVSPropertyOp25
 70
     0
102
RTVSPropertyOp26
 70
     0
102
RTVSPropertyOp27
 70
     0
102
RTVSPropertyOp28
 70
     0
102
RTVSPropertyOp29
 70
     0
102
RTVSPropertyOp30
 70
     0
102
RTVSPropertyOp31
 70
     0
102
RTVSPropertyOp32
 70
     0
102
RTVSPropertyOp33
 70
     0
102
RTVSPropertyOp34
 70
     0
102
RTVSPropertyOp35
 70
     0
102
RTVSPropertyOp36
 70
     0
102
RTVSPropertyOp37
 70
     0
102
RTVSPropertyOp38
 70
     0
102
RTVSPropertyOp39
 70
     0
102
RTVSPropertyOp40
 70
     0
102
RTVSPropertyOp41
 70
     0
102
RTVSPropertyOp42
 70
     0
102
RTVSPropertyOp43
 70
     0
102
RTVSPropertyOp44
 70
     0
102
RTVSPropertyOp45
 70
     0
102
RTVSPropertyOp46
 70
     0
102
RTVSPropertyOp47
 70
     0
102
RTVSPropertyOp48
 70
     0
102
RTVSPropertyOp49
 70
     0
102
RTVSPropertyOp50
 70
     0
102
RTVSPropertyOp51
 70
     0
102
RTVSPropertyOp52
 70
     0
102
RTVSPropertyOp53
 70
     0
102
RTVSPropertyOp54
 70
     0
102
RTVSPropertyOp55
 70
     0
102
RTVSPropertyOp56
 70
     0
102
RTVSPropertyOp57
 70
     0
102
RTVSPost2010Prop28
280
     0
102
RTVSPost2010PropOp28
 70
     0
102
RTVSPost2010Prop29
280
     1
102
RTVSPost2010PropOp29
 70
     0
102
RTVSPost2010Prop30
280
     1
102
RTVSPost2010PropOp30
 70
     0
102
RTVSPost2010Prop31
280
     0
102
RTVSPost2010PropOp31
 70
     0
102
RTVSPost2010Prop32
280
     0
102
RTVSPost2010PropOp32
 70
     0
102
RTVSPost2010Prop33
280
     0
102
RTVSPost2010PropOp33
 70
     0
102
RTVSPost2010Prop34
280
     0
102
RTVSPost2010PropOp34
 70
     0
102
RTVSPost2010Prop35
280
     0
102
RTVSPost2010PropOp35
 70
     0
102
RTVSPost2010Prop36
280
     0
102
RTVSPost2010PropOp36
 70
     0
102
RTVSPost2010Prop37
 90
       50
102
RTVSPost2010PropOp37
 70
     0
102
RTVSPost2010Prop38
140
0.0
102
RTVSPost2010PropOp38
 70
     0
102
RTVSPost2010Prop39
140
1.0
102
RTVSPost2010PropOp39
 70
     0
102
RTVSPost2010Prop40
 90
        0
102
RTVSPost2010PropOp40
 70
     0
102
RTVSPost2010Prop41ColorIndex
 90
       18
102
RTVSPost2010Prop41ColorRGB
 90
        0
102
RTVSPost2010PropOp41
 70
     0
102
RTVSPost2010Prop42
 90
       50
102
RTVSPost2010PropOp42
 70
     0
102
RTVSPost2010Prop43
 90
        3
102
RTVSPost2010PropOp43
 70
     0
102
RTVSPost2010Prop44ColorIndex
 90
        5
102
RTVSPost2010Prop44ColorRGB
 90
      255
102
RTVSPost2010PropOp44
 70
     0
102
RTVSPost2010Prop45
280
     0
102
RTVSPost2010PropOp45
 70
     0
102
RTVSPost2010Prop46
 90
       50
102
RTVSPost2010PropOp46
 70
     0
102
RTVSPost2010Prop47
 90
       50
102
RTVSPost2010PropOp47
 70
     0
102
RTVSPost2010Prop48
 90
       50
102
RTVSPost2010PropOp48
 70
     0
102
RTVSPost2010Prop49
280
     0
102
RTVSPost2010PropOp49
 70
     0
102
RTVSPost2010Prop50
 90
       50
102
RTVSPost2010PropOp50
 70
     0
102
RTVSPost2010Prop51ColorIndex
 90
      256
102
RTVSPost2010Prop51ColorRGB
 90
-16777216
102
RTVSPost2010PropOp51
 70
     0
102
RTVSPost2010Prop52
140
1.0
102
RTVSPost2010PropOp52
 70
     0
102
RTVSPost2010Prop53
 90
        2
102
RTVSPost2010PropOp53
 70
     0
102
RTVSPost2010Prop54
  1
strokes_ogs.tif
102
RTVSPost2010PropOp54
 70
     0
102
RTVSPost2010Prop55
280
     0
102
RTVSPost2010PropOp55
 70
     0
102
RTVSPost2010Prop56
140
1.0
102
RTVSPost2010PropOp56
 70
     0
102
RTVSPost2010Prop57
140
1.0
102
RTVSPost2010PropOp57
 70
     0
  0
XRECORD
  5
43E
102
{ACAD_REACTORS
330
43D
102
}
330
43D
100
AcDbXrecord
280
     1
102
RTVSPropertyOp0
 70
     1
102
RTVSPropertyOp1
 70
     1
102
RTVSPropertyOp2
 70
     1
102
RTVSPropertyOp3
 70
     1
102
RTVSPropertyOp4
 70
     1
102
RTVSPropertyOp5
 70
     1
102
RTVSPropertyOp6
 70
     1
102
RTVSPropertyOp7
 70
     1
102
RTVSPropertyOp8
 70
     1
102
RTVSPropertyOp9
 70
     1
102
RTVSPropertyOp10
 70
     1
102
RTVSPropertyOp11
 70
     1
102
RTVSPropertyOp12
 70
     1
102
RTVSPropertyOp13
 70
     1
102
RTVSPropertyOp14
 70
     1
102
RTVSPropertyOp15
 70
     1
102
RTVSPropertyOp16
 70
     1
102
RTVSPropertyOp17
 70
     1
102
RTVSPropertyOp18
 70
     1
102
RTVSPropertyOp19
 70
     1
102
RTVSPropertyOp20
 70
     1
102
RTVSPropertyOp21
 70
     1
102
RTVSPropertyOp22
 70
     1
102
RTVSPropertyOp23
 70
     1
102
RTVSPropertyOp24
 70
     1
102
RTVSPropertyOp25
 70
     1
102
RTVSPropertyOp26
 70
     1
102
RTVSPropertyOp27
 70
     1
102
RTVSPropertyOp28
 70
     1
102
RTVSPropertyOp29
 70
     1
102
RTVSPropertyOp30
 70
     1
102
RTVSPropertyOp31
 70
     1
102
RTVSPropertyOp32
 70
     1
102
RTVSPropertyOp33
 70
     1
102
RTVSPropertyOp34
 70
     1
102
RTVSPropertyOp35
 70
     1
102
RTVSPropertyOp36
 70
     1
102
RTVSPropertyOp37
 70
     1
102
RTVSPropertyOp38
 70
     1
102
RTVSPropertyOp39
 70
     1
102
RTVSPropertyOp40
 70
     1
102
RTVSPropertyOp41
 70
     1
102
RTVSPropertyOp42
 70
     1
102
RTVSPropertyOp43
 70
     1
102
RTVSPropertyOp44
 70
     1
102
RTVSPropertyOp45
 70
     1
102
RTVSPropertyOp46
 70
     1
102
RTVSPropertyOp47
 70
     1
102
RTVSPropertyOp48
 70
     1
102
RTVSPropertyOp49
 70
     1
102
RTVSPropertyOp50
 70
     1
102
RTVSPropertyOp51
 70
     0
102
RTVSPropertyOp52
 70
     0
102
RTVSPropertyOp53
 70
     1
102
RTVSPropertyOp54
 70
     1
102
RTVSPropertyOp55
 70
     1
102
RTVSPropertyOp56
 70
     1
102
RTVSPropertyOp57
 70
     1
102
RTVSPost2010Prop28
280
     0
102
RTVSPost2010PropOp28
 70
     1
102
RTVSPost2010Prop29
280
     1
102
RTVSPost2010PropOp29
 70
     1
102
RTVSPost2010Prop30
280
     1
102
RTVSPost2010PropOp30
 70
     1
102
RTVSPost2010Prop31
280
     0
102
RTVSPost2010PropOp31
 70
     1
102
RTVSPost2010Prop32
280
     0
102
RTVSPost2010PropOp32
 70
     1
102
RTVSPost2010Prop33
280
     0
102
RTVSPost2010PropOp33
 70
     1
102
RTVSPost2010Prop34
280
     0
102
RTVSPost2010PropOp34
 70
     1
102
RTVSPost2010Prop35
280
     0
102
RTVSPost2010PropOp35
 70
     1
102
RTVSPost2010Prop36
280
     0
102
RTVSPost2010PropOp36
 70
     1
102
RTVSPost2010Prop37
 90
       50
102
RTVSPost2010PropOp37
 70
     1
102
RTVSPost2010Prop38
140
0.0
102
RTVSPost2010PropOp38
 70
     1
102
RTVSPost2010Prop39
140
1.0
102
RTVSPost2010PropOp39
 70
     1
102
RTVSPost2010Prop40
 90
        0
102
RTVSPost2010PropOp40
 70
     1
102
RTVSPost2010Prop41ColorIndex
 90
       18
102
RTVSPost2010Prop41ColorRGB
 90
        0
102
RTVSPost2010PropOp41
 70
     1
102
RTVSPost2010Prop42
 90
       50
102
RTVSPost2010PropOp42
 70
     1
102
RTVSPost2010Prop43
 90
        3
102
RTVSPost2010PropOp43
 70
     1
102
RTVSPost2010Prop44ColorIndex
 90
        5
102
RTVSPost2010Prop44ColorRGB
 90
      255
102
RTVSPost2010PropOp44
 70
     1
102
RTVSPost2010Prop45
280
     0
102
RTVSPost2010PropOp45
 70
     1
102
RTVSPost2010Prop46
 90
       50
102
RTVSPost2010PropOp46
 70
     1
102
RTVSPost2010Prop47
 90
       50
102
RTVSPost2010PropOp47
 70
     1
102
RTVSPost2010Prop48
 90
       50
102
RTVSPost2010PropOp48
 70
     1
102
RTVSPost2010Prop49
280
     0
102
RTVSPost2010PropOp49
 70
     1
102
RTVSPost2010Prop50
 90
       50
102
RTVSPost2010PropOp50
 70
     1
102
RTVSPost2010Prop51ColorIndex
 90
      256
102
RTVSPost2010Prop51ColorRGB
 90
-16777216
102
RTVSPost2010PropOp51
 70
     0
102
RTVSPost2010Prop52
140
1.0
102
RTVSPost2010PropOp52
 70
     0
102
RTVSPost2010Prop53
 90
        2
102
RTVSPost2010PropOp53
 70
     1
102
RTVSPost2010Prop54
  1
strokes_ogs.tif
102
RTVSPost2010PropOp54
 70
     1
102
RTVSPost2010Prop55
280
     0
102
RTVSPost2010PropOp55
 70
     1
102
RTVSPost2010Prop56
140
1.0
102
RTVSPost2010PropOp56
 70
     1
102
RTVSPost2010Prop57
140
1.0
102
RTVSPost2010PropOp57
 70
     1
  0
XRECORD
  5
45C
102
{ACAD_REACTORS
330
45B
102
}
330
45B
100
AcDbXrecord
280
     1
102
RTVSPropertyOp0
 70
     1
102
RTVSPropertyOp1
 70
     1
102
RTVSPropertyOp2
 70
     1
102
RTVSPropertyOp3
 70
     1
102
RTVSPropertyOp4
 70
     1
102
RTVSPropertyOp5
 70
     1
102
RTVSPropertyOp6
 70
     1
102
RTVSPropertyOp7
 70
     1
102
RTVSPropertyOp8
 70
     1
102
RTVSPropertyOp9
 70
     1
102
RTVSPropertyOp10
 70
     1
102
RTVSPropertyOp11
 70
     1
102
RTVSPropertyOp12
 70
     1
102
RTVSPropertyOp13
 70
     1
102
RTVSPropertyOp14
 70
     1
102
RTVSPropertyOp15
 70
     1
102
RTVSPropertyOp16
 70
     1
102
RTVSPropertyOp17
 70
     1
102
RTVSPropertyOp18
 70
     1
102
RTVSPropertyOp19
 70
     1
102
RTVSPropertyOp20
 70
     1
102
RTVSPropertyOp21
 70
     1
102
RTVSPropertyOp22
 70
     1
102
RTVSPropertyOp23
 70
     1
102
RTVSPropertyOp24
 70
     1
102
RTVSPropertyOp25
 70
     1
102
RTVSPropertyOp26
 70
     1
102
RTVSPropertyOp27
 70
     1
102
RTVSPropertyOp28
 70
     1
102
RTVSPropertyOp29
 70
     1
102
RTVSPropertyOp30
 70
     1
102
RTVSPropertyOp31
 70
     1
102
RTVSPropertyOp32
 70
     1
102
RTVSPropertyOp33
 70
     1
102
RTVSPropertyOp34
 70
     1
102
RTVSPropertyOp35
 70
     1
102
RTVSPropertyOp36
 70
     1
102
RTVSPropertyOp37
 70
     1
102
RTVSPropertyOp38
 70
     1
102
RTVSPropertyOp39
 70
     1
102
RTVSPropertyOp40
 70
     1
102
RTVSPropertyOp41
 70
     1
102
RTVSPropertyOp42
 70
     1
102
RTVSPropertyOp43
 70
     1
102
RTVSPropertyOp44
 70
     1
102
RTVSPropertyOp45
 70
     1
102
RTVSPropertyOp46
 70
     1
102
RTVSPropertyOp47
 70
     1
102
RTVSPropertyOp48
 70
     1
102
RTVSPropertyOp49
 70
     1
102
RTVSPropertyOp50
 70
     1
102
RTVSPropertyOp51
 70
     0
102
RTVSPropertyOp52
 70
     0
102
RTVSPropertyOp53
 70
     1
102
RTVSPropertyOp54
 70
     1
102
RTVSPropertyOp55
 70
     1
102
RTVSPropertyOp56
 70
     1
102
RTVSPropertyOp57
 70
     1
102
RTVSPost2010Prop28
280
     0
102
RTVSPost2010PropOp28
 70
     1
102
RTVSPost2010Prop29
280
     1
102
RTVSPost2010PropOp29
 70
     1
102
RTVSPost2010Prop30
280
     1
102
RTVSPost2010PropOp30
 70
     1
102
RTVSPost2010Prop31
280
     0
102
RTVSPost2010PropOp31
 70
     1
102
RTVSPost2010Prop32
280
     0
102
RTVSPost2010PropOp32
 70
     1
102
RTVSPost2010Prop33
280
     0
102
RTVSPost2010PropOp33
 70
     1
102
RTVSPost2010Prop34
280
     0
102
RTVSPost2010PropOp34
 70
     1
102
RTVSPost2010Prop35
280
     0
102
RTVSPost2010PropOp35
 70
     1
102
RTVSPost2010Prop36
280
     0
102
RTVSPost2010PropOp36
 70
     1
102
RTVSPost2010Prop37
 90
       50
102
RTVSPost2010PropOp37
 70
     1
102
RTVSPost2010Prop38
140
0.0
102
RTVSPost2010PropOp38
 70
     1
102
RTVSPost2010Prop39
140
1.0
102
RTVSPost2010PropOp39
 70
     1
102
RTVSPost2010Prop40
 90
        0
102
RTVSPost2010PropOp40
 70
     1
102
RTVSPost2010Prop41ColorIndex
 90
       18
102
RTVSPost2010Prop41ColorRGB
 90
        0
102
RTVSPost2010PropOp41
 70
     1
102
RTVSPost2010Prop42
 90
       50
102
RTVSPost2010PropOp42
 70
     1
102
RTVSPost2010Prop43
 90
        3
102
RTVSPost2010PropOp43
 70
     1
102
RTVSPost2010Prop44ColorIndex
 90
        5
102
RTVSPost2010Prop44ColorRGB
 90
      255
102
RTVSPost2010PropOp44
 70
     1
102
RTVSPost2010Prop45
280
     0
102
RTVSPost2010PropOp45
 70
     1
102
RTVSPost2010Prop46
 90
       50
102
RTVSPost2010PropOp46
 70
     1
102
RTVSPost2010Prop47
 90
       50
102
RTVSPost2010PropOp47
 70
     1
102
RTVSPost2010Prop48
 90
       50
102
RTVSPost2010PropOp48
 70
     1
102
RTVSPost2010Prop49
280
     0
102
RTVSPost2010PropOp49
 70
     1
102
RTVSPost2010Prop50
 90
       50
102
RTVSPost2010PropOp50
 70
     1
102
RTVSPost2010Prop51ColorIndex
 90
      256
102
RTVSPost2010Prop51ColorRGB
 90
-16777216
102
RTVSPost2010PropOp51
 70
     0
102
RTVSPost2010Prop52
140
1.0
102
RTVSPost2010PropOp52
 70
     0
102
RTVSPost2010Prop53
 90
        2
102
RTVSPost2010PropOp53
 70
     1
102
RTVSPost2010Prop54
  1
strokes_ogs.tif
102
RTVSPost2010PropOp54
 70
     1
102
RTVSPost2010Prop55
280
     0
102
RTVSPost2010PropOp55
 70
     1
102
RTVSPost2010Prop56
140
1.0
102
RTVSPost2010PropOp56
 70
     1
102
RTVSPost2010Prop57
140
1.0
102
RTVSPost2010PropOp57
 70
     1
  0
XRECORD
  5
45A
102
{ACAD_REACTORS
330
459
102
}
330
459
100
AcDbXrecord
280
     1
102
RTVSPropertyOp0
 70
     1
102
RTVSPropertyOp1
 70
     1
102
RTVSPropertyOp2
 70
     1
102
RTVSPropertyOp3
 70
     1
102
RTVSPropertyOp4
 70
     1
102
RTVSPropertyOp5
 70
     1
102
RTVSPropertyOp6
 70
     1
102
RTVSPropertyOp7
 70
     1
102
RTVSPropertyOp8
 70
     1
102
RTVSPropertyOp9
 70
     1
102
RTVSPropertyOp10
 70
     1
102
RTVSPropertyOp11
 70
     1
102
RTVSPropertyOp12
 70
     1
102
RTVSPropertyOp13
 70
     1
102
RTVSPropertyOp14
 70
     1
102
RTVSPropertyOp15
 70
     1
102
RTVSPropertyOp16
 70
     1
102
RTVSPropertyOp17
 70
     1
102
RTVSPropertyOp18
 70
     1
102
RTVSPropertyOp19
 70
     1
102
RTVSPropertyOp20
 70
     1
102
RTVSPropertyOp21
 70
     1
102
RTVSPropertyOp22
 70
     1
102
RTVSPropertyOp23
 70
     1
102
RTVSPropertyOp24
 70
     1
102
RTVSPropertyOp25
 70
     1
102
RTVSPropertyOp26
 70
     1
102
RTVSPropertyOp27
 70
     1
102
RTVSPropertyOp28
 70
     1
102
RTVSPropertyOp29
 70
     1
102
RTVSPropertyOp30
 70
     1
102
RTVSPropertyOp31
 70
     1
102
RTVSPropertyOp32
 70
     1
102
RTVSPropertyOp33
 70
     1
102
RTVSPropertyOp34
 70
     1
102
RTVSPropertyOp35
 70
     1
102
RTVSPropertyOp36
 70
     1
102
RTVSPropertyOp37
 70
     1
102
RTVSPropertyOp38
 70
     1
102
RTVSPropertyOp39
 70
     1
102
RTVSPropertyOp40
 70
     1
102
RTVSPropertyOp41
 70
     1
102
RTVSPropertyOp42
 70
     1
102
RTVSPropertyOp43
 70
     1
102
RTVSPropertyOp44
 70
     1
102
RTVSPropertyOp45
 70
     1
102
RTVSPropertyOp46
 70
     1
102
RTVSPropertyOp47
 70
     1
102
RTVSPropertyOp48
 70
     1
102
RTVSPropertyOp49
 70
     1
102
RTVSPropertyOp50
 70
     1
102
RTVSPropertyOp51
 70
     0
102
RTVSPropertyOp52
 70
     0
102
RTVSPropertyOp53
 70
     1
102
RTVSPropertyOp54
 70
     1
102
RTVSPropertyOp55
 70
     1
102
RTVSPropertyOp56
 70
     1
102
RTVSPropertyOp57
 70
     1
102
RTVSPost2010Prop28
280
     0
102
RTVSPost2010PropOp28
 70
     1
102
RTVSPost2010Prop29
280
     1
102
RTVSPost2010PropOp29
 70
     1
102
RTVSPost2010Prop30
280
     1
102
RTVSPost2010PropOp30
 70
     1
102
RTVSPost2010Prop31
280
     0
102
RTVSPost2010PropOp31
 70
     1
102
RTVSPost2010Prop32
280
     0
102
RTVSPost2010PropOp32
 70
     1
102
RTVSPost2010Prop33
280
     0
102
RTVSPost2010PropOp33
 70
     1
102
RTVSPost2010Prop34
280
     0
102
RTVSPost2010PropOp34
 70
     1
102
RTVSPost2010Prop35
280
     0
102
RTVSPost2010PropOp35
 70
     1
102
RTVSPost2010Prop36
280
     0
102
RTVSPost2010PropOp36
 70
     1
102
RTVSPost2010Prop37
 90
       50
102
RTVSPost2010PropOp37
 70
     1
102
RTVSPost2010Prop38
140
0.0
102
RTVSPost2010PropOp38
 70
     1
102
RTVSPost2010Prop39
140
1.0
102
RTVSPost2010PropOp39
 70
     1
102
RTVSPost2010Prop40
 90
        0
102
RTVSPost2010PropOp40
 70
     1
102
RTVSPost2010Prop41ColorIndex
 90
       18
102
RTVSPost2010Prop41ColorRGB
 90
        0
102
RTVSPost2010PropOp41
 70
     1
102
RTVSPost2010Prop42
 90
       50
102
RTVSPost2010PropOp42
 70
     1
102
RTVSPost2010Prop43
 90
        3
102
RTVSPost2010PropOp43
 70
     1
102
RTVSPost2010Prop44ColorIndex
 90
        5
102
RTVSPost2010Prop44ColorRGB
 90
      255
102
RTVSPost2010PropOp44
 70
     1
102
RTVSPost2010Prop45
280
     0
102
RTVSPost2010PropOp45
 70
     1
102
RTVSPost2010Prop46
 90
       50
102
RTVSPost2010PropOp46
 70
     1
102
RTVSPost2010Prop47
 90
       50
102
RTVSPost2010PropOp47
 70
     1
102
RTVSPost2010Prop48
 90
       50
102
RTVSPost2010PropOp48
 70
     1
102
RTVSPost2010Prop49
280
     0
102
RTVSPost2010PropOp49
 70
     1
102
RTVSPost2010Prop50
 90
       50
102
RTVSPost2010PropOp50
 70
     1
102
RTVSPost2010Prop51ColorIndex
 90
      256
102
RTVSPost2010Prop51ColorRGB
 90
-16777216
102
RTVSPost2010PropOp51
 70
     0
102
RTVSPost2010Prop52
140
1.0
102
RTVSPost2010PropOp52
 70
     0
102
RTVSPost2010Prop53
 90
        2
102
RTVSPost2010PropOp53
 70
     1
102
RTVSPost2010Prop54
  1
strokes_ogs.tif
102
RTVSPost2010PropOp54
 70
     1
102
RTVSPost2010Prop55
280
     0
102
RTVSPost2010PropOp55
 70
     1
102
RTVSPost2010Prop56
140
1.0
102
RTVSPost2010PropOp56
 70
     1
102
RTVSPost2010Prop57
140
1.0
102
RTVSPost2010PropOp57
 70
     1
  0
XRECORD
  5
454
102
{ACAD_REACTORS
330
453
102
}
330
453
100
AcDbXrecord
280
     1
102
RTVSPropertyOp0
 70
     1
102
RTVSPropertyOp1
 70
     1
102
RTVSPropertyOp2
 70
     1
102
RTVSPropertyOp3
 70
     1
102
RTVSPropertyOp4
 70
     1
102
RTVSPropertyOp5
 70
     1
102
RTVSPropertyOp6
 70
     1
102
RTVSPropertyOp7
 70
     1
102
RTVSPropertyOp8
 70
     1
102
RTVSPropertyOp9
 70
     1
102
RTVSPropertyOp10
 70
     1
102
RTVSPropertyOp11
 70
     1
102
RTVSPropertyOp12
 70
     1
102
RTVSPropertyOp13
 70
     1
102
RTVSPropertyOp14
 70
     1
102
RTVSPropertyOp15
 70
     1
102
RTVSPropertyOp16
 70
     1
102
RTVSPropertyOp17
 70
     1
102
RTVSPropertyOp18
 70
     1
102
RTVSPropertyOp19
 70
     1
102
RTVSPropertyOp20
 70
     1
102
RTVSPropertyOp21
 70
     1
102
RTVSPropertyOp22
 70
     1
102
RTVSPropertyOp23
 70
     1
102
RTVSPropertyOp24
 70
     1
102
RTVSPropertyOp25
 70
     1
102
RTVSPropertyOp26
 70
     1
102
RTVSPropertyOp27
 70
     1
102
RTVSPropertyOp28
 70
     1
102
RTVSPropertyOp29
 70
     1
102
RTVSPropertyOp30
 70
     1
102
RTVSPropertyOp31
 70
     1
102
RTVSPropertyOp32
 70
     1
102
RTVSPropertyOp33
 70
     1
102
RTVSPropertyOp34
 70
     1
102
RTVSPropertyOp35
 70
     1
102
RTVSPropertyOp36
 70
     1
102
RTVSPropertyOp37
 70
     1
102
RTVSPropertyOp38
 70
     1
102
RTVSPropertyOp39
 70
     1
102
RTVSPropertyOp40
 70
     1
102
RTVSPropertyOp41
 70
     1
102
RTVSPropertyOp42
 70
     1
102
RTVSPropertyOp43
 70
     1
102
RTVSPropertyOp44
 70
     1
102
RTVSPropertyOp45
 70
     1
102
RTVSPropertyOp46
 70
     1
102
RTVSPropertyOp47
 70
     1
102
RTVSPropertyOp48
 70
     1
102
RTVSPropertyOp49
 70
     1
102
RTVSPropertyOp50
 70
     1
102
RTVSPropertyOp51
 70
     0
102
RTVSPropertyOp52
 70
     0
102
RTVSPropertyOp53
 70
     1
102
RTVSPropertyOp54
 70
     1
102
RTVSPropertyOp55
 70
     1
102
RTVSPropertyOp56
 70
     1
102
RTVSPropertyOp57
 70
     1
102
RTVSPost2010Prop28
280
     0
102
RTVSPost2010PropOp28
 70
     1
102
RTVSPost2010Prop29
280
     1
102
RTVSPost2010PropOp29
 70
     1
102
RTVSPost2010Prop30
280
     1
102
RTVSPost2010PropOp30
 70
     1
102
RTVSPost2010Prop31
280
     0
102
RTVSPost2010PropOp31
 70
     1
102
RTVSPost2010Prop32
280
     0
102
RTVSPost2010PropOp32
 70
     1
102
RTVSPost2010Prop33
280
     0
102
RTVSPost2010PropOp33
 70
     1
102
RTVSPost2010Prop34
280
     0
102
RTVSPost2010PropOp34
 70
     1
102
RTVSPost2010Prop35
280
     0
102
RTVSPost2010PropOp35
 70
     1
102
RTVSPost2010Prop36
280
     0
102
RTVSPost2010PropOp36
 70
     1
102
RTVSPost2010Prop37
 90
       50
102
RTVSPost2010PropOp37
 70
     1
102
RTVSPost2010Prop38
140
0.0
102
RTVSPost2010PropOp38
 70
     1
102
RTVSPost2010Prop39
140
1.0
102
RTVSPost2010PropOp39
 70
     1
102
RTVSPost2010Prop40
 90
        0
102
RTVSPost2010PropOp40
 70
     1
102
RTVSPost2010Prop41ColorIndex
 90
       18
102
RTVSPost2010Prop41ColorRGB
 90
        0
102
RTVSPost2010PropOp41
 70
     1
102
RTVSPost2010Prop42
 90
       50
102
RTVSPost2010PropOp42
 70
     1
102
RTVSPost2010Prop43
 90
        3
102
RTVSPost2010PropOp43
 70
     1
102
RTVSPost2010Prop44ColorIndex
 90
        5
102
RTVSPost2010Prop44ColorRGB
 90
      255
102
RTVSPost2010PropOp44
 70
     1
102
RTVSPost2010Prop45
280
     0
102
RTVSPost2010PropOp45
 70
     1
102
RTVSPost2010Prop46
 90
       50
102
RTVSPost2010PropOp46
 70
     1
102
RTVSPost2010Prop47
 90
       50
102
RTVSPost2010PropOp47
 70
     1
102
RTVSPost2010Prop48
 90
       50
102
RTVSPost2010PropOp48
 70
     1
102
RTVSPost2010Prop49
280
     0
102
RTVSPost2010PropOp49
 70
     1
102
RTVSPost2010Prop50
 90
       50
102
RTVSPost2010PropOp50
 70
     1
102
RTVSPost2010Prop51ColorIndex
 90
      256
102
RTVSPost2010Prop51ColorRGB
 90
-16777216
102
RTVSPost2010PropOp51
 70
     0
102
RTVSPost2010Prop52
140
1.0
102
RTVSPost2010PropOp52
 70
     0
102
RTVSPost2010Prop53
 90
        2
102
RTVSPost2010PropOp53
 70
     1
102
RTVSPost2010Prop54
  1
strokes_ogs.tif
102
RTVSPost2010PropOp54
 70
     1
102
RTVSPost2010Prop55
280
     0
102
RTVSPost2010PropOp55
 70
     1
102
RTVSPost2010Prop56
140
1.0
102
RTVSPost2010PropOp56
 70
     1
102
RTVSPost2010Prop57
140
1.0
102
RTVSPost2010PropOp57
 70
     1
  0
XRECORD
  5
456
102
{ACAD_REACTORS
330
455
102
}
330
455
100
AcDbXrecord
280
     1
102
RTVSPropertyOp0
 70
     1
102
RTVSPropertyOp1
 70
     1
102
RTVSPropertyOp2
 70
     1
102
RTVSPropertyOp3
 70
     1
102
RTVSPropertyOp4
 70
     1
102
RTVSPropertyOp5
 70
     1
102
RTVSPropertyOp6
 70
     1
102
RTVSPropertyOp7
 70
     1
102
RTVSPropertyOp8
 70
     1
102
RTVSPropertyOp9
 70
     1
102
RTVSPropertyOp10
 70
     1
102
RTVSPropertyOp11
 70
     1
102
RTVSPropertyOp12
 70
     1
102
RTVSPropertyOp13
 70
     1
102
RTVSPropertyOp14
 70
     1
102
RTVSPropertyOp15
 70
     1
102
RTVSPropertyOp16
 70
     1
102
RTVSPropertyOp17
 70
     1
102
RTVSPropertyOp18
 70
     1
102
RTVSPropertyOp19
 70
     1
102
RTVSPropertyOp20
 70
     1
102
RTVSPropertyOp21
 70
     1
102
RTVSPropertyOp22
 70
     1
102
RTVSPropertyOp23
 70
     1
102
RTVSPropertyOp24
 70
     1
102
RTVSPropertyOp25
 70
     1
102
RTVSPropertyOp26
 70
     1
102
RTVSPropertyOp27
 70
     1
102
RTVSPropertyOp28
 70
     1
102
RTVSPropertyOp29
 70
     1
102
RTVSPropertyOp30
 70
     1
102
RTVSPropertyOp31
 70
     1
102
RTVSPropertyOp32
 70
     1
102
RTVSPropertyOp33
 70
     1
102
RTVSPropertyOp34
 70
     1
102
RTVSPropertyOp35
 70
     1
102
RTVSPropertyOp36
 70
     1
102
RTVSPropertyOp37
 70
     1
102
RTVSPropertyOp38
 70
     1
102
RTVSPropertyOp39
 70
     1
102
RTVSPropertyOp40
 70
     1
102
RTVSPropertyOp41
 70
     1
102
RTVSPropertyOp42
 70
     1
102
RTVSPropertyOp43
 70
     1
102
RTVSPropertyOp44
 70
     1
102
RTVSPropertyOp45
 70
     1
102
RTVSPropertyOp46
 70
     1
102
RTVSPropertyOp47
 70
     1
102
RTVSPropertyOp48
 70
     1
102
RTVSPropertyOp49
 70
     1
102
RTVSPropertyOp50
 70
     1
102
RTVSPropertyOp51
 70
     0
102
RTVSPropertyOp52
 70
     0
102
RTVSPropertyOp53
 70
     1
102
RTVSPropertyOp54
 70
     1
102
RTVSPropertyOp55
 70
     1
102
RTVSPropertyOp56
 70
     1
102
RTVSPropertyOp57
 70
     1
102
RTVSPost2010Prop28
280
     0
102
RTVSPost2010PropOp28
 70
     1
102
RTVSPost2010Prop29
280
     1
102
RTVSPost2010PropOp29
 70
     1
102
RTVSPost2010Prop30
280
     1
102
RTVSPost2010PropOp30
 70
     1
102
RTVSPost2010Prop31
280
     0
102
RTVSPost2010PropOp31
 70
     1
102
RTVSPost2010Prop32
280
     0
102
RTVSPost2010PropOp32
 70
     1
102
RTVSPost2010Prop33
280
     0
102
RTVSPost2010PropOp33
 70
     1
102
RTVSPost2010Prop34
280
     0
102
RTVSPost2010PropOp34
 70
     1
102
RTVSPost2010Prop35
280
     0
102
RTVSPost2010PropOp35
 70
     1
102
RTVSPost2010Prop36
280
     0
102
RTVSPost2010PropOp36
 70
     1
102
RTVSPost2010Prop37
 90
       50
102
RTVSPost2010PropOp37
 70
     1
102
RTVSPost2010Prop38
140
0.0
102
RTVSPost2010PropOp38
 70
     1
102
RTVSPost2010Prop39
140
1.0
102
RTVSPost2010PropOp39
 70
     1
102
RTVSPost2010Prop40
 90
        0
102
RTVSPost2010PropOp40
 70
     1
102
RTVSPost2010Prop41ColorIndex
 90
       18
102
RTVSPost2010Prop41ColorRGB
 90
        0
102
RTVSPost2010PropOp41
 70
     1
102
RTVSPost2010Prop42
 90
       50
102
RTVSPost2010PropOp42
 70
     1
102
RTVSPost2010Prop43
 90
        3
102
RTVSPost2010PropOp43
 70
     1
102
RTVSPost2010Prop44ColorIndex
 90
        5
102
RTVSPost2010Prop44ColorRGB
 90
      255
102
RTVSPost2010PropOp44
 70
     1
102
RTVSPost2010Prop45
280
     0
102
RTVSPost2010PropOp45
 70
     1
102
RTVSPost2010Prop46
 90
       50
102
RTVSPost2010PropOp46
 70
     1
102
RTVSPost2010Prop47
 90
       50
102
RTVSPost2010PropOp47
 70
     1
102
RTVSPost2010Prop48
 90
       50
102
RTVSPost2010PropOp48
 70
     1
102
RTVSPost2010Prop49
280
     0
102
RTVSPost2010PropOp49
 70
     1
102
RTVSPost2010Prop50
 90
       50
102
RTVSPost2010PropOp50
 70
     1
102
RTVSPost2010Prop51ColorIndex
 90
      256
102
RTVSPost2010Prop51ColorRGB
 90
-16777216
102
RTVSPost2010PropOp51
 70
     0
102
RTVSPost2010Prop52
140
1.0
102
RTVSPost2010PropOp52
 70
     0
102
RTVSPost2010Prop53
 90
        2
102
RTVSPost2010PropOp53
 70
     1
102
RTVSPost2010Prop54
  1
strokes_ogs.tif
102
RTVSPost2010PropOp54
 70
     1
102
RTVSPost2010Prop55
280
     0
102
RTVSPost2010PropOp55
 70
     1
102
RTVSPost2010Prop56
140
1.0
102
RTVSPost2010PropOp56
 70
     1
102
RTVSPost2010Prop57
140
1.0
102
RTVSPost2010PropOp57
 70
     1
  0
XRECORD
  5
446
102
{ACAD_REACTORS
330
445
102
}
330
445
100
AcDbXrecord
280
     1
102
RTVSPropertyOp0
 70
     1
102
RTVSPropertyOp1
 70
     1
102
RTVSPropertyOp2
 70
     1
102
RTVSPropertyOp3
 70
     1
102
RTVSPropertyOp4
 70
     1
102
RTVSPropertyOp5
 70
     1
102
RTVSPropertyOp6
 70
     1
102
RTVSPropertyOp7
 70
     1
102
RTVSPropertyOp8
 70
     1
102
RTVSPropertyOp9
 70
     1
102
RTVSPropertyOp10
 70
     1
102
RTVSPropertyOp11
 70
     1
102
RTVSPropertyOp12
 70
     1
102
RTVSPropertyOp13
 70
     1
102
RTVSPropertyOp14
 70
     1
102
RTVSPropertyOp15
 70
     1
102
RTVSPropertyOp16
 70
     1
102
RTVSPropertyOp17
 70
     1
102
RTVSPropertyOp18
 70
     1
102
RTVSPropertyOp19
 70
     1
102
RTVSPropertyOp20
 70
     1
102
RTVSPropertyOp21
 70
     1
102
RTVSPropertyOp22
 70
     1
102
RTVSPropertyOp23
 70
     1
102
RTVSPropertyOp24
 70
     1
102
RTVSPropertyOp25
 70
     1
102
RTVSPropertyOp26
 70
     1
102
RTVSPropertyOp27
 70
     1
102
RTVSPropertyOp28
 70
     1
102
RTVSPropertyOp29
 70
     1
102
RTVSPropertyOp30
 70
     1
102
RTVSPropertyOp31
 70
     1
102
RTVSPropertyOp32
 70
     1
102
RTVSPropertyOp33
 70
     1
102
RTVSPropertyOp34
 70
     1
102
RTVSPropertyOp35
 70
     1
102
RTVSPropertyOp36
 70
     1
102
RTVSPropertyOp37
 70
     1
102
RTVSPropertyOp38
 70
     1
102
RTVSPropertyOp39
 70
     1
102
RTVSPropertyOp40
 70
     1
102
RTVSPropertyOp41
 70
     1
102
RTVSPropertyOp42
 70
     1
102
RTVSPropertyOp43
 70
     1
102
RTVSPropertyOp44
 70
     1
102
RTVSPropertyOp45
 70
     1
102
RTVSPropertyOp46
 70
     1
102
RTVSPropertyOp47
 70
     1
102
RTVSPropertyOp48
 70
     1
102
RTVSPropertyOp49
 70
     1
102
RTVSPropertyOp50
 70
     1
102
RTVSPropertyOp51
 70
     0
102
RTVSPropertyOp52
 70
     0
102
RTVSPropertyOp53
 70
     1
102
RTVSPropertyOp54
 70
     1
102
RTVSPropertyOp55
 70
     1
102
RTVSPropertyOp56
 70
     1
102
RTVSPropertyOp57
 70
     1
102
RTVSPost2010Prop28
280
     0
102
RTVSPost2010PropOp28
 70
     1
102
RTVSPost2010Prop29
280
     1
102
RTVSPost2010PropOp29
 70
     1
102
RTVSPost2010Prop30
280
     1
102
RTVSPost2010PropOp30
 70
     1
102
RTVSPost2010Prop31
280
     0
102
RTVSPost2010PropOp31
 70
     1
102
RTVSPost2010Prop32
280
     0
102
RTVSPost2010PropOp32
 70
     1
102
RTVSPost2010Prop33
280
     0
102
RTVSPost2010PropOp33
 70
     1
102
RTVSPost2010Prop34
280
     0
102
RTVSPost2010PropOp34
 70
     1
102
RTVSPost2010Prop35
280
     0
102
RTVSPost2010PropOp35
 70
     1
102
RTVSPost2010Prop36
280
     0
102
RTVSPost2010PropOp36
 70
     1
102
RTVSPost2010Prop37
 90
       50
102
RTVSPost2010PropOp37
 70
     1
102
RTVSPost2010Prop38
140
0.0
102
RTVSPost2010PropOp38
 70
     1
102
RTVSPost2010Prop39
140
1.0
102
RTVSPost2010PropOp39
 70
     1
102
RTVSPost2010Prop40
 90
        0
102
RTVSPost2010PropOp40
 70
     1
102
RTVSPost2010Prop41ColorIndex
 90
       18
102
RTVSPost2010Prop41ColorRGB
 90
        0
102
RTVSPost2010PropOp41
 70
     1
102
RTVSPost2010Prop42
 90
       50
102
RTVSPost2010PropOp42
 70
     1
102
RTVSPost2010Prop43
 90
        3
102
RTVSPost2010PropOp43
 70
     1
102
RTVSPost2010Prop44ColorIndex
 90
        5
102
RTVSPost2010Prop44ColorRGB
 90
      255
102
RTVSPost2010PropOp44
 70
     1
102
RTVSPost2010Prop45
280
     0
102
RTVSPost2010PropOp45
 70
     1
102
RTVSPost2010Prop46
 90
       50
102
RTVSPost2010PropOp46
 70
     1
102
RTVSPost2010Prop47
 90
       50
102
RTVSPost2010PropOp47
 70
     1
102
RTVSPost2010Prop48
 90
       50
102
RTVSPost2010PropOp48
 70
     1
102
RTVSPost2010Prop49
280
     0
102
RTVSPost2010PropOp49
 70
     1
102
RTVSPost2010Prop50
 90
       50
102
RTVSPost2010PropOp50
 70
     1
102
RTVSPost2010Prop51ColorIndex
 90
      256
102
RTVSPost2010Prop51ColorRGB
 90
-16777216
102
RTVSPost2010PropOp51
 70
     0
102
RTVSPost2010Prop52
140
1.0
102
RTVSPost2010PropOp52
 70
     0
102
RTVSPost2010Prop53
 90
        2
102
RTVSPost2010PropOp53
 70
     1
102
RTVSPost2010Prop54
  1
strokes_ogs.tif
102
RTVSPost2010PropOp54
 70
     1
102
RTVSPost2010Prop55
280
     0
102
RTVSPost2010PropOp55
 70
     1
102
RTVSPost2010Prop56
140
1.0
102
RTVSPost2010PropOp56
 70
     1
102
RTVSPost2010Prop57
140
1.0
102
RTVSPost2010PropOp57
 70
     1
  0
XRECORD
  5
438
102
{ACAD_REACTORS
330
437
102
}
330
437
100
AcDbXrecord
280
     1
102
RTVSPropertyOp0
 70
     1
102
RTVSPropertyOp1
 70
     1
102
RTVSPropertyOp2
 70
     1
102
RTVSPropertyOp3
 70
     1
102
RTVSPropertyOp4
 70
     1
102
RTVSPropertyOp5
 70
     1
102
RTVSPropertyOp6
 70
     1
102
RTVSPropertyOp7
 70
     1
102
RTVSPropertyOp8
 70
     1
102
RTVSPropertyOp9
 70
     1
102
RTVSPropertyOp10
 70
     1
102
RTVSPropertyOp11
 70
     1
102
RTVSPropertyOp12
 70
     1
102
RTVSPropertyOp13
 70
     1
102
RTVSPropertyOp14
 70
     1
102
RTVSPropertyOp15
 70
     1
102
RTVSPropertyOp16
 70
     1
102
RTVSPropertyOp17
 70
     1
102
RTVSPropertyOp18
 70
     1
102
RTVSPropertyOp19
 70
     1
102
RTVSPropertyOp20
 70
     1
102
RTVSPropertyOp21
 70
     1
102
RTVSPropertyOp22
 70
     1
102
RTVSPropertyOp23
 70
     1
102
RTVSPropertyOp24
 70
     1
102
RTVSPropertyOp25
 70
     1
102
RTVSPropertyOp26
 70
     1
102
RTVSPropertyOp27
 70
     1
102
RTVSPropertyOp28
 70
     1
102
RTVSPropertyOp29
 70
     1
102
RTVSPropertyOp30
 70
     1
102
RTVSPropertyOp31
 70
     1
102
RTVSPropertyOp32
 70
     1
102
RTVSPropertyOp33
 70
     1
102
RTVSPropertyOp34
 70
     1
102
RTVSPropertyOp35
 70
     1
102
RTVSPropertyOp36
 70
     1
102
RTVSPropertyOp37
 70
     1
102
RTVSPropertyOp38
 70
     1
102
RTVSPropertyOp39
 70
     1
102
RTVSPropertyOp40
 70
     1
102
RTVSPropertyOp41
 70
     1
102
RTVSPropertyOp42
 70
     1
102
RTVSPropertyOp43
 70
     1
102
RTVSPropertyOp44
 70
     1
102
RTVSPropertyOp45
 70
     1
102
RTVSPropertyOp46
 70
     1
102
RTVSPropertyOp47
 70
     1
102
RTVSPropertyOp48
 70
     1
102
RTVSPropertyOp49
 70
     1
102
RTVSPropertyOp50
 70
     1
102
RTVSPropertyOp51
 70
     0
102
RTVSPropertyOp52
 70
     0
102
RTVSPropertyOp53
 70
     1
102
RTVSPropertyOp54
 70
     1
102
RTVSPropertyOp55
 70
     1
102
RTVSPropertyOp56
 70
     1
102
RTVSPropertyOp57
 70
     1
102
RTVSPost2010Prop28
280
     0
102
RTVSPost2010PropOp28
 70
     1
102
RTVSPost2010Prop29
280
     1
102
RTVSPost2010PropOp29
 70
     1
102
RTVSPost2010Prop30
280
     1
102
RTVSPost2010PropOp30
 70
     1
102
RTVSPost2010Prop31
280
     0
102
RTVSPost2010PropOp31
 70
     1
102
RTVSPost2010Prop32
280
     0
102
RTVSPost2010PropOp32
 70
     1
102
RTVSPost2010Prop33
280
     0
102
RTVSPost2010PropOp33
 70
     1
102
RTVSPost2010Prop34
280
     0
102
RTVSPost2010PropOp34
 70
     1
102
RTVSPost2010Prop35
280
     0
102
RTVSPost2010PropOp35
 70
     1
102
RTVSPost2010Prop36
280
     0
102
RTVSPost2010PropOp36
 70
     1
102
RTVSPost2010Prop37
 90
       50
102
RTVSPost2010PropOp37
 70
     1
102
RTVSPost2010Prop38
140
0.0
102
RTVSPost2010PropOp38
 70
     1
102
RTVSPost2010Prop39
140
1.0
102
RTVSPost2010PropOp39
 70
     1
102
RTVSPost2010Prop40
 90
        0
102
RTVSPost2010PropOp40
 70
     1
102
RTVSPost2010Prop41ColorIndex
 90
       18
102
RTVSPost2010Prop41ColorRGB
 90
        0
102
RTVSPost2010PropOp41
 70
     1
102
RTVSPost2010Prop42
 90
       50
102
RTVSPost2010PropOp42
 70
     1
102
RTVSPost2010Prop43
 90
        3
102
RTVSPost2010PropOp43
 70
     1
102
RTVSPost2010Prop44ColorIndex
 90
        5
102
RTVSPost2010Prop44ColorRGB
 90
      255
102
RTVSPost2010PropOp44
 70
     1
102
RTVSPost2010Prop45
280
     0
102
RTVSPost2010PropOp45
 70
     1
102
RTVSPost2010Prop46
 90
       50
102
RTVSPost2010PropOp46
 70
     1
102
RTVSPost2010Prop47
 90
       50
102
RTVSPost2010PropOp47
 70
     1
102
RTVSPost2010Prop48
 90
       50
102
RTVSPost2010PropOp48
 70
     1
102
RTVSPost2010Prop49
280
     0
102
RTVSPost2010PropOp49
 70
     1
102
RTVSPost2010Prop50
 90
       50
102
RTVSPost2010PropOp50
 70
     1
102
RTVSPost2010Prop51ColorIndex
 90
      256
102
RTVSPost2010Prop51ColorRGB
 90
-16777216
102
RTVSPost2010PropOp51
 70
     0
102
RTVSPost2010Prop52
140
1.0
102
RTVSPost2010PropOp52
 70
     0
102
RTVSPost2010Prop53
 90
        2
102
RTVSPost2010PropOp53
 70
     1
102
RTVSPost2010Prop54
  1
strokes_ogs.tif
102
RTVSPost2010PropOp54
 70
     1
102
RTVSPost2010Prop55
280
     0
102
RTVSPost2010PropOp55
 70
     1
102
RTVSPost2010Prop56
140
1.0
102
RTVSPost2010PropOp56
 70
     1
102
RTVSPost2010Prop57
140
1.0
102
RTVSPost2010PropOp57
 70
     1
  0
XRECORD
  5
458
102
{ACAD_REACTORS
330
457
102
}
330
457
100
AcDbXrecord
280
     1
102
RTVSPropertyOp0
 70
     1
102
RTVSPropertyOp1
 70
     1
102
RTVSPropertyOp2
 70
     1
102
RTVSPropertyOp3
 70
     1
102
RTVSPropertyOp4
 70
     1
102
RTVSPropertyOp5
 70
     1
102
RTVSPropertyOp6
 70
     1
102
RTVSPropertyOp7
 70
     1
102
RTVSPropertyOp8
 70
     1
102
RTVSPropertyOp9
 70
     1
102
RTVSPropertyOp10
 70
     1
102
RTVSPropertyOp11
 70
     1
102
RTVSPropertyOp12
 70
     1
102
RTVSPropertyOp13
 70
     1
102
RTVSPropertyOp14
 70
     1
102
RTVSPropertyOp15
 70
     1
102
RTVSPropertyOp16
 70
     1
102
RTVSPropertyOp17
 70
     1
102
RTVSPropertyOp18
 70
     1
102
RTVSPropertyOp19
 70
     1
102
RTVSPropertyOp20
 70
     1
102
RTVSPropertyOp21
 70
     1
102
RTVSPropertyOp22
 70
     1
102
RTVSPropertyOp23
 70
     1
102
RTVSPropertyOp24
 70
     1
102
RTVSPropertyOp25
 70
     1
102
RTVSPropertyOp26
 70
     1
102
RTVSPropertyOp27
 70
     1
102
RTVSPropertyOp28
 70
     1
102
RTVSPropertyOp29
 70
     1
102
RTVSPropertyOp30
 70
     1
102
RTVSPropertyOp31
 70
     1
102
RTVSPropertyOp32
 70
     1
102
RTVSPropertyOp33
 70
     1
102
RTVSPropertyOp34
 70
     1
102
RTVSPropertyOp35
 70
     1
102
RTVSPropertyOp36
 70
     1
102
RTVSPropertyOp37
 70
     1
102
RTVSPropertyOp38
 70
     1
102
RTVSPropertyOp39
 70
     1
102
RTVSPropertyOp40
 70
     1
102
RTVSPropertyOp41
 70
     1
102
RTVSPropertyOp42
 70
     1
102
RTVSPropertyOp43
 70
     1
102
RTVSPropertyOp44
 70
     1
102
RTVSPropertyOp45
 70
     1
102
RTVSPropertyOp46
 70
     1
102
RTVSPropertyOp47
 70
     1
102
RTVSPropertyOp48
 70
     1
102
RTVSPropertyOp49
 70
     1
102
RTVSPropertyOp50
 70
     1
102
RTVSPropertyOp51
 70
     0
102
RTVSPropertyOp52
 70
     0
102
RTVSPropertyOp53
 70
     1
102
RTVSPropertyOp54
 70
     1
102
RTVSPropertyOp55
 70
     1
102
RTVSPropertyOp56
 70
     1
102
RTVSPropertyOp57
 70
     1
102
RTVSPost2010Prop28
280
     0
102
RTVSPost2010PropOp28
 70
     1
102
RTVSPost2010Prop29
280
     1
102
RTVSPost2010PropOp29
 70
     1
102
RTVSPost2010Prop30
280
     1
102
RTVSPost2010PropOp30
 70
     1
102
RTVSPost2010Prop31
280
     0
102
RTVSPost2010PropOp31
 70
     1
102
RTVSPost2010Prop32
280
     0
102
RTVSPost2010PropOp32
 70
     1
102
RTVSPost2010Prop33
280
     0
102
RTVSPost2010PropOp33
 70
     1
102
RTVSPost2010Prop34
280
     0
102
RTVSPost2010PropOp34
 70
     1
102
RTVSPost2010Prop35
280
     0
102
RTVSPost2010PropOp35
 70
     1
102
RTVSPost2010Prop36
280
     0
102
RTVSPost2010PropOp36
 70
     1
102
RTVSPost2010Prop37
 90
       50
102
RTVSPost2010PropOp37
 70
     1
102
RTVSPost2010Prop38
140
0.0
102
RTVSPost2010PropOp38
 70
     1
102
RTVSPost2010Prop39
140
1.0
102
RTVSPost2010PropOp39
 70
     1
102
RTVSPost2010Prop40
 90
        0
102
RTVSPost2010PropOp40
 70
     1
102
RTVSPost2010Prop41ColorIndex
 90
       18
102
RTVSPost2010Prop41ColorRGB
 90
        0
102
RTVSPost2010PropOp41
 70
     1
102
RTVSPost2010Prop42
 90
       50
102
RTVSPost2010PropOp42
 70
     1
102
RTVSPost2010Prop43
 90
        3
102
RTVSPost2010PropOp43
 70
     1
102
RTVSPost2010Prop44ColorIndex
 90
        5
102
RTVSPost2010Prop44ColorRGB
 90
      255
102
RTVSPost2010PropOp44
 70
     1
102
RTVSPost2010Prop45
280
     0
102
RTVSPost2010PropOp45
 70
     1
102
RTVSPost2010Prop46
 90
       50
102
RTVSPost2010PropOp46
 70
     1
102
RTVSPost2010Prop47
 90
       50
102
RTVSPost2010PropOp47
 70
     1
102
RTVSPost2010Prop48
 90
       50
102
RTVSPost2010PropOp48
 70
     1
102
RTVSPost2010Prop49
280
     0
102
RTVSPost2010PropOp49
 70
     1
102
RTVSPost2010Prop50
 90
       50
102
RTVSPost2010PropOp50
 70
     1
102
RTVSPost2010Prop51ColorIndex
 90
      256
102
RTVSPost2010Prop51ColorRGB
 90
-16777216
102
RTVSPost2010PropOp51
 70
     0
102
RTVSPost2010Prop52
140
1.0
102
RTVSPost2010PropOp52
 70
     0
102
RTVSPost2010Prop53
 90
        2
102
RTVSPost2010PropOp53
 70
     1
102
RTVSPost2010Prop54
  1
strokes_ogs.tif
102
RTVSPost2010PropOp54
 70
     1
102
RTVSPost2010Prop55
280
     0
102
RTVSPost2010PropOp55
 70
     1
102
RTVSPost2010Prop56
140
1.0
102
RTVSPost2010PropOp56
 70
     1
102
RTVSPost2010Prop57
140
1.0
102
RTVSPost2010PropOp57
 70
     1
  0
ENDSEC
  0
EOF
