  0
SECTION
  2
HEADER
  9
$ACADVER
  1
AC1018
  9
$ACADMAINTVER
 70
     0
  9
$DWGCODEPAGE
  3
ANSI_932
  9
$INSBASE
 10
0.0
 20
0.0
 30
0.0
  9
$EXTMIN
 10
-420.0
 20
-297.0
 30
0.0
  9
$EXTMAX
 10
420.0
 20
297.0
 30
0.0
  9
$LIMMIN
 10
-420.0
 20
-297.0
  9
$LIMMAX
 10
420.0
 20
297.0
  9
$ORTHOMODE
 70
     0
  9
$REGENMODE
 70
     1
  9
$FILLMODE
 70
     1
  9
$QTEXTMODE
 70
     0
  9
$MIRRTEXT
 70
     1
  9
$LTSCALE
 40
2.0
  9
$ATTMODE
 70
     1
  9
$TEXTSIZE
 40
2.5
  9
$TRACEWID
 40
1.0
  9
$TEXTSTYLE
  7
Standard
  9
$CLAYER
  8
0
  9
$CELTYPE
  6
ByLayer
  9
$CECOLOR
 62
   256
  9
$CELTSCALE
 40
1.0
  9
$DISPSILH
 70
     0
  9
$DIMSCALE
 40
1.0
  9
$DIMASZ
 40
2.5
  9
$DIMEXO
 40
0.625
  9
$DIMDLI
 40
3.75
  9
$DIMRND
 40
0.0
  9
$DIMDLE
 40
0.0
  9
$DIMEXE
 40
1.25
  9
$DIMTP
 40
0.0
  9
$DIMTM
 40
0.0
  9
$DIMTXT
 40
2.5
  9
$DIMCEN
 40
2.5
  9
$DIMTSZ
 40
0.0
  9
$DIMTOL
 70
     0
  9
$DIMLIM
 70
     0
  9
$DIMTIH
 70
     0
  9
$DIMTOH
 70
     0
  9
$DIMSE1
 70
     0
  9
$DIMSE2
 70
     0
  9
$DIMTAD
 70
     1
  9
$DIMZIN
 70
     8
  9
$DIMBLK
  1

  9
$DIMASO
 70
     1
  9
$DIMSHO
 70
     1
  9
$DIMPOST
  1

  9
$DIMAPOST
  1

  9
$DIMALT
 70
     0
  9
$DIMALTD
 70
     3
  9
$DIMALTF
 40
0.03937007874016
  9
$DIMLFAC
 40
1.0
  9
$DIMTOFL
 70
     1
  9
$DIMTVP
 40
0.0
  9
$DIMTIX
 70
     0
  9
$DIMSOXD
 70
     0
  9
$DIMSAH
 70
     0
  9
$DIMBLK1
  1

  9
$DIMBLK2
  1

  9
$DIMSTYLE
  2
ISO-25
  9
$DIMCLRD
 70
     0
  9
$DIMCLRE
 70
     0
  9
$DIMCLRT
 70
     0
  9
$DIMTFAC
 40
1.0
  9
$DIMGAP
 40
0.625
  9
$DIMJUST
 70
     0
  9
$DIMSD1
 70
     0
  9
$DIMSD2
 70
     0
  9
$DIMTOLJ
 70
     0
  9
$DIMTZIN
 70
     8
  9
$DIMALTZ
 70
     0
  9
$DIMALTTZ
 70
     0
  9
$DIMUPT
 70
     0
  9
$DIMDEC
 70
     2
  9
$DIMTDEC
 70
     2
  9
$DIMALTU
 70
     2
  9
$DIMALTTD
 70
     3
  9
$DIMTXSTY
  7
Standard
  9
$DIMAUNIT
 70
     0
  9
$DIMADEC
 70
     0
  9
$DIMALTRND
 40
0.0
  9
$DIMAZIN
 70
     0
  9
$DIMDSEP
 70
    44
  9
$DIMATFIT
 70
     3
  9
$DIMFRAC
 70
     0
  9
$DIMLDRBLK
  1

  9
$DIMLUNIT
 70
     2
  9
$DIMLWD
 70
    -2
  9
$DIMLWE
 70
    -2
  9
$DIMTMOVE
 70
     0
  9
$LUNITS
 70
     2
  9
$LUPREC
 70
     4
  9
$SKETCHINC
 40
1.0
  9
$FILLETRAD
 40
10.0
  9
$AUNITS
 70
     0
  9
$AUPREC
 70
     0
  9
$MENU
  1
.
  9
$ELEVATION
 40
0.0
  9
$PELEVATION
 40
0.0
  9
$THICKNESS
 40
0.0
  9
$LIMCHECK
 70
     0
  9
$CHAMFERA
 40
0.0
  9
$CHAMFERB
 40
0.0
  9
$CHAMFERC
 40
0.0
  9
$CHAMFERD
 40
0.0
  9
$SKPOLY
 70
     0
  9
$TDCREATE
 40
2460049.590461991
  9
$TDUCREATE
 40
2460049.215461991
  9
$TDUPDATE
 40
2460049.590462141
  9
$TDUUPDATE
 40
2460049.215462141
  9
$TDINDWG
 40
0.0000000116
  9
$TDUSRTIMER
 40
0.0000000116
  9
$USRTIMER
 70
     1
  9
$ANGBASE
 50
0.0
  9
$ANGDIR
 70
     0
  9
$PDMODE
 70
     0
  9
$PDSIZE
 40
0.0
  9
$PLINEWID
 40
0.0
  9
$SPLFRAME
 70
     0
  9
$SPLINETYPE
 70
     6
  9
$SPLINESEGS
 70
     8
  9
$HANDSEED
  5
2E6
  9
$SURFTAB1
 70
     6
  9
$SURFTAB2
 70
     6
  9
$SURFTYPE
 70
     6
  9
$SURFU
 70
     6
  9
$SURFV
 70
     6
  9
$UCSBASE
  2

  9
$UCSNAME
  2

  9
$UCSORG
 10
0.0
 20
0.0
 30
0.0
  9
$UCSXDIR
 10
1.0
 20
0.0
 30
0.0
  9
$UCSYDIR
 10
0.0
 20
1.0
 30
0.0
  9
$UCSORTHOREF
  2

  9
$UCSORTHOVIEW
 70
     0
  9
$UCSORGTOP
 10
0.0
 20
0.0
 30
0.0
  9
$UCSORGBOTTOM
 10
0.0
 20
0.0
 30
0.0
  9
$UCSORGLEFT
 10
0.0
 20
0.0
 30
0.0
  9
$UCSORGRIGHT
 10
0.0
 20
0.0
 30
0.0
  9
$UCSORGFRONT
 10
0.0
 20
0.0
 30
0.0
  9
$UCSORGBACK
 10
0.0
 20
0.0
 30
0.0
  9
$PUCSBASE
  2

  9
$PUCSNAME
  2

  9
$PUCSORG
 10
0.0
 20
0.0
 30
0.0
  9
$PUCSXDIR
 10
1.0
 20
0.0
 30
0.0
  9
$PUCSYDIR
 10
0.0
 20
1.0
 30
0.0
  9
$PUCSORTHOREF
  2

  9
$PUCSORTHOVIEW
 70
     0
  9
$PUCSORGTOP
 10
0.0
 20
0.0
 30
0.0
  9
$PUCSORGBOTTOM
 10
0.0
 20
0.0
 30
0.0
  9
$PUCSORGLEFT
 10
0.0
 20
0.0
 30
0.0
  9
$PUCSORGRIGHT
 10
0.0
 20
0.0
 30
0.0
  9
$PUCSORGFRONT
 10
0.0
 20
0.0
 30
0.0
  9
$PUCSORGBACK
 10
0.0
 20
0.0
 30
0.0
  9
$USERI1
 70
     0
  9
$USERI2
 70
     0
  9
$USERI3
 70
     0
  9
$USERI4
 70
     0
  9
$USERI5
 70
     0
  9
$USERR1
 40
0.0
  9
$USERR2
 40
0.0
  9
$USERR3
 40
0.0
  9
$USERR4
 40
0.0
  9
$USERR5
 40
0.0
  9
$WORLDVIEW
 70
     1
  9
$SHADEDGE
 70
     3
  9
$SHADEDIF
 70
    70
  9
$TILEMODE
 70
     1
  9
$MAXACTVP
 70
    64
  9
$PINSBASE
 10
0.0
 20
0.0
 30
0.0
  9
$PLIMCHECK
 70
     0
  9
$PEXTMIN
 10
1.000000000000000E+20
 20
1.000000000000000E+20
 30
1.000000000000000E+20
  9
$PEXTMAX
 10
-1.000000000000000E+20
 20
-1.000000000000000E+20
 30
-1.000000000000000E+20
  9
$PLIMMIN
 10
0.0
 20
0.0
  9
$PLIMMAX
 10
420.0
 20
297.0
  9
$UNITMODE
 70
     0
  9
$VISRETAIN
 70
     1
  9
$PLINEGEN
 70
     0
  9
$PSLTSCALE
 70
     1
  9
$TREEDEPTH
 70
  3020
  9
$CMLSTYLE
  2
Standard
  9
$CMLJUST
 70
     0
  9
$CMLSCALE
 40
20.0
  9
$PROXYGRAPHICS
 70
     1
  9
$MEASUREMENT
 70
     1
  9
$CELWEIGHT
370
    -1
  9
$ENDCAPS
280
     0
  9
$JOINSTYLE
280
     0
  9
$LWDISPLAY
290
     0
  9
$INSUNITS
 70
     4
  9
$HYPERLINKBASE
  1

  9
$STYLESHEET
  1

  9
$XEDIT
290
     1
  9
$CEPSNTYPE
380
     0
  9
$PSTYLEMODE
290
     1
  9
$FINGERPRINTGUID
  2
{03F37DA0-43B8-447D-8EE3-D605D0232392}
  9
$VERSIONGUID
  2
{FAEB1C32-E019-11D5-929B-00C0DF256EC4}
  9
$EXTNAMES
290
     1
  9
$PSVPSCALE
 40
0.0
  9
$OLESTARTUP
290
     0
  9
$SORTENTS
280
   127
  9
$INDEXCTL
280
     0
  9
$HIDETEXT
280
     1
  9
$XCLIPFRAME
290
     0
  9
$HALOGAP
280
     0
  9
$OBSCOLOR
 70
   257
  9
$OBSLTYPE
280
     0
  9
$INTERSECTIONDISPLAY
280
     0
  9
$INTERSECTIONCOLOR
 70
   257
  9
$DIMASSOC
280
     2
  9
$PROJECTNAME
  1

  0
ENDSEC
  0
SECTION
  2
CLASSES
  0
CLASS
  1
ACDBDICTIONARYWDFLT
  2
AcDbDictionaryWithDefault
  3
ObjectDBX Classes
 90
        0
 91
        4
280
     0
281
     0
  0
CLASS
  1
VISUALSTYLE
  2
AcDbVisualStyle
  3
ObjectDBX Classes
 90
     4095
 91
        4
280
     0
281
     0
  0
CLASS
  1
MATERIAL
  2
AcDbMaterial
  3
ObjectDBX Classes
 90
     1153
 91
        4
280
     0
281
     0
  0
CLASS
  1
SCALE
  2
AcDbScale
  3
ObjectDBX Classes
 90
     1153
 91
        4
280
     0
281
     0
  0
CLASS
  1
TABLESTYLE
  2
AcDbTableStyle
  3
ObjectDBX Classes
 90
     4095
 91
        4
280
     0
281
     0
  0
CLASS
  1
MLEADERSTYLE
  2
AcDbMLeaderStyle
  3
ACDB_MLEADERSTYLE_CLASS
 90
     4095
 91
        4
280
     0
281
     0
  0
CLASS
  1
SUN
  2
AcDbSun
  3
SCENEOE
 90
     1153
 91
        4
280
     0
281
     0
  0
CLASS
  1
DICTIONARYVAR
  2
AcDbDictionaryVar
  3
ObjectDBX Classes
 90
        0
 91
        4
280
     0
281
     0
  0
CLASS
  1
CELLSTYLEMAP
  2
AcDbCellStyleMap
  3
ObjectDBX Classes
 90
     1152
 91
        4
280
     0
281
     0
  0
ENDSEC
  0
SECTION
  2
TABLES
  0
TABLE
  2
VPORT
  5
8
102
{ACAD_XDICTIONARY
360
29D
102
}
330
0
100
AcDbSymbolTable
 70
     1
  0
VPORT
  5
29
330
8
100
AcDbSymbolTableRecord
100
AcDbViewportTableRecord
  2
*Active
 70
     0
 10
0.0
 20
0.0
 11
1.0
 21
1.0
 12
0.0
 22
0.0
 13
0.0
 23
0.0
 14
10.0
 24
10.0
 15
10.0
 25
10.0
 16
0.0
 26
0.0
 36
1.0
 17
0.0
 27
0.0
 37
0.0
 40
653.4000000000001
 41
1.414141414141414
 42
50.0
 43
0.0
 44
0.0
 50
0.0
 51
0.0
 71
     0
 72
 10000
 73
     1
 74
     3
 75
     0
 76
     0
 77
     0
 78
     0
281
     0
 65
     1
110
0.0
120
0.0
130
0.0
111
1.0
121
0.0
131
0.0
112
0.0
122
1.0
132
0.0
 79
     0
146
0.0
  0
ENDTAB
  0
TABLE
  2
LTYPE
  5
5
330
0
100
AcDbSymbolTable
 70
     7
  0
LTYPE
  5
14
330
5
100
AcDbSymbolTableRecord
100
AcDbLinetypeTableRecord
  2
ByBlock
 70
     0
  3

 72
    65
 73
     0
 40
0.0
  0
LTYPE
  5
15
330
5
100
AcDbSymbolTableRecord
100
AcDbLinetypeTableRecord
  2
ByLayer
 70
     0
  3

 72
    65
 73
     0
 40
0.0
  0
LTYPE
  5
16
330
5
100
AcDbSymbolTableRecord
100
AcDbLinetypeTableRecord
  2
Continuous
 70
     0
  3
Solid line
 72
    65
 73
     0
 40
0.0
  0
LTYPE
  5
6F
330
5
100
AcDbSymbolTableRecord
100
AcDbLinetypeTableRecord
  2
JWW_PHANTOM1
 70
     0
  3
----  -  -  --------  -  -  ----
 72
    65
 73
     6
 40
6.773333333333333
 49
3.386666666666667
 74
     0
 49
-0.8466666666666667
 74
     0
 49
0.4233333333333333
 74
     0
 49
-0.8466666666666667
 74
     0
 49
0.4233333333333333
 74
     0
 49
-0.8466666666666667
 74
     0
  0
LTYPE
  5
70
330
5
100
AcDbSymbolTableRecord
100
AcDbLinetypeTableRecord
  2
JWW_DASHED1
 70
     0
  3
-  --  --  --  --  --  --  --  -
 72
    65
 73
     2
 40
1.693333333333333
 49
0.8466666666666667
 74
     0
 49
-0.8466666666666667
 74
     0
  0
LTYPE
  5
71
330
5
100
AcDbSymbolTableRecord
100
AcDbLinetypeTableRecord
  2
JWW_CENTER2
 70
     0
  3
-------------  --  -------------
 72
    65
 73
     4
 40
13.54666666666667
 49
11.00666666666667
 74
     0
 49
-0.8466666666666667
 74
     0
 49
0.8466666666666667
 74
     0
 49
-0.8466666666666667
 74
     0
  0
LTYPE
  5
72
330
5
100
AcDbSymbolTableRecord
100
AcDbLinetypeTableRecord
  2
JWW_HOJO
 70
     0
  3
  -   -   -   -   -   -   -   - 
 72
    65
 73
     2
 40
1.693333333333333
 49
-1.27
 74
     0
 49
0.4233333333333333
 74
     0
  0
LTYPE
  5
73
330
5
100
AcDbSymbolTableRecord
100
AcDbLinetypeTableRecord
  2
JWW_PHANTOM2
 70
     0
  3
------------  -  -  ------------
 72
    65
 73
     6
 40
13.54666666666667
 49
10.16
 74
     0
 49
-0.8466666666666667
 74
     0
 49
0.4233333333333333
 74
     0
 49
-0.8466666666666667
 74
     0
 49
0.4233333333333333
 74
     0
 49
-0.8466666666666667
 74
     0
  0
LTYPE
  5
74
330
5
100
AcDbSymbolTableRecord
100
AcDbLinetypeTableRecord
  2
JWW_CENTER1
 70
     0
  3
-----  --  ----------  --  -----
 72
    65
 73
     4
 40
6.773333333333333
 49
4.233333333333333
 74
     0
 49
-0.8466666666666667
 74
     0
 49
0.8466666666666667
 74
     0
 49
-0.8466666666666667
 74
     0
  0
ENDTAB
  0
TABLE
  2
LAYER
  5
2
330
0
100
AcDbSymbolTable
 70
     9
  0
LAYER
  5
10
330
2
100
AcDbSymbolTableRecord
100
AcDbLayerTableRecord
  2
0
 70
     0
 62
     7
  6
Continuous
370
    -3
390
F
  0
LAYER
  5
75
330
2
100
AcDbSymbolTableRecord
100
AcDbLayerTableRecord
  2
2-3
 70
     0
 62
     7
  6
Continuous
370
    -3
390
F
  0
LAYER
  5
76
330
2
100
AcDbSymbolTableRecord
100
AcDbLayerTableRecord
  2
F-5ﾚｲﾔ
 70
     0
 62
     7
  6
Continuous
370
    -3
390
F
  0
LAYER
  5
77
330
2
100
AcDbSymbolTableRecord
100
AcDbLayerTableRecord
  2
F-0ﾚｲﾔ
 70
     0
 62
     7
  6
Continuous
370
    -3
390
F
  0
LAYER
  5
78
330
2
100
AcDbSymbolTableRecord
100
AcDbLayerTableRecord
  2
2-4
 70
     0
 62
     7
  6
Continuous
370
    -3
390
F
  0
LAYER
  5
79
330
2
100
AcDbSymbolTableRecord
100
AcDbLayerTableRecord
  2
2-5
 70
     0
 62
     7
  6
Continuous
370
    -3
390
F
  0
LAYER
  5
7A
330
2
100
AcDbSymbolTableRecord
100
AcDbLayerTableRecord
  2
2-2
 70
     0
 62
     7
  6
Continuous
370
    -3
390
F
  0
LAYER
  5
7B
330
2
100
AcDbSymbolTableRecord
100
AcDbLayerTableRecord
  2
2-1
 70
     0
 62
     7
  6
Continuous
370
    -3
390
F
  0
LAYER
  5
7C
330
2
100
AcDbSymbolTableRecord
100
AcDbLayerTableRecord
  2
2-0
 70
     0
 62
     7
  6
Continuous
370
    -3
390
F
  0
ENDTAB
  0
TABLE
  2
STYLE
  5
3
330
0
100
AcDbSymbolTable
 70
     2
  0
STYLE
  5
11
330
3
100
AcDbSymbolTableRecord
100
AcDbTextStyleTableRecord
  2
Standard
 70
     0
 40
0.0
 41
1.0
 50
0.0
 71
     0
 42
2.5
  3
txt
  4

  0
STYLE
  5
6E
330
3
100
AcDbSymbolTableRecord
100
AcDbTextStyleTableRecord
  2
ＭＳ ゴシック
 70
     0
 40
1.0
 41
1.0
 50
0.0
 71
     0
 42
2.5
  3

  4

1001
ACAD
1000
MS Gothic
1071
    32817
  0
ENDTAB
  0
TABLE
  2
VIEW
  5
6
330
0
100
AcDbSymbolTable
 70
     0
  0
ENDTAB
  0
TABLE
  2
UCS
  5
7
330
0
100
AcDbSymbolTable
 70
     0
  0
ENDTAB
  0
TABLE
  2
APPID
  5
9
330
0
100
AcDbSymbolTable
 70
     2
  0
APPID
  5
12
330
9
100
AcDbSymbolTableRecord
100
AcDbRegAppTableRecord
  2
ACAD
 70
     0
  0
APPID
  5
2DC
330
9
100
AcDbSymbolTableRecord
100
AcDbRegAppTableRecord
  2
ACAD_MLEADERVER
 70
     0
  0
ENDTAB
  0
TABLE
  2
DIMSTYLE
  5
A
330
0
100
AcDbSymbolTable
 70
     1
100
AcDbDimStyleTable
  0
DIMSTYLE
105
27
330
A
100
AcDbSymbolTableRecord
100
AcDbDimStyleTableRecord
  2
ISO-25
 70
     0
 41
2.5
 42
0.625
 43
3.75
 44
1.25
 73
     0
 74
     0
 77
     1
 78
     8
140
2.5
141
2.5
143
0.03937007874016
147
0.625
171
     3
172
     1
178
     0
271
     2
272
     2
274
     3
278
    44
283
     0
284
     8
340
11
  0
ENDTAB
  0
TABLE
  2
BLOCK_RECORD
  5
1
330
0
100
AcDbSymbolTable
 70
     1
  0
BLOCK_RECORD
  5
1F
330
1
100
AcDbSymbolTableRecord
100
AcDbBlockTableRecord
  2
*Model_Space
340
22
  0
BLOCK_RECORD
  5
1B
330
1
100
AcDbSymbolTableRecord
100
AcDbBlockTableRecord
  2
*Paper_Space
340
1E
  0
BLOCK_RECORD
  5
23
330
1
100
AcDbSymbolTableRecord
100
AcDbBlockTableRecord
  2
*Paper_Space0
340
26
  0
ENDTAB
  0
ENDSEC
  0
SECTION
  2
BLOCKS
  0
BLOCK
  5
20
330
1F
100
AcDbEntity
  8
0
100
AcDbBlockBegin
  2
*Model_Space
 70
     0
 10
0.0
 20
0.0
 30
0.0
  3
*Model_Space
  1

  0
ENDBLK
  5
21
330
1F
100
AcDbEntity
  8
0
100
AcDbBlockEnd
  0
BLOCK
  5
1C
330
1B
100
AcDbEntity
 67
     1
  8
0
100
AcDbBlockBegin
  2
*Paper_Space
 70
     0
 10
0.0
 20
0.0
 30
0.0
  3
*Paper_Space
  1

  0
ENDBLK
  5
1D
330
1B
100
AcDbEntity
 67
     1
  8
0
100
AcDbBlockEnd
  0
BLOCK
  5
24
330
23
100
AcDbEntity
  8
0
100
AcDbBlockBegin
  2
*Paper_Space0
 70
     0
 10
0.0
 20
0.0
 30
0.0
  3
*Paper_Space0
  1

  0
ENDBLK
  5
25
330
23
100
AcDbEntity
  8
0
100
AcDbBlockEnd
  0
ENDSEC
  0
SECTION
  2
ENTITIES
  0
LWPOLYLINE
  5
7D
330
1F
100
AcDbEntity
  8
2-3
  6
Continuous
 62
     7
370
     9
100
AcDbPolyline
 90
        4
 70
     1
 43
0.4
 10
-14.30703875150339
 20
-123.3395996514649
 42
0.4142135623731
 10
-14.50703875150339
 20
-123.1395996514648
 42
0.4142135623731
 10
-14.70703875150339
 20
-123.3395996514649
 42
0.4142135623731
 10
-14.50703875150339
 20
-123.5395996514649
 42
0.4142135623731
  0
TEXT
  5
7E
330
1F
100
AcDbEntity
  8
F-5ﾚｲﾔ
  6
Continuous
 62
     2
370
     9
100
AcDbText
 10
-26.10362139917697
 20
-222.1560594308738
 30
0.0
 40
6.096
  1
鋳鉄製ルーフドレン　防水層塗掛け幅25mm　たて引き用　打込型
 41
0.6991379310344829
  7
ＭＳ ゴシック
100
AcDbText
  0
TEXT
  5
7F
330
1F
100
AcDbEntity
  8
F-0ﾚｲﾔ
  6
Continuous
 62
     2
370
     9
100
AcDbText
 10
-30.96238683127574
 20
-182.5187489711934
 30
0.0
 40
6.096
  1
※ご注文の際はＣ寸法をご指示ください。
 41
1.118421052631579
  7
ＭＳ ゴシック
100
AcDbText
  0
TEXT
  5
80
330
1F
100
AcDbEntity
  8
F-5ﾚｲﾔ
  6
Continuous
 62
     2
370
     9
100
AcDbText
 10
-26.0493264746228
 20
-231.7685625786955
 30
0.0
 40
6.096
  1
差し込み式　塗膜・モルタル防水用　　ＷＭＢ－１－５０　Ｃ＝指示
 41
0.6991935483870969
  7
ＭＳ ゴシック
100
AcDbText
  0
LINE
  5
81
330
1F
100
AcDbEntity
  8
2-4
  6
Continuous
 62
     7
370
     9
100
AcDbLine
 10
-46.50697712720472
 20
59.06507002584253
 30
0.0
 11
17.49303960444041
 21
59.06507002584253
 31
0.0
  0
LINE
  5
82
330
1F
100
AcDbEntity
  8
2-4
  6
Continuous
 62
     7
370
     9
100
AcDbLine
 10
-46.50697712720472
 20
59.06507002584253
 30
0.0
 11
-41.54975282033567
 21
59.71770098694279
 31
0.0
  0
LINE
  5
83
330
1F
100
AcDbEntity
  8
2-4
  6
Continuous
 62
     7
370
     9
100
AcDbLine
 10
-46.50697712720472
 20
59.06507002584253
 30
0.0
 11
-41.54975282033567
 21
58.41243906474227
 31
0.0
  0
LINE
  5
84
330
1F
100
AcDbEntity
  8
2-4
  6
Continuous
 62
     7
370
     9
100
AcDbLine
 10
17.49303960444041
 20
59.06507002584253
 30
0.0
 11
12.53581529757136
 21
59.71770098694279
 31
0.0
  0
LINE
  5
85
330
1F
100
AcDbEntity
  8
2-4
  6
Continuous
 62
     7
370
     9
100
AcDbLine
 10
17.49303960444041
 20
59.06507002584253
 30
0.0
 11
12.53581529757136
 21
58.41243906474227
 31
0.0
  0
LINE
  5
86
330
1F
100
AcDbEntity
  8
2-4
  6
Continuous
 62
     7
370
     9
100
AcDbLine
 10
-46.50697712720472
 20
59.66507002584253
 30
0.0
 11
-46.50697712720472
 21
48.31515619075783
 31
0.0
  0
LINE
  5
87
330
1F
100
AcDbEntity
  8
2-4
  6
Continuous
 62
     7
370
     9
100
AcDbLine
 10
17.49303960444041
 20
59.66507002584253
 30
0.0
 11
17.49303960444041
 21
48.31515619075783
 31
0.0
  0
LINE
  5
88
330
1F
100
AcDbEntity
  8
2-4
  6
Continuous
 62
     7
370
     9
100
AcDbLine
 10
-65.50695038013816
 20
72.97014776764078
 30
0.0
 11
36.49301285737386
 21
72.97014776764078
 31
0.0
  0
LINE
  5
89
330
1F
100
AcDbEntity
  8
2-4
  6
Continuous
 62
     7
370
     9
100
AcDbLine
 10
-65.50695038013816
 20
72.97014776764078
 30
0.0
 11
-60.54972607326911
 21
73.62277872874104
 31
0.0
  0
LINE
  5
8A
330
1F
100
AcDbEntity
  8
2-4
  6
Continuous
 62
     7
370
     9
100
AcDbLine
 10
-65.50695038013816
 20
72.97014776764078
 30
0.0
 11
-60.54972607326911
 21
72.31751680654052
 31
0.0
  0
LINE
  5
8B
330
1F
100
AcDbEntity
  8
2-4
  6
Continuous
 62
     7
370
     9
100
AcDbLine
 10
36.49301285737386
 20
72.97014776764078
 30
0.0
 11
31.5357885505048
 21
73.62277872874104
 31
0.0
  0
LINE
  5
8C
330
1F
100
AcDbEntity
  8
2-4
  6
Continuous
 62
     7
370
     9
100
AcDbLine
 10
36.49301285737386
 20
72.97014776764078
 30
0.0
 11
31.5357885505048
 21
72.31751680654052
 31
0.0
  0
LINE
  5
8D
330
1F
100
AcDbEntity
  8
2-4
  6
Continuous
 62
     7
370
     9
100
AcDbLine
 10
-65.50695038013816
 20
73.57014776764078
 30
0.0
 11
-65.50695038013816
 21
-16.68473941320273
 31
0.0
  0
LINE
  5
8E
330
1F
100
AcDbEntity
  8
2-4
  6
Continuous
 62
     7
370
     9
100
AcDbLine
 10
36.49301285737386
 20
73.57014776764078
 30
0.0
 11
36.49301285737386
 21
-16.68473941320273
 31
0.0
  0
LINE
  5
8F
330
1F
100
AcDbEntity
  8
2-4
  6
Continuous
 62
     7
370
     9
100
AcDbLine
 10
-68.00703250659359
 20
86.82136172047683
 30
0.0
 11
38.99295500358676
 21
86.82136172047683
 31
0.0
  0
LINE
  5
90
330
1F
100
AcDbEntity
  8
2-4
  6
Continuous
 62
     7
370
     9
100
AcDbLine
 10
-68.00703250659359
 20
86.82136172047683
 30
0.0
 11
-63.04980819972454
 21
87.47399268157709
 31
0.0
  0
LINE
  5
91
330
1F
100
AcDbEntity
  8
2-4
  6
Continuous
 62
     7
370
     9
100
AcDbLine
 10
-68.00703250659359
 20
86.82136172047683
 30
0.0
 11
-63.04980819972454
 21
86.16873075937657
 31
0.0
  0
LINE
  5
92
330
1F
100
AcDbEntity
  8
2-4
  6
Continuous
 62
     7
370
     9
100
AcDbLine
 10
38.99295500358676
 20
86.82136172047683
 30
0.0
 11
34.03573069671771
 21
87.47399268157709
 31
0.0
  0
LINE
  5
93
330
1F
100
AcDbEntity
  8
2-4
  6
Continuous
 62
     7
370
     9
100
AcDbLine
 10
38.99295500358676
 20
86.82136172047683
 30
0.0
 11
34.03573069671771
 21
86.16873075937657
 31
0.0
  0
LINE
  5
94
330
1F
100
AcDbEntity
  8
2-4
  6
Continuous
 62
     7
370
     9
100
AcDbLine
 10
-68.00703250659359
 20
87.42136172047682
 30
0.0
 11
-68.00703250659359
 21
-13.68478784071088
 31
0.0
  0
LINE
  5
95
330
1F
100
AcDbEntity
  8
2-4
  6
Continuous
 62
     7
370
     9
100
AcDbLine
 10
38.99295500358676
 20
87.42136172047682
 30
0.0
 11
38.99295500358676
 21
-13.68478784071088
 31
0.0
  0
LINE
  5
96
330
1F
100
AcDbEntity
  8
2-4
  6
Continuous
 62
     7
370
     9
100
AcDbLine
 10
-99.5070314461372
 20
99.97302178448956
 30
0.0
 11
70.49295394313037
 21
99.97302178448956
 31
0.0
  0
LINE
  5
97
330
1F
100
AcDbEntity
  8
2-4
  6
Continuous
 62
     7
370
     9
100
AcDbLine
 10
-99.5070314461372
 20
99.97302178448956
 30
0.0
 11
-94.54980713926815
 21
100.6256527455898
 31
0.0
  0
LINE
  5
98
330
1F
100
AcDbEntity
  8
2-4
  6
Continuous
 62
     7
370
     9
100
AcDbLine
 10
-99.5070314461372
 20
99.97302178448956
 30
0.0
 11
-94.54980713926815
 21
99.3203908233893
 31
0.0
  0
LINE
  5
99
330
1F
100
AcDbEntity
  8
2-4
  6
Continuous
 62
     7
370
     9
100
AcDbLine
 10
70.49295394313037
 20
99.97302178448956
 30
0.0
 11
65.53572963626132
 21
100.6256527455898
 31
0.0
  0
LINE
  5
9A
330
1F
100
AcDbEntity
  8
2-4
  6
Continuous
 62
     7
370
     9
100
AcDbLine
 10
70.49295394313037
 20
99.97302178448956
 30
0.0
 11
65.53572963626132
 21
99.3203908233893
 31
0.0
  0
LINE
  5
9B
330
1F
100
AcDbEntity
  8
2-4
  6
Continuous
 62
     7
370
     9
100
AcDbLine
 10
-99.5070314461372
 20
100.5730217844896
 30
0.0
 11
-99.5070314461372
 21
-19.68479597087646
 31
0.0
  0
LINE
  5
9C
330
1F
100
AcDbEntity
  8
2-4
  6
Continuous
 62
     7
370
     9
100
AcDbLine
 10
70.49295394313037
 20
100.5730217844896
 30
0.0
 11
70.49295394313037
 21
-19.68479597087652
 31
0.0
  0
LINE
  5
9D
330
1F
100
AcDbEntity
  8
2-4
  6
Continuous
 62
     7
370
     9
100
AcDbLine
 10
-37.00704299332898
 20
-125.2910215681432
 30
0.0
 11
7.992965490322149
 21
-125.2910215681432
 31
0.0
  0
LINE
  5
9E
330
1F
100
AcDbEntity
  8
2-4
  6
Continuous
 62
     7
370
     9
100
AcDbLine
 10
-37.00704299332898
 20
-125.2910215681432
 30
0.0
 11
-32.04981868645993
 21
-124.6383906070429
 31
0.0
  0
LINE
  5
9F
330
1F
100
AcDbEntity
  8
2-4
  6
Continuous
 62
     7
370
     9
100
AcDbLine
 10
-37.00704299332898
 20
-125.2910215681432
 30
0.0
 11
-32.04981868645993
 21
-125.9436525292435
 31
0.0
  0
LINE
  5
A0
330
1F
100
AcDbEntity
  8
2-4
  6
Continuous
 62
     7
370
     9
100
AcDbLine
 10
7.992965490322149
 20
-125.2910215681432
 30
0.0
 11
3.035741183453097
 21
-124.6383906070429
 31
0.0
  0
LINE
  5
A1
330
1F
100
AcDbEntity
  8
2-4
  6
Continuous
 62
     7
370
     9
100
AcDbLine
 10
7.992965490322149
 20
-125.2910215681432
 30
0.0
 11
3.035741183453097
 21
-125.9436525292435
 31
0.0
  0
LINE
  5
A2
330
1F
100
AcDbEntity
  8
2-4
  6
Continuous
 62
     7
370
     9
100
AcDbLine
 10
-37.00704299332898
 20
-125.8910215681432
 30
0.0
 11
-37.00704299332898
 21
-97.68489082280847
 31
0.0
  0
LINE
  5
A3
330
1F
100
AcDbEntity
  8
2-4
  6
Continuous
 62
     7
370
     9
100
AcDbLine
 10
7.992965490322149
 20
-125.8910215681432
 30
0.0
 11
7.992965490322149
 21
-97.68489082280847
 31
0.0
  0
LINE
  5
A4
330
1F
100
AcDbEntity
  8
2-4
  6
Continuous
 62
     7
370
     9
100
AcDbLine
 10
-40.00702956088139
 20
-138.7939371493935
 30
0.0
 11
10.99295205787462
 21
-138.7939371493935
 31
0.0
  0
LINE
  5
A5
330
1F
100
AcDbEntity
  8
2-4
  6
Continuous
 62
     7
370
     9
100
AcDbLine
 10
-40.00702956088139
 20
-138.7939371493935
 30
0.0
 11
-35.04980525401234
 21
-138.1413061882932
 31
0.0
  0
LINE
  5
A6
330
1F
100
AcDbEntity
  8
2-4
  6
Continuous
 62
     7
370
     9
100
AcDbLine
 10
-40.00702956088139
 20
-138.7939371493935
 30
0.0
 11
-35.04980525401234
 21
-139.4465681104938
 31
0.0
  0
LINE
  5
A7
330
1F
100
AcDbEntity
  8
2-4
  6
Continuous
 62
     7
370
     9
100
AcDbLine
 10
10.99295205787462
 20
-138.7939371493935
 30
0.0
 11
6.035727751005566
 21
-138.1413061882932
 31
0.0
  0
LINE
  5
A8
330
1F
100
AcDbEntity
  8
2-4
  6
Continuous
 62
     7
370
     9
100
AcDbLine
 10
10.99295205787462
 20
-138.7939371493935
 30
0.0
 11
6.035727751005566
 21
-139.4465681104938
 31
0.0
  0
LINE
  5
A9
330
1F
100
AcDbEntity
  8
2-4
  6
Continuous
 62
     7
370
     9
100
AcDbLine
 10
-40.00702956088139
 20
-139.3939371493935
 30
0.0
 11
-40.00702956088139
 21
-44.68483650387599
 31
0.0
  0
LINE
  5
AA
330
1F
100
AcDbEntity
  8
2-4
  6
Continuous
 62
     7
370
     9
100
AcDbLine
 10
10.99295205787462
 20
-139.3939371493935
 30
0.0
 11
10.99295205787462
 21
-44.68483650387599
 31
0.0
  0
LINE
  5
AB
330
1F
100
AcDbEntity
  8
2-4
  6
Continuous
 62
     7
370
     9
100
AcDbLine
 10
-54.50705795754681
 20
-152.8237984842434
 30
0.0
 11
25.49284047429745
 21
-152.8237984842434
 31
0.0
  0
LINE
  5
AC
330
1F
100
AcDbEntity
  8
2-4
  6
Continuous
 62
     7
370
     9
100
AcDbLine
 10
-54.50705795754681
 20
-152.8237984842434
 30
0.0
 11
-49.54983365067775
 21
-152.1711675231431
 31
0.0
  0
LINE
  5
AD
330
1F
100
AcDbEntity
  8
2-4
  6
Continuous
 62
     7
370
     9
100
AcDbLine
 10
-54.50705795754681
 20
-152.8237984842434
 30
0.0
 11
-49.54983365067775
 21
-153.4764294453437
 31
0.0
  0
LINE
  5
AE
330
1F
100
AcDbEntity
  8
2-4
  6
Continuous
 62
     7
370
     9
100
AcDbLine
 10
25.49284047429745
 20
-152.8237984842434
 30
0.0
 11
20.5356161674284
 21
-152.1711675231431
 31
0.0
  0
LINE
  5
AF
330
1F
100
AcDbEntity
  8
2-4
  6
Continuous
 62
     7
370
     9
100
AcDbLine
 10
25.49284047429745
 20
-152.8237984842434
 30
0.0
 11
20.5356161674284
 21
-153.4764294453437
 31
0.0
  0
LINE
  5
B0
330
1F
100
AcDbEntity
  8
2-4
  6
Continuous
 62
     7
370
     9
100
AcDbLine
 10
-54.50705795754681
 20
-153.4237984842434
 30
0.0
 11
-54.50705795754681
 21
-109.6849420782003
 31
0.0
  0
LINE
  5
B1
330
1F
100
AcDbEntity
  8
2-4
  6
Continuous
 62
     7
370
     9
100
AcDbLine
 10
25.49284047429745
 20
-153.4237984842434
 30
0.0
 11
25.49284047429745
 21
-109.6849420782003
 31
0.0
  0
LINE
  5
B2
330
1F
100
AcDbEntity
  8
2-4
  6
Continuous
 62
     7
370
     9
100
AcDbLine
 10
101.0006858293761
 20
-105.6849420782003
 30
0.0
 11
101.0006858293761
 21
-15.68482012571634
 31
0.0
  0
LINE
  5
B3
330
1F
100
AcDbEntity
  8
2-4
  6
Continuous
 62
     7
370
     9
100
AcDbLine
 10
101.0006858293761
 20
-105.6849420782003
 30
0.0
 11
100.3480548682758
 21
-100.7277177713312
 31
0.0
  0
LINE
  5
B4
330
1F
100
AcDbEntity
  8
2-4
  6
Continuous
 62
     7
370
     9
100
AcDbLine
 10
101.0006858293761
 20
-105.6849420782003
 30
0.0
 11
101.6533167904763
 21
-100.7277177713312
 31
0.0
  0
LINE
  5
B5
330
1F
100
AcDbEntity
  8
2-4
  6
Continuous
 62
     7
370
     9
100
AcDbLine
 10
101.0006858293761
 20
-15.68482012571634
 30
0.0
 11
100.3480548682758
 21
-20.64204443258539
 31
0.0
  0
LINE
  5
B6
330
1F
100
AcDbEntity
  8
2-4
  6
Continuous
 62
     7
370
     9
100
AcDbLine
 10
101.0006858293761
 20
-15.68482012571634
 30
0.0
 11
101.6533167904763
 21
-20.64204443258539
 31
0.0
  0
LINE
  5
B7
330
1F
100
AcDbEntity
  8
2-4
  6
Continuous
 62
     7
370
     9
100
AcDbLine
 10
101.6006858293761
 20
-105.6849420782003
 30
0.0
 11
29.49284047429745
 21
-105.6849420782003
 31
0.0
  0
LINE
  5
B8
330
1F
100
AcDbEntity
  8
2-4
  6
Continuous
 62
     7
370
     9
100
AcDbLine
 10
101.6006858293761
 20
-15.68482012571634
 30
0.0
 11
72.49291623801457
 21
-15.68482012571634
 31
0.0
  0
LINE
  5
B9
330
1F
100
AcDbEntity
  8
2-4
  6
Continuous
 62
     7
370
     9
100
AcDbLine
 10
101.0006858293761
 20
-15.68482012571634
 30
0.0
 11
101.0006858293761
 21
44.31515619075783
 31
0.0
  0
LINE
  5
BA
330
1F
100
AcDbEntity
  8
2-4
  6
Continuous
 62
     7
370
     9
100
AcDbLine
 10
101.0006858293761
 20
-15.68482012571634
 30
0.0
 11
100.3480548682758
 21
-10.72759581884729
 31
0.0
  0
LINE
  5
BB
330
1F
100
AcDbEntity
  8
2-4
  6
Continuous
 62
     7
370
     9
100
AcDbLine
 10
101.0006858293761
 20
-15.68482012571634
 30
0.0
 11
101.6533167904763
 21
-10.72759581884729
 31
0.0
  0
LINE
  5
BC
330
1F
100
AcDbEntity
  8
2-4
  6
Continuous
 62
     7
370
     9
100
AcDbLine
 10
101.0006858293761
 20
44.31515619075783
 30
0.0
 11
100.3480548682758
 21
39.35793188388878
 31
0.0
  0
LINE
  5
BD
330
1F
100
AcDbEntity
  8
2-4
  6
Continuous
 62
     7
370
     9
100
AcDbLine
 10
101.0006858293761
 20
44.31515619075783
 30
0.0
 11
101.6533167904763
 21
39.35793188388878
 31
0.0
  0
LINE
  5
BE
330
1F
100
AcDbEntity
  8
2-4
  6
Continuous
 62
     7
370
     9
100
AcDbLine
 10
101.6006858293761
 20
44.31515619075783
 30
0.0
 11
26.00397290974627
 21
44.31515619075783
 31
0.0
  0
TEXT
  5
BF
330
1F
100
AcDbEntity
  8
2-4
  6
Continuous
 62
     2
370
   211
100
AcDbText
 10
97.87268582937607
 20
10.06516803252075
 30
0.0
 40
6.096
  1
60
 50
90.0
 41
1.0625
  7
ＭＳ ゴシック
100
AcDbText
  0
LINE
  5
C0
330
1F
100
AcDbEntity
  8
2-4
  6
Continuous
 62
     7
370
     9
100
AcDbLine
 10
-108.667265896384
 20
-25.68483367599229
 30
0.0
 11
-108.667265896384
 21
44.31515619075783
 31
0.0
  0
LINE
  5
C1
330
1F
100
AcDbEntity
  8
2-4
  6
Continuous
 62
     7
370
     9
100
AcDbLine
 10
-108.667265896384
 20
-25.68483367599229
 30
0.0
 11
-109.3198968574843
 21
-20.72760936912324
 31
0.0
  0
LINE
  5
C2
330
1F
100
AcDbEntity
  8
2-4
  6
Continuous
 62
     7
370
     9
100
AcDbLine
 10
-108.667265896384
 20
-25.68483367599229
 30
0.0
 11
-108.0146349352838
 21
-20.72760936912324
 31
0.0
  0
LINE
  5
C3
330
1F
100
AcDbEntity
  8
2-4
  6
Continuous
 62
     7
370
     9
100
AcDbLine
 10
-108.667265896384
 20
44.31515619075783
 30
0.0
 11
-109.3198968574843
 21
39.35793188388878
 31
0.0
  0
LINE
  5
C4
330
1F
100
AcDbEntity
  8
2-4
  6
Continuous
 62
     7
370
     9
100
AcDbLine
 10
-108.667265896384
 20
44.31515619075783
 30
0.0
 11
-108.0146349352838
 21
39.35793188388878
 31
0.0
  0
LINE
  5
C5
330
1F
100
AcDbEntity
  8
2-4
  6
Continuous
 62
     7
370
     9
100
AcDbLine
 10
-109.267265896384
 20
-25.68483367599229
 30
0.0
 11
-67.68713723726592
 21
-25.68483367599229
 31
0.0
  0
LINE
  5
C6
330
1F
100
AcDbEntity
  8
2-4
  6
Continuous
 62
     7
370
     9
100
AcDbLine
 10
-109.267265896384
 20
44.31515619075783
 30
0.0
 11
-55.01791043251058
 21
44.31515619075783
 31
0.0
  0
TEXT
  5
C7
330
1F
100
AcDbEntity
  8
2-4
  6
Continuous
 62
     2
370
   211
100
AcDbText
 10
-111.795265896384
 20
5.065161257382769
 30
0.0
 40
6.096
  1
70
 50
90.0
 41
1.0625
  7
ＭＳ ゴシック
100
AcDbText
  0
LINE
  5
C8
330
1F
100
AcDbEntity
  8
2-4
  6
Continuous
 62
     7
370
     9
100
AcDbLine
 10
81.37110314352934
 20
-40.6848714989366
 30
0.0
 11
81.37110314352934
 21
-15.68482012571634
 31
0.0
  0
LINE
  5
C9
330
1F
100
AcDbEntity
  8
2-4
  6
Continuous
 62
     7
370
     9
100
AcDbLine
 10
81.37110314352934
 20
-40.6848714989366
 30
0.0
 11
80.71847218242908
 21
-35.72764719206755
 31
0.0
  0
LINE
  5
CA
330
1F
100
AcDbEntity
  8
2-4
  6
Continuous
 62
     7
370
     9
100
AcDbLine
 10
81.37110314352934
 20
-40.6848714989366
 30
0.0
 11
82.0237341046296
 21
-35.72764719206755
 31
0.0
  0
LINE
  5
CB
330
1F
100
AcDbEntity
  8
2-4
  6
Continuous
 62
     7
370
     9
100
AcDbLine
 10
81.37110314352934
 20
-15.68482012571634
 30
0.0
 11
80.71847218242908
 21
-20.64204443258539
 31
0.0
  0
LINE
  5
CC
330
1F
100
AcDbEntity
  8
2-4
  6
Continuous
 62
     7
370
     9
100
AcDbLine
 10
81.37110314352934
 20
-15.68482012571634
 30
0.0
 11
82.0237341046296
 21
-20.64204443258539
 31
0.0
  0
LINE
  5
CD
330
1F
100
AcDbEntity
  8
2-4
  6
Continuous
 62
     7
370
     9
100
AcDbLine
 10
81.97110314352933
 20
-40.6848714989366
 30
0.0
 11
29.49284047429745
 21
-40.6848714989366
 31
0.0
  0
TEXT
  5
CE
330
1F
100
AcDbEntity
  8
2-4
  6
Continuous
 62
     2
370
   211
100
AcDbText
 10
78.24310314352934
 20
-32.43484581232647
 30
0.0
 40
6.096
  1
25
 50
90.0
 41
1.0625
  7
ＭＳ ゴシック
100
AcDbText
  0
TEXT
  5
CF
330
1F
100
AcDbEntity
  8
2-5
  6
Continuous
 62
     7
370
     9
100
AcDbText
 10
-119.8634801756634
 20
-127.2255156635043
 30
0.0
 40
4.572
  1
スペーサー
 41
1.133333333333333
  7
ＭＳ ゴシック
100
AcDbText
  0
LINE
  5
D0
330
1F
100
AcDbEntity
  8
2-5
  6
Continuous
 62
     7
370
     9
100
AcDbLine
 10
-68.36346532927399
 20
-129.6849222830145
 30
0.0
 11
-138.1388729948176
 21
-129.6849222830145
 31
0.0
  0
LINE
  5
D1
330
1F
100
AcDbEntity
  8
2-5
  6
Continuous
 62
     7
370
     9
100
AcDbLine
 10
-54.50705795754681
 20
-105.6849420782003
 30
0.0
 11
-68.36346532927399
 21
-129.6849222830145
 31
0.0
  0
LINE
  5
D2
330
1F
100
AcDbEntity
  8
2-5
  6
Continuous
 62
     7
370
     9
100
AcDbLine
 10
-54.50705795754681
 20
-105.6849420782003
 30
0.0
 11
-57.55086470374619
 21
-109.6516993628287
 31
0.0
  0
LINE
  5
D3
330
1F
100
AcDbEntity
  8
2-5
  6
Continuous
 62
     7
370
     9
100
AcDbLine
 10
-54.50705795754681
 20
-105.6849420782003
 30
0.0
 11
-56.42051010598431
 21
-110.3043466390111
 31
0.0
  0
LINE
  5
D4
330
1F
100
AcDbEntity
  8
2-5
  6
Continuous
 62
     7
370
     9
100
AcDbLine
 10
-93.50698832091103
 20
-24.68474483331308
 30
0.0
 11
-95.42041572536635
 21
-29.30414939412385
 31
0.0
  0
LINE
  5
D5
330
1F
100
AcDbEntity
  8
2-5
  6
Continuous
 62
     7
370
     9
100
AcDbLine
 10
-93.50698832091103
 20
-24.68474483331308
 30
0.0
 11
-96.55079506711041
 21
-28.65150211794146
 31
0.0
  0
LINE
  5
D6
330
1F
100
AcDbEntity
  8
2-5
  6
Continuous
 62
     7
370
     9
100
AcDbLine
 10
-93.50698832091103
 20
-24.68474483331308
 30
0.0
 11
-107.363370948656
 21
-48.68474978210953
 31
0.0
  0
LINE
  5
D7
330
1F
100
AcDbEntity
  8
2-5
  6
Continuous
 62
     7
370
     9
100
AcDbLine
 10
-165.0978119326086
 20
-48.68474978210953
 30
0.0
 11
-107.363370948656
 21
-48.68474978210953
 31
0.0
  0
TEXT
  5
D8
330
1F
100
AcDbEntity
  8
2-5
  6
Continuous
 62
     7
370
     9
100
AcDbText
 10
-163.2766012260525
 20
-46.28863826922948
 30
0.0
 40
4.572
  1
本体：ＦＣ１５０
 41
1.145833333333333
  7
ＭＳ ゴシック
100
AcDbText
  0
TEXT
  5
D9
330
1F
100
AcDbEntity
  8
2-5
  6
Continuous
 62
     7
370
     9
100
AcDbText
 10
-154.1707266747434
 20
-54.78747860126073
 30
0.0
 40
4.572
  1
樹脂系塗装
 41
1.133333333333333
  7
ＭＳ ゴシック
100
AcDbText
  0
LINE
  5
DA
330
1F
100
AcDbEntity
  8
2-5
  6
Continuous
 62
     7
370
     9
100
AcDbLine
 10
-76.50691279285087
 20
-66.68466176422983
 30
0.0
 11
-78.42034019730619
 21
-71.30406632504061
 31
0.0
  0
LINE
  5
DB
330
1F
100
AcDbEntity
  8
2-5
  6
Continuous
 62
     7
370
     9
100
AcDbLine
 10
-76.50691279285087
 20
-66.68466176422983
 30
0.0
 11
-79.55071953905025
 21
-70.65141904885822
 31
0.0
  0
LINE
  5
DC
330
1F
100
AcDbEntity
  8
2-5
  6
Continuous
 62
     7
370
     9
100
AcDbLine
 10
-76.50691279285087
 20
-66.68466176422983
 30
0.0
 11
-90.36329542059588
 21
-90.68466671302623
 31
0.0
  0
LINE
  5
DD
330
1F
100
AcDbEntity
  8
2-5
  6
Continuous
 62
     7
370
     9
100
AcDbLine
 10
-157.6614712020208
 20
-90.68466671302623
 30
0.0
 11
-90.36329542059593
 21
-90.68466671302623
 31
0.0
  0
LINE
  5
DE
330
1F
100
AcDbEntity
  8
2-5
  6
Continuous
 62
     7
370
     9
100
AcDbLine
 10
-32.11556659055987
 20
44.31515619075783
 30
0.0
 11
-35.15937333675913
 21
48.28191347538622
 31
0.0
  0
LINE
  5
DF
330
1F
100
AcDbEntity
  8
2-5
  6
Continuous
 62
     7
370
     9
100
AcDbLine
 10
-32.11556659055987
 20
44.31515619075783
 30
0.0
 11
-34.02901873899737
 21
48.93456075156861
 31
0.0
  0
LINE
  5
E0
330
1F
100
AcDbEntity
  8
2-5
  6
Continuous
 62
     7
370
     9
100
AcDbLine
 10
-57.39091529555759
 20
37.72484508400442
 30
0.0
 11
-60.43472204175686
 21
41.69160236863281
 31
0.0
  0
LINE
  5
E1
330
1F
100
AcDbEntity
  8
2-5
  6
Continuous
 62
     7
370
     9
100
AcDbLine
 10
-57.39091529555759
 20
37.72484508400442
 30
0.0
 11
-59.30436744399509
 21
42.3442496448152
 31
0.0
  0
LINE
  5
E2
330
1F
100
AcDbEntity
  8
2-5
  6
Continuous
 62
     7
370
     9
100
AcDbLine
 10
-57.39091529555759
 20
37.72484508400442
 30
0.0
 11
-96.82489467757443
 21
106.0264400601818
 31
0.0
  0
LINE
  5
E3
330
1F
100
AcDbEntity
  8
2-5
  6
Continuous
 62
     7
370
     9
100
AcDbLine
 10
-32.11556659055987
 20
44.31515619075783
 30
0.0
 11
-86.80870593725172
 21
139.0463679572513
 31
0.0
  0
TEXT
  5
E4
330
1F
100
AcDbEntity
  8
2-5
  6
Continuous
 62
     7
370
     9
100
AcDbText
 10
-146.5753843990595
 20
132.378065935503
 30
0.0
 40
4.572
  1
樹脂系塗装
 41
1.133333333333335
  7
ＭＳ ゴシック
100
AcDbText
  0
TEXT
  5
E5
330
1F
100
AcDbEntity
  8
2-5
  6
Continuous
 62
     7
370
     9
100
AcDbText
 10
-174.0636161610951
 20
141.6847725444557
 30
0.0
 40
4.572
  1
ストレーナー：ＦＣ１５０
 41
1.152777777777779
  7
ＭＳ ゴシック
100
AcDbText
  0
LINE
  5
E6
330
1F
100
AcDbEntity
  8
2-5
  6
Continuous
 62
     7
370
     9
100
AcDbLine
 10
-174.0636169858944
 20
139.0463679572513
 30
0.0
 11
-86.80870593725172
 21
139.0463679572513
 31
0.0
  0
LINE
  5
E7
330
1F
100
AcDbEntity
  8
2-5
  6
Continuous
 62
     7
370
     9
100
AcDbLine
 10
32.4929374471422
 20
-15.20339307663183
 30
0.0
 11
33.1455847233247
 21
-10.2461589259773
 31
0.0
  0
LINE
  5
E8
330
1F
100
AcDbEntity
  8
2-5
  6
Continuous
 62
     7
370
     9
100
AcDbLine
 10
32.4929374471422
 20
-15.20339307663183
 30
0.0
 11
34.40634010761522
 21
-10.58398851582105
 31
0.0
  0
LINE
  5
E9
330
1F
100
AcDbEntity
  8
2-5
  6
Continuous
 62
     7
370
     9
100
AcDbLine
 10
32.4929374471422
 20
-15.20339307663183
 30
0.0
 11
67.49068358138777
 21
115.4097622997394
 31
0.0
  0
TEXT
  5
EA
330
1F
100
AcDbEntity
  8
2-4
  6
Continuous
 62
     2
370
   211
100
AcDbText
 10
-25.50703875150342
 20
103.1010217844896
 30
0.0
 40
6.096
  1
φ170
 41
1.1
  7
ＭＳ ゴシック
100
AcDbText
  0
TEXT
  5
EB
330
1F
100
AcDbEntity
  8
2-4
  6
Continuous
 62
     2
370
   211
100
AcDbText
 10
-25.50703875150342
 20
89.94936172047683
 30
0.0
 40
6.096
  1
φ107
 41
1.1
  7
ＭＳ ゴシック
100
AcDbText
  0
TEXT
  5
EC
330
1F
100
AcDbEntity
  8
2-4
  6
Continuous
 62
     2
370
   211
100
AcDbText
 10
-25.50696876138215
 20
76.09814776764078
 30
0.0
 40
6.096
  1
φ102
 41
1.1
  7
ＭＳ ゴシック
100
AcDbText
  0
TEXT
  5
ED
330
1F
100
AcDbEntity
  8
2-4
  6
Continuous
 62
     2
370
   211
100
AcDbText
 10
-23.25696876138215
 20
62.19307002584253
 30
0.0
 40
6.096
  1
φ64
 41
1.09375
  7
ＭＳ ゴシック
100
AcDbText
  0
TEXT
  5
EE
330
1F
100
AcDbEntity
  8
2-4
  6
Continuous
 62
     2
370
   211
100
AcDbText
 10
-23.25703875150342
 20
-122.1630215681432
 30
0.0
 40
6.096
  1
φ45
 41
1.09375
  7
ＭＳ ゴシック
100
AcDbText
  0
TEXT
  5
EF
330
1F
100
AcDbEntity
  8
2-4
  6
Continuous
 62
     2
370
   211
100
AcDbText
 10
-23.25703875150339
 20
-135.6659371493935
 30
0.0
 40
6.096
  1
φ51
 41
1.09375
  7
ＭＳ ゴシック
100
AcDbText
  0
TEXT
  5
F0
330
1F
100
AcDbEntity
  8
2-4
  6
Continuous
 62
     2
370
   211
100
AcDbText
 10
-23.25710874162468
 20
-149.6957984842434
 30
0.0
 40
6.096
  1
φ80
 41
1.09375
  7
ＭＳ ゴシック
100
AcDbText
  0
LINE
  5
F1
330
1F
100
AcDbEntity
  8
2-2
  6
Continuous
 62
     7
370
     9
100
AcDbLine
 10
16.87954119653893
 20
-73.33981242444638
 30
0.0
 11
30.66651023781095
 21
-70.90877555261362
 31
0.0
  0
LINE
  5
F2
330
1F
100
AcDbEntity
  8
2-2
  6
Continuous
 62
     7
370
     9
100
AcDbLine
 10
17.57410566238941
 20
-77.27906641930342
 30
0.0
 11
31.36116219131299
 21
-74.84799455240999
 31
0.0
  0
LINE
  5
F3
330
1F
100
AcDbEntity
  8
2-2
  6
Continuous
 62
     4
370
     9
100
AcDbLine
 10
25.49284047429746
 20
-75.88269351005208
 30
0.0
 11
25.49284047429745
 21
-105.6849420782003
 31
0.0
  0
LINE
  5
F4
330
1F
100
AcDbEntity
  8
2-2
  6
Continuous
 62
     4
370
     9
100
AcDbLine
 10
22.99293332314517
 20
-76.32352628880601
 30
0.0
 11
22.99293332314517
 21
-105.6849420782003
 31
0.0
  0
LINE
  5
F5
330
1F
100
AcDbEntity
  8
2-2
  6
Continuous
 62
     7
370
     9
100
AcDbLine
 10
-60.6204150890924
 20
-73.33981242444638
 30
0.0
 11
-46.83341105275974
 21
-70.90877555261362
 31
0.0
  0
LINE
  5
F6
330
1F
100
AcDbEntity
  8
2-2
  6
Continuous
 62
     7
370
     9
100
AcDbLine
 10
-59.92585062324189
 20
-77.27906641930342
 30
0.0
 11
-46.13879409431831
 21
-74.84799455240999
 31
0.0
  0
LINE
  5
F7
330
1F
100
AcDbEntity
  8
2-2
  6
Continuous
 62
     4
370
     9
100
AcDbLine
 10
-52.00708081627325
 20
-75.88269351005208
 30
0.0
 11
-52.00708081627326
 21
-105.6849420782003
 31
0.0
  0
LINE
  5
F8
330
1F
100
AcDbEntity
  8
2-2
  6
Continuous
 62
     4
370
     9
100
AcDbLine
 10
-54.50705795754677
 20
-76.32352628880601
 30
0.0
 11
-54.50705795754678
 21
-105.6849420782002
 31
0.0
  0
LINE
  5
F9
330
1F
100
AcDbEntity
  8
2-2
  6
Continuous
 62
     4
370
     9
100
AcDbLine
 10
-54.50705795754678
 20
-105.6849420782002
 30
0.0
 11
25.49284047429745
 21
-105.6849420782003
 31
0.0
  0
LINE
  5
FA
330
1F
100
AcDbEntity
  8
2-2
  6
Continuous
 62
     4
370
     9
100
AcDbLine
 10
-54.50705795754676
 20
-40.68487149893659
 30
0.0
 11
-54.50705795754677
 21
-72.26185957186583
 31
0.0
  0
LINE
  5
FB
330
1F
100
AcDbEntity
  8
2-2
  6
Continuous
 62
     4
370
     9
100
AcDbLine
 10
-52.00708081627324
 20
-40.6848714989366
 30
0.0
 11
-52.00708081627325
 21
-71.82099179805128
 31
0.0
  0
LINE
  5
FC
330
1F
100
AcDbEntity
  8
2-2
  6
Continuous
 62
     4
370
     9
100
AcDbLine
 10
22.99293332314518
 20
-40.6848714989366
 30
0.0
 11
22.99293332314517
 21
-72.26185957186583
 31
0.0
  0
LINE
  5
FD
330
1F
100
AcDbEntity
  8
2-2
  6
Continuous
 62
     4
370
     9
100
AcDbLine
 10
25.49284047429747
 20
-40.68487149893662
 30
0.0
 11
25.49284047429746
 21
-71.82099179805128
 31
0.0
  0
LINE
  5
FE
330
1F
100
AcDbEntity
  8
2-3
  6
Continuous
 62
     4
370
     9
100
AcDbLine
 10
37.31140734526299
 20
-17.02908538968984
 30
0.0
 11
37.4928917296893
 21
-19.10338261346214
 31
0.0
  0
LINE
  5
FF
330
1F
100
AcDbEntity
  8
2-3
  6
Continuous
 62
     4
370
     9
100
AcDbLine
 10
29.66670135561681
 20
-15.20339307663181
 30
0.0
 11
35.31899856336447
 21
-15.20339307663181
 31
0.0
  0
LINE
  5
100
330
1F
100
AcDbEntity
  8
2-3
  6
Continuous
 62
     4
370
     9
100
AcDbLine
 10
27.49291317447394
 20
-19.10338261346214
 30
0.0
 11
37.4928917296893
 21
-19.10338261346214
 31
0.0
  0
LINE
  5
101
330
1F
100
AcDbEntity
  8
2-3
  6
Continuous
 62
     4
370
     9
100
AcDbLine
 10
27.6743975589002
 20
-17.02908538968984
 30
0.0
 11
27.49291317447394
 21
-19.10338261346214
 31
0.0
  0
LINE
  5
102
330
1F
100
AcDbEntity
  8
2-3
  6
JWW_PHANTOM1
 62
     4
370
     9
100
AcDbLine
 10
-59.84814409111337
 20
37.89587223918626
 30
0.0
 11
-39.44590126121244
 21
36.47584266894917
 31
0.0
  0
LINE
  5
103
330
1F
100
AcDbEntity
  8
2-3
  6
Continuous
 62
     4
370
     9
100
AcDbLine
 10
29.99296030586869
 20
-31.10339887379337
 30
0.0
 11
29.49295087958974
 21
-30.60338944751442
 31
0.0
  0
LINE
  5
104
330
1F
100
AcDbEntity
  8
2-3
  6
Continuous
 62
     4
370
     9
100
AcDbLine
 10
29.49295087958974
 20
-30.60338944751442
 30
0.0
 11
35.49292401469474
 21
-30.60338944751442
 31
0.0
  0
LINE
  5
105
330
1F
100
AcDbEntity
  8
2-3
  6
Continuous
 62
     4
370
     9
100
AcDbLine
 10
29.99296030586869
 20
-31.10339887379337
 30
0.0
 11
34.99291458841579
 21
-31.10339887379337
 31
0.0
  0
LINE
  5
106
330
1F
100
AcDbEntity
  8
2-3
  6
Continuous
 62
     4
370
     9
100
AcDbLine
 10
35.49292401469474
 20
-30.60338944751442
 30
0.0
 11
34.99291458841579
 21
-31.10339887379337
 31
0.0
  0
LINE
  5
107
330
1F
100
AcDbEntity
  8
2-3
  6
Continuous
 62
     4
370
     9
100
AcDbLine
 10
29.49288088946851
 20
-19.10338261346214
 30
0.0
 11
29.49288088946851
 21
-30.60338944751442
 31
0.0
  0
LINE
  5
108
330
1F
100
AcDbEntity
  8
2-3
  6
Continuous
 62
     4
370
     9
100
AcDbLine
 10
34.99291458841579
 20
-19.10338261346214
 30
0.0
 11
34.99291458841579
 21
-31.10339887379337
 31
0.0
  0
LINE
  5
109
330
1F
100
AcDbEntity
  8
2-3
  6
Continuous
 62
     4
370
     9
100
AcDbLine
 10
29.99296030586869
 20
-19.10338261346214
 30
0.0
 11
29.99296030586869
 21
-31.10339887379337
 31
0.0
  0
LINE
  5
10A
330
1F
100
AcDbEntity
  8
2-3
  6
Continuous
 62
     4
370
     9
100
AcDbLine
 10
35.49285402457345
 20
-19.10338261346214
 30
0.0
 11
35.49285402457345
 21
-30.60338944751442
 31
0.0
  0
LINE
  5
10B
330
1F
100
AcDbEntity
  8
2-1
  6
Continuous
 62
     6
370
     9
100
AcDbLine
 10
35.65383130347068
 20
-24.8809971333252
 30
0.0
 11
36.49301285737387
 21
-20.68473941320275
 31
0.0
  0
LINE
  5
10C
330
1F
100
AcDbEntity
  8
2-1
  6
JWW_DASHED1
 62
     6
370
     9
100
AcDbLine
 10
18.53704724821008
 20
29.31518835793476
 30
0.0
 11
23.11755073404802
 21
28.31520450043747
 31
0.0
  0
LINE
  5
10D
330
1F
100
AcDbEntity
  8
2-1
  6
Continuous
 62
     6
370
     9
100
AcDbLine
 10
-47.55098477097432
 20
29.31518835793476
 30
0.0
 11
-52.13148825681225
 21
28.31520450043747
 31
0.0
  0
LINE
  5
10E
330
1F
100
AcDbEntity
  8
2-1
  6
Continuous
 62
     6
370
     9
100
AcDbLine
 10
26.54682171034655
 20
-24.58371409327481
 30
0.0
 11
27.74302287279529
 21
-20.24737114545115
 31
0.0
  0
LINE
  5
10F
330
1F
100
AcDbEntity
  8
2-1
  6
Continuous
 62
     6
370
     9
100
AcDbLine
 10
22.17065438352616
 20
-22.89310271424789
 30
0.0
 11
17.49303960444044
 21
44.31515619075783
 31
0.0
  0
LINE
  5
110
330
1F
100
AcDbEntity
  8
2-1
  6
Continuous
 62
     6
370
     9
100
AcDbLine
 10
-64.66776882623493
 20
-24.88099713332517
 30
0.0
 11
-65.50695038013818
 21
-20.68473941320272
 31
0.0
  0
LINE
  5
111
330
1F
100
AcDbEntity
  8
2-1
  6
Continuous
 62
     6
370
     9
100
AcDbLine
 10
26.76088649621921
 20
-18.55431011218019
 30
0.0
 11
27.76090534877711
 21
-20.18256029316473
 31
0.0
  0
LINE
  5
112
330
1F
100
AcDbEntity
  8
2-1
  6
Continuous
 62
     6
370
     9
100
AcDbLine
 10
26.29993155760316
 20
-17.41007661476675
 30
0.0
 11
22.0039729097463
 21
44.31515619075783
 31
0.0
  0
LINE
  5
113
330
1F
100
AcDbEntity
  8
2-1
  6
Continuous
 62
     6
370
     9
100
AcDbLine
 10
-57.27910419768689
 20
-20.2734074705597
 30
0.0
 11
-65.50695038013818
 21
-20.68473941320272
 31
0.0
  0
LINE
  5
114
330
1F
100
AcDbEntity
  8
2-1
  6
Continuous
 62
     6
370
     9
100
AcDbLine
 10
-51.01791043251055
 20
44.31515619075783
 30
0.0
 11
22.0039729097463
 21
44.31515619075783
 31
0.0
  0
LINE
  5
115
330
1F
100
AcDbEntity
  8
2-1
  6
Continuous
 62
     6
370
     9
100
AcDbLine
 10
35.49292401469474
 20
-19.63341780176148
 30
0.0
 11
36.49301285737387
 21
-20.68473941320275
 31
0.0
  0
LINE
  5
116
330
1F
100
AcDbEntity
  8
2-1
  6
Continuous
 62
     6
370
     9
100
AcDbLine
 10
28.19519405119327
 20
-19.26869927987747
 30
0.0
 11
29.49291588452913
 21
-19.33358012228513
 31
0.0
  0
LINE
  5
117
330
1F
100
AcDbEntity
  8
2-1
  6
Continuous
 62
     6
370
     9
100
AcDbLine
 10
-63.68713723726593
 20
-25.68483367599228
 30
0.0
 11
28.61184524305197
 21
-25.68483367599231
 31
0.0
  0
LINE
  5
118
330
1F
100
AcDbEntity
  8
2-3
  6
Continuous
 62
     3
370
     9
100
AcDbLine
 10
29.49291588452913
 20
-35.68484722626829
 30
0.0
 11
35.49288901963406
 21
-35.68484722626829
 31
0.0
  0
LINE
  5
119
330
1F
100
AcDbEntity
  8
2-3
  6
Continuous
 62
     3
370
     9
100
AcDbLine
 10
29.99292531080808
 20
-36.68479608870496
 30
0.0
 11
34.99287959335511
 21
-36.68479608870496
 31
0.0
  0
LINE
  5
11A
330
1F
100
AcDbEntity
  8
2-3
  6
Continuous
 62
     3
370
     9
100
AcDbLine
 10
34.99287959335511
 20
-36.68479608870496
 30
0.0
 11
32.49290245208159
 21
-38.12813236932152
 31
0.0
  0
LINE
  5
11B
330
1F
100
AcDbEntity
  8
2-3
  6
Continuous
 62
     3
370
     9
100
AcDbLine
 10
29.99292531080808
 20
-36.68479608870496
 30
0.0
 11
32.49290245208159
 21
-38.12813236932152
 31
0.0
  0
LINE
  5
11C
330
1F
100
AcDbEntity
  8
2-3
  6
JWW_CENTER2
 62
     3
370
     9
100
AcDbLine
 10
32.49293744714221
 20
-38.46132034157807
 30
0.0
 11
32.49293744714221
 21
-12.46884404395655
 31
0.0
  0
LINE
  5
11D
330
1F
100
AcDbEntity
  8
2-3
  6
Continuous
 62
     3
370
     9
100
AcDbLine
 10
34.99291458841579
 20
-31.10339887379337
 30
0.0
 11
34.99287959335511
 21
-36.68479608870496
 31
0.0
  0
LINE
  5
11E
330
1F
100
AcDbEntity
  8
2-3
  6
Continuous
 62
     3
370
     9
100
AcDbLine
 10
29.99296030586869
 20
-31.10339887379337
 30
0.0
 11
29.99292531080808
 21
-36.68479608870496
 31
0.0
  0
LINE
  5
11F
330
1F
100
AcDbEntity
  8
2-3
  6
Continuous
 62
     3
370
     9
100
AcDbLine
 10
35.49292401469474
 20
-30.60338944751442
 30
0.0
 11
35.49288901963406
 21
-35.68484722626829
 31
0.0
  0
LINE
  5
120
330
1F
100
AcDbEntity
  8
2-3
  6
Continuous
 62
     3
370
     9
100
AcDbLine
 10
29.49295087958974
 20
-30.60338944751442
 30
0.0
 11
29.49291588452913
 21
-35.68484722626829
 31
0.0
  0
LINE
  5
121
330
1F
100
AcDbEntity
  8
2-0
  6
Continuous
 62
     3
370
     9
100
AcDbLine
 10
-98.50701259357929
 20
-24.68470983825247
 30
0.0
 11
-99.5070489436675
 21
-23.68472598075519
 31
0.0
  0
LINE
  5
122
330
1F
100
AcDbEntity
  8
2-0
  6
Continuous
 62
     3
370
     9
100
AcDbLine
 10
-98.50701259357929
 20
-24.68470983825247
 30
0.0
 11
-93.50698832091096
 21
-24.68470983825247
 31
0.0
  0
LINE
  5
123
330
1F
100
AcDbEntity
  8
2-0
  6
Continuous
 62
     3
370
     9
100
AcDbLine
 10
-98.61649464075968
 20
-16.56071149822023
 30
0.0
 11
-99.5070489436675
 21
-23.68472598075519
 31
0.0
  0
LINE
  5
124
330
1F
100
AcDbEntity
  8
2-0
  6
Continuous
 62
     3
370
     9
100
AcDbLine
 10
-50.84627715765158
 20
-41.4886730465431
 30
0.0
 11
-50.16786291228179
 21
-44.88091924869529
 31
0.0
  0
LINE
  5
125
330
1F
100
AcDbEntity
  8
2-0
  6
Continuous
 62
     3
370
     9
100
AcDbLine
 10
-49.18728381590374
 20
-45.68482578148369
 30
0.0
 11
-47.82681583885859
 21
-45.68482578148369
 31
0.0
  0
LINE
  5
126
330
1F
100
AcDbEntity
  8
2-0
  6
Continuous
 62
     3
370
     9
100
AcDbLine
 10
-74.23258380251842
 20
-23.2469727673367
 30
0.0
 11
-97.50699374102136
 21
-15.6848201257163
 31
0.0
  0
LINE
  5
127
330
1F
100
AcDbEntity
  8
2-0
  6
Continuous
 62
     3
370
     9
100
AcDbLine
 10
-67.03700442099542
 20
-25.58492277789415
 30
0.0
 11
-74.23254880745777
 21
-23.2469727673367
 31
0.0
  0
LINE
  5
128
330
1F
100
AcDbEntity
  8
2-0
  6
Continuous
 62
     3
370
     9
100
AcDbLine
 10
-67.18650332000605
 20
-24.367584598825
 30
0.0
 11
-68.00703250659357
 21
-17.68475284565019
 31
0.0
  0
LINE
  5
129
330
1F
100
AcDbEntity
  8
2-0
  6
Continuous
 62
     3
370
     9
100
AcDbLine
 10
-36.06205387361143
 20
-93.68475084256595
 30
0.0
 11
-14.50703875150339
 21
-93.68475084256595
 31
0.0
  0
LINE
  5
12A
330
1F
100
AcDbEntity
  8
2-0
  6
Continuous
 62
     3
370
     9
100
AcDbLine
 10
-37.06044545585004
 20
-92.7412490129252
 30
0.0
 11
-39.84683967084838
 21
-43.51527200267694
 31
0.0
  0
LINE
  5
12B
330
1F
100
AcDbEntity
  8
2-0
  6
Continuous
 62
     3
370
     9
100
AcDbLine
 10
-71.00705406920669
 20
-17.68475284565019
 30
0.0
 11
-71.63937981972704
 21
-21.65910688631894
 31
0.0
  0
LINE
  5
12C
330
1F
100
AcDbEntity
  8
2-0
  6
JWW_HOJO
 62
     7
370
     9
100
AcDbLine
 10
-37.06044545585004
 20
-92.74128400798581
 30
0.0
 11
-37.00702549579862
 21
-93.68475084256595
 31
0.0
  0
LINE
  5
12D
330
1F
100
AcDbEntity
  8
2-0
  6
JWW_HOJO
 62
     7
370
     9
100
AcDbLine
 10
-36.06205387361143
 20
-93.68475084256595
 30
0.0
 11
-37.00702549579862
 21
-93.68475084256595
 31
0.0
  0
LINE
  5
12E
330
1F
100
AcDbEntity
  8
2-0
  6
Continuous
 62
     3
370
     9
100
AcDbLine
 10
-70.6074454718747
 20
-44.79707108342624
 30
0.0
 11
-72.3622202945664
 21
-29.29285942198803
 31
0.0
  0
LINE
  5
12F
330
1F
100
AcDbEntity
  8
2-0
  6
Continuous
 62
     3
370
     9
100
AcDbLine
 10
-14.50703875150337
 20
-36.76136528136304
 30
0.0
 11
-36.22271619696293
 21
-36.76136528136304
 31
0.0
  0
LINE
  5
130
330
1F
100
AcDbEntity
  8
2-0
  6
Continuous
 62
     3
370
     9
100
AcDbLine
 10
-35.87421788568081
 20
-42.91853622881715
 30
0.0
 11
-33.00065097465358
 21
-93.68475084256595
 31
0.0
  0
LINE
  5
131
330
1F
100
AcDbEntity
  8
2-0
  6
Continuous
 62
     3
370
     9
100
AcDbLine
 10
32.49293744714221
 20
-42.00306544274093
 30
0.0
 11
36.49294286725264
 21
-42.00306544274093
 31
0.0
  0
LINE
  5
132
330
1F
100
AcDbEntity
  8
2-0
  6
Continuous
 62
     3
370
     9
100
AcDbLine
 10
32.49293744714221
 20
-42.00306544274093
 30
0.0
 11
28.49293202703184
 21
-42.00306544274093
 31
0.0
  0
LINE
  5
133
330
1F
100
AcDbEntity
  8
2-0
  6
Continuous
 62
     3
370
     9
100
AcDbLine
 10
-73.73150702689024
 20
-27.61561615612166
 30
0.0
 11
-84.98723084021599
 21
-23.95849234006235
 31
0.0
  0
LINE
  5
134
330
1F
100
AcDbEntity
  8
2-0
  6
Continuous
 62
     3
370
     9
100
AcDbLine
 10
-42.84203191509458
 20
-40.68480150881537
 30
0.0
 11
-44.77732875804524
 21
-40.68480150881537
 31
0.0
  0
LINE
  5
135
330
1F
100
AcDbEntity
  8
2-0
  6
Continuous
 62
     3
370
     9
100
AcDbLine
 10
-46.84625424001088
 20
-44.88091924869529
 30
0.0
 11
-46.24818865384715
 21
-41.89062631293726
 31
0.0
  0
LINE
  5
136
330
1F
100
AcDbEntity
  8
2-0
  6
JWW_PHANTOM2
 62
     3
370
     9
100
AcDbLine
 10
-56.77174580867565
 20
-25.68472869081037
 30
0.0
 11
-65.69767346057073
 21
-25.68472869081037
 31
0.0
  0
LINE
  5
137
330
1F
100
AcDbEntity
  8
2-0
  6
Continuous
 62
     3
370
     9
100
AcDbLine
 10
-51.00478728477439
 20
-32.80303897846271
 30
0.0
 11
-50.52979932684575
 21
-34.71989342446146
 31
0.0
  0
LINE
  5
138
330
1F
100
AcDbEntity
  8
2-0
  6
Continuous
 62
     3
370
     9
100
AcDbLine
 10
-66.71221526329002
 20
-28.23016441584204
 30
0.0
 11
-67.18646832494541
 21
-24.36754960376439
 31
0.0
  0
LINE
  5
139
330
1F
100
AcDbEntity
  8
2-0
  6
Continuous
 62
     3
370
     9
100
AcDbLine
 10
-63.9438260069857
 20
-30.85724361732312
 30
0.0
 11
-52.35610405346482
 21
-31.6674842560855
 31
0.0
  0
LINE
  5
13A
330
1F
100
AcDbEntity
  8
2-0
  6
JWW_DASHED1
 62
     3
370
     9
100
AcDbLine
 10
-70.48695747812623
 20
-30.3095009283451
 30
0.0
 11
-70.54135729987529
 21
-29.86635847558958
 31
0.0
  0
LINE
  5
13B
330
1F
100
AcDbEntity
  8
2-0
  6
JWW_PHANTOM2
 62
     3
370
     9
100
AcDbLine
 10
-55.29330948224738
 20
-26.93125275044483
 30
0.0
 11
-54.70605736981828
 21
-30.35635931452842
 31
0.0
  0
LINE
  5
13C
330
1F
100
AcDbEntity
  8
2-0
  6
JWW_DASHED1
 62
     3
370
     9
100
AcDbLine
 10
-71.90845684090975
 20
-28.20797754740275
 30
0.0
 11
-73.7315595194812
 21
-27.61561615612166
 31
0.0
  0
LINE
  5
13D
330
1F
100
AcDbEntity
  8
2-0
  6
JWW_DASHED1
 62
     3
370
     9
100
AcDbLine
 10
-70.48149824866796
 20
-30.35394465534497
 30
0.0
 11
-70.54135729987529
 21
-29.86635847558958
 31
0.0
  0
LINE
  5
13E
330
1F
100
AcDbEntity
  8
2-0
  6
Continuous
 62
     3
370
     9
100
AcDbLine
 10
-53.68008967980334
 20
-40.68480150881535
 30
0.0
 11
-51.82683875649933
 21
-40.68480150881537
 31
0.0
  0
LINE
  5
13F
330
1F
100
AcDbEntity
  8
2-0
  6
Continuous
 62
     3
370
     9
100
AcDbLine
 10
-55.29003744407849
 20
-36.5909043410351
 30
0.0
 11
-54.66227854897035
 21
-39.87267113677896
 31
0.0
  0
LINE
  5
140
330
1F
100
AcDbEntity
  8
2-0
  6
Continuous
 62
     3
370
     9
100
AcDbLine
 10
-57.17954325019501
 20
-35.33997090376133
 30
0.0
 11
-56.65869426531101
 21
-35.37640076187702
 31
0.0
  0
LINE
  5
141
330
1F
100
AcDbEntity
  8
2-0
  6
Continuous
 62
     3
370
     9
100
AcDbLine
 10
-58.75738304634233
 20
-36.55401954713128
 30
0.0
 11
-60.35140805803091
 21
-44.87283538968982
 31
0.0
  0
LINE
  5
142
330
1F
100
AcDbEntity
  8
2-0
  6
JWW_DASHED1
 62
     3
370
     9
100
AcDbLine
 10
-65.86752198733758
 20
-34.7324916462882
 30
0.0
 11
-57.17954325019501
 21
-35.33997090376133
 31
0.0
  0
LINE
  5
143
330
1F
100
AcDbEntity
  8
2-0
  6
Continuous
 62
     3
370
     9
100
AcDbLine
 10
-42.37474287050451
 20
-36.33117100104054
 30
0.0
 11
-49.17846506062502
 21
-35.85541315177805
 31
0.0
  0
LINE
  5
144
330
1F
100
AcDbEntity
  8
2-0
  6
Continuous
 62
     3
370
     9
100
AcDbLine
 10
69.49293509057249
 20
-24.6847098382525
 30
0.0
 11
70.49295394313039
 21
-23.68472598075522
 31
0.0
  0
LINE
  5
145
330
1F
100
AcDbEntity
  8
2-0
  6
Continuous
 62
     3
370
     9
100
AcDbLine
 10
69.49293509057249
 20
-24.6847098382525
 30
0.0
 11
64.49291081790416
 21
-24.6847098382525
 31
0.0
  0
LINE
  5
146
330
1F
100
AcDbEntity
  8
2-0
  6
Continuous
 62
     3
370
     9
100
AcDbLine
 10
69.6023996402226
 20
-16.56071149822026
 30
0.0
 11
70.49295394313039
 21
-23.68472598075522
 31
0.0
  0
LINE
  5
147
330
1F
100
AcDbEntity
  8
2-0
  6
Continuous
 62
     3
370
     9
100
AcDbLine
 10
21.83219965464481
 20
-41.4886730465431
 30
0.0
 11
21.15378540927499
 21
-44.8809192486953
 31
0.0
  0
LINE
  5
148
330
1F
100
AcDbEntity
  8
2-0
  6
Continuous
 62
     3
370
     9
100
AcDbLine
 10
20.17320631289694
 20
-45.6848257814837
 30
0.0
 11
18.81273833585182
 21
-45.6848257814837
 31
0.0
  0
LINE
  5
149
330
1F
100
AcDbEntity
  8
2-0
  6
Continuous
 62
     3
370
     9
100
AcDbLine
 10
45.21850629951162
 20
-23.24697276733673
 30
0.0
 11
68.49291623801459
 21
-15.68482012571633
 31
0.0
  0
LINE
  5
14A
330
1F
100
AcDbEntity
  8
2-0
  6
Continuous
 62
     3
370
     9
100
AcDbLine
 10
38.17242581699925
 20
-24.36758459882503
 30
0.0
 11
38.99295500358677
 21
-17.68475284565022
 31
0.0
  0
LINE
  5
14B
330
1F
100
AcDbEntity
  8
2-0
  6
Continuous
 62
     3
370
     9
100
AcDbLine
 10
7.047976370604605
 20
-93.68475084256595
 30
0.0
 11
-14.50703875150339
 21
-93.68475084256595
 31
0.0
  0
LINE
  5
14C
330
1F
100
AcDbEntity
  8
2-0
  6
Continuous
 62
     3
370
     9
100
AcDbLine
 10
8.046367952843244
 20
-92.7412490129252
 30
0.0
 11
10.83276216784158
 21
-43.51527200267696
 31
0.0
  0
LINE
  5
14D
330
1F
100
AcDbEntity
  8
2-0
  6
Continuous
 62
     3
370
     9
100
AcDbLine
 10
41.99301156126053
 20
-17.68475284565022
 30
0.0
 11
42.62530231672027
 21
-21.65910688631897
 31
0.0
  0
LINE
  5
14E
330
1F
100
AcDbEntity
  8
2-0
  6
JWW_HOJO
 62
     7
370
     9
100
AcDbLine
 10
7.047976370604605
 20
-93.68475084256595
 30
0.0
 11
7.992947992791816
 21
-93.68475084256595
 31
0.0
  0
LINE
  5
14F
330
1F
100
AcDbEntity
  8
2-0
  6
Continuous
 62
     3
370
     9
100
AcDbLine
 10
-14.50703875150337
 20
-36.76136528136304
 30
0.0
 11
7.208656191486469
 21
-36.76136528136304
 31
0.0
  0
LINE
  5
150
330
1F
100
AcDbEntity
  8
2-0
  6
Continuous
 62
     3
370
     9
100
AcDbLine
 10
6.860140382674
 20
-42.91853622881717
 30
0.0
 11
3.986573471646754
 21
-93.68475084256595
 31
0.0
  0
LINE
  5
151
330
1F
100
AcDbEntity
  8
2-0
  6
Continuous
 62
     3
370
     9
100
AcDbLine
 10
13.82795441208777
 20
-40.68480150881537
 30
0.0
 11
15.7632337575081
 21
-40.68480150881537
 31
0.0
  0
LINE
  5
152
330
1F
100
AcDbEntity
  8
2-0
  6
Continuous
 62
     3
370
     9
100
AcDbLine
 10
17.8321767370041
 20
-44.8809192486953
 30
0.0
 11
17.23411115084037
 21
-41.89062631293728
 31
0.0
  0
LINE
  5
153
330
1F
100
AcDbEntity
  8
2-0
  6
Continuous
 62
     3
370
     9
100
AcDbLine
 10
21.99070978176759
 20
-32.80303897846271
 30
0.0
 11
21.51572182383894
 21
-34.71989342446146
 31
0.0
  0
LINE
  5
154
330
1F
100
AcDbEntity
  8
2-0
  6
JWW_DASHED1
 62
     3
370
     9
100
AcDbLine
 10
37.69813776028322
 20
-28.23016441584207
 30
0.0
 11
38.17239082193863
 21
-24.36754960376442
 31
0.0
  0
LINE
  5
155
330
1F
100
AcDbEntity
  8
2-0
  6
Continuous
 62
     3
370
     9
100
AcDbLine
 10
41.47287997511945
 20
-30.30950092834513
 30
0.0
 11
41.5272622993382
 21
-29.86635847558961
 31
0.0
  0
LINE
  5
156
330
1F
100
AcDbEntity
  8
2-0
  6
JWW_DASHED1
 62
     3
370
     9
100
AcDbLine
 10
41.46742074566119
 20
-30.353944655345
 30
0.0
 11
41.5272622993382
 21
-29.86635847558961
 31
0.0
  0
LINE
  5
157
330
1F
100
AcDbEntity
  8
2-0
  6
Continuous
 62
     3
370
     9
100
AcDbLine
 10
24.66601217679654
 20
-40.68480150881538
 30
0.0
 11
22.81277875102286
 21
-40.68480150881537
 31
0.0
  0
LINE
  5
158
330
1F
100
AcDbEntity
  8
2-0
  6
JWW_DASHED1
 62
     3
370
     9
100
AcDbLine
 10
28.16544824965793
 20
-35.33997090376135
 30
0.0
 11
27.64461676230424
 21
-35.37640076187705
 31
0.0
  0
LINE
  5
159
330
1F
100
AcDbEntity
  8
2-0
  6
Continuous
 62
     3
370
     9
100
AcDbLine
 10
13.3606653674977
 20
-36.33117100104054
 30
0.0
 11
20.16438755761824
 21
-35.85541315177805
 31
0.0
  0
LINE
  5
15A
330
1F
100
AcDbEntity
  8
2-0
  6
Continuous
 62
     3
370
     9
100
AcDbLine
 10
28.49293202703184
 20
-42.00306544274093
 30
0.0
 11
27.08280605895301
 21
-37.38781186169757
 31
0.0
  0
LINE
  5
15B
330
1F
100
AcDbEntity
  8
2-0
  6
Continuous
 62
     3
370
     9
100
AcDbLine
 10
26.11354786468867
 20
-37.43998949709663
 30
0.0
 11
25.64821854349391
 21
-39.87267113677899
 31
0.0
  0
LINE
  5
15C
330
1F
100
AcDbEntity
  8
2-0
  6
Continuous
 62
     3
370
     9
100
AcDbLine
 10
36.49294286725264
 20
-42.00306544274093
 30
0.0
 11
38.37683196613808
 21
-34.77774025968256
 31
0.0
  0
LINE
  5
15D
330
1F
100
AcDbEntity
  8
2-0
  6
JWW_DASHED1
 62
     3
370
     9
100
AcDbLine
 10
38.02292691798864
 20
-25.58492277789418
 30
0.0
 11
45.218471304451
 21
-23.24697276733673
 31
0.0
  0
LINE
  5
15E
330
1F
100
AcDbEntity
  8
2-0
  6
Continuous
 62
     3
370
     9
100
AcDbLine
 10
24.31816127413607
 20
-31.59924388785737
 30
0.0
 11
23.34204404798835
 21
-31.6674842560855
 31
0.0
  0
LINE
  5
15F
330
1F
100
AcDbEntity
  8
2-0
  6
JWW_DASHED1
 62
     3
370
     9
100
AcDbLine
 10
26.11354786468867
 20
-37.43998949709663
 30
0.0
 11
26.27599493613236
 21
-36.59090434103513
 31
0.0
  0
LINE
  5
160
330
1F
100
AcDbEntity
  8
2-0
  6
JWW_HOJO
 62
     7
370
     9
100
AcDbLine
 10
8.046367952843244
 20
-92.74128400798581
 30
0.0
 11
7.980122303070974
 21
-93.91081893423465
 31
0.0
  0
LINE
  5
161
330
1F
100
AcDbEntity
  8
2-0
  6
Continuous
 62
     3
370
     9
100
AcDbLine
 10
42.89437933790295
 20
-28.20797754740278
 30
0.0
 11
55.9731883322698
 21
-23.95849234006238
 31
0.0
  0
LINE
  5
162
330
1F
100
AcDbEntity
  8
2-0
  6
Continuous
 62
     3
370
     9
100
AcDbLine
 10
26.27924947677094
 20
-26.93125275044486
 30
0.0
 11
25.69199736434179
 21
-30.35635931452845
 31
0.0
  0
LINE
  5
163
330
1F
100
AcDbEntity
  8
2-0
  6
Continuous
 62
     3
370
     9
100
AcDbLine
 10
41.99301156126053
 20
-17.68475284565022
 30
0.0
 11
37.36246513872193
 21
-17.68475284565022
 31
0.0
  0
LINE
  5
164
330
1F
100
AcDbEntity
  8
2-0
  6
Continuous
 62
     3
370
     9
100
AcDbLine
 10
27.62333976544126
 20
-17.68475284565022
 30
0.0
 11
26.32313328280073
 21
-17.68475284565022
 31
0.0
  0
LINE
  5
165
330
1F
100
AcDbEntity
  8
2-0
  6
Continuous
 62
     3
370
     9
100
AcDbLine
 10
-71.00705406920669
 20
-17.68475284565019
 30
0.0
 11
-55.33717579074688
 21
-17.68475284565019
 31
0.0
  0
LINE
  5
166
330
1F
100
AcDbEntity
  8
2-0
  6
Continuous
 62
     3
370
     9
100
AcDbLine
 10
27.71940120687016
 20
-25.6847286908104
 30
0.0
 11
29.49288088946851
 21
-25.6847286908104
 31
0.0
  0
LINE
  5
167
330
1F
100
AcDbEntity
  8
2-0
  6
Continuous
 62
     3
370
     9
100
AcDbLine
 10
35.49285402457345
 20
-25.6847286908104
 30
0.0
 11
36.68359595756392
 21
-25.6847286908104
 31
0.0
  0
LINE
  5
168
330
1F
100
AcDbEntity
  8
2-0
  6
Continuous
 62
     3
370
     9
100
AcDbLine
 10
-76.50701777803272
 20
-63.6845352164348
 30
0.0
 11
-76.50701777803272
 21
-69.6845433466004
 31
0.0
  0
LINE
  5
169
330
1F
100
AcDbEntity
  8
2-0
  6
Continuous
 62
     3
370
     9
100
AcDbLine
 10
-62.33202350449717
 20
-39.48454091933357
 30
0.0
 11
-68.68194724590042
 21
-39.48454091933357
 31
0.0
  0
LINE
  5
16A
330
1F
100
AcDbEntity
  8
2-0
  6
Continuous
 62
     3
370
     9
100
AcDbLine
 10
-62.33202350449717
 20
-39.48454091933357
 30
0.0
 11
-63.1471284566871
 21
-38.68465881851765
 31
0.0
  0
LINE
  5
16B
330
1F
100
AcDbEntity
  8
2-0
  6
Continuous
 62
     3
370
     9
100
AcDbLine
 10
-67.86705226407427
 20
-38.68465881851765
 30
0.0
 11
-68.68194724590042
 21
-39.48454091933357
 31
0.0
  0
LINE
  5
16C
330
1F
100
AcDbEntity
  8
2-0
  6
Continuous
 62
     3
370
     9
100
AcDbLine
 10
-63.1471284566871
 20
-38.68465881851765
 30
0.0
 11
-67.86705226407427
 21
-38.68465881851765
 31
0.0
  0
LINE
  5
16D
330
1F
100
AcDbEntity
  8
2-0
  6
Continuous
 62
     3
370
     9
100
AcDbLine
 10
-70.50697465280649
 20
-63.68453521643481
 30
0.0
 11
-76.50701777803272
 21
-63.6845352164348
 31
0.0
  0
LINE
  5
16E
330
1F
100
AcDbEntity
  8
2-0
  6
Continuous
 62
     3
370
     9
100
AcDbLine
 10
-62.50692881752504
 20
-61.68463749156147
 30
0.0
 11
-62.50692881752504
 21
-48.68460237867235
 31
0.0
  0
LINE
  5
16F
330
1F
100
AcDbEntity
  8
2-0
  6
Continuous
 62
     3
370
     9
100
AcDbLine
 10
-70.50697465280649
 20
-69.68454334660042
 30
0.0
 11
-76.50701777803272
 21
-69.6845433466004
 31
0.0
  0
LINE
  5
170
330
1F
100
AcDbEntity
  8
2-0
  6
Continuous
 62
     3
370
     9
100
AcDbLine
 10
-68.50700693781192
 20
-61.68463749156147
 30
0.0
 11
-68.50700693781192
 21
-48.68460237867235
 31
0.0
  0
LINE
  5
171
330
1F
100
AcDbEntity
  8
2-0
  6
Continuous
 62
     3
370
     9
100
AcDbLine
 10
-67.86705226407429
 20
-48.68460237867235
 30
0.0
 11
-67.86705226407427
 21
-37.68460497089907
 31
0.0
  0
LINE
  5
172
330
1F
100
AcDbEntity
  8
2-0
  6
Continuous
 62
     3
370
     9
100
AcDbLine
 10
-63.14712845668711
 20
-48.68460237867235
 30
0.0
 11
-63.1471284566871
 21
-37.68460497089907
 31
0.0
  0
LINE
  5
173
330
1F
100
AcDbEntity
  8
2-0
  6
Continuous
 62
     3
370
     9
100
AcDbLine
 10
-62.33202350449718
 20
-48.68460237867235
 30
0.0
 11
-62.33202350449717
 21
-39.48454091933357
 31
0.0
  0
LINE
  5
174
330
1F
100
AcDbEntity
  8
2-0
  6
Continuous
 62
     3
370
     9
100
AcDbLine
 10
-68.68194724590043
 20
-48.68460237867235
 30
0.0
 11
-68.68194724590042
 21
-39.48454091933357
 31
0.0
  0
LINE
  5
175
330
1F
100
AcDbEntity
  8
2-0
  6
JWW_CENTER1
 62
     3
370
     9
100
AcDbLine
 10
-70.5070796379884
 20
-66.68462676916918
 30
0.0
 11
-78.63023809656552
 21
-66.68462676916917
 31
0.0
  0
LINE
  5
176
330
1F
100
AcDbEntity
  8
2-0
  6
Continuous
 62
     3
370
     9
100
AcDbLine
 10
-63.1471284566871
 20
-37.68460497089907
 30
0.0
 11
-67.86705226407427
 21
-37.68460497089907
 31
0.0
  0
LINE
  5
177
330
1F
100
AcDbEntity
  8
2-0
  6
Continuous
 62
     3
370
     9
100
AcDbLine
 10
-67.86705226407427
 20
-37.68460497089907
 30
0.0
 11
-65.50709036038067
 21
-36.32203729021617
 31
0.0
  0
LINE
  5
178
330
1F
100
AcDbEntity
  8
2-0
  6
Continuous
 62
     3
370
     9
100
AcDbLine
 10
-63.14709346162645
 20
-37.68460497089907
 30
0.0
 11
-65.50709036038067
 21
-36.32203729021617
 31
0.0
  0
LINE
  5
179
330
1F
100
AcDbEntity
  8
2-0
  6
Continuous
 62
     3
370
     9
100
AcDbLine
 10
-68.68194724590043
 20
-48.68460237867235
 30
0.0
 11
-62.33202350449718
 21
-48.68460237867235
 31
0.0
  0
LINE
  5
17A
330
1F
100
AcDbEntity
  8
2-0
  6
JWW_CENTER1
 62
     3
370
     9
100
AcDbLine
 10
-65.50709036038069
 20
-61.68463749156147
 30
0.0
 11
-65.50709036038067
 21
-36.01765025285792
 31
0.0
  0
LINE
  5
17B
330
1F
100
AcDbEntity
  8
2-0
  6
Continuous
 62
     3
370
     9
100
AcDbLine
 10
-61.33354443460696
 20
-45.68468580124117
 30
0.0
 11
-62.33202350449717
 21
-45.68468580124117
 31
0.0
  0
LINE
  5
17C
330
1F
100
AcDbEntity
  8
2-0
  6
Continuous
 62
     3
370
     9
100
AcDbLine
 10
-68.68194724590042
 20
-45.68468580124117
 30
0.0
 11
-69.61379572035143
 21
-45.68468580124117
 31
0.0
  0
LINE
  5
17D
330
1F
100
AcDbEntity
  8
2-0
  6
Continuous
 62
     3
370
     9
100
AcDbLine
 10
-55.19378352981617
 20
-15.6848201257163
 30
0.0
 11
-97.62415720401002
 21
-15.6848201257163
 31
0.0
  0
LINE
  5
17E
330
1F
100
AcDbEntity
  8
2-0
  6
JWW_CENTER2
 62
     3
370
     9
100
AcDbLine
 10
-14.50703875150336
 20
51.59811823867348
 30
0.0
 11
-14.50703875150339
 21
-109.3059159966291
 31
0.0
  0
LINE
  5
17F
330
1F
100
AcDbEntity
  8
2-0
  6
Continuous
 62
     3
370
     9
100
AcDbLine
 10
26.17986350458223
 20
-15.68482012571633
 30
0.0
 11
28.36520005573296
 21
-15.68482012571633
 31
0.0
  0
LINE
  5
180
330
1F
100
AcDbEntity
  8
2-0
  6
Continuous
 62
     3
370
     9
100
AcDbLine
 10
36.62049986324833
 20
-15.68482012571633
 30
0.0
 11
68.61007970100322
 21
-15.68482012571633
 31
0.0
  0
LINE
  5
181
330
1F
100
AcDbEntity
  8
2-2
  6
Continuous
 62
     4
370
     9
100
AcDbLine
 10
-54.50705795754676
 20
-40.68487149893659
 30
0.0
 11
-53.68008967980334
 21
-40.68487149893659
 31
0.0
  0
LINE
  5
182
330
1F
100
AcDbEntity
  8
2-2
  6
Continuous
 62
     4
370
     9
100
AcDbLine
 10
25.49284047429747
 20
-40.68487149893662
 30
0.0
 11
24.66601217679654
 21
-40.68487149893662
 31
0.0
  0
LINE
  5
183
330
1F
100
AcDbEntity
  8
2-0
  6
JWW_DASHED1
 62
     3
370
     9
100
AcDbLine
 10
36.85342698680047
 20
-34.73249164628822
 30
0.0
 11
35.49288901963406
 21
-34.82760822108008
 31
0.0
  0
LINE
  5
184
330
1F
100
AcDbEntity
  8
2-0
  6
JWW_DASHED1
 62
     3
370
     9
100
AcDbLine
 10
29.49291588452913
 20
-35.24716400297109
 30
0.0
 11
28.16544824965793
 21
-35.33997090376135
 31
0.0
  0
LINE
  5
185
330
1F
100
AcDbEntity
  8
2-0
  6
JWW_DASHED1
 62
     3
370
     9
100
AcDbLine
 10
29.49295087958974
 20
-31.23735996588431
 30
0.0
 11
24.31819626919669
 21
-31.59920889279675
 31
0.0
  0
ARC
  5
186
330
1F
100
AcDbEntity
  8
2-3
  6
Continuous
 62
     4
370
     9
100
AcDbCircle
 10
35.31899856336447
 20
-17.203395786687
 30
0.0
 40
1.999999976066088
100
AcDbArc
 50
5.000015258789066
 51
90.0
  0
ARC
  5
187
330
1F
100
AcDbEntity
  8
2-3
  6
Continuous
 62
     4
370
     9
100
AcDbCircle
 10
29.66670135561681
 20
-17.203395786687
 30
0.0
 40
1.999999976066088
100
AcDbArc
 50
90.0
 51
174.9999847412109
  0
ARC
  5
188
330
1F
100
AcDbEntity
  8
2-1
  6
Continuous
 62
     6
370
     9
100
AcDbCircle
 10
25.16336197846762
 20
-22.68484710843984
 30
0.0
 40
2.999999964099133
100
AcDbArc
 50
183.9813690185547
 51
270.0
  0
ARC
  5
189
330
1F
100
AcDbEntity
  8
2-1
  6
Continuous
 62
     6
370
     9
100
AcDbCircle
 10
28.29506995423078
 20
-17.27125120924825
 30
0.0
 40
1.999999976066088
100
AcDbArc
 50
183.9813690185547
 51
267.1378479003906
  0
ARC
  5
18A
330
1F
100
AcDbEntity
  8
2-1
  6
Continuous
 62
     6
370
     9
100
AcDbCircle
 10
25.10082580512217
 20
-24.18487538727669
 30
0.0
 40
1.499999982049566
100
AcDbArc
 50
272.3879547119141
 51
344.5776824951172
  0
ARC
  5
18B
330
1F
100
AcDbEntity
  8
2-1
  6
Continuous
 62
     6
370
     9
100
AcDbCircle
 10
-54.17729950123193
 20
-22.68484710843981
 30
0.0
 40
2.999999964099133
100
AcDbArc
 50
270.0
 51
356.0186309814453
  0
ARC
  5
18C
330
1F
100
AcDbEntity
  8
2-1
  6
Continuous
 62
     6
370
     9
100
AcDbCircle
 10
-57.3789626031941
 20
-18.27588940980925
 30
0.0
 40
1.999999976066088
100
AcDbArc
 50
272.8619079589844
 51
356.0187377929688
  0
ARC
  5
18D
330
1F
100
AcDbEntity
  8
2-1
  6
Continuous
 62
     6
370
     9
100
AcDbCircle
 10
-63.68713723726593
 20
-24.68481482343438
 30
0.0
 40
0.9999999880330442
100
AcDbArc
 50
191.3099365234375
 51
270.0
  0
ARC
  5
18E
330
1F
100
AcDbEntity
  8
2-1
  6
Continuous
 62
     6
370
     9
100
AcDbCircle
 10
-57.75540447038914
 20
-23.6848309659371
 30
0.0
 40
1.999999976066088
100
AcDbArc
 50
270.0
 51
356.0187377929688
  0
ARC
  5
18F
330
1F
100
AcDbEntity
  8
2-0
  6
Continuous
 62
     3
370
     9
100
AcDbCircle
 10
36.68359595756392
 20
-24.18477040209478
 30
0.0
 40
1.499999982049566
100
AcDbArc
 50
270.0
 51
352.9995880126953
  0
ARC
  5
190
330
1F
100
AcDbEntity
  8
2-0
  6
Continuous
 62
     3
370
     9
100
AcDbCircle
 10
-97.62415720401002
 20
-16.68480398321358
 30
0.0
 40
0.9999999880330442
100
AcDbArc
 50
90.0
 51
172.875732421875
  0
ARC
  5
191
330
1F
100
AcDbEntity
  8
2-0
  6
Continuous
 62
     3
370
     9
100
AcDbCircle
 10
-51.82683875649933
 20
-41.68478536631265
 30
0.0
 40
0.9999999880330442
100
AcDbArc
 50
11.30934143066407
 51
90.00000000000001
  0
ARC
  5
192
330
1F
100
AcDbEntity
  8
2-0
  6
Continuous
 62
     3
370
     9
100
AcDbCircle
 10
-49.18728381590374
 20
-44.68480692892573
 30
0.0
 40
0.9999999880330442
100
AcDbArc
 50
191.3091430664062
 51
270.0
  0
ARC
  5
193
330
1F
100
AcDbEntity
  8
2-0
  6
Continuous
 62
     3
370
     9
100
AcDbCircle
 10
-47.82681583885859
 20
-44.68480692892573
 30
0.0
 40
0.9999999880330442
100
AcDbArc
 50
270.0
 51
348.6908569335938
  0
ARC
  5
194
330
1F
100
AcDbEntity
  8
2-0
  6
JWW_PHANTOM2
 62
     3
370
     9
100
AcDbCircle
 10
-65.69767346057073
 20
-24.18477040209476
 30
0.0
 40
1.499999982049566
100
AcDbArc
 50
187.0004119873047
 51
270.0
  0
ARC
  5
195
330
1F
100
AcDbEntity
  8
2-0
  6
Continuous
 62
     3
370
     9
100
AcDbCircle
 10
-73.61453603673506
 20
-21.34492123198439
 30
0.0
 40
1.999999976066088
100
AcDbArc
 50
251.9996948242188
 51
350.9597778320312
  0
ARC
  5
196
330
1F
100
AcDbEntity
  8
2-0
  6
Continuous
 62
     3
370
     9
100
AcDbCircle
 10
-88.38637106931226
 20
-34.420160730167
 30
0.0
 40
11.00000178215586
100
AcDbArc
 50
71.99945068359375
 51
117.7433929443359
  0
ARC
  5
197
330
1F
100
AcDbEntity
  8
2-0
  6
Continuous
 62
     3
370
     9
100
AcDbCircle
 10
-42.84203191509458
 20
-43.68478807636783
 30
0.0
 40
2.999999964099133
100
AcDbArc
 50
3.239257812499998
 51
90.00000000000001
  0
ARC
  5
198
330
1F
100
AcDbEntity
  8
2-0
  6
Continuous
 62
     3
370
     9
100
AcDbCircle
 10
-36.06205387361143
 20
-92.68476698506866
 30
0.0
 40
0.9999999880330442
100
AcDbArc
 50
183.2379455566406
 51
270.0
  0
ARC
  5
199
330
1F
100
AcDbEntity
  8
2-0
  6
Continuous
 62
     3
370
     9
100
AcDbCircle
 10
-69.61379572035143
 20
-44.68463195362259
 30
0.0
 40
0.9999999880330442
100
AcDbArc
 50
186.4559936523438
 51
270.0
  0
ARC
  5
19A
330
1F
100
AcDbEntity
  8
2-0
  6
Continuous
 62
     3
370
     9
100
AcDbCircle
 10
-74.34953729514329
 20
-29.51773768159526
 30
0.0
 40
1.999999976066088
100
AcDbArc
 50
6.457000732421873
 51
72.00018310546874
  0
ARC
  5
19B
330
1F
100
AcDbEntity
  8
2-0
  6
Continuous
 62
     3
370
     9
100
AcDbCircle
 10
-42.86302895147249
 20
-43.31415538923736
 30
0.0
 40
6.999999642832399
100
AcDbArc
 50
3.239624023437512
 51
86.00007629394533
  0
ARC
  5
19C
330
1F
100
AcDbEntity
  8
2-0
  6
Continuous
 62
     3
370
     9
100
AcDbCircle
 10
-44.77732875804524
 20
-42.18475979753098
 30
0.0
 40
1.499999982049566
100
AcDbArc
 50
90.0
 51
168.6902008056641
  0
ARC
  5
19D
330
1F
100
AcDbEntity
  8
2-0
  6
JWW_PHANTOM2
 62
     3
370
     9
100
AcDbCircle
 10
-56.77174580867565
 20
-27.18475696964728
 30
0.0
 40
1.499999982049566
100
AcDbArc
 50
9.728439331054703
 51
90.00000000000001
  0
ARC
  5
19E
330
1F
100
AcDbEntity
  8
2-0
  6
JWW_PHANTOM2
 62
     3
370
     9
100
AcDbCircle
 10
-53.22762104339002
 20
-30.1029250854472
 30
0.0
 40
1.499999982049566
100
AcDbArc
 50
189.7284393310547
 51
265.9999084472656
  0
ARC
  5
19F
330
1F
100
AcDbEntity
  8
2-0
  6
Continuous
 62
     3
370
     9
100
AcDbCircle
 10
-52.46073928474799
 20
-33.16387304861688
 30
0.0
 40
1.499999982049566
100
AcDbArc
 50
13.91807556152344
 51
86.0
  0
ARC
  5
1A0
330
1F
100
AcDbEntity
  8
2-0
  6
Continuous
 62
     3
370
     9
100
AcDbCircle
 10
-49.07382982934185
 20
-34.35909434936796
 30
0.0
 40
1.499999982049566
100
AcDbArc
 50
193.9179077148438
 51
266.0
  0
ARC
  5
1A1
330
1F
100
AcDbEntity
  8
2-0
  6
Continuous
 62
     3
370
     9
100
AcDbCircle
 10
-61.33354443460696
 20
-44.68466694868321
 30
0.0
 40
0.9999999880330442
100
AcDbArc
 50
270.0
 51
349.1540832519531
  0
ARC
  5
1A2
330
1F
100
AcDbEntity
  8
2-0
  6
Continuous
 62
     3
370
     9
100
AcDbCircle
 10
-63.73457304194967
 20
-27.86457101744227
 30
0.0
 40
2.999999964099133
100
AcDbArc
 50
186.9997100830079
 51
266.0002899169922
  0
ARC
  5
1A3
330
1F
100
AcDbEntity
  8
2-0
  6
JWW_DASHED1
 62
     3
370
     9
100
AcDbCircle
 10
-72.52645211410218
 20
-30.11006407781568
 30
0.0
 40
1.999999976066088
100
AcDbArc
 50
6.999053955078122
 51
72.00112915039062
  0
ARC
  5
1A4
330
1F
100
AcDbEntity
  8
2-0
  6
JWW_DASHED1
 62
     3
370
     9
100
AcDbCircle
 10
-65.51876121310072
 20
-29.74464565471905
 30
0.0
 40
5.000000213564133
100
AcDbArc
 50
186.9994506835938
 51
266.0002746582031
  0
ARC
  5
1A5
330
1F
100
AcDbEntity
  8
2-0
  6
Continuous
 62
     3
370
     9
100
AcDbCircle
 10
-53.68008967980334
 20
-39.68481765131807
 30
0.0
 40
0.9999999880330442
100
AcDbArc
 50
190.82763671875
 51
270.0
  0
ARC
  5
1A6
330
1F
100
AcDbEntity
  8
2-0
  6
Continuous
 62
     3
370
     9
100
AcDbCircle
 10
-56.76332949659418
 20
-36.87271956428711
 30
0.0
 40
1.499999982049566
100
AcDbArc
 50
10.83020019531251
 51
86.0
  0
ARC
  5
1A7
330
1F
100
AcDbEntity
  8
2-0
  6
Continuous
 62
     3
370
     9
100
AcDbCircle
 10
-57.28417848147821
 20
-36.83632470123209
 30
0.0
 40
1.499999982049566
100
AcDbArc
 50
86.0
 51
169.1521148681641
  0
ARC
  5
1A8
330
1F
100
AcDbEntity
  8
2-0
  6
Continuous
 62
     3
370
     9
100
AcDbCircle
 10
68.61007970100322
 20
-16.68480398321361
 30
0.0
 40
0.9999999880330442
100
AcDbArc
 50
7.124267578125002
 51
90.00000000000001
  0
ARC
  5
1A9
330
1F
100
AcDbEntity
  8
2-0
  6
Continuous
 62
     3
370
     9
100
AcDbCircle
 10
22.81277875102286
 20
-41.68478536631265
 30
0.0
 40
0.9999999880330442
100
AcDbArc
 50
90.0
 51
168.6906585693359
  0
ARC
  5
1AA
330
1F
100
AcDbEntity
  8
2-0
  6
Continuous
 62
     3
370
     9
100
AcDbCircle
 10
20.17320631289694
 20
-44.68480692892575
 30
0.0
 40
0.9999999880330442
100
AcDbArc
 50
270.0
 51
348.6908569335938
  0
ARC
  5
1AB
330
1F
100
AcDbEntity
  8
2-0
  6
Continuous
 62
     3
370
     9
100
AcDbCircle
 10
18.81273833585182
 20
-44.68480692892575
 30
0.0
 40
0.9999999880330442
100
AcDbArc
 50
191.3091430664062
 51
270.0
  0
ARC
  5
1AC
330
1F
100
AcDbEntity
  8
2-0
  6
Continuous
 62
     3
370
     9
100
AcDbCircle
 10
44.60045853372829
 20
-21.34492123198442
 30
0.0
 40
1.999999976066088
100
AcDbArc
 50
189.0402221679688
 51
288.0003051757812
  0
ARC
  5
1AD
330
1F
100
AcDbEntity
  8
2-0
  6
Continuous
 62
     3
370
     9
100
AcDbCircle
 10
59.37229356630549
 20
-34.42016073016703
 30
0.0
 40
11.00000178215586
100
AcDbArc
 50
62.25660705566408
 51
108.0005493164063
  0
ARC
  5
1AE
330
1F
100
AcDbEntity
  8
2-0
  6
Continuous
 62
     3
370
     9
100
AcDbCircle
 10
13.82795441208777
 20
-43.68478807636784
 30
0.0
 40
2.999999964099133
100
AcDbArc
 50
90.0
 51
176.7607421875
  0
ARC
  5
1AF
330
1F
100
AcDbEntity
  8
2-0
  6
Continuous
 62
     3
370
     9
100
AcDbCircle
 10
7.047976370604605
 20
-92.68476698506866
 30
0.0
 40
0.9999999880330442
100
AcDbArc
 50
270.0
 51
356.7620544433594
  0
ARC
  5
1B0
330
1F
100
AcDbEntity
  8
2-0
  6
Continuous
 62
     3
370
     9
100
AcDbCircle
 10
13.84895144846571
 20
-43.31415538923738
 30
0.0
 40
6.999999642832399
100
AcDbArc
 50
93.99992370605474
 51
176.7603759765625
  0
ARC
  5
1B1
330
1F
100
AcDbEntity
  8
2-0
  6
Continuous
 62
     3
370
     9
100
AcDbCircle
 10
15.7632337575081
 20
-42.18475979753099
 30
0.0
 40
1.499999982049566
100
AcDbArc
 50
11.30979919433594
 51
90.00000000000001
  0
ARC
  5
1B2
330
1F
100
AcDbEntity
  8
2-0
  6
Continuous
 62
     3
370
     9
100
AcDbCircle
 10
27.75765080813854
 20
-27.18475696964731
 30
0.0
 40
1.499999982049566
100
AcDbArc
 50
90.0
 51
170.2715606689453
  0
ARC
  5
1B3
330
1F
100
AcDbEntity
  8
2-0
  6
Continuous
 62
     3
370
     9
100
AcDbCircle
 10
24.21356103791352
 20
-30.10292508544723
 30
0.0
 40
1.499999982049566
100
AcDbArc
 50
274.0000915527344
 51
350.2715606689453
  0
ARC
  5
1B4
330
1F
100
AcDbEntity
  8
2-0
  6
Continuous
 62
     3
370
     9
100
AcDbCircle
 10
23.4466442842109
 20
-33.16387304861688
 30
0.0
 40
1.499999982049566
100
AcDbArc
 50
94.0
 51
166.0819244384765
  0
ARC
  5
1B5
330
1F
100
AcDbEntity
  8
2-0
  6
Continuous
 62
     3
370
     9
100
AcDbCircle
 10
20.05975232633507
 20
-34.35909434936796
 30
0.0
 40
1.499999982049566
100
AcDbArc
 50
274.0
 51
346.0820922851563
  0
ARC
  5
1B6
330
1F
100
AcDbEntity
  8
2-0
  6
Continuous
 62
     3
370
     9
100
AcDbCircle
 10
43.51239210862572
 20
-30.11006407781571
 30
0.0
 40
1.999999976066088
100
AcDbArc
 50
107.9988708496093
 51
173.0009460449218
  0
ARC
  5
1B7
330
1F
100
AcDbEntity
  8
2-0
  6
Continuous
 62
     3
370
     9
100
AcDbCircle
 10
24.66601217679654
 20
-39.6848176513181
 30
0.0
 40
0.9999999880330442
100
AcDbArc
 50
270.0
 51
349.17236328125
  0
ARC
  5
1B8
330
1F
100
AcDbEntity
  8
2-0
  6
Continuous
 62
     3
370
     9
100
AcDbCircle
 10
26.60463355050702
 20
-37.53391623982708
 30
0.0
 40
0.4999999940165221
100
AcDbArc
 50
83.81649780273439
 51
169.1725616455078
  0
ARC
  5
1B9
330
1F
100
AcDbEntity
  8
2-0
  6
Continuous
 62
     3
370
     9
100
AcDbCircle
 10
26.60463355050702
 20
-37.53391623982708
 30
0.0
 40
0.4999999940165221
100
AcDbArc
 50
16.99040222167968
 51
83.81649780273438
  0
ARC
  5
1BA
330
1F
100
AcDbEntity
  8
2-0
  6
JWW_DASHED1
 62
     3
370
     9
100
AcDbCircle
 10
27.74925199358741
 20
-36.87271956428714
 30
0.0
 40
1.499999982049566
100
AcDbArc
 50
94.0
 51
169.1697998046875
  0
ARC
  5
1BB
330
1F
100
AcDbEntity
  8
2-0
  6
Continuous
 62
     3
370
     9
100
AcDbCircle
 10
39.34448038761339
 20
-35.03005464682366
 30
0.0
 40
0.9999999880330442
100
AcDbArc
 50
118.2492828369141
 51
165.3855438232422
  0
ARC
  5
1BC
330
1F
100
AcDbEntity
  8
2-0
  6
JWW_DASHED1
 62
     3
370
     9
100
AcDbCircle
 10
36.50466621256363
 20
-29.74464565471908
 30
0.0
 40
5.000000213564133
100
AcDbArc
 50
273.9997253417969
 51
298.2485656738281
  0
ARC
  5
1BD
330
1F
100
AcDbEntity
  8
2-0
  6
Continuous
 62
     3
370
     9
100
AcDbCircle
 10
36.50466621256363
 20
-29.74464565471908
 30
0.0
 40
5.000000213564133
100
AcDbArc
 50
298.2485656738281
 51
353.0005493164062
  0
ARC
  5
1BE
330
1F
100
AcDbEntity
  8
2-0
  6
JWW_DASHED1
 62
     3
370
     9
100
AcDbCircle
 10
34.72051303647318
 20
-27.8645710174423
 30
0.0
 40
2.999999964099133
100
AcDbArc
 50
284.9185943603516
 51
353.0002899169922
  0
ARC
  5
1BF
330
1F
100
AcDbEntity
  8
2-0
  6
Continuous
 62
     3
370
     9
100
AcDbCircle
 10
-70.50697465280649
 20
-61.68463749156147
 30
0.0
 40
1.999999976066088
100
AcDbArc
 50
270.0
 51
0.0
  0
ARC
  5
1C0
330
1F
100
AcDbEntity
  8
2-0
  6
Continuous
 62
     3
370
     9
100
AcDbCircle
 10
-70.50697465280649
 20
-61.68463749156147
 30
0.0
 40
7.999999904264354
100
AcDbArc
 50
270.0
 51
0.0
  0
ARC
  5
1C1
330
1F
100
AcDbEntity
  8
2-0
  6
JWW_CENTER1
 62
     3
370
     9
100
AcDbCircle
 10
-70.5070796379884
 20
-61.68463749156147
 30
0.0
 40
5.000000213564133
100
AcDbArc
 50
270.0
 51
0.0
  0
ARC
  5
1C2
330
1F
100
AcDbEntity
  8
2-1
  6
Continuous
 62
     6
370
     9
100
AcDbCircle
 10
34.67319971450168
 20
-24.68481482343441
 30
0.0
 40
0.9999999880330442
100
AcDbArc
 50
325.0496978759766
 51
348.6900634765626
  0
LINE
  5
1C3
330
1F
100
AcDbEntity
  8
2-1
  6
Continuous
 62
     6
370
     9
100
AcDbLine
 10
24.07375577069741
 20
179.0263896562071
 30
0.0
 11
26.18700249695076
 21
179.0263896562071
 31
0.0
  0
LINE
  5
1C4
330
1F
100
AcDbEntity
  8
2-1
  6
Continuous
 62
     6
370
     9
100
AcDbLine
 10
21.40496245694562
 20
188.9866838126683
 30
0.0
 11
23.23495916246112
 21
190.0433246733252
 31
0.0
  0
LINE
  5
1C5
330
1F
100
AcDbEntity
  8
2-1
  6
Continuous
 62
     6
370
     9
100
AcDbLine
 10
16.40485069662573
 20
197.6468764716707
 30
0.0
 11
18.23496988485341
 21
198.7035173323277
 31
0.0
  0
LINE
  5
1C6
330
1F
100
AcDbEntity
  8
2-1
  6
Continuous
 62
     6
370
     9
100
AcDbLine
 10
9.113489834158894
 20
204.9384123094407
 30
0.0
 11
10.17011319728557
 21
206.7684790050774
 31
0.0
  0
LINE
  5
1C7
330
1F
100
AcDbEntity
  8
2-1
  6
Continuous
 62
     6
370
     9
100
AcDbLine
 10
0.4531746924442466
 20
209.9383665919877
 30
0.0
 11
1.509798055570865
 21
211.7684682826851
 31
0.0
  0
LINE
  5
1C8
330
1F
100
AcDbEntity
  8
2-1
  6
Continuous
 62
     6
370
     9
100
AcDbLine
 10
-29.46733968310248
 20
209.9383665919877
 30
0.0
 11
-30.52391055363821
 21
211.7684682826851
 31
0.0
  0
LINE
  5
1C9
330
1F
100
AcDbEntity
  8
2-1
  6
Continuous
 62
     6
370
     9
100
AcDbLine
 10
-38.1275848346959
 20
204.9383073242588
 30
0.0
 11
-39.18420819782257
 21
206.7684790050774
 31
0.0
  0
LINE
  5
1CA
330
1F
100
AcDbEntity
  8
2-1
  6
Continuous
 62
     6
370
     9
100
AcDbLine
 10
-45.4190506823446
 20
197.646946461792
 30
0.0
 11
-47.24911737798137
 21
198.7036223175096
 31
0.0
  0
LINE
  5
1CB
330
1F
100
AcDbEntity
  8
2-1
  6
Continuous
 62
     6
370
     9
100
AcDbLine
 10
-50.41900496489168
 20
188.9866838126683
 30
0.0
 11
-52.24912415311939
 21
190.0433246733252
 31
0.0
  0
LINE
  5
1CC
330
1F
100
AcDbEntity
  8
2-1
  6
Continuous
 62
     6
370
     9
100
AcDbLine
 10
-53.08790326382537
 20
179.0263896562071
 30
0.0
 11
-55.20107999995744
 21
179.0263896562071
 31
0.0
  0
LINE
  5
1CD
330
1F
100
AcDbEntity
  8
2-1
  6
Continuous
 62
     6
370
     9
100
AcDbLine
 10
35.24228939046396
 20
179.0263896562071
 30
0.0
 11
36.33578004996412
 21
178.0264407937705
 31
0.0
  0
LINE
  5
1CE
330
1F
100
AcDbEntity
  8
2-1
  6
Continuous
 62
     6
370
     9
100
AcDbLine
 10
34.48265160937229
 20
184.0264489239361
 30
0.0
 11
35.29257729258899
 21
185.0264327814333
 31
0.0
  0
LINE
  5
1CF
330
1F
100
AcDbEntity
  8
2-1
  6
Continuous
 62
     6
370
     9
100
AcDbLine
 10
25.25473408177215
 20
184.0264489239361
 30
0.0
 11
34.48265160937229
 21
184.0264489239361
 31
0.0
  0
LINE
  5
1D0
330
1F
100
AcDbEntity
  8
2-1
  6
Continuous
 62
     6
370
     9
100
AcDbLine
 10
24.98982147280436
 20
185.0264327814333
 30
0.0
 11
35.29257729258899
 21
185.0264327814333
 31
0.0
  0
LINE
  5
1D1
330
1F
100
AcDbEntity
  8
2-1
  6
Continuous
 62
     6
370
     9
100
AcDbLine
 10
-64.2564368835919
 20
179.0263896562071
 30
0.0
 11
-65.3499275430921
 21
178.0264407937705
 31
0.0
  0
LINE
  5
1D2
330
1F
100
AcDbEntity
  8
2-1
  6
Continuous
 62
     6
370
     9
100
AcDbLine
 10
-63.49679910250025
 20
184.0264489239361
 30
0.0
 11
-64.30667229312601
 21
185.0264327814333
 31
0.0
  0
LINE
  5
1D3
330
1F
100
AcDbEntity
  8
2-1
  6
Continuous
 62
     6
370
     9
100
AcDbLine
 10
-54.26888157490011
 20
184.0264489239361
 30
0.0
 11
-63.49679910250025
 21
184.0264489239361
 31
0.0
  0
LINE
  5
1D4
330
1F
100
AcDbEntity
  8
2-1
  6
Continuous
 62
     6
370
     9
100
AcDbLine
 10
-54.0039164733414
 20
185.0264327814333
 30
0.0
 11
-64.30667229312601
 21
185.0264327814333
 31
0.0
  0
LINE
  5
1D5
330
1F
100
AcDbEntity
  8
2-1
  6
Continuous
 62
     6
370
     9
100
AcDbLine
 10
-9.50701447883505
 20
212.6072648909214
 30
0.0
 11
-9.507014478835048
 21
214.7203716369322
 31
0.0
  0
LINE
  5
1D6
330
1F
100
AcDbEntity
  8
2-1
  6
Continuous
 62
     6
370
     9
100
AcDbLine
 10
-19.50704552664134
 20
212.6071599057395
 30
0.0
 11
-19.50704552664133
 21
214.7203716369322
 31
0.0
  0
LINE
  5
1D7
330
1F
100
AcDbEntity
  8
2-3
  6
Continuous
 62
     4
370
     9
100
AcDbLine
 10
33.09299775176192
 20
175.6265495258982
 30
0.0
 11
33.09299775176192
 21
176.7764172280731
 31
0.0
  0
LINE
  5
1D8
330
1F
100
AcDbEntity
  8
2-3
  6
Continuous
 62
     4
370
     9
100
AcDbLine
 10
31.89280715240137
 20
176.7764172280731
 30
0.0
 11
33.09299775176192
 21
176.7764172280731
 31
0.0
  0
LINE
  5
1D9
330
1F
100
AcDbEntity
  8
2-3
  6
Continuous
 62
     4
370
     9
100
AcDbLine
 10
31.89280715240137
 20
175.6265495258982
 30
0.0
 11
31.89280715240137
 21
176.7764172280731
 31
0.0
  0
LINE
  5
1DA
330
1F
100
AcDbEntity
  8
2-3
  6
Continuous
 62
     4
370
     9
100
AcDbLine
 10
37.4567418320587
 20
174.6265306733403
 30
0.0
 11
27.52906307210458
 21
174.6265306733403
 31
0.0
  0
LINE
  5
1DB
330
1F
100
AcDbEntity
  8
2-3
  6
Continuous
 62
     4
370
     9
100
AcDbLine
 10
-11.50708717901147
 20
211.6291004537269
 30
0.0
 11
-11.50708717901147
 21
215.6892973781206
 31
0.0
  0
LINE
  5
1DC
330
1F
100
AcDbEntity
  8
2-3
  6
Continuous
 62
     4
370
     9
100
AcDbLine
 10
-17.00705088783751
 20
211.4813513077477
 30
0.0
 11
-17.00705088783751
 21
215.6892973781206
 31
0.0
  0
LINE
  5
1DD
330
1F
100
AcDbEntity
  8
2-3
  6
Continuous
 62
     4
370
     9
100
AcDbLine
 10
-17.50709530917708
 20
211.6291004537269
 30
0.0
 11
-17.50709530917707
 21
215.6892973781206
 31
0.0
  0
LINE
  5
1DE
330
1F
100
AcDbEntity
  8
2-3
  6
Continuous
 62
     4
370
     9
100
AcDbLine
 10
-12.00702661516918
 20
211.4813513077477
 30
0.0
 11
-12.00702661516918
 21
215.6892973781206
 31
0.0
  0
LINE
  5
1DF
330
1F
100
AcDbEntity
  8
2-3
  6
Continuous
 62
     4
370
     9
100
AcDbLine
 10
-11.50708717901147
 20
204.2053182818368
 30
0.0
 11
-11.50708717901147
 21
205.885501132796
 31
0.0
  0
LINE
  5
1E0
330
1F
100
AcDbEntity
  8
2-3
  6
Continuous
 62
     4
370
     9
100
AcDbLine
 10
-12.00702661516918
 20
204.0821356684198
 30
0.0
 11
-12.00702661516918
 21
205.9151069540889
 31
0.0
  0
LINE
  5
1E1
330
1F
100
AcDbEntity
  8
2-3
  6
Continuous
 62
     4
370
     9
100
AcDbLine
 10
-17.50709530917708
 20
204.2052832867762
 30
0.0
 11
-17.50709530917708
 21
205.885501132796
 31
0.0
  0
LINE
  5
1E2
330
1F
100
AcDbEntity
  8
2-3
  6
Continuous
 62
     4
370
     9
100
AcDbLine
 10
-17.00705088783751
 20
204.0820306832379
 30
0.0
 11
-17.00705088783751
 21
205.9151069540889
 31
0.0
  0
LINE
  5
1E3
330
1F
100
AcDbEntity
  8
2-3
  6
Continuous
 62
     4
370
     9
100
AcDbLine
 10
-9.688568853382536
 20
217.7635946018929
 30
0.0
 11
-9.50708446895628
 21
215.6892973781206
 31
0.0
  0
LINE
  5
1E4
330
1F
100
AcDbEntity
  8
2-3
  6
Continuous
 62
     4
370
     9
100
AcDbLine
 10
-17.33330983808936
 20
219.5892869149509
 30
0.0
 11
-11.68097763528111
 21
219.5892869149509
 31
0.0
  0
LINE
  5
1E5
330
1F
100
AcDbEntity
  8
2-3
  6
Continuous
 62
     4
370
     9
100
AcDbLine
 10
-19.50706302417164
 20
215.6892973781206
 30
0.0
 11
-9.50708446895628
 21
215.6892973781206
 31
0.0
  0
LINE
  5
1E6
330
1F
100
AcDbEntity
  8
2-3
  6
Continuous
 62
     4
370
     9
100
AcDbLine
 10
-19.32557863974539
 20
217.7635946018929
 30
0.0
 11
-19.50706302417164
 21
215.6892973781206
 31
0.0
  0
LINE
  5
1E7
330
1F
100
AcDbEntity
  8
2-1
  6
Continuous
 62
     6
370
     9
100
AcDbLine
 10
32.49290245208164
 20
179.0263896562071
 30
0.0
 11
35.24228939046396
 21
179.0263896562071
 31
0.0
  0
LINE
  5
1E8
330
1F
100
AcDbEntity
  8
2-1
  6
Continuous
 62
     6
370
     9
100
AcDbLine
 10
35.49288901963411
 20
178.0264407937705
 30
0.0
 11
36.33578004996412
 21
178.0264407937705
 31
0.0
  0
LINE
  5
1E9
330
1F
100
AcDbEntity
  8
2-3
  6
Continuous
 62
     4
370
     9
100
AcDbLine
 10
-62.10714524488986
 20
175.6265495258982
 30
0.0
 11
-62.10714524488986
 21
176.7764172280731
 31
0.0
  0
LINE
  5
1EA
330
1F
100
AcDbEntity
  8
2-3
  6
Continuous
 62
     4
370
     9
100
AcDbLine
 10
-60.90695464552933
 20
176.7764172280731
 30
0.0
 11
-62.10714524488986
 21
176.7764172280731
 31
0.0
  0
LINE
  5
1EB
330
1F
100
AcDbEntity
  8
2-3
  6
Continuous
 62
     4
370
     9
100
AcDbLine
 10
-60.90695464552933
 20
175.6265495258982
 30
0.0
 11
-60.90695464552933
 21
176.7764172280731
 31
0.0
  0
LINE
  5
1EC
330
1F
100
AcDbEntity
  8
2-3
  6
Continuous
 62
     4
370
     9
100
AcDbLine
 10
-66.47088932518668
 20
174.6265306733403
 30
0.0
 11
-56.54321056523252
 21
174.6265306733403
 31
0.0
  0
LINE
  5
1ED
330
1F
100
AcDbEntity
  8
2-1
  6
Continuous
 62
     6
370
     9
100
AcDbLine
 10
-61.50704994520961
 20
179.0263896562071
 30
0.0
 11
-64.2564368835919
 21
179.0263896562071
 31
0.0
  0
LINE
  5
1EE
330
1F
100
AcDbEntity
  8
2-1
  6
Continuous
 62
     6
370
     9
100
AcDbLine
 10
-64.50703651276208
 20
178.0264407937705
 30
0.0
 11
-65.3499275430921
 21
178.0264407937705
 31
0.0
  0
LINE
  5
1EF
330
1F
100
AcDbEntity
  8
2-0
  6
Continuous
 62
     3
370
     9
100
AcDbLine
 10
2.458671627018319
 20
224.7650388845719
 30
0.0
 11
3.129316968928336
 21
227.7032941651734
 31
0.0
  0
LINE
  5
1F0
330
1F
100
AcDbEntity
  8
2-0
  6
Continuous
 62
     3
370
     9
100
AcDbLine
 10
14.58400519946493
 20
218.925868053061
 30
0.0
 11
16.46306497998343
 21
221.282015495146
 31
0.0
  0
LINE
  5
1F1
330
1F
100
AcDbEntity
  8
2-0
  6
Continuous
 62
     3
370
     9
100
AcDbLine
 10
3.129316968928336
 20
227.7032941651734
 30
0.0
 11
0.9543039606633243
 21
229.4086559622557
 31
0.0
  0
LINE
  5
1F2
330
1F
100
AcDbEntity
  8
2-0
  6
Continuous
 62
     3
370
     9
100
AcDbLine
 10
16.46306497998343
 20
221.282015495146
 30
0.0
 11
19.15250537950688
 21
220.644825431198
 31
0.0
  0
LINE
  5
1F3
330
1F
100
AcDbEntity
  8
2-0
  6
Continuous
 62
     3
370
     9
100
AcDbLine
 10
22.79325150719144
 20
212.3791670857362
 30
0.0
 11
24.67227629264933
 21
214.7354195130031
 31
0.0
  0
LINE
  5
1F4
330
1F
100
AcDbEntity
  8
2-0
  6
Continuous
 62
     3
370
     9
100
AcDbLine
 10
31.18422716476869
 20
201.8571322160451
 30
0.0
 11
33.89959890421876
 21
203.164967621903
 31
0.0
  0
LINE
  5
1F5
330
1F
100
AcDbEntity
  8
2-0
  6
Continuous
 62
     3
370
     9
100
AcDbLine
 10
24.67227629264933
 20
214.7354195130031
 30
0.0
 11
23.45262843957865
 21
217.2156244450208
 31
0.0
  0
LINE
  5
1F6
330
1F
100
AcDbEntity
  8
2-0
  6
Continuous
 62
     3
370
     9
100
AcDbLine
 10
33.89959890421876
 20
203.164967621903
 30
0.0
 11
36.04619592325231
 21
201.423788380266
 31
0.0
  0
LINE
  5
1F7
330
1F
100
AcDbEntity
  8
2-0
  6
JWW_CENTER2
 62
     3
370
     9
100
AcDbLine
 10
32.49293744714226
 20
174.0264353736601
 30
0.0
 11
32.49293744714226
 21
183.9195040186513
 31
0.0
  0
LINE
  5
1F8
330
1F
100
AcDbEntity
  8
2-0
  6
Continuous
 62
     3
370
     9
100
AcDbLine
 10
31.56276873560149
 20
199.2646281344663
 30
0.0
 11
36.04619592325231
 21
201.423788380266
 31
0.0
  0
LINE
  5
1F9
330
1F
100
AcDbEntity
  8
2-0
  6
Continuous
 62
     3
370
     9
100
AcDbLine
 10
20.34993136907759
 20
213.3251185696211
 30
0.0
 11
23.45262843957865
 21
217.2156244450208
 31
0.0
  0
LINE
  5
1FA
330
1F
100
AcDbEntity
  8
2-0
  6
Continuous
 62
     3
370
     9
100
AcDbLine
 10
16.04987829912712
 20
216.7542145706165
 30
0.0
 11
19.15250537950688
 21
220.644825431198
 31
0.0
  0
LINE
  5
1FB
330
1F
100
AcDbEntity
  8
2-0
  6
Continuous
 62
     3
370
     9
100
AcDbLine
 10
14.58400519946493
 20
218.925868053061
 30
0.0
 11
16.04987829912712
 21
216.7542145706165
 31
0.0
  0
LINE
  5
1FC
330
1F
100
AcDbEntity
  8
2-0
  6
Continuous
 62
     3
370
     9
100
AcDbLine
 10
20.34993136907759
 20
213.3251185696211
 30
0.0
 11
22.79321651213083
 21
212.3792020807969
 31
0.0
  0
LINE
  5
1FD
330
1F
100
AcDbEntity
  8
2-0
  6
Continuous
 62
     3
370
     9
100
AcDbLine
 10
-0.1530797379068503
 20
224.5571682244307
 30
0.0
 11
0.9543039606633243
 21
229.4086559622557
 31
0.0
  0
LINE
  5
1FE
330
1F
100
AcDbEntity
  8
2-0
  6
Continuous
 62
     3
370
     9
100
AcDbLine
 10
-0.1530797379068503
 20
224.5571682244307
 30
0.0
 11
2.458671627018319
 21
224.7650388845719
 31
0.0
  0
LINE
  5
1FF
330
1F
100
AcDbEntity
  8
2-0
  6
Continuous
 62
     3
370
     9
100
AcDbLine
 10
31.18422716476869
 20
201.8572022061664
 30
0.0
 11
31.56276873560149
 21
199.2646281344663
 31
0.0
  0
LINE
  5
200
330
1F
100
AcDbEntity
  8
2-0
  6
Continuous
 62
     3
370
     9
100
AcDbLine
 10
-7.778048513357803
 20
227.1015540976435
 30
0.0
 11
-7.107403171447841
 21
230.0396344029418
 31
0.0
  0
LINE
  5
201
330
1F
100
AcDbEntity
  8
2-0
  6
Continuous
 62
     3
370
     9
100
AcDbLine
 10
-21.90677931674072
 20
230.0397393881237
 30
0.0
 11
-24.60629829372552
 21
230.6325032226021
 31
0.0
  0
LINE
  5
202
330
1F
100
AcDbEntity
  8
2-0
  6
Continuous
 62
     3
370
     9
100
AcDbLine
 10
-7.107403171447841
 20
230.0396344029418
 30
0.0
 11
-4.407849199402435
 21
230.6324857250717
 31
0.0
  0
LINE
  5
203
330
1F
100
AcDbEntity
  8
2-0
  6
Continuous
 62
     3
370
     9
100
AcDbLine
 10
-5.515092917730087
 20
225.781015484777
 30
0.0
 11
-4.407849199402435
 21
230.6324857250717
 31
0.0
  0
LINE
  5
204
330
1F
100
AcDbEntity
  8
2-0
  6
Continuous
 62
     3
370
     9
100
AcDbLine
 10
-7.778048513357803
 20
227.1015540976435
 30
0.0
 11
-5.515092917730087
 21
225.781015484777
 31
0.0
  0
LINE
  5
205
330
1F
100
AcDbEntity
  8
2-0
  6
Continuous
 62
     3
370
     9
100
AcDbLine
 10
-23.49901958033719
 20
225.781015484777
 30
0.0
 11
-24.60629829372552
 21
230.6325032226021
 31
0.0
  0
LINE
  5
206
330
1F
100
AcDbEntity
  8
2-0
  6
Continuous
 62
     3
370
     9
100
AcDbLine
 10
-23.49901958033719
 20
225.781015484777
 30
0.0
 11
-21.23606398470947
 21
227.1014841075222
 31
0.0
  0
LINE
  5
207
330
1F
100
AcDbEntity
  8
2-0
  6
Continuous
 62
     3
370
     9
100
AcDbLine
 10
-43.59811769753223
 20
218.9257630678791
 30
0.0
 11
-45.47724746817202
 21
221.2820504902065
 31
0.0
  0
LINE
  5
208
330
1F
100
AcDbEntity
  8
2-0
  6
Continuous
 62
     3
370
     9
100
AcDbLine
 10
-31.47285411520689
 20
224.7650388845719
 30
0.0
 11
-32.14342946699561
 21
227.7031541849309
 31
0.0
  0
LINE
  5
209
330
1F
100
AcDbEntity
  8
2-0
  6
Continuous
 62
     3
370
     9
100
AcDbLine
 10
-45.47724746817202
 20
221.2820504902065
 30
0.0
 11
-48.1666528726348
 21
220.6447904361374
 31
0.0
  0
LINE
  5
20A
330
1F
100
AcDbEntity
  8
2-0
  6
Continuous
 62
     3
370
     9
100
AcDbLine
 10
-32.14342946699561
 20
227.7031541849309
 30
0.0
 11
-29.96845145379127
 21
229.4086034696647
 31
0.0
  0
LINE
  5
20B
330
1F
100
AcDbEntity
  8
2-0
  6
Continuous
 62
     3
370
     9
100
AcDbLine
 10
-28.86106775522107
 20
224.5571682244307
 30
0.0
 11
-29.96845145379127
 21
229.4086034696647
 31
0.0
  0
LINE
  5
20C
330
1F
100
AcDbEntity
  8
2-0
  6
Continuous
 62
     3
370
     9
100
AcDbLine
 10
-31.47285411520689
 20
224.7650388845719
 30
0.0
 11
-28.86106775522107
 21
224.5571682244307
 31
0.0
  0
LINE
  5
20D
330
1F
100
AcDbEntity
  8
2-0
  6
Continuous
 62
     3
370
     9
100
AcDbLine
 10
-45.06402579225504
 20
216.7541795755559
 30
0.0
 11
-48.1666528726348
 21
220.6447904361374
 31
0.0
  0
LINE
  5
20E
330
1F
100
AcDbEntity
  8
2-0
  6
Continuous
 62
     3
370
     9
100
AcDbLine
 10
-45.06402579225504
 20
216.7541795755559
 30
0.0
 11
-43.59811769753223
 21
218.9257630678791
 31
0.0
  0
LINE
  5
20F
330
1F
100
AcDbEntity
  8
2-0
  6
Continuous
 62
     3
370
     9
100
AcDbLine
 10
-60.19830466777537
 20
201.8571322160451
 30
0.0
 11
-62.9137114022861
 21
203.1647926465998
 31
0.0
  0
LINE
  5
210
330
1F
100
AcDbEntity
  8
2-0
  6
Continuous
 62
     3
370
     9
100
AcDbLine
 10
-51.80739900031939
 20
212.3791320906756
 30
0.0
 11
-53.68635379565602
 21
214.7353145278212
 31
0.0
  0
LINE
  5
211
330
1F
100
AcDbEntity
  8
2-0
  6
Continuous
 62
     3
370
     9
100
AcDbLine
 10
-62.9137114022861
 20
203.1647926465998
 30
0.0
 11
-65.06030842131966
 21
201.423788380266
 31
0.0
  0
LINE
  5
212
330
1F
100
AcDbEntity
  8
2-0
  6
Continuous
 62
     3
370
     9
100
AcDbLine
 10
-53.68635379565602
 20
214.7353145278212
 30
0.0
 11
-52.46670594258534
 21
217.2155894499601
 31
0.0
  0
LINE
  5
213
330
1F
100
AcDbEntity
  8
2-0
  6
Continuous
 62
     3
370
     9
100
AcDbLine
 10
-49.36404386714493
 20
213.3250485794998
 30
0.0
 11
-52.46670594258534
 21
217.2155894499601
 31
0.0
  0
LINE
  5
214
330
1F
100
AcDbEntity
  8
2-0
  6
Continuous
 62
     3
370
     9
100
AcDbLine
 10
-51.80739900031939
 20
212.3791320906756
 30
0.0
 11
-49.36404386714493
 21
213.3250485794998
 31
0.0
  0
LINE
  5
215
330
1F
100
AcDbEntity
  8
2-0
  6
Continuous
 62
     3
370
     9
100
AcDbLine
 10
-60.57684623860819
 20
199.264663129527
 30
0.0
 11
-65.06030842131966
 21
201.423788380266
 31
0.0
  0
LINE
  5
216
330
1F
100
AcDbEntity
  8
2-0
  6
Continuous
 62
     3
370
     9
100
AcDbLine
 10
-60.57684623860819
 20
199.264663129527
 30
0.0
 11
-60.19830466777537
 21
201.8571322160451
 31
0.0
  0
LINE
  5
217
330
1F
100
AcDbEntity
  8
2-0
  6
Continuous
 62
     3
370
     9
100
AcDbLine
 10
-67.74876895914542
 20
179.276359374286
 30
0.0
 11
-70.76261357070732
 21
179.2763243792253
 31
0.0
  0
LINE
  5
218
330
1F
100
AcDbEntity
  8
2-0
  6
Continuous
 62
     3
370
     9
100
AcDbLine
 10
-64.75417163092993
 20
192.3969874661054
 30
0.0
 11
-67.46936839507688
 21
193.7046129015995
 31
0.0
  0
LINE
  5
219
330
1F
100
AcDbEntity
  8
2-0
  6
Continuous
 62
     3
370
     9
100
AcDbLine
 10
-70.76261357070732
 20
179.2763243792253
 30
0.0
 11
-71.94124721271987
 21
176.7763472379518
 31
0.0
  0
LINE
  5
21A
330
1F
100
AcDbEntity
  8
2-0
  6
Continuous
 62
     3
370
     9
100
AcDbLine
 10
-67.46936839507688
 20
193.7046129015995
 30
0.0
 11
-67.4466216056675
 21
196.4683828099007
 31
0.0
  0
LINE
  5
21B
330
1F
100
AcDbEntity
  8
2-0
  6
Continuous
 62
     3
370
     9
100
AcDbLine
 10
-62.96319441801668
 20
194.3093625443436
 30
0.0
 11
-67.4466216056675
 21
196.4683828099007
 31
0.0
  0
LINE
  5
21C
330
1F
100
AcDbEntity
  8
2-0
  6
Continuous
 62
     3
370
     9
100
AcDbLine
 10
-64.75417163092993
 20
192.3969874661054
 30
0.0
 11
-62.96319441801668
 21
194.3093625443436
 31
0.0
  0
LINE
  5
21D
330
1F
100
AcDbEntity
  8
2-0
  6
Continuous
 62
     3
370
     9
100
AcDbLine
 10
-66.96494959115859
 20
176.7763472379518
 30
0.0
 11
-71.94124721271987
 21
176.7763472379518
 31
0.0
  0
LINE
  5
21E
330
1F
100
AcDbEntity
  8
2-0
  6
Continuous
 62
     3
370
     9
100
AcDbLine
 10
-66.96494959115859
 20
176.7763472379518
 30
0.0
 11
-67.74876895914542
 21
179.276359374286
 31
0.0
  0
LINE
  5
21F
330
1F
100
AcDbEntity
  8
2-0
  6
Continuous
 62
     3
370
     9
100
AcDbLine
 10
38.73462146601748
 20
179.276359374286
 30
0.0
 11
41.74846607757934
 21
179.2763243792253
 31
0.0
  0
LINE
  5
220
330
1F
100
AcDbEntity
  8
2-0
  6
Continuous
 62
     3
370
     9
100
AcDbLine
 10
35.74002413780199
 20
192.3969874661054
 30
0.0
 11
38.45525589700959
 21
193.7046129015995
 31
0.0
  0
LINE
  5
221
330
1F
100
AcDbEntity
  8
2-0
  6
Continuous
 62
     3
370
     9
100
AcDbLine
 10
41.74846607757934
 20
179.2763243792253
 30
0.0
 11
42.92709971959193
 21
176.7763472379518
 31
0.0
  0
LINE
  5
222
330
1F
100
AcDbEntity
  8
2-0
  6
Continuous
 62
     3
370
     9
100
AcDbLine
 10
38.45525589700959
 20
193.7046129015995
 30
0.0
 11
38.43247411253953
 21
196.4683828099007
 31
0.0
  0
LINE
  5
223
330
1F
100
AcDbEntity
  8
2-0
  6
Continuous
 62
     3
370
     9
100
AcDbLine
 10
33.94904692488871
 20
194.3093625443436
 30
0.0
 11
38.43247411253953
 21
196.4683828099007
 31
0.0
  0
LINE
  5
224
330
1F
100
AcDbEntity
  8
2-0
  6
Continuous
 62
     3
370
     9
100
AcDbLine
 10
35.74002413780199
 20
192.3969874661054
 30
0.0
 11
33.94904692488871
 21
194.3093625443436
 31
0.0
  0
LINE
  5
225
330
1F
100
AcDbEntity
  8
2-0
  6
Continuous
 62
     3
370
     9
100
AcDbLine
 10
37.95083709309126
 20
176.7763472379518
 30
0.0
 11
42.92709971959193
 21
176.7763472379518
 31
0.0
  0
LINE
  5
226
330
1F
100
AcDbEntity
  8
2-0
  6
Continuous
 62
     3
370
     9
100
AcDbLine
 10
37.95083709309126
 20
176.7763472379518
 30
0.0
 11
38.73462146601748
 21
179.276359374286
 31
0.0
  0
LINE
  5
227
330
1F
100
AcDbEntity
  8
2-0
  6
Continuous
 62
     3
370
     9
100
AcDbLine
 10
-21.23606398470947
 20
227.1014841075222
 30
0.0
 11
-21.90677931674072
 21
230.0397393881237
 31
0.0
  0
LINE
  5
228
330
1F
100
AcDbEntity
  8
2-0
  6
JWW_CENTER2
 62
     3
370
     9
100
AcDbLine
 10
-61.50708494027023
 20
174.0264353736601
 30
0.0
 11
-61.50708494027023
 21
183.9195040186513
 31
0.0
  0
ARC
  5
229
330
1F
100
AcDbEntity
  8
2-1
  6
Continuous
 62
     6
370
     9
100
AcDbCircle
 10
-14.507073746564
 20
174.0264353736601
 30
0.0
 40
37.62451074666498
100
AcDbArc
 50
9.563262939453127
 51
20.43670654296875
  0
ARC
  5
22A
330
1F
100
AcDbEntity
  8
2-1
  6
Continuous
 62
     6
370
     9
100
AcDbCircle
 10
22.15490660624278
 20
187.6876321670285
 30
0.0
 40
1.499999982049566
100
AcDbArc
 50
119.999267578125
 51
200.4363555908203
  0
ARC
  5
22B
330
1F
100
AcDbEntity
  8
2-1
  6
Continuous
 62
     6
370
     9
100
AcDbCircle
 10
24.07375577069741
 20
180.5263829399834
 30
0.0
 40
1.499999982049566
100
AcDbArc
 50
189.5630035400391
 51
270.0
  0
ARC
  5
22C
330
1F
100
AcDbEntity
  8
2-1
  6
Continuous
 62
     6
370
     9
100
AcDbCircle
 10
-14.507073746564
 20
174.0264353736601
 30
0.0
 40
37.62451074666498
100
AcDbArc
 50
39.56324768066405
 51
50.43669128417967
  0
ARC
  5
22D
330
1F
100
AcDbEntity
  8
2-1
  6
Continuous
 62
     6
370
     9
100
AcDbCircle
 10
10.41250648473807
 20
204.1883631749616
 30
0.0
 40
1.499999982049566
100
AcDbArc
 50
149.9992523193359
 51
230.4363403320313
  0
ARC
  5
22E
330
1F
100
AcDbEntity
  8
2-1
  6
Continuous
 62
     6
370
     9
100
AcDbCircle
 10
15.65485405473761
 20
198.9459631123711
 30
0.0
 40
1.499999982049566
100
AcDbArc
 50
219.56298828125
 51
299.9999847412109
  0
ARC
  5
22F
330
1F
100
AcDbEntity
  8
2-1
  6
Continuous
 62
     6
370
     9
100
AcDbCircle
 10
-14.507073746564
 20
174.0264353736601
 30
0.0
 40
37.62451074666498
100
AcDbArc
 50
69.5632476806641
 51
80.43669128417974
  0
ARC
  5
230
330
1F
100
AcDbEntity
  8
2-1
  6
Continuous
 62
     6
370
     9
100
AcDbCircle
 10
-8.007038692589095
 20
212.6072648909214
 30
0.0
 40
1.499999982049566
100
AcDbArc
 50
179.999252319336
 51
260.4363403320313
  0
ARC
  5
231
330
1F
100
AcDbEntity
  8
2-1
  6
Continuous
 62
     6
370
     9
100
AcDbCircle
 10
-0.845824460604593
 20
210.6883107412849
 30
0.0
 40
1.499999982049566
100
AcDbArc
 50
249.56298828125
 51
329.999984741211
  0
ARC
  5
232
330
1F
100
AcDbEntity
  8
2-1
  6
Continuous
 62
     6
370
     9
100
AcDbCircle
 10
-14.507073746564
 20
174.0264353736601
 30
0.0
 40
37.62451074666498
100
AcDbArc
 50
99.56326293945312
 51
110.4367065429688
  0
ARC
  5
233
330
1F
100
AcDbEntity
  8
2-1
  6
Continuous
 62
     6
370
     9
100
AcDbCircle
 10
-28.16828803746272
 20
210.6884157264668
 30
0.0
 40
1.499999982049566
100
AcDbArc
 50
209.999267578125
 51
290.4363555908204
  0
ARC
  5
234
330
1F
100
AcDbEntity
  8
2-1
  6
Continuous
 62
     6
370
     9
100
AcDbCircle
 10
-21.00702131288726
 20
212.6071599057395
 30
0.0
 40
1.499999982049566
100
AcDbArc
 50
279.5630035400391
 51
0.0000000000000254
  0
ARC
  5
235
330
1F
100
AcDbEntity
  8
2-1
  6
Continuous
 62
     6
370
     9
100
AcDbCircle
 10
-14.507073746564
 20
174.0264353736601
 30
0.0
 40
37.62451074666498
100
AcDbArc
 50
129.5632476806641
 51
140.4366912841797
  0
ARC
  5
236
330
1F
100
AcDbEntity
  8
2-1
  6
Continuous
 62
     6
370
     9
100
AcDbCircle
 10
-44.66900154786553
 20
198.9459631123711
 30
0.0
 40
1.499999982049566
100
AcDbArc
 50
239.999252319336
 51
320.4363403320312
  0
ARC
  5
237
330
1F
100
AcDbEntity
  8
2-1
  6
Continuous
 62
     6
370
     9
100
AcDbCircle
 10
-39.42660148527504
 20
204.1883631749616
 30
0.0
 40
1.499999982049566
100
AcDbArc
 50
309.56298828125
 51
29.99998474121094
  0
ARC
  5
238
330
1F
100
AcDbEntity
  8
2-1
  6
Continuous
 62
     6
370
     9
100
AcDbCircle
 10
-14.507073746564
 20
174.0264353736601
 30
0.0
 40
37.62451074666498
100
AcDbArc
 50
159.5632629394531
 51
170.4367065429688
  0
ARC
  5
239
330
1F
100
AcDbEntity
  8
2-1
  6
Continuous
 62
     6
370
     9
100
AcDbCircle
 10
-53.08790326382537
 20
180.5264879251653
 30
0.0
 40
1.499999982049566
100
AcDbArc
 50
269.9992675781249
 51
350.4363555908203
  0
ARC
  5
23A
330
1F
100
AcDbEntity
  8
2-1
  6
Continuous
 62
     6
370
     9
100
AcDbCircle
 10
-51.16894911418884
 20
187.6876321670285
 30
0.0
 40
1.499999982049566
100
AcDbArc
 50
339.563003540039
 51
60.00000000000001
  0
ARC
  5
23B
330
1F
100
AcDbEntity
  8
2-1
  6
Continuous
 62
     6
370
     9
100
AcDbCircle
 10
-14.507073746564
 20
174.0264353736601
 30
0.0
 40
31.99999961705742
100
AcDbArc
 50
0.0
 51
180.0
  0
ARC
  5
23C
330
1F
100
AcDbEntity
  8
2-1
  6
Continuous
 62
     6
370
     9
100
AcDbCircle
 10
-14.507073746564
 20
174.0264353736601
 30
0.0
 40
36.51093292236328
100
AcDbArc
 50
0.0
 51
180.0
  0
ARC
  5
23D
330
1F
100
AcDbEntity
  8
2-1
  6
Continuous
 62
     6
370
     9
100
AcDbCircle
 10
-14.507073746564
 20
174.0264353736601
 30
0.0
 40
50.00000213564132
100
AcDbArc
 50
5.7391357421875
 51
11.53700256347656
  0
ARC
  5
23E
330
1F
100
AcDbEntity
  8
2-1
  6
Continuous
 62
     6
370
     9
100
AcDbCircle
 10
-14.507073746564
 20
174.0264353736601
 30
0.0
 40
50.00000213564132
100
AcDbArc
 50
168.4629974365235
 51
174.2608642578125
  0
ARC
  5
23F
330
1F
100
AcDbEntity
  8
2-1
  6
Continuous
 62
     6
370
     9
100
AcDbCircle
 10
-14.507073746564
 20
174.0264353736601
 30
0.0
 40
51.00000349066892
100
AcDbArc
 50
4.498428344726562
 51
175.5015716552735
  0
ARC
  5
240
330
1F
100
AcDbEntity
  8
2-1
  6
Continuous
 62
     6
370
     9
100
AcDbCircle
 10
-14.507073746564
 20
174.0264353736601
 30
0.0
 40
41.00000743792324
100
AcDbArc
 50
0.0
 51
55.80386352539062
  0
ARC
  5
241
330
1F
100
AcDbEntity
  8
2-1
  6
Continuous
 62
     6
370
     9
100
AcDbCircle
 10
-14.507073746564
 20
174.0264353736601
 30
0.0
 40
41.00000743792324
100
AcDbArc
 50
55.17144775390625
 51
85.80386352539062
  0
ARC
  5
242
330
1F
100
AcDbEntity
  8
2-1
  6
Continuous
 62
     6
370
     9
100
AcDbCircle
 10
-14.507073746564
 20
174.0264353736601
 30
0.0
 40
41.00000743792324
100
AcDbArc
 50
94.19613647460936
 51
180.0
  0
ARC
  5
243
330
1F
100
AcDbEntity
  8
2-3
  6
Continuous
 62
     4
370
     9
100
AcDbCircle
 10
30.89285828996476
 20
175.6265495258982
 30
0.0
 40
0.9999999880330442
100
AcDbArc
 50
270.0
 51
0.0
  0
ARC
  5
244
330
1F
100
AcDbEntity
  8
2-3
  6
Continuous
 62
     4
370
     9
100
AcDbCircle
 10
34.09308659444111
 20
175.6265495258982
 30
0.0
 40
0.9999999880330442
100
AcDbArc
 50
180.0
 51
270.0
  0
ARC
  5
245
330
1F
100
AcDbEntity
  8
2-3
  6
Continuous
 62
     4
370
     9
100
AcDbCircle
 10
32.49290245208164
 20
174.0264353736601
 30
0.0
 40
5.000000213564133
100
AcDbArc
 50
0.0
 51
180.0
  0
ELLIPSE
  5
246
330
1F
100
AcDbEntity
  8
2-3
  6
Continuous
 62
     4
370
     9
100
AcDbEllipse
 10
-14.50707374656399
 20
211.6291004537269
 30
0.0
 11
-2.999871466487905
 21
-2.716307928146824E-5
 31
0.0
210
0.0
220
0.0
230
1.0
 40
0.0891
 41
0.0
 42
3.141592653589792
  0
ELLIPSE
  5
247
330
1F
100
AcDbEntity
  8
2-3
  6
Continuous
 62
     4
370
     9
100
AcDbEllipse
 10
-14.50707374656399
 20
204.2053182818368
 30
0.0
 11
-2.999871466527479
 21
-2.236959470239207E-5
 31
0.0
210
0.0
220
0.0
230
1.0
 40
0.0743
 41
0.0
 42
3.141592653589792
  0
ARC
  5
248
330
1F
100
AcDbEntity
  8
2-3
  6
Continuous
 62
     4
370
     9
100
AcDbCircle
 10
-11.68097763528111
 20
217.5893191999563
 30
0.0
 40
1.999999976066088
100
AcDbArc
 50
5.000015258789066
 51
90.0
  0
ARC
  5
249
330
1F
100
AcDbEntity
  8
2-3
  6
Continuous
 62
     4
370
     9
100
AcDbCircle
 10
-17.33330983808936
 20
217.5893191999563
 30
0.0
 40
1.999999976066088
100
AcDbArc
 50
90.0
 51
174.9999847412109
  0
ARC
  5
24A
330
1F
100
AcDbEntity
  8
2-3
  6
Continuous
 62
     4
370
     9
100
AcDbCircle
 10
-59.90700578309269
 20
175.6265495258982
 30
0.0
 40
0.9999999880330442
100
AcDbArc
 50
180.0
 51
270.0
  0
ARC
  5
24B
330
1F
100
AcDbEntity
  8
2-3
  6
Continuous
 62
     4
370
     9
100
AcDbCircle
 10
-63.10723408756905
 20
175.6265495258982
 30
0.0
 40
0.9999999880330442
100
AcDbArc
 50
270.0
 51
0.0
  0
ARC
  5
24C
330
1F
100
AcDbEntity
  8
2-3
  6
Continuous
 62
     4
370
     9
100
AcDbCircle
 10
-61.50704994520961
 20
174.0264353736601
 30
0.0
 40
5.000000213564133
100
AcDbArc
 50
0.0
 51
180.0
  0
ARC
  5
24D
330
1F
100
AcDbEntity
  8
2-0
  6
Continuous
 62
     3
370
     9
100
AcDbCircle
 10
-14.507073746564
 20
174.0264003785994
 30
0.0
 40
56.49999344579041
100
AcDbArc
 50
56.76017761230468
 51
71.81121826171875
  0
ARC
  5
24E
330
1F
100
AcDbEntity
  8
2-0
  6
Continuous
 62
     3
370
     9
100
AcDbCircle
 10
-14.507073746564
 20
174.0264003785994
 30
0.0
 40
53.50000250385534
100
AcDbArc
 50
57.06008911132812
 51
71.51130676269531
  0
ARC
  5
24F
330
1F
100
AcDbEntity
  8
2-0
  6
Continuous
 62
     3
370
     9
100
AcDbCircle
 10
-14.507073746564
 20
174.0264003785994
 30
0.0
 40
56.49999344579041
100
AcDbArc
 50
31.04589843750001
 51
46.09693908691407
  0
ARC
  5
250
330
1F
100
AcDbEntity
  8
2-0
  6
Continuous
 62
     3
370
     9
100
AcDbCircle
 10
-14.507073746564
 20
174.0264003785994
 30
0.0
 40
53.50000250385534
100
AcDbArc
 50
31.34580993652345
 51
45.79702758789064
  0
ARC
  5
251
330
1F
100
AcDbEntity
  8
2-0
  6
Continuous
 62
     3
370
     9
100
AcDbCircle
 10
-14.507073746564
 20
174.0264353736601
 30
0.0
 40
83.00002497963924
100
AcDbArc
 50
0.0
 51
180.0
  0
ARC
  5
252
330
1F
100
AcDbEntity
  8
2-0
  6
Continuous
 62
     3
370
     9
100
AcDbCircle
 10
-14.507073746564
 20
174.0264353736601
 30
0.0
 40
84.00000883713652
100
AcDbArc
 50
0.0
 51
180.0
  0
ARC
  5
253
330
1F
100
AcDbEntity
  8
2-0
  6
Continuous
 62
     3
370
     9
100
AcDbCircle
 10
-14.507073746564
 20
174.0264353736601
 30
0.0
 40
84.9999926946338
100
AcDbArc
 50
0.0
 51
180.0
  0
ARC
  5
254
330
1F
100
AcDbEntity
  8
2-0
  6
Continuous
 62
     3
370
     9
100
AcDbCircle
 10
-14.507073746564
 20
174.0264003785994
 30
0.0
 40
57.50000354958317
100
AcDbArc
 50
28.45550537109375
 51
48.68725585937499
  0
ARC
  5
255
330
1F
100
AcDbEntity
  8
2-0
  6
Continuous
 62
     3
370
     9
100
AcDbCircle
 10
-14.507073746564
 20
174.0264003785994
 30
0.0
 40
57.50000354958317
100
AcDbArc
 50
54.16984558105471
 51
74.40156555175784
  0
ARC
  5
256
330
1F
100
AcDbEntity
  8
2-0
  6
Continuous
 62
     3
370
     9
100
AcDbCircle
 10
-14.507073746564
 20
174.0264003785994
 30
0.0
 40
52.52997441825719
100
AcDbArc
 50
74.14199829101562
 51
80.14372253417967
  0
ARC
  5
257
330
1F
100
AcDbEntity
  8
2-0
  6
Continuous
 62
     3
370
     9
100
AcDbCircle
 10
-14.507073746564
 20
174.0264003785994
 30
0.0
 40
52.52997441825719
100
AcDbArc
 50
22.71334838867187
 51
28.71501159667968
  0
ARC
  5
258
330
1F
100
AcDbEntity
  8
2-0
  6
Continuous
 62
     3
370
     9
100
AcDbCircle
 10
-14.507073746564
 20
174.0264003785994
 30
0.0
 40
52.52997441825719
100
AcDbArc
 50
48.42774963378907
 51
54.42938232421876
  0
ARC
  5
259
330
1F
100
AcDbEntity
  8
2-0
  6
Continuous
 62
     3
370
     9
100
AcDbCircle
 10
-14.507073746564
 20
174.0264003785994
 30
0.0
 40
56.49999344579041
100
AcDbArc
 50
82.47445678710938
 51
97.52549743652342
  0
ARC
  5
25A
330
1F
100
AcDbEntity
  8
2-0
  6
Continuous
 62
     3
370
     9
100
AcDbCircle
 10
-14.507073746564
 20
174.0264003785994
 30
0.0
 40
53.50000250385534
100
AcDbArc
 50
82.77436828613281
 51
97.22558593749999
  0
ARC
  5
25B
330
1F
100
AcDbEntity
  8
2-0
  6
Continuous
 62
     3
370
     9
100
AcDbCircle
 10
-14.507073746564
 20
174.0264003785994
 30
0.0
 40
57.50000354958317
100
AcDbArc
 50
79.8841247558594
 51
100.1158447265625
  0
ARC
  5
25C
330
1F
100
AcDbEntity
  8
2-0
  6
Continuous
 62
     3
370
     9
100
AcDbCircle
 10
-14.507073746564
 20
174.0264003785994
 30
0.0
 40
52.52997441825719
100
AcDbArc
 50
99.8562774658203
 51
105.8580017089844
  0
ARC
  5
25D
330
1F
100
AcDbEntity
  8
2-0
  6
Continuous
 62
     3
370
     9
100
AcDbCircle
 10
-14.507073746564
 20
174.0263653835388
 30
0.0
 40
56.49999344579041
100
AcDbArc
 50
108.1887359619141
 51
123.2397766113281
  0
ARC
  5
25E
330
1F
100
AcDbEntity
  8
2-0
  6
Continuous
 62
     3
370
     9
100
AcDbCircle
 10
-14.507073746564
 20
174.0263653835388
 30
0.0
 40
53.50000250385534
100
AcDbArc
 50
108.4886474609375
 51
122.9398651123047
  0
ARC
  5
25F
330
1F
100
AcDbEntity
  8
2-0
  6
Continuous
 62
     3
370
     9
100
AcDbCircle
 10
-14.507073746564
 20
174.0263653835388
 30
0.0
 40
57.50000354958317
100
AcDbArc
 50
105.5984039306641
 51
125.8301239013672
  0
ARC
  5
260
330
1F
100
AcDbEntity
  8
2-0
  6
Continuous
 62
     3
370
     9
100
AcDbCircle
 10
-14.507073746564
 20
174.0263653835388
 30
0.0
 40
52.52997441825719
100
AcDbArc
 50
125.570556640625
 51
131.5722808837891
  0
ARC
  5
261
330
1F
100
AcDbEntity
  8
2-0
  6
Continuous
 62
     3
370
     9
100
AcDbCircle
 10
-14.507073746564
 20
174.0263653835388
 30
0.0
 40
56.49999344579041
100
AcDbArc
 50
133.9030303955078
 51
148.9540710449219
  0
ARC
  5
262
330
1F
100
AcDbEntity
  8
2-0
  6
Continuous
 62
     3
370
     9
100
AcDbCircle
 10
-14.507073746564
 20
174.0263653835388
 30
0.0
 40
53.50000250385534
100
AcDbArc
 50
134.2029418945313
 51
148.6541595458985
  0
ARC
  5
263
330
1F
100
AcDbEntity
  8
2-0
  6
Continuous
 62
     3
370
     9
100
AcDbCircle
 10
-14.507073746564
 20
174.0263653835388
 30
0.0
 40
57.50000354958317
100
AcDbArc
 50
131.3126983642579
 51
151.544418334961
  0
ARC
  5
264
330
1F
100
AcDbEntity
  8
2-0
  6
Continuous
 62
     3
370
     9
100
AcDbCircle
 10
-14.507073746564
 20
174.0263653835388
 30
0.0
 40
52.52997441825719
100
AcDbArc
 50
151.2848510742188
 51
157.2865753173828
  0
ARC
  5
265
330
1F
100
AcDbEntity
  8
2-0
  6
Continuous
 62
     3
370
     9
100
AcDbCircle
 10
-14.507073746564
 20
174.0263653835388
 30
0.0
 40
56.49999344579041
100
AcDbArc
 50
159.6173095703125
 51
174.6683502197265
  0
ARC
  5
266
330
1F
100
AcDbEntity
  8
2-0
  6
Continuous
 62
     3
370
     9
100
AcDbCircle
 10
-14.507073746564
 20
174.0263653835388
 30
0.0
 40
53.50000250385534
100
AcDbArc
 50
159.9172210693359
 51
174.3684387207031
  0
ARC
  5
267
330
1F
100
AcDbEntity
  8
2-0
  6
Continuous
 62
     3
370
     9
100
AcDbCircle
 10
-14.507073746564
 20
174.0263653835388
 30
0.0
 40
57.50000354958317
100
AcDbArc
 50
157.0269775390625
 51
177.2586975097656
  0
ARC
  5
268
330
1F
100
AcDbEntity
  8
2-0
  6
Continuous
 62
     3
370
     9
100
AcDbCircle
 10
-14.507073746564
 20
174.0263653835388
 30
0.0
 40
52.52997441825719
100
AcDbArc
 50
176.9991302490234
 51
179.9999237060547
  0
ARC
  5
269
330
1F
100
AcDbEntity
  8
2-0
  6
Continuous
 62
     3
370
     9
100
AcDbCircle
 10
-14.507073746564
 20
174.0263653835388
 30
0.0
 40
56.49999344579041
100
AcDbArc
 50
5.331649780273476
 51
20.38269042968754
  0
ARC
  5
26A
330
1F
100
AcDbEntity
  8
2-0
  6
Continuous
 62
     3
370
     9
100
AcDbCircle
 10
-14.507073746564
 20
174.0263653835388
 30
0.0
 40
53.50000250385534
100
AcDbArc
 50
5.631561279296893
 51
20.08277893066408
  0
ARC
  5
26B
330
1F
100
AcDbEntity
  8
2-0
  6
Continuous
 62
     3
370
     9
100
AcDbCircle
 10
-14.507073746564
 20
174.0263653835388
 30
0.0
 40
57.50000354958317
100
AcDbArc
 50
2.741302490234379
 51
22.97302246093751
  0
ARC
  5
26C
330
1F
100
AcDbEntity
  8
2-0
  6
Continuous
 62
     3
370
     9
100
AcDbCircle
 10
-14.507073746564
 20
174.0263653835388
 30
0.0
 40
52.52997441825719
100
AcDbArc
 50
0.0000762939453322
 51
3.000869750976582
  0
ARC
  5
26D
330
1F
100
AcDbEntity
  8
2-0
  6
Continuous
 62
     3
370
     9
100
AcDbCircle
 10
-14.50710874162461
 20
174.0264353736601
 30
0.0
 40
52.51771302388902
100
AcDbArc
 50
84.20469665527345
 51
89.99995422363283
  0
ARC
  5
26E
330
1F
100
AcDbEntity
  8
2-0
  6
Continuous
 62
     3
370
     9
100
AcDbCircle
 10
-14.50710874162461
 20
174.0264353736601
 30
0.0
 40
52.51771302388902
100
AcDbArc
 50
0.0
 51
10.471923828125
  0
ARC
  5
26F
330
1F
100
AcDbEntity
  8
2-0
  6
Continuous
 62
     3
370
     9
100
AcDbCircle
 10
-14.507073746564
 20
174.0263653835388
 30
0.0
 40
51.90383404470318
100
AcDbArc
 50
11.79934692382812
 51
82.95262145996094
  0
ARC
  5
270
330
1F
100
AcDbEntity
  8
2-0
  6
Continuous
 62
     3
370
     9
100
AcDbCircle
 10
-14.50703875150333
 20
174.0264353736601
 30
0.0
 40
52.51771302388902
100
AcDbArc
 50
90.00004577636726
 51
95.79530334472662
  0
ARC
  5
271
330
1F
100
AcDbEntity
  8
2-0
  6
Continuous
 62
     3
370
     9
100
AcDbCircle
 10
-14.50703875150333
 20
174.0264353736601
 30
0.0
 40
52.51771302388902
100
AcDbArc
 50
169.528076171875
 51
180.0
  0
ARC
  5
272
330
1F
100
AcDbEntity
  8
2-0
  6
Continuous
 62
     3
370
     9
100
AcDbCircle
 10
-14.507073746564
 20
174.0263653835388
 30
0.0
 40
51.90383404470318
100
AcDbArc
 50
97.04737854003902
 51
168.2006530761718
  0
ARC
  5
273
330
1F
100
AcDbEntity
  8
2-0
  6
Continuous
 62
     3
370
     9
100
AcDbCircle
 10
33.36336959018798
 20
184.0264489239361
 30
0.0
 40
2.999999964099133
100
AcDbArc
 50
324.8810577392578
 51
11.79917907714844
  0
ARC
  5
274
330
1F
100
AcDbEntity
  8
2-0
  6
Continuous
 62
     3
370
     9
100
AcDbCircle
 10
34.18585850017076
 20
183.0264650664387
 30
0.0
 40
2.999999964099133
100
AcDbArc
 50
308.5845489501953
 51
10.47187805175781
  0
ARC
  5
275
330
1F
100
AcDbEntity
  8
2-0
  6
Continuous
 62
     3
370
     9
100
AcDbCircle
 10
-8.507065616398378
 20
222.5607350105598
 30
0.0
 40
2.999999964099133
100
AcDbArc
 50
82.95249938964844
 51
129.8705444335938
  0
ARC
  5
276
330
1F
100
AcDbEntity
  8
2-0
  6
Continuous
 62
     3
370
     9
100
AcDbCircle
 10
-9.507066971425942
 20
223.2910819259042
 30
0.0
 40
2.999999964099133
100
AcDbArc
 50
84.20484924316406
 51
146.0929107666016
  0
ARC
  5
277
330
1F
100
AcDbEntity
  8
2-0
  6
Continuous
 62
     3
370
     9
100
AcDbCircle
 10
-19.50708052170198
 20
223.2910819259042
 30
0.0
 40
2.999999964099133
100
AcDbArc
 50
33.90708923339844
 51
95.79515075683595
  0
ARC
  5
278
330
1F
100
AcDbEntity
  8
2-0
  6
Continuous
 62
     3
370
     9
100
AcDbCircle
 10
-20.50708187672957
 20
222.5607350105598
 30
0.0
 40
2.999999964099133
100
AcDbArc
 50
50.12945556640625
 51
97.04750061035156
  0
ARC
  5
279
330
1F
100
AcDbEntity
  8
2-0
  6
Continuous
 62
     3
370
     9
100
AcDbCircle
 10
-62.37751708331592
 20
184.0264489239361
 30
0.0
 40
2.999999964099133
100
AcDbArc
 50
168.2008209228516
 51
215.1189422607422
  0
ARC
  5
27A
330
1F
100
AcDbEntity
  8
2-0
  6
Continuous
 62
     3
370
     9
100
AcDbCircle
 10
-63.2000059932987
 20
183.0264650664387
 30
0.0
 40
2.999999964099133
100
AcDbArc
 50
169.5281219482422
 51
231.4154510498047
  0
ARC
  5
27B
330
1F
100
AcDbEntity
  8
2-0
  6
Continuous
 62
     3
370
     9
100
AcDbCircle
 10
-14.507073746564
 20
174.0264353736601
 30
0.0
 40
18.49404966140806
100
AcDbArc
 50
0.0
 51
180.0
  0
ARC
  5
27C
330
1F
100
AcDbEntity
  8
2-0
  6
Continuous
 62
     3
370
     9
100
AcDbCircle
 10
-14.507073746564
 20
174.0264353736601
 30
0.0
 40
21.70801352718162
100
AcDbArc
 50
0.0
 51
180.0
  0
LINE
  5
27D
330
1F
100
AcDbEntity
  8
2-0
  6
JWW_CENTER2
 62
     3
370
     9
100
AcDbLine
 10
32.49293744714226
 20
174.0264353736601
 30
0.0
 11
32.49293744714226
 21
171.0287454284738
 31
0.0
  0
LINE
  5
27E
330
1F
100
AcDbEntity
  8
2-0
  6
JWW_CENTER2
 62
     3
370
     9
100
AcDbLine
 10
-61.50708494027023
 20
174.0264353736601
 30
0.0
 11
-61.50708494027023
 21
171.0287454284739
 31
0.0
  0
LINE
  5
27F
330
1F
100
AcDbEntity
  8
2-0
  6
JWW_CENTER2
 62
     3
370
     9
100
AcDbLine
 10
91.5351689442993
 20
174.0264353736601
 30
0.0
 11
-120.5493514324879
 21
174.0264353736601
 31
0.0
  0
LINE
  5
280
330
1F
100
AcDbEntity
  8
2-3
  6
Continuous
 62
     4
370
     9
100
AcDbLine
 10
-41.38137307946624
 20
38.74562230139971
 30
0.0
 11
-42.18890160102981
 21
39.67400626484836
 31
0.0
  0
LINE
  5
281
330
1F
100
AcDbEntity
  8
2-3
  6
Continuous
 62
     4
370
     9
100
AcDbLine
 10
-41.67720382450048
 20
34.49589212863488
 30
0.0
 11
-42.60550030029756
 21
33.68845109472291
 31
0.0
  0
LINE
  5
282
330
1F
100
AcDbEntity
  8
2-3
  6
Continuous
 62
     4
370
     9
100
AcDbLine
 10
-41.67720382450048
 20
34.49589212863488
 30
0.0
 11
-41.38137307946624
 21
38.74562230139971
 31
0.0
  0
LINE
  5
283
330
1F
100
AcDbEntity
  8
2-3
  6
Continuous
 62
     4
370
     9
100
AcDbLine
 10
-42.60550030029756
 20
33.68845109472291
 30
0.0
 11
-42.18890160102981
 21
39.67400626484836
 31
0.0
  0
LINE
  5
284
330
1F
100
AcDbEntity
  8
2-3
  6
Continuous
 62
     4
370
     9
100
AcDbLine
 10
-53.29201195494886
 20
40.44680218873681
 30
0.0
 11
-42.18890160102981
 21
39.67400626484836
 31
0.0
  0
LINE
  5
285
330
1F
100
AcDbEntity
  8
2-3
  6
Continuous
 62
     4
370
     9
100
AcDbLine
 10
-53.35243092712628
 20
39.57885469499588
 30
0.0
 11
-41.38137307946624
 21
38.74562230139971
 31
0.0
  0
LINE
  5
286
330
1F
100
AcDbEntity
  8
2-3
  6
Continuous
 62
     4
370
     9
100
AcDbLine
 10
-53.64824417463018
 20
35.32908952717038
 30
0.0
 11
-41.67720382450048
 21
34.49589212863488
 31
0.0
  0
LINE
  5
287
330
1F
100
AcDbEntity
  8
2-3
  6
Continuous
 62
     4
370
     9
100
AcDbLine
 10
-53.70861065421664
 20
34.46121202355069
 30
0.0
 11
-42.60550030029756
 21
33.68845109472291
 31
0.0
  0
LINE
  5
288
330
1F
100
AcDbEntity
  8
2-3
  6
Continuous
 62
     4
370
     9
100
AcDbLine
 10
-55.23507770135933
 20
42.40488081615747
 30
0.0
 11
-53.15320404696067
 21
42.44194058536449
 31
0.0
  0
LINE
  5
289
330
1F
100
AcDbEntity
  8
2-3
  6
Continuous
 62
     4
370
     9
100
AcDbLine
 10
-57.58716571641122
 20
34.90543932318572
 30
0.0
 11
-57.1946786139174
 21
40.54405346222713
 31
0.0
  0
LINE
  5
28A
330
1F
100
AcDbEntity
  8
2-3
  6
Continuous
 62
     4
370
     9
100
AcDbLine
 10
-53.84747105479579
 20
32.46607362692306
 30
0.0
 11
-53.15320404696067
 21
42.44194058536449
 31
0.0
  0
LINE
  5
28B
330
1F
100
AcDbEntity
  8
2-3
  6
Continuous
 62
     4
370
     9
100
AcDbLine
 10
-55.90418326060163
 20
32.79114274511353
 30
0.0
 11
-53.84747105479579
 21
32.46607362692306
 31
0.0
  0
ARC
  5
28C
330
1F
100
AcDbEntity
  8
2-3
  6
Continuous
 62
     4
370
     9
100
AcDbCircle
 10
-55.19954021728975
 20
40.40519306164795
 30
0.0
 40
1.999999976066088
100
AcDbArc
 50
91.01861572265628
 51
176.0186004638672
  0
ARC
  5
28D
330
1F
100
AcDbEntity
  8
2-3
  6
Continuous
 62
     4
370
     9
100
AcDbCircle
 10
-55.59195732966231
 20
34.76654392754592
 30
0.0
 40
1.999999976066088
100
AcDbArc
 50
176.0186004638672
 51
261.0185852050781
  0
LINE
  5
28E
330
1F
100
AcDbEntity
  8
2-1
  6
Continuous
 62
     6
370
     9
100
AcDbLine
 10
-55.76023107870084
 20
-23.82369136651621
 30
0.0
 11
-51.71338893273872
 21
34.32234738638506
 31
0.0
  0
LINE
  5
28F
330
1F
100
AcDbEntity
  8
2-1
  6
Continuous
 62
     6
370
     9
100
AcDbLine
 10
-51.29680479868475
 20
40.30793227674592
 30
0.0
 11
-51.01791043251055
 21
44.31515619075783
 31
0.0
  0
LINE
  5
290
330
1F
100
AcDbEntity
  8
2-1
  6
Continuous
 62
     6
370
     9
100
AcDbLine
 10
-51.18459190629044
 20
-22.89310271424789
 30
0.0
 11
-47.22421020947042
 21
34.0099068351082
 31
0.0
  0
LINE
  5
291
330
1F
100
AcDbEntity
  8
2-1
  6
Continuous
 62
     6
370
     9
100
AcDbLine
 10
-46.80762163581418
 20
39.99547726735924
 30
0.0
 11
-46.50697712720469
 21
44.31515619075783
 31
0.0
  0
TEXT
  5
292
330
1F
100
AcDbEntity
  8
2-5
  6
Continuous
 62
     7
370
     9
100
AcDbText
 10
67.76799999999999
 20
119.4086405197563
 30
0.0
 40
4.572
  1
丸小ねじ：Ｃ２７００Ｗ
 41
1.151515151515151
  7
ＭＳ ゴシック
100
AcDbText
  0
TEXT
  5
293
330
1F
100
AcDbEntity
  8
2-5
  6
Continuous
 62
     7
370
     9
100
AcDbText
 10
88.38735802469135
 20
108.5894827389286
 30
0.0
 40
4.572
  1
Ｍ６×１２
 41
1.133333333333333
  7
ＭＳ ゴシック
100
AcDbText
  0
TEXT
  5
294
330
1F
100
AcDbEntity
  8
2-5
  6
Continuous
 62
     7
370
     9
100
AcDbText
 10
-172.6311975308642
 20
110.0253182801986
 30
0.0
 40
4.572
  1
丸小ねじ：Ｃ２７００Ｗ
 41
1.151515151515152
  7
ＭＳ ゴシック
100
AcDbText
  0
TEXT
  5
295
330
1F
100
AcDbEntity
  8
2-5
  6
Continuous
 62
     7
370
     9
100
AcDbText
 10
-152.3163530864197
 20
99.20616049937094
 30
0.0
 40
4.572
  1
Ｍ６×１２
 41
1.133333333333333
  7
ＭＳ ゴシック
100
AcDbText
  0
TEXT
  5
296
330
1F
100
AcDbEntity
  8
2-5
  6
Continuous
 62
     7
370
     9
100
AcDbText
 10
-160.1825425925926
 20
-88.40856351412422
 30
0.0
 40
4.572
  1
アンカー：ＳＷＲＭ８
 41
1.15
  7
ＭＳ ゴシック
100
AcDbText
  0
TEXT
  5
297
330
1F
100
AcDbEntity
  8
2-5
  6
Continuous
 62
     7
370
     9
100
AcDbText
 10
-133.8172716800406
 20
-136.810383375888
 30
0.0
 40
4.572
  1
硬質ポリ塩化ビニル
 41
1.148148148148148
  7
ＭＳ ゴシック
100
AcDbText
  0
TEXT
  5
298
330
1F
100
AcDbEntity
  8
2-5
  6
Continuous
 62
     7
370
     9
100
AcDbText
 10
-148.9124592592592
 20
-96.90740384615539
 30
0.0
 40
4.572
  1
りん酸塩被膜
 41
1.138888888888889
  7
ＭＳ ゴシック
100
AcDbText
  0
LINE
  5
299
330
1F
100
AcDbEntity
  8
2-5
  6
Continuous
 62
     7
370
     9
100
AcDbLine
 10
-174.5683333333333
 20
106.0264400601818
 30
0.0
 11
-96.82489467757443
 21
106.0264400601818
 31
0.0
  0
LINE
  5
29A
330
1F
100
AcDbEntity
  8
2-5
  6
Continuous
 62
     7
370
     9
100
AcDbLine
 10
67.49068358138777
 20
115.4097622997394
 30
0.0
 11
145.3291666666667
 21
115.4097622997394
 31
0.0
  0
TEXT
  5
29B
330
1F
100
AcDbEntity
  8
2-4
  6
Continuous
 62
     2
370
   211
100
AcDbText
 10
97.87268582937607
 20
-64.6848811019583
 30
0.0
 40
6.096
  1
Ｃ
 50
90.0
  7
ＭＳ ゴシック
100
AcDbText
  0
LINE
  5
29C
330
1F
100
AcDbEntity
  8
2-0
  6
JWW_CENTER2
 62
     3
370
     9
100
AcDbLine
 10
-14.507073746564
 20
167.0566990271532
 30
0.0
 11
-14.50707374656398
 21
272.4577777777778
 31
0.0
  0
ENDSEC
  0
SECTION
  2
OBJECTS
  0
DICTIONARY
  5
C
330
0
100
AcDbDictionary
281
     1
  3
ACAD_DETAILVIEWSTYLE
350
2E2
  3
ACAD_GROUP
350
D
  3
ACAD_LAYOUT
350
1A
  3
ACAD_MATERIAL
350
43
  3
ACAD_MLEADERSTYLE
350
6B
  3
ACAD_MLINESTYLE
350
17
  3
ACAD_PLOTSETTINGS
350
19
  3
ACAD_PLOTSTYLENAME
350
E
  3
ACAD_SCALELIST
350
47
  3
ACAD_SECTIONVIEWSTYLE
350
2E3
  3
ACAD_TABLESTYLE
350
69
  3
ACAD_VISUALSTYLE
350
2A
  3
ACDB_RECOMPOSE_DATA
350
2DF
  3
AcDbVariableDictionary
350
29F
  0
DICTIONARY
  5
29D
330
8
100
AcDbDictionary
280
     1
281
     1
  3
ACAD_XREC_ROUNDTRIP
360
29E
  0
DICTIONARY
  5
2E2
102
{ACAD_REACTORS
330
C
102
}
330
C
100
AcDbDictionary
281
     1
  0
DICTIONARY
  5
D
102
{ACAD_REACTORS
330
C
102
}
330
C
100
AcDbDictionary
281
     1
  0
DICTIONARY
  5
1A
102
{ACAD_REACTORS
330
C
102
}
330
C
100
AcDbDictionary
281
     1
  3
Layout1
350
1E
  3
Layout2
350
26
  3
Model
350
22
  0
DICTIONARY
  5
43
102
{ACAD_REACTORS
330
C
102
}
330
C
100
AcDbDictionary
281
     1
  3
ByBlock
350
45
  3
ByLayer
350
44
  3
Global
350
46
  0
DICTIONARY
  5
6B
102
{ACAD_REACTORS
330
C
102
}
330
C
100
AcDbDictionary
281
     1
  3
Standard
350
6C
  0
DICTIONARY
  5
17
102
{ACAD_REACTORS
330
C
102
}
330
C
100
AcDbDictionary
281
     1
  3
Standard
350
18
  0
DICTIONARY
  5
19
102
{ACAD_REACTORS
330
C
102
}
330
C
100
AcDbDictionary
281
     1
  0
ACDBDICTIONARYWDFLT
  5
E
102
{ACAD_REACTORS
330
C
102
}
330
C
100
AcDbDictionary
281
     1
  3
Normal
350
F
100
AcDbDictionaryWithDefault
340
F
  0
DICTIONARY
  5
47
102
{ACAD_REACTORS
330
C
102
}
330
C
100
AcDbDictionary
281
     1
  3
A0
350
48
  3
A1
350
49
  3
A2
350
4A
  3
A3
350
4B
  3
A4
350
4C
  3
A5
350
4D
  3
A6
350
4E
  3
A7
350
4F
  3
A8
350
50
  3
A9
350
51
  3
B0
350
52
  3
B1
350
53
  3
B2
350
54
  3
B3
350
55
  3
B4
350
56
  3
B5
350
57
  3
B6
350
58
  3
B7
350
59
  3
B8
350
5A
  3
B9
350
5B
  3
C0
350
5C
  3
C1
350
5D
  3
C2
350
5E
  3
C3
350
5F
  3
C4
350
60
  3
C5
350
61
  3
C6
350
62
  3
C7
350
63
  3
C8
350
64
  3
C9
350
65
  3
D0
350
66
  3
D1
350
67
  3
D2
350
68
  0
DICTIONARY
  5
2E3
102
{ACAD_REACTORS
330
C
102
}
330
C
100
AcDbDictionary
281
     1
  0
DICTIONARY
  5
69
102
{ACAD_REACTORS
330
C
102
}
330
C
100
AcDbDictionary
281
     1
  3
Standard
350
6A
  0
DICTIONARY
  5
2A
102
{ACAD_REACTORS
330
C
102
}
330
C
100
AcDbDictionary
281
     1
  3
2dWireframe
350
2F
  3
Basic
350
32
  3
Brighten
350
36
  3
ColorChange
350
3A
  3
Conceptual
350
34
  3
Dim
350
35
  3
EdgeColorOff
350
3D
  3
Facepattern
350
39
  3
Flat
350
2B
  3
FlatWithEdges
350
2C
  3
Gouraud
350
2D
  3
GouraudWithEdges
350
2E
  3
Hidden
350
31
  3
JitterOff
350
3B
  3
Linepattern
350
38
  3
OverhangOff
350
3C
  3
Realistic
350
33
  3
Shaded
350
42
  3
Shaded with edges
350
41
  3
Shades of Gray
350
3E
  3
Sketchy
350
3F
  3
Thicken
350
37
  3
Wireframe
350
30
  3
X-Ray
350
40
  0
XRECORD
  5
2DF
102
{ACAD_REACTORS
330
C
102
}
330
C
100
AcDbXrecord
280
     1
 90
        1
330
6A
  0
DICTIONARY
  5
29F
102
{ACAD_REACTORS
330
C
102
}
330
C
100
AcDbDictionary
281
     1
  3
CANNOSCALE
350
2A0
  3
CENTEREXE
350
2E4
  3
CENTERLTYPEFILE
350
2E5
  3
CMLEADERSTYLE
350
2E1
  3
CTABLESTYLE
350
2E0
  3
MSLTSCALE
350
2A1
  3
XCLIPFRAME
350
2A2
  0
XRECORD
  5
29E
102
{ACAD_REACTORS
330
29D
102
}
330
29D
100
AcDbXrecord
280
     1
102
VTR_0.000_0.000_1.000_1.000_VISUALSTYLE
340
2F
102
VTR_0.000_0.000_1.000_1.000_GRIDDISPLAY
 70
     3
102
VTR_0.000_0.000_1.000_1.000_GRIDMAJOR
 70
     5
102
VTR_0.000_0.000_1.000_1.000_DEFAULTLIGHTING
280
     1
102
VTR_0.000_0.000_1.000_1.000_DEFAULTLIGHTINGTYPE
 70
     1
102
VTR_0.000_0.000_1.000_1.000_BRIGHTNESS
141
0.0
102
VTR_0.000_0.000_1.000_1.000_CONTRAST
142
0.0
  0
LAYOUT
  5
1E
102
{ACAD_REACTORS
330
1A
102
}
330
1A
100
AcDbPlotSettings
  1

  2
none_device
  4

  6

 40
0.0
 41
0.0
 42
0.0
 43
0.0
 44
0.0
 45
0.0
 46
0.0
 47
0.0
 48
0.0
 49
0.0
140
0.0
141
0.0
142
1.0
143
1.0
 70
   688
 72
     1
 73
     0
 74
     5
  7

 75
    16
 76
     0
 77
     5
 78
   300
147
1.0
148
0.0
149
0.0
100
AcDbLayout
  1
Layout1
 70
     1
 71
     1
 10
0.0
 20
0.0
 11
420.0
 21
297.0
 12
0.0
 22
0.0
 32
0.0
 14
1.000000000000000E+20
 24
1.000000000000000E+20
 34
1.000000000000000E+20
 15
-1.000000000000000E+20
 25
-1.000000000000000E+20
 35
-1.000000000000000E+20
146
0.0
 13
0.0
 23
0.0
 33
0.0
 16
1.0
 26
0.0
 36
0.0
 17
0.0
 27
1.0
 37
0.0
 76
     0
330
1B
  0
LAYOUT
  5
26
102
{ACAD_REACTORS
330
1A
102
}
330
1A
100
AcDbPlotSettings
  1

  2
none_device
  4

  6

 40
0.0
 41
0.0
 42
0.0
 43
0.0
 44
0.0
 45
0.0
 46
0.0
 47
0.0
 48
0.0
 49
0.0
140
0.0
141
0.0
142
1.0
143
1.0
 70
   688
 72
     1
 73
     0
 74
     5
  7

 75
    16
 76
     0
 77
     5
 78
   300
147
1.0
148
0.0
149
0.0
100
AcDbLayout
  1
Layout2
 70
     1
 71
     2
 10
0.0
 20
0.0
 11
0.0
 21
0.0
 12
0.0
 22
0.0
 32
0.0
 14
0.0
 24
0.0
 34
0.0
 15
0.0
 25
0.0
 35
0.0
146
0.0
 13
0.0
 23
0.0
 33
0.0
 16
1.0
 26
0.0
 36
0.0
 17
0.0
 27
1.0
 37
0.0
 76
     0
330
23
  0
LAYOUT
  5
22
102
{ACAD_REACTORS
330
1A
102
}
330
1A
100
AcDbPlotSettings
  1

  2
none_device
  4
Letter_(8.50_x_11.00_Inches)
  6

 40
6.35
 41
6.35
 42
6.35000508
 43
6.35000508
 44
215.9
 45
279.4
 46
0.0
 47
0.0
 48
0.0
 49
0.0
140
0.0
141
0.0
142
1.0
143
1.0
 70
  1712
 72
     1
 73
     0
 74
     0
  7

 75
     0
 76
     0
 77
     5
 78
   300
147
1.0
148
0.0
149
0.0
100
AcDbLayout
  1
Model
 70
     1
 71
     0
 10
-420.0
 20
-297.0
 11
420.0
 21
297.0
 12
0.0
 22
0.0
 32
0.0
 14
-420.0
 24
-297.0
 34
0.0
 15
420.0
 25
297.0
 35
0.0
146
0.0
 13
0.0
 23
0.0
 33
0.0
 16
1.0
 26
0.0
 36
0.0
 17
0.0
 27
1.0
 37
0.0
 76
     0
330
1F
331
29
  0
MATERIAL
  5
45
102
{ACAD_REACTORS
330
43
102
}
102
{ACAD_XDICTIONARY
360
2D5
102
}
330
43
100
AcDbMaterial
  1
ByBlock
  0
MATERIAL
  5
44
102
{ACAD_REACTORS
330
43
102
}
102
{ACAD_XDICTIONARY
360
2D3
102
}
330
43
100
AcDbMaterial
  1
ByLayer
  0
MATERIAL
  5
46
102
{ACAD_REACTORS
330
43
102
}
102
{ACAD_XDICTIONARY
360
2D7
102
}
330
43
100
AcDbMaterial
  1
Global
  0
MLEADERSTYLE
  5
6C
102
{ACAD_REACTORS
330
6B
102
}
102
{ACAD_XDICTIONARY
360
2DD
102
}
330
6B
100
AcDbMLeaderStyle
170
     2
171
     1
172
     0
 90
        2
 40
0.0
 41
0.0
173
     1
 91
-1056964608
340
14
 92
       -2
290
     1
 42
2.0
291
     1
 43
8.0
  3
Standard
341
0
 44
4.0
300

342
11
174
     1
178
     6
175
     1
176
     0
 93
-1056964608
 45
4.0
292
     0
297
     0
 46
4.0
343
0
 94
-1056964608
 47
1.0
 49
1.0
140
1.0
293
     1
141
0.0
294
     1
177
     0
142
1.0
295
     0
296
     0
143
3.75
1001
ACAD_MLEADERVER
1070
     2
  0
MLINESTYLE
  5
18
102
{ACAD_REACTORS
330
17
102
}
330
17
100
AcDbMlineStyle
  2
Standard
 70
     0
  3

 62
   256
 51
90.0
 52
90.0
 71
     2
 49
0.5
 62
   256
  6
BYLAYER
 49
-0.5
 62
   256
  6
BYLAYER
  0
ACDBPLACEHOLDER
  5
F
102
{ACAD_REACTORS
330
E
102
}
330
E
  0
SCALE
  5
48
102
{ACAD_REACTORS
330
47
102
}
330
47
100
AcDbScale
 70
     0
300
1:1
140
1.0
141
1.0
290
     1
  0
SCALE
  5
49
102
{ACAD_REACTORS
330
47
102
}
330
47
100
AcDbScale
 70
     0
300
1:2
140
1.0
141
2.0
290
     0
  0
SCALE
  5
4A
102
{ACAD_REACTORS
330
47
102
}
330
47
100
AcDbScale
 70
     0
300
1:4
140
1.0
141
4.0
290
     0
  0
SCALE
  5
4B
102
{ACAD_REACTORS
330
47
102
}
330
47
100
AcDbScale
 70
     0
300
1:5
140
1.0
141
5.0
290
     0
  0
SCALE
  5
4C
102
{ACAD_REACTORS
330
47
102
}
330
47
100
AcDbScale
 70
     0
300
1:8
140
1.0
141
8.0
290
     0
  0
SCALE
  5
4D
102
{ACAD_REACTORS
330
47
102
}
330
47
100
AcDbScale
 70
     0
300
1:10
140
1.0
141
10.0
290
     0
  0
SCALE
  5
4E
102
{ACAD_REACTORS
330
47
102
}
330
47
100
AcDbScale
 70
     0
300
1:16
140
1.0
141
16.0
290
     0
  0
SCALE
  5
4F
102
{ACAD_REACTORS
330
47
102
}
330
47
100
AcDbScale
 70
     0
300
1:20
140
1.0
141
20.0
290
     0
  0
SCALE
  5
50
102
{ACAD_REACTORS
330
47
102
}
330
47
100
AcDbScale
 70
     0
300
1:30
140
1.0
141
30.0
290
     0
  0
SCALE
  5
51
102
{ACAD_REACTORS
330
47
102
}
330
47
100
AcDbScale
 70
     0
300
1:40
140
1.0
141
40.0
290
     0
  0
SCALE
  5
52
102
{ACAD_REACTORS
330
47
102
}
330
47
100
AcDbScale
 70
     0
300
1:50
140
1.0
141
50.0
290
     0
  0
SCALE
  5
53
102
{ACAD_REACTORS
330
47
102
}
330
47
100
AcDbScale
 70
     0
300
1:100
140
1.0
141
100.0
290
     0
  0
SCALE
  5
54
102
{ACAD_REACTORS
330
47
102
}
330
47
100
AcDbScale
 70
     0
300
2:1
140
2.0
141
1.0
290
     0
  0
SCALE
  5
55
102
{ACAD_REACTORS
330
47
102
}
330
47
100
AcDbScale
 70
     0
300
4:1
140
4.0
141
1.0
290
     0
  0
SCALE
  5
56
102
{ACAD_REACTORS
330
47
102
}
330
47
100
AcDbScale
 70
     0
300
8:1
140
8.0
141
1.0
290
     0
  0
SCALE
  5
57
102
{ACAD_REACTORS
330
47
102
}
330
47
100
AcDbScale
 70
     0
300
10:1
140
10.0
141
1.0
290
     0
  0
SCALE
  5
58
102
{ACAD_REACTORS
330
47
102
}
330
47
100
AcDbScale
 70
     0
300
100:1
140
100.0
141
1.0
290
     0
  0
SCALE
  5
59
102
{ACAD_REACTORS
330
47
102
}
330
47
100
AcDbScale
 70
     0
300
1/128" = 1'-0"
140
0.0078125
141
12.0
290
     0
  0
SCALE
  5
5A
102
{ACAD_REACTORS
330
47
102
}
330
47
100
AcDbScale
 70
     0
300
1/64" = 1'-0"
140
0.015625
141
12.0
290
     0
  0
SCALE
  5
5B
102
{ACAD_REACTORS
330
47
102
}
330
47
100
AcDbScale
 70
     0
300
1/32" = 1'-0"
140
0.03125
141
12.0
290
     0
  0
SCALE
  5
5C
102
{ACAD_REACTORS
330
47
102
}
330
47
100
AcDbScale
 70
     0
300
1/16" = 1'-0"
140
0.0625
141
12.0
290
     0
  0
SCALE
  5
5D
102
{ACAD_REACTORS
330
47
102
}
330
47
100
AcDbScale
 70
     0
300
3/32" = 1'-0"
140
0.09375
141
12.0
290
     0
  0
SCALE
  5
5E
102
{ACAD_REACTORS
330
47
102
}
330
47
100
AcDbScale
 70
     0
300
1/8" = 1'-0"
140
0.125
141
12.0
290
     0
  0
SCALE
  5
5F
102
{ACAD_REACTORS
330
47
102
}
330
47
100
AcDbScale
 70
     0
300
3/16" = 1'-0"
140
0.1875
141
12.0
290
     0
  0
SCALE
  5
60
102
{ACAD_REACTORS
330
47
102
}
330
47
100
AcDbScale
 70
     0
300
1/4" = 1'-0"
140
0.25
141
12.0
290
     0
  0
SCALE
  5
61
102
{ACAD_REACTORS
330
47
102
}
330
47
100
AcDbScale
 70
     0
300
3/8" = 1'-0"
140
0.375
141
12.0
290
     0
  0
SCALE
  5
62
102
{ACAD_REACTORS
330
47
102
}
330
47
100
AcDbScale
 70
     0
300
1/2" = 1'-0"
140
0.5
141
12.0
290
     0
  0
SCALE
  5
63
102
{ACAD_REACTORS
330
47
102
}
330
47
100
AcDbScale
 70
     0
300
3/4" = 1'-0"
140
0.75
141
12.0
290
     0
  0
SCALE
  5
64
102
{ACAD_REACTORS
330
47
102
}
330
47
100
AcDbScale
 70
     0
300
1" = 1'-0"
140
1.0
141
12.0
290
     0
  0
SCALE
  5
65
102
{ACAD_REACTORS
330
47
102
}
330
47
100
AcDbScale
 70
     0
300
1-1/2" = 1'-0"
140
1.5
141
12.0
290
     0
  0
SCALE
  5
66
102
{ACAD_REACTORS
330
47
102
}
330
47
100
AcDbScale
 70
     0
300
3" = 1'-0"
140
3.0
141
12.0
290
     0
  0
SCALE
  5
67
102
{ACAD_REACTORS
330
47
102
}
330
47
100
AcDbScale
 70
     0
300
6" = 1'-0"
140
6.0
141
12.0
290
     0
  0
SCALE
  5
68
102
{ACAD_REACTORS
330
47
102
}
330
47
100
AcDbScale
 70
     0
300
1'-0" = 1'-0"
140
12.0
141
12.0
290
     0
  0
TABLESTYLE
  5
6A
102
{ACAD_REACTORS
330
69
102
}
102
{ACAD_XDICTIONARY
360
2D9
102
}
330
69
100
AcDbTableStyle
  3
Standard
 70
     0
 71
     0
 40
0.06
 41
0.06
280
     0
281
     0
  7
Standard
140
4.5
170
     2
 62
     0
 63
   257
283
     0
274
    -2
284
     1
 64
     0
275
    -2
285
     1
 65
     0
276
    -2
286
     1
 66
     0
277
    -2
287
     1
 67
     0
278
    -2
288
     1
 68
     0
279
    -2
289
     1
 69
     0
  7
Standard
140
6.0
170
     5
 62
     0
 63
   257
283
     0
274
    -2
284
     1
 64
     0
275
    -2
285
     1
 65
     0
276
    -2
286
     1
 66
     0
277
    -2
287
     1
 67
     0
278
    -2
288
     1
 68
     0
279
    -2
289
     1
 69
     0
  7
Standard
140
4.5
170
     5
 62
     0
 63
   257
283
     0
274
    -2
284
     1
 64
     0
275
    -2
285
     1
 65
     0
276
    -2
286
     1
 66
     0
277
    -2
287
     1
 67
     0
278
    -2
288
     1
 68
     0
279
    -2
289
     1
 69
     0
  0
VISUALSTYLE
  5
2F
102
{ACAD_REACTORS
330
2A
102
}
102
{ACAD_XDICTIONARY
360
2AB
102
}
330
2A
100
AcDbVisualStyle
  2
2dWireframe
 70
     4
 71
     0
 72
     2
 73
     0
 90
        0
 40
0.6
 41
30.0
 62
     5
 63
     7
421
 16777215
 74
     1
 91
        4
 64
     7
 65
   257
 75
     1
175
     1
 42
1.0
 92
        0
 66
   257
 43
1.0
 76
     1
 77
     6
 78
     2
 67
     7
 79
     5
170
     0
171
     0
290
     0
174
     0
 93
        1
 44
0.0
173
     0
291
     0
 45
0.0
1001
ACAD
1000
AcDbSavedByObjectVersion
1070
     0
  0
VISUALSTYLE
  5
32
102
{ACAD_REACTORS
330
2A
102
}
102
{ACAD_XDICTIONARY
360
2B1
102
}
330
2A
100
AcDbVisualStyle
  2
Basic
 70
     7
 71
     1
 72
     0
 73
     1
 90
        0
 40
0.6
 41
30.0
 62
     5
 63
     7
421
 16777215
 74
     0
 91
        4
 64
     7
 65
   257
 75
     1
175
     1
 42
1.0
 92
        8
 66
     7
 43
1.0
 76
     1
 77
     6
 78
     2
 67
     7
 79
     5
170
     0
171
     0
290
     0
174
     0
 93
        1
 44
0.0
173
     0
291
     1
 45
0.0
1001
ACAD
1000
AcDbSavedByObjectVersion
1070
     0
  0
VISUALSTYLE
  5
36
102
{ACAD_REACTORS
330
2A
102
}
102
{ACAD_XDICTIONARY
360
2B9
102
}
330
2A
100
AcDbVisualStyle
  2
Brighten
 70
    12
 71
     2
 72
     2
 73
     0
 90
        0
 40
0.6
 41
30.0
 62
     5
 63
     7
421
 16777215
 74
     1
 91
        4
 64
     7
 65
   257
 75
     1
175
     1
 42
1.0
 92
        8
 66
     7
 43
1.0
 76
     1
 77
     6
 78
     2
 67
     7
 79
     5
170
     0
171
     0
290
     0
174
     0
 93
        1
 44
50.0
173
     0
291
     1
 45
0.0
1001
ACAD
1000
AcDbSavedByObjectVersion
1070
     0
  0
VISUALSTYLE
  5
3A
102
{ACAD_REACTORS
330
2A
102
}
102
{ACAD_XDICTIONARY
360
2C1
102
}
330
2A
100
AcDbVisualStyle
  2
ColorChange
 70
    16
 71
     2
 72
     2
 73
     3
 90
        0
 40
0.6
 41
30.0
 62
     5
 63
     8
421
  8421504
 74
     1
 91
        4
 64
     7
 65
   257
 75
     1
175
     1
 42
1.0
 92
        8
 66
     8
424
  8421504
 43
1.0
 76
     1
 77
     6
 78
     2
 67
     7
 79
     5
170
     0
171
     0
290
     0
174
     0
 93
        1
 44
0.0
173
     0
291
     1
 45
0.0
1001
ACAD
1000
AcDbSavedByObjectVersion
1070
     0
  0
VISUALSTYLE
  5
34
102
{ACAD_REACTORS
330
2A
102
}
102
{ACAD_XDICTIONARY
360
2B5
102
}
330
2A
100
AcDbVisualStyle
  2
Conceptual
 70
     9
 71
     3
 72
     2
 73
     0
 90
        0
 40
0.6
 41
30.0
 62
     5
 63
     7
421
 16777215
 74
     2
 91
        2
 64
     7
 65
   257
 75
     1
175
     1
 42
179.0
 92
        8
 66
     7
 43
1.0
 76
     1
 77
     6
 78
     2
 67
     7
 79
     3
170
     0
171
     0
290
     0
174
     0
 93
        1
 44
0.0
173
     0
291
     0
 45
0.0
1001
ACAD
1000
AcDbSavedByObjectVersion
1070
     0
  0
VISUALSTYLE
  5
35
102
{ACAD_REACTORS
330
2A
102
}
102
{ACAD_XDICTIONARY
360
2B7
102
}
330
2A
100
AcDbVisualStyle
  2
Dim
 70
    11
 71
     2
 72
     2
 73
     0
 90
        0
 40
0.6
 41
30.0
 62
     5
 63
     7
421
 16777215
 74
     1
 91
        4
 64
     7
 65
   257
 75
     1
175
     1
 42
1.0
 92
        8
 66
     7
 43
1.0
 76
     1
 77
     6
 78
     2
 67
     7
 79
     5
170
     0
171
     0
290
     0
174
     0
 93
        1
 44
-50.0
173
     0
291
     1
 45
0.0
1001
ACAD
1000
AcDbSavedByObjectVersion
1070
     0
  0
VISUALSTYLE
  5
3D
102
{ACAD_REACTORS
330
2A
102
}
102
{ACAD_XDICTIONARY
360
2C7
102
}
330
2A
100
AcDbVisualStyle
  2
EdgeColorOff
 70
    22
 71
     2
 72
     2
 73
     0
 90
        0
 40
0.6
 41
30.0
 62
     5
 63
     7
421
 16777215
 74
     1
 91
        4
 64
     7
 65
   257
 75
     1
175
     1
 42
1.0
 92
        8
 66
     7
 43
1.0
 76
     1
 77
     6
 78
     2
 67
     7
 79
     5
170
     0
171
     0
290
     0
174
     0
 93
        1
 44
0.0
173
     0
291
     1
 45
0.0
1001
ACAD
1000
AcDbSavedByObjectVersion
1070
     0
  0
VISUALSTYLE
  5
39
102
{ACAD_REACTORS
330
2A
102
}
102
{ACAD_XDICTIONARY
360
2BF
102
}
330
2A
100
AcDbVisualStyle
  2
Facepattern
 70
    15
 71
     2
 72
     2
 73
     0
 90
        0
 40
0.6
 41
30.0
 62
     5
 63
     7
421
 16777215
 74
     1
 91
        4
 64
     7
 65
   257
 75
     1
175
     1
 42
1.0
 92
        8
 66
     7
 43
1.0
 76
     1
 77
     6
 78
     2
 67
     7
 79
     5
170
     0
171
     0
290
     0
174
     0
 93
        1
 44
0.0
173
     0
291
     1
 45
0.0
1001
ACAD
1000
AcDbSavedByObjectVersion
1070
     0
  0
VISUALSTYLE
  5
2B
102
{ACAD_REACTORS
330
2A
102
}
102
{ACAD_XDICTIONARY
360
2A3
102
}
330
2A
100
AcDbVisualStyle
  2
Flat
 70
     0
 71
     2
 72
     1
 73
     1
 90
        2
 40
0.6
 41
30.0
 62
     5
 63
     7
421
 16777215
 74
     0
 91
        0
 64
     7
 65
   257
 75
     1
175
     1
 42
1.0
 92
        8
 66
     7
 43
1.0
 76
     1
 77
     6
 78
     2
 67
     7
 79
     5
170
     0
171
     0
290
     0
174
     0
 93
       13
 44
0.0
173
     0
291
     1
 45
0.0
1001
ACAD
1000
AcDbSavedByObjectVersion
1070
     0
  0
VISUALSTYLE
  5
2C
102
{ACAD_REACTORS
330
2A
102
}
102
{ACAD_XDICTIONARY
360
2A5
102
}
330
2A
100
AcDbVisualStyle
  2
FlatWithEdges
 70
     1
 71
     2
 72
     1
 73
     1
 90
        2
 40
0.6
 41
30.0
 62
     5
 63
     7
421
 16777215
 74
     1
 91
        0
 64
     7
 65
   257
 75
     1
175
     1
 42
1.0
 92
        0
 66
   257
 43
1.0
 76
     1
 77
     6
 78
     2
 67
     7
 79
     5
170
     0
171
     0
290
     0
174
     0
 93
       13
 44
0.0
173
     0
291
     1
 45
0.0
1001
ACAD
1000
AcDbSavedByObjectVersion
1070
     0
  0
VISUALSTYLE
  5
2D
102
{ACAD_REACTORS
330
2A
102
}
102
{ACAD_XDICTIONARY
360
2A7
102
}
330
2A
100
AcDbVisualStyle
  2
Gouraud
 70
     2
 71
     2
 72
     2
 73
     1
 90
        2
 40
0.6
 41
30.0
 62
     5
 63
     7
421
 16777215
 74
     0
 91
        0
 64
     7
 65
   257
 75
     1
175
     1
 42
1.0
 92
        0
 66
     7
 43
1.0
 76
     1
 77
     6
 78
     2
 67
     7
 79
     5
170
     0
171
     0
290
     0
174
     0
 93
       13
 44
0.0
173
     0
291
     1
 45
0.0
1001
ACAD
1000
AcDbSavedByObjectVersion
1070
     0
  0
VISUALSTYLE
  5
2E
102
{ACAD_REACTORS
330
2A
102
}
102
{ACAD_XDICTIONARY
360
2A9
102
}
330
2A
100
AcDbVisualStyle
  2
GouraudWithEdges
 70
     3
 71
     2
 72
     2
 73
     1
 90
        2
 40
0.6
 41
30.0
 62
     5
 63
     7
421
 16777215
 74
     1
 91
        0
 64
     7
 65
   257
 75
     1
175
     1
 42
1.0
 92
        0
 66
   257
 43
1.0
 76
     1
 77
     6
 78
     2
 67
     7
 79
     5
170
     0
171
     0
290
     0
174
     0
 93
       13
 44
0.0
173
     0
291
     1
 45
0.0
1001
ACAD
1000
AcDbSavedByObjectVersion
1070
     0
  0
VISUALSTYLE
  5
31
102
{ACAD_REACTORS
330
2A
102
}
102
{ACAD_XDICTIONARY
360
2AF
102
}
330
2A
100
AcDbVisualStyle
  2
Hidden
 70
     6
 71
     1
 72
     2
 73
     2
 90
        0
 40
0.6
 41
30.0
 62
     5
 63
     7
421
 16777215
 74
     2
 91
        2
 64
     7
 65
   257
 75
     2
175
     1
 42
40.0
 92
        0
 66
   257
 43
1.0
 76
     1
 77
     6
 78
     2
 67
     7
 79
     3
170
     0
171
     0
290
     0
174
     0
 93
        1
 44
0.0
173
     0
291
     0
 45
0.0
1001
ACAD
1000
AcDbSavedByObjectVersion
1070
     0
  0
VISUALSTYLE
  5
3B
102
{ACAD_REACTORS
330
2A
102
}
102
{ACAD_XDICTIONARY
360
2C3
102
}
330
2A
100
AcDbVisualStyle
  2
JitterOff
 70
    20
 71
     2
 72
     2
 73
     0
 90
        0
 40
0.6
 41
30.0
 62
     5
 63
     7
421
 16777215
 74
     1
 91
        4
 64
     7
 65
   257
 75
     1
175
     1
 42
1.0
 92
       10
 66
     7
 43
1.0
 76
     1
 77
     6
 78
     2
 67
     7
 79
     5
170
     0
171
     0
290
     0
174
     0
 93
        1
 44
0.0
173
     0
291
     1
 45
0.0
1001
ACAD
1000
AcDbSavedByObjectVersion
1070
     0
  0
VISUALSTYLE
  5
38
102
{ACAD_REACTORS
330
2A
102
}
102
{ACAD_XDICTIONARY
360
2BD
102
}
330
2A
100
AcDbVisualStyle
  2
Linepattern
 70
    14
 71
     2
 72
     2
 73
     0
 90
        0
 40
0.6
 41
30.0
 62
     5
 63
     7
421
 16777215
 74
     1
 91
        4
 64
     7
 65
   257
 75
     7
175
     7
 42
1.0
 92
        8
 66
     7
 43
1.0
 76
     1
 77
     6
 78
     2
 67
     7
 79
     5
170
     0
171
     0
290
     0
174
     0
 93
        1
 44
0.0
173
     0
291
     1
 45
0.0
1001
ACAD
1000
AcDbSavedByObjectVersion
1070
     0
  0
VISUALSTYLE
  5
3C
102
{ACAD_REACTORS
330
2A
102
}
102
{ACAD_XDICTIONARY
360
2C5
102
}
330
2A
100
AcDbVisualStyle
  2
OverhangOff
 70
    21
 71
     2
 72
     2
 73
     0
 90
        0
 40
0.6
 41
30.0
 62
     5
 63
     7
421
 16777215
 74
     1
 91
        4
 64
     7
 65
   257
 75
     1
175
     1
 42
1.0
 92
        9
 66
     7
 43
1.0
 76
     1
 77
     6
 78
     2
 67
     7
 79
     5
170
     0
171
     0
290
     0
174
     0
 93
        1
 44
0.0
173
     0
291
     1
 45
0.0
1001
ACAD
1000
AcDbSavedByObjectVersion
1070
     0
  0
VISUALSTYLE
  5
33
102
{ACAD_REACTORS
330
2A
102
}
102
{ACAD_XDICTIONARY
360
2B3
102
}
330
2A
100
AcDbVisualStyle
  2
Realistic
 70
     8
 71
     2
 72
     3
 73
     0
 90
        2
 40
0.6
 41
30.0
 62
     5
 63
     7
421
 16777215
 74
     0
 91
        0
 64
     7
 65
   257
 75
     1
175
     1
 42
1.0
 92
        8
 66
   257
 43
1.0
 76
     1
 77
     6
 78
     2
 67
     7
 79
     3
170
     0
171
     0
290
     0
174
     0
 93
       13
 44
0.0
173
     0
291
     0
 45
0.0
1001
ACAD
1000
AcDbSavedByObjectVersion
1070
     0
  0
VISUALSTYLE
  5
42
102
{ACAD_REACTORS
330
2A
102
}
102
{ACAD_XDICTIONARY
360
2D1
102
}
330
2A
100
AcDbVisualStyle
  2
Shaded
 70
    27
 71
     2
 72
     2
 73
     1
 90
        2
 40
0.6
 41
30.0
 62
     5
 63
     7
421
 16777215
 74
     0
 91
        4
 64
     7
 65
   257
 75
     1
175
     1
 42
1.0
 92
        8
 66
   257
 43
1.0
 76
     1
 77
     6
 78
     2
 67
     8
425
  7895160
 79
     3
170
     0
171
     0
290
     0
174
     0
 93
        5
 44
0.0
173
     0
291
     0
 45
0.0
1001
ACAD
1000
AcDbSavedByObjectVersion
1070
     0
  0
VISUALSTYLE
  5
41
102
{ACAD_REACTORS
330
2A
102
}
102
{ACAD_XDICTIONARY
360
2CF
102
}
330
2A
100
AcDbVisualStyle
  2
Shaded with edges
 70
    26
 71
     2
 72
     2
 73
     1
 90
        2
 40
0.6
 41
30.0
 62
     5
 63
     7
421
 16777215
 74
     1
 91
       10
 64
     7
 65
   257
 75
     2
175
     1
 42
1.0
 92
        8
 66
   257
 43
1.0
 76
     1
 77
     6
 78
     2
 67
     7
 79
     3
170
     0
171
     0
290
     0
174
     0
 93
        5
 44
0.0
173
     0
291
     0
 45
0.0
1001
ACAD
1000
AcDbSavedByObjectVersion
1070
     0
  0
VISUALSTYLE
  5
3E
102
{ACAD_REACTORS
330
2A
102
}
102
{ACAD_XDICTIONARY
360
2C9
102
}
330
2A
100
AcDbVisualStyle
  2
Shades of Gray
 70
    23
 71
     2
 72
     2
 73
     3
 90
        0
 40
0.6
 41
30.0
 62
     5
 63
     7
421
 16777215
 74
     2
 91
        2
 64
     7
 65
     7
 75
     1
175
     1
 42
40.0
 92
        8
 66
     7
 43
1.0
 76
     1
 77
     6
 78
     2
 67
     7
 79
     3
170
     0
171
     0
290
     0
174
     0
 93
        1
 44
0.0
173
     0
291
     0
 45
0.0
1001
ACAD
1000
AcDbSavedByObjectVersion
1070
     0
  0
VISUALSTYLE
  5
3F
102
{ACAD_REACTORS
330
2A
102
}
102
{ACAD_XDICTIONARY
360
2CB
102
}
330
2A
100
AcDbVisualStyle
  2
Sketchy
 70
    24
 71
     1
 72
     2
 73
     2
 90
        0
 40
0.6
 41
30.0
 62
     5
 63
     7
421
 16777215
 74
     2
 91
        2
 64
     7
 65
     7
 75
     1
175
     1
 42
40.0
 92
       11
 66
     7
 43
1.0
 76
     1
 77
     6
 78
     2
 67
     7
 79
     6
170
     0
171
     0
290
     0
174
     0
 93
        1
 44
0.0
173
     0
291
     0
 45
0.0
1001
ACAD
1000
AcDbSavedByObjectVersion
1070
     0
  0
VISUALSTYLE
  5
37
102
{ACAD_REACTORS
330
2A
102
}
102
{ACAD_XDICTIONARY
360
2BB
102
}
330
2A
100
AcDbVisualStyle
  2
Thicken
 70
    13
 71
     2
 72
     2
 73
     0
 90
        0
 40
0.6
 41
30.0
 62
     5
 63
     7
421
 16777215
 74
     1
 91
        4
 64
     7
 65
   257
 75
     1
175
     1
 42
1.0
 92
       12
 66
     7
 43
1.0
 76
     1
 77
     6
 78
     2
 67
     7
 79
     5
170
     0
171
     0
290
     0
174
     0
 93
        1
 44
0.0
173
     0
291
     1
 45
0.0
1001
ACAD
1000
AcDbSavedByObjectVersion
1070
     0
  0
VISUALSTYLE
  5
30
102
{ACAD_REACTORS
330
2A
102
}
102
{ACAD_XDICTIONARY
360
2AD
102
}
330
2A
100
AcDbVisualStyle
  2
Wireframe
 70
     5
 71
     0
 72
     2
 73
     0
 90
        0
 40
0.6
 41
30.0
 62
     5
 63
     7
421
 16777215
 74
     1
 91
        4
 64
     7
 65
   257
 75
     1
175
     1
 42
1.0
 92
        0
 66
   257
 43
1.0
 76
     1
 77
     6
 78
     2
 67
     7
 79
     3
170
     0
171
     0
290
     0
174
     0
 93
        1
 44
0.0
173
     0
291
     0
 45
0.0
1001
ACAD
1000
AcDbSavedByObjectVersion
1070
     0
  0
VISUALSTYLE
  5
40
102
{ACAD_REACTORS
330
2A
102
}
102
{ACAD_XDICTIONARY
360
2CD
102
}
330
2A
100
AcDbVisualStyle
  2
X-Ray
 70
    25
 71
     2
 72
     2
 73
     1
 90
        1
 40
0.5
 41
30.0
 62
     5
 63
     7
421
 16777215
 74
     1
 91
        0
 64
     7
 65
   257
 75
     1
175
     1
 42
1.0
 92
        8
 66
     7
 43
1.0
 76
     1
 77
     6
 78
     2
 67
     7
 79
     3
170
     0
171
     0
290
     0
174
     0
 93
       13
 44
0.0
173
     0
291
     0
 45
0.0
1001
ACAD
1000
AcDbSavedByObjectVersion
1070
     0
  0
DICTIONARYVAR
  5
2A0
102
{ACAD_REACTORS
330
29F
102
}
330
29F
100
DictionaryVariables
280
     0
  1
1:1
  0
DICTIONARYVAR
  5
2E4
102
{ACAD_REACTORS
330
29F
102
}
330
29F
100
DictionaryVariables
280
     0
  1
3.500000
  0
DICTIONARYVAR
  5
2E5
102
{ACAD_REACTORS
330
29F
102
}
330
29F
100
DictionaryVariables
280
     0
  1
acadiso.lin
  0
DICTIONARYVAR
  5
2E1
102
{ACAD_REACTORS
330
29F
102
}
330
29F
100
DictionaryVariables
280
     0
  1
Standard
  0
DICTIONARYVAR
  5
2E0
102
{ACAD_REACTORS
330
29F
102
}
330
29F
100
DictionaryVariables
280
     0
  1
Standard
  0
DICTIONARYVAR
  5
2A1
102
{ACAD_REACTORS
330
29F
102
}
330
29F
100
DictionaryVariables
280
     0
  1
1
  0
DICTIONARYVAR
  5
2A2
102
{ACAD_REACTORS
330
29F
102
}
330
29F
100
DictionaryVariables
280
     0
  1
2
  0
DICTIONARY
  5
2D5
330
45
100
AcDbDictionary
280
     1
281
     1
  3
ACAD_XREC_ROUNDTRIP
360
2D6
  0
DICTIONARY
  5
2D3
330
44
100
AcDbDictionary
280
     1
281
     1
  3
ACAD_XREC_ROUNDTRIP
360
2D4
  0
DICTIONARY
  5
2D7
330
46
100
AcDbDictionary
280
     1
281
     1
  3
ACAD_XREC_ROUNDTRIP
360
2D8
  0
DICTIONARY
  5
2DD
330
6C
100
AcDbDictionary
280
     1
281
     1
  3
ACAD_XREC_ROUNDTRIP
360
2DE
  0
DICTIONARY
  5
2D9
330
6A
100
AcDbDictionary
280
     1
281
     1
  3
ACAD_ROUNDTRIP_2008_TABLESTYLE_CELLSTYLEMAP
360
2DB
  3
ACAD_XREC_ROUNDTRIP
360
2DA
  0
DICTIONARY
  5
2AB
330
2F
100
AcDbDictionary
280
     1
281
     1
  3
ACAD_XREC_ROUNDTRIP
360
2AC
  0
DICTIONARY
  5
2B1
330
32
100
AcDbDictionary
280
     1
281
     1
  3
ACAD_XREC_ROUNDTRIP
360
2B2
  0
DICTIONARY
  5
2B9
330
36
100
AcDbDictionary
280
     1
281
     1
  3
ACAD_XREC_ROUNDTRIP
360
2BA
  0
DICTIONARY
  5
2C1
330
3A
100
AcDbDictionary
280
     1
281
     1
  3
ACAD_XREC_ROUNDTRIP
360
2C2
  0
DICTIONARY
  5
2B5
330
34
100
AcDbDictionary
280
     1
281
     1
  3
ACAD_XREC_ROUNDTRIP
360
2B6
  0
DICTIONARY
  5
2B7
330
35
100
AcDbDictionary
280
     1
281
     1
  3
ACAD_XREC_ROUNDTRIP
360
2B8
  0
DICTIONARY
  5
2C7
330
3D
100
AcDbDictionary
280
     1
281
     1
  3
ACAD_XREC_ROUNDTRIP
360
2C8
  0
DICTIONARY
  5
2BF
330
39
100
AcDbDictionary
280
     1
281
     1
  3
ACAD_XREC_ROUNDTRIP
360
2C0
  0
DICTIONARY
  5
2A3
330
2B
100
AcDbDictionary
280
     1
281
     1
  3
ACAD_XREC_ROUNDTRIP
360
2A4
  0
DICTIONARY
  5
2A5
330
2C
100
AcDbDictionary
280
     1
281
     1
  3
ACAD_XREC_ROUNDTRIP
360
2A6
  0
DICTIONARY
  5
2A7
330
2D
100
AcDbDictionary
280
     1
281
     1
  3
ACAD_XREC_ROUNDTRIP
360
2A8
  0
DICTIONARY
  5
2A9
330
2E
100
AcDbDictionary
280
     1
281
     1
  3
ACAD_XREC_ROUNDTRIP
360
2AA
  0
DICTIONARY
  5
2AF
330
31
100
AcDbDictionary
280
     1
281
     1
  3
ACAD_XREC_ROUNDTRIP
360
2B0
  0
DICTIONARY
  5
2C3
330
3B
100
AcDbDictionary
280
     1
281
     1
  3
ACAD_XREC_ROUNDTRIP
360
2C4
  0
DICTIONARY
  5
2BD
330
38
100
AcDbDictionary
280
     1
281
     1
  3
ACAD_XREC_ROUNDTRIP
360
2BE
  0
DICTIONARY
  5
2C5
330
3C
100
AcDbDictionary
280
     1
281
     1
  3
ACAD_XREC_ROUNDTRIP
360
2C6
  0
DICTIONARY
  5
2B3
330
33
100
AcDbDictionary
280
     1
281
     1
  3
ACAD_XREC_ROUNDTRIP
360
2B4
  0
DICTIONARY
  5
2D1
330
42
100
AcDbDictionary
280
     1
281
     1
  3
ACAD_XREC_ROUNDTRIP
360
2D2
  0
DICTIONARY
  5
2CF
330
41
100
AcDbDictionary
280
     1
281
     1
  3
ACAD_XREC_ROUNDTRIP
360
2D0
  0
DICTIONARY
  5
2C9
330
3E
100
AcDbDictionary
280
     1
281
     1
  3
ACAD_XREC_ROUNDTRIP
360
2CA
  0
DICTIONARY
  5
2CB
330
3F
100
AcDbDictionary
280
     1
281
     1
  3
ACAD_XREC_ROUNDTRIP
360
2CC
  0
DICTIONARY
  5
2BB
330
37
100
AcDbDictionary
280
     1
281
     1
  3
ACAD_XREC_ROUNDTRIP
360
2BC
  0
DICTIONARY
  5
2AD
330
30
100
AcDbDictionary
280
     1
281
     1
  3
ACAD_XREC_ROUNDTRIP
360
2AE
  0
DICTIONARY
  5
2CD
330
40
100
AcDbDictionary
280
     1
281
     1
  3
ACAD_XREC_ROUNDTRIP
360
2CE
  0
XRECORD
  5
2D6
102
{ACAD_REACTORS
330
2D5
102
}
330
2D5
100
AcDbXrecord
280
     1
102
MATERIAL
148
0.0
149
0.0
149
0.0
 93
        0
 94
      127
282
     0
 72
     1
 77
     1
171
     1
175
     1
179
     1
273
     0
  0
XRECORD
  5
2D4
102
{ACAD_REACTORS
330
2D3
102
}
330
2D3
100
AcDbXrecord
280
     1
102
MATERIAL
148
0.0
149
0.0
149
0.0
 93
        0
 94
      127
282
     0
 72
     1
 77
     1
171
     1
175
     1
179
     1
273
     0
  0
XRECORD
  5
2D8
102
{ACAD_REACTORS
330
2D7
102
}
330
2D7
100
AcDbXrecord
280
     1
102
MATERIAL
148
0.0
149
0.0
149
0.0
 93
        0
 94
      127
282
     0
 72
     1
 77
     1
171
     1
175
     1
179
     1
273
     0
  0
XRECORD
  5
2DE
102
{ACAD_REACTORS
330
2DD
102
}
330
2DD
100
AcDbXrecord
280
     1
102
ACAD_ROUNDTRIP_2010_MLEADER_STYLE
  0
CELLSTYLEMAP
  5
2DB
102
{ACAD_REACTORS
330
2D9
102
}
330
2D9
100
AcDbCellStyleMap
 90
        3
300
CELLSTYLE
  1
TABLEFORMAT_BEGIN
 90
        5
170
     1
 91
        0
 92
    32768
 62
   257
 93
        1
300
CONTENTFORMAT
  1
CONTENTFORMAT_BEGIN
 90
        0
 91
        0
 92
        4
 93
        0
300

 40
0.0
140
1.0
 94
        5
 62
     0
340
11
144
6.0
309
CONTENTFORMAT_END
171
     1
301
MARGIN
  1
CELLMARGIN_BEGIN
 40
1.5
 40
1.5
 40
1.5
 40
1.5
 40
1.5
 40
1.5
309
CELLMARGIN_END
 94
        6
 95
        1
302
GRIDFORMAT
  1
GRIDFORMAT_BEGIN
 90
        0
 91
        1
 62
     0
 92
       -2
340
14
 93
        0
 40
0.045
309
GRIDFORMAT_END
 95
        2
302
GRIDFORMAT
  1
GRIDFORMAT_BEGIN
 90
        0
 91
        1
 62
     0
 92
       -2
340
14
 93
        0
 40
0.045
309
GRIDFORMAT_END
 95
        4
302
GRIDFORMAT
  1
GRIDFORMAT_BEGIN
 90
        0
 91
        1
 62
     0
 92
       -2
340
14
 93
        0
 40
0.045
309
GRIDFORMAT_END
 95
        8
302
GRIDFORMAT
  1
GRIDFORMAT_BEGIN
 90
        0
 91
        1
 62
     0
 92
       -2
340
14
 93
        0
 40
0.045
309
GRIDFORMAT_END
 95
       16
302
GRIDFORMAT
  1
GRIDFORMAT_BEGIN
 90
        0
 91
        1
 62
     0
 92
       -2
340
14
 93
        0
 40
0.045
309
GRIDFORMAT_END
 95
       32
302
GRIDFORMAT
  1
GRIDFORMAT_BEGIN
 90
        0
 91
        1
 62
     0
 92
       -2
340
14
 93
        0
 40
0.045
309
GRIDFORMAT_END
309
TABLEFORMAT_END
  1
CELLSTYLE_BEGIN
 90
        1
 91
        1
300
_TITLE
309
CELLSTYLE_END
300
CELLSTYLE
  1
TABLEFORMAT_BEGIN
 90
        5
170
     1
 91
        0
 92
        0
 62
   257
 93
        1
300
CONTENTFORMAT
  1
CONTENTFORMAT_BEGIN
 90
        0
 91
        0
 92
        4
 93
        0
300

 40
0.0
140
1.0
 94
        5
 62
     0
340
11
144
4.5
309
CONTENTFORMAT_END
171
     1
301
MARGIN
  1
CELLMARGIN_BEGIN
 40
1.5
 40
1.5
 40
1.5
 40
1.5
 40
1.5
 40
1.5
309
CELLMARGIN_END
 94
        6
 95
        1
302
GRIDFORMAT
  1
GRIDFORMAT_BEGIN
 90
        0
 91
        1
 62
     0
 92
       -2
340
14
 93
        0
 40
0.045
309
GRIDFORMAT_END
 95
        2
302
GRIDFORMAT
  1
GRIDFORMAT_BEGIN
 90
        0
 91
        1
 62
     0
 92
       -2
340
14
 93
        0
 40
0.045
309
GRIDFORMAT_END
 95
        4
302
GRIDFORMAT
  1
GRIDFORMAT_BEGIN
 90
        0
 91
        1
 62
     0
 92
       -2
340
14
 93
        0
 40
0.045
309
GRIDFORMAT_END
 95
        8
302
GRIDFORMAT
  1
GRIDFORMAT_BEGIN
 90
        0
 91
        1
 62
     0
 92
       -2
340
14
 93
        0
 40
0.045
309
GRIDFORMAT_END
 95
       16
302
GRIDFORMAT
  1
GRIDFORMAT_BEGIN
 90
        0
 91
        1
 62
     0
 92
       -2
340
14
 93
        0
 40
0.045
309
GRIDFORMAT_END
 95
       32
302
GRIDFORMAT
  1
GRIDFORMAT_BEGIN
 90
        0
 91
        1
 62
     0
 92
       -2
340
14
 93
        0
 40
0.045
309
GRIDFORMAT_END
309
TABLEFORMAT_END
  1
CELLSTYLE_BEGIN
 90
        2
 91
        1
300
_HEADER
309
CELLSTYLE_END
300
CELLSTYLE
  1
TABLEFORMAT_BEGIN
 90
        5
170
     1
 91
        0
 92
        0
 62
   257
 93
        1
300
CONTENTFORMAT
  1
CONTENTFORMAT_BEGIN
 90
        0
 91
        0
 92
        4
 93
        0
300

 40
0.0
140
1.0
 94
        2
 62
     0
340
11
144
4.5
309
CONTENTFORMAT_END
171
     1
301
MARGIN
  1
CELLMARGIN_BEGIN
 40
1.5
 40
1.5
 40
1.5
 40
1.5
 40
1.5
 40
1.5
309
CELLMARGIN_END
 94
        6
 95
        1
302
GRIDFORMAT
  1
GRIDFORMAT_BEGIN
 90
        0
 91
        1
 62
     0
 92
       -2
340
14
 93
        0
 40
0.045
309
GRIDFORMAT_END
 95
        2
302
GRIDFORMAT
  1
GRIDFORMAT_BEGIN
 90
        0
 91
        1
 62
     0
 92
       -2
340
14
 93
        0
 40
0.045
309
GRIDFORMAT_END
 95
        4
302
GRIDFORMAT
  1
GRIDFORMAT_BEGIN
 90
        0
 91
        1
 62
     0
 92
       -2
340
14
 93
        0
 40
0.045
309
GRIDFORMAT_END
 95
        8
302
GRIDFORMAT
  1
GRIDFORMAT_BEGIN
 90
        0
 91
        1
 62
     0
 92
       -2
340
14
 93
        0
 40
0.045
309
GRIDFORMAT_END
 95
       16
302
GRIDFORMAT
  1
GRIDFORMAT_BEGIN
 90
        0
 91
        1
 62
     0
 92
       -2
340
14
 93
        0
 40
0.045
309
GRIDFORMAT_END
 95
       32
302
GRIDFORMAT
  1
GRIDFORMAT_BEGIN
 90
        0
 91
        1
 62
     0
 92
       -2
340
14
 93
        0
 40
0.045
309
GRIDFORMAT_END
309
TABLEFORMAT_END
  1
CELLSTYLE_BEGIN
 90
        3
 91
        2
300
_DATA
309
CELLSTYLE_END
  0
XRECORD
  5
2DA
102
{ACAD_REACTORS
330
2D9
102
}
330
2D9
100
AcDbXrecord
280
     1
102
ACAD_ROUNDTRIP_PRE2007_TABLESTYLE
 90
        4
 91
        0
  1

 92
        4
 93
        0
  2

 94
        4
 95
        0
  3

  0
XRECORD
  5
2AC
102
{ACAD_REACTORS
330
2AB
102
}
330
2AB
100
AcDbXrecord
280
     1
102
RTVSPropertyOp0
 70
     1
102
RTVSPropertyOp1
 70
     1
102
RTVSPropertyOp2
 70
     1
102
RTVSPropertyOp3
 70
     1
102
RTVSPropertyOp4
 70
     1
102
RTVSPropertyOp5
 70
     1
102
RTVSPropertyOp6
 70
     1
102
RTVSPropertyOp7
 70
     1
102
RTVSPropertyOp8
 70
     1
102
RTVSPropertyOp9
 70
     1
102
RTVSPropertyOp10
 70
     1
102
RTVSPropertyOp11
 70
     1
102
RTVSPropertyOp12
 70
     1
102
RTVSPropertyOp13
 70
     1
102
RTVSPropertyOp14
 70
     1
102
RTVSPropertyOp15
 70
     1
102
RTVSPropertyOp16
 70
     1
102
RTVSPropertyOp17
 70
     1
102
RTVSPropertyOp18
 70
     1
102
RTVSPropertyOp19
 70
     1
102
RTVSPropertyOp20
 70
     1
102
RTVSPropertyOp21
 70
     1
102
RTVSPropertyOp22
 70
     1
102
RTVSPropertyOp23
 70
     1
102
RTVSPropertyOp24
 70
     1
102
RTVSPropertyOp25
 70
     1
102
RTVSPropertyOp26
 70
     1
102
RTVSPropertyOp27
 70
     1
102
RTVSPropertyOp28
 70
     1
102
RTVSPropertyOp29
 70
     1
102
RTVSPropertyOp30
 70
     1
102
RTVSPropertyOp31
 70
     1
102
RTVSPropertyOp32
 70
     1
102
RTVSPropertyOp33
 70
     1
102
RTVSPropertyOp34
 70
     1
102
RTVSPropertyOp35
 70
     1
102
RTVSPropertyOp36
 70
     1
102
RTVSPropertyOp37
 70
     1
102
RTVSPropertyOp38
 70
     1
102
RTVSPropertyOp39
 70
     1
102
RTVSPropertyOp40
 70
     1
102
RTVSPropertyOp41
 70
     1
102
RTVSPropertyOp42
 70
     1
102
RTVSPropertyOp43
 70
     1
102
RTVSPropertyOp44
 70
     1
102
RTVSPropertyOp45
 70
     1
102
RTVSPropertyOp46
 70
     1
102
RTVSPropertyOp47
 70
     1
102
RTVSPropertyOp48
 70
     1
102
RTVSPropertyOp49
 70
     1
102
RTVSPropertyOp50
 70
     1
102
RTVSPropertyOp51
 70
     0
102
RTVSPropertyOp52
 70
     0
102
RTVSPropertyOp53
 70
     1
102
RTVSPropertyOp54
 70
     1
102
RTVSPropertyOp55
 70
     1
102
RTVSPropertyOp56
 70
     1
102
RTVSPropertyOp57
 70
     1
102
RTVSPost2010Prop28
280
     1
102
RTVSPost2010PropOp28
 70
     1
102
RTVSPost2010Prop29
280
     1
102
RTVSPost2010PropOp29
 70
     1
102
RTVSPost2010Prop30
280
     0
102
RTVSPost2010PropOp30
 70
     1
102
RTVSPost2010Prop31
280
     0
102
RTVSPost2010PropOp31
 70
     1
102
RTVSPost2010Prop32
280
     0
102
RTVSPost2010PropOp32
 70
     1
102
RTVSPost2010Prop33
280
     0
102
RTVSPost2010PropOp33
 70
     1
102
RTVSPost2010Prop34
280
     0
102
RTVSPost2010PropOp34
 70
     1
102
RTVSPost2010Prop35
280
     0
102
RTVSPost2010PropOp35
 70
     1
102
RTVSPost2010Prop36
280
     0
102
RTVSPost2010PropOp36
 70
     1
102
RTVSPost2010Prop37
 90
       50
102
RTVSPost2010PropOp37
 70
     1
102
RTVSPost2010Prop38
140
0.0
102
RTVSPost2010PropOp38
 70
     1
102
RTVSPost2010Prop39
140
1.0
102
RTVSPost2010PropOp39
 70
     1
102
RTVSPost2010Prop40
 90
        0
102
RTVSPost2010PropOp40
 70
     1
102
RTVSPost2010Prop41ColorIndex
 90
       18
102
RTVSPost2010Prop41ColorRGB
 90
        0
102
RTVSPost2010PropOp41
 70
     1
102
RTVSPost2010Prop42
 90
       50
102
RTVSPost2010PropOp42
 70
     1
102
RTVSPost2010Prop43
 90
        3
102
RTVSPost2010PropOp43
 70
     1
102
RTVSPost2010Prop44ColorIndex
 90
        5
102
RTVSPost2010Prop44ColorRGB
 90
      255
102
RTVSPost2010PropOp44
 70
     1
102
RTVSPost2010Prop45
280
     0
102
RTVSPost2010PropOp45
 70
     1
102
RTVSPost2010Prop46
 90
       50
102
RTVSPost2010PropOp46
 70
     1
102
RTVSPost2010Prop47
 90
       50
102
RTVSPost2010PropOp47
 70
     1
102
RTVSPost2010Prop48
 90
       50
102
RTVSPost2010PropOp48
 70
     1
102
RTVSPost2010Prop49
280
     0
102
RTVSPost2010PropOp49
 70
     1
102
RTVSPost2010Prop50
 90
       50
102
RTVSPost2010PropOp50
 70
     1
102
RTVSPost2010Prop51ColorIndex
 90
      256
102
RTVSPost2010Prop51ColorRGB
 90
-16777216
102
RTVSPost2010PropOp51
 70
     0
102
RTVSPost2010Prop52
140
1.0
102
RTVSPost2010PropOp52
 70
     0
102
RTVSPost2010Prop53
 90
        2
102
RTVSPost2010PropOp53
 70
     1
102
RTVSPost2010Prop54
  1
strokes_ogs.tif
102
RTVSPost2010PropOp54
 70
     1
102
RTVSPost2010Prop55
280
     0
102
RTVSPost2010PropOp55
 70
     1
102
RTVSPost2010Prop56
140
1.0
102
RTVSPost2010PropOp56
 70
     1
102
RTVSPost2010Prop57
140
1.0
102
RTVSPost2010PropOp57
 70
     1
  0
XRECORD
  5
2B2
102
{ACAD_REACTORS
330
2B1
102
}
330
2B1
100
AcDbXrecord
280
     1
102
RTVSPropertyOp0
 70
     1
102
RTVSPropertyOp1
 70
     1
102
RTVSPropertyOp2
 70
     1
102
RTVSPropertyOp3
 70
     1
102
RTVSPropertyOp4
 70
     1
102
RTVSPropertyOp5
 70
     1
102
RTVSPropertyOp6
 70
     1
102
RTVSPropertyOp7
 70
     1
102
RTVSPropertyOp8
 70
     1
102
RTVSPropertyOp9
 70
     1
102
RTVSPropertyOp10
 70
     1
102
RTVSPropertyOp11
 70
     1
102
RTVSPropertyOp12
 70
     1
102
RTVSPropertyOp13
 70
     1
102
RTVSPropertyOp14
 70
     1
102
RTVSPropertyOp15
 70
     1
102
RTVSPropertyOp16
 70
     1
102
RTVSPropertyOp17
 70
     1
102
RTVSPropertyOp18
 70
     1
102
RTVSPropertyOp19
 70
     1
102
RTVSPropertyOp20
 70
     1
102
RTVSPropertyOp21
 70
     1
102
RTVSPropertyOp22
 70
     1
102
RTVSPropertyOp23
 70
     1
102
RTVSPropertyOp24
 70
     1
102
RTVSPropertyOp25
 70
     1
102
RTVSPropertyOp26
 70
     1
102
RTVSPropertyOp27
 70
     1
102
RTVSPropertyOp28
 70
     1
102
RTVSPropertyOp29
 70
     1
102
RTVSPropertyOp30
 70
     1
102
RTVSPropertyOp31
 70
     1
102
RTVSPropertyOp32
 70
     1
102
RTVSPropertyOp33
 70
     1
102
RTVSPropertyOp34
 70
     1
102
RTVSPropertyOp35
 70
     1
102
RTVSPropertyOp36
 70
     1
102
RTVSPropertyOp37
 70
     1
102
RTVSPropertyOp38
 70
     1
102
RTVSPropertyOp39
 70
     1
102
RTVSPropertyOp40
 70
     1
102
RTVSPropertyOp41
 70
     1
102
RTVSPropertyOp42
 70
     1
102
RTVSPropertyOp43
 70
     1
102
RTVSPropertyOp44
 70
     1
102
RTVSPropertyOp45
 70
     1
102
RTVSPropertyOp46
 70
     1
102
RTVSPropertyOp47
 70
     1
102
RTVSPropertyOp48
 70
     1
102
RTVSPropertyOp49
 70
     1
102
RTVSPropertyOp50
 70
     1
102
RTVSPropertyOp51
 70
     0
102
RTVSPropertyOp52
 70
     0
102
RTVSPropertyOp53
 70
     1
102
RTVSPropertyOp54
 70
     1
102
RTVSPropertyOp55
 70
     1
102
RTVSPropertyOp56
 70
     1
102
RTVSPropertyOp57
 70
     1
102
RTVSPost2010Prop28
280
     0
102
RTVSPost2010PropOp28
 70
     1
102
RTVSPost2010Prop29
280
     1
102
RTVSPost2010PropOp29
 70
     1
102
RTVSPost2010Prop30
280
     1
102
RTVSPost2010PropOp30
 70
     1
102
RTVSPost2010Prop31
280
     0
102
RTVSPost2010PropOp31
 70
     1
102
RTVSPost2010Prop32
280
     0
102
RTVSPost2010PropOp32
 70
     1
102
RTVSPost2010Prop33
280
     0
102
RTVSPost2010PropOp33
 70
     1
102
RTVSPost2010Prop34
280
     0
102
RTVSPost2010PropOp34
 70
     1
102
RTVSPost2010Prop35
280
     0
102
RTVSPost2010PropOp35
 70
     1
102
RTVSPost2010Prop36
280
     0
102
RTVSPost2010PropOp36
 70
     1
102
RTVSPost2010Prop37
 90
       50
102
RTVSPost2010PropOp37
 70
     1
102
RTVSPost2010Prop38
140
0.0
102
RTVSPost2010PropOp38
 70
     1
102
RTVSPost2010Prop39
140
1.0
102
RTVSPost2010PropOp39
 70
     1
102
RTVSPost2010Prop40
 90
        0
102
RTVSPost2010PropOp40
 70
     1
102
RTVSPost2010Prop41ColorIndex
 90
       18
102
RTVSPost2010Prop41ColorRGB
 90
        0
102
RTVSPost2010PropOp41
 70
     1
102
RTVSPost2010Prop42
 90
       50
102
RTVSPost2010PropOp42
 70
     1
102
RTVSPost2010Prop43
 90
        3
102
RTVSPost2010PropOp43
 70
     1
102
RTVSPost2010Prop44ColorIndex
 90
        5
102
RTVSPost2010Prop44ColorRGB
 90
      255
102
RTVSPost2010PropOp44
 70
     1
102
RTVSPost2010Prop45
280
     0
102
RTVSPost2010PropOp45
 70
     1
102
RTVSPost2010Prop46
 90
       50
102
RTVSPost2010PropOp46
 70
     1
102
RTVSPost2010Prop47
 90
       50
102
RTVSPost2010PropOp47
 70
     1
102
RTVSPost2010Prop48
 90
       50
102
RTVSPost2010PropOp48
 70
     1
102
RTVSPost2010Prop49
280
     0
102
RTVSPost2010PropOp49
 70
     1
102
RTVSPost2010Prop50
 90
       50
102
RTVSPost2010PropOp50
 70
     1
102
RTVSPost2010Prop51ColorIndex
 90
      256
102
RTVSPost2010Prop51ColorRGB
 90
-16777216
102
RTVSPost2010PropOp51
 70
     0
102
RTVSPost2010Prop52
140
1.0
102
RTVSPost2010PropOp52
 70
     0
102
RTVSPost2010Prop53
 90
        2
102
RTVSPost2010PropOp53
 70
     1
102
RTVSPost2010Prop54
  1
strokes_ogs.tif
102
RTVSPost2010PropOp54
 70
     1
102
RTVSPost2010Prop55
280
     0
102
RTVSPost2010PropOp55
 70
     1
102
RTVSPost2010Prop56
140
1.0
102
RTVSPost2010PropOp56
 70
     1
102
RTVSPost2010Prop57
140
1.0
102
RTVSPost2010PropOp57
 70
     1
  0
XRECORD
  5
2BA
102
{ACAD_REACTORS
330
2B9
102
}
330
2B9
100
AcDbXrecord
280
     1
102
RTVSPropertyOp0
 70
     1
102
RTVSPropertyOp1
 70
     1
102
RTVSPropertyOp2
 70
     1
102
RTVSPropertyOp3
 70
     1
102
RTVSPropertyOp4
 70
     1
102
RTVSPropertyOp5
 70
     1
102
RTVSPropertyOp6
 70
     1
102
RTVSPropertyOp7
 70
     1
102
RTVSPropertyOp8
 70
     1
102
RTVSPropertyOp9
 70
     1
102
RTVSPropertyOp10
 70
     1
102
RTVSPropertyOp11
 70
     1
102
RTVSPropertyOp12
 70
     1
102
RTVSPropertyOp13
 70
     1
102
RTVSPropertyOp14
 70
     1
102
RTVSPropertyOp15
 70
     1
102
RTVSPropertyOp16
 70
     1
102
RTVSPropertyOp17
 70
     1
102
RTVSPropertyOp18
 70
     1
102
RTVSPropertyOp19
 70
     1
102
RTVSPropertyOp20
 70
     1
102
RTVSPropertyOp21
 70
     1
102
RTVSPropertyOp22
 70
     1
102
RTVSPropertyOp23
 70
     1
102
RTVSPropertyOp24
 70
     1
102
RTVSPropertyOp25
 70
     1
102
RTVSPropertyOp26
 70
     1
102
RTVSPropertyOp27
 70
     1
102
RTVSPropertyOp28
 70
     1
102
RTVSPropertyOp29
 70
     1
102
RTVSPropertyOp30
 70
     1
102
RTVSPropertyOp31
 70
     1
102
RTVSPropertyOp32
 70
     1
102
RTVSPropertyOp33
 70
     1
102
RTVSPropertyOp34
 70
     1
102
RTVSPropertyOp35
 70
     1
102
RTVSPropertyOp36
 70
     1
102
RTVSPropertyOp37
 70
     1
102
RTVSPropertyOp38
 70
     1
102
RTVSPropertyOp39
 70
     1
102
RTVSPropertyOp40
 70
     1
102
RTVSPropertyOp41
 70
     1
102
RTVSPropertyOp42
 70
     1
102
RTVSPropertyOp43
 70
     1
102
RTVSPropertyOp44
 70
     1
102
RTVSPropertyOp45
 70
     1
102
RTVSPropertyOp46
 70
     1
102
RTVSPropertyOp47
 70
     1
102
RTVSPropertyOp48
 70
     1
102
RTVSPropertyOp49
 70
     1
102
RTVSPropertyOp50
 70
     1
102
RTVSPropertyOp51
 70
     0
102
RTVSPropertyOp52
 70
     0
102
RTVSPropertyOp53
 70
     1
102
RTVSPropertyOp54
 70
     1
102
RTVSPropertyOp55
 70
     1
102
RTVSPropertyOp56
 70
     1
102
RTVSPropertyOp57
 70
     1
102
RTVSPost2010Prop28
280
     0
102
RTVSPost2010PropOp28
 70
     1
102
RTVSPost2010Prop29
280
     1
102
RTVSPost2010PropOp29
 70
     1
102
RTVSPost2010Prop30
280
     1
102
RTVSPost2010PropOp30
 70
     1
102
RTVSPost2010Prop31
280
     0
102
RTVSPost2010PropOp31
 70
     1
102
RTVSPost2010Prop32
280
     0
102
RTVSPost2010PropOp32
 70
     1
102
RTVSPost2010Prop33
280
     0
102
RTVSPost2010PropOp33
 70
     1
102
RTVSPost2010Prop34
280
     0
102
RTVSPost2010PropOp34
 70
     1
102
RTVSPost2010Prop35
280
     0
102
RTVSPost2010PropOp35
 70
     1
102
RTVSPost2010Prop36
280
     0
102
RTVSPost2010PropOp36
 70
     1
102
RTVSPost2010Prop37
 90
       50
102
RTVSPost2010PropOp37
 70
     1
102
RTVSPost2010Prop38
140
0.0
102
RTVSPost2010PropOp38
 70
     1
102
RTVSPost2010Prop39
140
1.0
102
RTVSPost2010PropOp39
 70
     1
102
RTVSPost2010Prop40
 90
        0
102
RTVSPost2010PropOp40
 70
     1
102
RTVSPost2010Prop41ColorIndex
 90
       18
102
RTVSPost2010Prop41ColorRGB
 90
        0
102
RTVSPost2010PropOp41
 70
     1
102
RTVSPost2010Prop42
 90
       50
102
RTVSPost2010PropOp42
 70
     1
102
RTVSPost2010Prop43
 90
        3
102
RTVSPost2010PropOp43
 70
     1
102
RTVSPost2010Prop44ColorIndex
 90
        5
102
RTVSPost2010Prop44ColorRGB
 90
      255
102
RTVSPost2010PropOp44
 70
     1
102
RTVSPost2010Prop45
280
     0
102
RTVSPost2010PropOp45
 70
     1
102
RTVSPost2010Prop46
 90
       50
102
RTVSPost2010PropOp46
 70
     1
102
RTVSPost2010Prop47
 90
       50
102
RTVSPost2010PropOp47
 70
     1
102
RTVSPost2010Prop48
 90
       50
102
RTVSPost2010PropOp48
 70
     1
102
RTVSPost2010Prop49
280
     0
102
RTVSPost2010PropOp49
 70
     1
102
RTVSPost2010Prop50
 90
       50
102
RTVSPost2010PropOp50
 70
     1
102
RTVSPost2010Prop51ColorIndex
 90
      256
102
RTVSPost2010Prop51ColorRGB
 90
-16777216
102
RTVSPost2010PropOp51
 70
     0
102
RTVSPost2010Prop52
140
1.0
102
RTVSPost2010PropOp52
 70
     0
102
RTVSPost2010Prop53
 90
        2
102
RTVSPost2010PropOp53
 70
     1
102
RTVSPost2010Prop54
  1
strokes_ogs.tif
102
RTVSPost2010PropOp54
 70
     1
102
RTVSPost2010Prop55
280
     0
102
RTVSPost2010PropOp55
 70
     1
102
RTVSPost2010Prop56
140
1.0
102
RTVSPost2010PropOp56
 70
     1
102
RTVSPost2010Prop57
140
1.0
102
RTVSPost2010PropOp57
 70
     1
  0
XRECORD
  5
2C2
102
{ACAD_REACTORS
330
2C1
102
}
330
2C1
100
AcDbXrecord
280
     1
102
RTVSPropertyOp0
 70
     1
102
RTVSPropertyOp1
 70
     1
102
RTVSPropertyOp2
 70
     1
102
RTVSPropertyOp3
 70
     1
102
RTVSPropertyOp4
 70
     1
102
RTVSPropertyOp5
 70
     1
102
RTVSPropertyOp6
 70
     1
102
RTVSPropertyOp7
 70
     1
102
RTVSPropertyOp8
 70
     1
102
RTVSPropertyOp9
 70
     1
102
RTVSPropertyOp10
 70
     1
102
RTVSPropertyOp11
 70
     1
102
RTVSPropertyOp12
 70
     1
102
RTVSPropertyOp13
 70
     1
102
RTVSPropertyOp14
 70
     1
102
RTVSPropertyOp15
 70
     1
102
RTVSPropertyOp16
 70
     1
102
RTVSPropertyOp17
 70
     1
102
RTVSPropertyOp18
 70
     1
102
RTVSPropertyOp19
 70
     1
102
RTVSPropertyOp20
 70
     1
102
RTVSPropertyOp21
 70
     1
102
RTVSPropertyOp22
 70
     1
102
RTVSPropertyOp23
 70
     1
102
RTVSPropertyOp24
 70
     1
102
RTVSPropertyOp25
 70
     1
102
RTVSPropertyOp26
 70
     1
102
RTVSPropertyOp27
 70
     1
102
RTVSPropertyOp28
 70
     1
102
RTVSPropertyOp29
 70
     1
102
RTVSPropertyOp30
 70
     1
102
RTVSPropertyOp31
 70
     1
102
RTVSPropertyOp32
 70
     1
102
RTVSPropertyOp33
 70
     1
102
RTVSPropertyOp34
 70
     1
102
RTVSPropertyOp35
 70
     1
102
RTVSPropertyOp36
 70
     1
102
RTVSPropertyOp37
 70
     1
102
RTVSPropertyOp38
 70
     1
102
RTVSPropertyOp39
 70
     1
102
RTVSPropertyOp40
 70
     1
102
RTVSPropertyOp41
 70
     1
102
RTVSPropertyOp42
 70
     1
102
RTVSPropertyOp43
 70
     1
102
RTVSPropertyOp44
 70
     1
102
RTVSPropertyOp45
 70
     1
102
RTVSPropertyOp46
 70
     1
102
RTVSPropertyOp47
 70
     1
102
RTVSPropertyOp48
 70
     1
102
RTVSPropertyOp49
 70
     1
102
RTVSPropertyOp50
 70
     1
102
RTVSPropertyOp51
 70
     0
102
RTVSPropertyOp52
 70
     0
102
RTVSPropertyOp53
 70
     1
102
RTVSPropertyOp54
 70
     1
102
RTVSPropertyOp55
 70
     1
102
RTVSPropertyOp56
 70
     1
102
RTVSPropertyOp57
 70
     1
102
RTVSPost2010Prop28
280
     0
102
RTVSPost2010PropOp28
 70
     1
102
RTVSPost2010Prop29
280
     1
102
RTVSPost2010PropOp29
 70
     1
102
RTVSPost2010Prop30
280
     1
102
RTVSPost2010PropOp30
 70
     1
102
RTVSPost2010Prop31
280
     0
102
RTVSPost2010PropOp31
 70
     1
102
RTVSPost2010Prop32
280
     0
102
RTVSPost2010PropOp32
 70
     1
102
RTVSPost2010Prop33
280
     0
102
RTVSPost2010PropOp33
 70
     1
102
RTVSPost2010Prop34
280
     0
102
RTVSPost2010PropOp34
 70
     1
102
RTVSPost2010Prop35
280
     0
102
RTVSPost2010PropOp35
 70
     1
102
RTVSPost2010Prop36
280
     0
102
RTVSPost2010PropOp36
 70
     1
102
RTVSPost2010Prop37
 90
       50
102
RTVSPost2010PropOp37
 70
     1
102
RTVSPost2010Prop38
140
0.0
102
RTVSPost2010PropOp38
 70
     1
102
RTVSPost2010Prop39
140
1.0
102
RTVSPost2010PropOp39
 70
     1
102
RTVSPost2010Prop40
 90
        0
102
RTVSPost2010PropOp40
 70
     1
102
RTVSPost2010Prop41ColorIndex
 90
       18
102
RTVSPost2010Prop41ColorRGB
 90
        0
102
RTVSPost2010PropOp41
 70
     1
102
RTVSPost2010Prop42
 90
       50
102
RTVSPost2010PropOp42
 70
     1
102
RTVSPost2010Prop43
 90
        3
102
RTVSPost2010PropOp43
 70
     1
102
RTVSPost2010Prop44ColorIndex
 90
        5
102
RTVSPost2010Prop44ColorRGB
 90
      255
102
RTVSPost2010PropOp44
 70
     1
102
RTVSPost2010Prop45
280
     0
102
RTVSPost2010PropOp45
 70
     1
102
RTVSPost2010Prop46
 90
       50
102
RTVSPost2010PropOp46
 70
     1
102
RTVSPost2010Prop47
 90
       50
102
RTVSPost2010PropOp47
 70
     1
102
RTVSPost2010Prop48
 90
       50
102
RTVSPost2010PropOp48
 70
     1
102
RTVSPost2010Prop49
280
     0
102
RTVSPost2010PropOp49
 70
     1
102
RTVSPost2010Prop50
 90
       50
102
RTVSPost2010PropOp50
 70
     1
102
RTVSPost2010Prop51ColorIndex
 90
      256
102
RTVSPost2010Prop51ColorRGB
 90
-16777216
102
RTVSPost2010PropOp51
 70
     0
102
RTVSPost2010Prop52
140
1.0
102
RTVSPost2010PropOp52
 70
     0
102
RTVSPost2010Prop53
 90
        2
102
RTVSPost2010PropOp53
 70
     1
102
RTVSPost2010Prop54
  1
strokes_ogs.tif
102
RTVSPost2010PropOp54
 70
     1
102
RTVSPost2010Prop55
280
     0
102
RTVSPost2010PropOp55
 70
     1
102
RTVSPost2010Prop56
140
1.0
102
RTVSPost2010PropOp56
 70
     1
102
RTVSPost2010Prop57
140
1.0
102
RTVSPost2010PropOp57
 70
     1
  0
XRECORD
  5
2B6
102
{ACAD_REACTORS
330
2B5
102
}
330
2B5
100
AcDbXrecord
280
     1
102
RTVSPropertyOp0
 70
     1
102
RTVSPropertyOp1
 70
     1
102
RTVSPropertyOp2
 70
     1
102
RTVSPropertyOp3
 70
     1
102
RTVSPropertyOp4
 70
     1
102
RTVSPropertyOp5
 70
     1
102
RTVSPropertyOp6
 70
     1
102
RTVSPropertyOp7
 70
     1
102
RTVSPropertyOp8
 70
     1
102
RTVSPropertyOp9
 70
     1
102
RTVSPropertyOp10
 70
     1
102
RTVSPropertyOp11
 70
     1
102
RTVSPropertyOp12
 70
     1
102
RTVSPropertyOp13
 70
     1
102
RTVSPropertyOp14
 70
     1
102
RTVSPropertyOp15
 70
     1
102
RTVSPropertyOp16
 70
     1
102
RTVSPropertyOp17
 70
     1
102
RTVSPropertyOp18
 70
     1
102
RTVSPropertyOp19
 70
     1
102
RTVSPropertyOp20
 70
     1
102
RTVSPropertyOp21
 70
     1
102
RTVSPropertyOp22
 70
     1
102
RTVSPropertyOp23
 70
     1
102
RTVSPropertyOp24
 70
     1
102
RTVSPropertyOp25
 70
     1
102
RTVSPropertyOp26
 70
     1
102
RTVSPropertyOp27
 70
     1
102
RTVSPropertyOp28
 70
     1
102
RTVSPropertyOp29
 70
     1
102
RTVSPropertyOp30
 70
     1
102
RTVSPropertyOp31
 70
     1
102
RTVSPropertyOp32
 70
     1
102
RTVSPropertyOp33
 70
     1
102
RTVSPropertyOp34
 70
     1
102
RTVSPropertyOp35
 70
     1
102
RTVSPropertyOp36
 70
     1
102
RTVSPropertyOp37
 70
     1
102
RTVSPropertyOp38
 70
     1
102
RTVSPropertyOp39
 70
     1
102
RTVSPropertyOp40
 70
     1
102
RTVSPropertyOp41
 70
     1
102
RTVSPropertyOp42
 70
     1
102
RTVSPropertyOp43
 70
     1
102
RTVSPropertyOp44
 70
     1
102
RTVSPropertyOp45
 70
     1
102
RTVSPropertyOp46
 70
     1
102
RTVSPropertyOp47
 70
     1
102
RTVSPropertyOp48
 70
     1
102
RTVSPropertyOp49
 70
     1
102
RTVSPropertyOp50
 70
     1
102
RTVSPropertyOp51
 70
     0
102
RTVSPropertyOp52
 70
     0
102
RTVSPropertyOp53
 70
     1
102
RTVSPropertyOp54
 70
     1
102
RTVSPropertyOp55
 70
     1
102
RTVSPropertyOp56
 70
     1
102
RTVSPropertyOp57
 70
     1
102
RTVSPost2010Prop28
280
     0
102
RTVSPost2010PropOp28
 70
     1
102
RTVSPost2010Prop29
280
     1
102
RTVSPost2010PropOp29
 70
     1
102
RTVSPost2010Prop30
280
     1
102
RTVSPost2010PropOp30
 70
     1
102
RTVSPost2010Prop31
280
     0
102
RTVSPost2010PropOp31
 70
     1
102
RTVSPost2010Prop32
280
     0
102
RTVSPost2010PropOp32
 70
     1
102
RTVSPost2010Prop33
280
     0
102
RTVSPost2010PropOp33
 70
     1
102
RTVSPost2010Prop34
280
     0
102
RTVSPost2010PropOp34
 70
     1
102
RTVSPost2010Prop35
280
     0
102
RTVSPost2010PropOp35
 70
     1
102
RTVSPost2010Prop36
280
     0
102
RTVSPost2010PropOp36
 70
     1
102
RTVSPost2010Prop37
 90
       50
102
RTVSPost2010PropOp37
 70
     1
102
RTVSPost2010Prop38
140
0.0
102
RTVSPost2010PropOp38
 70
     1
102
RTVSPost2010Prop39
140
1.0
102
RTVSPost2010PropOp39
 70
     1
102
RTVSPost2010Prop40
 90
        0
102
RTVSPost2010PropOp40
 70
     1
102
RTVSPost2010Prop41ColorIndex
 90
       18
102
RTVSPost2010Prop41ColorRGB
 90
        0
102
RTVSPost2010PropOp41
 70
     1
102
RTVSPost2010Prop42
 90
       50
102
RTVSPost2010PropOp42
 70
     1
102
RTVSPost2010Prop43
 90
        3
102
RTVSPost2010PropOp43
 70
     1
102
RTVSPost2010Prop44ColorIndex
 90
        5
102
RTVSPost2010Prop44ColorRGB
 90
      255
102
RTVSPost2010PropOp44
 70
     1
102
RTVSPost2010Prop45
280
     0
102
RTVSPost2010PropOp45
 70
     1
102
RTVSPost2010Prop46
 90
       50
102
RTVSPost2010PropOp46
 70
     1
102
RTVSPost2010Prop47
 90
       50
102
RTVSPost2010PropOp47
 70
     1
102
RTVSPost2010Prop48
 90
       50
102
RTVSPost2010PropOp48
 70
     1
102
RTVSPost2010Prop49
280
     0
102
RTVSPost2010PropOp49
 70
     1
102
RTVSPost2010Prop50
 90
       50
102
RTVSPost2010PropOp50
 70
     1
102
RTVSPost2010Prop51ColorIndex
 90
      256
102
RTVSPost2010Prop51ColorRGB
 90
-16777216
102
RTVSPost2010PropOp51
 70
     0
102
RTVSPost2010Prop52
140
1.0
102
RTVSPost2010PropOp52
 70
     0
102
RTVSPost2010Prop53
 90
        2
102
RTVSPost2010PropOp53
 70
     1
102
RTVSPost2010Prop54
  1
strokes_ogs.tif
102
RTVSPost2010PropOp54
 70
     1
102
RTVSPost2010Prop55
280
     0
102
RTVSPost2010PropOp55
 70
     1
102
RTVSPost2010Prop56
140
1.0
102
RTVSPost2010PropOp56
 70
     1
102
RTVSPost2010Prop57
140
1.0
102
RTVSPost2010PropOp57
 70
     1
  0
XRECORD
  5
2B8
102
{ACAD_REACTORS
330
2B7
102
}
330
2B7
100
AcDbXrecord
280
     1
102
RTVSPropertyOp0
 70
     1
102
RTVSPropertyOp1
 70
     1
102
RTVSPropertyOp2
 70
     1
102
RTVSPropertyOp3
 70
     1
102
RTVSPropertyOp4
 70
     1
102
RTVSPropertyOp5
 70
     1
102
RTVSPropertyOp6
 70
     1
102
RTVSPropertyOp7
 70
     1
102
RTVSPropertyOp8
 70
     1
102
RTVSPropertyOp9
 70
     1
102
RTVSPropertyOp10
 70
     1
102
RTVSPropertyOp11
 70
     1
102
RTVSPropertyOp12
 70
     1
102
RTVSPropertyOp13
 70
     1
102
RTVSPropertyOp14
 70
     1
102
RTVSPropertyOp15
 70
     1
102
RTVSPropertyOp16
 70
     1
102
RTVSPropertyOp17
 70
     1
102
RTVSPropertyOp18
 70
     1
102
RTVSPropertyOp19
 70
     1
102
RTVSPropertyOp20
 70
     1
102
RTVSPropertyOp21
 70
     1
102
RTVSPropertyOp22
 70
     1
102
RTVSPropertyOp23
 70
     1
102
RTVSPropertyOp24
 70
     1
102
RTVSPropertyOp25
 70
     1
102
RTVSPropertyOp26
 70
     1
102
RTVSPropertyOp27
 70
     1
102
RTVSPropertyOp28
 70
     1
102
RTVSPropertyOp29
 70
     1
102
RTVSPropertyOp30
 70
     1
102
RTVSPropertyOp31
 70
     1
102
RTVSPropertyOp32
 70
     1
102
RTVSPropertyOp33
 70
     1
102
RTVSPropertyOp34
 70
     1
102
RTVSPropertyOp35
 70
     1
102
RTVSPropertyOp36
 70
     1
102
RTVSPropertyOp37
 70
     1
102
RTVSPropertyOp38
 70
     1
102
RTVSPropertyOp39
 70
     1
102
RTVSPropertyOp40
 70
     1
102
RTVSPropertyOp41
 70
     1
102
RTVSPropertyOp42
 70
     1
102
RTVSPropertyOp43
 70
     1
102
RTVSPropertyOp44
 70
     1
102
RTVSPropertyOp45
 70
     1
102
RTVSPropertyOp46
 70
     1
102
RTVSPropertyOp47
 70
     1
102
RTVSPropertyOp48
 70
     1
102
RTVSPropertyOp49
 70
     1
102
RTVSPropertyOp50
 70
     1
102
RTVSPropertyOp51
 70
     0
102
RTVSPropertyOp52
 70
     0
102
RTVSPropertyOp53
 70
     1
102
RTVSPropertyOp54
 70
     1
102
RTVSPropertyOp55
 70
     1
102
RTVSPropertyOp56
 70
     1
102
RTVSPropertyOp57
 70
     1
102
RTVSPost2010Prop28
280
     0
102
RTVSPost2010PropOp28
 70
     1
102
RTVSPost2010Prop29
280
     1
102
RTVSPost2010PropOp29
 70
     1
102
RTVSPost2010Prop30
280
     1
102
RTVSPost2010PropOp30
 70
     1
102
RTVSPost2010Prop31
280
     0
102
RTVSPost2010PropOp31
 70
     1
102
RTVSPost2010Prop32
280
     0
102
RTVSPost2010PropOp32
 70
     1
102
RTVSPost2010Prop33
280
     0
102
RTVSPost2010PropOp33
 70
     1
102
RTVSPost2010Prop34
280
     0
102
RTVSPost2010PropOp34
 70
     1
102
RTVSPost2010Prop35
280
     0
102
RTVSPost2010PropOp35
 70
     1
102
RTVSPost2010Prop36
280
     0
102
RTVSPost2010PropOp36
 70
     1
102
RTVSPost2010Prop37
 90
       50
102
RTVSPost2010PropOp37
 70
     1
102
RTVSPost2010Prop38
140
0.0
102
RTVSPost2010PropOp38
 70
     1
102
RTVSPost2010Prop39
140
1.0
102
RTVSPost2010PropOp39
 70
     1
102
RTVSPost2010Prop40
 90
        0
102
RTVSPost2010PropOp40
 70
     1
102
RTVSPost2010Prop41ColorIndex
 90
       18
102
RTVSPost2010Prop41ColorRGB
 90
        0
102
RTVSPost2010PropOp41
 70
     1
102
RTVSPost2010Prop42
 90
       50
102
RTVSPost2010PropOp42
 70
     1
102
RTVSPost2010Prop43
 90
        3
102
RTVSPost2010PropOp43
 70
     1
102
RTVSPost2010Prop44ColorIndex
 90
        5
102
RTVSPost2010Prop44ColorRGB
 90
      255
102
RTVSPost2010PropOp44
 70
     1
102
RTVSPost2010Prop45
280
     0
102
RTVSPost2010PropOp45
 70
     1
102
RTVSPost2010Prop46
 90
       50
102
RTVSPost2010PropOp46
 70
     1
102
RTVSPost2010Prop47
 90
       50
102
RTVSPost2010PropOp47
 70
     1
102
RTVSPost2010Prop48
 90
       50
102
RTVSPost2010PropOp48
 70
     1
102
RTVSPost2010Prop49
280
     0
102
RTVSPost2010PropOp49
 70
     1
102
RTVSPost2010Prop50
 90
       50
102
RTVSPost2010PropOp50
 70
     1
102
RTVSPost2010Prop51ColorIndex
 90
      256
102
RTVSPost2010Prop51ColorRGB
 90
-16777216
102
RTVSPost2010PropOp51
 70
     0
102
RTVSPost2010Prop52
140
1.0
102
RTVSPost2010PropOp52
 70
     0
102
RTVSPost2010Prop53
 90
        2
102
RTVSPost2010PropOp53
 70
     1
102
RTVSPost2010Prop54
  1
strokes_ogs.tif
102
RTVSPost2010PropOp54
 70
     1
102
RTVSPost2010Prop55
280
     0
102
RTVSPost2010PropOp55
 70
     1
102
RTVSPost2010Prop56
140
1.0
102
RTVSPost2010PropOp56
 70
     1
102
RTVSPost2010Prop57
140
1.0
102
RTVSPost2010PropOp57
 70
     1
  0
XRECORD
  5
2C8
102
{ACAD_REACTORS
330
2C7
102
}
330
2C7
100
AcDbXrecord
280
     1
102
RTVSPropertyOp0
 70
     0
102
RTVSPropertyOp1
 70
     0
102
RTVSPropertyOp2
 70
     0
102
RTVSPropertyOp3
 70
     0
102
RTVSPropertyOp4
 70
     0
102
RTVSPropertyOp5
 70
     0
102
RTVSPropertyOp6
 70
     0
102
RTVSPropertyOp7
 70
     0
102
RTVSPropertyOp8
 70
     0
102
RTVSPropertyOp9
 70
     0
102
RTVSPropertyOp10
 70
     0
102
RTVSPropertyOp11
 70
     0
102
RTVSPropertyOp12
 70
     0
102
RTVSPropertyOp13
 70
     0
102
RTVSPropertyOp14
 70
     2
102
RTVSPropertyOp15
 70
     0
102
RTVSPropertyOp16
 70
     0
102
RTVSPropertyOp17
 70
     0
102
RTVSPropertyOp18
 70
     0
102
RTVSPropertyOp19
 70
     0
102
RTVSPropertyOp20
 70
     0
102
RTVSPropertyOp21
 70
     0
102
RTVSPropertyOp22
 70
     0
102
RTVSPropertyOp23
 70
     0
102
RTVSPropertyOp24
 70
     0
102
RTVSPropertyOp25
 70
     0
102
RTVSPropertyOp26
 70
     0
102
RTVSPropertyOp27
 70
     0
102
RTVSPropertyOp28
 70
     0
102
RTVSPropertyOp29
 70
     0
102
RTVSPropertyOp30
 70
     0
102
RTVSPropertyOp31
 70
     0
102
RTVSPropertyOp32
 70
     0
102
RTVSPropertyOp33
 70
     0
102
RTVSPropertyOp34
 70
     0
102
RTVSPropertyOp35
 70
     0
102
RTVSPropertyOp36
 70
     0
102
RTVSPropertyOp37
 70
     0
102
RTVSPropertyOp38
 70
     0
102
RTVSPropertyOp39
 70
     0
102
RTVSPropertyOp40
 70
     0
102
RTVSPropertyOp41
 70
     0
102
RTVSPropertyOp42
 70
     0
102
RTVSPropertyOp43
 70
     0
102
RTVSPropertyOp44
 70
     0
102
RTVSPropertyOp45
 70
     0
102
RTVSPropertyOp46
 70
     0
102
RTVSPropertyOp47
 70
     0
102
RTVSPropertyOp48
 70
     0
102
RTVSPropertyOp49
 70
     0
102
RTVSPropertyOp50
 70
     0
102
RTVSPropertyOp51
 70
     0
102
RTVSPropertyOp52
 70
     0
102
RTVSPropertyOp53
 70
     0
102
RTVSPropertyOp54
 70
     0
102
RTVSPropertyOp55
 70
     0
102
RTVSPropertyOp56
 70
     0
102
RTVSPropertyOp57
 70
     0
102
RTVSPost2010Prop28
280
     0
102
RTVSPost2010PropOp28
 70
     0
102
RTVSPost2010Prop29
280
     1
102
RTVSPost2010PropOp29
 70
     0
102
RTVSPost2010Prop30
280
     1
102
RTVSPost2010PropOp30
 70
     0
102
RTVSPost2010Prop31
280
     0
102
RTVSPost2010PropOp31
 70
     0
102
RTVSPost2010Prop32
280
     0
102
RTVSPost2010PropOp32
 70
     0
102
RTVSPost2010Prop33
280
     0
102
RTVSPost2010PropOp33
 70
     0
102
RTVSPost2010Prop34
280
     0
102
RTVSPost2010PropOp34
 70
     0
102
RTVSPost2010Prop35
280
     0
102
RTVSPost2010PropOp35
 70
     0
102
RTVSPost2010Prop36
280
     0
102
RTVSPost2010PropOp36
 70
     0
102
RTVSPost2010Prop37
 90
       50
102
RTVSPost2010PropOp37
 70
     0
102
RTVSPost2010Prop38
140
0.0
102
RTVSPost2010PropOp38
 70
     0
102
RTVSPost2010Prop39
140
1.0
102
RTVSPost2010PropOp39
 70
     0
102
RTVSPost2010Prop40
 90
        0
102
RTVSPost2010PropOp40
 70
     0
102
RTVSPost2010Prop41ColorIndex
 90
       18
102
RTVSPost2010Prop41ColorRGB
 90
        0
102
RTVSPost2010PropOp41
 70
     0
102
RTVSPost2010Prop42
 90
       50
102
RTVSPost2010PropOp42
 70
     0
102
RTVSPost2010Prop43
 90
        3
102
RTVSPost2010PropOp43
 70
     0
102
RTVSPost2010Prop44ColorIndex
 90
        5
102
RTVSPost2010Prop44ColorRGB
 90
      255
102
RTVSPost2010PropOp44
 70
     0
102
RTVSPost2010Prop45
280
     0
102
RTVSPost2010PropOp45
 70
     0
102
RTVSPost2010Prop46
 90
       50
102
RTVSPost2010PropOp46
 70
     0
102
RTVSPost2010Prop47
 90
       50
102
RTVSPost2010PropOp47
 70
     0
102
RTVSPost2010Prop48
 90
       50
102
RTVSPost2010PropOp48
 70
     0
102
RTVSPost2010Prop49
280
     0
102
RTVSPost2010PropOp49
 70
     0
102
RTVSPost2010Prop50
 90
       50
102
RTVSPost2010PropOp50
 70
     0
102
RTVSPost2010Prop51ColorIndex
 90
      256
102
RTVSPost2010Prop51ColorRGB
 90
-16777216
102
RTVSPost2010PropOp51
 70
     0
102
RTVSPost2010Prop52
140
1.0
102
RTVSPost2010PropOp52
 70
     0
102
RTVSPost2010Prop53
 90
        2
102
RTVSPost2010PropOp53
 70
     0
102
RTVSPost2010Prop54
  1
strokes_ogs.tif
102
RTVSPost2010PropOp54
 70
     0
102
RTVSPost2010Prop55
280
     0
102
RTVSPost2010PropOp55
 70
     0
102
RTVSPost2010Prop56
140
1.0
102
RTVSPost2010PropOp56
 70
     0
102
RTVSPost2010Prop57
140
1.0
102
RTVSPost2010PropOp57
 70
     0
  0
XRECORD
  5
2C0
102
{ACAD_REACTORS
330
2BF
102
}
330
2BF
100
AcDbXrecord
280
     1
102
RTVSPropertyOp0
 70
     1
102
RTVSPropertyOp1
 70
     1
102
RTVSPropertyOp2
 70
     1
102
RTVSPropertyOp3
 70
     1
102
RTVSPropertyOp4
 70
     1
102
RTVSPropertyOp5
 70
     1
102
RTVSPropertyOp6
 70
     1
102
RTVSPropertyOp7
 70
     1
102
RTVSPropertyOp8
 70
     1
102
RTVSPropertyOp9
 70
     1
102
RTVSPropertyOp10
 70
     1
102
RTVSPropertyOp11
 70
     1
102
RTVSPropertyOp12
 70
     1
102
RTVSPropertyOp13
 70
     1
102
RTVSPropertyOp14
 70
     1
102
RTVSPropertyOp15
 70
     1
102
RTVSPropertyOp16
 70
     1
102
RTVSPropertyOp17
 70
     1
102
RTVSPropertyOp18
 70
     1
102
RTVSPropertyOp19
 70
     1
102
RTVSPropertyOp20
 70
     1
102
RTVSPropertyOp21
 70
     1
102
RTVSPropertyOp22
 70
     1
102
RTVSPropertyOp23
 70
     1
102
RTVSPropertyOp24
 70
     1
102
RTVSPropertyOp25
 70
     1
102
RTVSPropertyOp26
 70
     1
102
RTVSPropertyOp27
 70
     1
102
RTVSPropertyOp28
 70
     1
102
RTVSPropertyOp29
 70
     1
102
RTVSPropertyOp30
 70
     1
102
RTVSPropertyOp31
 70
     1
102
RTVSPropertyOp32
 70
     1
102
RTVSPropertyOp33
 70
     1
102
RTVSPropertyOp34
 70
     1
102
RTVSPropertyOp35
 70
     1
102
RTVSPropertyOp36
 70
     1
102
RTVSPropertyOp37
 70
     1
102
RTVSPropertyOp38
 70
     1
102
RTVSPropertyOp39
 70
     1
102
RTVSPropertyOp40
 70
     1
102
RTVSPropertyOp41
 70
     1
102
RTVSPropertyOp42
 70
     1
102
RTVSPropertyOp43
 70
     1
102
RTVSPropertyOp44
 70
     1
102
RTVSPropertyOp45
 70
     1
102
RTVSPropertyOp46
 70
     1
102
RTVSPropertyOp47
 70
     1
102
RTVSPropertyOp48
 70
     1
102
RTVSPropertyOp49
 70
     1
102
RTVSPropertyOp50
 70
     1
102
RTVSPropertyOp51
 70
     0
102
RTVSPropertyOp52
 70
     0
102
RTVSPropertyOp53
 70
     1
102
RTVSPropertyOp54
 70
     1
102
RTVSPropertyOp55
 70
     1
102
RTVSPropertyOp56
 70
     1
102
RTVSPropertyOp57
 70
     1
102
RTVSPost2010Prop28
280
     0
102
RTVSPost2010PropOp28
 70
     1
102
RTVSPost2010Prop29
280
     1
102
RTVSPost2010PropOp29
 70
     1
102
RTVSPost2010Prop30
280
     1
102
RTVSPost2010PropOp30
 70
     1
102
RTVSPost2010Prop31
280
     0
102
RTVSPost2010PropOp31
 70
     1
102
RTVSPost2010Prop32
280
     0
102
RTVSPost2010PropOp32
 70
     1
102
RTVSPost2010Prop33
280
     0
102
RTVSPost2010PropOp33
 70
     1
102
RTVSPost2010Prop34
280
     0
102
RTVSPost2010PropOp34
 70
     1
102
RTVSPost2010Prop35
280
     0
102
RTVSPost2010PropOp35
 70
     1
102
RTVSPost2010Prop36
280
     0
102
RTVSPost2010PropOp36
 70
     1
102
RTVSPost2010Prop37
 90
       50
102
RTVSPost2010PropOp37
 70
     1
102
RTVSPost2010Prop38
140
0.0
102
RTVSPost2010PropOp38
 70
     1
102
RTVSPost2010Prop39
140
1.0
102
RTVSPost2010PropOp39
 70
     1
102
RTVSPost2010Prop40
 90
        0
102
RTVSPost2010PropOp40
 70
     1
102
RTVSPost2010Prop41ColorIndex
 90
       18
102
RTVSPost2010Prop41ColorRGB
 90
        0
102
RTVSPost2010PropOp41
 70
     1
102
RTVSPost2010Prop42
 90
       50
102
RTVSPost2010PropOp42
 70
     1
102
RTVSPost2010Prop43
 90
        3
102
RTVSPost2010PropOp43
 70
     1
102
RTVSPost2010Prop44ColorIndex
 90
        5
102
RTVSPost2010Prop44ColorRGB
 90
      255
102
RTVSPost2010PropOp44
 70
     1
102
RTVSPost2010Prop45
280
     0
102
RTVSPost2010PropOp45
 70
     1
102
RTVSPost2010Prop46
 90
       50
102
RTVSPost2010PropOp46
 70
     1
102
RTVSPost2010Prop47
 90
       50
102
RTVSPost2010PropOp47
 70
     1
102
RTVSPost2010Prop48
 90
       50
102
RTVSPost2010PropOp48
 70
     1
102
RTVSPost2010Prop49
280
     0
102
RTVSPost2010PropOp49
 70
     1
102
RTVSPost2010Prop50
 90
       50
102
RTVSPost2010PropOp50
 70
     1
102
RTVSPost2010Prop51ColorIndex
 90
      256
102
RTVSPost2010Prop51ColorRGB
 90
-16777216
102
RTVSPost2010PropOp51
 70
     0
102
RTVSPost2010Prop52
140
1.0
102
RTVSPost2010PropOp52
 70
     0
102
RTVSPost2010Prop53
 90
        2
102
RTVSPost2010PropOp53
 70
     1
102
RTVSPost2010Prop54
  1
strokes_ogs.tif
102
RTVSPost2010PropOp54
 70
     1
102
RTVSPost2010Prop55
280
     0
102
RTVSPost2010PropOp55
 70
     1
102
RTVSPost2010Prop56
140
1.0
102
RTVSPost2010PropOp56
 70
     1
102
RTVSPost2010Prop57
140
1.0
102
RTVSPost2010PropOp57
 70
     1
  0
XRECORD
  5
2A4
102
{ACAD_REACTORS
330
2A3
102
}
330
2A3
100
AcDbXrecord
280
     1
102
RTVSPropertyOp0
 70
     1
102
RTVSPropertyOp1
 70
     1
102
RTVSPropertyOp2
 70
     1
102
RTVSPropertyOp3
 70
     1
102
RTVSPropertyOp4
 70
     1
102
RTVSPropertyOp5
 70
     1
102
RTVSPropertyOp6
 70
     1
102
RTVSPropertyOp7
 70
     1
102
RTVSPropertyOp8
 70
     1
102
RTVSPropertyOp9
 70
     1
102
RTVSPropertyOp10
 70
     1
102
RTVSPropertyOp11
 70
     1
102
RTVSPropertyOp12
 70
     1
102
RTVSPropertyOp13
 70
     1
102
RTVSPropertyOp14
 70
     1
102
RTVSPropertyOp15
 70
     1
102
RTVSPropertyOp16
 70
     1
102
RTVSPropertyOp17
 70
     1
102
RTVSPropertyOp18
 70
     1
102
RTVSPropertyOp19
 70
     1
102
RTVSPropertyOp20
 70
     1
102
RTVSPropertyOp21
 70
     1
102
RTVSPropertyOp22
 70
     1
102
RTVSPropertyOp23
 70
     1
102
RTVSPropertyOp24
 70
     1
102
RTVSPropertyOp25
 70
     1
102
RTVSPropertyOp26
 70
     1
102
RTVSPropertyOp27
 70
     1
102
RTVSPropertyOp28
 70
     1
102
RTVSPropertyOp29
 70
     1
102
RTVSPropertyOp30
 70
     1
102
RTVSPropertyOp31
 70
     1
102
RTVSPropertyOp32
 70
     1
102
RTVSPropertyOp33
 70
     1
102
RTVSPropertyOp34
 70
     1
102
RTVSPropertyOp35
 70
     1
102
RTVSPropertyOp36
 70
     1
102
RTVSPropertyOp37
 70
     1
102
RTVSPropertyOp38
 70
     1
102
RTVSPropertyOp39
 70
     1
102
RTVSPropertyOp40
 70
     1
102
RTVSPropertyOp41
 70
     1
102
RTVSPropertyOp42
 70
     1
102
RTVSPropertyOp43
 70
     1
102
RTVSPropertyOp44
 70
     1
102
RTVSPropertyOp45
 70
     1
102
RTVSPropertyOp46
 70
     1
102
RTVSPropertyOp47
 70
     1
102
RTVSPropertyOp48
 70
     1
102
RTVSPropertyOp49
 70
     1
102
RTVSPropertyOp50
 70
     1
102
RTVSPropertyOp51
 70
     0
102
RTVSPropertyOp52
 70
     0
102
RTVSPropertyOp53
 70
     1
102
RTVSPropertyOp54
 70
     1
102
RTVSPropertyOp55
 70
     1
102
RTVSPropertyOp56
 70
     1
102
RTVSPropertyOp57
 70
     1
102
RTVSPost2010Prop28
280
     0
102
RTVSPost2010PropOp28
 70
     1
102
RTVSPost2010Prop29
280
     1
102
RTVSPost2010PropOp29
 70
     1
102
RTVSPost2010Prop30
280
     1
102
RTVSPost2010PropOp30
 70
     1
102
RTVSPost2010Prop31
280
     0
102
RTVSPost2010PropOp31
 70
     1
102
RTVSPost2010Prop32
280
     0
102
RTVSPost2010PropOp32
 70
     1
102
RTVSPost2010Prop33
280
     0
102
RTVSPost2010PropOp33
 70
     1
102
RTVSPost2010Prop34
280
     0
102
RTVSPost2010PropOp34
 70
     1
102
RTVSPost2010Prop35
280
     0
102
RTVSPost2010PropOp35
 70
     1
102
RTVSPost2010Prop36
280
     0
102
RTVSPost2010PropOp36
 70
     1
102
RTVSPost2010Prop37
 90
       50
102
RTVSPost2010PropOp37
 70
     1
102
RTVSPost2010Prop38
140
0.0
102
RTVSPost2010PropOp38
 70
     1
102
RTVSPost2010Prop39
140
1.0
102
RTVSPost2010PropOp39
 70
     1
102
RTVSPost2010Prop40
 90
        0
102
RTVSPost2010PropOp40
 70
     1
102
RTVSPost2010Prop41ColorIndex
 90
       18
102
RTVSPost2010Prop41ColorRGB
 90
        0
102
RTVSPost2010PropOp41
 70
     1
102
RTVSPost2010Prop42
 90
       50
102
RTVSPost2010PropOp42
 70
     1
102
RTVSPost2010Prop43
 90
        3
102
RTVSPost2010PropOp43
 70
     1
102
RTVSPost2010Prop44ColorIndex
 90
        5
102
RTVSPost2010Prop44ColorRGB
 90
      255
102
RTVSPost2010PropOp44
 70
     1
102
RTVSPost2010Prop45
280
     0
102
RTVSPost2010PropOp45
 70
     1
102
RTVSPost2010Prop46
 90
       50
102
RTVSPost2010PropOp46
 70
     1
102
RTVSPost2010Prop47
 90
       50
102
RTVSPost2010PropOp47
 70
     1
102
RTVSPost2010Prop48
 90
       50
102
RTVSPost2010PropOp48
 70
     1
102
RTVSPost2010Prop49
280
     0
102
RTVSPost2010PropOp49
 70
     1
102
RTVSPost2010Prop50
 90
       50
102
RTVSPost2010PropOp50
 70
     1
102
RTVSPost2010Prop51ColorIndex
 90
      256
102
RTVSPost2010Prop51ColorRGB
 90
-16777216
102
RTVSPost2010PropOp51
 70
     0
102
RTVSPost2010Prop52
140
1.0
102
RTVSPost2010PropOp52
 70
     0
102
RTVSPost2010Prop53
 90
        2
102
RTVSPost2010PropOp53
 70
     1
102
RTVSPost2010Prop54
  1
strokes_ogs.tif
102
RTVSPost2010PropOp54
 70
     1
102
RTVSPost2010Prop55
280
     0
102
RTVSPost2010PropOp55
 70
     1
102
RTVSPost2010Prop56
140
1.0
102
RTVSPost2010PropOp56
 70
     1
102
RTVSPost2010Prop57
140
1.0
102
RTVSPost2010PropOp57
 70
     1
  0
XRECORD
  5
2A6
102
{ACAD_REACTORS
330
2A5
102
}
330
2A5
100
AcDbXrecord
280
     1
102
RTVSPropertyOp0
 70
     1
102
RTVSPropertyOp1
 70
     1
102
RTVSPropertyOp2
 70
     1
102
RTVSPropertyOp3
 70
     1
102
RTVSPropertyOp4
 70
     1
102
RTVSPropertyOp5
 70
     1
102
RTVSPropertyOp6
 70
     1
102
RTVSPropertyOp7
 70
     1
102
RTVSPropertyOp8
 70
     1
102
RTVSPropertyOp9
 70
     1
102
RTVSPropertyOp10
 70
     1
102
RTVSPropertyOp11
 70
     1
102
RTVSPropertyOp12
 70
     1
102
RTVSPropertyOp13
 70
     1
102
RTVSPropertyOp14
 70
     1
102
RTVSPropertyOp15
 70
     1
102
RTVSPropertyOp16
 70
     1
102
RTVSPropertyOp17
 70
     1
102
RTVSPropertyOp18
 70
     1
102
RTVSPropertyOp19
 70
     1
102
RTVSPropertyOp20
 70
     1
102
RTVSPropertyOp21
 70
     1
102
RTVSPropertyOp22
 70
     1
102
RTVSPropertyOp23
 70
     1
102
RTVSPropertyOp24
 70
     1
102
RTVSPropertyOp25
 70
     1
102
RTVSPropertyOp26
 70
     1
102
RTVSPropertyOp27
 70
     1
102
RTVSPropertyOp28
 70
     1
102
RTVSPropertyOp29
 70
     1
102
RTVSPropertyOp30
 70
     1
102
RTVSPropertyOp31
 70
     1
102
RTVSPropertyOp32
 70
     1
102
RTVSPropertyOp33
 70
     1
102
RTVSPropertyOp34
 70
     1
102
RTVSPropertyOp35
 70
     1
102
RTVSPropertyOp36
 70
     1
102
RTVSPropertyOp37
 70
     1
102
RTVSPropertyOp38
 70
     1
102
RTVSPropertyOp39
 70
     1
102
RTVSPropertyOp40
 70
     1
102
RTVSPropertyOp41
 70
     1
102
RTVSPropertyOp42
 70
     1
102
RTVSPropertyOp43
 70
     1
102
RTVSPropertyOp44
 70
     1
102
RTVSPropertyOp45
 70
     1
102
RTVSPropertyOp46
 70
     1
102
RTVSPropertyOp47
 70
     1
102
RTVSPropertyOp48
 70
     1
102
RTVSPropertyOp49
 70
     1
102
RTVSPropertyOp50
 70
     1
102
RTVSPropertyOp51
 70
     0
102
RTVSPropertyOp52
 70
     0
102
RTVSPropertyOp53
 70
     1
102
RTVSPropertyOp54
 70
     1
102
RTVSPropertyOp55
 70
     1
102
RTVSPropertyOp56
 70
     1
102
RTVSPropertyOp57
 70
     1
102
RTVSPost2010Prop28
280
     0
102
RTVSPost2010PropOp28
 70
     1
102
RTVSPost2010Prop29
280
     1
102
RTVSPost2010PropOp29
 70
     1
102
RTVSPost2010Prop30
280
     1
102
RTVSPost2010PropOp30
 70
     1
102
RTVSPost2010Prop31
280
     0
102
RTVSPost2010PropOp31
 70
     1
102
RTVSPost2010Prop32
280
     0
102
RTVSPost2010PropOp32
 70
     1
102
RTVSPost2010Prop33
280
     0
102
RTVSPost2010PropOp33
 70
     1
102
RTVSPost2010Prop34
280
     0
102
RTVSPost2010PropOp34
 70
     1
102
RTVSPost2010Prop35
280
     0
102
RTVSPost2010PropOp35
 70
     1
102
RTVSPost2010Prop36
280
     0
102
RTVSPost2010PropOp36
 70
     1
102
RTVSPost2010Prop37
 90
       50
102
RTVSPost2010PropOp37
 70
     1
102
RTVSPost2010Prop38
140
0.0
102
RTVSPost2010PropOp38
 70
     1
102
RTVSPost2010Prop39
140
1.0
102
RTVSPost2010PropOp39
 70
     1
102
RTVSPost2010Prop40
 90
        0
102
RTVSPost2010PropOp40
 70
     1
102
RTVSPost2010Prop41ColorIndex
 90
       18
102
RTVSPost2010Prop41ColorRGB
 90
        0
102
RTVSPost2010PropOp41
 70
     1
102
RTVSPost2010Prop42
 90
       50
102
RTVSPost2010PropOp42
 70
     1
102
RTVSPost2010Prop43
 90
        3
102
RTVSPost2010PropOp43
 70
     1
102
RTVSPost2010Prop44ColorIndex
 90
        5
102
RTVSPost2010Prop44ColorRGB
 90
      255
102
RTVSPost2010PropOp44
 70
     1
102
RTVSPost2010Prop45
280
     0
102
RTVSPost2010PropOp45
 70
     1
102
RTVSPost2010Prop46
 90
       50
102
RTVSPost2010PropOp46
 70
     1
102
RTVSPost2010Prop47
 90
       50
102
RTVSPost2010PropOp47
 70
     1
102
RTVSPost2010Prop48
 90
       50
102
RTVSPost2010PropOp48
 70
     1
102
RTVSPost2010Prop49
280
     0
102
RTVSPost2010PropOp49
 70
     1
102
RTVSPost2010Prop50
 90
       50
102
RTVSPost2010PropOp50
 70
     1
102
RTVSPost2010Prop51ColorIndex
 90
      256
102
RTVSPost2010Prop51ColorRGB
 90
-16777216
102
RTVSPost2010PropOp51
 70
     0
102
RTVSPost2010Prop52
140
1.0
102
RTVSPost2010PropOp52
 70
     0
102
RTVSPost2010Prop53
 90
        2
102
RTVSPost2010PropOp53
 70
     1
102
RTVSPost2010Prop54
  1
strokes_ogs.tif
102
RTVSPost2010PropOp54
 70
     1
102
RTVSPost2010Prop55
280
     0
102
RTVSPost2010PropOp55
 70
     1
102
RTVSPost2010Prop56
140
1.0
102
RTVSPost2010PropOp56
 70
     1
102
RTVSPost2010Prop57
140
1.0
102
RTVSPost2010PropOp57
 70
     1
  0
XRECORD
  5
2A8
102
{ACAD_REACTORS
330
2A7
102
}
330
2A7
100
AcDbXrecord
280
     1
102
RTVSPropertyOp0
 70
     1
102
RTVSPropertyOp1
 70
     1
102
RTVSPropertyOp2
 70
     1
102
RTVSPropertyOp3
 70
     1
102
RTVSPropertyOp4
 70
     1
102
RTVSPropertyOp5
 70
     1
102
RTVSPropertyOp6
 70
     1
102
RTVSPropertyOp7
 70
     1
102
RTVSPropertyOp8
 70
     1
102
RTVSPropertyOp9
 70
     1
102
RTVSPropertyOp10
 70
     1
102
RTVSPropertyOp11
 70
     1
102
RTVSPropertyOp12
 70
     1
102
RTVSPropertyOp13
 70
     1
102
RTVSPropertyOp14
 70
     1
102
RTVSPropertyOp15
 70
     1
102
RTVSPropertyOp16
 70
     1
102
RTVSPropertyOp17
 70
     1
102
RTVSPropertyOp18
 70
     1
102
RTVSPropertyOp19
 70
     1
102
RTVSPropertyOp20
 70
     1
102
RTVSPropertyOp21
 70
     1
102
RTVSPropertyOp22
 70
     1
102
RTVSPropertyOp23
 70
     1
102
RTVSPropertyOp24
 70
     1
102
RTVSPropertyOp25
 70
     1
102
RTVSPropertyOp26
 70
     1
102
RTVSPropertyOp27
 70
     1
102
RTVSPropertyOp28
 70
     1
102
RTVSPropertyOp29
 70
     1
102
RTVSPropertyOp30
 70
     1
102
RTVSPropertyOp31
 70
     1
102
RTVSPropertyOp32
 70
     1
102
RTVSPropertyOp33
 70
     1
102
RTVSPropertyOp34
 70
     1
102
RTVSPropertyOp35
 70
     1
102
RTVSPropertyOp36
 70
     1
102
RTVSPropertyOp37
 70
     1
102
RTVSPropertyOp38
 70
     1
102
RTVSPropertyOp39
 70
     1
102
RTVSPropertyOp40
 70
     1
102
RTVSPropertyOp41
 70
     1
102
RTVSPropertyOp42
 70
     1
102
RTVSPropertyOp43
 70
     1
102
RTVSPropertyOp44
 70
     1
102
RTVSPropertyOp45
 70
     1
102
RTVSPropertyOp46
 70
     1
102
RTVSPropertyOp47
 70
     1
102
RTVSPropertyOp48
 70
     1
102
RTVSPropertyOp49
 70
     1
102
RTVSPropertyOp50
 70
     1
102
RTVSPropertyOp51
 70
     0
102
RTVSPropertyOp52
 70
     0
102
RTVSPropertyOp53
 70
     1
102
RTVSPropertyOp54
 70
     1
102
RTVSPropertyOp55
 70
     1
102
RTVSPropertyOp56
 70
     1
102
RTVSPropertyOp57
 70
     1
102
RTVSPost2010Prop28
280
     0
102
RTVSPost2010PropOp28
 70
     1
102
RTVSPost2010Prop29
280
     1
102
RTVSPost2010PropOp29
 70
     1
102
RTVSPost2010Prop30
280
     1
102
RTVSPost2010PropOp30
 70
     1
102
RTVSPost2010Prop31
280
     0
102
RTVSPost2010PropOp31
 70
     1
102
RTVSPost2010Prop32
280
     0
102
RTVSPost2010PropOp32
 70
     1
102
RTVSPost2010Prop33
280
     0
102
RTVSPost2010PropOp33
 70
     1
102
RTVSPost2010Prop34
280
     0
102
RTVSPost2010PropOp34
 70
     1
102
RTVSPost2010Prop35
280
     0
102
RTVSPost2010PropOp35
 70
     1
102
RTVSPost2010Prop36
280
     0
102
RTVSPost2010PropOp36
 70
     1
102
RTVSPost2010Prop37
 90
       50
102
RTVSPost2010PropOp37
 70
     1
102
RTVSPost2010Prop38
140
0.0
102
RTVSPost2010PropOp38
 70
     1
102
RTVSPost2010Prop39
140
1.0
102
RTVSPost2010PropOp39
 70
     1
102
RTVSPost2010Prop40
 90
        0
102
RTVSPost2010PropOp40
 70
     1
102
RTVSPost2010Prop41ColorIndex
 90
       18
102
RTVSPost2010Prop41ColorRGB
 90
        0
102
RTVSPost2010PropOp41
 70
     1
102
RTVSPost2010Prop42
 90
       50
102
RTVSPost2010PropOp42
 70
     1
102
RTVSPost2010Prop43
 90
        3
102
RTVSPost2010PropOp43
 70
     1
102
RTVSPost2010Prop44ColorIndex
 90
        5
102
RTVSPost2010Prop44ColorRGB
 90
      255
102
RTVSPost2010PropOp44
 70
     1
102
RTVSPost2010Prop45
280
     0
102
RTVSPost2010PropOp45
 70
     1
102
RTVSPost2010Prop46
 90
       50
102
RTVSPost2010PropOp46
 70
     1
102
RTVSPost2010Prop47
 90
       50
102
RTVSPost2010PropOp47
 70
     1
102
RTVSPost2010Prop48
 90
       50
102
RTVSPost2010PropOp48
 70
     1
102
RTVSPost2010Prop49
280
     0
102
RTVSPost2010PropOp49
 70
     1
102
RTVSPost2010Prop50
 90
       50
102
RTVSPost2010PropOp50
 70
     1
102
RTVSPost2010Prop51ColorIndex
 90
      256
102
RTVSPost2010Prop51ColorRGB
 90
-16777216
102
RTVSPost2010PropOp51
 70
     0
102
RTVSPost2010Prop52
140
1.0
102
RTVSPost2010PropOp52
 70
     0
102
RTVSPost2010Prop53
 90
        2
102
RTVSPost2010PropOp53
 70
     1
102
RTVSPost2010Prop54
  1
strokes_ogs.tif
102
RTVSPost2010PropOp54
 70
     1
102
RTVSPost2010Prop55
280
     0
102
RTVSPost2010PropOp55
 70
     1
102
RTVSPost2010Prop56
140
1.0
102
RTVSPost2010PropOp56
 70
     1
102
RTVSPost2010Prop57
140
1.0
102
RTVSPost2010PropOp57
 70
     1
  0
XRECORD
  5
2AA
102
{ACAD_REACTORS
330
2A9
102
}
330
2A9
100
AcDbXrecord
280
     1
102
RTVSPropertyOp0
 70
     1
102
RTVSPropertyOp1
 70
     1
102
RTVSPropertyOp2
 70
     1
102
RTVSPropertyOp3
 70
     1
102
RTVSPropertyOp4
 70
     1
102
RTVSPropertyOp5
 70
     1
102
RTVSPropertyOp6
 70
     1
102
RTVSPropertyOp7
 70
     1
102
RTVSPropertyOp8
 70
     1
102
RTVSPropertyOp9
 70
     1
102
RTVSPropertyOp10
 70
     1
102
RTVSPropertyOp11
 70
     1
102
RTVSPropertyOp12
 70
     1
102
RTVSPropertyOp13
 70
     1
102
RTVSPropertyOp14
 70
     1
102
RTVSPropertyOp15
 70
     1
102
RTVSPropertyOp16
 70
     1
102
RTVSPropertyOp17
 70
     1
102
RTVSPropertyOp18
 70
     1
102
RTVSPropertyOp19
 70
     1
102
RTVSPropertyOp20
 70
     1
102
RTVSPropertyOp21
 70
     1
102
RTVSPropertyOp22
 70
     1
102
RTVSPropertyOp23
 70
     1
102
RTVSPropertyOp24
 70
     1
102
RTVSPropertyOp25
 70
     1
102
RTVSPropertyOp26
 70
     1
102
RTVSPropertyOp27
 70
     1
102
RTVSPropertyOp28
 70
     1
102
RTVSPropertyOp29
 70
     1
102
RTVSPropertyOp30
 70
     1
102
RTVSPropertyOp31
 70
     1
102
RTVSPropertyOp32
 70
     1
102
RTVSPropertyOp33
 70
     1
102
RTVSPropertyOp34
 70
     1
102
RTVSPropertyOp35
 70
     1
102
RTVSPropertyOp36
 70
     1
102
RTVSPropertyOp37
 70
     1
102
RTVSPropertyOp38
 70
     1
102
RTVSPropertyOp39
 70
     1
102
RTVSPropertyOp40
 70
     1
102
RTVSPropertyOp41
 70
     1
102
RTVSPropertyOp42
 70
     1
102
RTVSPropertyOp43
 70
     1
102
RTVSPropertyOp44
 70
     1
102
RTVSPropertyOp45
 70
     1
102
RTVSPropertyOp46
 70
     1
102
RTVSPropertyOp47
 70
     1
102
RTVSPropertyOp48
 70
     1
102
RTVSPropertyOp49
 70
     1
102
RTVSPropertyOp50
 70
     1
102
RTVSPropertyOp51
 70
     0
102
RTVSPropertyOp52
 70
     0
102
RTVSPropertyOp53
 70
     1
102
RTVSPropertyOp54
 70
     1
102
RTVSPropertyOp55
 70
     1
102
RTVSPropertyOp56
 70
     1
102
RTVSPropertyOp57
 70
     1
102
RTVSPost2010Prop28
280
     0
102
RTVSPost2010PropOp28
 70
     1
102
RTVSPost2010Prop29
280
     1
102
RTVSPost2010PropOp29
 70
     1
102
RTVSPost2010Prop30
280
     1
102
RTVSPost2010PropOp30
 70
     1
102
RTVSPost2010Prop31
280
     0
102
RTVSPost2010PropOp31
 70
     1
102
RTVSPost2010Prop32
280
     0
102
RTVSPost2010PropOp32
 70
     1
102
RTVSPost2010Prop33
280
     0
102
RTVSPost2010PropOp33
 70
     1
102
RTVSPost2010Prop34
280
     0
102
RTVSPost2010PropOp34
 70
     1
102
RTVSPost2010Prop35
280
     0
102
RTVSPost2010PropOp35
 70
     1
102
RTVSPost2010Prop36
280
     0
102
RTVSPost2010PropOp36
 70
     1
102
RTVSPost2010Prop37
 90
       50
102
RTVSPost2010PropOp37
 70
     1
102
RTVSPost2010Prop38
140
0.0
102
RTVSPost2010PropOp38
 70
     1
102
RTVSPost2010Prop39
140
1.0
102
RTVSPost2010PropOp39
 70
     1
102
RTVSPost2010Prop40
 90
        0
102
RTVSPost2010PropOp40
 70
     1
102
RTVSPost2010Prop41ColorIndex
 90
       18
102
RTVSPost2010Prop41ColorRGB
 90
        0
102
RTVSPost2010PropOp41
 70
     1
102
RTVSPost2010Prop42
 90
       50
102
RTVSPost2010PropOp42
 70
     1
102
RTVSPost2010Prop43
 90
        3
102
RTVSPost2010PropOp43
 70
     1
102
RTVSPost2010Prop44ColorIndex
 90
        5
102
RTVSPost2010Prop44ColorRGB
 90
      255
102
RTVSPost2010PropOp44
 70
     1
102
RTVSPost2010Prop45
280
     0
102
RTVSPost2010PropOp45
 70
     1
102
RTVSPost2010Prop46
 90
       50
102
RTVSPost2010PropOp46
 70
     1
102
RTVSPost2010Prop47
 90
       50
102
RTVSPost2010PropOp47
 70
     1
102
RTVSPost2010Prop48
 90
       50
102
RTVSPost2010PropOp48
 70
     1
102
RTVSPost2010Prop49
280
     0
102
RTVSPost2010PropOp49
 70
     1
102
RTVSPost2010Prop50
 90
       50
102
RTVSPost2010PropOp50
 70
     1
102
RTVSPost2010Prop51ColorIndex
 90
      256
102
RTVSPost2010Prop51ColorRGB
 90
-16777216
102
RTVSPost2010PropOp51
 70
     0
102
RTVSPost2010Prop52
140
1.0
102
RTVSPost2010PropOp52
 70
     0
102
RTVSPost2010Prop53
 90
        2
102
RTVSPost2010PropOp53
 70
     1
102
RTVSPost2010Prop54
  1
strokes_ogs.tif
102
RTVSPost2010PropOp54
 70
     1
102
RTVSPost2010Prop55
280
     0
102
RTVSPost2010PropOp55
 70
     1
102
RTVSPost2010Prop56
140
1.0
102
RTVSPost2010PropOp56
 70
     1
102
RTVSPost2010Prop57
140
1.0
102
RTVSPost2010PropOp57
 70
     1
  0
XRECORD
  5
2B0
102
{ACAD_REACTORS
330
2AF
102
}
330
2AF
100
AcDbXrecord
280
     1
102
RTVSPropertyOp0
 70
     1
102
RTVSPropertyOp1
 70
     1
102
RTVSPropertyOp2
 70
     1
102
RTVSPropertyOp3
 70
     1
102
RTVSPropertyOp4
 70
     1
102
RTVSPropertyOp5
 70
     1
102
RTVSPropertyOp6
 70
     1
102
RTVSPropertyOp7
 70
     1
102
RTVSPropertyOp8
 70
     1
102
RTVSPropertyOp9
 70
     1
102
RTVSPropertyOp10
 70
     1
102
RTVSPropertyOp11
 70
     1
102
RTVSPropertyOp12
 70
     1
102
RTVSPropertyOp13
 70
     1
102
RTVSPropertyOp14
 70
     1
102
RTVSPropertyOp15
 70
     1
102
RTVSPropertyOp16
 70
     1
102
RTVSPropertyOp17
 70
     1
102
RTVSPropertyOp18
 70
     1
102
RTVSPropertyOp19
 70
     1
102
RTVSPropertyOp20
 70
     1
102
RTVSPropertyOp21
 70
     1
102
RTVSPropertyOp22
 70
     1
102
RTVSPropertyOp23
 70
     1
102
RTVSPropertyOp24
 70
     1
102
RTVSPropertyOp25
 70
     1
102
RTVSPropertyOp26
 70
     1
102
RTVSPropertyOp27
 70
     1
102
RTVSPropertyOp28
 70
     1
102
RTVSPropertyOp29
 70
     1
102
RTVSPropertyOp30
 70
     1
102
RTVSPropertyOp31
 70
     1
102
RTVSPropertyOp32
 70
     1
102
RTVSPropertyOp33
 70
     1
102
RTVSPropertyOp34
 70
     1
102
RTVSPropertyOp35
 70
     1
102
RTVSPropertyOp36
 70
     1
102
RTVSPropertyOp37
 70
     1
102
RTVSPropertyOp38
 70
     1
102
RTVSPropertyOp39
 70
     1
102
RTVSPropertyOp40
 70
     1
102
RTVSPropertyOp41
 70
     1
102
RTVSPropertyOp42
 70
     1
102
RTVSPropertyOp43
 70
     1
102
RTVSPropertyOp44
 70
     1
102
RTVSPropertyOp45
 70
     1
102
RTVSPropertyOp46
 70
     1
102
RTVSPropertyOp47
 70
     1
102
RTVSPropertyOp48
 70
     1
102
RTVSPropertyOp49
 70
     1
102
RTVSPropertyOp50
 70
     1
102
RTVSPropertyOp51
 70
     0
102
RTVSPropertyOp52
 70
     0
102
RTVSPropertyOp53
 70
     1
102
RTVSPropertyOp54
 70
     1
102
RTVSPropertyOp55
 70
     1
102
RTVSPropertyOp56
 70
     1
102
RTVSPropertyOp57
 70
     1
102
RTVSPost2010Prop28
280
     0
102
RTVSPost2010PropOp28
 70
     1
102
RTVSPost2010Prop29
280
     1
102
RTVSPost2010PropOp29
 70
     1
102
RTVSPost2010Prop30
280
     1
102
RTVSPost2010PropOp30
 70
     1
102
RTVSPost2010Prop31
280
     0
102
RTVSPost2010PropOp31
 70
     1
102
RTVSPost2010Prop32
280
     0
102
RTVSPost2010PropOp32
 70
     1
102
RTVSPost2010Prop33
280
     0
102
RTVSPost2010PropOp33
 70
     1
102
RTVSPost2010Prop34
280
     0
102
RTVSPost2010PropOp34
 70
     1
102
RTVSPost2010Prop35
280
     0
102
RTVSPost2010PropOp35
 70
     1
102
RTVSPost2010Prop36
280
     0
102
RTVSPost2010PropOp36
 70
     1
102
RTVSPost2010Prop37
 90
       50
102
RTVSPost2010PropOp37
 70
     1
102
RTVSPost2010Prop38
140
0.0
102
RTVSPost2010PropOp38
 70
     1
102
RTVSPost2010Prop39
140
1.0
102
RTVSPost2010PropOp39
 70
     1
102
RTVSPost2010Prop40
 90
        0
102
RTVSPost2010PropOp40
 70
     1
102
RTVSPost2010Prop41ColorIndex
 90
       18
102
RTVSPost2010Prop41ColorRGB
 90
        0
102
RTVSPost2010PropOp41
 70
     1
102
RTVSPost2010Prop42
 90
       50
102
RTVSPost2010PropOp42
 70
     1
102
RTVSPost2010Prop43
 90
        3
102
RTVSPost2010PropOp43
 70
     1
102
RTVSPost2010Prop44ColorIndex
 90
        5
102
RTVSPost2010Prop44ColorRGB
 90
      255
102
RTVSPost2010PropOp44
 70
     1
102
RTVSPost2010Prop45
280
     0
102
RTVSPost2010PropOp45
 70
     1
102
RTVSPost2010Prop46
 90
       50
102
RTVSPost2010PropOp46
 70
     1
102
RTVSPost2010Prop47
 90
       50
102
RTVSPost2010PropOp47
 70
     1
102
RTVSPost2010Prop48
 90
       50
102
RTVSPost2010PropOp48
 70
     1
102
RTVSPost2010Prop49
280
     0
102
RTVSPost2010PropOp49
 70
     1
102
RTVSPost2010Prop50
 90
       50
102
RTVSPost2010PropOp50
 70
     1
102
RTVSPost2010Prop51ColorIndex
 90
      256
102
RTVSPost2010Prop51ColorRGB
 90
-16777216
102
RTVSPost2010PropOp51
 70
     0
102
RTVSPost2010Prop52
140
1.0
102
RTVSPost2010PropOp52
 70
     0
102
RTVSPost2010Prop53
 90
        2
102
RTVSPost2010PropOp53
 70
     1
102
RTVSPost2010Prop54
  1
strokes_ogs.tif
102
RTVSPost2010PropOp54
 70
     1
102
RTVSPost2010Prop55
280
     0
102
RTVSPost2010PropOp55
 70
     1
102
RTVSPost2010Prop56
140
1.0
102
RTVSPost2010PropOp56
 70
     1
102
RTVSPost2010Prop57
140
1.0
102
RTVSPost2010PropOp57
 70
     1
  0
XRECORD
  5
2C4
102
{ACAD_REACTORS
330
2C3
102
}
330
2C3
100
AcDbXrecord
280
     1
102
RTVSPropertyOp0
 70
     0
102
RTVSPropertyOp1
 70
     0
102
RTVSPropertyOp2
 70
     0
102
RTVSPropertyOp3
 70
     0
102
RTVSPropertyOp4
 70
     0
102
RTVSPropertyOp5
 70
     0
102
RTVSPropertyOp6
 70
     0
102
RTVSPropertyOp7
 70
     0
102
RTVSPropertyOp8
 70
     0
102
RTVSPropertyOp9
 70
     0
102
RTVSPropertyOp10
 70
     0
102
RTVSPropertyOp11
 70
     0
102
RTVSPropertyOp12
 70
     0
102
RTVSPropertyOp13
 70
     0
102
RTVSPropertyOp14
 70
     2
102
RTVSPropertyOp15
 70
     0
102
RTVSPropertyOp16
 70
     0
102
RTVSPropertyOp17
 70
     0
102
RTVSPropertyOp18
 70
     0
102
RTVSPropertyOp19
 70
     0
102
RTVSPropertyOp20
 70
     0
102
RTVSPropertyOp21
 70
     0
102
RTVSPropertyOp22
 70
     0
102
RTVSPropertyOp23
 70
     0
102
RTVSPropertyOp24
 70
     0
102
RTVSPropertyOp25
 70
     0
102
RTVSPropertyOp26
 70
     0
102
RTVSPropertyOp27
 70
     0
102
RTVSPropertyOp28
 70
     0
102
RTVSPropertyOp29
 70
     0
102
RTVSPropertyOp30
 70
     0
102
RTVSPropertyOp31
 70
     0
102
RTVSPropertyOp32
 70
     0
102
RTVSPropertyOp33
 70
     0
102
RTVSPropertyOp34
 70
     0
102
RTVSPropertyOp35
 70
     0
102
RTVSPropertyOp36
 70
     0
102
RTVSPropertyOp37
 70
     0
102
RTVSPropertyOp38
 70
     0
102
RTVSPropertyOp39
 70
     0
102
RTVSPropertyOp40
 70
     0
102
RTVSPropertyOp41
 70
     0
102
RTVSPropertyOp42
 70
     0
102
RTVSPropertyOp43
 70
     0
102
RTVSPropertyOp44
 70
     0
102
RTVSPropertyOp45
 70
     0
102
RTVSPropertyOp46
 70
     0
102
RTVSPropertyOp47
 70
     0
102
RTVSPropertyOp48
 70
     0
102
RTVSPropertyOp49
 70
     0
102
RTVSPropertyOp50
 70
     0
102
RTVSPropertyOp51
 70
     0
102
RTVSPropertyOp52
 70
     0
102
RTVSPropertyOp53
 70
     0
102
RTVSPropertyOp54
 70
     0
102
RTVSPropertyOp55
 70
     0
102
RTVSPropertyOp56
 70
     0
102
RTVSPropertyOp57
 70
     0
102
RTVSPost2010Prop28
280
     0
102
RTVSPost2010PropOp28
 70
     0
102
RTVSPost2010Prop29
280
     1
102
RTVSPost2010PropOp29
 70
     0
102
RTVSPost2010Prop30
280
     1
102
RTVSPost2010PropOp30
 70
     0
102
RTVSPost2010Prop31
280
     0
102
RTVSPost2010PropOp31
 70
     0
102
RTVSPost2010Prop32
280
     0
102
RTVSPost2010PropOp32
 70
     0
102
RTVSPost2010Prop33
280
     0
102
RTVSPost2010PropOp33
 70
     0
102
RTVSPost2010Prop34
280
     0
102
RTVSPost2010PropOp34
 70
     0
102
RTVSPost2010Prop35
280
     0
102
RTVSPost2010PropOp35
 70
     0
102
RTVSPost2010Prop36
280
     0
102
RTVSPost2010PropOp36
 70
     0
102
RTVSPost2010Prop37
 90
       50
102
RTVSPost2010PropOp37
 70
     0
102
RTVSPost2010Prop38
140
0.0
102
RTVSPost2010PropOp38
 70
     0
102
RTVSPost2010Prop39
140
1.0
102
RTVSPost2010PropOp39
 70
     0
102
RTVSPost2010Prop40
 90
        0
102
RTVSPost2010PropOp40
 70
     0
102
RTVSPost2010Prop41ColorIndex
 90
       18
102
RTVSPost2010Prop41ColorRGB
 90
        0
102
RTVSPost2010PropOp41
 70
     0
102
RTVSPost2010Prop42
 90
       50
102
RTVSPost2010PropOp42
 70
     0
102
RTVSPost2010Prop43
 90
        3
102
RTVSPost2010PropOp43
 70
     0
102
RTVSPost2010Prop44ColorIndex
 90
        5
102
RTVSPost2010Prop44ColorRGB
 90
      255
102
RTVSPost2010PropOp44
 70
     0
102
RTVSPost2010Prop45
280
     0
102
RTVSPost2010PropOp45
 70
     0
102
RTVSPost2010Prop46
 90
       50
102
RTVSPost2010PropOp46
 70
     0
102
RTVSPost2010Prop47
 90
       50
102
RTVSPost2010PropOp47
 70
     0
102
RTVSPost2010Prop48
 90
       50
102
RTVSPost2010PropOp48
 70
     0
102
RTVSPost2010Prop49
280
     0
102
RTVSPost2010PropOp49
 70
     0
102
RTVSPost2010Prop50
 90
       50
102
RTVSPost2010PropOp50
 70
     0
102
RTVSPost2010Prop51ColorIndex
 90
      256
102
RTVSPost2010Prop51ColorRGB
 90
-16777216
102
RTVSPost2010PropOp51
 70
     0
102
RTVSPost2010Prop52
140
1.0
102
RTVSPost2010PropOp52
 70
     0
102
RTVSPost2010Prop53
 90
        2
102
RTVSPost2010PropOp53
 70
     0
102
RTVSPost2010Prop54
  1
strokes_ogs.tif
102
RTVSPost2010PropOp54
 70
     0
102
RTVSPost2010Prop55
280
     0
102
RTVSPost2010PropOp55
 70
     0
102
RTVSPost2010Prop56
140
1.0
102
RTVSPost2010PropOp56
 70
     0
102
RTVSPost2010Prop57
140
1.0
102
RTVSPost2010PropOp57
 70
     0
  0
XRECORD
  5
2BE
102
{ACAD_REACTORS
330
2BD
102
}
330
2BD
100
AcDbXrecord
280
     1
102
RTVSPropertyOp0
 70
     1
102
RTVSPropertyOp1
 70
     1
102
RTVSPropertyOp2
 70
     1
102
RTVSPropertyOp3
 70
     1
102
RTVSPropertyOp4
 70
     1
102
RTVSPropertyOp5
 70
     1
102
RTVSPropertyOp6
 70
     1
102
RTVSPropertyOp7
 70
     1
102
RTVSPropertyOp8
 70
     1
102
RTVSPropertyOp9
 70
     1
102
RTVSPropertyOp10
 70
     1
102
RTVSPropertyOp11
 70
     1
102
RTVSPropertyOp12
 70
     1
102
RTVSPropertyOp13
 70
     1
102
RTVSPropertyOp14
 70
     1
102
RTVSPropertyOp15
 70
     1
102
RTVSPropertyOp16
 70
     1
102
RTVSPropertyOp17
 70
     1
102
RTVSPropertyOp18
 70
     1
102
RTVSPropertyOp19
 70
     1
102
RTVSPropertyOp20
 70
     1
102
RTVSPropertyOp21
 70
     1
102
RTVSPropertyOp22
 70
     1
102
RTVSPropertyOp23
 70
     1
102
RTVSPropertyOp24
 70
     1
102
RTVSPropertyOp25
 70
     1
102
RTVSPropertyOp26
 70
     1
102
RTVSPropertyOp27
 70
     1
102
RTVSPropertyOp28
 70
     1
102
RTVSPropertyOp29
 70
     1
102
RTVSPropertyOp30
 70
     1
102
RTVSPropertyOp31
 70
     1
102
RTVSPropertyOp32
 70
     1
102
RTVSPropertyOp33
 70
     1
102
RTVSPropertyOp34
 70
     1
102
RTVSPropertyOp35
 70
     1
102
RTVSPropertyOp36
 70
     1
102
RTVSPropertyOp37
 70
     1
102
RTVSPropertyOp38
 70
     1
102
RTVSPropertyOp39
 70
     1
102
RTVSPropertyOp40
 70
     1
102
RTVSPropertyOp41
 70
     1
102
RTVSPropertyOp42
 70
     1
102
RTVSPropertyOp43
 70
     1
102
RTVSPropertyOp44
 70
     1
102
RTVSPropertyOp45
 70
     1
102
RTVSPropertyOp46
 70
     1
102
RTVSPropertyOp47
 70
     1
102
RTVSPropertyOp48
 70
     1
102
RTVSPropertyOp49
 70
     1
102
RTVSPropertyOp50
 70
     1
102
RTVSPropertyOp51
 70
     0
102
RTVSPropertyOp52
 70
     0
102
RTVSPropertyOp53
 70
     1
102
RTVSPropertyOp54
 70
     1
102
RTVSPropertyOp55
 70
     1
102
RTVSPropertyOp56
 70
     1
102
RTVSPropertyOp57
 70
     1
102
RTVSPost2010Prop28
280
     0
102
RTVSPost2010PropOp28
 70
     1
102
RTVSPost2010Prop29
280
     1
102
RTVSPost2010PropOp29
 70
     1
102
RTVSPost2010Prop30
280
     1
102
RTVSPost2010PropOp30
 70
     1
102
RTVSPost2010Prop31
280
     0
102
RTVSPost2010PropOp31
 70
     1
102
RTVSPost2010Prop32
280
     0
102
RTVSPost2010PropOp32
 70
     1
102
RTVSPost2010Prop33
280
     0
102
RTVSPost2010PropOp33
 70
     1
102
RTVSPost2010Prop34
280
     0
102
RTVSPost2010PropOp34
 70
     1
102
RTVSPost2010Prop35
280
     0
102
RTVSPost2010PropOp35
 70
     1
102
RTVSPost2010Prop36
280
     0
102
RTVSPost2010PropOp36
 70
     1
102
RTVSPost2010Prop37
 90
       50
102
RTVSPost2010PropOp37
 70
     1
102
RTVSPost2010Prop38
140
0.0
102
RTVSPost2010PropOp38
 70
     1
102
RTVSPost2010Prop39
140
1.0
102
RTVSPost2010PropOp39
 70
     1
102
RTVSPost2010Prop40
 90
        0
102
RTVSPost2010PropOp40
 70
     1
102
RTVSPost2010Prop41ColorIndex
 90
       18
102
RTVSPost2010Prop41ColorRGB
 90
        0
102
RTVSPost2010PropOp41
 70
     1
102
RTVSPost2010Prop42
 90
       50
102
RTVSPost2010PropOp42
 70
     1
102
RTVSPost2010Prop43
 90
        3
102
RTVSPost2010PropOp43
 70
     1
102
RTVSPost2010Prop44ColorIndex
 90
        5
102
RTVSPost2010Prop44ColorRGB
 90
      255
102
RTVSPost2010PropOp44
 70
     1
102
RTVSPost2010Prop45
280
     0
102
RTVSPost2010PropOp45
 70
     1
102
RTVSPost2010Prop46
 90
       50
102
RTVSPost2010PropOp46
 70
     1
102
RTVSPost2010Prop47
 90
       50
102
RTVSPost2010PropOp47
 70
     1
102
RTVSPost2010Prop48
 90
       50
102
RTVSPost2010PropOp48
 70
     1
102
RTVSPost2010Prop49
280
     0
102
RTVSPost2010PropOp49
 70
     1
102
RTVSPost2010Prop50
 90
       50
102
RTVSPost2010PropOp50
 70
     1
102
RTVSPost2010Prop51ColorIndex
 90
      256
102
RTVSPost2010Prop51ColorRGB
 90
-16777216
102
RTVSPost2010PropOp51
 70
     0
102
RTVSPost2010Prop52
140
1.0
102
RTVSPost2010PropOp52
 70
     0
102
RTVSPost2010Prop53
 90
        2
102
RTVSPost2010PropOp53
 70
     1
102
RTVSPost2010Prop54
  1
strokes_ogs.tif
102
RTVSPost2010PropOp54
 70
     1
102
RTVSPost2010Prop55
280
     0
102
RTVSPost2010PropOp55
 70
     1
102
RTVSPost2010Prop56
140
1.0
102
RTVSPost2010PropOp56
 70
     1
102
RTVSPost2010Prop57
140
1.0
102
RTVSPost2010PropOp57
 70
     1
  0
XRECORD
  5
2C6
102
{ACAD_REACTORS
330
2C5
102
}
330
2C5
100
AcDbXrecord
280
     1
102
RTVSPropertyOp0
 70
     0
102
RTVSPropertyOp1
 70
     0
102
RTVSPropertyOp2
 70
     0
102
RTVSPropertyOp3
 70
     0
102
RTVSPropertyOp4
 70
     0
102
RTVSPropertyOp5
 70
     0
102
RTVSPropertyOp6
 70
     0
102
RTVSPropertyOp7
 70
     0
102
RTVSPropertyOp8
 70
     0
102
RTVSPropertyOp9
 70
     0
102
RTVSPropertyOp10
 70
     0
102
RTVSPropertyOp11
 70
     0
102
RTVSPropertyOp12
 70
     0
102
RTVSPropertyOp13
 70
     0
102
RTVSPropertyOp14
 70
     2
102
RTVSPropertyOp15
 70
     0
102
RTVSPropertyOp16
 70
     0
102
RTVSPropertyOp17
 70
     0
102
RTVSPropertyOp18
 70
     0
102
RTVSPropertyOp19
 70
     0
102
RTVSPropertyOp20
 70
     0
102
RTVSPropertyOp21
 70
     0
102
RTVSPropertyOp22
 70
     0
102
RTVSPropertyOp23
 70
     0
102
RTVSPropertyOp24
 70
     0
102
RTVSPropertyOp25
 70
     0
102
RTVSPropertyOp26
 70
     0
102
RTVSPropertyOp27
 70
     0
102
RTVSPropertyOp28
 70
     0
102
RTVSPropertyOp29
 70
     0
102
RTVSPropertyOp30
 70
     0
102
RTVSPropertyOp31
 70
     0
102
RTVSPropertyOp32
 70
     0
102
RTVSPropertyOp33
 70
     0
102
RTVSPropertyOp34
 70
     0
102
RTVSPropertyOp35
 70
     0
102
RTVSPropertyOp36
 70
     0
102
RTVSPropertyOp37
 70
     0
102
RTVSPropertyOp38
 70
     0
102
RTVSPropertyOp39
 70
     0
102
RTVSPropertyOp40
 70
     0
102
RTVSPropertyOp41
 70
     0
102
RTVSPropertyOp42
 70
     0
102
RTVSPropertyOp43
 70
     0
102
RTVSPropertyOp44
 70
     0
102
RTVSPropertyOp45
 70
     0
102
RTVSPropertyOp46
 70
     0
102
RTVSPropertyOp47
 70
     0
102
RTVSPropertyOp48
 70
     0
102
RTVSPropertyOp49
 70
     0
102
RTVSPropertyOp50
 70
     0
102
RTVSPropertyOp51
 70
     0
102
RTVSPropertyOp52
 70
     0
102
RTVSPropertyOp53
 70
     0
102
RTVSPropertyOp54
 70
     0
102
RTVSPropertyOp55
 70
     0
102
RTVSPropertyOp56
 70
     0
102
RTVSPropertyOp57
 70
     0
102
RTVSPost2010Prop28
280
     0
102
RTVSPost2010PropOp28
 70
     0
102
RTVSPost2010Prop29
280
     1
102
RTVSPost2010PropOp29
 70
     0
102
RTVSPost2010Prop30
280
     1
102
RTVSPost2010PropOp30
 70
     0
102
RTVSPost2010Prop31
280
     0
102
RTVSPost2010PropOp31
 70
     0
102
RTVSPost2010Prop32
280
     0
102
RTVSPost2010PropOp32
 70
     0
102
RTVSPost2010Prop33
280
     0
102
RTVSPost2010PropOp33
 70
     0
102
RTVSPost2010Prop34
280
     0
102
RTVSPost2010PropOp34
 70
     0
102
RTVSPost2010Prop35
280
     0
102
RTVSPost2010PropOp35
 70
     0
102
RTVSPost2010Prop36
280
     0
102
RTVSPost2010PropOp36
 70
     0
102
RTVSPost2010Prop37
 90
       50
102
RTVSPost2010PropOp37
 70
     0
102
RTVSPost2010Prop38
140
0.0
102
RTVSPost2010PropOp38
 70
     0
102
RTVSPost2010Prop39
140
1.0
102
RTVSPost2010PropOp39
 70
     0
102
RTVSPost2010Prop40
 90
        0
102
RTVSPost2010PropOp40
 70
     0
102
RTVSPost2010Prop41ColorIndex
 90
       18
102
RTVSPost2010Prop41ColorRGB
 90
        0
102
RTVSPost2010PropOp41
 70
     0
102
RTVSPost2010Prop42
 90
       50
102
RTVSPost2010PropOp42
 70
     0
102
RTVSPost2010Prop43
 90
        3
102
RTVSPost2010PropOp43
 70
     0
102
RTVSPost2010Prop44ColorIndex
 90
        5
102
RTVSPost2010Prop44ColorRGB
 90
      255
102
RTVSPost2010PropOp44
 70
     0
102
RTVSPost2010Prop45
280
     0
102
RTVSPost2010PropOp45
 70
     0
102
RTVSPost2010Prop46
 90
       50
102
RTVSPost2010PropOp46
 70
     0
102
RTVSPost2010Prop47
 90
       50
102
RTVSPost2010PropOp47
 70
     0
102
RTVSPost2010Prop48
 90
       50
102
RTVSPost2010PropOp48
 70
     0
102
RTVSPost2010Prop49
280
     0
102
RTVSPost2010PropOp49
 70
     0
102
RTVSPost2010Prop50
 90
       50
102
RTVSPost2010PropOp50
 70
     0
102
RTVSPost2010Prop51ColorIndex
 90
      256
102
RTVSPost2010Prop51ColorRGB
 90
-16777216
102
RTVSPost2010PropOp51
 70
     0
102
RTVSPost2010Prop52
140
1.0
102
RTVSPost2010PropOp52
 70
     0
102
RTVSPost2010Prop53
 90
        2
102
RTVSPost2010PropOp53
 70
     0
102
RTVSPost2010Prop54
  1
strokes_ogs.tif
102
RTVSPost2010PropOp54
 70
     0
102
RTVSPost2010Prop55
280
     0
102
RTVSPost2010PropOp55
 70
     0
102
RTVSPost2010Prop56
140
1.0
102
RTVSPost2010PropOp56
 70
     0
102
RTVSPost2010Prop57
140
1.0
102
RTVSPost2010PropOp57
 70
     0
  0
XRECORD
  5
2B4
102
{ACAD_REACTORS
330
2B3
102
}
330
2B3
100
AcDbXrecord
280
     1
102
RTVSPropertyOp0
 70
     1
102
RTVSPropertyOp1
 70
     1
102
RTVSPropertyOp2
 70
     1
102
RTVSPropertyOp3
 70
     1
102
RTVSPropertyOp4
 70
     1
102
RTVSPropertyOp5
 70
     1
102
RTVSPropertyOp6
 70
     1
102
RTVSPropertyOp7
 70
     1
102
RTVSPropertyOp8
 70
     1
102
RTVSPropertyOp9
 70
     1
102
RTVSPropertyOp10
 70
     1
102
RTVSPropertyOp11
 70
     1
102
RTVSPropertyOp12
 70
     1
102
RTVSPropertyOp13
 70
     1
102
RTVSPropertyOp14
 70
     1
102
RTVSPropertyOp15
 70
     1
102
RTVSPropertyOp16
 70
     1
102
RTVSPropertyOp17
 70
     1
102
RTVSPropertyOp18
 70
     1
102
RTVSPropertyOp19
 70
     1
102
RTVSPropertyOp20
 70
     1
102
RTVSPropertyOp21
 70
     1
102
RTVSPropertyOp22
 70
     1
102
RTVSPropertyOp23
 70
     1
102
RTVSPropertyOp24
 70
     1
102
RTVSPropertyOp25
 70
     1
102
RTVSPropertyOp26
 70
     1
102
RTVSPropertyOp27
 70
     1
102
RTVSPropertyOp28
 70
     1
102
RTVSPropertyOp29
 70
     1
102
RTVSPropertyOp30
 70
     1
102
RTVSPropertyOp31
 70
     1
102
RTVSPropertyOp32
 70
     1
102
RTVSPropertyOp33
 70
     1
102
RTVSPropertyOp34
 70
     1
102
RTVSPropertyOp35
 70
     1
102
RTVSPropertyOp36
 70
     1
102
RTVSPropertyOp37
 70
     1
102
RTVSPropertyOp38
 70
     1
102
RTVSPropertyOp39
 70
     1
102
RTVSPropertyOp40
 70
     1
102
RTVSPropertyOp41
 70
     1
102
RTVSPropertyOp42
 70
     1
102
RTVSPropertyOp43
 70
     1
102
RTVSPropertyOp44
 70
     1
102
RTVSPropertyOp45
 70
     1
102
RTVSPropertyOp46
 70
     1
102
RTVSPropertyOp47
 70
     1
102
RTVSPropertyOp48
 70
     1
102
RTVSPropertyOp49
 70
     1
102
RTVSPropertyOp50
 70
     1
102
RTVSPropertyOp51
 70
     0
102
RTVSPropertyOp52
 70
     0
102
RTVSPropertyOp53
 70
     1
102
RTVSPropertyOp54
 70
     1
102
RTVSPropertyOp55
 70
     1
102
RTVSPropertyOp56
 70
     1
102
RTVSPropertyOp57
 70
     1
102
RTVSPost2010Prop28
280
     0
102
RTVSPost2010PropOp28
 70
     1
102
RTVSPost2010Prop29
280
     1
102
RTVSPost2010PropOp29
 70
     1
102
RTVSPost2010Prop30
280
     1
102
RTVSPost2010PropOp30
 70
     1
102
RTVSPost2010Prop31
280
     0
102
RTVSPost2010PropOp31
 70
     1
102
RTVSPost2010Prop32
280
     0
102
RTVSPost2010PropOp32
 70
     1
102
RTVSPost2010Prop33
280
     0
102
RTVSPost2010PropOp33
 70
     1
102
RTVSPost2010Prop34
280
     0
102
RTVSPost2010PropOp34
 70
     1
102
RTVSPost2010Prop35
280
     0
102
RTVSPost2010PropOp35
 70
     1
102
RTVSPost2010Prop36
280
     0
102
RTVSPost2010PropOp36
 70
     1
102
RTVSPost2010Prop37
 90
       50
102
RTVSPost2010PropOp37
 70
     1
102
RTVSPost2010Prop38
140
0.0
102
RTVSPost2010PropOp38
 70
     1
102
RTVSPost2010Prop39
140
1.0
102
RTVSPost2010PropOp39
 70
     1
102
RTVSPost2010Prop40
 90
        0
102
RTVSPost2010PropOp40
 70
     1
102
RTVSPost2010Prop41ColorIndex
 90
       18
102
RTVSPost2010Prop41ColorRGB
 90
        0
102
RTVSPost2010PropOp41
 70
     1
102
RTVSPost2010Prop42
 90
       50
102
RTVSPost2010PropOp42
 70
     1
102
RTVSPost2010Prop43
 90
        3
102
RTVSPost2010PropOp43
 70
     1
102
RTVSPost2010Prop44ColorIndex
 90
        5
102
RTVSPost2010Prop44ColorRGB
 90
      255
102
RTVSPost2010PropOp44
 70
     1
102
RTVSPost2010Prop45
280
     0
102
RTVSPost2010PropOp45
 70
     1
102
RTVSPost2010Prop46
 90
       50
102
RTVSPost2010PropOp46
 70
     1
102
RTVSPost2010Prop47
 90
       50
102
RTVSPost2010PropOp47
 70
     1
102
RTVSPost2010Prop48
 90
       50
102
RTVSPost2010PropOp48
 70
     1
102
RTVSPost2010Prop49
280
     0
102
RTVSPost2010PropOp49
 70
     1
102
RTVSPost2010Prop50
 90
       50
102
RTVSPost2010PropOp50
 70
     1
102
RTVSPost2010Prop51ColorIndex
 90
      256
102
RTVSPost2010Prop51ColorRGB
 90
-16777216
102
RTVSPost2010PropOp51
 70
     0
102
RTVSPost2010Prop52
140
1.0
102
RTVSPost2010PropOp52
 70
     0
102
RTVSPost2010Prop53
 90
        2
102
RTVSPost2010PropOp53
 70
     1
102
RTVSPost2010Prop54
  1
strokes_ogs.tif
102
RTVSPost2010PropOp54
 70
     1
102
RTVSPost2010Prop55
280
     0
102
RTVSPost2010PropOp55
 70
     1
102
RTVSPost2010Prop56
140
1.0
102
RTVSPost2010PropOp56
 70
     1
102
RTVSPost2010Prop57
140
1.0
102
RTVSPost2010PropOp57
 70
     1
  0
XRECORD
  5
2D2
102
{ACAD_REACTORS
330
2D1
102
}
330
2D1
100
AcDbXrecord
280
     1
102
RTVSPropertyOp0
 70
     1
102
RTVSPropertyOp1
 70
     1
102
RTVSPropertyOp2
 70
     1
102
RTVSPropertyOp3
 70
     1
102
RTVSPropertyOp4
 70
     1
102
RTVSPropertyOp5
 70
     1
102
RTVSPropertyOp6
 70
     1
102
RTVSPropertyOp7
 70
     1
102
RTVSPropertyOp8
 70
     1
102
RTVSPropertyOp9
 70
     1
102
RTVSPropertyOp10
 70
     1
102
RTVSPropertyOp11
 70
     1
102
RTVSPropertyOp12
 70
     1
102
RTVSPropertyOp13
 70
     1
102
RTVSPropertyOp14
 70
     1
102
RTVSPropertyOp15
 70
     1
102
RTVSPropertyOp16
 70
     1
102
RTVSPropertyOp17
 70
     1
102
RTVSPropertyOp18
 70
     1
102
RTVSPropertyOp19
 70
     1
102
RTVSPropertyOp20
 70
     1
102
RTVSPropertyOp21
 70
     1
102
RTVSPropertyOp22
 70
     1
102
RTVSPropertyOp23
 70
     1
102
RTVSPropertyOp24
 70
     1
102
RTVSPropertyOp25
 70
     1
102
RTVSPropertyOp26
 70
     1
102
RTVSPropertyOp27
 70
     1
102
RTVSPropertyOp28
 70
     1
102
RTVSPropertyOp29
 70
     1
102
RTVSPropertyOp30
 70
     1
102
RTVSPropertyOp31
 70
     1
102
RTVSPropertyOp32
 70
     1
102
RTVSPropertyOp33
 70
     1
102
RTVSPropertyOp34
 70
     1
102
RTVSPropertyOp35
 70
     1
102
RTVSPropertyOp36
 70
     1
102
RTVSPropertyOp37
 70
     1
102
RTVSPropertyOp38
 70
     1
102
RTVSPropertyOp39
 70
     1
102
RTVSPropertyOp40
 70
     1
102
RTVSPropertyOp41
 70
     1
102
RTVSPropertyOp42
 70
     1
102
RTVSPropertyOp43
 70
     1
102
RTVSPropertyOp44
 70
     1
102
RTVSPropertyOp45
 70
     1
102
RTVSPropertyOp46
 70
     1
102
RTVSPropertyOp47
 70
     1
102
RTVSPropertyOp48
 70
     1
102
RTVSPropertyOp49
 70
     1
102
RTVSPropertyOp50
 70
     1
102
RTVSPropertyOp51
 70
     0
102
RTVSPropertyOp52
 70
     0
102
RTVSPropertyOp53
 70
     1
102
RTVSPropertyOp54
 70
     1
102
RTVSPropertyOp55
 70
     1
102
RTVSPropertyOp56
 70
     1
102
RTVSPropertyOp57
 70
     1
102
RTVSPost2010Prop28
280
     0
102
RTVSPost2010PropOp28
 70
     1
102
RTVSPost2010Prop29
280
     1
102
RTVSPost2010PropOp29
 70
     1
102
RTVSPost2010Prop30
280
     1
102
RTVSPost2010PropOp30
 70
     1
102
RTVSPost2010Prop31
280
     0
102
RTVSPost2010PropOp31
 70
     1
102
RTVSPost2010Prop32
280
     0
102
RTVSPost2010PropOp32
 70
     1
102
RTVSPost2010Prop33
280
     0
102
RTVSPost2010PropOp33
 70
     1
102
RTVSPost2010Prop34
280
     0
102
RTVSPost2010PropOp34
 70
     1
102
RTVSPost2010Prop35
280
     0
102
RTVSPost2010PropOp35
 70
     1
102
RTVSPost2010Prop36
280
     0
102
RTVSPost2010PropOp36
 70
     1
102
RTVSPost2010Prop37
 90
       50
102
RTVSPost2010PropOp37
 70
     1
102
RTVSPost2010Prop38
140
0.0
102
RTVSPost2010PropOp38
 70
     1
102
RTVSPost2010Prop39
140
1.0
102
RTVSPost2010PropOp39
 70
     1
102
RTVSPost2010Prop40
 90
        0
102
RTVSPost2010PropOp40
 70
     1
102
RTVSPost2010Prop41ColorIndex
 90
       18
102
RTVSPost2010Prop41ColorRGB
 90
        0
102
RTVSPost2010PropOp41
 70
     1
102
RTVSPost2010Prop42
 90
       50
102
RTVSPost2010PropOp42
 70
     1
102
RTVSPost2010Prop43
 90
        3
102
RTVSPost2010PropOp43
 70
     1
102
RTVSPost2010Prop44ColorIndex
 90
        5
102
RTVSPost2010Prop44ColorRGB
 90
      255
102
RTVSPost2010PropOp44
 70
     1
102
RTVSPost2010Prop45
280
     0
102
RTVSPost2010PropOp45
 70
     1
102
RTVSPost2010Prop46
 90
       50
102
RTVSPost2010PropOp46
 70
     1
102
RTVSPost2010Prop47
 90
       50
102
RTVSPost2010PropOp47
 70
     1
102
RTVSPost2010Prop48
 90
       50
102
RTVSPost2010PropOp48
 70
     1
102
RTVSPost2010Prop49
280
     0
102
RTVSPost2010PropOp49
 70
     1
102
RTVSPost2010Prop50
 90
       50
102
RTVSPost2010PropOp50
 70
     1
102
RTVSPost2010Prop51ColorIndex
 90
      256
102
RTVSPost2010Prop51ColorRGB
 90
-16777216
102
RTVSPost2010PropOp51
 70
     0
102
RTVSPost2010Prop52
140
1.0
102
RTVSPost2010PropOp52
 70
     0
102
RTVSPost2010Prop53
 90
        2
102
RTVSPost2010PropOp53
 70
     1
102
RTVSPost2010Prop54
  1
strokes_ogs.tif
102
RTVSPost2010PropOp54
 70
     1
102
RTVSPost2010Prop55
280
     0
102
RTVSPost2010PropOp55
 70
     1
102
RTVSPost2010Prop56
140
1.0
102
RTVSPost2010PropOp56
 70
     1
102
RTVSPost2010Prop57
140
1.0
102
RTVSPost2010PropOp57
 70
     1
  0
XRECORD
  5
2D0
102
{ACAD_REACTORS
330
2CF
102
}
330
2CF
100
AcDbXrecord
280
     1
102
RTVSPropertyOp0
 70
     1
102
RTVSPropertyOp1
 70
     1
102
RTVSPropertyOp2
 70
     1
102
RTVSPropertyOp3
 70
     1
102
RTVSPropertyOp4
 70
     1
102
RTVSPropertyOp5
 70
     1
102
RTVSPropertyOp6
 70
     1
102
RTVSPropertyOp7
 70
     1
102
RTVSPropertyOp8
 70
     1
102
RTVSPropertyOp9
 70
     1
102
RTVSPropertyOp10
 70
     1
102
RTVSPropertyOp11
 70
     1
102
RTVSPropertyOp12
 70
     1
102
RTVSPropertyOp13
 70
     1
102
RTVSPropertyOp14
 70
     1
102
RTVSPropertyOp15
 70
     1
102
RTVSPropertyOp16
 70
     1
102
RTVSPropertyOp17
 70
     1
102
RTVSPropertyOp18
 70
     1
102
RTVSPropertyOp19
 70
     1
102
RTVSPropertyOp20
 70
     1
102
RTVSPropertyOp21
 70
     1
102
RTVSPropertyOp22
 70
     1
102
RTVSPropertyOp23
 70
     1
102
RTVSPropertyOp24
 70
     1
102
RTVSPropertyOp25
 70
     1
102
RTVSPropertyOp26
 70
     1
102
RTVSPropertyOp27
 70
     1
102
RTVSPropertyOp28
 70
     1
102
RTVSPropertyOp29
 70
     1
102
RTVSPropertyOp30
 70
     1
102
RTVSPropertyOp31
 70
     1
102
RTVSPropertyOp32
 70
     1
102
RTVSPropertyOp33
 70
     1
102
RTVSPropertyOp34
 70
     1
102
RTVSPropertyOp35
 70
     1
102
RTVSPropertyOp36
 70
     1
102
RTVSPropertyOp37
 70
     1
102
RTVSPropertyOp38
 70
     1
102
RTVSPropertyOp39
 70
     1
102
RTVSPropertyOp40
 70
     1
102
RTVSPropertyOp41
 70
     1
102
RTVSPropertyOp42
 70
     1
102
RTVSPropertyOp43
 70
     1
102
RTVSPropertyOp44
 70
     1
102
RTVSPropertyOp45
 70
     1
102
RTVSPropertyOp46
 70
     1
102
RTVSPropertyOp47
 70
     1
102
RTVSPropertyOp48
 70
     1
102
RTVSPropertyOp49
 70
     1
102
RTVSPropertyOp50
 70
     1
102
RTVSPropertyOp51
 70
     0
102
RTVSPropertyOp52
 70
     0
102
RTVSPropertyOp53
 70
     1
102
RTVSPropertyOp54
 70
     1
102
RTVSPropertyOp55
 70
     1
102
RTVSPropertyOp56
 70
     1
102
RTVSPropertyOp57
 70
     1
102
RTVSPost2010Prop28
280
     0
102
RTVSPost2010PropOp28
 70
     1
102
RTVSPost2010Prop29
280
     1
102
RTVSPost2010PropOp29
 70
     1
102
RTVSPost2010Prop30
280
     1
102
RTVSPost2010PropOp30
 70
     1
102
RTVSPost2010Prop31
280
     0
102
RTVSPost2010PropOp31
 70
     1
102
RTVSPost2010Prop32
280
     0
102
RTVSPost2010PropOp32
 70
     1
102
RTVSPost2010Prop33
280
     0
102
RTVSPost2010PropOp33
 70
     1
102
RTVSPost2010Prop34
280
     0
102
RTVSPost2010PropOp34
 70
     1
102
RTVSPost2010Prop35
280
     0
102
RTVSPost2010PropOp35
 70
     1
102
RTVSPost2010Prop36
280
     0
102
RTVSPost2010PropOp36
 70
     1
102
RTVSPost2010Prop37
 90
       50
102
RTVSPost2010PropOp37
 70
     1
102
RTVSPost2010Prop38
140
0.0
102
RTVSPost2010PropOp38
 70
     1
102
RTVSPost2010Prop39
140
1.0
102
RTVSPost2010PropOp39
 70
     1
102
RTVSPost2010Prop40
 90
        0
102
RTVSPost2010PropOp40
 70
     1
102
RTVSPost2010Prop41ColorIndex
 90
       18
102
RTVSPost2010Prop41ColorRGB
 90
        0
102
RTVSPost2010PropOp41
 70
     1
102
RTVSPost2010Prop42
 90
       50
102
RTVSPost2010PropOp42
 70
     1
102
RTVSPost2010Prop43
 90
        3
102
RTVSPost2010PropOp43
 70
     1
102
RTVSPost2010Prop44ColorIndex
 90
        5
102
RTVSPost2010Prop44ColorRGB
 90
      255
102
RTVSPost2010PropOp44
 70
     1
102
RTVSPost2010Prop45
280
     0
102
RTVSPost2010PropOp45
 70
     1
102
RTVSPost2010Prop46
 90
       50
102
RTVSPost2010PropOp46
 70
     1
102
RTVSPost2010Prop47
 90
       50
102
RTVSPost2010PropOp47
 70
     1
102
RTVSPost2010Prop48
 90
       50
102
RTVSPost2010PropOp48
 70
     1
102
RTVSPost2010Prop49
280
     0
102
RTVSPost2010PropOp49
 70
     1
102
RTVSPost2010Prop50
 90
       50
102
RTVSPost2010PropOp50
 70
     1
102
RTVSPost2010Prop51ColorIndex
 90
      256
102
RTVSPost2010Prop51ColorRGB
 90
-16777216
102
RTVSPost2010PropOp51
 70
     0
102
RTVSPost2010Prop52
140
1.0
102
RTVSPost2010PropOp52
 70
     0
102
RTVSPost2010Prop53
 90
        2
102
RTVSPost2010PropOp53
 70
     1
102
RTVSPost2010Prop54
  1
strokes_ogs.tif
102
RTVSPost2010PropOp54
 70
     1
102
RTVSPost2010Prop55
280
     0
102
RTVSPost2010PropOp55
 70
     1
102
RTVSPost2010Prop56
140
1.0
102
RTVSPost2010PropOp56
 70
     1
102
RTVSPost2010Prop57
140
1.0
102
RTVSPost2010PropOp57
 70
     1
  0
XRECORD
  5
2CA
102
{ACAD_REACTORS
330
2C9
102
}
330
2C9
100
AcDbXrecord
280
     1
102
RTVSPropertyOp0
 70
     1
102
RTVSPropertyOp1
 70
     1
102
RTVSPropertyOp2
 70
     1
102
RTVSPropertyOp3
 70
     1
102
RTVSPropertyOp4
 70
     1
102
RTVSPropertyOp5
 70
     1
102
RTVSPropertyOp6
 70
     1
102
RTVSPropertyOp7
 70
     1
102
RTVSPropertyOp8
 70
     1
102
RTVSPropertyOp9
 70
     1
102
RTVSPropertyOp10
 70
     1
102
RTVSPropertyOp11
 70
     1
102
RTVSPropertyOp12
 70
     1
102
RTVSPropertyOp13
 70
     1
102
RTVSPropertyOp14
 70
     1
102
RTVSPropertyOp15
 70
     1
102
RTVSPropertyOp16
 70
     1
102
RTVSPropertyOp17
 70
     1
102
RTVSPropertyOp18
 70
     1
102
RTVSPropertyOp19
 70
     1
102
RTVSPropertyOp20
 70
     1
102
RTVSPropertyOp21
 70
     1
102
RTVSPropertyOp22
 70
     1
102
RTVSPropertyOp23
 70
     1
102
RTVSPropertyOp24
 70
     1
102
RTVSPropertyOp25
 70
     1
102
RTVSPropertyOp26
 70
     1
102
RTVSPropertyOp27
 70
     1
102
RTVSPropertyOp28
 70
     1
102
RTVSPropertyOp29
 70
     1
102
RTVSPropertyOp30
 70
     1
102
RTVSPropertyOp31
 70
     1
102
RTVSPropertyOp32
 70
     1
102
RTVSPropertyOp33
 70
     1
102
RTVSPropertyOp34
 70
     1
102
RTVSPropertyOp35
 70
     1
102
RTVSPropertyOp36
 70
     1
102
RTVSPropertyOp37
 70
     1
102
RTVSPropertyOp38
 70
     1
102
RTVSPropertyOp39
 70
     1
102
RTVSPropertyOp40
 70
     1
102
RTVSPropertyOp41
 70
     1
102
RTVSPropertyOp42
 70
     1
102
RTVSPropertyOp43
 70
     1
102
RTVSPropertyOp44
 70
     1
102
RTVSPropertyOp45
 70
     1
102
RTVSPropertyOp46
 70
     1
102
RTVSPropertyOp47
 70
     1
102
RTVSPropertyOp48
 70
     1
102
RTVSPropertyOp49
 70
     1
102
RTVSPropertyOp50
 70
     1
102
RTVSPropertyOp51
 70
     0
102
RTVSPropertyOp52
 70
     0
102
RTVSPropertyOp53
 70
     1
102
RTVSPropertyOp54
 70
     1
102
RTVSPropertyOp55
 70
     1
102
RTVSPropertyOp56
 70
     1
102
RTVSPropertyOp57
 70
     1
102
RTVSPost2010Prop28
280
     0
102
RTVSPost2010PropOp28
 70
     1
102
RTVSPost2010Prop29
280
     1
102
RTVSPost2010PropOp29
 70
     1
102
RTVSPost2010Prop30
280
     1
102
RTVSPost2010PropOp30
 70
     1
102
RTVSPost2010Prop31
280
     0
102
RTVSPost2010PropOp31
 70
     1
102
RTVSPost2010Prop32
280
     0
102
RTVSPost2010PropOp32
 70
     1
102
RTVSPost2010Prop33
280
     0
102
RTVSPost2010PropOp33
 70
     1
102
RTVSPost2010Prop34
280
     0
102
RTVSPost2010PropOp34
 70
     1
102
RTVSPost2010Prop35
280
     0
102
RTVSPost2010PropOp35
 70
     1
102
RTVSPost2010Prop36
280
     0
102
RTVSPost2010PropOp36
 70
     1
102
RTVSPost2010Prop37
 90
       50
102
RTVSPost2010PropOp37
 70
     1
102
RTVSPost2010Prop38
140
0.0
102
RTVSPost2010PropOp38
 70
     1
102
RTVSPost2010Prop39
140
1.0
102
RTVSPost2010PropOp39
 70
     1
102
RTVSPost2010Prop40
 90
        0
102
RTVSPost2010PropOp40
 70
     1
102
RTVSPost2010Prop41ColorIndex
 90
       18
102
RTVSPost2010Prop41ColorRGB
 90
        0
102
RTVSPost2010PropOp41
 70
     1
102
RTVSPost2010Prop42
 90
       50
102
RTVSPost2010PropOp42
 70
     1
102
RTVSPost2010Prop43
 90
        3
102
RTVSPost2010PropOp43
 70
     1
102
RTVSPost2010Prop44ColorIndex
 90
        5
102
RTVSPost2010Prop44ColorRGB
 90
      255
102
RTVSPost2010PropOp44
 70
     1
102
RTVSPost2010Prop45
280
     0
102
RTVSPost2010PropOp45
 70
     1
102
RTVSPost2010Prop46
 90
       50
102
RTVSPost2010PropOp46
 70
     1
102
RTVSPost2010Prop47
 90
       50
102
RTVSPost2010PropOp47
 70
     1
102
RTVSPost2010Prop48
 90
       50
102
RTVSPost2010PropOp48
 70
     1
102
RTVSPost2010Prop49
280
     0
102
RTVSPost2010PropOp49
 70
     1
102
RTVSPost2010Prop50
 90
       50
102
RTVSPost2010PropOp50
 70
     1
102
RTVSPost2010Prop51ColorIndex
 90
      256
102
RTVSPost2010Prop51ColorRGB
 90
-16777216
102
RTVSPost2010PropOp51
 70
     0
102
RTVSPost2010Prop52
140
1.0
102
RTVSPost2010PropOp52
 70
     0
102
RTVSPost2010Prop53
 90
        2
102
RTVSPost2010PropOp53
 70
     1
102
RTVSPost2010Prop54
  1
strokes_ogs.tif
102
RTVSPost2010PropOp54
 70
     1
102
RTVSPost2010Prop55
280
     0
102
RTVSPost2010PropOp55
 70
     1
102
RTVSPost2010Prop56
140
1.0
102
RTVSPost2010PropOp56
 70
     1
102
RTVSPost2010Prop57
140
1.0
102
RTVSPost2010PropOp57
 70
     1
  0
XRECORD
  5
2CC
102
{ACAD_REACTORS
330
2CB
102
}
330
2CB
100
AcDbXrecord
280
     1
102
RTVSPropertyOp0
 70
     1
102
RTVSPropertyOp1
 70
     1
102
RTVSPropertyOp2
 70
     1
102
RTVSPropertyOp3
 70
     1
102
RTVSPropertyOp4
 70
     1
102
RTVSPropertyOp5
 70
     1
102
RTVSPropertyOp6
 70
     1
102
RTVSPropertyOp7
 70
     1
102
RTVSPropertyOp8
 70
     1
102
RTVSPropertyOp9
 70
     1
102
RTVSPropertyOp10
 70
     1
102
RTVSPropertyOp11
 70
     1
102
RTVSPropertyOp12
 70
     1
102
RTVSPropertyOp13
 70
     1
102
RTVSPropertyOp14
 70
     1
102
RTVSPropertyOp15
 70
     1
102
RTVSPropertyOp16
 70
     1
102
RTVSPropertyOp17
 70
     1
102
RTVSPropertyOp18
 70
     1
102
RTVSPropertyOp19
 70
     1
102
RTVSPropertyOp20
 70
     1
102
RTVSPropertyOp21
 70
     1
102
RTVSPropertyOp22
 70
     1
102
RTVSPropertyOp23
 70
     1
102
RTVSPropertyOp24
 70
     1
102
RTVSPropertyOp25
 70
     1
102
RTVSPropertyOp26
 70
     1
102
RTVSPropertyOp27
 70
     1
102
RTVSPropertyOp28
 70
     1
102
RTVSPropertyOp29
 70
     1
102
RTVSPropertyOp30
 70
     1
102
RTVSPropertyOp31
 70
     1
102
RTVSPropertyOp32
 70
     1
102
RTVSPropertyOp33
 70
     1
102
RTVSPropertyOp34
 70
     1
102
RTVSPropertyOp35
 70
     1
102
RTVSPropertyOp36
 70
     1
102
RTVSPropertyOp37
 70
     1
102
RTVSPropertyOp38
 70
     1
102
RTVSPropertyOp39
 70
     1
102
RTVSPropertyOp40
 70
     1
102
RTVSPropertyOp41
 70
     1
102
RTVSPropertyOp42
 70
     1
102
RTVSPropertyOp43
 70
     1
102
RTVSPropertyOp44
 70
     1
102
RTVSPropertyOp45
 70
     1
102
RTVSPropertyOp46
 70
     1
102
RTVSPropertyOp47
 70
     1
102
RTVSPropertyOp48
 70
     1
102
RTVSPropertyOp49
 70
     1
102
RTVSPropertyOp50
 70
     1
102
RTVSPropertyOp51
 70
     0
102
RTVSPropertyOp52
 70
     0
102
RTVSPropertyOp53
 70
     1
102
RTVSPropertyOp54
 70
     1
102
RTVSPropertyOp55
 70
     1
102
RTVSPropertyOp56
 70
     1
102
RTVSPropertyOp57
 70
     1
102
RTVSPost2010Prop28
280
     0
102
RTVSPost2010PropOp28
 70
     1
102
RTVSPost2010Prop29
280
     1
102
RTVSPost2010PropOp29
 70
     1
102
RTVSPost2010Prop30
280
     1
102
RTVSPost2010PropOp30
 70
     1
102
RTVSPost2010Prop31
280
     0
102
RTVSPost2010PropOp31
 70
     1
102
RTVSPost2010Prop32
280
     0
102
RTVSPost2010PropOp32
 70
     1
102
RTVSPost2010Prop33
280
     0
102
RTVSPost2010PropOp33
 70
     1
102
RTVSPost2010Prop34
280
     0
102
RTVSPost2010PropOp34
 70
     1
102
RTVSPost2010Prop35
280
     0
102
RTVSPost2010PropOp35
 70
     1
102
RTVSPost2010Prop36
280
     0
102
RTVSPost2010PropOp36
 70
     1
102
RTVSPost2010Prop37
 90
       50
102
RTVSPost2010PropOp37
 70
     1
102
RTVSPost2010Prop38
140
0.0
102
RTVSPost2010PropOp38
 70
     1
102
RTVSPost2010Prop39
140
1.0
102
RTVSPost2010PropOp39
 70
     1
102
RTVSPost2010Prop40
 90
        0
102
RTVSPost2010PropOp40
 70
     1
102
RTVSPost2010Prop41ColorIndex
 90
       18
102
RTVSPost2010Prop41ColorRGB
 90
        0
102
RTVSPost2010PropOp41
 70
     1
102
RTVSPost2010Prop42
 90
       50
102
RTVSPost2010PropOp42
 70
     1
102
RTVSPost2010Prop43
 90
        3
102
RTVSPost2010PropOp43
 70
     1
102
RTVSPost2010Prop44ColorIndex
 90
        5
102
RTVSPost2010Prop44ColorRGB
 90
      255
102
RTVSPost2010PropOp44
 70
     1
102
RTVSPost2010Prop45
280
     0
102
RTVSPost2010PropOp45
 70
     1
102
RTVSPost2010Prop46
 90
       50
102
RTVSPost2010PropOp46
 70
     1
102
RTVSPost2010Prop47
 90
       50
102
RTVSPost2010PropOp47
 70
     1
102
RTVSPost2010Prop48
 90
       50
102
RTVSPost2010PropOp48
 70
     1
102
RTVSPost2010Prop49
280
     0
102
RTVSPost2010PropOp49
 70
     1
102
RTVSPost2010Prop50
 90
       50
102
RTVSPost2010PropOp50
 70
     1
102
RTVSPost2010Prop51ColorIndex
 90
      256
102
RTVSPost2010Prop51ColorRGB
 90
-16777216
102
RTVSPost2010PropOp51
 70
     0
102
RTVSPost2010Prop52
140
1.0
102
RTVSPost2010PropOp52
 70
     0
102
RTVSPost2010Prop53
 90
        2
102
RTVSPost2010PropOp53
 70
     1
102
RTVSPost2010Prop54
  1
strokes_ogs.tif
102
RTVSPost2010PropOp54
 70
     1
102
RTVSPost2010Prop55
280
     0
102
RTVSPost2010PropOp55
 70
     1
102
RTVSPost2010Prop56
140
1.0
102
RTVSPost2010PropOp56
 70
     1
102
RTVSPost2010Prop57
140
1.0
102
RTVSPost2010PropOp57
 70
     1
  0
XRECORD
  5
2BC
102
{ACAD_REACTORS
330
2BB
102
}
330
2BB
100
AcDbXrecord
280
     1
102
RTVSPropertyOp0
 70
     1
102
RTVSPropertyOp1
 70
     1
102
RTVSPropertyOp2
 70
     1
102
RTVSPropertyOp3
 70
     1
102
RTVSPropertyOp4
 70
     1
102
RTVSPropertyOp5
 70
     1
102
RTVSPropertyOp6
 70
     1
102
RTVSPropertyOp7
 70
     1
102
RTVSPropertyOp8
 70
     1
102
RTVSPropertyOp9
 70
     1
102
RTVSPropertyOp10
 70
     1
102
RTVSPropertyOp11
 70
     1
102
RTVSPropertyOp12
 70
     1
102
RTVSPropertyOp13
 70
     1
102
RTVSPropertyOp14
 70
     1
102
RTVSPropertyOp15
 70
     1
102
RTVSPropertyOp16
 70
     1
102
RTVSPropertyOp17
 70
     1
102
RTVSPropertyOp18
 70
     1
102
RTVSPropertyOp19
 70
     1
102
RTVSPropertyOp20
 70
     1
102
RTVSPropertyOp21
 70
     1
102
RTVSPropertyOp22
 70
     1
102
RTVSPropertyOp23
 70
     1
102
RTVSPropertyOp24
 70
     1
102
RTVSPropertyOp25
 70
     1
102
RTVSPropertyOp26
 70
     1
102
RTVSPropertyOp27
 70
     1
102
RTVSPropertyOp28
 70
     1
102
RTVSPropertyOp29
 70
     1
102
RTVSPropertyOp30
 70
     1
102
RTVSPropertyOp31
 70
     1
102
RTVSPropertyOp32
 70
     1
102
RTVSPropertyOp33
 70
     1
102
RTVSPropertyOp34
 70
     1
102
RTVSPropertyOp35
 70
     1
102
RTVSPropertyOp36
 70
     1
102
RTVSPropertyOp37
 70
     1
102
RTVSPropertyOp38
 70
     1
102
RTVSPropertyOp39
 70
     1
102
RTVSPropertyOp40
 70
     1
102
RTVSPropertyOp41
 70
     1
102
RTVSPropertyOp42
 70
     1
102
RTVSPropertyOp43
 70
     1
102
RTVSPropertyOp44
 70
     1
102
RTVSPropertyOp45
 70
     1
102
RTVSPropertyOp46
 70
     1
102
RTVSPropertyOp47
 70
     1
102
RTVSPropertyOp48
 70
     1
102
RTVSPropertyOp49
 70
     1
102
RTVSPropertyOp50
 70
     1
102
RTVSPropertyOp51
 70
     0
102
RTVSPropertyOp52
 70
     0
102
RTVSPropertyOp53
 70
     1
102
RTVSPropertyOp54
 70
     1
102
RTVSPropertyOp55
 70
     1
102
RTVSPropertyOp56
 70
     1
102
RTVSPropertyOp57
 70
     1
102
RTVSPost2010Prop28
280
     0
102
RTVSPost2010PropOp28
 70
     1
102
RTVSPost2010Prop29
280
     1
102
RTVSPost2010PropOp29
 70
     1
102
RTVSPost2010Prop30
280
     1
102
RTVSPost2010PropOp30
 70
     1
102
RTVSPost2010Prop31
280
     0
102
RTVSPost2010PropOp31
 70
     1
102
RTVSPost2010Prop32
280
     0
102
RTVSPost2010PropOp32
 70
     1
102
RTVSPost2010Prop33
280
     0
102
RTVSPost2010PropOp33
 70
     1
102
RTVSPost2010Prop34
280
     0
102
RTVSPost2010PropOp34
 70
     1
102
RTVSPost2010Prop35
280
     0
102
RTVSPost2010PropOp35
 70
     1
102
RTVSPost2010Prop36
280
     0
102
RTVSPost2010PropOp36
 70
     1
102
RTVSPost2010Prop37
 90
       50
102
RTVSPost2010PropOp37
 70
     1
102
RTVSPost2010Prop38
140
0.0
102
RTVSPost2010PropOp38
 70
     1
102
RTVSPost2010Prop39
140
1.0
102
RTVSPost2010PropOp39
 70
     1
102
RTVSPost2010Prop40
 90
        0
102
RTVSPost2010PropOp40
 70
     1
102
RTVSPost2010Prop41ColorIndex
 90
       18
102
RTVSPost2010Prop41ColorRGB
 90
        0
102
RTVSPost2010PropOp41
 70
     1
102
RTVSPost2010Prop42
 90
       50
102
RTVSPost2010PropOp42
 70
     1
102
RTVSPost2010Prop43
 90
        3
102
RTVSPost2010PropOp43
 70
     1
102
RTVSPost2010Prop44ColorIndex
 90
        5
102
RTVSPost2010Prop44ColorRGB
 90
      255
102
RTVSPost2010PropOp44
 70
     1
102
RTVSPost2010Prop45
280
     0
102
RTVSPost2010PropOp45
 70
     1
102
RTVSPost2010Prop46
 90
       50
102
RTVSPost2010PropOp46
 70
     1
102
RTVSPost2010Prop47
 90
       50
102
RTVSPost2010PropOp47
 70
     1
102
RTVSPost2010Prop48
 90
       50
102
RTVSPost2010PropOp48
 70
     1
102
RTVSPost2010Prop49
280
     0
102
RTVSPost2010PropOp49
 70
     1
102
RTVSPost2010Prop50
 90
       50
102
RTVSPost2010PropOp50
 70
     1
102
RTVSPost2010Prop51ColorIndex
 90
      256
102
RTVSPost2010Prop51ColorRGB
 90
-16777216
102
RTVSPost2010PropOp51
 70
     0
102
RTVSPost2010Prop52
140
1.0
102
RTVSPost2010PropOp52
 70
     0
102
RTVSPost2010Prop53
 90
        2
102
RTVSPost2010PropOp53
 70
     1
102
RTVSPost2010Prop54
  1
strokes_ogs.tif
102
RTVSPost2010PropOp54
 70
     1
102
RTVSPost2010Prop55
280
     0
102
RTVSPost2010PropOp55
 70
     1
102
RTVSPost2010Prop56
140
1.0
102
RTVSPost2010PropOp56
 70
     1
102
RTVSPost2010Prop57
140
1.0
102
RTVSPost2010PropOp57
 70
     1
  0
XRECORD
  5
2AE
102
{ACAD_REACTORS
330
2AD
102
}
330
2AD
100
AcDbXrecord
280
     1
102
RTVSPropertyOp0
 70
     1
102
RTVSPropertyOp1
 70
     1
102
RTVSPropertyOp2
 70
     1
102
RTVSPropertyOp3
 70
     1
102
RTVSPropertyOp4
 70
     1
102
RTVSPropertyOp5
 70
     1
102
RTVSPropertyOp6
 70
     1
102
RTVSPropertyOp7
 70
     1
102
RTVSPropertyOp8
 70
     1
102
RTVSPropertyOp9
 70
     1
102
RTVSPropertyOp10
 70
     1
102
RTVSPropertyOp11
 70
     1
102
RTVSPropertyOp12
 70
     1
102
RTVSPropertyOp13
 70
     1
102
RTVSPropertyOp14
 70
     1
102
RTVSPropertyOp15
 70
     1
102
RTVSPropertyOp16
 70
     1
102
RTVSPropertyOp17
 70
     1
102
RTVSPropertyOp18
 70
     1
102
RTVSPropertyOp19
 70
     1
102
RTVSPropertyOp20
 70
     1
102
RTVSPropertyOp21
 70
     1
102
RTVSPropertyOp22
 70
     1
102
RTVSPropertyOp23
 70
     1
102
RTVSPropertyOp24
 70
     1
102
RTVSPropertyOp25
 70
     1
102
RTVSPropertyOp26
 70
     1
102
RTVSPropertyOp27
 70
     1
102
RTVSPropertyOp28
 70
     1
102
RTVSPropertyOp29
 70
     1
102
RTVSPropertyOp30
 70
     1
102
RTVSPropertyOp31
 70
     1
102
RTVSPropertyOp32
 70
     1
102
RTVSPropertyOp33
 70
     1
102
RTVSPropertyOp34
 70
     1
102
RTVSPropertyOp35
 70
     1
102
RTVSPropertyOp36
 70
     1
102
RTVSPropertyOp37
 70
     1
102
RTVSPropertyOp38
 70
     1
102
RTVSPropertyOp39
 70
     1
102
RTVSPropertyOp40
 70
     1
102
RTVSPropertyOp41
 70
     1
102
RTVSPropertyOp42
 70
     1
102
RTVSPropertyOp43
 70
     1
102
RTVSPropertyOp44
 70
     1
102
RTVSPropertyOp45
 70
     1
102
RTVSPropertyOp46
 70
     1
102
RTVSPropertyOp47
 70
     1
102
RTVSPropertyOp48
 70
     1
102
RTVSPropertyOp49
 70
     1
102
RTVSPropertyOp50
 70
     1
102
RTVSPropertyOp51
 70
     0
102
RTVSPropertyOp52
 70
     0
102
RTVSPropertyOp53
 70
     1
102
RTVSPropertyOp54
 70
     1
102
RTVSPropertyOp55
 70
     1
102
RTVSPropertyOp56
 70
     1
102
RTVSPropertyOp57
 70
     1
102
RTVSPost2010Prop28
280
     0
102
RTVSPost2010PropOp28
 70
     1
102
RTVSPost2010Prop29
280
     1
102
RTVSPost2010PropOp29
 70
     1
102
RTVSPost2010Prop30
280
     1
102
RTVSPost2010PropOp30
 70
     1
102
RTVSPost2010Prop31
280
     0
102
RTVSPost2010PropOp31
 70
     1
102
RTVSPost2010Prop32
280
     0
102
RTVSPost2010PropOp32
 70
     1
102
RTVSPost2010Prop33
280
     0
102
RTVSPost2010PropOp33
 70
     1
102
RTVSPost2010Prop34
280
     0
102
RTVSPost2010PropOp34
 70
     1
102
RTVSPost2010Prop35
280
     0
102
RTVSPost2010PropOp35
 70
     1
102
RTVSPost2010Prop36
280
     0
102
RTVSPost2010PropOp36
 70
     1
102
RTVSPost2010Prop37
 90
       50
102
RTVSPost2010PropOp37
 70
     1
102
RTVSPost2010Prop38
140
0.0
102
RTVSPost2010PropOp38
 70
     1
102
RTVSPost2010Prop39
140
1.0
102
RTVSPost2010PropOp39
 70
     1
102
RTVSPost2010Prop40
 90
        0
102
RTVSPost2010PropOp40
 70
     1
102
RTVSPost2010Prop41ColorIndex
 90
       18
102
RTVSPost2010Prop41ColorRGB
 90
        0
102
RTVSPost2010PropOp41
 70
     1
102
RTVSPost2010Prop42
 90
       50
102
RTVSPost2010PropOp42
 70
     1
102
RTVSPost2010Prop43
 90
        3
102
RTVSPost2010PropOp43
 70
     1
102
RTVSPost2010Prop44ColorIndex
 90
        5
102
RTVSPost2010Prop44ColorRGB
 90
      255
102
RTVSPost2010PropOp44
 70
     1
102
RTVSPost2010Prop45
280
     0
102
RTVSPost2010PropOp45
 70
     1
102
RTVSPost2010Prop46
 90
       50
102
RTVSPost2010PropOp46
 70
     1
102
RTVSPost2010Prop47
 90
       50
102
RTVSPost2010PropOp47
 70
     1
102
RTVSPost2010Prop48
 90
       50
102
RTVSPost2010PropOp48
 70
     1
102
RTVSPost2010Prop49
280
     0
102
RTVSPost2010PropOp49
 70
     1
102
RTVSPost2010Prop50
 90
       50
102
RTVSPost2010PropOp50
 70
     1
102
RTVSPost2010Prop51ColorIndex
 90
      256
102
RTVSPost2010Prop51ColorRGB
 90
-16777216
102
RTVSPost2010PropOp51
 70
     0
102
RTVSPost2010Prop52
140
1.0
102
RTVSPost2010PropOp52
 70
     0
102
RTVSPost2010Prop53
 90
        2
102
RTVSPost2010PropOp53
 70
     1
102
RTVSPost2010Prop54
  1
strokes_ogs.tif
102
RTVSPost2010PropOp54
 70
     1
102
RTVSPost2010Prop55
280
     0
102
RTVSPost2010PropOp55
 70
     1
102
RTVSPost2010Prop56
140
1.0
102
RTVSPost2010PropOp56
 70
     1
102
RTVSPost2010Prop57
140
1.0
102
RTVSPost2010PropOp57
 70
     1
  0
XRECORD
  5
2CE
102
{ACAD_REACTORS
330
2CD
102
}
330
2CD
100
AcDbXrecord
280
     1
102
RTVSPropertyOp0
 70
     1
102
RTVSPropertyOp1
 70
     1
102
RTVSPropertyOp2
 70
     1
102
RTVSPropertyOp3
 70
     1
102
RTVSPropertyOp4
 70
     1
102
RTVSPropertyOp5
 70
     1
102
RTVSPropertyOp6
 70
     1
102
RTVSPropertyOp7
 70
     1
102
RTVSPropertyOp8
 70
     1
102
RTVSPropertyOp9
 70
     1
102
RTVSPropertyOp10
 70
     1
102
RTVSPropertyOp11
 70
     1
102
RTVSPropertyOp12
 70
     1
102
RTVSPropertyOp13
 70
     1
102
RTVSPropertyOp14
 70
     1
102
RTVSPropertyOp15
 70
     1
102
RTVSPropertyOp16
 70
     1
102
RTVSPropertyOp17
 70
     1
102
RTVSPropertyOp18
 70
     1
102
RTVSPropertyOp19
 70
     1
102
RTVSPropertyOp20
 70
     1
102
RTVSPropertyOp21
 70
     1
102
RTVSPropertyOp22
 70
     1
102
RTVSPropertyOp23
 70
     1
102
RTVSPropertyOp24
 70
     1
102
RTVSPropertyOp25
 70
     1
102
RTVSPropertyOp26
 70
     1
102
RTVSPropertyOp27
 70
     1
102
RTVSPropertyOp28
 70
     1
102
RTVSPropertyOp29
 70
     1
102
RTVSPropertyOp30
 70
     1
102
RTVSPropertyOp31
 70
     1
102
RTVSPropertyOp32
 70
     1
102
RTVSPropertyOp33
 70
     1
102
RTVSPropertyOp34
 70
     1
102
RTVSPropertyOp35
 70
     1
102
RTVSPropertyOp36
 70
     1
102
RTVSPropertyOp37
 70
     1
102
RTVSPropertyOp38
 70
     1
102
RTVSPropertyOp39
 70
     1
102
RTVSPropertyOp40
 70
     1
102
RTVSPropertyOp41
 70
     1
102
RTVSPropertyOp42
 70
     1
102
RTVSPropertyOp43
 70
     1
102
RTVSPropertyOp44
 70
     1
102
RTVSPropertyOp45
 70
     1
102
RTVSPropertyOp46
 70
     1
102
RTVSPropertyOp47
 70
     1
102
RTVSPropertyOp48
 70
     1
102
RTVSPropertyOp49
 70
     1
102
RTVSPropertyOp50
 70
     1
102
RTVSPropertyOp51
 70
     0
102
RTVSPropertyOp52
 70
     0
102
RTVSPropertyOp53
 70
     1
102
RTVSPropertyOp54
 70
     1
102
RTVSPropertyOp55
 70
     1
102
RTVSPropertyOp56
 70
     1
102
RTVSPropertyOp57
 70
     1
102
RTVSPost2010Prop28
280
     0
102
RTVSPost2010PropOp28
 70
     1
102
RTVSPost2010Prop29
280
     1
102
RTVSPost2010PropOp29
 70
     1
102
RTVSPost2010Prop30
280
     1
102
RTVSPost2010PropOp30
 70
     1
102
RTVSPost2010Prop31
280
     0
102
RTVSPost2010PropOp31
 70
     1
102
RTVSPost2010Prop32
280
     0
102
RTVSPost2010PropOp32
 70
     1
102
RTVSPost2010Prop33
280
     0
102
RTVSPost2010PropOp33
 70
     1
102
RTVSPost2010Prop34
280
     0
102
RTVSPost2010PropOp34
 70
     1
102
RTVSPost2010Prop35
280
     0
102
RTVSPost2010PropOp35
 70
     1
102
RTVSPost2010Prop36
280
     0
102
RTVSPost2010PropOp36
 70
     1
102
RTVSPost2010Prop37
 90
       50
102
RTVSPost2010PropOp37
 70
     1
102
RTVSPost2010Prop38
140
0.0
102
RTVSPost2010PropOp38
 70
     1
102
RTVSPost2010Prop39
140
1.0
102
RTVSPost2010PropOp39
 70
     1
102
RTVSPost2010Prop40
 90
        0
102
RTVSPost2010PropOp40
 70
     1
102
RTVSPost2010Prop41ColorIndex
 90
       18
102
RTVSPost2010Prop41ColorRGB
 90
        0
102
RTVSPost2010PropOp41
 70
     1
102
RTVSPost2010Prop42
 90
       50
102
RTVSPost2010PropOp42
 70
     1
102
RTVSPost2010Prop43
 90
        3
102
RTVSPost2010PropOp43
 70
     1
102
RTVSPost2010Prop44ColorIndex
 90
        5
102
RTVSPost2010Prop44ColorRGB
 90
      255
102
RTVSPost2010PropOp44
 70
     1
102
RTVSPost2010Prop45
280
     0
102
RTVSPost2010PropOp45
 70
     1
102
RTVSPost2010Prop46
 90
       50
102
RTVSPost2010PropOp46
 70
     1
102
RTVSPost2010Prop47
 90
       50
102
RTVSPost2010PropOp47
 70
     1
102
RTVSPost2010Prop48
 90
       50
102
RTVSPost2010PropOp48
 70
     1
102
RTVSPost2010Prop49
280
     0
102
RTVSPost2010PropOp49
 70
     1
102
RTVSPost2010Prop50
 90
       50
102
RTVSPost2010PropOp50
 70
     1
102
RTVSPost2010Prop51ColorIndex
 90
      256
102
RTVSPost2010Prop51ColorRGB
 90
-16777216
102
RTVSPost2010PropOp51
 70
     0
102
RTVSPost2010Prop52
140
1.0
102
RTVSPost2010PropOp52
 70
     0
102
RTVSPost2010Prop53
 90
        2
102
RTVSPost2010PropOp53
 70
     1
102
RTVSPost2010Prop54
  1
strokes_ogs.tif
102
RTVSPost2010PropOp54
 70
     1
102
RTVSPost2010Prop55
280
     0
102
RTVSPost2010PropOp55
 70
     1
102
RTVSPost2010Prop56
140
1.0
102
RTVSPost2010PropOp56
 70
     1
102
RTVSPost2010Prop57
140
1.0
102
RTVSPost2010PropOp57
 70
     1
  0
ENDSEC
  0
EOF
