  0
SECTION
  2
HEADER
  9
$ACADVER
  1
AC1018
  9
$ACADMAINTVER
 70
     0
  9
$DWGCODEPAGE
  3
ANSI_932
  9
$INSBASE
 10
0.0
 20
0.0
 30
0.0
  9
$EXTMIN
 10
-840.0
 20
-594.0
 30
0.0
  9
$EXTMAX
 10
840.0
 20
594.0
 30
0.0
  9
$LIMMIN
 10
-840.0
 20
-594.0
  9
$LIMMAX
 10
840.0
 20
594.0
  9
$ORTHOMODE
 70
     0
  9
$REGENMODE
 70
     1
  9
$FILLMODE
 70
     1
  9
$QTEXTMODE
 70
     0
  9
$MIRRTEXT
 70
     1
  9
$LTSCALE
 40
4.0
  9
$ATTMODE
 70
     1
  9
$TEXTSIZE
 40
2.5
  9
$TRACEWID
 40
1.0
  9
$TEXTSTYLE
  7
Standard
  9
$CLAYER
  8
0
  9
$CELTYPE
  6
ByLayer
  9
$CECOLOR
 62
   256
  9
$CELTSCALE
 40
1.0
  9
$DISPSILH
 70
     0
  9
$DIMSCALE
 40
1.0
  9
$DIMASZ
 40
2.5
  9
$DIMEXO
 40
0.625
  9
$DIMDLI
 40
3.75
  9
$DIMRND
 40
0.0
  9
$DIMDLE
 40
0.0
  9
$DIMEXE
 40
1.25
  9
$DIMTP
 40
0.0
  9
$DIMTM
 40
0.0
  9
$DIMTXT
 40
2.5
  9
$DIMCEN
 40
2.5
  9
$DIMTSZ
 40
0.0
  9
$DIMTOL
 70
     0
  9
$DIMLIM
 70
     0
  9
$DIMTIH
 70
     0
  9
$DIMTOH
 70
     0
  9
$DIMSE1
 70
     0
  9
$DIMSE2
 70
     0
  9
$DIMTAD
 70
     1
  9
$DIMZIN
 70
     8
  9
$DIMBLK
  1

  9
$DIMASO
 70
     1
  9
$DIMSHO
 70
     1
  9
$DIMPOST
  1

  9
$DIMAPOST
  1

  9
$DIMALT
 70
     0
  9
$DIMALTD
 70
     3
  9
$DIMALTF
 40
0.03937007874016
  9
$DIMLFAC
 40
1.0
  9
$DIMTOFL
 70
     1
  9
$DIMTVP
 40
0.0
  9
$DIMTIX
 70
     0
  9
$DIMSOXD
 70
     0
  9
$DIMSAH
 70
     0
  9
$DIMBLK1
  1

  9
$DIMBLK2
  1

  9
$DIMSTYLE
  2
ISO-25
  9
$DIMCLRD
 70
     0
  9
$DIMCLRE
 70
     0
  9
$DIMCLRT
 70
     0
  9
$DIMTFAC
 40
1.0
  9
$DIMGAP
 40
0.625
  9
$DIMJUST
 70
     0
  9
$DIMSD1
 70
     0
  9
$DIMSD2
 70
     0
  9
$DIMTOLJ
 70
     0
  9
$DIMTZIN
 70
     8
  9
$DIMALTZ
 70
     0
  9
$DIMALTTZ
 70
     0
  9
$DIMUPT
 70
     0
  9
$DIMDEC
 70
     2
  9
$DIMTDEC
 70
     2
  9
$DIMALTU
 70
     2
  9
$DIMALTTD
 70
     3
  9
$DIMTXSTY
  7
Standard
  9
$DIMAUNIT
 70
     0
  9
$DIMADEC
 70
     0
  9
$DIMALTRND
 40
0.0
  9
$DIMAZIN
 70
     0
  9
$DIMDSEP
 70
    44
  9
$DIMATFIT
 70
     3
  9
$DIMFRAC
 70
     0
  9
$DIMLDRBLK
  1

  9
$DIMLUNIT
 70
     2
  9
$DIMLWD
 70
    -2
  9
$DIMLWE
 70
    -2
  9
$DIMTMOVE
 70
     0
  9
$LUNITS
 70
     2
  9
$LUPREC
 70
     4
  9
$SKETCHINC
 40
1.0
  9
$FILLETRAD
 40
10.0
  9
$AUNITS
 70
     0
  9
$AUPREC
 70
     0
  9
$MENU
  1
.
  9
$ELEVATION
 40
0.0
  9
$PELEVATION
 40
0.0
  9
$THICKNESS
 40
0.0
  9
$LIMCHECK
 70
     0
  9
$CHAMFERA
 40
0.0
  9
$CHAMFERB
 40
0.0
  9
$CHAMFERC
 40
0.0
  9
$CHAMFERD
 40
0.0
  9
$SKPOLY
 70
     0
  9
$TDCREATE
 40
2460055.496803345
  9
$TDUCREATE
 40
2460055.121803345
  9
$TDUPDATE
 40
2460055.49680353
  9
$TDUUPDATE
 40
2460055.12180353
  9
$TDINDWG
 40
0.0000000116
  9
$TDUSRTIMER
 40
0.0000000116
  9
$USRTIMER
 70
     1
  9
$ANGBASE
 50
0.0
  9
$ANGDIR
 70
     0
  9
$PDMODE
 70
     0
  9
$PDSIZE
 40
0.0
  9
$PLINEWID
 40
0.0
  9
$SPLFRAME
 70
     0
  9
$SPLINETYPE
 70
     6
  9
$SPLINESEGS
 70
     8
  9
$HANDSEED
  5
43A
  9
$SURFTAB1
 70
     6
  9
$SURFTAB2
 70
     6
  9
$SURFTYPE
 70
     6
  9
$SURFU
 70
     6
  9
$SURFV
 70
     6
  9
$UCSBASE
  2

  9
$UCSNAME
  2

  9
$UCSORG
 10
0.0
 20
0.0
 30
0.0
  9
$UCSXDIR
 10
1.0
 20
0.0
 30
0.0
  9
$UCSYDIR
 10
0.0
 20
1.0
 30
0.0
  9
$UCSORTHOREF
  2

  9
$UCSORTHOVIEW
 70
     0
  9
$UCSORGTOP
 10
0.0
 20
0.0
 30
0.0
  9
$UCSORGBOTTOM
 10
0.0
 20
0.0
 30
0.0
  9
$UCSORGLEFT
 10
0.0
 20
0.0
 30
0.0
  9
$UCSORGRIGHT
 10
0.0
 20
0.0
 30
0.0
  9
$UCSORGFRONT
 10
0.0
 20
0.0
 30
0.0
  9
$UCSORGBACK
 10
0.0
 20
0.0
 30
0.0
  9
$PUCSBASE
  2

  9
$PUCSNAME
  2

  9
$PUCSORG
 10
0.0
 20
0.0
 30
0.0
  9
$PUCSXDIR
 10
1.0
 20
0.0
 30
0.0
  9
$PUCSYDIR
 10
0.0
 20
1.0
 30
0.0
  9
$PUCSORTHOREF
  2

  9
$PUCSORTHOVIEW
 70
     0
  9
$PUCSORGTOP
 10
0.0
 20
0.0
 30
0.0
  9
$PUCSORGBOTTOM
 10
0.0
 20
0.0
 30
0.0
  9
$PUCSORGLEFT
 10
0.0
 20
0.0
 30
0.0
  9
$PUCSORGRIGHT
 10
0.0
 20
0.0
 30
0.0
  9
$PUCSORGFRONT
 10
0.0
 20
0.0
 30
0.0
  9
$PUCSORGBACK
 10
0.0
 20
0.0
 30
0.0
  9
$USERI1
 70
     0
  9
$USERI2
 70
     0
  9
$USERI3
 70
     0
  9
$USERI4
 70
     0
  9
$USERI5
 70
     0
  9
$USERR1
 40
0.0
  9
$USERR2
 40
0.0
  9
$USERR3
 40
0.0
  9
$USERR4
 40
0.0
  9
$USERR5
 40
0.0
  9
$WORLDVIEW
 70
     1
  9
$SHADEDGE
 70
     3
  9
$SHADEDIF
 70
    70
  9
$TILEMODE
 70
     1
  9
$MAXACTVP
 70
    64
  9
$PINSBASE
 10
0.0
 20
0.0
 30
0.0
  9
$PLIMCHECK
 70
     0
  9
$PEXTMIN
 10
1.000000000000000E+20
 20
1.000000000000000E+20
 30
1.000000000000000E+20
  9
$PEXTMAX
 10
-1.000000000000000E+20
 20
-1.000000000000000E+20
 30
-1.000000000000000E+20
  9
$PLIMMIN
 10
0.0
 20
0.0
  9
$PLIMMAX
 10
420.0
 20
297.0
  9
$UNITMODE
 70
     0
  9
$VISRETAIN
 70
     1
  9
$PLINEGEN
 70
     0
  9
$PSLTSCALE
 70
     1
  9
$TREEDEPTH
 70
  3020
  9
$CMLSTYLE
  2
Standard
  9
$CMLJUST
 70
     0
  9
$CMLSCALE
 40
20.0
  9
$PROXYGRAPHICS
 70
     1
  9
$MEASUREMENT
 70
     1
  9
$CELWEIGHT
370
    -1
  9
$ENDCAPS
280
     0
  9
$JOINSTYLE
280
     0
  9
$LWDISPLAY
290
     0
  9
$INSUNITS
 70
     4
  9
$HYPERLINKBASE
  1

  9
$STYLESHEET
  1

  9
$XEDIT
290
     1
  9
$CEPSNTYPE
380
     0
  9
$PSTYLEMODE
290
     1
  9
$FINGERPRINTGUID
  2
{E31BA58E-1F07-479D-BC57-ABF090600F8F}
  9
$VERSIONGUID
  2
{FAEB1C32-E019-11D5-929B-00C0DF256EC4}
  9
$EXTNAMES
290
     1
  9
$PSVPSCALE
 40
0.0
  9
$OLESTARTUP
290
     0
  9
$SORTENTS
280
   127
  9
$INDEXCTL
280
     0
  9
$HIDETEXT
280
     1
  9
$XCLIPFRAME
290
     0
  9
$HALOGAP
280
     0
  9
$OBSCOLOR
 70
   257
  9
$OBSLTYPE
280
     0
  9
$INTERSECTIONDISPLAY
280
     0
  9
$INTERSECTIONCOLOR
 70
   257
  9
$DIMASSOC
280
     2
  9
$PROJECTNAME
  1

  0
ENDSEC
  0
SECTION
  2
CLASSES
  0
CLASS
  1
ACDBDICTIONARYWDFLT
  2
AcDbDictionaryWithDefault
  3
ObjectDBX Classes
 90
        0
 91
        4
280
     0
281
     0
  0
CLASS
  1
VISUALSTYLE
  2
AcDbVisualStyle
  3
ObjectDBX Classes
 90
     4095
 91
        4
280
     0
281
     0
  0
CLASS
  1
MATERIAL
  2
AcDbMaterial
  3
ObjectDBX Classes
 90
     1153
 91
        4
280
     0
281
     0
  0
CLASS
  1
SCALE
  2
AcDbScale
  3
ObjectDBX Classes
 90
     1153
 91
        4
280
     0
281
     0
  0
CLASS
  1
TABLESTYLE
  2
AcDbTableStyle
  3
ObjectDBX Classes
 90
     4095
 91
        4
280
     0
281
     0
  0
CLASS
  1
MLEADERSTYLE
  2
AcDbMLeaderStyle
  3
ACDB_MLEADERSTYLE_CLASS
 90
     4095
 91
        4
280
     0
281
     0
  0
CLASS
  1
SUN
  2
AcDbSun
  3
SCENEOE
 90
     1153
 91
        4
280
     0
281
     0
  0
CLASS
  1
DICTIONARYVAR
  2
AcDbDictionaryVar
  3
ObjectDBX Classes
 90
        0
 91
        4
280
     0
281
     0
  0
CLASS
  1
CELLSTYLEMAP
  2
AcDbCellStyleMap
  3
ObjectDBX Classes
 90
     1152
 91
        4
280
     0
281
     0
  0
ENDSEC
  0
SECTION
  2
TABLES
  0
TABLE
  2
VPORT
  5
8
102
{ACAD_XDICTIONARY
360
3F1
102
}
330
0
100
AcDbSymbolTable
 70
     1
  0
VPORT
  5
29
330
8
100
AcDbSymbolTableRecord
100
AcDbViewportTableRecord
  2
*Active
 70
     0
 10
0.0
 20
0.0
 11
1.0
 21
1.0
 12
0.0
 22
0.0
 13
0.0
 23
0.0
 14
10.0
 24
10.0
 15
10.0
 25
10.0
 16
0.0
 26
0.0
 36
1.0
 17
0.0
 27
0.0
 37
0.0
 40
1306.8
 41
1.414141414141414
 42
50.0
 43
0.0
 44
0.0
 50
0.0
 51
0.0
 71
     0
 72
 10000
 73
     1
 74
     3
 75
     0
 76
     0
 77
     0
 78
     0
281
     0
 65
     1
110
0.0
120
0.0
130
0.0
111
1.0
121
0.0
131
0.0
112
0.0
122
1.0
132
0.0
 79
     0
146
0.0
  0
ENDTAB
  0
TABLE
  2
LTYPE
  5
5
330
0
100
AcDbSymbolTable
 70
     4
  0
LTYPE
  5
14
330
5
100
AcDbSymbolTableRecord
100
AcDbLinetypeTableRecord
  2
ByBlock
 70
     0
  3

 72
    65
 73
     0
 40
0.0
  0
LTYPE
  5
15
330
5
100
AcDbSymbolTableRecord
100
AcDbLinetypeTableRecord
  2
ByLayer
 70
     0
  3

 72
    65
 73
     0
 40
0.0
  0
LTYPE
  5
16
330
5
100
AcDbSymbolTableRecord
100
AcDbLinetypeTableRecord
  2
Continuous
 70
     0
  3
Solid line
 72
    65
 73
     0
 40
0.0
  0
LTYPE
  5
6F
330
5
100
AcDbSymbolTableRecord
100
AcDbLinetypeTableRecord
  2
JWW_CENTER1
 70
     0
  3
-----  --  ----------  --  -----
 72
    65
 73
     4
 40
6.773333333333333
 49
4.233333333333333
 74
     0
 49
-0.8466666666666667
 74
     0
 49
0.8466666666666667
 74
     0
 49
-0.8466666666666667
 74
     0
  0
LTYPE
  5
70
330
5
100
AcDbSymbolTableRecord
100
AcDbLinetypeTableRecord
  2
JWW_DASHED1
 70
     0
  3
-  --  --  --  --  --  --  --  -
 72
    65
 73
     2
 40
1.693333333333333
 49
0.8466666666666667
 74
     0
 49
-0.8466666666666667
 74
     0
  0
LTYPE
  5
71
330
5
100
AcDbSymbolTableRecord
100
AcDbLinetypeTableRecord
  2
JWW_HOJO
 70
     0
  3
  -   -   -   -   -   -   -   - 
 72
    65
 73
     2
 40
1.693333333333333
 49
-1.27
 74
     0
 49
0.4233333333333333
 74
     0
  0
ENDTAB
  0
TABLE
  2
LAYER
  5
2
330
0
100
AcDbSymbolTable
 70
    12
  0
LAYER
  5
10
330
2
100
AcDbSymbolTableRecord
100
AcDbLayerTableRecord
  2
0
 70
     0
 62
     7
  6
Continuous
370
    -3
390
F
  0
LAYER
  5
72
330
2
100
AcDbSymbolTableRecord
100
AcDbLayerTableRecord
  2
1-9
 70
     0
 62
     7
  6
Continuous
370
    -3
390
F
  0
LAYER
  5
73
330
2
100
AcDbSymbolTableRecord
100
AcDbLayerTableRecord
  2
1-1ﾚｲﾔ
 70
     0
 62
     7
  6
Continuous
370
    -3
390
F
  0
LAYER
  5
74
330
2
100
AcDbSymbolTableRecord
100
AcDbLayerTableRecord
  2
1-0ﾚｲﾔ
 70
     0
 62
     7
  6
Continuous
370
    -3
390
F
  0
LAYER
  5
75
330
2
100
AcDbSymbolTableRecord
100
AcDbLayerTableRecord
  2
1-3ﾚｲﾔ
 70
     0
 62
     7
  6
Continuous
370
    -3
390
F
  0
LAYER
  5
76
330
2
100
AcDbSymbolTableRecord
100
AcDbLayerTableRecord
  2
1-A
 70
     0
 62
     7
  6
Continuous
370
    -3
390
F
  0
LAYER
  5
77
330
2
100
AcDbSymbolTableRecord
100
AcDbLayerTableRecord
  2
1-F
 70
     0
 62
     7
  6
Continuous
370
    -3
390
F
  0
LAYER
  5
78
330
2
100
AcDbSymbolTableRecord
100
AcDbLayerTableRecord
  2
1-2ﾚｲﾔ
 70
     0
 62
     7
  6
Continuous
370
    -3
390
F
  0
LAYER
  5
79
330
2
100
AcDbSymbolTableRecord
100
AcDbLayerTableRecord
  2
1-4ﾚｲﾔ
 70
     0
 62
     7
  6
Continuous
370
    -3
390
F
  0
LAYER
  5
7A
330
2
100
AcDbSymbolTableRecord
100
AcDbLayerTableRecord
  2
1-5ﾚｲﾔ
 70
     0
 62
     7
  6
Continuous
370
    -3
390
F
  0
LAYER
  5
7B
330
2
100
AcDbSymbolTableRecord
100
AcDbLayerTableRecord
  2
1-8
 70
     0
 62
     7
  6
Continuous
370
    -3
390
F
  0
LAYER
  5
7C
330
2
100
AcDbSymbolTableRecord
100
AcDbLayerTableRecord
  2
F-5ﾚｲﾔ
 70
     0
 62
     7
  6
Continuous
370
    -3
390
F
  0
ENDTAB
  0
TABLE
  2
STYLE
  5
3
330
0
100
AcDbSymbolTable
 70
     2
  0
STYLE
  5
11
330
3
100
AcDbSymbolTableRecord
100
AcDbTextStyleTableRecord
  2
Standard
 70
     0
 40
0.0
 41
1.0
 50
0.0
 71
     0
 42
2.5
  3
txt
  4

  0
STYLE
  5
6E
330
3
100
AcDbSymbolTableRecord
100
AcDbTextStyleTableRecord
  2
ＭＳ ゴシック
 70
     0
 40
1.0
 41
1.0
 50
0.0
 71
     0
 42
2.5
  3

  4

1001
ACAD
1000
MS Gothic
1071
    32817
  0
ENDTAB
  0
TABLE
  2
VIEW
  5
6
330
0
100
AcDbSymbolTable
 70
     0
  0
ENDTAB
  0
TABLE
  2
UCS
  5
7
330
0
100
AcDbSymbolTable
 70
     0
  0
ENDTAB
  0
TABLE
  2
APPID
  5
9
330
0
100
AcDbSymbolTable
 70
     2
  0
APPID
  5
12
330
9
100
AcDbSymbolTableRecord
100
AcDbRegAppTableRecord
  2
ACAD
 70
     0
  0
APPID
  5
430
330
9
100
AcDbSymbolTableRecord
100
AcDbRegAppTableRecord
  2
ACAD_MLEADERVER
 70
     0
  0
ENDTAB
  0
TABLE
  2
DIMSTYLE
  5
A
330
0
100
AcDbSymbolTable
 70
     1
100
AcDbDimStyleTable
  0
DIMSTYLE
105
27
330
A
100
AcDbSymbolTableRecord
100
AcDbDimStyleTableRecord
  2
ISO-25
 70
     0
 41
2.5
 42
0.625
 43
3.75
 44
1.25
 73
     0
 74
     0
 77
     1
 78
     8
140
2.5
141
2.5
143
0.03937007874016
147
0.625
171
     3
172
     1
178
     0
271
     2
272
     2
274
     3
278
    44
283
     0
284
     8
340
11
  0
ENDTAB
  0
TABLE
  2
BLOCK_RECORD
  5
1
330
0
100
AcDbSymbolTable
 70
     1
  0
BLOCK_RECORD
  5
1F
330
1
100
AcDbSymbolTableRecord
100
AcDbBlockTableRecord
  2
*Model_Space
340
22
  0
BLOCK_RECORD
  5
1B
330
1
100
AcDbSymbolTableRecord
100
AcDbBlockTableRecord
  2
*Paper_Space
340
1E
  0
BLOCK_RECORD
  5
23
330
1
100
AcDbSymbolTableRecord
100
AcDbBlockTableRecord
  2
*Paper_Space0
340
26
  0
ENDTAB
  0
ENDSEC
  0
SECTION
  2
BLOCKS
  0
BLOCK
  5
20
330
1F
100
AcDbEntity
  8
0
100
AcDbBlockBegin
  2
*Model_Space
 70
     0
 10
0.0
 20
0.0
 30
0.0
  3
*Model_Space
  1

  0
ENDBLK
  5
21
330
1F
100
AcDbEntity
  8
0
100
AcDbBlockEnd
  0
BLOCK
  5
1C
330
1B
100
AcDbEntity
 67
     1
  8
0
100
AcDbBlockBegin
  2
*Paper_Space
 70
     0
 10
0.0
 20
0.0
 30
0.0
  3
*Paper_Space
  1

  0
ENDBLK
  5
1D
330
1B
100
AcDbEntity
 67
     1
  8
0
100
AcDbBlockEnd
  0
BLOCK
  5
24
330
23
100
AcDbEntity
  8
0
100
AcDbBlockBegin
  2
*Paper_Space0
 70
     0
 10
0.0
 20
0.0
 30
0.0
  3
*Paper_Space0
  1

  0
ENDBLK
  5
25
330
23
100
AcDbEntity
  8
0
100
AcDbBlockEnd
  0
ENDSEC
  0
SECTION
  2
ENTITIES
  0
ARC
  5
7D
330
1F
100
AcDbEntity
  8
1-9
  6
Continuous
 62
     4
370
     9
100
AcDbCircle
 10
-12.53775686921479
 20
402.8924947606053
 30
0.0
 40
6.500000605712065
100
AcDbArc
 50
214.083649112422
 51
278.2369131133069
  0
LINE
  5
7E
330
1F
100
AcDbEntity
  8
1-1ﾚｲﾔ
  6
Continuous
 62
     2
370
     9
100
AcDbLine
 10
-148.874714263141
 20
-88.25299822788348
 30
0.0
 11
-148.2916465937696
 21
-91.05180231587211
 31
0.0
  0
ARC
  5
7F
330
1F
100
AcDbEntity
  8
1-0ﾚｲﾔ
  6
Continuous
 62
     3
370
     9
100
AcDbCircle
 10
-52.54061877587769
 20
333.6151802909844
 30
0.0
 40
148.0000255687817
100
AcDbArc
 50
0.0
 51
180.0
  0
LINE
  5
80
330
1F
100
AcDbEntity
  8
1-0ﾚｲﾔ
  6
JWW_CENTER1
 62
     3
370
     9
100
AcDbLine
 10
-213.2079725208139
 20
333.6151802909845
 30
0.0
 11
106.311462496789
 21
333.6151802909844
 31
0.0
  0
ARC
  5
81
330
1F
100
AcDbEntity
  8
1-0ﾚｲﾔ
  6
Continuous
 62
     3
370
     9
100
AcDbCircle
 10
-52.54061877587769
 20
333.6151802909844
 30
0.0
 40
150.0000282788369
100
AcDbArc
 50
0.0
 51
179.9999999999999
  0
ARC
  5
82
330
1F
100
AcDbEntity
  8
1-0ﾚｲﾔ
  6
Continuous
 62
     3
370
     9
100
AcDbCircle
 10
-52.54061877587769
 20
333.6151802909844
 30
0.0
 40
149.000009426279
100
AcDbArc
 50
0.0
 51
180.0
  0
LINE
  5
83
330
1F
100
AcDbEntity
  8
1-0ﾚｲﾔ
  6
JWW_CENTER1
 62
     3
370
     9
100
AcDbLine
 10
-52.54061877587772
 20
302.9501621984562
 30
0.0
 11
-52.54061877587772
 21
510.8818363371155
 31
0.0
  0
LINE
  5
84
330
1F
100
AcDbEntity
  8
1-0ﾚｲﾔ
  6
JWW_DASHED1
 62
     3
370
     9
100
AcDbLine
 10
-135.8402189720385
 20
-105.8532392655204
 30
0.0
 11
-136.7963890136272
 21
-101.0809278523703
 31
0.0
  0
LINE
  5
85
330
1F
100
AcDbEntity
  8
1-0ﾚｲﾔ
  6
Continuous
 62
     3
370
     9
100
AcDbLine
 10
33.99378484466173
 20
-100.3534855270582
 30
0.0
 11
32.76902771273911
 21
-99.64637533197184
 31
0.0
  0
LINE
  5
86
330
1F
100
AcDbEntity
  8
1-0ﾚｲﾔ
  6
Continuous
 62
     3
370
     9
100
AcDbLine
 10
35.44265034485785
 20
-99.96525032443093
 30
0.0
 11
33.99378484466173
 21
-100.3534855270582
 31
0.0
  0
LINE
  5
87
330
1F
100
AcDbEntity
  8
1-0ﾚｲﾔ
  6
Continuous
 62
     3
370
     9
100
AcDbLine
 10
35.44265034485785
 20
-99.96525032443093
 30
0.0
 11
36.14976053994406
 21
-98.7404931925082
 31
0.0
  0
LINE
  5
88
330
1F
100
AcDbEntity
  8
1-0ﾚｲﾔ
  6
Continuous
 62
     3
370
     9
100
AcDbLine
 10
-202.5406470547147
 20
-90.84854709951229
 30
0.0
 11
-201.5406282021567
 21
-91.84849596194896
 31
0.0
  0
LINE
  5
89
330
1F
100
AcDbEntity
  8
1-0ﾚｲﾔ
  6
Continuous
 62
     3
370
     9
100
AcDbLine
 10
-201.5406282021567
 20
-91.84849596194896
 30
0.0
 11
-196.5406389245489
 21
-91.84849596194896
 31
0.0
  0
LINE
  5
8A
330
1F
100
AcDbEntity
  8
1-0ﾚｲﾔ
  6
Continuous
 62
     3
370
     9
100
AcDbLine
 10
-139.0750048988868
 20
-100.3534855270582
 30
0.0
 11
-137.8502477669642
 21
-99.64637533197184
 31
0.0
  0
LINE
  5
8B
330
1F
100
AcDbEntity
  8
1-0ﾚｲﾔ
  6
Continuous
 62
     3
370
     9
100
AcDbLine
 10
-140.5238703990829
 20
-99.96525032443093
 30
0.0
 11
-139.0750048988868
 21
-100.3534855270582
 31
0.0
  0
LINE
  5
8C
330
1F
100
AcDbEntity
  8
1-0ﾚｲﾔ
  6
Continuous
 62
     3
370
     9
100
AcDbLine
 10
-140.5238703990829
 20
-99.96525032443093
 30
0.0
 11
-141.2309805941692
 21
-98.7404931925082
 31
0.0
  0
LINE
  5
8D
330
1F
100
AcDbEntity
  8
1-0ﾚｲﾔ
  6
Continuous
 62
     3
370
     9
100
AcDbLine
 10
-144.6964889557499
 20
-107.8485176423905
 30
0.0
 11
-142.3603586883453
 21
-107.8485176423905
 31
0.0
  0
LINE
  5
8E
330
1F
100
AcDbEntity
  8
1-0ﾚｲﾔ
  6
Continuous
 62
     3
370
     9
100
AcDbLine
 10
-139.7207512551588
 20
-112.8485419150589
 30
0.0
 11
-128.3589749105942
 21
-112.8485419150589
 31
0.0
  0
LINE
  5
8F
330
1F
100
AcDbEntity
  8
1-0ﾚｲﾔ
  6
Continuous
 62
     3
370
     9
100
AcDbLine
 10
-140.7013128540064
 20
-112.0446353822705
 30
0.0
 11
-141.3797795919672
 21
-108.6523891801183
 31
0.0
  0
LINE
  5
90
330
1F
100
AcDbEntity
  8
1-0ﾚｲﾔ
  6
Continuous
 62
     3
370
     9
100
AcDbLine
 10
-120.9395321262224
 20
-114.3257884094257
 30
0.0
 11
-118.031845031081
 21
-160.8485369662624
 31
0.0
  0
LINE
  5
91
330
1F
100
AcDbEntity
  8
1-0ﾚｲﾔ
  6
Continuous
 62
     3
370
     9
100
AcDbLine
 10
-121.6011662400201
 20
-160.8485369662624
 30
0.0
 11
16.51991119073443
 21
-160.8485369662624
 31
0.0
  0
LINE
  5
92
330
1F
100
AcDbEntity
  8
1-0ﾚｲﾔ
  6
Continuous
 62
     3
370
     9
100
AcDbLine
 10
37.27912113658989
 20
-107.8485176423905
 30
0.0
 11
39.61525140399454
 21
-107.8485176423905
 31
0.0
  0
LINE
  5
93
330
1F
100
AcDbEntity
  8
1-0ﾚｲﾔ
  6
Continuous
 62
     3
370
     9
100
AcDbLine
 10
23.27773735883887
 20
-112.8485419150589
 30
0.0
 11
34.63951370340329
 21
-112.8485419150589
 31
0.0
  0
LINE
  5
94
330
1F
100
AcDbEntity
  8
1-0ﾚｲﾔ
  6
Continuous
 62
     3
370
     9
100
AcDbLine
 10
35.62007530225106
 20
-112.0446353822705
 30
0.0
 11
36.29855953774211
 21
-108.6524241751789
 31
0.0
  0
LINE
  5
95
330
1F
100
AcDbEntity
  8
1-0ﾚｲﾔ
  6
Continuous
 62
     3
370
     9
100
AcDbLine
 10
-146.2176367536769
 20
-103.8728337894179
 30
0.0
 11
-145.6822998136922
 21
-107.0164050907346
 31
0.0
  0
LINE
  5
96
330
1F
100
AcDbEntity
  8
1-0ﾚｲﾔ
  6
Continuous
 62
     3
370
     9
100
AcDbLine
 10
41.13641669945185
 20
-103.8728687844785
 30
0.0
 11
40.60106226193671
 21
-107.0164050907346
 31
0.0
  0
LINE
  5
97
330
1F
100
AcDbEntity
  8
1-0ﾚｲﾔ
  6
Continuous
 62
     3
370
     9
100
AcDbLine
 10
-201.6501189981022
 20
-83.72449762191671
 30
0.0
 11
-202.5406470547147
 21
-90.84854709951229
 31
0.0
  0
LINE
  5
98
330
1F
100
AcDbEntity
  8
1-0ﾚｲﾔ
  6
Continuous
 62
     3
370
     9
100
AcDbLine
 10
16.23186684669032
 20
-108.3485270686696
 30
0.0
 11
-121.313121895976
 21
-108.3485270686696
 31
0.0
  0
LINE
  5
99
330
1F
100
AcDbEntity
  8
1-0ﾚｲﾔ
  6
Continuous
 62
     3
370
     9
100
AcDbLine
 10
30.75898142028314
 20
-105.8532392655204
 30
0.0
 11
31.71515146187188
 21
-101.0809278523703
 31
0.0
  0
LINE
  5
9A
330
1F
100
AcDbEntity
  8
1-0ﾚｲﾔ
  6
Continuous
 62
     3
370
     9
100
AcDbLine
 10
15.84958080437014
 20
-114.4649637655506
 30
0.0
 11
12.95060747932563
 21
-160.8485369662624
 31
0.0
  0
LINE
  5
9B
330
1F
100
AcDbEntity
  8
1-0ﾚｲﾔ
  6
Continuous
 62
     3
370
     9
100
AcDbLine
 10
22.34515398811471
 20
-107.9188227191959
 30
0.0
 11
28.93818841571329
 21
-107.4554181263357
 31
0.0
  0
LINE
  5
9C
330
1F
100
AcDbEntity
  8
1-0ﾚｲﾔ
  6
JWW_DASHED1
 62
     3
370
     9
100
AcDbLine
 10
-127.4263915398701
 20
-107.9188227191959
 30
0.0
 11
-134.0194259674687
 21
-107.4554181263357
 31
0.0
  0
LINE
  5
9D
330
1F
100
AcDbEntity
  8
1-0ﾚｲﾔ
  6
Continuous
 62
     3
370
     9
100
AcDbLine
 10
-138.2397865355999
 20
-99.54205505623439
 30
0.0
 11
-200.5406443446594
 21
-82.84853625929155
 31
0.0
  0
LINE
  5
9E
330
1F
100
AcDbEntity
  8
1-0ﾚｲﾔ
  6
Continuous
 62
     3
370
     9
100
AcDbLine
 10
-123.5406274951857
 20
-109.4385182221067
 30
0.0
 11
-125.3577285208591
 21
-101.6221264650106
 31
0.0
  0
LINE
  5
9F
330
1F
100
AcDbEntity
  8
1-0ﾚｲﾔ
  6
Continuous
 62
     3
370
     9
100
AcDbLine
 10
29.45741013027806
 20
-107.3485082161117
 30
0.0
 11
-124.0264989169702
 21
-107.3485082161117
 31
0.0
  0
ARC
  5
A0
330
1F
100
AcDbEntity
  8
1-0ﾚｲﾔ
  6
Continuous
 62
     3
370
     9
100
AcDbCircle
 10
-128.3589749105942
 20
-115.8485284826114
 30
0.0
 40
2.999999964099133
100
AcDbArc
 50
3.576370239257812
 51
90.00000000000001
  0
ARC
  5
A1
330
1F
100
AcDbEntity
  8
1-0ﾚｲﾔ
  6
Continuous
 62
     3
370
     9
100
AcDbCircle
 10
-144.6964889557499
 20
-106.8484987898326
 30
0.0
 40
0.9999999880330442
100
AcDbArc
 50
189.664794921875
 51
270.0
  0
ARC
  5
A2
330
1F
100
AcDbEntity
  8
1-0ﾚｲﾔ
  6
Continuous
 62
     3
370
     9
100
AcDbCircle
 10
-142.3603586883453
 20
-108.8485014998879
 30
0.0
 40
0.9999999880330442
100
AcDbArc
 50
11.30973815917969
 51
90.0
  0
ARC
  5
A3
330
1F
100
AcDbEntity
  8
1-0ﾚｲﾔ
  6
Continuous
 62
     3
370
     9
100
AcDbCircle
 10
-139.7207512551588
 20
-111.8485230625009
 30
0.0
 40
0.9999999880330442
100
AcDbArc
 50
191.3099822998047
 51
270.0
  0
ARC
  5
A4
330
1F
100
AcDbEntity
  8
1-0ﾚｲﾔ
  6
Continuous
 62
     3
370
     9
100
AcDbCircle
 10
-121.6011662400201
 20
-159.8485181137045
 30
0.0
 40
0.9999999880330442
100
AcDbArc
 50
183.5764312744141
 51
270.0
  0
ARC
  5
A5
330
1F
100
AcDbEntity
  8
1-0ﾚｲﾔ
  6
Continuous
 62
     3
370
     9
100
AcDbCircle
 10
16.51991119073443
 20
-159.8485181137045
 30
0.0
 40
0.9999999880330442
100
AcDbArc
 50
270.0
 51
356.4236602783204
  0
ARC
  5
A6
330
1F
100
AcDbEntity
  8
1-0ﾚｲﾔ
  6
Continuous
 62
     3
370
     9
100
AcDbCircle
 10
23.27773735883887
 20
-115.8485284826114
 30
0.0
 40
2.999999964099133
100
AcDbArc
 50
90.0
 51
176.4236602783203
  0
ARC
  5
A7
330
1F
100
AcDbEntity
  8
1-0ﾚｲﾔ
  6
Continuous
 62
     3
370
     9
100
AcDbCircle
 10
34.63951370340329
 20
-111.8485230625009
 30
0.0
 40
0.9999999880330442
100
AcDbArc
 50
270.0
 51
348.6900634765624
  0
ARC
  5
A8
330
1F
100
AcDbEntity
  8
1-0ﾚｲﾔ
  6
Continuous
 62
     3
370
     9
100
AcDbCircle
 10
37.27912113658989
 20
-108.8485364949484
 30
0.0
 40
0.9999999880330442
100
AcDbArc
 50
90.0
 51
168.6898193359375
  0
ARC
  5
A9
330
1F
100
AcDbEntity
  8
1-0ﾚｲﾔ
  6
Continuous
 62
     3
370
     9
100
AcDbCircle
 10
39.61525140399454
 20
-106.8484987898326
 30
0.0
 40
0.9999999880330442
100
AcDbArc
 50
270.0
 51
350.3354492187501
  0
ARC
  5
AA
330
1F
100
AcDbEntity
  8
1-0ﾚｲﾔ
  6
Continuous
 62
     3
370
     9
100
AcDbCircle
 10
-200.6578340539435
 20
-83.84852011678878
 30
0.0
 40
0.9999999880330442
100
AcDbArc
 50
90.0
 51
172.8757934570312
  0
ARC
  5
AB
330
1F
100
AcDbEntity
  8
1-0ﾚｲﾔ
  6
Continuous
 62
     3
370
     9
100
AcDbCircle
 10
33.67616967438551
 20
-101.4738173980614
 30
0.0
 40
1.999999976066088
100
AcDbArc
 50
104.9991607666016
 51
168.6698150634766
  0
ARC
  5
AC
330
1F
100
AcDbEntity
  8
1-0ﾚｲﾔ
  6
Continuous
 62
     3
370
     9
100
AcDbCircle
 10
28.79796320776962
 20
-105.4603497198293
 30
0.0
 40
1.999999976066088
100
AcDbArc
 50
274.0204772949219
 51
348.6698150634766
  0
ARC
  5
AD
330
1F
100
AcDbEntity
  8
1-0ﾚｲﾔ
  6
Continuous
 62
     3
370
     9
100
AcDbCircle
 10
22.83595971344801
 20
-114.9015971370289
 30
0.0
 40
7.000000189630221
100
AcDbArc
 50
94.02059936523438
 51
176.4237976074218
  0
ARC
  5
AE
330
1F
100
AcDbEntity
  8
1-0ﾚｲﾔ
  6
JWW_DASHED1
 62
     3
370
     9
100
AcDbCircle
 10
-133.879200759525
 20
-105.4603497198293
 30
0.0
 40
1.999999976066088
100
AcDbArc
 50
191.3301849365234
 51
265.9795227050781
  0
ARC
  5
AF
330
1F
100
AcDbEntity
  8
1-0ﾚｲﾔ
  6
Continuous
 62
     3
370
     9
100
AcDbCircle
 10
-126.3317460433691
 20
-101.8485445072856
 30
0.0
 40
0.9999999880330442
100
AcDbArc
 50
13.08621215820313
 51
90.0
  0
ARC
  5
B0
330
1F
100
AcDbEntity
  8
1-0ﾚｲﾔ
  6
Continuous
 62
     3
370
     9
100
AcDbCircle
 10
-138.7574072261409
 20
-101.4738173980614
 30
0.0
 40
1.999999976066088
100
AcDbArc
 50
18.21769714355468
 51
75.00083923339842
  0
ARC
  5
B1
330
1F
100
AcDbEntity
  8
1-0ﾚｲﾔ
  6
JWW_DASHED1
 62
     3
370
     9
100
AcDbCircle
 10
-138.7574072261409
 20
-101.4738173980614
 30
0.0
 40
1.999999976066088
100
AcDbArc
 50
11.33018493652344
 51
18.21769714355469
  0
ARC
  5
B2
330
1F
100
AcDbEntity
  8
1-0ﾚｲﾔ
  6
Continuous
 62
     3
370
     9
100
AcDbCircle
 10
-127.9171972652034
 20
-114.9015971370289
 30
0.0
 40
7.000000189630221
100
AcDbArc
 50
3.576202392578117
 51
51.30145263671874
  0
ARC
  5
B3
330
1F
100
AcDbEntity
  8
1-0ﾚｲﾔ
  6
JWW_DASHED1
 62
     3
370
     9
100
AcDbCircle
 10
-127.9171972652034
 20
-114.9015971370289
 30
0.0
 40
7.000000189630221
100
AcDbArc
 50
51.30145263671876
 51
85.97940063476562
  0
LINE
  5
B4
330
1F
100
AcDbEntity
  8
1-0ﾚｲﾔ
  6
JWW_DASHED1
 62
     3
370
     9
100
AcDbLine
 10
71.78405844476504
 20
-93.85105331143016
 30
0.0
 11
54.26232904542633
 21
-98.54599064552768
 31
0.0
  0
LINE
  5
B5
330
1F
100
AcDbEntity
  8
1-0ﾚｲﾔ
  6
Continuous
 62
     3
370
     9
100
AcDbLine
 10
70.31311106131147
 20
-95.56952075871844
 30
0.0
 11
68.55521292945855
 21
-111.9551880073006
 31
0.0
  0
LINE
  5
B6
330
1F
100
AcDbEntity
  8
1-0ﾚｲﾔ
  6
Continuous
 62
     3
370
     9
100
AcDbLine
 10
67.56091576931362
 20
-112.8485419150589
 30
0.0
 11
59.33407569485554
 21
-112.8485419150589
 31
0.0
  0
LINE
  5
B7
330
1F
100
AcDbEntity
  8
1-0ﾚｲﾔ
  6
Continuous
 62
     3
370
     9
100
AcDbLine
 10
56.76216620645733
 20
-100.2116155512649
 30
0.0
 11
58.34298058275818
 21
-111.9816442731368
 31
0.0
  0
ARC
  5
B8
330
1F
100
AcDbEntity
  8
1-0ﾚｲﾔ
  6
Continuous
 62
     3
370
     9
100
AcDbCircle
 10
72.30169663283618
 20
-95.78288564337844
 30
0.0
 40
1.999999976066088
100
AcDbArc
 50
104.9999847412109
 51
173.8766326904297
  0
ARC
  5
B9
330
1F
100
AcDbEntity
  8
1-0ﾚｲﾔ
  6
Continuous
 62
     3
370
     9
100
AcDbCircle
 10
54.77997598226273
 20
-100.4778579725365
 30
0.0
 40
1.999999976066088
100
AcDbArc
 50
7.649459838867195
 51
104.9997711181641
  0
ARC
  5
BA
330
1F
100
AcDbEntity
  8
1-0ﾚｲﾔ
  6
Continuous
 62
     3
370
     9
100
AcDbCircle
 10
67.56091576931362
 20
-111.8485230625009
 30
0.0
 40
0.9999999880330442
100
AcDbArc
 50
270.0
 51
353.8764190673828
  0
ARC
  5
BB
330
1F
100
AcDbEntity
  8
1-0ﾚｲﾔ
  6
Continuous
 62
     3
370
     9
100
AcDbCircle
 10
59.33407569485554
 20
-111.8485230625009
 30
0.0
 40
0.9999999880330442
100
AcDbArc
 50
187.6495361328125
 51
270.0
  0
LINE
  5
BC
330
1F
100
AcDbEntity
  8
1-0ﾚｲﾔ
  6
Continuous
 62
     3
370
     9
100
AcDbLine
 10
43.31736137049348
 20
-101.4787167065495
 30
0.0
 11
54.26234654295661
 21
-98.54599064552768
 31
0.0
  0
ARC
  5
BD
330
1F
100
AcDbEntity
  8
1-0ﾚｲﾔ
  6
Continuous
 62
     3
370
     9
100
AcDbCircle
 10
-191.1192566243673
 20
-101.4197500293884
 30
0.0
 40
10.99999959496458
100
AcDbArc
 50
74.9999237060547
 51
119.5283508300782
  0
LINE
  5
BE
330
1F
100
AcDbEntity
  8
1-0ﾚｲﾔ
  6
Continuous
 62
     3
370
     9
100
AcDbLine
 10
-148.3986164197794
 20
-101.478681711489
 30
0.0
 11
-188.2721984717672
 21
-90.79458471602116
 31
0.0
  0
ARC
  5
BF
330
1F
100
AcDbEntity
  8
1-0ﾚｲﾔ
  6
Continuous
 62
     3
370
     9
100
AcDbCircle
 10
-149.1750868250339
 20
-104.376517697063
 30
0.0
 40
2.999999964099133
100
AcDbArc
 50
9.664718627929673
 51
74.99987792968749
  0
ARC
  5
C0
330
1F
100
AcDbEntity
  8
1-0ﾚｲﾔ
  6
Continuous
 62
     3
370
     9
100
AcDbCircle
 10
44.09381427821769
 20
-104.3764827020023
 30
0.0
 40
2.999999964099133
100
AcDbArc
 50
104.9999847412109
 51
170.3352355957031
  0
LINE
  5
C1
330
1F
100
AcDbEntity
  8
1-0ﾚｲﾔ
  6
Continuous
 62
     3
370
     9
100
AcDbLine
 10
56.71182716124049
 20
-99.9602182073072
 30
0.0
 11
41.08987326881419
 21
-104.1461102178762
 31
0.0
  0
LINE
  5
C2
330
1F
100
AcDbEntity
  8
1-0ﾚｲﾔ
  6
Continuous
 62
     3
370
     9
100
AcDbLine
 10
61.09938149748428
 20
-101.8485402654602
 30
0.0
 11
65.81941535667829
 21
-101.8485402654602
 31
0.0
  0
LINE
  5
C3
330
1F
100
AcDbEntity
  8
1-0ﾚｲﾔ
  6
Continuous
 62
     3
370
     9
100
AcDbLine
 10
65.81941535667829
 20
-101.8485402654602
 30
0.0
 11
63.45939842708129
 21
-100.4859515523923
 31
0.0
  0
LINE
  5
C4
330
1F
100
AcDbEntity
  8
1-0ﾚｲﾔ
  6
Continuous
 62
     3
370
     9
100
AcDbLine
 10
61.09938149748428
 20
-101.8485402654602
 30
0.0
 11
63.45939842708129
 21
-100.4859515523923
 31
0.0
  0
LINE
  5
C5
330
1F
100
AcDbEntity
  8
1-0ﾚｲﾔ
  6
Continuous
 62
     3
370
     9
100
AcDbLine
 10
-200.6578340539435
 20
-82.84853625929155
 30
0.0
 11
-166.3453609450923
 21
-82.84853625929155
 31
0.0
  0
LINE
  5
C6
330
1F
100
AcDbEntity
  8
1-0ﾚｲﾔ
  6
Continuous
 62
     3
370
     9
100
AcDbLine
 10
-137.5714992961421
 20
-99.86334470787686
 30
0.0
 11
-136.5407124495249
 21
-99.86334470787686
 31
0.0
  0
LINE
  5
C7
330
1F
100
AcDbEntity
  8
1-0ﾚｲﾔ
  6
Continuous
 62
     3
370
     9
100
AcDbLine
 10
-129.2171237873589
 20
-107.8485176423905
 30
0.0
 11
-132.5406396904342
 21
-109.7673318117846
 31
0.0
  0
LINE
  5
C8
330
1F
100
AcDbEntity
  8
1-0ﾚｲﾔ
  6
Continuous
 62
     3
370
     9
100
AcDbLine
 10
-135.8641555935094
 20
-107.8485176423905
 30
0.0
 11
-132.5406396904342
 21
-109.7673318117846
 31
0.0
  0
LINE
  5
C9
330
1F
100
AcDbEntity
  8
1-0ﾚｲﾔ
  6
Continuous
 62
     3
370
     9
100
AcDbLine
 10
-135.8641555935094
 20
-107.8485176423905
 30
0.0
 11
-129.2171237873589
 21
-107.8485176423905
 31
0.0
  0
LINE
  5
CA
330
1F
100
AcDbEntity
  8
1-0ﾚｲﾔ
  6
Continuous
 62
     3
370
     9
100
AcDbLine
 10
-129.2171237873589
 20
-106.8485337848933
 30
0.0
 11
-129.2171237873589
 21
-107.8485176423905
 31
0.0
  0
LINE
  5
CB
330
1F
100
AcDbEntity
  8
1-0ﾚｲﾔ
  6
Continuous
 62
     3
370
     9
100
AcDbLine
 10
-135.8641555935094
 20
-107.8485176423905
 30
0.0
 11
-135.8641555935094
 21
-106.8485337848933
 31
0.0
  0
LINE
  5
CC
330
1F
100
AcDbEntity
  8
1-0ﾚｲﾔ
  6
Continuous
 62
     3
370
     9
100
AcDbLine
 10
-136.857656616025
 20
-100.8485606497883
 30
0.0
 11
-135.8641993667923
 21
-100.8485606497883
 31
0.0
  0
LINE
  5
CD
330
1F
100
AcDbEntity
  8
1-0ﾚｲﾔ
  6
Continuous
 62
     3
370
     9
100
AcDbLine
 10
-129.2172873922131
 20
-100.8485606497883
 30
0.0
 11
-126.3317460433691
 21
-100.8485606497883
 31
0.0
  0
LINE
  5
CE
330
1F
100
AcDbEntity
  8
1-0ﾚｲﾔ
  6
Continuous
 62
     3
370
     9
100
AcDbLine
 10
-128.5407743094806
 20
-99.86334470787686
 30
0.0
 11
31.95938199000751
 21
-99.86334470787686
 31
0.0
  0
LINE
  5
CF
330
1F
100
AcDbEntity
  8
1-3ﾚｲﾔ
  6
Continuous
 62
     4
370
     9
100
AcDbLine
 10
-145.5405791855061
 20
-182.8485671303551
 30
0.0
 11
40.45934163375056
 21
-182.8485671303551
 31
0.0
  0
LINE
  5
D0
330
1F
100
AcDbEntity
  8
1-0ﾚｲﾔ
  6
Continuous
 62
     3
370
     9
100
AcDbLine
 10
97.45942700048943
 20
-90.84851210445173
 30
0.0
 11
96.45940814793153
 21
-91.84849596194896
 31
0.0
  0
LINE
  5
D1
330
1F
100
AcDbEntity
  8
1-0ﾚｲﾔ
  6
Continuous
 62
     3
370
     9
100
AcDbLine
 10
96.45940814793153
 20
-91.84849596194896
 30
0.0
 11
91.45938387526314
 21
-91.84849596194896
 31
0.0
  0
LINE
  5
D2
330
1F
100
AcDbEntity
  8
1-0ﾚｲﾔ
  6
Continuous
 62
     3
370
     9
100
AcDbLine
 10
96.56890769264226
 20
-83.72449762191671
 30
0.0
 11
97.45942700048943
 21
-90.84851210445173
 31
0.0
  0
LINE
  5
D3
330
1F
100
AcDbEntity
  8
1-0ﾚｲﾔ
  6
Continuous
 62
     3
370
     9
100
AcDbLine
 10
33.15852273754911
 20
-99.54195007105248
 30
0.0
 11
95.45938929537363
 21
-82.84853625929155
 31
0.0
  0
ARC
  5
D4
330
1F
100
AcDbEntity
  8
1-0ﾚｲﾔ
  6
Continuous
 62
     3
370
     9
100
AcDbCircle
 10
95.5766227484836
 20
-83.84852011678878
 30
0.0
 40
0.9999999880330442
100
AcDbArc
 50
7.124267578125002
 51
90.0
  0
LINE
  5
D5
330
1F
100
AcDbEntity
  8
1-1ﾚｲﾔ
  6
JWW_HOJO
 62
     2
370
     9
100
AcDbLine
 10
-170.0224369271677
 20
-86.36714492812017
 30
0.0
 11
-170.9773291482724
 21
-86.11128484614925
 31
0.0
  0
LINE
  5
D6
330
1F
100
AcDbEntity
  8
1-1ﾚｲﾔ
  6
Continuous
 62
     2
370
     9
100
AcDbLine
 10
-192.0407230246316
 20
-82.95683326234585
 30
0.0
 11
-192.5407253517444
 21
-83.95688746344989
 31
0.0
  0
LINE
  5
D7
330
1F
100
AcDbEntity
  8
1-1ﾚｲﾔ
  6
Continuous
 62
     2
370
     9
100
AcDbLine
 10
-182.7496179972672
 20
-82.95683326234585
 30
0.0
 11
-192.0407230246316
 21
-82.95683326234585
 31
0.0
  0
LINE
  5
D8
330
1F
100
AcDbEntity
  8
1-1ﾚｲﾔ
  6
Continuous
 62
     2
370
     9
100
AcDbLine
 10
-191.1265087909975
 20
-85.37105447731788
 30
0.0
 11
-138.5574933764392
 21
-99.45693483050171
 31
0.0
  0
LINE
  5
D9
330
1F
100
AcDbEntity
  8
1-1ﾚｲﾔ
  6
Continuous
 62
     2
370
     9
100
AcDbLine
 10
-163.0407119192968
 20
-80.95687350077422
 30
0.0
 11
-166.0407258819725
 21
-80.95687350077422
 31
0.0
  0
LINE
  5
DA
330
1F
100
AcDbEntity
  8
1-1ﾚｲﾔ
  6
Continuous
 62
     2
370
     9
100
AcDbLine
 10
57.95932572690484
 20
-80.95687350077434
 30
0.0
 11
60.95929014270181
 21
-80.95687350077434
 31
0.0
  0
LINE
  5
DB
330
1F
100
AcDbEntity
  8
1-1ﾚｲﾔ
  6
Continuous
 62
     2
370
     9
100
AcDbLine
 10
86.9593120588003
 20
-82.95683326234585
 30
0.0
 11
87.45928961247355
 21
-83.95688746344989
 31
0.0
  0
LINE
  5
DC
330
1F
100
AcDbEntity
  8
1-1ﾚｲﾔ
  6
Continuous
 62
     2
370
     9
100
AcDbLine
 10
77.6682318048752
 20
-82.95683326234585
 30
0.0
 11
86.9593120588003
 21
-82.95683326234585
 31
0.0
  0
LINE
  5
DD
330
1F
100
AcDbEntity
  8
1-1ﾚｲﾔ
  6
Continuous
 62
     2
370
     9
100
AcDbLine
 10
86.04507305172686
 20
-85.37105447731788
 30
0.0
 11
33.47608241060792
 21
-99.45693483050171
 31
0.0
  0
LINE
  5
DE
330
1F
100
AcDbEntity
  8
1-1ﾚｲﾔ
  6
Continuous
 62
     2
370
     9
100
AcDbLine
 10
-52.54071786963534
 20
-99.45693483050171
 30
0.0
 11
33.47608241060792
 21
-99.45693483050171
 31
0.0
  0
LINE
  5
DF
330
1F
100
AcDbEntity
  8
1-1ﾚｲﾔ
  6
Continuous
 62
     2
370
     9
100
AcDbLine
 10
60.95929014270181
 20
-80.95687350077434
 30
0.0
 11
61.4308773348395
 21
-83.88524267674778
 31
0.0
  0
LINE
  5
E0
330
1F
100
AcDbEntity
  8
1-1ﾚｲﾔ
  6
Continuous
 62
     2
370
     9
100
AcDbLine
 10
56.92696696084241
 20
-86.24431821564814
 30
0.0
 11
57.95932572690484
 21
-80.95687350077434
 31
0.0
  0
LINE
  5
E1
330
1F
100
AcDbEntity
  8
1-1ﾚｲﾔ
  6
Continuous
 62
     2
370
     9
100
AcDbLine
 10
41.77008127615526
 20
-92.57576521309544
 30
0.0
 11
32.88342742019442
 21
-94.95698820680626
 31
0.0
  0
LINE
  5
E2
330
1F
100
AcDbEntity
  8
1-1ﾚｲﾔ
  6
JWW_DASHED1
 62
     2
370
     9
100
AcDbLine
 10
41.77008127615526
 20
-92.57576521309544
 30
0.0
 11
65.43951710864647
 21
-86.2335665429549
 31
0.0
  0
LINE
  5
E3
330
1F
100
AcDbEntity
  8
1-1ﾚｲﾔ
  6
Continuous
 62
     2
370
     9
100
AcDbLine
 10
-170.2506250773453
 20
-86.30600407971745
 30
0.0
 11
-182.7496179972672
 21
-82.95683326234585
 31
0.0
  0
LINE
  5
E4
330
1F
100
AcDbEntity
  8
1-1ﾚｲﾔ
  6
Continuous
 62
     2
370
     9
100
AcDbLine
 10
-166.5123130741103
 20
-83.88524267674778
 30
0.0
 11
-166.0407258819725
 21
-80.95687350077422
 31
0.0
  0
LINE
  5
E5
330
1F
100
AcDbEntity
  8
1-1ﾚｲﾔ
  6
Continuous
 62
     2
370
     9
100
AcDbLine
 10
43.79347671138536
 20
-88.25299822788348
 30
0.0
 11
43.21040904201406
 21
-91.05180231587211
 31
0.0
  0
LINE
  5
E6
330
1F
100
AcDbEntity
  8
1-1ﾚｲﾔ
  6
JWW_HOJO
 62
     2
370
     9
100
AcDbLine
 10
44.77242394213321
 20
-87.45692852667763
 30
0.0
 11
43.95931011463032
 21
-87.45692852667763
 31
0.0
  0
LINE
  5
E7
330
1F
100
AcDbEntity
  8
1-1ﾚｲﾔ
  6
Continuous
 62
     2
370
     9
100
AcDbLine
 10
-126.5407650010301
 20
-93.95693400570222
 30
0.0
 11
-127.5406953349372
 21
-99.45693483050171
 31
0.0
  0
LINE
  5
E8
330
1F
100
AcDbEntity
  8
1-1ﾚｲﾔ
  6
Continuous
 62
     2
370
     9
100
AcDbLine
 10
-138.5406722110966
 20
-93.95693400570222
 30
0.0
 11
-137.5407171037502
 21
-99.45693483050171
 31
0.0
  0
LINE
  5
E9
330
1F
100
AcDbEntity
  8
1-1ﾚｲﾔ
  6
Continuous
 62
     2
370
     9
100
AcDbLine
 10
-120.3914027830644
 20
-94.7780248806872
 30
0.0
 11
-119.5407076480141
 21
-99.45693483050171
 31
0.0
  0
LINE
  5
EA
330
1F
100
AcDbEntity
  8
1-1ﾚｲﾔ
  6
Continuous
 62
     2
370
     9
100
AcDbLine
 10
25.28526492010023
 20
-95.74002707889541
 30
0.0
 11
24.45931845099577
 21
-99.45693483050171
 31
0.0
  0
LINE
  5
EB
330
1F
100
AcDbEntity
  8
1-1ﾚｲﾔ
  6
Continuous
 62
     2
370
     9
100
AcDbLine
 10
26.26146229907616
 20
-94.95698820680626
 30
0.0
 11
32.88342742019442
 21
-94.95698820680626
 31
0.0
  0
LINE
  5
EC
330
1F
100
AcDbEntity
  8
1-1ﾚｲﾔ
  6
Continuous
 62
     2
370
     9
100
AcDbLine
 10
-120.3184697775141
 20
-94.95698820680626
 30
0.0
 11
26.21362478762322
 21
-94.95698820680626
 31
0.0
  0
LINE
  5
ED
330
1F
100
AcDbEntity
  8
1-1ﾚｲﾔ
  6
JWW_DASHED1
 62
     2
370
     9
100
AcDbLine
 10
-160.3346843618059
 20
-88.9630050006649
 30
0.0
 11
-167.0407057627582
 21
-87.16603880141598
 31
0.0
  0
LINE
  5
EE
330
1F
100
AcDbEntity
  8
1-1ﾚｲﾔ
  6
JWW_DASHED1
 62
     2
370
     9
100
AcDbLine
 10
-170.0224369271677
 20
-86.36714492812017
 30
0.0
 11
-167.040680989319
 21
-87.16603880141598
 31
0.0
  0
LINE
  5
EF
330
1F
100
AcDbEntity
  8
1-1ﾚｲﾔ
  6
Continuous
 62
     2
370
     9
100
AcDbLine
 10
65.16923888495333
 20
-86.30610317347497
 30
0.0
 11
77.6682318048752
 21
-82.95683326234585
 31
0.0
  0
LINE
  5
F0
330
1F
100
AcDbEntity
  8
1-1ﾚｲﾔ
  6
JWW_HOJO
 62
     2
370
     9
100
AcDbLine
 10
65.16913979119582
 20
-86.30600407971745
 30
0.0
 11
65.89594295588043
 21
-86.11128484614925
 31
0.0
  0
LINE
  5
F1
330
1F
100
AcDbEntity
  8
1-1ﾚｲﾔ
  6
JWW_HOJO
 62
     2
370
     9
100
AcDbLine
 10
-148.874714263141
 20
-88.25299822788348
 30
0.0
 11
-149.0405476663858
 21
-87.45692852667763
 31
0.0
  0
LINE
  5
F2
330
1F
100
AcDbEntity
  8
1-1ﾚｲﾔ
  6
JWW_HOJO
 62
     2
370
     9
100
AcDbLine
 10
-149.8536614938887
 20
-87.45692852667763
 30
0.0
 11
-149.0405476663858
 21
-87.45692852667763
 31
0.0
  0
LINE
  5
F3
330
1F
100
AcDbEntity
  8
1-1ﾚｲﾔ
  6
Continuous
 62
     2
370
     9
100
AcDbLine
 10
-146.8513188279109
 20
-92.57581475997425
 30
0.0
 11
-141.6971056700508
 21
-93.95693400570222
 31
0.0
  0
LINE
  5
F4
330
1F
100
AcDbEntity
  8
1-1ﾚｲﾔ
  6
Continuous
 62
     2
370
     9
100
AcDbLine
 10
-162.0084274735524
 20
-86.24436776252684
 30
0.0
 11
-163.0407119192968
 21
-80.95687350077422
 31
0.0
  0
LINE
  5
F5
330
1F
100
AcDbEntity
  8
1-1ﾚｲﾔ
  6
JWW_DASHED1
 62
     2
370
     9
100
AcDbLine
 10
-162.0084274735524
 20
-86.24436776252684
 30
0.0
 11
-161.7799915889811
 21
-87.41441730469249
 31
0.0
  0
LINE
  5
F6
330
1F
100
AcDbEntity
  8
1-1ﾚｲﾔ
  6
JWW_DASHED1
 62
     2
370
     9
100
AcDbLine
 10
56.92716514835755
 20
-86.24436776252684
 30
0.0
 11
56.69875403722543
 21
-87.41441730469249
 31
0.0
  0
LINE
  5
F7
330
1F
100
AcDbEntity
  8
1-1ﾚｲﾔ
  6
Continuous
 62
     2
370
     9
100
AcDbLine
 10
-121.3752551548104
 20
-93.95693400570222
 30
0.0
 11
-128.5407743094806
 21
-93.95693400570222
 31
0.0
  0
LINE
  5
F8
330
1F
100
AcDbEntity
  8
1-1ﾚｲﾔ
  6
Continuous
 62
     2
370
     9
100
AcDbLine
 10
-136.5407124495249
 20
-93.95693400570222
 30
0.0
 11
-141.6971056700508
 21
-93.95693400570222
 31
0.0
  0
LINE
  5
F9
330
1F
100
AcDbEntity
  8
1-1ﾚｲﾔ
  6
Continuous
 62
     2
370
     9
100
AcDbLine
 10
-52.54071786963534
 20
-99.45693483050171
 30
0.0
 11
-128.5407743094806
 21
-99.45693483050171
 31
0.0
  0
LINE
  5
FA
330
1F
100
AcDbEntity
  8
1-1ﾚｲﾔ
  6
Continuous
 62
     2
370
     9
100
AcDbLine
 10
-136.5407124495249
 20
-99.45693483050171
 30
0.0
 11
-138.5574933764392
 21
-99.45693483050171
 31
0.0
  0
LINE
  5
FB
330
1F
100
AcDbEntity
  8
1-1ﾚｲﾔ
  6
Continuous
 62
     2
370
     9
100
AcDbLine
 10
-149.8536614938887
 20
-87.45692852667763
 30
0.0
 11
-153.0405662832868
 21
-87.45692852667763
 31
0.0
  0
LINE
  5
FC
330
1F
100
AcDbEntity
  8
1-1ﾚｲﾔ
  6
Continuous
 62
     2
370
     9
100
AcDbLine
 10
-159.0405942086383
 20
-87.45692852667763
 30
0.0
 11
-160.5362162912049
 21
-87.45692852667763
 31
0.0
  0
LINE
  5
FD
330
1F
100
AcDbEntity
  8
1-1ﾚｲﾔ
  6
Continuous
 62
     2
370
     9
100
AcDbLine
 10
-153.0405662832868
 20
-91.58695815347242
 30
0.0
 11
-153.0405662832868
 21
-95.57617555080138
 31
0.0
  0
LINE
  5
FE
330
1F
100
AcDbEntity
  8
1-1ﾚｲﾔ
  6
Continuous
 62
     2
370
     9
100
AcDbLine
 10
-153.910609474497
 20
-92.45695179780385
 30
0.0
 11
-153.910609474497
 21
-95.34305748618611
 31
0.0
  0
LINE
  5
FF
330
1F
100
AcDbEntity
  8
1-1ﾚｲﾔ
  6
Continuous
 62
     2
370
     9
100
AcDbLine
 10
-158.1706005643069
 20
-92.45695179780385
 30
0.0
 11
-158.1706005643069
 21
-94.20159649307105
 31
0.0
  0
LINE
  5
100
330
1F
100
AcDbEntity
  8
1-1ﾚｲﾔ
  6
Continuous
 62
     2
370
     9
100
AcDbLine
 10
-159.0405942086383
 20
-91.58695815347242
 30
0.0
 11
-159.0405942086383
 21
-93.96847842845578
 31
0.0
  0
LINE
  5
101
330
1F
100
AcDbEntity
  8
1-1ﾚｲﾔ
  6
Continuous
 62
     2
370
     9
100
AcDbLine
 10
44.77242394213321
 20
-87.45692852667763
 30
0.0
 11
47.95932873153121
 21
-87.45692852667763
 31
0.0
  0
LINE
  5
102
330
1F
100
AcDbEntity
  8
1-1ﾚｲﾔ
  6
Continuous
 62
     2
370
     9
100
AcDbLine
 10
53.95945575064017
 20
-87.45692852667763
 30
0.0
 11
55.4547805519342
 21
-87.45692852667763
 31
0.0
  0
LINE
  5
103
330
1F
100
AcDbEntity
  8
1-1ﾚｲﾔ
  6
Continuous
 62
     2
370
     9
100
AcDbLine
 10
47.95932873153121
 20
-91.58695815347242
 30
0.0
 11
47.95932873153121
 21
-95.57612600392257
 31
0.0
  0
LINE
  5
104
330
1F
100
AcDbEntity
  8
1-1ﾚｲﾔ
  6
Continuous
 62
     2
370
     9
100
AcDbLine
 10
48.82937192274145
 20
-92.45695179780385
 30
0.0
 11
48.82937192274145
 21
-95.3430079393073
 31
0.0
  0
LINE
  5
105
330
1F
100
AcDbEntity
  8
1-1ﾚｲﾔ
  6
Continuous
 62
     2
370
     9
100
AcDbLine
 10
53.08941255943004
 20
-92.45695179780385
 30
0.0
 11
53.08941255943004
 21
-94.20154694619224
 31
0.0
  0
LINE
  5
106
330
1F
100
AcDbEntity
  8
1-1ﾚｲﾔ
  6
Continuous
 62
     2
370
     9
100
AcDbLine
 10
53.95945575064017
 20
-91.58695815347242
 30
0.0
 11
53.95945575064017
 21
-93.96842888157697
 31
0.0
  0
ARC
  5
107
330
1F
100
AcDbEntity
  8
1-1ﾚｲﾔ
  6
Continuous
 62
     2
370
     9
100
AcDbCircle
 10
-190.6088430016034
 20
-83.43922167405559
 30
0.0
 40
2.000000018410701
100
AcDbArc
 50
194.9992218017578
 51
254.9998474121094
  0
ARC
  5
108
330
1F
100
AcDbEntity
  8
1-1ﾚｲﾔ
  6
Continuous
 62
     2
370
     9
100
AcDbCircle
 10
85.52740726233256
 20
-83.43922167405559
 30
0.0
 40
2.000000018410701
100
AcDbArc
 50
285.0001525878906
 51
345.0007781982421
  0
ARC
  5
109
330
1F
100
AcDbEntity
  8
1-1ﾚｲﾔ
  6
Continuous
 62
     2
370
     9
100
AcDbCircle
 10
64.39274020086194
 20
-83.40820532794531
 30
0.0
 40
3.000000027616052
100
AcDbArc
 50
189.149169921875
 51
285.0001220703125
  0
ARC
  5
10A
330
1F
100
AcDbEntity
  8
1-1ﾚｲﾔ
  6
Continuous
 62
     2
370
     9
100
AcDbCircle
 10
55.4547805519342
 20
-85.95689677190033
 30
0.0
 40
1.500000013808026
100
AcDbArc
 50
270.0
 51
348.9532623291016
  0
ARC
  5
10B
330
1F
100
AcDbEntity
  8
1-1ﾚｲﾔ
  6
Continuous
 62
     2
370
     9
100
AcDbCircle
 10
41.25241548676096
 20
-90.64393240983325
 30
0.0
 40
2.000000018410701
100
AcDbArc
 50
285.0001220703125
 51
348.231948852539
  0
ARC
  5
10C
330
1F
100
AcDbEntity
  8
1-1ﾚｲﾔ
  6
JWW_DASHED1
 62
     2
370
     9
100
AcDbCircle
 10
-159.817043345851
 20
-87.0311721974026
 30
0.0
 40
2.000000018410701
100
AcDbArc
 50
191.047103881836
 51
254.9998474121094
  0
ARC
  5
10D
330
1F
100
AcDbEntity
  8
1-1ﾚｲﾔ
  6
Continuous
 62
     2
370
     9
100
AcDbCircle
 10
-169.4741511666932
 20
-83.40820532794531
 30
0.0
 40
3.000000027616052
100
AcDbArc
 50
255.0000152587891
 51
350.8507995605469
  0
ARC
  5
10E
330
1F
100
AcDbEntity
  8
1-1ﾚｲﾔ
  6
Continuous
 62
     2
370
     9
100
AcDbCircle
 10
44.77242394213321
 20
-88.45683408714534
 30
0.0
 40
1.00000000920535
100
AcDbArc
 50
90.0
 51
168.2339172363282
  0
ARC
  5
10F
330
1F
100
AcDbEntity
  8
1-1ﾚｲﾔ
  6
Continuous
 62
     2
370
     9
100
AcDbCircle
 10
-121.3752551548104
 20
-94.95688911304875
 30
0.0
 40
1.00000000920535
100
AcDbArc
 50
10.3037109375
 51
90.0
  0
ARC
  5
110
330
1F
100
AcDbEntity
  8
1-1ﾚｲﾔ
  6
Continuous
 62
     2
370
     9
100
AcDbCircle
 10
26.26146229907616
 20
-95.95694331415278
 30
0.0
 40
1.00000000920535
100
AcDbArc
 50
90.0
 51
167.4718017578125
  0
ARC
  5
111
330
1F
100
AcDbEntity
  8
1-1ﾚｲﾔ
  6
Continuous
 62
     2
370
     9
100
AcDbCircle
 10
-149.8536614938887
 20
-88.45683408714534
 30
0.0
 40
1.00000000920535
100
AcDbArc
 50
11.76608276367187
 51
90.00000000000001
  0
ARC
  5
112
330
1F
100
AcDbEntity
  8
1-1ﾚｲﾔ
  6
Continuous
 62
     2
370
     9
100
AcDbCircle
 10
-146.3336530385165
 20
-90.64393240983325
 30
0.0
 40
2.000000018410701
100
AcDbArc
 50
191.7680511474609
 51
254.9994659423828
  0
ARC
  5
113
330
1F
100
AcDbEntity
  8
1-1ﾚｲﾔ
  6
Continuous
 62
     2
370
     9
100
AcDbCircle
 10
-160.5362162912049
 20
-85.95694631877915
 30
0.0
 40
1.500000013808026
100
AcDbArc
 50
191.0469665527344
 51
270.0
  0
ARC
  5
114
330
1F
100
AcDbEntity
  8
1-1ﾚｲﾔ
  6
JWW_DASHED1
 62
     2
370
     9
100
AcDbCircle
 10
54.73580579409535
 20
-87.0311721974026
 30
0.0
 40
2.000000018410701
100
AcDbArc
 50
285.0001525878906
 51
348.9528961181641
  0
ARC
  5
115
330
1F
100
AcDbEntity
  8
1-1ﾚｲﾔ
  6
Continuous
 62
     2
370
     9
100
AcDbCircle
 10
55.45497873944934
 20
-85.95694631877915
 30
0.0
 40
1.500000013808026
100
AcDbArc
 50
270.0
 51
348.9530334472656
  0
LINE
  5
116
330
1F
100
AcDbEntity
  8
1-0ﾚｲﾔ
  6
Continuous
 62
     3
370
     9
100
AcDbLine
 10
71.78405844476504
 20
-93.85105331143016
 30
0.0
 11
83.19097841754194
 21
-90.79458471602116
 31
0.0
  0
ARC
  5
117
330
1F
100
AcDbEntity
  8
1-0ﾚｲﾔ
  6
Continuous
 62
     3
370
     9
100
AcDbCircle
 10
86.03800157508147
 20
-101.419785024449
 30
0.0
 40
10.99999959496458
100
AcDbArc
 50
60.47164916992188
 51
105.0000762939453
  0
LINE
  5
118
330
1F
100
AcDbEntity
  8
1-0ﾚｲﾔ
  6
Continuous
 62
     3
370
     9
100
AcDbLine
 10
89.81769559099683
 20
-91.08952308700928
 30
0.0
 11
70.23068264931914
 21
-96.33784999592613
 31
0.0
  0
LINE
  5
119
330
1F
100
AcDbEntity
  8
1-0ﾚｲﾔ
  6
Continuous
 62
     3
370
     9
100
AcDbLine
 10
61.26392520582153
 20
-82.84853625929155
 30
0.0
 11
95.5766227484836
 21
-82.84853625929155
 31
0.0
  0
LINE
  5
11A
330
1F
100
AcDbEntity
  8
1-A
  6
Continuous
 62
     4
370
     9
100
AcDbLine
 10
60.4592358237693
 20
-125.8485033262294
 30
0.0
 11
60.4592358237693
 21
-112.8485419150589
 31
0.0
  0
ARC
  5
11B
330
1F
100
AcDbEntity
  8
1-A
  6
Continuous
 62
     4
370
     9
100
AcDbCircle
 10
68.45927305757118
 20
-125.8485033262294
 30
0.0
 40
8.000000073642804
100
AcDbArc
 50
180.0
 51
270.0
  0
LINE
  5
11C
330
1F
100
AcDbEntity
  8
1-A
  6
Continuous
 62
     4
370
     9
100
AcDbLine
 10
68.45927305757118
 20
-133.8485405600312
 30
0.0
 11
74.45930098292257
 21
-133.8485405600312
 31
0.0
  0
LINE
  5
11D
330
1F
100
AcDbEntity
  8
1-A
  6
Continuous
 62
     4
370
     9
100
AcDbLine
 10
74.45930098292257
 20
-127.8484630878012
 30
0.0
 11
74.45930098292257
 21
-133.8485405600312
 31
0.0
  0
LINE
  5
11E
330
1F
100
AcDbEntity
  8
1-A
  6
Continuous
 62
     4
370
     9
100
AcDbLine
 10
68.45927305757118
 20
-127.8484630878012
 30
0.0
 11
74.45930098292257
 21
-127.8484630878012
 31
0.0
  0
LINE
  5
11F
330
1F
100
AcDbEntity
  8
1-A
  6
JWW_CENTER1
 62
     4
370
     9
100
AcDbLine
 10
68.45927305757118
 20
-130.8484630878012
 30
0.0
 11
76.75804624792664
 21
-130.8484630878012
 31
0.0
  0
ARC
  5
120
330
1F
100
AcDbEntity
  8
1-A
  6
Continuous
 62
     4
370
     9
100
AcDbCircle
 10
68.45927305757118
 20
-125.8485033262294
 30
0.0
 40
2.000000018410701
100
AcDbArc
 50
180.0
 51
270.0
  0
LINE
  5
121
330
1F
100
AcDbEntity
  8
1-A
  6
Continuous
 62
     4
370
     9
100
AcDbLine
 10
66.45926374912068
 20
-125.8485033262294
 30
0.0
 11
66.45926374912068
 21
-112.8485419150589
 31
0.0
  0
LINE
  5
122
330
1F
100
AcDbEntity
  8
1-A
  6
JWW_CENTER1
 62
     4
370
     9
100
AcDbLine
 10
63.45939842708129
 20
-98.67178389941004
 30
0.0
 11
63.45939842708129
 21
-125.8839132611419
 31
0.0
  0
ARC
  5
123
330
1F
100
AcDbEntity
  8
1-A
  6
JWW_CENTER1
 62
     4
370
     9
100
AcDbCircle
 10
68.45927305757118
 20
-125.8485033262294
 30
0.0
 40
5.000000018410701
100
AcDbArc
 50
180.0
 51
270.0
  0
LINE
  5
124
330
1F
100
AcDbEntity
  8
1-A
  6
Continuous
 62
     4
370
     9
100
AcDbLine
 10
61.09938149748428
 20
-112.8485419150589
 30
0.0
 11
61.09938149748428
 21
-101.8485402654602
 31
0.0
  0
LINE
  5
125
330
1F
100
AcDbEntity
  8
1-A
  6
Continuous
 62
     4
370
     9
100
AcDbLine
 10
60.28433534170939
 20
-112.8485419150589
 30
0.0
 11
60.28433534170939
 21
-103.6484297305566
 31
0.0
  0
LINE
  5
126
330
1F
100
AcDbEntity
  8
1-A
  6
Continuous
 62
     4
370
     9
100
AcDbLine
 10
60.28433534170939
 20
-103.6484297305566
 30
0.0
 11
61.09938149748428
 21
-102.8484458259278
 31
0.0
  0
LINE
  5
127
330
1F
100
AcDbEntity
  8
1-A
  6
Continuous
 62
     4
370
     9
100
AcDbLine
 10
61.09938149748428
 20
-102.8484458259278
 30
0.0
 11
65.81941535667829
 21
-102.8484458259278
 31
0.0
  0
LINE
  5
128
330
1F
100
AcDbEntity
  8
1-A
  6
Continuous
 62
     4
370
     9
100
AcDbLine
 10
60.28433534170939
 20
-103.6484297305566
 30
0.0
 11
66.63436241869567
 21
-103.6484297305566
 31
0.0
  0
LINE
  5
129
330
1F
100
AcDbEntity
  8
1-A
  6
Continuous
 62
     4
370
     9
100
AcDbLine
 10
65.81941535667829
 20
-102.8484458259278
 30
0.0
 11
66.63436241869567
 21
-103.6484297305566
 31
0.0
  0
LINE
  5
12A
330
1F
100
AcDbEntity
  8
1-A
  6
Continuous
 62
     4
370
     9
100
AcDbLine
 10
65.81941535667829
 20
-112.8485419150589
 30
0.0
 11
65.81941535667829
 21
-101.8485402654602
 31
0.0
  0
LINE
  5
12B
330
1F
100
AcDbEntity
  8
1-A
  6
Continuous
 62
     4
370
     9
100
AcDbLine
 10
66.63436241869567
 20
-112.8485419150589
 30
0.0
 11
66.63436241869567
 21
-103.6484297305566
 31
0.0
  0
LINE
  5
12C
330
1F
100
AcDbEntity
  8
1-F
  6
JWW_HOJO
 62
     3
370
     9
100
AcDbLine
 10
-128.3589749105942
 20
-112.8485285185123
 30
0.0
 11
-125.5406373633986
 21
-112.8485285185123
 31
0.0
  0
LINE
  5
12D
330
1F
100
AcDbEntity
  8
1-0ﾚｲﾔ
  6
JWW_HOJO
 62
     3
370
     9
100
AcDbLine
 10
-125.5406373633986
 20
-112.8485285185123
 30
0.0
 11
-125.3654053579551
 21
-115.652209563231
 31
0.0
  0
LINE
  5
12E
330
1F
100
AcDbEntity
  8
1-0ﾚｲﾔ
  6
Continuous
 62
     3
370
     9
100
AcDbLine
 10
20.28355889947506
 20
-115.6613920484053
 30
0.0
 11
17.51796922473739
 21
-159.9108968343284
 31
0.0
  0
LINE
  5
12F
330
1F
100
AcDbEntity
  8
1-0ﾚｲﾔ
  6
Continuous
 62
     3
370
     9
100
AcDbLine
 10
-125.3654053579551
 20
-115.6522095632317
 30
0.0
 11
-122.5992067448889
 21
-159.9108973397642
 31
0.0
  0
LINE
  5
130
330
1F
100
AcDbEntity
  8
1-F
  6
JWW_HOJO
 62
     3
370
     9
100
AcDbLine
 10
16.51991119073443
 20
-160.8485369662624
 30
0.0
 11
17.45936680918401
 21
-160.8485369662624
 31
0.0
  0
LINE
  5
131
330
1F
100
AcDbEntity
  8
1-0ﾚｲﾔ
  6
JWW_HOJO
 62
     3
370
     9
100
AcDbLine
 10
17.5179692247374
 20
-159.9108968343284
 30
0.0
 11
17.45936680918401
 21
-160.8485369662624
 31
0.0
  0
LINE
  5
132
330
1F
100
AcDbEntity
  8
1-0ﾚｲﾔ
  6
JWW_HOJO
 62
     3
370
     9
100
AcDbLine
 10
20.45936259202154
 20
-112.8485285185123
 30
0.0
 11
20.28355889947506
 21
-115.6613920484053
 31
0.0
  0
LINE
  5
133
330
1F
100
AcDbEntity
  8
1-F
  6
JWW_HOJO
 62
     3
370
     9
100
AcDbLine
 10
23.27773735883887
 20
-112.8485285185123
 30
0.0
 11
20.45936259202154
 21
-112.8485285185123
 31
0.0
  0
LINE
  5
134
330
1F
100
AcDbEntity
  8
1-F
  6
JWW_HOJO
 62
     3
370
     9
100
AcDbLine
 10
-121.6011662400201
 20
-160.8485369662624
 30
0.0
 11
-122.5406036193857
 21
-160.8485369662624
 31
0.0
  0
LINE
  5
135
330
1F
100
AcDbEntity
  8
1-0ﾚｲﾔ
  6
JWW_HOJO
 62
     3
370
     9
100
AcDbLine
 10
-122.5992067448889
 20
-159.9108973397642
 30
0.0
 11
-122.5406036193857
 21
-160.8485369662624
 31
0.0
  0
LINE
  5
136
330
1F
100
AcDbEntity
  8
1-2ﾚｲﾔ
  6
Continuous
 62
     6
370
     9
100
AcDbLine
 10
54.49329956803818
 20
343.615312317804
 30
0.0
 11
55.40041395781857
 21
344.6152166410726
 31
0.0
  0
LINE
  5
137
330
1F
100
AcDbEntity
  8
1-2ﾚｲﾔ
  6
Continuous
 62
     6
370
     9
100
AcDbLine
 10
54.84308050131521
 20
338.6153453097803
 30
0.0
 11
55.88574242593513
 21
337.6152925226182
 31
0.0
  0
LINE
  5
138
330
1F
100
AcDbEntity
  8
1-2ﾚｲﾔ
  6
Continuous
 62
     6
370
     9
100
AcDbLine
 10
55.40041395781857
 20
344.6152166410726
 30
0.0
 11
43.33044787357029
 21
344.6152166410726
 31
0.0
  0
LINE
  5
139
330
1F
100
AcDbEntity
  8
1-2ﾚｲﾔ
  6
Continuous
 62
     6
370
     9
100
AcDbLine
 10
-159.574376048252
 20
343.615312317804
 30
0.0
 11
-160.4814904380324
 21
344.6152166410726
 31
0.0
  0
LINE
  5
13A
330
1F
100
AcDbEntity
  8
1-2ﾚｲﾔ
  6
Continuous
 62
     6
370
     9
100
AcDbLine
 10
-159.924156981529
 20
338.6153453097803
 30
0.0
 11
-160.9667446742021
 21
337.6152925226182
 31
0.0
  0
LINE
  5
13B
330
1F
100
AcDbEntity
  8
1-2ﾚｲﾔ
  6
Continuous
 62
     6
370
     9
100
AcDbLine
 10
-160.4814904380324
 20
344.6152166410726
 30
0.0
 11
-148.4115243537841
 21
344.6152166410726
 31
0.0
  0
LINE
  5
13C
330
1F
100
AcDbEntity
  8
1-2ﾚｲﾔ
  6
Continuous
 62
     6
370
     9
100
AcDbLine
 10
41.88351876672904
 20
353.5240895031925
 30
0.0
 11
33.83410338454998
 21
351.8268502717736
 31
0.0
  0
LINE
  5
13D
330
1F
100
AcDbEntity
  8
1-2ﾚｲﾔ
  6
Continuous
 62
     6
370
     9
100
AcDbLine
 10
20.87617475279326
 20
334.6152826250253
 30
0.0
 11
-13.69787408852854
 21
334.6152826250253
 31
0.0
  0
LINE
  5
13E
330
1F
100
AcDbEntity
  8
1-2ﾚｲﾔ
  6
Continuous
 62
     6
370
     9
100
AcDbLine
 10
20.87617475279326
 20
335.6152611802406
 30
0.0
 11
-13.69779985658174
 21
335.6152611802406
 31
0.0
  0
LINE
  5
13F
330
1F
100
AcDbEntity
  8
1-2ﾚｲﾔ
  6
Continuous
 62
     6
370
     9
100
AcDbLine
 10
20.7533951128017
 20
337.6152925226182
 30
0.0
 11
-13.93022008198299
 21
337.6152925226182
 31
0.0
  0
LINE
  5
140
330
1F
100
AcDbEntity
  8
1-2ﾚｲﾔ
  6
Continuous
 62
     6
370
     9
100
AcDbLine
 10
18.91155204903482
 20
350.4266130594636
 30
0.0
 11
-14.36737201663244
 21
340.6550907436908
 31
0.0
  0
LINE
  5
141
330
1F
100
AcDbEntity
  8
1-2ﾚｲﾔ
  6
Continuous
 62
     6
370
     9
100
AcDbLine
 10
18.62961911512427
 20
351.3860609717314
 30
0.0
 11
-14.64900802275572
 21
341.6146128879053
 31
0.0
  0
LINE
  5
142
330
1F
100
AcDbEntity
  8
1-2ﾚｲﾔ
  6
Continuous
 62
     6
370
     9
100
AcDbLine
 10
32.44967757690638
 20
379.3199879406925
 30
0.0
 11
25.20449110625607
 21
375.4237015175506
 31
0.0
  0
LINE
  5
143
330
1F
100
AcDbEntity
  8
1-2ﾚｲﾔ
  6
Continuous
 62
     6
370
     9
100
AcDbLine
 10
37.65749403594357
 20
367.9166247386233
 30
0.0
 11
29.96825205959225
 21
364.9924056587035
 31
0.0
  0
LINE
  5
144
330
1F
100
AcDbEntity
  8
1-2ﾚｲﾔ
  6
Continuous
 62
     6
370
     9
100
AcDbLine
 10
17.62051003045373
 20
355.2585189399535
 30
0.0
 11
-15.55300467077096
 21
345.5180255779392
 31
0.0
  0
LINE
  5
145
330
1F
100
AcDbEntity
  8
1-2ﾚｲﾔ
  6
Continuous
 62
     6
370
     9
100
AcDbLine
 10
17.33872556043677
 20
356.2181153161148
 30
0.0
 11
-15.83471490884104
 21
346.4774734902069
 31
0.0
  0
LINE
  5
146
330
1F
100
AcDbEntity
  8
1-2ﾚｲﾔ
  6
Continuous
 62
     6
370
     9
100
AcDbLine
 10
16.65757321668677
 20
358.1025675173395
 30
0.0
 11
-16.62120238508682
 21
348.3309709696198
 31
0.0
  0
LINE
  5
147
330
1F
100
AcDbEntity
  8
1-2ﾚｲﾔ
  6
Continuous
 62
     6
370
     9
100
AcDbLine
 10
11.28080484675435
 20
369.875828510266
 30
0.0
 11
-17.89695262262909
 21
351.1244675912415
 31
0.0
  0
LINE
  5
148
330
1F
100
AcDbEntity
  8
1-2ﾚｲﾔ
  6
Continuous
 62
     6
370
     9
100
AcDbLine
 10
10.74024781022568
 20
370.7172476271368
 30
0.0
 11
-18.43765812305135
 21
351.9657382442186
 31
0.0
  0
LINE
  5
149
330
1F
100
AcDbEntity
  8
1-2ﾚｲﾔ
  6
Continuous
 62
     6
370
     9
100
AcDbLine
 10
16.13045216252716
 20
401.4130484083868
 30
0.0
 11
10.27644660667833
 21
395.6334974951689
 31
0.0
  0
LINE
  5
14A
330
1F
100
AcDbEntity
  8
1-2ﾚｲﾔ
  6
Continuous
 62
     6
370
     9
100
AcDbLine
 10
24.34013431782701
 20
391.9386765756165
 30
0.0
 11
17.78619573569021
 21
386.9669177073733
 31
0.0
  0
LINE
  5
14B
330
1F
100
AcDbEntity
  8
1-2ﾚｲﾔ
  6
Continuous
 62
     6
370
     9
100
AcDbLine
 10
8.680905142362477
 20
374.1484709036359
 30
0.0
 11
-20.40465624910713
 21
355.4564955420439
 31
0.0
  0
LINE
  5
14C
330
1F
100
AcDbEntity
  8
1-2ﾚｲﾔ
  6
Continuous
 62
     6
370
     9
100
AcDbLine
 10
8.140199641940214
 20
374.9897415566131
 30
0.0
 11
-20.9452132856358
 21
356.2976919630743
 31
0.0
  0
LINE
  5
14D
330
1F
100
AcDbEntity
  8
1-2ﾚｲﾔ
  6
Continuous
 62
     6
370
     9
100
AcDbLine
 10
6.955754698950287
 20
376.6059937340836
 30
0.0
 11
-22.22215123432674
 21
357.8544101192186
 31
0.0
  0
LINE
  5
14E
330
1F
100
AcDbEntity
  8
1-2ﾚｲﾔ
  6
Continuous
 62
     6
370
     9
100
AcDbLine
 10
-1.520197449487213
 20
386.3876115946198
 30
0.0
 11
-24.23324313677604
 21
360.1754203995185
 31
0.0
  0
LINE
  5
14F
330
1F
100
AcDbEntity
  8
1-2ﾚｲﾔ
  6
Continuous
 62
     6
370
     9
100
AcDbLine
 10
-2.275878667814865
 20
387.0426342930996
 30
0.0
 11
-24.98892435510369
 21
360.8304430979983
 31
0.0
  0
LINE
  5
150
330
1F
100
AcDbEntity
  8
1-2ﾚｲﾔ
  6
Continuous
 62
     6
370
     9
100
AcDbLine
 10
-5.752012272122286
 20
418.0136871330489
 30
0.0
 11
-9.740643237071666
 21
410.8188299223226
 31
0.0
  0
LINE
  5
151
330
1F
100
AcDbEntity
  8
1-2ﾚｲﾔ
  6
Continuous
 62
     6
370
     9
100
AcDbLine
 10
4.794268872303334
 20
411.2359392313386
 30
0.0
 11
-0.0933109682793969
 21
404.6189777263767
 31
0.0
  0
LINE
  5
152
330
1F
100
AcDbEntity
  8
1-2ﾚｲﾔ
  6
Continuous
 62
     6
370
     9
100
AcDbLine
 10
-5.218581502485492
 20
389.7547727010389
 30
0.0
 11
-27.85973354930768
 21
363.6254243585557
 31
0.0
  0
LINE
  5
153
330
1F
100
AcDbEntity
  8
1-2ﾚｲﾔ
  6
Continuous
 62
     6
370
     9
100
AcDbLine
 10
-5.974411184706739
 20
390.4096469356249
 30
0.0
 11
-28.61541476763541
 21
364.2803728250886
 31
0.0
  0
LINE
  5
154
330
1F
100
AcDbEntity
  8
1-2ﾚｲﾔ
  6
Continuous
 62
     6
370
     9
100
AcDbLine
 10
-7.566092587789555
 20
391.6266054713091
 30
0.0
 11
-30.27917539105182
 21
365.4143400442609
 31
0.0
  0
LINE
  5
155
330
1F
100
AcDbEntity
  8
1-2ﾚｲﾔ
  6
Continuous
 62
     6
370
     9
100
AcDbLine
 10
-18.45458300691963
 20
398.6241541674661
 30
0.0
 11
-32.86266983520299
 21
367.0746859981249
 31
0.0
  0
LINE
  5
156
330
1F
100
AcDbEntity
  8
1-2ﾚｲﾔ
  6
Continuous
 62
     6
370
     9
100
AcDbLine
 10
-19.36422128289088
 20
399.039556141706
 30
0.0
 11
-33.77238234312104
 21
367.4902364362583
 31
0.0
  0
LINE
  5
157
330
1F
100
AcDbEntity
  8
1-2ﾚｲﾔ
  6
Continuous
 62
     6
370
     9
100
AcDbLine
 10
-31.42501972171057
 20
427.7768212388344
 30
0.0
 11
-33.2250701994344
 21
419.7498239045861
 31
0.0
  0
LINE
  5
158
330
1F
100
AcDbEntity
  8
1-2ﾚｲﾔ
  6
Continuous
 62
     6
370
     9
100
AcDbLine
 10
-19.39651217974479
 20
424.2447909785936
 30
0.0
 11
-22.22200277043315
 21
416.5189526524746
 31
0.0
  0
LINE
  5
159
330
1F
100
AcDbEntity
  8
1-2ﾚｲﾔ
  6
Continuous
 62
     6
370
     9
100
AcDbLine
 10
-22.95185127127776
 20
400.8128088866384
 30
0.0
 11
-37.31435968423166
 21
369.3632569176773
 31
0.0
  0
LINE
  5
15A
330
1F
100
AcDbEntity
  8
1-2ﾚｲﾔ
  6
Continuous
 62
     6
370
     9
100
AcDbLine
 10
-23.86148954724901
 20
401.2283593247719
 30
0.0
 11
-38.2239237282562
 21
369.7786588919172
 31
0.0
  0
LINE
  5
15B
330
1F
100
AcDbEntity
  8
1-2ﾚｲﾔ
  6
Continuous
 62
     6
370
     9
100
AcDbLine
 10
-25.73154075079627
 20
401.9475184252786
 30
0.0
 11
-40.13977604297322
 21
370.3980502559374
 31
0.0
  0
LINE
  5
15C
330
1F
100
AcDbEntity
  8
1-2ﾚｲﾔ
  6
Continuous
 62
     6
370
     9
100
AcDbLine
 10
-38.15035986898674
 20
405.5939401155236
 30
0.0
 11
-43.08641317082377
 21
371.2632235957811
 31
0.0
  0
LINE
  5
15D
330
1F
100
AcDbEntity
  8
1-2ﾚｲﾔ
  6
Continuous
 62
     6
370
     9
100
AcDbLine
 10
-39.14024287943862
 20
405.7362427575211
 30
0.0
 11
-44.07629618127557
 21
371.4055262377786
 31
0.0
  0
LINE
  5
15E
330
1F
100
AcDbEntity
  8
1-2ﾚｲﾔ
  6
Continuous
 62
     6
370
     9
100
AcDbLine
 10
-58.80866526911346
 20
429.9115835646368
 30
0.0
 11
-58.2743437161151
 21
421.7024210329645
 31
0.0
  0
LINE
  5
15F
330
1F
100
AcDbEntity
  8
1-2ﾚｲﾔ
  6
Continuous
 62
     6
370
     9
100
AcDbLine
 10
-46.27237409512698
 20
429.9115835646368
 30
0.0
 11
-46.80669564812526
 21
421.7024210329645
 31
0.0
  0
LINE
  5
160
330
1F
100
AcDbEntity
  8
1-2ﾚｲﾔ
  6
Continuous
 62
     6
370
     9
100
AcDbLine
 10
-43.08203348596307
 20
406.426971022407
 30
0.0
 11
-48.00242384702729
 21
372.2048558408192
 31
0.0
  0
LINE
  5
161
330
1F
100
AcDbEntity
  8
1-2ﾚｲﾔ
  6
Continuous
 62
     6
370
     9
100
AcDbLine
 10
-44.07184226446815
 20
406.5691252005109
 30
0.0
 11
-48.99223262553237
 21
372.3470842508698
 31
0.0
  0
LINE
  5
162
330
1F
100
AcDbEntity
  8
1-2ﾚｲﾔ
  6
Continuous
 62
     6
370
     9
100
AcDbLine
 10
-46.06897856092088
 20
406.7325097153969
 30
0.0
 11
-51.00495763081112
 21
372.4016447317609
 31
0.0
  0
LINE
  5
163
330
1F
100
AcDbEntity
  8
1-2ﾚｲﾔ
  6
Continuous
 62
     6
370
     9
100
AcDbLine
 10
-59.01206080331956
 20
406.7325097153969
 30
0.0
 11
-54.07608173342932
 21
372.4016447317609
 31
0.0
  0
LINE
  5
164
330
1F
100
AcDbEntity
  8
1-2ﾚｲﾔ
  6
Continuous
 62
     6
370
     9
100
AcDbLine
 10
-60.00186958182464
 20
406.5901328414527
 30
0.0
 11
-55.0658905119344
 21
372.259490553657
 31
0.0
  0
LINE
  5
165
330
1F
100
AcDbEntity
  8
1-2ﾚｲﾔ
  6
Continuous
 62
     6
370
     9
100
AcDbLine
 10
-85.684564300469
 20
424.2447909785936
 30
0.0
 11
-82.85907370978065
 21
416.5189526524746
 31
0.0
  0
LINE
  5
166
330
1F
100
AcDbEntity
  8
1-2ﾚｲﾔ
  6
Continuous
 62
     6
370
     9
100
AcDbLine
 10
-73.65601964252987
 20
427.7766727749408
 30
0.0
 11
-71.85604339675284
 21
419.7498239045861
 31
0.0
  0
LINE
  5
167
330
1F
100
AcDbEntity
  8
1-2ﾚｲﾔ
  6
Continuous
 62
     6
370
     9
100
AcDbLine
 10
-63.97862343528745
 20
406.1422172745185
 30
0.0
 11
-59.05823307422322
 21
371.9201020929307
 31
0.0
  0
LINE
  5
168
330
1F
100
AcDbEntity
  8
1-2ﾚｲﾔ
  6
Continuous
 62
     6
370
     9
100
AcDbLine
 10
-64.96843221379252
 20
405.9999146325211
 30
0.0
 11
-60.0480418527283
 21
371.77787368288
 31
0.0
  0
LINE
  5
169
330
1F
100
AcDbEntity
  8
1-2ﾚｲﾔ
  6
Continuous
 62
     6
370
     9
100
AcDbLine
 10
-66.9306052633069
 20
405.5939401155236
 30
0.0
 11
-61.99455196146987
 21
371.2632235957811
 31
0.0
  0
LINE
  5
16A
330
1F
100
AcDbEntity
  8
1-2ﾚｲﾔ
  6
Continuous
 62
     6
370
     9
100
AcDbLine
 10
-79.34938726552393
 20
401.9475184252786
 30
0.0
 11
-64.94126332126713
 21
370.3980502559374
 31
0.0
  0
LINE
  5
16B
330
1F
100
AcDbEntity
  8
1-2ﾚｲﾔ
  6
Continuous
 62
     6
370
     9
100
AcDbLine
 10
-80.25902554149518
 20
401.5318937551984
 30
0.0
 11
-65.85090159723846
 21
369.9826482816976
 31
0.0
  0
LINE
  5
16C
330
1F
100
AcDbEntity
  8
1-2ﾚｲﾔ
  6
Continuous
 62
     6
370
     9
100
AcDbLine
 10
-109.8753453525171
 20
411.2359392313386
 30
0.0
 11
-104.9876170480408
 21
404.6189777263767
 31
0.0
  0
LINE
  5
16D
330
1F
100
AcDbEntity
  8
1-2ﾚｲﾔ
  6
Continuous
 62
     6
370
     9
100
AcDbLine
 10
-99.32906420809151
 20
418.0136871330489
 30
0.0
 11
-95.34050747508893
 21
410.8188299223226
 31
0.0
  0
LINE
  5
16E
330
1F
100
AcDbEntity
  8
1-2ﾚｲﾔ
  6
Continuous
 62
     6
370
     9
100
AcDbLine
 10
-83.94850176087861
 20
399.9820049381588
 30
0.0
 11
-69.58595623195127
 21
368.5324529691976
 31
0.0
  0
LINE
  5
16F
330
1F
100
AcDbEntity
  8
1-2ﾚｲﾔ
  6
Continuous
 62
     6
370
     9
100
AcDbLine
 10
-84.85814003684995
 20
399.5663802680785
 30
0.0
 11
-70.4955945079226
 21
368.1169025310642
 31
0.0
  0
LINE
  5
170
330
1F
100
AcDbEntity
  8
1-2ﾚｲﾔ
  6
Continuous
 62
     6
370
     9
100
AcDbLine
 10
-86.62641924134736
 20
398.6241541674661
 30
0.0
 11
-72.21829529709065
 21
367.0746859981249
 31
0.0
  0
LINE
  5
171
330
1F
100
AcDbEntity
  8
1-2ﾚｲﾔ
  6
Continuous
 62
     6
370
     9
100
AcDbLine
 10
-97.51483542853065
 20
391.6266054713091
 30
0.0
 11
-74.80178974124182
 21
365.4143400442609
 31
0.0
  0
LINE
  5
172
330
1F
100
AcDbEntity
  8
1-2ﾚｲﾔ
  6
Continuous
 62
     6
370
     9
100
AcDbLine
 10
-98.27051664685838
 20
390.9716570047761
 30
0.0
 11
-75.55761942346315
 21
364.7595400416216
 31
0.0
  0
LINE
  5
173
330
1F
100
AcDbEntity
  8
1-2ﾚｲﾔ
  6
Continuous
 62
     6
370
     9
100
AcDbLine
 10
-129.421136566094
 20
391.9386765756165
 30
0.0
 11
-122.8671979839572
 21
386.9667692434797
 31
0.0
  0
LINE
  5
174
330
1F
100
AcDbEntity
  8
1-2ﾚｲﾔ
  6
Continuous
 62
     6
370
     9
100
AcDbLine
 10
-121.2116028746878
 20
401.4130484083868
 30
0.0
 11
-115.3575230868921
 21
395.6332747993285
 31
0.0
  0
LINE
  5
175
330
1F
100
AcDbEntity
  8
1-2ﾚｲﾔ
  6
Continuous
 62
     6
370
     9
100
AcDbLine
 10
-101.3739316463305
 20
388.4450242318665
 30
0.0
 11
-78.73274248353486
 21
362.3156758893833
 31
0.0
  0
LINE
  5
176
330
1F
100
AcDbEntity
  8
1-2ﾚｲﾔ
  6
Continuous
 62
     6
370
     9
100
AcDbLine
 10
-102.129687096605
 20
387.7900757653336
 30
0.0
 11
-79.4884979338094
 21
361.6609501186908
 31
0.0
  0
LINE
  5
177
330
1F
100
AcDbEntity
  8
1-2ﾚｲﾔ
  6
Continuous
 62
     6
370
     9
100
AcDbLine
 10
-103.5608047987799
 20
386.3876115946198
 30
0.0
 11
-80.84783334343776
 21
360.1754203995185
 31
0.0
  0
LINE
  5
178
330
1F
100
AcDbEntity
  8
1-2ﾚｲﾔ
  6
Continuous
 62
     6
370
     9
100
AcDbLine
 10
-112.0366827152706
 20
376.6059195021368
 30
0.0
 11
-82.85892524588714
 21
357.8544101192186
 31
0.0
  0
LINE
  5
179
330
1F
100
AcDbEntity
  8
1-2ﾚｲﾔ
  6
Continuous
 62
     6
370
     9
100
AcDbLine
 10
-112.5773882156928
 20
375.7647230811064
 30
0.0
 11
-83.3996307463094
 21
357.0132879301351
 31
0.0
  0
LINE
  5
17A
330
1F
100
AcDbEntity
  8
1-2ﾚｲﾔ
  6
Continuous
 62
     6
370
     9
100
AcDbLine
 10
-142.7385705161574
 20
367.9163278108361
 30
0.0
 11
-135.049328539806
 21
364.9923314267567
 31
0.0
  0
LINE
  5
17B
330
1F
100
AcDbEntity
  8
1-2ﾚｲﾔ
  6
Continuous
 62
     6
370
     9
100
AcDbLine
 10
-137.5307540571202
 20
379.3199879406925
 30
0.0
 11
-130.2855675864699
 21
375.4237015175506
 31
0.0
  0
LINE
  5
17C
330
1F
100
AcDbEntity
  8
1-2ﾚｲﾔ
  6
Continuous
 62
     6
370
     9
100
AcDbLine
 10
-114.8431699275805
 20
372.4661522935219
 30
0.0
 11
-85.75768276805768
 21
353.7739542360895
 31
0.0
  0
LINE
  5
17D
330
1F
100
AcDbEntity
  8
1-2ﾚｲﾔ
  6
Continuous
 62
     6
370
     9
100
AcDbLine
 10
-115.383801196056
 20
371.6247331766511
 30
0.0
 11
-86.29823980458643
 21
352.9327578150591
 31
0.0
  0
LINE
  5
17E
330
1F
100
AcDbEntity
  8
1-2ﾚｲﾔ
  6
Continuous
 62
     6
370
     9
100
AcDbLine
 10
-116.3618813269681
 20
369.875828510266
 30
0.0
 11
-87.18404962563791
 21
351.1244675912415
 31
0.0
  0
LINE
  5
17F
330
1F
100
AcDbEntity
  8
1-2ﾚｲﾔ
  6
Continuous
 62
     6
370
     9
100
AcDbLine
 10
-121.7386496969007
 20
358.1025675173395
 30
0.0
 11
-88.45979986318018
 21
348.3309709696198
 31
0.0
  0
LINE
  5
180
330
1F
100
AcDbEntity
  8
1-2ﾚｲﾔ
  6
Continuous
 62
     6
370
     9
100
AcDbLine
 10
-122.0202857030239
 20
357.1430453731249
 30
0.0
 11
-88.74158433319705
 21
347.3715230573521
 31
0.0
  0
LINE
  5
181
330
1F
100
AcDbEntity
  8
1-2ﾚｲﾔ
  6
Continuous
 62
     6
370
     9
100
AcDbLine
 10
-146.964521014996
 20
353.5239410392989
 30
0.0
 11
-138.9151798647638
 21
351.8268502717736
 31
0.0
  0
LINE
  5
182
330
1F
100
AcDbEntity
  8
1-2ﾚｲﾔ
  6
Continuous
 62
     6
370
     9
100
AcDbLine
 10
-123.2650069868077
 20
353.3395488834713
 30
0.0
 11
-90.09149228558307
 21
343.5989812895101
 31
0.0
  0
LINE
  5
183
330
1F
100
AcDbEntity
  8
1-2ﾚｲﾔ
  6
Continuous
 62
     6
370
     9
100
AcDbLine
 10
-123.5467172248778
 20
352.3801009712035
 30
0.0
 11
-90.37320252365315
 21
342.6394591452955
 31
0.0
  0
LINE
  5
184
330
1F
100
AcDbEntity
  8
1-2ﾚｲﾔ
  6
Continuous
 62
     6
370
     9
100
AcDbLine
 10
-123.992480065355
 20
350.4266130594636
 30
0.0
 11
-90.71370446358135
 21
340.6550907436908
 31
0.0
  0
LINE
  5
185
330
1F
100
AcDbEntity
  8
1-2ﾚｲﾔ
  6
Continuous
 62
     6
370
     9
100
AcDbLine
 10
-125.8344715930155
 20
337.6152925226182
 30
0.0
 11
-91.15070793433729
 21
337.6152925226182
 31
0.0
  0
LINE
  5
186
330
1F
100
AcDbEntity
  8
1-2ﾚｲﾔ
  6
Continuous
 62
     6
370
     9
100
AcDbLine
 10
-125.8344715930155
 20
336.615239735456
 30
0.0
 11
-91.15078216628409
 21
336.615239735456
 31
0.0
  0
LINE
  5
187
330
1F
100
AcDbEntity
  8
1-2ﾚｲﾔ
  6
Continuous
 62
     6
370
     9
100
AcDbLine
 10
54.49329956803818
 20
343.615312317804
 30
0.0
 11
43.06261900954998
 21
343.615312317804
 31
0.0
  0
LINE
  5
188
330
1F
100
AcDbEntity
  8
1-2ﾚｲﾔ
  6
Continuous
 62
     6
370
     9
100
AcDbLine
 10
43.33044787357029
 20
344.6152166410726
 30
0.0
 11
43.0614312984013
 21
343.6108584009966
 31
0.0
  0
LINE
  5
189
330
1F
100
AcDbEntity
  8
1-2ﾚｲﾔ
  6
Continuous
 62
     6
370
     9
100
AcDbLine
 10
43.2916987973456
 20
341.0859329628631
 30
0.0
 11
35.46616696668677
 21
340.4759690560852
 31
0.0
  0
LINE
  5
18A
330
1F
100
AcDbEntity
  8
1-2ﾚｲﾔ
  6
Continuous
 62
     6
370
     9
100
AcDbLine
 10
-148.4115243537841
 20
344.6152166410726
 30
0.0
 11
-148.1423593147216
 21
343.6108584009966
 31
0.0
  0
LINE
  5
18B
330
1F
100
AcDbEntity
  8
1-2ﾚｲﾔ
  6
Continuous
 62
     6
370
     9
100
AcDbLine
 10
-148.3727752775594
 20
341.0859329628631
 30
0.0
 11
-140.5470949830071
 21
340.4758948241384
 31
0.0
  0
LINE
  5
18C
330
1F
100
AcDbEntity
  8
1-2ﾚｲﾔ
  6
Continuous
 62
     6
370
     9
100
AcDbLine
 10
-159.574376048252
 20
343.615312317804
 30
0.0
 11
-148.1419139230408
 21
343.615312317804
 31
0.0
  0
LINE
  5
18D
330
1F
100
AcDbEntity
  8
1-2ﾚｲﾔ
  6
Continuous
 62
     6
370
     9
100
AcDbLine
 10
-33.80548979138963
 20
345.6152694282348
 30
0.0
 11
-71.27547534090401
 21
345.6152694282348
 31
0.0
  0
ARC
  5
18E
330
1F
100
AcDbEntity
  8
1-2ﾚｲﾔ
  6
Continuous
 62
     6
370
     9
100
AcDbCircle
 10
-52.54051968212018
 20
333.6152298378631
 30
0.0
 40
107.499995876003
100
AcDbArc
 50
2.66587829589845
 51
5.337554931640637
  0
ARC
  5
18F
330
1F
100
AcDbEntity
  8
1-2ﾚｲﾔ
  6
Continuous
 62
     6
370
     9
100
AcDbCircle
 10
-52.54051968212018
 20
333.6152298378631
 30
0.0
 40
108.5000022681984
100
AcDbArc
 50
2.112762451171874
 51
177.8872375488281
  0
ARC
  5
190
330
1F
100
AcDbEntity
  8
1-2ﾚｲﾔ
  6
Continuous
 62
     6
370
     9
100
AcDbCircle
 10
-52.54051968212018
 20
333.6152298378631
 30
0.0
 40
107.499995876003
100
AcDbArc
 50
174.6624450683594
 51
177.3341217041016
  0
ARC
  5
191
330
1F
100
AcDbEntity
  8
1-2ﾚｲﾔ
  6
Continuous
 62
     6
370
     9
100
AcDbCircle
 10
34.04031973273412
 20
350.8483247491807
 30
0.0
 40
1.000000012887491
100
AcDbArc
 50
101.906494140625
 51
191.2575988769531
  0
ARC
  5
192
330
1F
100
AcDbEntity
  8
1-2ﾚｲﾔ
  6
Continuous
 62
     6
370
     9
100
AcDbCircle
 10
-52.54051968212018
 20
333.6152298378631
 30
0.0
 40
87.2793063601932
100
AcDbArc
 50
5.106628417968752
 51
11.25706481933594
  0
ARC
  5
193
330
1F
100
AcDbEntity
  8
1-2ﾚｲﾔ
  6
Continuous
 62
     6
370
     9
100
AcDbCircle
 10
35.38837188645029
 20
341.472978333429
 30
0.0
 40
1.000000012887491
100
AcDbArc
 50
185.1066589355469
 51
274.4585876464843
  0
ARC
  5
194
330
1F
100
AcDbEntity
  8
1-2ﾚｲﾔ
  6
Continuous
 62
     6
370
     9
100
AcDbCircle
 10
20.7533951128017
 20
339.1152232394678
 30
0.0
 40
1.500000019331236
100
AcDbArc
 50
270.0
 51
4.291656494140628
  0
ARC
  5
195
330
1F
100
AcDbEntity
  8
1-2ﾚｲﾔ
  6
Continuous
 62
     6
370
     9
100
AcDbCircle
 10
20.87617475279326
 20
337.1152661290371
 30
0.0
 40
1.500000019331236
100
AcDbArc
 50
270.0
 51
2.729141235351564
  0
ARC
  5
196
330
1F
100
AcDbEntity
  8
1-2ﾚｲﾔ
  6
Continuous
 62
     6
370
     9
100
AcDbCircle
 10
20.87617475279326
 20
337.1152661290371
 30
0.0
 40
2.500000322187269
100
AcDbArc
 50
270.0
 51
2.729141235351564
  0
ARC
  5
197
330
1F
100
AcDbEntity
  8
1-2ﾚｲﾔ
  6
Continuous
 62
     6
370
     9
100
AcDbCircle
 10
-13.94469531160713
 20
339.2158817593158
 30
0.0
 40
2.500000322187269
100
AcDbArc
 50
106.3636474609375
 51
188.2565612792968
  0
ARC
  5
198
330
1F
100
AcDbEntity
  8
1-2ﾚｲﾔ
  6
Continuous
 62
     6
370
     9
100
AcDbCircle
 10
-52.54051968212018
 20
333.6152298378631
 30
0.0
 40
36.50000134029904
100
AcDbArc
 50
5.148895263671881
 51
8.25648498535157
  0
ARC
  5
199
330
1F
100
AcDbEntity
  8
1-2ﾚｲﾔ
  6
Continuous
 62
     6
370
     9
100
AcDbCircle
 10
-13.69787408852854
 20
337.1152661290371
 30
0.0
 40
2.500000322187269
100
AcDbArc
 50
185.1486358642578
 51
270.0
  0
ARC
  5
19A
330
1F
100
AcDbEntity
  8
1-2ﾚｲﾔ
  6
Continuous
 62
     6
370
     9
100
AcDbCircle
 10
-13.93022008198299
 20
339.1152232394678
 30
0.0
 40
1.500000019331236
100
AcDbArc
 50
188.1073455810548
 51
270.0000000000001
  0
ARC
  5
19B
330
1F
100
AcDbEntity
  8
1-2ﾚｲﾔ
  6
Continuous
 62
     6
370
     9
100
AcDbCircle
 10
-13.94469531160713
 20
339.2158817593158
 30
0.0
 40
1.500000019331236
100
AcDbArc
 50
106.3640747070313
 51
188.2564392089844
  0
ARC
  5
19C
330
1F
100
AcDbEntity
  8
1-2ﾚｲﾔ
  6
Continuous
 62
     6
370
     9
100
AcDbCircle
 10
-52.54051968212018
 20
333.6152298378631
 30
0.0
 40
37.50000077324945
100
AcDbArc
 50
5.148834228515633
 51
8.256454467773445
  0
ARC
  5
19D
330
1F
100
AcDbEntity
  8
1-2ﾚｲﾔ
  6
Continuous
 62
     6
370
     9
100
AcDbCircle
 10
-13.69779985658174
 20
337.1152661290371
 30
0.0
 40
1.500000019331236
100
AcDbArc
 50
185.148941040039
 51
270.0
  0
ARC
  5
19E
330
1F
100
AcDbEntity
  8
1-2ﾚｲﾔ
  6
Continuous
 62
     6
370
     9
100
AcDbCircle
 10
19.33408029016654
 20
348.9874040750886
 30
0.0
 40
1.500000019331236
100
AcDbArc
 50
12.07176208496094
 51
106.3631591796875
  0
ARC
  5
19F
330
1F
100
AcDbEntity
  8
1-2ﾚｲﾔ
  6
Continuous
 62
     6
370
     9
100
AcDbCircle
 10
-52.54051968212018
 20
333.6152298378631
 30
0.0
 40
75.0000015464989
100
AcDbArc
 50
2.729415893554686
 51
12.07218933105469
  0
ARC
  5
1A0
330
1F
100
AcDbEntity
  8
1-2ﾚｲﾔ
  6
Continuous
 62
     6
370
     9
100
AcDbCircle
 10
19.33408029016654
 20
348.9874040750886
 30
0.0
 40
2.500000322187269
100
AcDbArc
 50
12.07223510742188
 51
106.3636474609375
  0
ARC
  5
1A1
330
1F
100
AcDbEntity
  8
1-2ﾚｲﾔ
  6
Continuous
 62
     6
370
     9
100
AcDbCircle
 10
-52.54051968212018
 20
333.6152298378631
 30
0.0
 40
76.00000329919763
100
AcDbArc
 50
2.729400634765627
 51
12.07218933105469
  0
ARC
  5
1A2
330
1F
100
AcDbEntity
  8
1-2ﾚｲﾔ
  6
Continuous
 62
     6
370
     9
100
AcDbCircle
 10
25.67809092677975
 20
374.5429394688808
 30
0.0
 40
1.000000012887491
100
AcDbArc
 50
118.2701263427734
 51
207.6212310791016
  0
ARC
  5
1A3
330
1F
100
AcDbEntity
  8
1-2ﾚｲﾔ
  6
Continuous
 62
     6
370
     9
100
AcDbCircle
 10
-52.54051968212018
 20
333.6152298378631
 30
0.0
 40
87.2793063601932
100
AcDbArc
 50
21.47026062011718
 51
27.62069702148437
  0
ARC
  5
1A4
330
1F
100
AcDbEntity
  8
1-2ﾚｲﾔ
  6
Continuous
 62
     6
370
     9
100
AcDbCircle
 10
29.61282949835912
 20
365.9272085646368
 30
0.0
 40
1.000000012887491
100
AcDbArc
 50
201.4702911376953
 51
290.8222198486328
  0
ARC
  5
1A5
330
1F
100
AcDbEntity
  8
1-2ﾚｲﾔ
  6
Continuous
 62
     6
370
     9
100
AcDbCircle
 10
16.23504497555506
 20
359.5417765017145
 30
0.0
 40
1.500000019331236
100
AcDbArc
 50
286.3636322021484
 51
20.65528869628906
  0
ARC
  5
1A6
330
1F
100
AcDbEntity
  8
1-2ﾚｲﾔ
  6
Continuous
 62
     6
370
     9
100
AcDbCircle
 10
16.91619731930506
 20
357.6574727643833
 30
0.0
 40
1.500000019331236
100
AcDbArc
 50
286.3636322021484
 51
19.0927734375
  0
ARC
  5
1A7
330
1F
100
AcDbEntity
  8
1-2ﾚｲﾔ
  6
Continuous
 62
     6
370
     9
100
AcDbCircle
 10
16.91619731930506
 20
357.6574727643833
 30
0.0
 40
2.500000322187269
100
AcDbArc
 50
286.3636322021484
 51
19.0927734375
  0
ARC
  5
1A8
330
1F
100
AcDbEntity
  8
1-2ﾚｲﾔ
  6
Continuous
 62
     6
370
     9
100
AcDbCircle
 10
-17.08604283588924
 20
349.8626729596958
 30
0.0
 40
2.500000322187269
100
AcDbArc
 50
122.7272796630859
 51
204.6201934814453
  0
ARC
  5
1A9
330
1F
100
AcDbEntity
  8
1-2ﾚｲﾔ
  6
Continuous
 62
     6
370
     9
100
AcDbCircle
 10
-52.54051968212018
 20
333.6152298378631
 30
0.0
 40
36.50000134029904
100
AcDbArc
 50
21.51252746582031
 51
24.6201171875
  0
ARC
  5
1AA
330
1F
100
AcDbEntity
  8
1-2ﾚｲﾔ
  6
Continuous
 62
     6
370
     9
100
AcDbCircle
 10
-16.25731738191963
 20
347.9167567065286
 30
0.0
 40
2.500000322187269
100
AcDbArc
 50
201.5122680664063
 51
286.3636322021484
  0
ARC
  5
1AB
330
1F
100
AcDbEntity
  8
1-2ﾚｲﾔ
  6
Continuous
 62
     6
370
     9
100
AcDbCircle
 10
-17.04380485816542
 20
349.7703284178884
 30
0.0
 40
1.500000019331236
100
AcDbArc
 50
204.4709777832032
 51
286.3636322021485
  0
ARC
  5
1AC
330
1F
100
AcDbEntity
  8
1-2ﾚｲﾔ
  6
Continuous
 62
     6
370
     9
100
AcDbCircle
 10
-17.08604283588924
 20
349.8626729596958
 30
0.0
 40
1.500000019331236
100
AcDbArc
 50
122.7277069091797
 51
204.6200714111328
  0
ARC
  5
1AD
330
1F
100
AcDbEntity
  8
1-2ﾚｲﾔ
  6
Continuous
 62
     6
370
     9
100
AcDbCircle
 10
-52.54051968212018
 20
333.6152298378631
 30
0.0
 40
37.50000077324945
100
AcDbArc
 50
21.51246643066407
 51
24.62008666992188
  0
ARC
  5
1AE
330
1F
100
AcDbEntity
  8
1-2ﾚｲﾔ
  6
Continuous
 62
     6
370
     9
100
AcDbCircle
 10
-16.25731738191963
 20
347.9166824745819
 30
0.0
 40
1.500000019331236
100
AcDbArc
 50
201.5125732421875
 51
286.3636322021484
  0
ARC
  5
1AF
330
1F
100
AcDbEntity
  8
1-2ﾚｲﾔ
  6
Continuous
 62
     6
370
     9
100
AcDbCircle
 10
12.09171463349428
 20
368.6141081106672
 30
0.0
 40
1.500000019331236
100
AcDbArc
 50
28.43539428710938
 51
122.7267913818359
  0
ARC
  5
1B0
330
1F
100
AcDbEntity
  8
1-2ﾚｲﾔ
  6
Continuous
 62
     6
370
     9
100
AcDbCircle
 10
-52.54051968212018
 20
333.6152298378631
 30
0.0
 40
75.0000015464989
100
AcDbArc
 50
19.09304809570312
 51
28.43582153320312
  0
ARC
  5
1B1
330
1F
100
AcDbEntity
  8
1-2ﾚｲﾔ
  6
Continuous
 62
     6
370
     9
100
AcDbCircle
 10
12.09171463349428
 20
368.6141081106672
 30
0.0
 40
2.500000322187269
100
AcDbArc
 50
28.43586730957032
 51
122.727279663086
  0
ARC
  5
1B2
330
1F
100
AcDbEntity
  8
1-2ﾚｲﾔ
  6
Continuous
 62
     6
370
     9
100
AcDbCircle
 10
-52.54051968212018
 20
333.6152298378631
 30
0.0
 40
76.00000329919763
100
AcDbArc
 50
19.09303283691406
 51
28.43582153320312
  0
ARC
  5
1B3
330
1F
100
AcDbEntity
  8
1-2ﾚｲﾔ
  6
Continuous
 62
     6
370
     9
100
AcDbCircle
 10
10.97897775110404
 20
394.9219100532348
 30
0.0
 40
1.000000012887491
100
AcDbArc
 50
134.6337585449219
 51
223.98486328125
  0
ARC
  5
1B4
330
1F
100
AcDbEntity
  8
1-2ﾚｲﾔ
  6
Continuous
 62
     6
370
     9
100
AcDbCircle
 10
-52.54051968212018
 20
333.6152298378631
 30
0.0
 40
87.2793063601932
100
AcDbArc
 50
37.83389282226562
 51
43.98432922363281
  0
ARC
  5
1B5
330
1F
100
AcDbEntity
  8
1-2ﾚｲﾔ
  6
Continuous
 62
     6
370
     9
100
AcDbCircle
 10
17.18187345686842
 20
387.7635749603293
 30
0.0
 40
1.000000012887491
100
AcDbArc
 50
217.8339233398438
 51
307.1858520507812
  0
ARC
  5
1B6
330
1F
100
AcDbEntity
  8
1-2ﾚｲﾔ
  6
Continuous
 62
     6
370
     9
100
AcDbCircle
 10
6.144844912210445
 20
377.8678625975759
 30
0.0
 40
1.500000019331236
100
AcDbArc
 50
302.7272644042969
 51
37.01892089843749
  0
ARC
  5
1B7
330
1F
100
AcDbEntity
  8
1-2ﾚｲﾔ
  6
Continuous
 62
     6
370
     9
100
AcDbCircle
 10
7.329289855200287
 20
376.2516846520523
 30
0.0
 40
1.500000019331236
100
AcDbArc
 50
302.7272644042969
 51
35.45640563964843
  0
ARC
  5
1B8
330
1F
100
AcDbEntity
  8
1-2ﾚｲﾔ
  6
Continuous
 62
     6
370
     9
100
AcDbCircle
 10
7.329289855200287
 20
376.2516846520523
 30
0.0
 40
2.500000322187269
100
AcDbArc
 50
302.7272644042969
 51
35.45640563964843
  0
ARC
  5
1B9
330
1F
100
AcDbEntity
  8
1-2ﾚｲﾔ
  6
Continuous
 62
     6
370
     9
100
AcDbCircle
 10
-23.09957284539088
 20
359.1931832795861
 30
0.0
 40
2.500000322187269
100
AcDbArc
 50
139.0909118652344
 51
220.9838256835937
  0
ARC
  5
1BA
330
1F
100
AcDbEntity
  8
1-2ﾚｲﾔ
  6
Continuous
 62
     6
370
     9
100
AcDbCircle
 10
-52.54051968212018
 20
333.6152298378631
 30
0.0
 40
36.50000134029904
100
AcDbArc
 50
37.87615966796875
 51
40.98374938964843
  0
ARC
  5
1BB
330
1F
100
AcDbEntity
  8
1-2ﾚｲﾔ
  6
Continuous
 62
     6
370
     9
100
AcDbCircle
 10
-21.75627153626924
 20
357.5594865946198
 30
0.0
 40
2.500000322187269
100
AcDbArc
 50
217.8759002685547
 51
302.7272644042969
  0
ARC
  5
1BC
330
1F
100
AcDbEntity
  8
1-2ﾚｲﾔ
  6
Continuous
 62
     6
370
     9
100
AcDbCircle
 10
-23.03306102106659
 20
359.1164274466047
 30
0.0
 40
1.500000019331236
100
AcDbArc
 50
220.8346099853516
 51
302.7272644042969
  0
ARC
  5
1BD
330
1F
100
AcDbEntity
  8
1-2ﾚｲﾔ
  6
Continuous
 62
     6
370
     9
100
AcDbCircle
 10
-23.09957284539088
 20
359.1931832795861
 30
0.0
 40
1.500000019331236
100
AcDbArc
 50
139.0913391113282
 51
220.9837036132812
  0
ARC
  5
1BE
330
1F
100
AcDbEntity
  8
1-2ﾚｲﾔ
  6
Continuous
 62
     6
370
     9
100
AcDbCircle
 10
-52.54051968212018
 20
333.6152298378631
 30
0.0
 40
37.50000077324945
100
AcDbArc
 50
37.8760986328125
 51
40.98371887207031
  0
ARC
  5
1BF
330
1F
100
AcDbEntity
  8
1-2ﾚｲﾔ
  6
Continuous
 62
     6
370
     9
100
AcDbCircle
 10
-21.75627153626924
 20
357.5594865946198
 30
0.0
 40
1.500000019331236
100
AcDbArc
 50
217.8762054443359
 51
302.7272644042969
  0
ARC
  5
1C0
330
1F
100
AcDbEntity
  8
1-2ﾚｲﾔ
  6
Continuous
 62
     6
370
     9
100
AcDbCircle
 10
-0.38667562199565
 20
385.4053744746874
 30
0.0
 40
1.500000019331236
100
AcDbArc
 50
44.79902648925781
 51
139.0904235839844
  0
ARC
  5
1C1
330
1F
100
AcDbEntity
  8
1-2ﾚｲﾔ
  6
Continuous
 62
     6
370
     9
100
AcDbCircle
 10
-52.54051968212018
 20
333.6152298378631
 30
0.0
 40
75.0000015464989
100
AcDbArc
 50
35.45668029785156
 51
44.79945373535156
  0
ARC
  5
1C2
330
1F
100
AcDbEntity
  8
1-2ﾚｲﾔ
  6
Continuous
 62
     6
370
     9
100
AcDbCircle
 10
-0.38667562199565
 20
385.4053744746874
 30
0.0
 40
2.500000322187269
100
AcDbArc
 50
44.79949951171874
 51
139.0909118652344
  0
ARC
  5
1C3
330
1F
100
AcDbEntity
  8
1-2ﾚｲﾔ
  6
Continuous
 62
     6
370
     9
100
AcDbCircle
 10
-52.54051968212018
 20
333.6152298378631
 30
0.0
 40
76.00000329919763
100
AcDbArc
 50
35.45666503906249
 51
44.79945373535156
  0
ARC
  5
1C4
330
1F
100
AcDbEntity
  8
1-2ﾚｲﾔ
  6
Continuous
 62
     6
370
     9
100
AcDbCircle
 10
-8.866042439985492
 20
410.3340210778336
 30
0.0
 40
1.000000012887491
100
AcDbArc
 50
150.9973907470703
 51
240.3484954833984
  0
ARC
  5
1C5
330
1F
100
AcDbEntity
  8
1-2ﾚｲﾔ
  6
Continuous
 62
     6
370
     9
100
AcDbCircle
 10
-52.54051968212018
 20
333.6152298378631
 30
0.0
 40
87.2793063601932
100
AcDbArc
 50
54.19752502441406
 51
60.34796142578124
  0
ARC
  5
1C6
330
1F
100
AcDbEntity
  8
1-2ﾚｲﾔ
  6
Continuous
 62
     6
370
     9
100
AcDbCircle
 10
-0.8976883437017449
 20
405.2131302284881
 30
0.0
 40
1.000000012887491
100
AcDbArc
 50
234.1975555419922
 51
323.5494842529297
  0
ARC
  5
1C7
330
1F
100
AcDbEntity
  8
1-2ﾚｲﾔ
  6
Continuous
 62
     6
370
     9
100
AcDbCircle
 10
-8.699762879174713
 20
392.6088425912415
 30
0.0
 40
1.500000019331236
100
AcDbArc
 50
319.0908966064453
 51
53.38255310058593
  0
ARC
  5
1C8
330
1F
100
AcDbEntity
  8
1-2ﾚｲﾔ
  6
Continuous
 62
     6
370
     9
100
AcDbCircle
 10
-7.107933012198302
 20
391.3918840555573
 30
0.0
 40
1.500000019331236
100
AcDbArc
 50
319.0908966064453
 51
51.82003784179686
  0
ARC
  5
1C9
330
1F
100
AcDbEntity
  8
1-2ﾚｲﾔ
  6
Continuous
 62
     6
370
     9
100
AcDbCircle
 10
-7.107933012198302
 20
391.3918840555573
 30
0.0
 40
2.500000322187269
100
AcDbArc
 50
319.0908966064453
 51
51.82003784179686
  0
ARC
  5
1CA
330
1F
100
AcDbEntity
  8
1-2ﾚｲﾔ
  6
Continuous
 62
     6
370
     9
100
AcDbCircle
 10
-31.49828665319284
 20
366.4515088048183
 30
0.0
 40
2.500000322187269
100
AcDbArc
 50
155.4545440673828
 51
237.3474578857422
  0
ARC
  5
1CB
330
1F
100
AcDbEntity
  8
1-2ﾚｲﾔ
  6
Continuous
 62
     6
370
     9
100
AcDbCircle
 10
-52.54051968212018
 20
333.6152298378631
 30
0.0
 40
36.50000134029904
100
AcDbArc
 50
54.23979187011718
 51
57.34738159179686
  0
ARC
  5
1CC
330
1F
100
AcDbEntity
  8
1-2ﾚｲﾔ
  6
Continuous
 62
     6
370
     9
100
AcDbCircle
 10
-29.74908505902057
 20
365.2626099450211
 30
0.0
 40
2.500000322187269
100
AcDbArc
 50
234.2395324707032
 51
319.0908966064453
  0
ARC
  5
1CD
330
1F
100
AcDbEntity
  8
1-2ﾚｲﾔ
  6
Continuous
 62
     6
370
     9
100
AcDbCircle
 10
-31.4127714504901
 20
366.3965771641933
 30
0.0
 40
1.500000019331236
100
AcDbArc
 50
237.1982421875001
 51
319.0908966064454
  0
ARC
  5
1CE
330
1F
100
AcDbEntity
  8
1-2ﾚｲﾔ
  6
Continuous
 62
     6
370
     9
100
AcDbCircle
 10
-31.49828665319284
 20
366.4515088048183
 30
0.0
 40
1.500000019331236
100
AcDbArc
 50
155.4549713134766
 51
237.3473358154297
  0
ARC
  5
1CF
330
1F
100
AcDbEntity
  8
1-2ﾚｲﾔ
  6
Continuous
 62
     6
370
     9
100
AcDbCircle
 10
-52.54051968212018
 20
333.6152298378631
 30
0.0
 40
37.50000077324945
100
AcDbArc
 50
54.23973083496094
 51
57.34735107421875
  0
ARC
  5
1D0
330
1F
100
AcDbEntity
  8
1-2ﾚｲﾔ
  6
Continuous
 62
     6
370
     9
100
AcDbCircle
 10
-29.74908505902057
 20
365.2626099450211
 30
0.0
 40
1.500000019331236
100
AcDbArc
 50
234.2398376464843
 51
319.0908966064453
  0
ARC
  5
1D1
330
1F
100
AcDbEntity
  8
1-2ﾚｲﾔ
  6
Continuous
 62
     6
370
     9
100
AcDbCircle
 10
-17.09019982490948
 20
398.0010512061064
 30
0.0
 40
1.500000019331236
100
AcDbArc
 50
61.16265869140624
 51
155.4540557861328
  0
ARC
  5
1D2
330
1F
100
AcDbEntity
  8
1-2ﾚｲﾔ
  6
Continuous
 62
     6
370
     9
100
AcDbCircle
 10
-52.54051968212018
 20
333.6152298378631
 30
0.0
 40
75.0000015464989
100
AcDbArc
 50
51.82031249999998
 51
61.16308593749999
  0
ARC
  5
1D3
330
1F
100
AcDbEntity
  8
1-2ﾚｲﾔ
  6
Continuous
 62
     6
370
     9
100
AcDbCircle
 10
-17.09019982490948
 20
398.0010512061064
 30
0.0
 40
2.500000322187269
100
AcDbArc
 50
61.16313171386717
 51
155.4545440673828
  0
ARC
  5
1D4
330
1F
100
AcDbEntity
  8
1-2ﾚｲﾔ
  6
Continuous
 62
     6
370
     9
100
AcDbCircle
 10
-52.54051968212018
 20
333.6152298378631
 30
0.0
 40
76.00000329919763
100
AcDbArc
 50
51.82029724121093
 51
61.16308593749999
  0
ARC
  5
1D5
330
1F
100
AcDbEntity
  8
1-2ﾚｲﾔ
  6
Continuous
 62
     6
370
     9
100
AcDbCircle
 10
-32.24929125887276
 20
419.5309881254476
 30
0.0
 40
1.000000012887491
100
AcDbArc
 50
167.3610382080078
 51
256.7121429443359
  0
ARC
  5
1D6
330
1F
100
AcDbEntity
  8
1-2ﾚｲﾔ
  6
Continuous
 62
     6
370
     9
100
AcDbCircle
 10
-52.54051968212018
 20
333.6152298378631
 30
0.0
 40
87.2793063601932
100
AcDbArc
 50
70.56117248535158
 51
76.71160888671876
  0
ARC
  5
1D7
330
1F
100
AcDbEntity
  8
1-2ﾚｲﾔ
  6
Continuous
 62
     6
370
     9
100
AcDbCircle
 10
-23.16118536122706
 20
416.8624981022213
 30
0.0
 40
1.000000012887491
100
AcDbArc
 50
250.5612030029297
 51
339.9131317138672
  0
ARC
  5
1D8
330
1F
100
AcDbEntity
  8
1-2ﾚｲﾔ
  6
Continuous
 62
     6
370
     9
100
AcDbCircle
 10
-27.09607239670002
 20
402.5706213866384
 30
0.0
 40
1.500000019331236
100
AcDbArc
 50
335.4545440673828
 51
69.74620056152345
  0
ARC
  5
1D9
330
1F
100
AcDbEntity
  8
1-2ﾚｲﾔ
  6
Continuous
 62
     6
370
     9
100
AcDbCircle
 10
-25.22587272925917
 20
401.8513138222381
 30
0.0
 40
1.500000019331236
100
AcDbArc
 50
335.4545440673828
 51
68.18368530273439
  0
ARC
  5
1DA
330
1F
100
AcDbEntity
  8
1-2ﾚｲﾔ
  6
Continuous
 62
     6
370
     9
100
AcDbCircle
 10
-25.22587272925917
 20
401.8513138222381
 30
0.0
 40
2.500000322187269
100
AcDbArc
 50
335.4545440673828
 51
68.18368530273439
  0
ARC
  5
1DB
330
1F
100
AcDbEntity
  8
1-2ﾚｲﾔ
  6
Continuous
 62
     6
370
     9
100
AcDbCircle
 10
-41.60170000306611
 20
371.0498067487583
 30
0.0
 40
2.500000322187269
100
AcDbArc
 50
171.8181915283204
 51
253.7111053466797
  0
ARC
  5
1DC
330
1F
100
AcDbEntity
  8
1-2ﾚｲﾔ
  6
Continuous
 62
     6
370
     9
100
AcDbCircle
 10
-52.54051968212018
 20
333.6152298378631
 30
0.0
 40
36.50000134029904
100
AcDbArc
 50
70.60343933105472
 51
73.71102905273439
  0
ARC
  5
1DD
330
1F
100
AcDbEntity
  8
1-2ﾚｲﾔ
  6
Continuous
 62
     6
370
     9
100
AcDbCircle
 10
-39.58838114221307
 20
370.401761853277
 30
0.0
 40
2.500000322187269
100
AcDbArc
 50
250.6031799316407
 51
335.4545440673829
  0
ARC
  5
1DE
330
1F
100
AcDbEntity
  8
1-2ﾚｲﾔ
  6
Continuous
 62
     6
370
     9
100
AcDbCircle
 10
-41.50415922498338
 20
371.0211532172973
 30
0.0
 40
1.500000019331236
100
AcDbArc
 50
253.5618896484376
 51
335.4545440673829
  0
ARC
  5
1DF
330
1F
100
AcDbEntity
  8
1-2ﾚｲﾔ
  6
Continuous
 62
     6
370
     9
100
AcDbCircle
 10
-41.60170000306611
 20
371.0498067487583
 30
0.0
 40
1.500000019331236
100
AcDbArc
 50
171.8186187744141
 51
253.7109832763672
  0
ARC
  5
1E0
330
1F
100
AcDbEntity
  8
1-2ﾚｲﾔ
  6
Continuous
 62
     6
370
     9
100
AcDbCircle
 10
-52.54051968212018
 20
333.6152298378631
 30
0.0
 40
37.50000077324945
100
AcDbArc
 50
70.60337829589847
 51
73.71099853515628
  0
ARC
  5
1E1
330
1F
100
AcDbEntity
  8
1-2ﾚｲﾔ
  6
Continuous
 62
     6
370
     9
100
AcDbCircle
 10
-39.58838114221307
 20
370.401761853277
 30
0.0
 40
1.500000019331236
100
AcDbArc
 50
250.6034851074219
 51
335.4545440673828
  0
ARC
  5
1E2
330
1F
100
AcDbEntity
  8
1-2ﾚｲﾔ
  6
Continuous
 62
     6
370
     9
100
AcDbCircle
 10
-36.66572093317596
 20
405.380449036554
 30
0.0
 40
1.500000019331236
100
AcDbArc
 50
77.52630615234378
 51
171.8177032470703
  0
ARC
  5
1E3
330
1F
100
AcDbEntity
  8
1-2ﾚｲﾔ
  6
Continuous
 62
     6
370
     9
100
AcDbCircle
 10
-52.54051968212018
 20
333.6152298378631
 30
0.0
 40
75.0000015464989
100
AcDbArc
 50
68.18395996093751
 51
77.52673339843751
  0
ARC
  5
1E4
330
1F
100
AcDbEntity
  8
1-2ﾚｲﾔ
  6
Continuous
 62
     6
370
     9
100
AcDbCircle
 10
-36.66564670122916
 20
405.380449036554
 30
0.0
 40
2.500000322187269
100
AcDbArc
 50
77.52677917480472
 51
171.8181915283204
  0
ARC
  5
1E5
330
1F
100
AcDbEntity
  8
1-2ﾚｲﾔ
  6
Continuous
 62
     6
370
     9
100
AcDbCircle
 10
-52.54051968212018
 20
333.6152298378631
 30
0.0
 40
76.00000329919763
100
AcDbArc
 50
68.18394470214845
 51
77.52673339843751
  0
ARC
  5
1E6
330
1F
100
AcDbEntity
  8
1-2ﾚｲﾔ
  6
Continuous
 62
     6
370
     9
100
AcDbCircle
 10
-57.27644365540986
 20
421.7673739864061
 30
0.0
 40
1.000000012887491
100
AcDbArc
 50
183.7246704101562
 51
273.0757751464844
  0
ARC
  5
1E7
330
1F
100
AcDbEntity
  8
1-2ﾚｲﾔ
  6
Continuous
 62
     6
370
     9
100
AcDbCircle
 10
-52.54051968212018
 20
333.6152298378631
 30
0.0
 40
87.2793063601932
100
AcDbArc
 50
86.92480468750001
 51
93.07524108886722
  0
ARC
  5
1E8
330
1F
100
AcDbEntity
  8
1-2ﾚｲﾔ
  6
Continuous
 62
     6
370
     9
100
AcDbCircle
 10
-47.80459570883049
 20
421.7673739864061
 30
0.0
 40
1.000000012887491
100
AcDbArc
 50
266.9248352050781
 51
356.2767639160157
  0
ARC
  5
1E9
330
1F
100
AcDbEntity
  8
1-2ﾚｲﾔ
  6
Continuous
 62
     6
370
     9
100
AcDbCircle
 10
-47.55369172867846
 20
406.9460007943665
 30
0.0
 40
1.500000019331236
100
AcDbArc
 50
351.8181762695312
 51
86.10983276367189
  0
ARC
  5
1EA
330
1F
100
AcDbEntity
  8
1-2ﾚｲﾔ
  6
Continuous
 62
     6
370
     9
100
AcDbCircle
 10
-45.5566296641726
 20
406.7826905114273
 30
0.0
 40
1.500000019331236
100
AcDbArc
 50
351.8181762695312
 51
84.54731750488283
  0
ARC
  5
1EB
330
1F
100
AcDbEntity
  8
1-2ﾚｲﾔ
  6
Continuous
 62
     6
370
     9
100
AcDbCircle
 10
-45.5566296641726
 20
406.7826905114273
 30
0.0
 40
2.500000322187269
100
AcDbArc
 50
351.8181762695312
 51
84.54731750488283
  0
ARC
  5
1EC
330
1F
100
AcDbEntity
  8
1-2ﾚｲﾔ
  6
Continuous
 62
     6
370
     9
100
AcDbCircle
 10
-52.59129433372495
 20
372.6152100426773
 30
0.0
 40
2.500000322187269
100
AcDbArc
 50
188.1818237304688
 51
270.0747375488281
  0
ARC
  5
1ED
330
1F
100
AcDbEntity
  8
1-2ﾚｲﾔ
  6
Continuous
 62
     6
370
     9
100
AcDbCircle
 10
-52.54051968212018
 20
333.6152298378631
 30
0.0
 40
36.50000134029904
100
AcDbArc
 50
86.96707153320314
 51
90.07466125488281
  0
ARC
  5
1EE
330
1F
100
AcDbEntity
  8
1-2ﾚｲﾔ
  6
Continuous
 62
     6
370
     9
100
AcDbCircle
 10
-50.47702002523674
 20
372.5605753298395
 30
0.0
 40
2.500000322187269
100
AcDbArc
 50
266.9668121337891
 51
351.8181762695313
  0
ARC
  5
1EF
330
1F
100
AcDbEntity
  8
1-2ﾚｲﾔ
  6
Continuous
 62
     6
370
     9
100
AcDbCircle
 10
-52.48974503051549
 20
372.6152100426773
 30
0.0
 40
1.500000019331236
100
AcDbArc
 50
269.925521850586
 51
351.8181762695313
  0
ARC
  5
1F0
330
1F
100
AcDbEntity
  8
1-2ﾚｲﾔ
  6
Continuous
 62
     6
370
     9
100
AcDbCircle
 10
-52.59129433372495
 20
372.6152100426773
 30
0.0
 40
1.500000019331236
100
AcDbArc
 50
188.1822509765626
 51
270.0746154785157
  0
ARC
  5
1F1
330
1F
100
AcDbEntity
  8
1-2ﾚｲﾔ
  6
Continuous
 62
     6
370
     9
100
AcDbCircle
 10
-52.54051968212018
 20
333.6152298378631
 30
0.0
 40
37.50000077324945
100
AcDbArc
 50
86.96701049804689
 51
90.07463073730472
  0
ARC
  5
1F2
330
1F
100
AcDbEntity
  8
1-2ﾚｲﾔ
  6
Continuous
 62
     6
370
     9
100
AcDbCircle
 10
-50.47702002523674
 20
372.560723793733
 30
0.0
 40
1.500000019331236
100
AcDbArc
 50
266.9671173095703
 51
351.8181762695312
  0
ARC
  5
1F3
330
1F
100
AcDbEntity
  8
1-2ﾚｲﾔ
  6
Continuous
 62
     6
370
     9
100
AcDbCircle
 10
-57.5272734036151
 20
406.9460007943665
 30
0.0
 40
1.500000019331236
100
AcDbArc
 50
93.8899383544922
 51
188.1813354492188
  0
ARC
  5
1F4
330
1F
100
AcDbEntity
  8
1-2ﾚｲﾔ
  6
Continuous
 62
     6
370
     9
100
AcDbCircle
 10
-52.54051968212018
 20
333.6152298378631
 30
0.0
 40
75.0000015464989
100
AcDbArc
 50
84.54759216308594
 51
93.89036560058595
  0
ARC
  5
1F5
330
1F
100
AcDbEntity
  8
1-2ﾚｲﾔ
  6
Continuous
 62
     6
370
     9
100
AcDbCircle
 10
-57.5272734036151
 20
406.9460007943665
 30
0.0
 40
2.500000322187269
100
AcDbArc
 50
93.89041137695315
 51
188.1818237304688
  0
ARC
  5
1F6
330
1F
100
AcDbEntity
  8
1-2ﾚｲﾔ
  6
Continuous
 62
     6
370
     9
100
AcDbCircle
 10
-52.54051968212018
 20
333.6152298378631
 30
0.0
 40
76.00000329919763
100
AcDbArc
 50
84.54757690429689
 51
93.89036560058595
  0
ARC
  5
1F7
330
1F
100
AcDbEntity
  8
1-2ﾚｲﾔ
  6
Continuous
 62
     6
370
     9
100
AcDbCircle
 10
-81.91996535093354
 20
416.8623496383277
 30
0.0
 40
1.000000012887491
100
AcDbArc
 50
200.0883026123047
 51
289.4394073486328
  0
ARC
  5
1F8
330
1F
100
AcDbEntity
  8
1-2ﾚｲﾔ
  6
Continuous
 62
     6
370
     9
100
AcDbCircle
 10
-52.54051968212018
 20
333.6152298378631
 30
0.0
 40
87.2793063601932
100
AcDbArc
 50
103.2884368896484
 51
109.4388732910156
  0
ARC
  5
1F9
330
1F
100
AcDbEntity
  8
1-2ﾚｲﾔ
  6
Continuous
 62
     6
370
     9
100
AcDbCircle
 10
-72.83182233731448
 20
419.5309881254476
 30
0.0
 40
1.000000012887491
100
AcDbArc
 50
283.2884674072266
 51
12.64039611816407
  0
ARC
  5
1FA
330
1F
100
AcDbEntity
  8
1-2ﾚｲﾔ
  6
Continuous
 62
     6
370
     9
100
AcDbCircle
 10
-68.41531843106448
 20
405.380449036554
 30
0.0
 40
1.500000019331236
100
AcDbArc
 50
8.18180847167969
 51
102.4734649658203
  0
ARC
  5
1FB
330
1F
100
AcDbEntity
  8
1-2ﾚｲﾔ
  6
Continuous
 62
     6
370
     9
100
AcDbCircle
 10
-66.4531453815501
 20
405.7864977854983
 30
0.0
 40
1.500000019331236
100
AcDbArc
 50
8.18180847167969
 51
100.9109497070312
  0
ARC
  5
1FC
330
1F
100
AcDbEntity
  8
1-2ﾚｲﾔ
  6
Continuous
 62
     6
370
     9
100
AcDbCircle
 10
-66.4531453815501
 20
405.7864977854983
 30
0.0
 40
2.500000322187269
100
AcDbArc
 50
8.18180847167969
 51
100.9109497070312
  0
ARC
  5
1FD
330
1F
100
AcDbEntity
  8
1-2ﾚｲﾔ
  6
Continuous
 62
     6
370
     9
100
AcDbCircle
 10
-63.57680590731026
 20
371.0213016811908
 30
0.0
 40
2.500000322187269
100
AcDbArc
 50
204.5454559326172
 51
286.4383697509766
  0
ARC
  5
1FE
330
1F
100
AcDbEntity
  8
1-2ﾚｲﾔ
  6
Continuous
 62
     6
370
     9
100
AcDbCircle
 10
-52.54051968212018
 20
333.6152298378631
 30
0.0
 40
36.50000134029904
100
AcDbArc
 50
103.3307037353516
 51
106.4382934570312
  0
ARC
  5
1FF
330
1F
100
AcDbEntity
  8
1-2ﾚｲﾔ
  6
Continuous
 62
     6
370
     9
100
AcDbCircle
 10
-61.53275502048588
 20
371.5643083719636
 30
0.0
 40
2.500000322187269
100
AcDbArc
 50
283.3304443359375
 51
8.18180847167972
  0
ARC
  5
200
330
1F
100
AcDbEntity
  8
1-2ﾚｲﾔ
  6
Continuous
 62
     6
370
     9
100
AcDbCircle
 10
-63.47933936117424
 20
371.0498067487583
 30
0.0
 40
1.500000019331236
100
AcDbArc
 50
286.2891540527344
 51
8.181808471679744
  0
ARC
  5
201
330
1F
100
AcDbEntity
  8
1-2ﾚｲﾔ
  6
Continuous
 62
     6
370
     9
100
AcDbCircle
 10
-63.57680590731026
 20
371.0213016811908
 30
0.0
 40
1.500000019331236
100
AcDbArc
 50
204.5458831787109
 51
286.4382476806641
  0
ARC
  5
202
330
1F
100
AcDbEntity
  8
1-2ﾚｲﾔ
  6
Continuous
 62
     6
370
     9
100
AcDbCircle
 10
-52.54051968212018
 20
333.6152298378631
 30
0.0
 40
37.50000077324945
100
AcDbArc
 50
103.3306427001953
 51
106.4382629394531
  0
ARC
  5
203
330
1F
100
AcDbEntity
  8
1-2ﾚｲﾔ
  6
Continuous
 62
     6
370
     9
100
AcDbCircle
 10
-61.53275502048588
 20
371.5643083719636
 30
0.0
 40
1.500000019331236
100
AcDbArc
 50
283.3307495117188
 51
8.181808471679695
  0
ARC
  5
204
330
1F
100
AcDbEntity
  8
1-2ﾚｲﾔ
  6
Continuous
 62
     6
370
     9
100
AcDbCircle
 10
-77.98492985156697
 20
402.5706213866384
 30
0.0
 40
1.500000019331236
100
AcDbArc
 50
110.2535705566406
 51
204.5449676513672
  0
ARC
  5
205
330
1F
100
AcDbEntity
  8
1-2ﾚｲﾔ
  6
Continuous
 62
     6
370
     9
100
AcDbCircle
 10
-52.54051968212018
 20
333.6152298378631
 30
0.0
 40
75.0000015464989
100
AcDbArc
 50
100.9112243652344
 51
110.2539978027344
  0
ARC
  5
206
330
1F
100
AcDbEntity
  8
1-2ﾚｲﾔ
  6
Continuous
 62
     6
370
     9
100
AcDbCircle
 10
-77.98492985156697
 20
402.5706213866384
 30
0.0
 40
2.500000322187269
100
AcDbArc
 50
110.2540435791016
 51
204.5454559326172
  0
ARC
  5
207
330
1F
100
AcDbEntity
  8
1-2ﾚｲﾔ
  6
Continuous
 62
     6
370
     9
100
AcDbCircle
 10
-52.54051968212018
 20
333.6152298378631
 30
0.0
 40
76.00000329919763
100
AcDbArc
 50
100.9112091064453
 51
110.2539978027344
  0
ARC
  5
208
330
1F
100
AcDbEntity
  8
1-2ﾚｲﾔ
  6
Continuous
 62
     6
370
     9
100
AcDbCircle
 10
-104.1833139045653
 20
405.2131302284881
 30
0.0
 40
1.000000012887491
100
AcDbArc
 50
216.4519348144531
 51
305.8030395507812
  0
ARC
  5
209
330
1F
100
AcDbEntity
  8
1-2ﾚｲﾔ
  6
Continuous
 62
     6
370
     9
100
AcDbCircle
 10
-52.54051968212018
 20
333.6152298378631
 30
0.0
 40
87.2793063601932
100
AcDbArc
 50
119.6520690917969
 51
125.8025054931641
  0
ARC
  5
20A
330
1F
100
AcDbEntity
  8
1-2ﾚｲﾔ
  6
Continuous
 62
     6
370
     9
100
AcDbCircle
 10
-96.2151082721751
 20
410.3340210778336
 30
0.0
 40
1.000000012887491
100
AcDbArc
 50
299.652099609375
 51
29.0040283203125
  0
ARC
  5
20B
330
1F
100
AcDbEntity
  8
1-2ﾚｲﾔ
  6
Continuous
 62
     6
370
     9
100
AcDbCircle
 10
-87.99087665530432
 20
398.0010512061064
 30
0.0
 40
1.500000019331236
100
AcDbArc
 50
24.54544067382812
 51
118.8370971679687
  0
ARC
  5
20C
330
1F
100
AcDbEntity
  8
1-2ﾚｲﾔ
  6
Continuous
 62
     6
370
     9
100
AcDbCircle
 10
-86.2225974508069
 20
398.9435000025591
 30
0.0
 40
1.500000019331236
100
AcDbArc
 50
24.54544067382812
 51
117.2745819091797
  0
ARC
  5
20D
330
1F
100
AcDbEntity
  8
1-2ﾚｲﾔ
  6
Continuous
 62
     6
370
     9
100
AcDbCircle
 10
-86.2225974508069
 20
398.9435000025591
 30
0.0
 40
2.500000322187269
100
AcDbArc
 50
24.54544067382812
 51
117.2745819091797
  0
ARC
  5
20E
330
1F
100
AcDbEntity
  8
1-2ﾚｲﾔ
  6
Continuous
 62
     6
370
     9
100
AcDbCircle
 10
-73.66826791375026
 20
366.3965771641933
 30
0.0
 40
2.500000322187269
100
AcDbArc
 50
220.9090881347656
 51
302.802001953125
  0
ARC
  5
20F
330
1F
100
AcDbEntity
  8
1-2ﾚｲﾔ
  6
Continuous
 62
     6
370
     9
100
AcDbCircle
 10
-52.54051968212018
 20
333.6152298378631
 30
0.0
 40
36.50000134029904
100
AcDbArc
 50
119.6943359375
 51
122.8019256591797
  0
ARC
  5
210
330
1F
100
AcDbEntity
  8
1-2ﾚｲﾔ
  6
Continuous
 62
     6
370
     9
100
AcDbCircle
 10
-71.86005192187947
 20
367.4937995697043
 30
0.0
 40
2.500000322187269
100
AcDbArc
 50
299.6940765380859
 51
24.54544067382815
  0
ARC
  5
211
330
1F
100
AcDbEntity
  8
1-2ﾚｲﾔ
  6
Continuous
 62
     6
370
     9
100
AcDbCircle
 10
-73.5827527110476
 20
366.4515088048183
 30
0.0
 40
1.500000019331236
100
AcDbArc
 50
302.6527862548829
 51
24.54544067382817
  0
ARC
  5
212
330
1F
100
AcDbEntity
  8
1-2ﾚｲﾔ
  6
Continuous
 62
     6
370
     9
100
AcDbCircle
 10
-73.66819368180346
 20
366.3965771641933
 30
0.0
 40
1.500000019331236
100
AcDbArc
 50
220.9095153808594
 51
302.8018798828126
  0
ARC
  5
213
330
1F
100
AcDbEntity
  8
1-2ﾚｲﾔ
  6
Continuous
 62
     6
370
     9
100
AcDbCircle
 10
-52.54051968212018
 20
333.6152298378631
 30
0.0
 40
37.50000077324945
100
AcDbArc
 50
119.6942749023438
 51
122.8018951416016
  0
ARC
  5
214
330
1F
100
AcDbEntity
  8
1-2ﾚｲﾔ
  6
Continuous
 62
     6
370
     9
100
AcDbCircle
 10
-71.85997768993268
 20
367.4937995697043
 30
0.0
 40
1.500000019331236
100
AcDbArc
 50
299.6943817138672
 51
24.54544067382812
  0
ARC
  5
215
330
1F
100
AcDbEntity
  8
1-2ﾚｲﾔ
  6
Continuous
 62
     6
370
     9
100
AcDbCircle
 10
-96.38116513714557
 20
392.6088425912415
 30
0.0
 40
1.500000019331236
100
AcDbArc
 50
126.6172027587891
 51
220.9085998535156
  0
ARC
  5
216
330
1F
100
AcDbEntity
  8
1-2ﾚｲﾔ
  6
Continuous
 62
     6
370
     9
100
AcDbCircle
 10
-52.54051968212018
 20
333.6152298378631
 30
0.0
 40
75.0000015464989
100
AcDbArc
 50
117.2748565673828
 51
126.6176300048828
  0
ARC
  5
217
330
1F
100
AcDbEntity
  8
1-2ﾚｲﾔ
  6
Continuous
 62
     6
370
     9
100
AcDbCircle
 10
-96.38116513714557
 20
392.6088425912415
 30
0.0
 40
2.500000322187269
100
AcDbArc
 50
126.61767578125
 51
220.9090881347657
  0
ARC
  5
218
330
1F
100
AcDbEntity
  8
1-2ﾚｲﾔ
  6
Continuous
 62
     6
370
     9
100
AcDbCircle
 10
-52.54051968212018
 20
333.6152298378631
 30
0.0
 40
76.00000329919763
100
AcDbArc
 50
117.2748413085938
 51
126.6176300048828
  0
ARC
  5
219
330
1F
100
AcDbEntity
  8
1-2ﾚｲﾔ
  6
Continuous
 62
     6
370
     9
100
AcDbCircle
 10
-122.2628757051354
 20
387.7634264964358
 30
0.0
 40
1.000000012887491
100
AcDbArc
 50
232.8155670166016
 51
322.1666717529297
  0
ARC
  5
21A
330
1F
100
AcDbEntity
  8
1-2ﾚｲﾔ
  6
Continuous
 62
     6
370
     9
100
AcDbCircle
 10
-52.54051968212018
 20
333.6152298378631
 30
0.0
 40
87.2793063601932
100
AcDbArc
 50
136.0157012939453
 51
142.1661376953125
  0
ARC
  5
21B
330
1F
100
AcDbEntity
  8
1-2ﾚｲﾔ
  6
Continuous
 62
     6
370
     9
100
AcDbCircle
 10
-116.0601284632646
 20
394.9217615893411
 30
0.0
 40
1.000000012887491
100
AcDbArc
 50
316.0157318115234
 51
45.36766052246094
  0
ARC
  5
21C
330
1F
100
AcDbEntity
  8
1-2ﾚｲﾔ
  6
Continuous
 62
     6
370
     9
100
AcDbCircle
 10
-104.6944008582181
 20
385.4053744746874
 30
0.0
 40
1.500000019331236
100
AcDbArc
 50
40.90907287597656
 51
135.2007293701172
  0
ARC
  5
21D
330
1F
100
AcDbEntity
  8
1-2ﾚｲﾔ
  6
Continuous
 62
     6
370
     9
100
AcDbCircle
 10
-103.2632831560434
 20
386.8077644134543
 30
0.0
 40
1.500000019331236
100
AcDbArc
 50
40.90907287597656
 51
133.6382141113281
  0
ARC
  5
21E
330
1F
100
AcDbEntity
  8
1-2ﾚｲﾔ
  6
Continuous
 62
     6
370
     9
100
AcDbCircle
 10
-103.2632831560434
 20
386.8077644134543
 30
0.0
 40
2.500000322187269
100
AcDbArc
 50
40.90907287597656
 51
133.6382141113281
  0
ARC
  5
21F
330
1F
100
AcDbEntity
  8
1-2ﾚｲﾔ
  6
Continuous
 62
     6
370
     9
100
AcDbCircle
 10
-82.04801545914721
 20
359.1164274466047
 30
0.0
 40
2.500000322187269
100
AcDbArc
 50
237.272720336914
 51
319.1656341552734
  0
ARC
  5
220
330
1F
100
AcDbEntity
  8
1-2ﾚｲﾔ
  6
Continuous
 62
     6
370
     9
100
AcDbCircle
 10
-52.54051968212018
 20
333.6152298378631
 30
0.0
 40
36.50000134029904
100
AcDbArc
 50
136.0579681396485
 51
139.1655578613282
  0
ARC
  5
221
330
1F
100
AcDbEntity
  8
1-2ﾚｲﾔ
  6
Continuous
 62
     6
370
     9
100
AcDbCircle
 10
-80.62216822519456
 20
360.6785645348648
 30
0.0
 40
2.500000322187269
100
AcDbArc
 50
316.0577087402344
 51
40.90907287597659
  0
ARC
  5
222
330
1F
100
AcDbEntity
  8
1-2ﾚｲﾔ
  6
Continuous
 62
     6
370
     9
100
AcDbCircle
 10
-81.98142940287612
 20
359.1931832795861
 30
0.0
 40
1.500000019331236
100
AcDbArc
 50
319.0164184570312
 51
40.90907287597662
  0
ARC
  5
223
330
1F
100
AcDbEntity
  8
1-2ﾚｲﾔ
  6
Continuous
 62
     6
370
     9
100
AcDbCircle
 10
-82.04801545914721
 20
359.1164274466047
 30
0.0
 40
1.500000019331236
100
AcDbArc
 50
237.2731475830078
 51
319.165512084961
  0
ARC
  5
224
330
1F
100
AcDbEntity
  8
1-2ﾚｲﾔ
  6
Continuous
 62
     6
370
     9
100
AcDbCircle
 10
-52.54051968212018
 20
333.6152298378631
 30
0.0
 40
37.50000077324945
100
AcDbArc
 50
136.0579071044922
 51
139.16552734375
  0
ARC
  5
225
330
1F
100
AcDbEntity
  8
1-2ﾚｲﾔ
  6
Continuous
 62
     6
370
     9
100
AcDbCircle
 10
-80.62216822519456
 20
360.6785645348648
 30
0.0
 40
1.500000019331236
100
AcDbArc
 50
316.0580139160156
 51
40.90907287597656
  0
ARC
  5
226
330
1F
100
AcDbEntity
  8
1-2ﾚｲﾔ
  6
Continuous
 62
     6
370
     9
100
AcDbCircle
 10
-111.2257729285306
 20
377.8678625975759
 30
0.0
 40
1.500000019331236
100
AcDbArc
 50
142.9808349609375
 51
237.2722320556641
  0
ARC
  5
227
330
1F
100
AcDbEntity
  8
1-2ﾚｲﾔ
  6
Continuous
 62
     6
370
     9
100
AcDbCircle
 10
-52.54051968212018
 20
333.6152298378631
 30
0.0
 40
75.0000015464989
100
AcDbArc
 50
133.6384887695312
 51
142.9812622070312
  0
ARC
  5
228
330
1F
100
AcDbEntity
  8
1-2ﾚｲﾔ
  6
Continuous
 62
     6
370
     9
100
AcDbCircle
 10
-111.2257729285306
 20
377.8678625975759
 30
0.0
 40
2.500000322187269
100
AcDbArc
 50
142.9813079833984
 51
237.2727203369141
  0
ARC
  5
229
330
1F
100
AcDbEntity
  8
1-2ﾚｲﾔ
  6
Continuous
 62
     6
370
     9
100
AcDbCircle
 10
-52.54051968212018
 20
333.6152298378631
 30
0.0
 40
76.00000329919763
100
AcDbArc
 50
133.6384735107422
 51
142.9812622070312
  0
ARC
  5
22A
330
1F
100
AcDbEntity
  8
1-2ﾚｲﾔ
  6
Continuous
 62
     6
370
     9
100
AcDbCircle
 10
-134.6939059785729
 20
365.9269116368496
 30
0.0
 40
1.000000012887491
100
AcDbArc
 50
249.17919921875
 51
338.5303039550781
  0
ARC
  5
22B
330
1F
100
AcDbEntity
  8
1-2ﾚｲﾔ
  6
Continuous
 62
     6
370
     9
100
AcDbCircle
 10
-52.54051968212018
 20
333.6152298378631
 30
0.0
 40
87.2793063601932
100
AcDbArc
 50
152.3793334960938
 51
158.5297698974609
  0
ARC
  5
22C
330
1F
100
AcDbEntity
  8
1-2ﾚｲﾔ
  6
Continuous
 62
     6
370
     9
100
AcDbCircle
 10
-130.7591674069935
 20
374.5428652369341
 30
0.0
 40
1.000000012887491
100
AcDbArc
 50
332.3793640136719
 51
61.73129272460939
  0
ARC
  5
22D
330
1F
100
AcDbEntity
  8
1-2ﾚｲﾔ
  6
Continuous
 62
     6
370
     9
100
AcDbCircle
 10
-117.1727911137081
 20
368.6141081106672
 30
0.0
 40
1.500000019331236
100
AcDbArc
 50
57.27270507812501
 51
151.5643615722656
  0
ARC
  5
22E
330
1F
100
AcDbEntity
  8
1-2ﾚｲﾔ
  6
Continuous
 62
     6
370
     9
100
AcDbCircle
 10
-116.1947852147427
 20
370.3628643131588
 30
0.0
 40
1.500000019331236
100
AcDbArc
 50
57.27270507812501
 51
150.0018463134766
  0
ARC
  5
22F
330
1F
100
AcDbEntity
  8
1-2ﾚｲﾔ
  6
Continuous
 62
     6
370
     9
100
AcDbCircle
 10
-116.1947852147427
 20
370.3628643131588
 30
0.0
 40
2.500000322187269
100
AcDbArc
 50
57.27270507812501
 51
150.0018463134766
  0
ARC
  5
230
330
1F
100
AcDbEntity
  8
1-2ﾚｲﾔ
  6
Continuous
 62
     6
370
     9
100
AcDbCircle
 10
-88.03719739010158
 20
349.7703284178884
 30
0.0
 40
2.500000322187269
100
AcDbArc
 50
253.6363525390625
 51
335.5292663574219
  0
ARC
  5
231
330
1F
100
AcDbEntity
  8
1-2ﾚｲﾔ
  6
Continuous
 62
     6
370
     9
100
AcDbCircle
 10
-52.54051968212018
 20
333.6152298378631
 30
0.0
 40
36.50000134029904
100
AcDbArc
 50
152.4216003417969
 51
155.5291900634766
  0
ARC
  5
232
330
1F
100
AcDbEntity
  8
1-2ﾚｲﾔ
  6
Continuous
 62
     6
370
     9
100
AcDbCircle
 10
-87.10929805521987
 20
351.6708147196198
 30
0.0
 40
2.500000322187269
100
AcDbArc
 50
332.4213409423828
 51
57.27270507812503
  0
ARC
  5
233
330
1F
100
AcDbEntity
  8
1-2ﾚｲﾔ
  6
Continuous
 62
     6
370
     9
100
AcDbCircle
 10
-87.99503364432464
 20
349.8626729596958
 30
0.0
 40
1.500000019331236
100
AcDbArc
 50
335.3800506591798
 51
57.27270507812506
  0
ARC
  5
234
330
1F
100
AcDbEntity
  8
1-2ﾚｲﾔ
  6
Continuous
 62
     6
370
     9
100
AcDbCircle
 10
-88.03719739010158
 20
349.7703284178884
 30
0.0
 40
1.500000019331236
100
AcDbArc
 50
253.6367797851563
 51
335.5291442871094
  0
ARC
  5
235
330
1F
100
AcDbEntity
  8
1-2ﾚｲﾔ
  6
Continuous
 62
     6
370
     9
100
AcDbCircle
 10
-52.54051968212018
 20
333.6152298378631
 30
0.0
 40
37.50000077324945
100
AcDbArc
 50
152.4215393066406
 51
155.5291595458984
  0
ARC
  5
236
330
1F
100
AcDbEntity
  8
1-2ﾚｲﾔ
  6
Continuous
 62
     6
370
     9
100
AcDbCircle
 10
-87.10929805521987
 20
351.6708147196198
 30
0.0
 40
1.500000019331236
100
AcDbArc
 50
332.421646118164
 51
57.27270507812501
  0
ARC
  5
237
330
1F
100
AcDbEntity
  8
1-2ﾚｲﾔ
  6
Continuous
 62
     6
370
     9
100
AcDbCircle
 10
-121.3159729918753
 20
359.5417765017145
 30
0.0
 40
1.500000019331236
100
AcDbArc
 50
159.344467163086
 51
253.6358642578125
  0
ARC
  5
238
330
1F
100
AcDbEntity
  8
1-2ﾚｲﾔ
  6
Continuous
 62
     6
370
     9
100
AcDbCircle
 10
-52.54051968212018
 20
333.6152298378631
 30
0.0
 40
75.0000015464989
100
AcDbArc
 50
150.0021209716797
 51
159.3448944091797
  0
ARC
  5
239
330
1F
100
AcDbEntity
  8
1-2ﾚｲﾔ
  6
Continuous
 62
     6
370
     9
100
AcDbCircle
 10
-121.3159729918753
 20
359.5417765017145
 30
0.0
 40
2.500000322187269
100
AcDbArc
 50
159.3449401855469
 51
253.6363525390625
  0
ARC
  5
23A
330
1F
100
AcDbEntity
  8
1-2ﾚｲﾔ
  6
Continuous
 62
     6
370
     9
100
AcDbCircle
 10
-52.54051968212018
 20
333.6152298378631
 30
0.0
 40
76.00000329919763
100
AcDbArc
 50
150.0021057128907
 51
159.3448944091797
  0
ARC
  5
23B
330
1F
100
AcDbEntity
  8
1-2ﾚｲﾔ
  6
Continuous
 62
     6
370
     9
100
AcDbCircle
 10
-140.4693741347174
 20
341.4728298695354
 30
0.0
 40
1.000000012887491
100
AcDbArc
 50
265.5428314208984
 51
354.8939361572266
  0
ARC
  5
23C
330
1F
100
AcDbEntity
  8
1-2ﾚｲﾔ
  6
Continuous
 62
     6
370
     9
100
AcDbCircle
 10
-52.54051968212018
 20
333.6152298378631
 30
0.0
 40
87.2793063601932
100
AcDbArc
 50
168.7429656982422
 51
174.8934020996094
  0
ARC
  5
23D
330
1F
100
AcDbEntity
  8
1-2ﾚｲﾔ
  6
Continuous
 62
     6
370
     9
100
AcDbCircle
 10
-139.1213962129479
 20
350.8483247491807
 30
0.0
 40
1.000000012887491
100
AcDbArc
 50
348.7429962158203
 51
78.09492492675783
  0
ARC
  5
23E
330
1F
100
AcDbEntity
  8
1-2ﾚｲﾔ
  6
Continuous
 62
     6
370
     9
100
AcDbCircle
 10
-124.4150825384335
 20
348.9874040750886
 30
0.0
 40
1.500000019331236
100
AcDbArc
 50
73.63633728027345
 51
167.9279937744141
  0
ARC
  5
23F
330
1F
100
AcDbEntity
  8
1-2ﾚｲﾔ
  6
Continuous
 62
     6
370
     9
100
AcDbCircle
 10
-123.9693196979564
 20
350.9408919868285
 30
0.0
 40
1.500000019331236
100
AcDbArc
 50
73.63633728027345
 51
166.365478515625
  0
ARC
  5
240
330
1F
100
AcDbEntity
  8
1-2ﾚｲﾔ
  6
Continuous
 62
     6
370
     9
100
AcDbCircle
 10
-123.9693196979564
 20
350.9408919868285
 30
0.0
 40
2.500000322187269
100
AcDbArc
 50
73.63633728027345
 51
166.365478515625
  0
ARC
  5
241
330
1F
100
AcDbEntity
  8
1-2ﾚｲﾔ
  6
Continuous
 62
     6
370
     9
100
AcDbCircle
 10
-91.15078216628409
 20
339.1152232394678
 30
0.0
 40
2.500000322187269
100
AcDbArc
 50
269.999984741211
 51
351.8928985595703
  0
ARC
  5
242
330
1F
100
AcDbEntity
  8
1-2ﾚｲﾔ
  6
Continuous
 62
     6
370
     9
100
AcDbCircle
 10
-52.54051968212018
 20
333.6152298378631
 30
0.0
 40
36.50000134029904
100
AcDbArc
 50
168.7852325439453
 51
171.892822265625
  0
ARC
  5
243
330
1F
100
AcDbEntity
  8
1-2ﾚｲﾔ
  6
Continuous
 62
     6
370
     9
100
AcDbCircle
 10
-90.79580499673166
 20
341.2002501609205
 30
0.0
 40
2.500000322187269
100
AcDbArc
 50
348.7849731445313
 51
73.63633728027347
  0
ARC
  5
244
330
1F
100
AcDbEntity
  8
1-2ﾚｲﾔ
  6
Continuous
 62
     6
370
     9
100
AcDbCircle
 10
-91.13623270471315
 20
339.2158817593158
 30
0.0
 40
1.500000019331236
100
AcDbArc
 50
351.7436828613282
 51
73.6363372802735
  0
ARC
  5
245
330
1F
100
AcDbEntity
  8
1-2ﾚｲﾔ
  6
Continuous
 62
     6
370
     9
100
AcDbCircle
 10
-91.15078216628409
 20
339.1152232394678
 30
0.0
 40
1.500000019331236
100
AcDbArc
 50
270.0004119873047
 51
351.8927764892579
  0
ARC
  5
246
330
1F
100
AcDbEntity
  8
1-2ﾚｲﾔ
  6
Continuous
 62
     6
370
     9
100
AcDbCircle
 10
-52.54051968212018
 20
333.6152298378631
 30
0.0
 40
37.50000077324945
100
AcDbArc
 50
168.7851715087891
 51
171.8927917480469
  0
ARC
  5
247
330
1F
100
AcDbEntity
  8
1-2ﾚｲﾔ
  6
Continuous
 62
     6
370
     9
100
AcDbCircle
 10
-90.79580499673166
 20
341.2002501609205
 30
0.0
 40
1.500000019331236
100
AcDbArc
 50
348.7852783203124
 51
73.63633728027345
  0
ARC
  5
248
330
1F
100
AcDbEntity
  8
1-2ﾚｲﾔ
  6
Continuous
 62
     6
370
     9
100
AcDbCircle
 10
-125.8344715930155
 20
339.1152232394678
 30
0.0
 40
1.500000019331236
100
AcDbArc
 50
175.7080993652344
 51
269.999496459961
  0
ARC
  5
249
330
1F
100
AcDbEntity
  8
1-2ﾚｲﾔ
  6
Continuous
 62
     6
370
     9
100
AcDbCircle
 10
-52.54051968212018
 20
333.6152298378631
 30
0.0
 40
75.0000015464989
100
AcDbArc
 50
166.3657531738281
 51
175.7085266113282
  0
ARC
  5
24A
330
1F
100
AcDbEntity
  8
1-2ﾚｲﾔ
  6
Continuous
 62
     6
370
     9
100
AcDbCircle
 10
-125.8344715930155
 20
339.1152232394678
 30
0.0
 40
2.500000322187269
100
AcDbArc
 50
175.7085723876953
 51
269.999984741211
  0
ARC
  5
24B
330
1F
100
AcDbEntity
  8
1-2ﾚｲﾔ
  6
Continuous
 62
     6
370
     9
100
AcDbCircle
 10
-52.54051968212018
 20
333.6152298378631
 30
0.0
 40
76.00000329919763
100
AcDbArc
 50
166.3657379150391
 51
175.7085266113281
  0
ARC
  5
24C
330
1F
100
AcDbEntity
  8
1-2ﾚｲﾔ
  6
Continuous
 62
     6
370
     9
100
AcDbCircle
 10
-52.54051968212018
 20
333.6152298378631
 30
0.0
 40
96.12300357303104
100
AcDbArc
 50
0.0
 51
5.968795776367187
  0
ARC
  5
24D
330
1F
100
AcDbEntity
  8
1-2ﾚｲﾔ
  6
Continuous
 62
     6
370
     9
100
AcDbCircle
 10
-52.54051968212018
 20
333.6152298378631
 30
0.0
 40
96.50000907279349
100
AcDbArc
 50
6.545349121093747
 51
173.4546508789063
  0
ARC
  5
24E
330
1F
100
AcDbEntity
  8
1-2ﾚｲﾔ
  6
Continuous
 62
     6
370
     9
100
AcDbCircle
 10
-52.54051968212018
 20
333.6152298378631
 30
0.0
 40
96.12300357303104
100
AcDbArc
 50
174.0312042236328
 51
180.0
  0
ARC
  5
24F
330
1F
100
AcDbEntity
  8
1-2ﾚｲﾔ
  6
Continuous
 62
     6
370
     9
100
AcDbCircle
 10
-33.80548979138963
 20
348.6152793258277
 30
0.0
 40
3.000000038662472
100
AcDbArc
 50
270.0
 51
38.68212890625
  0
ARC
  5
250
330
1F
100
AcDbEntity
  8
1-2ﾚｲﾔ
  6
Continuous
 62
     6
370
     9
100
AcDbCircle
 10
-52.54051968212018
 20
333.6152298378631
 30
0.0
 40
27.00000324764768
100
AcDbArc
 50
38.68217468261719
 51
141.3178253173828
  0
ARC
  5
251
330
1F
100
AcDbEntity
  8
1-2ﾚｲﾔ
  6
Continuous
 62
     6
370
     9
100
AcDbCircle
 10
-71.27547534090401
 20
348.6152793258277
 30
0.0
 40
3.000000038662472
100
AcDbArc
 50
141.31787109375
 51
270.0
  0
LINE
  5
252
330
1F
100
AcDbEntity
  8
1-2ﾚｲﾔ
  6
Continuous
 62
     6
370
     9
100
AcDbLine
 10
55.09873532606177
 20
-86.62126238568322
 30
0.0
 11
55.9595289810449
 21
-81.45690873149192
 31
0.0
  0
LINE
  5
253
330
1F
100
AcDbEntity
  8
1-2ﾚｲﾔ
  6
Continuous
 62
     6
370
     9
100
AcDbLine
 10
-160.1798118062757
 20
-86.62126238568322
 30
0.0
 11
-161.0404569973652
 21
-81.45690873149192
 31
0.0
  0
LINE
  5
254
330
1F
100
AcDbEntity
  8
1-2ﾚｲﾔ
  6
Continuous
 62
     6
370
     9
100
AcDbLine
 10
53.9594234067206
 20
-87.45692852667764
 30
0.0
 11
54.11234121710912
 21
-87.45692852667764
 31
0.0
  0
LINE
  5
255
330
1F
100
AcDbEntity
  8
1-2ﾚｲﾔ
  6
Continuous
 62
     6
370
     9
100
AcDbLine
 10
44.95954217783544
 20
-87.45692852667764
 30
0.0
 11
46.45932443079154
 21
-81.45690873149192
 31
0.0
  0
LINE
  5
256
330
1F
100
AcDbEntity
  8
1-2ﾚｲﾔ
  6
Continuous
 62
     6
370
     9
100
AcDbLine
 10
53.9594234067206
 20
-81.45690873149192
 30
0.0
 11
55.9595289810449
 21
-81.45690873149192
 31
0.0
  0
LINE
  5
257
330
1F
100
AcDbEntity
  8
1-2ﾚｲﾔ
  6
Continuous
 62
     6
370
     9
100
AcDbLine
 10
54.95947619388279
 20
-80.9569565698576
 30
0.0
 11
55.9595289810449
 21
-81.45690873149192
 31
0.0
  0
LINE
  5
258
330
1F
100
AcDbEntity
  8
1-2ﾚｲﾔ
  6
Continuous
 62
     6
370
     9
100
AcDbLine
 10
45.95944650110404
 20
-80.9569565698576
 30
0.0
 11
46.45932443079154
 21
-81.45690873149192
 31
0.0
  0
LINE
  5
259
330
1F
100
AcDbEntity
  8
1-2ﾚｲﾔ
  6
Continuous
 62
     6
370
     9
100
AcDbLine
 10
-147.7737976989065
 20
-87.45692852667764
 30
0.0
 11
-159.1934176973229
 21
-87.45692852667764
 31
0.0
  0
LINE
  5
25A
330
1F
100
AcDbEntity
  8
1-2ﾚｲﾔ
  6
Continuous
 62
     6
370
     9
100
AcDbLine
 10
-144.8760051920441
 20
-85.23331056056702
 30
0.0
 11
-135.5553677210771
 21
-50.44818317854634
 31
0.0
  0
LINE
  5
25B
330
1F
100
AcDbEntity
  8
1-2ﾚｲﾔ
  6
Continuous
 62
     6
370
     9
100
AcDbLine
 10
39.79492871183037
 20
-85.23331056056702
 30
0.0
 11
30.47421700891654
 21
-50.44818317854634
 31
0.0
  0
LINE
  5
25C
330
1F
100
AcDbEntity
  8
1-2ﾚｲﾔ
  6
Continuous
 62
     6
370
     9
100
AcDbLine
 10
42.69279545063951
 20
-87.45692852667764
 30
0.0
 11
47.95955207542833
 21
-87.45692852667764
 31
0.0
  0
LINE
  5
25D
330
1F
100
AcDbEntity
  8
1-2ﾚｲﾔ
  6
Continuous
 62
     6
370
     9
100
AcDbLine
 10
43.56220001145029
 20
-79.97453387005822
 30
0.0
 11
35.30389593100271
 21
-49.15413476612025
 31
0.0
  0
LINE
  5
25E
330
1F
100
AcDbEntity
  8
1-2ﾚｲﾔ
  6
Continuous
 62
     6
370
     9
100
AcDbLine
 10
45.49401219472732
 20
-81.45690873149192
 30
0.0
 11
47.95955207542833
 21
-81.45690873149192
 31
0.0
  0
LINE
  5
25F
330
1F
100
AcDbEntity
  8
1-2ﾚｲﾔ
  6
Continuous
 62
     6
370
     9
100
AcDbLine
 10
-148.6432764916642
 20
-79.97453387005822
 30
0.0
 11
-140.3849724112165
 21
-49.15413476612025
 31
0.0
  0
LINE
  5
260
330
1F
100
AcDbEntity
  8
1-2ﾚｲﾔ
  6
Continuous
 62
     6
370
     9
100
AcDbLine
 10
-128.5405229813178
 20
-38.27132309091971
 30
0.0
 11
-127.5404701941556
 21
-39.12532452277142
 31
0.0
  0
LINE
  5
261
330
1F
100
AcDbEntity
  8
1-2ﾚｲﾔ
  6
Continuous
 62
     6
370
     9
100
AcDbLine
 10
-127.5404701941556
 20
-39.12532452277142
 30
0.0
 11
-128.5405229813178
 21
-43.39243663610549
 31
0.0
  0
LINE
  5
262
330
1F
100
AcDbEntity
  8
1-2ﾚｲﾔ
  6
Continuous
 62
     6
370
     9
100
AcDbLine
 10
-89.0405163829226
 20
-33.79094259445642
 30
0.0
 11
-90.04049493813791
 21
-34.86789967849353
 31
0.0
  0
LINE
  5
263
330
1F
100
AcDbEntity
  8
1-2ﾚｲﾔ
  6
Continuous
 62
     6
370
     9
100
AcDbLine
 10
-90.04049493813791
 20
-34.86789967849353
 30
0.0
 11
-89.0405163829226
 21
-38.80434558484916
 31
0.0
  0
LINE
  5
264
330
1F
100
AcDbEntity
  8
1-2ﾚｲﾔ
  6
Continuous
 62
     6
370
     9
100
AcDbLine
 10
-25.54046771975744
 20
-33.18632338784744
 30
0.0
 11
-24.04053700290775
 21
-38.2780039661308
 31
0.0
  0
LINE
  5
265
330
1F
100
AcDbEntity
  8
1-2ﾚｲﾔ
  6
Continuous
 62
     6
370
     9
100
AcDbLine
 10
-79.54046029656276
 20
-33.18632338784744
 30
0.0
 11
-81.04053947730604
 21
-38.2780039661308
 31
0.0
  0
LINE
  5
266
330
1F
100
AcDbEntity
  8
1-2ﾚｲﾔ
  6
Continuous
 62
     6
370
     9
100
AcDbLine
 10
-40.54048009174862
 20
-32.60089313948384
 30
0.0
 11
-41.54053287891072
 21
-37.57911018709791
 31
0.0
  0
LINE
  5
267
330
1F
100
AcDbEntity
  8
1-2ﾚｲﾔ
  6
Continuous
 62
     6
370
     9
100
AcDbLine
 10
-64.54048504054502
 20
-32.60089313948384
 30
0.0
 11
-63.54050648532963
 21
-37.57911018709791
 31
0.0
  0
LINE
  5
268
330
1F
100
AcDbEntity
  8
1-2ﾚｲﾔ
  6
Continuous
 62
     6
370
     9
100
AcDbLine
 10
-134.1948446003001
 20
-47.4569326506747
 30
0.0
 11
-139.8197703683533
 21
-47.4569326506747
 31
0.0
  0
LINE
  5
269
330
1F
100
AcDbEntity
  8
1-2ﾚｲﾔ
  6
JWW_DASHED1
 62
     6
370
     9
100
AcDbLine
 10
29.1138423520331
 20
-47.4569326506747
 30
0.0
 11
34.73869388813951
 21
-47.4569326506747
 31
0.0
  0
ARC
  5
26A
330
1F
100
AcDbEntity
  8
1-2ﾚｲﾔ
  6
Continuous
 62
     6
370
     9
100
AcDbCircle
 10
54.11234121710912
 20
-86.45687573951557
 30
0.0
 40
1.000000012887491
100
AcDbArc
 50
270.0
 51
350.5376739501953
  0
ARC
  5
26B
330
1F
100
AcDbEntity
  8
1-2ﾚｲﾔ
  6
Continuous
 62
     6
370
     9
100
AcDbCircle
 10
-159.1934176973229
 20
-86.45687573951557
 30
0.0
 40
1.000000012887491
100
AcDbArc
 50
189.4623260498047
 51
270.0
  0
ARC
  5
26C
330
1F
100
AcDbEntity
  8
1-2ﾚｲﾔ
  6
Continuous
 62
     6
370
     9
100
AcDbCircle
 10
20.81500762863779
 20
-53.03639135131877
 30
0.0
 40
15.00000077324945
100
AcDbArc
 50
15.00007629394532
 51
80.99697875976562
  0
ARC
  5
26D
330
1F
100
AcDbEntity
  8
1-2ﾚｲﾔ
  6
Continuous
 62
     6
370
     9
100
AcDbCircle
 10
20.81500762863779
 20
-53.03639135131877
 30
0.0
 40
10.00000128874908
100
AcDbArc
 50
15.00007629394532
 51
80.99697875976562
  0
ARC
  5
26E
330
1F
100
AcDbEntity
  8
1-2ﾚｲﾔ
  6
Continuous
 62
     6
370
     9
100
AcDbCircle
 10
-147.7737976989065
 20
-84.45684439713796
 30
0.0
 40
3.000000038662472
100
AcDbArc
 50
270.0
 51
345.0001373291016
  0
ARC
  5
26F
330
1F
100
AcDbEntity
  8
1-2ﾚｲﾔ
  6
Continuous
 62
     6
370
     9
100
AcDbCircle
 10
42.69279545063951
 20
-84.45684439713796
 30
0.0
 40
3.000000038662472
100
AcDbArc
 50
194.999740600586
 51
270.0
  0
ARC
  5
270
330
1F
100
AcDbEntity
  8
1-2ﾚｲﾔ
  6
Continuous
 62
     6
370
     9
100
AcDbCircle
 10
45.36009776271725
 20
-78.95696234345348
 30
0.0
 40
2.000000025774982
100
AcDbArc
 50
195.0005340576172
 51
270.0
  0
ARC
  5
271
330
1F
100
AcDbEntity
  8
1-2ﾚｲﾔ
  6
Continuous
 62
     6
370
     9
100
AcDbCircle
 10
45.49401219472732
 20
-79.45687738911431
 30
0.0
 40
2.000000025774982
100
AcDbArc
 50
195.0009002685547
 51
270.0
  0
ARC
  5
272
330
1F
100
AcDbEntity
  8
1-2ﾚｲﾔ
  6
Continuous
 62
     6
370
     9
100
AcDbCircle
 10
-150.5751629068879
 20
-79.45687738911431
 30
0.0
 40
2.000000025774982
100
AcDbArc
 50
270.0
 51
344.9992828369141
  0
ARC
  5
273
330
1F
100
AcDbEntity
  8
1-2ﾚｲﾔ
  6
Continuous
 62
     6
370
     9
100
AcDbCircle
 10
-52.54051968212018
 20
-532.4568501707339
 30
0.0
 40
500.0000412399705
100
AcDbArc
 50
81.29159545898438
 51
98.69929504394531
  0
ARC
  5
274
330
1F
100
AcDbEntity
  8
1-2ﾚｲﾔ
  6
Continuous
 62
     6
370
     9
100
AcDbCircle
 10
-52.54051968212018
 20
-532.4568501707339
 30
0.0
 40
495.0
100
AcDbArc
 50
81.29457092285156
 51
98.69929504394533
  0
ARC
  5
275
330
1F
100
AcDbEntity
  8
1-2ﾚｲﾔ
  6
Continuous
 62
     6
370
     9
100
AcDbCircle
 10
-125.8960841088517
 20
-53.03639135131877
 30
0.0
 40
15.00000077324945
100
AcDbArc
 50
98.69931030273438
 51
164.9999237060547
  0
ARC
  5
276
330
1F
100
AcDbEntity
  8
1-2ﾚｲﾔ
  6
Continuous
 62
     6
370
     9
100
AcDbCircle
 10
-125.8960841088517
 20
-53.03639135131877
 30
0.0
 40
10.00000128874908
100
AcDbArc
 50
98.69938659667974
 51
164.9999237060547
  0
ARC
  5
277
330
1F
100
AcDbEntity
  8
1-2ﾚｲﾔ
  6
Continuous
 62
     6
370
     9
100
AcDbCircle
 10
-52.54051968212018
 20
-532.4568501707339
 30
0.0
 40
498.9999884528083
100
AcDbArc
 50
94.30984497070312
 51
98.64433288574219
  0
LINE
  5
278
330
1F
100
AcDbEntity
  8
1-2ﾚｲﾔ
  6
Continuous
 62
     6
370
     9
100
AcDbLine
 10
-160.0407137456383
 20
-80.95695656985757
 30
0.0
 11
-161.0407665328004
 21
-81.4569087314919
 31
0.0
  0
ARC
  5
279
330
1F
100
AcDbEntity
  8
1-2ﾚｲﾔ
  6
Continuous
 62
     6
370
     9
100
AcDbCircle
 10
-150.4413353144727
 20
-78.95696234345345
 30
0.0
 40
2.000000025774982
100
AcDbArc
 50
270.0
 51
344.9994659423828
  0
LINE
  5
27A
330
1F
100
AcDbEntity
  8
1-2ﾚｲﾔ
  6
Continuous
 62
     6
370
     9
100
AcDbLine
 10
-151.0406840528595
 20
-80.95695656985757
 30
0.0
 11
-151.540561982547
 21
-81.4569087314919
 31
0.0
  0
LINE
  5
27B
330
1F
100
AcDbEntity
  8
1-2ﾚｲﾔ
  6
Continuous
 62
     6
370
     9
100
AcDbLine
 10
-150.040779729591
 20
-87.45692852667761
 30
0.0
 11
-151.540561982547
 21
-81.4569087314919
 31
0.0
  0
LINE
  5
27C
330
1F
100
AcDbEntity
  8
1-2ﾚｲﾔ
  6
Continuous
 62
     6
370
     9
100
AcDbLine
 10
-150.4413353144727
 20
-80.95695656985757
 30
0.0
 11
-153.0405662832868
 21
-80.95695656985757
 31
0.0
  0
LINE
  5
27D
330
1F
100
AcDbEntity
  8
1-2ﾚｲﾔ
  6
Continuous
 62
     6
370
     9
100
AcDbLine
 10
-159.0405942086383
 20
-80.95695656985757
 30
0.0
 11
-160.0407137456383
 21
-80.95695656985757
 31
0.0
  0
LINE
  5
27E
330
1F
100
AcDbEntity
  8
1-2ﾚｲﾔ
  6
Continuous
 62
     6
370
     9
100
AcDbLine
 10
-161.0404569973652
 20
-81.45690873149192
 30
0.0
 11
-159.0405942086383
 21
-81.45690873149192
 31
0.0
  0
LINE
  5
27F
330
1F
100
AcDbEntity
  8
1-2ﾚｲﾔ
  6
Continuous
 62
     6
370
     9
100
AcDbLine
 10
-153.0405662832868
 20
-81.45690873149192
 30
0.0
 11
-150.5751629068879
 21
-81.45690873149192
 31
0.0
  0
LINE
  5
280
330
1F
100
AcDbEntity
  8
1-2ﾚｲﾔ
  6
Continuous
 62
     6
370
     9
100
AcDbLine
 10
45.36009776271725
 20
-80.9569565698576
 30
0.0
 11
47.95932873153121
 21
-80.9569565698576
 31
0.0
  0
LINE
  5
281
330
1F
100
AcDbEntity
  8
1-2ﾚｲﾔ
  6
Continuous
 62
     6
370
     9
100
AcDbLine
 10
53.95945575064017
 20
-80.9569565698576
 30
0.0
 11
54.95947619388279
 21
-80.9569565698576
 31
0.0
  0
LINE
  5
282
330
1F
100
AcDbEntity
  8
1-1ﾚｲﾔ
  6
Continuous
 62
     2
370
     9
100
AcDbLine
 10
-160.0407137456383
 20
-80.95687350077422
 30
0.0
 11
-163.0407119192968
 21
-80.95687350077422
 31
0.0
  0
LINE
  5
283
330
1F
100
AcDbEntity
  8
1-1ﾚｲﾔ
  6
Continuous
 62
     2
370
     9
100
AcDbLine
 10
54.95947619388279
 20
-80.95687350077434
 30
0.0
 11
57.95932572690484
 21
-80.95687350077434
 31
0.0
  0
LINE
  5
284
330
1F
100
AcDbEntity
  8
1-0ﾚｲﾔ
  6
JWW_CENTER1
 62
     3
370
     9
100
AcDbLine
 10
-52.54061877587772
 20
-27.45680893077326
 30
0.0
 11
-52.54061877587775
 21
-189.067818236176
 31
0.0
  0
LINE
  5
285
330
1F
100
AcDbEntity
  8
1-3ﾚｲﾔ
  6
Continuous
 62
     4
370
     9
100
AcDbLine
 10
-145.5405791855061
 20
-107.8485176423905
 30
0.0
 11
-142.5406187758777
 21
-107.8485176423905
 31
0.0
  0
LINE
  5
286
330
1F
100
AcDbEntity
  8
1-3ﾚｲﾔ
  6
Continuous
 62
     4
370
     9
100
AcDbLine
 10
40.45934163375058
 20
-107.8485176423905
 30
0.0
 11
37.45928224819318
 21
-107.8485176423905
 31
0.0
  0
LINE
  5
287
330
1F
100
AcDbEntity
  8
1-4ﾚｲﾔ
  6
Continuous
 62
     7
370
     9
100
AcDbLine
 10
-192.5407253517444
 20
57.37649980299963
 30
0.0
 11
87.45926596313939
 21
57.37649980299963
 31
0.0
  0
LINE
  5
288
330
1F
100
AcDbEntity
  8
1-4ﾚｲﾔ
  6
Continuous
 62
     7
370
     9
100
AcDbLine
 10
-192.5407253517444
 20
57.37649980299963
 30
0.0
 11
-182.6262767380063
 21
58.68176172520015
 31
0.0
  0
LINE
  5
289
330
1F
100
AcDbEntity
  8
1-4ﾚｲﾔ
  6
Continuous
 62
     7
370
     9
100
AcDbLine
 10
-192.5407253517444
 20
57.37649980299963
 30
0.0
 11
-182.6262767380063
 21
56.07123788079912
 31
0.0
  0
LINE
  5
28A
330
1F
100
AcDbEntity
  8
1-4ﾚｲﾔ
  6
Continuous
 62
     7
370
     9
100
AcDbLine
 10
87.45926596313939
 20
57.37649980299963
 30
0.0
 11
77.54481734940128
 21
58.68176172520015
 31
0.0
  0
LINE
  5
28B
330
1F
100
AcDbEntity
  8
1-4ﾚｲﾔ
  6
Continuous
 62
     7
370
     9
100
AcDbLine
 10
87.45926596313939
 20
57.37649980299963
 30
0.0
 11
77.54481734940128
 21
56.07123788079912
 31
0.0
  0
LINE
  5
28C
330
1F
100
AcDbEntity
  8
1-4ﾚｲﾔ
  6
Continuous
 62
     7
370
     9
100
AcDbLine
 10
-192.5407253517444
 20
58.57649980299963
 30
0.0
 11
-192.5407253517444
 21
-75.9568874634499
 31
0.0
  0
LINE
  5
28D
330
1F
100
AcDbEntity
  8
1-4ﾚｲﾔ
  6
Continuous
 62
     7
370
     9
100
AcDbLine
 10
87.45926596313939
 20
58.57649980299963
 30
0.0
 11
87.45926596313939
 21
-75.95683353033371
 31
0.0
  0
TEXT
  5
28E
330
1F
100
AcDbEntity
  8
1-4ﾚｲﾔ
  6
Continuous
 62
     2
370
   211
100
AcDbText
 10
-74.54072969430251
 20
63.63249980299963
 30
0.0
 40
12.192
  1
φ280
 41
1.1
  7
ＭＳ ゴシック
100
AcDbText
  0
LINE
  5
28F
330
1F
100
AcDbEntity
  8
1-4ﾚｲﾔ
  6
Continuous
 62
     7
370
     9
100
AcDbLine
 10
-161.0404569973653
 20
24.0431664696663
 30
0.0
 11
55.95952898104497
 21
24.0431664696663
 31
0.0
  0
LINE
  5
290
330
1F
100
AcDbEntity
  8
1-4ﾚｲﾔ
  6
Continuous
 62
     7
370
     9
100
AcDbLine
 10
-161.0404569973653
 20
24.0431664696663
 30
0.0
 11
-151.1260083836272
 21
25.34842839186681
 31
0.0
  0
LINE
  5
291
330
1F
100
AcDbEntity
  8
1-4ﾚｲﾔ
  6
Continuous
 62
     7
370
     9
100
AcDbLine
 10
-161.0404569973653
 20
24.0431664696663
 30
0.0
 11
-151.1260083836272
 21
22.73790454746578
 31
0.0
  0
LINE
  5
292
330
1F
100
AcDbEntity
  8
1-4ﾚｲﾔ
  6
Continuous
 62
     7
370
     9
100
AcDbLine
 10
55.95952898104497
 20
24.0431664696663
 30
0.0
 11
46.04508036730687
 21
25.34842839186681
 31
0.0
  0
LINE
  5
293
330
1F
100
AcDbEntity
  8
1-4ﾚｲﾔ
  6
Continuous
 62
     7
370
     9
100
AcDbLine
 10
55.95952898104497
 20
24.0431664696663
 30
0.0
 11
46.04508036730687
 21
22.73790454746578
 31
0.0
  0
LINE
  5
294
330
1F
100
AcDbEntity
  8
1-4ﾚｲﾔ
  6
Continuous
 62
     7
370
     9
100
AcDbLine
 10
-161.0404569973653
 20
25.2431664696663
 30
0.0
 11
-161.0404569973653
 21
-73.45690873149192
 31
0.0
  0
LINE
  5
295
330
1F
100
AcDbEntity
  8
1-4ﾚｲﾔ
  6
Continuous
 62
     7
370
     9
100
AcDbLine
 10
55.95952898104497
 20
25.2431664696663
 30
0.0
 11
55.95952898104497
 21
-73.45690873149192
 31
0.0
  0
TEXT
  5
296
330
1F
100
AcDbEntity
  8
1-4ﾚｲﾔ
  6
Continuous
 62
     2
370
   211
100
AcDbText
 10
-74.54046400816014
 20
30.2991664696663
 30
0.0
 40
12.192
  1
φ217
 41
1.1
  7
ＭＳ ゴシック
100
AcDbText
  0
LINE
  5
297
330
1F
100
AcDbEntity
  8
1-4ﾚｲﾔ
  6
Continuous
 62
     7
370
     9
100
AcDbLine
 10
-202.5406470547146
 20
90.70983313633297
 30
0.0
 11
97.45942700048954
 21
90.70983313633297
 31
0.0
  0
LINE
  5
298
330
1F
100
AcDbEntity
  8
1-4ﾚｲﾔ
  6
Continuous
 62
     7
370
     9
100
AcDbLine
 10
-202.5406470547146
 20
90.70983313633297
 30
0.0
 11
-192.6261984409765
 21
92.01509505853349
 31
0.0
  0
LINE
  5
299
330
1F
100
AcDbEntity
  8
1-4ﾚｲﾔ
  6
Continuous
 62
     7
370
     9
100
AcDbLine
 10
-202.5406470547146
 20
90.70983313633297
 30
0.0
 11
-192.6261984409765
 21
89.40457121413246
 31
0.0
  0
LINE
  5
29A
330
1F
100
AcDbEntity
  8
1-4ﾚｲﾔ
  6
Continuous
 62
     7
370
     9
100
AcDbLine
 10
97.45942700048954
 20
90.70983313633297
 30
0.0
 11
87.54497838675144
 21
92.01509505853349
 31
0.0
  0
LINE
  5
29B
330
1F
100
AcDbEntity
  8
1-4ﾚｲﾔ
  6
Continuous
 62
     7
370
     9
100
AcDbLine
 10
97.45942700048954
 20
90.70983313633297
 30
0.0
 11
87.54497838675144
 21
89.40457121413246
 31
0.0
  0
LINE
  5
29C
330
1F
100
AcDbEntity
  8
1-4ﾚｲﾔ
  6
Continuous
 62
     7
370
     9
100
AcDbLine
 10
-202.5406470547146
 20
91.90983313633298
 30
0.0
 11
-202.5406470547146
 21
-82.84854709951229
 31
0.0
  0
LINE
  5
29D
330
1F
100
AcDbEntity
  8
1-4ﾚｲﾔ
  6
Continuous
 62
     7
370
     9
100
AcDbLine
 10
97.45942700048954
 20
91.90983313633298
 30
0.0
 11
97.45942700048954
 21
-82.84851210445173
 31
0.0
  0
TEXT
  5
29E
330
1F
100
AcDbEntity
  8
1-4ﾚｲﾔ
  6
Continuous
 62
     2
370
   211
100
AcDbText
 10
-74.5406100271125
 20
96.96583313633298
 30
0.0
 40
12.192
  1
φ300
 41
1.1
  7
ＭＳ ゴシック
100
AcDbText
  0
LINE
  5
29F
330
1F
100
AcDbEntity
  8
1-4ﾚｲﾔ
  6
Continuous
 62
     7
370
     9
100
AcDbLine
 10
-122.5406036193856
 20
-224.1819004636885
 30
0.0
 11
17.45936680918408
 21
-224.1819004636885
 31
0.0
  0
LINE
  5
2A0
330
1F
100
AcDbEntity
  8
1-4ﾚｲﾔ
  6
Continuous
 62
     7
370
     9
100
AcDbLine
 10
-122.5406036193856
 20
-224.1819004636885
 30
0.0
 11
-112.6261550056475
 21
-222.876638541488
 31
0.0
  0
LINE
  5
2A1
330
1F
100
AcDbEntity
  8
1-4ﾚｲﾔ
  6
Continuous
 62
     7
370
     9
100
AcDbLine
 10
-122.5406036193856
 20
-224.1819004636885
 30
0.0
 11
-112.6261550056475
 21
-225.487162385889
 31
0.0
  0
LINE
  5
2A2
330
1F
100
AcDbEntity
  8
1-4ﾚｲﾔ
  6
Continuous
 62
     7
370
     9
100
AcDbLine
 10
17.45936680918408
 20
-224.1819004636885
 30
0.0
 11
7.544918195445971
 21
-222.876638541488
 31
0.0
  0
LINE
  5
2A3
330
1F
100
AcDbEntity
  8
1-4ﾚｲﾔ
  6
Continuous
 62
     7
370
     9
100
AcDbLine
 10
17.45936680918408
 20
-224.1819004636885
 30
0.0
 11
7.544918195445971
 21
-225.487162385889
 31
0.0
  0
LINE
  5
2A4
330
1F
100
AcDbEntity
  8
1-4ﾚｲﾔ
  6
Continuous
 62
     7
370
     9
100
AcDbLine
 10
-122.5406036193856
 20
-225.3819004636885
 30
0.0
 11
-122.5406036193856
 21
-168.8485369662624
 31
0.0
  0
LINE
  5
2A5
330
1F
100
AcDbEntity
  8
1-4ﾚｲﾔ
  6
Continuous
 62
     7
370
     9
100
AcDbLine
 10
17.45936680918408
 20
-225.3819004636885
 30
0.0
 11
17.45936680918408
 21
-168.8485369662624
 31
0.0
  0
TEXT
  5
2A6
330
1F
100
AcDbEntity
  8
1-4ﾚｲﾔ
  6
Continuous
 62
     2
370
   211
100
AcDbText
 10
-74.54061840510076
 20
-217.9259004636885
 30
0.0
 40
12.192
  1
φ140
 41
1.1
  7
ＭＳ ゴシック
100
AcDbText
  0
LINE
  5
2A7
330
1F
100
AcDbEntity
  8
1-4ﾚｲﾔ
  6
Continuous
 62
     7
370
     9
100
AcDbLine
 10
-125.5406373633987
 20
-257.5152337970218
 30
0.0
 11
20.45936259202153
 21
-257.5152337970218
 31
0.0
  0
LINE
  5
2A8
330
1F
100
AcDbEntity
  8
1-4ﾚｲﾔ
  6
Continuous
 62
     7
370
     9
100
AcDbLine
 10
-125.5406373633987
 20
-257.5152337970218
 30
0.0
 11
-115.6261887496606
 21
-256.2099718748213
 31
0.0
  0
LINE
  5
2A9
330
1F
100
AcDbEntity
  8
1-4ﾚｲﾔ
  6
Continuous
 62
     7
370
     9
100
AcDbLine
 10
-125.5406373633987
 20
-257.5152337970218
 30
0.0
 11
-115.6261887496606
 21
-258.8204957192224
 31
0.0
  0
LINE
  5
2AA
330
1F
100
AcDbEntity
  8
1-4ﾚｲﾔ
  6
Continuous
 62
     7
370
     9
100
AcDbLine
 10
20.45936259202153
 20
-257.5152337970218
 30
0.0
 11
10.54491397828343
 21
-256.2099718748213
 31
0.0
  0
LINE
  5
2AB
330
1F
100
AcDbEntity
  8
1-4ﾚｲﾔ
  6
Continuous
 62
     7
370
     9
100
AcDbLine
 10
20.45936259202153
 20
-257.5152337970218
 30
0.0
 11
10.54491397828343
 21
-258.8204957192224
 31
0.0
  0
LINE
  5
2AC
330
1F
100
AcDbEntity
  8
1-4ﾚｲﾔ
  6
Continuous
 62
     7
370
     9
100
AcDbLine
 10
-125.5406373633987
 20
-258.7152337970219
 30
0.0
 11
-125.5406373633987
 21
-120.8485285185122
 31
0.0
  0
LINE
  5
2AD
330
1F
100
AcDbEntity
  8
1-4ﾚｲﾔ
  6
Continuous
 62
     7
370
     9
100
AcDbLine
 10
20.45936259202153
 20
-258.7152337970219
 30
0.0
 11
20.45936259202153
 21
-120.8485285185122
 31
0.0
  0
TEXT
  5
2AE
330
1F
100
AcDbEntity
  8
1-4ﾚｲﾔ
  6
Continuous
 62
     2
370
   211
100
AcDbText
 10
-74.54063738568857
 20
-251.2592337970219
 30
0.0
 40
12.192
  1
φ146
 41
1.1
  7
ＭＳ ゴシック
100
AcDbText
  0
LINE
  5
2AF
330
1F
100
AcDbEntity
  8
1-4ﾚｲﾔ
  6
Continuous
 62
     7
370
     9
100
AcDbLine
 10
-145.5405791855062
 20
-290.8485671303551
 30
0.0
 11
40.45934163375046
 21
-290.8485671303551
 31
0.0
  0
LINE
  5
2B0
330
1F
100
AcDbEntity
  8
1-4ﾚｲﾔ
  6
Continuous
 62
     7
370
     9
100
AcDbLine
 10
-145.5405791855062
 20
-290.8485671303551
 30
0.0
 11
-135.6261305717681
 21
-289.5433052081546
 31
0.0
  0
LINE
  5
2B1
330
1F
100
AcDbEntity
  8
1-4ﾚｲﾔ
  6
Continuous
 62
     7
370
     9
100
AcDbLine
 10
-145.5405791855062
 20
-290.8485671303551
 30
0.0
 11
-135.6261305717681
 21
-292.1538290525557
 31
0.0
  0
LINE
  5
2B2
330
1F
100
AcDbEntity
  8
1-4ﾚｲﾔ
  6
Continuous
 62
     7
370
     9
100
AcDbLine
 10
40.45934163375046
 20
-290.8485671303551
 30
0.0
 11
30.54489302001235
 21
-289.5433052081546
 31
0.0
  0
LINE
  5
2B3
330
1F
100
AcDbEntity
  8
1-4ﾚｲﾔ
  6
Continuous
 62
     7
370
     9
100
AcDbLine
 10
40.45934163375046
 20
-290.8485671303551
 30
0.0
 11
30.54489302001235
 21
-292.1538290525557
 31
0.0
  0
LINE
  5
2B4
330
1F
100
AcDbEntity
  8
1-4ﾚｲﾔ
  6
Continuous
 62
     7
370
     9
100
AcDbLine
 10
-145.5405791855062
 20
-292.0485671303552
 30
0.0
 11
-145.5405791855062
 21
-190.8485671303551
 31
0.0
  0
LINE
  5
2B5
330
1F
100
AcDbEntity
  8
1-4ﾚｲﾔ
  6
Continuous
 62
     7
370
     9
100
AcDbLine
 10
40.45934163375046
 20
-292.0485671303552
 30
0.0
 11
40.45934163375046
 21
-190.8485671303551
 31
0.0
  0
TEXT
  5
2B6
330
1F
100
AcDbEntity
  8
1-4ﾚｲﾔ
  6
Continuous
 62
     2
370
   211
100
AcDbText
 10
-74.54061877587787
 20
-284.5925671303552
 30
0.0
 40
12.192
  1
φ186
 41
1.1
  7
ＭＳ ゴシック
100
AcDbText
  0
LINE
  5
2B7
330
1F
100
AcDbEntity
  8
1-4ﾚｲﾔ
  6
Continuous
 62
     7
370
     9
100
AcDbLine
 10
-235.8739803880479
 20
-87.45692852667764
 30
0.0
 11
-235.8739803880479
 21
-32.45680893077331
 31
0.0
  0
LINE
  5
2B8
330
1F
100
AcDbEntity
  8
1-4ﾚｲﾔ
  6
Continuous
 62
     7
370
     9
100
AcDbLine
 10
-235.8739803880479
 20
-87.45692852667764
 30
0.0
 11
-237.1792423102484
 21
-77.54247991293954
 31
0.0
  0
LINE
  5
2B9
330
1F
100
AcDbEntity
  8
1-4ﾚｲﾔ
  6
Continuous
 62
     7
370
     9
100
AcDbLine
 10
-235.8739803880479
 20
-87.45692852667764
 30
0.0
 11
-234.5687184658474
 21
-77.54247991293954
 31
0.0
  0
LINE
  5
2BA
330
1F
100
AcDbEntity
  8
1-4ﾚｲﾔ
  6
Continuous
 62
     7
370
     9
100
AcDbLine
 10
-235.8739803880479
 20
-32.45680893077331
 30
0.0
 11
-237.1792423102484
 21
-42.37125754451141
 31
0.0
  0
LINE
  5
2BB
330
1F
100
AcDbEntity
  8
1-4ﾚｲﾔ
  6
Continuous
 62
     7
370
     9
100
AcDbLine
 10
-235.8739803880479
 20
-32.45680893077331
 30
0.0
 11
-234.5687184658474
 21
-42.37125754451141
 31
0.0
  0
LINE
  5
2BC
330
1F
100
AcDbEntity
  8
1-4ﾚｲﾔ
  6
Continuous
 62
     7
370
     9
100
AcDbLine
 10
-237.0739803880479
 20
-87.45692852667764
 30
0.0
 11
-167.1934176973229
 21
-87.45692852667764
 31
0.0
  0
LINE
  5
2BD
330
1F
100
AcDbEntity
  8
1-4ﾚｲﾔ
  6
Continuous
 62
     7
370
     9
100
AcDbLine
 10
-237.0739803880479
 20
-32.45680893077331
 30
0.0
 11
-60.54061877587773
 21
-32.45680893077332
 31
0.0
  0
TEXT
  5
2BE
330
1F
100
AcDbEntity
  8
1-4ﾚｲﾔ
  6
Continuous
 62
     2
370
   211
100
AcDbText
 10
-242.1299803880479
 20
-68.45686872872548
 30
0.0
 40
12.192
  1
55
 50
90.0
 41
1.0625
  7
ＭＳ ゴシック
100
AcDbText
  0
LINE
  5
2BF
330
1F
100
AcDbEntity
  8
1-4ﾚｲﾔ
  6
Continuous
 62
     7
370
     9
100
AcDbLine
 10
136.792722628707
 20
-107.8485176423905
 30
0.0
 11
136.792722628707
 21
-82.84853625929155
 31
0.0
  0
LINE
  5
2C0
330
1F
100
AcDbEntity
  8
1-4ﾚｲﾔ
  6
Continuous
 62
     7
370
     9
100
AcDbLine
 10
136.792722628707
 20
-107.8485176423905
 30
0.0
 11
135.4874607065065
 21
-97.93406902865244
 31
0.0
  0
LINE
  5
2C1
330
1F
100
AcDbEntity
  8
1-4ﾚｲﾔ
  6
Continuous
 62
     7
370
     9
100
AcDbLine
 10
136.792722628707
 20
-107.8485176423905
 30
0.0
 11
138.0979845509075
 21
-97.93406902865244
 31
0.0
  0
LINE
  5
2C2
330
1F
100
AcDbEntity
  8
1-4ﾚｲﾔ
  6
Continuous
 62
     7
370
     9
100
AcDbLine
 10
136.792722628707
 20
-82.84853625929155
 30
0.0
 11
135.4874607065065
 21
-92.76298487302965
 31
0.0
  0
LINE
  5
2C3
330
1F
100
AcDbEntity
  8
1-4ﾚｲﾔ
  6
Continuous
 62
     7
370
     9
100
AcDbLine
 10
136.792722628707
 20
-82.84853625929155
 30
0.0
 11
138.0979845509075
 21
-92.76298487302965
 31
0.0
  0
LINE
  5
2C4
330
1F
100
AcDbEntity
  8
1-4ﾚｲﾔ
  6
Continuous
 62
     7
370
     9
100
AcDbLine
 10
137.992722628707
 20
-107.8485176423905
 30
0.0
 11
48.45934163375057
 21
-107.8485176423905
 31
0.0
  0
TEXT
  5
2C5
330
1F
100
AcDbEntity
  8
1-4ﾚｲﾔ
  6
Continuous
 62
     2
370
   211
100
AcDbText
 10
130.536722628707
 20
-103.848526950841
 30
0.0
 40
12.192
  1
25
 50
90.0
 41
1.0625
  7
ＭＳ ゴシック
100
AcDbText
  0
LINE
  5
2C6
330
1F
100
AcDbEntity
  8
1-4ﾚｲﾔ
  6
Continuous
 62
     7
370
     9
100
AcDbLine
 10
170.1260559620403
 20
-182.8485671303551
 30
0.0
 11
170.1260559620403
 21
-82.84853625929155
 31
0.0
  0
LINE
  5
2C7
330
1F
100
AcDbEntity
  8
1-4ﾚｲﾔ
  6
Continuous
 62
     7
370
     9
100
AcDbLine
 10
170.1260559620403
 20
-182.8485671303551
 30
0.0
 11
168.8207940398398
 21
-172.934118516617
 31
0.0
  0
LINE
  5
2C8
330
1F
100
AcDbEntity
  8
1-4ﾚｲﾔ
  6
Continuous
 62
     7
370
     9
100
AcDbLine
 10
170.1260559620403
 20
-182.8485671303551
 30
0.0
 11
171.4313178842408
 21
-172.934118516617
 31
0.0
  0
LINE
  5
2C9
330
1F
100
AcDbEntity
  8
1-4ﾚｲﾔ
  6
Continuous
 62
     7
370
     9
100
AcDbLine
 10
170.1260559620403
 20
-82.84853625929155
 30
0.0
 11
168.8207940398398
 21
-92.76298487302965
 31
0.0
  0
LINE
  5
2CA
330
1F
100
AcDbEntity
  8
1-4ﾚｲﾔ
  6
Continuous
 62
     7
370
     9
100
AcDbLine
 10
170.1260559620403
 20
-82.84853625929155
 30
0.0
 11
171.4313178842408
 21
-92.76298487302965
 31
0.0
  0
LINE
  5
2CB
330
1F
100
AcDbEntity
  8
1-4ﾚｲﾔ
  6
Continuous
 62
     7
370
     9
100
AcDbLine
 10
171.3260559620403
 20
-182.8485671303551
 30
0.0
 11
48.45934163375057
 21
-182.8485671303551
 31
0.0
  0
LINE
  5
2CC
330
1F
100
AcDbEntity
  8
1-4ﾚｲﾔ
  6
Continuous
 62
     7
370
     9
100
AcDbLine
 10
171.3260559620403
 20
-82.84853625929155
 30
0.0
 11
103.4593892953736
 21
-82.84853625929155
 31
0.0
  0
LINE
  5
2CD
330
1F
100
AcDbEntity
  8
1-4ﾚｲﾔ
  6
Continuous
 62
     7
370
     9
100
AcDbLine
 10
170.1260559620403
 20
-82.84853625929155
 30
0.0
 11
170.1260559620403
 21
-32.45680893077324
 31
0.0
  0
LINE
  5
2CE
330
1F
100
AcDbEntity
  8
1-4ﾚｲﾔ
  6
Continuous
 62
     7
370
     9
100
AcDbLine
 10
170.1260559620403
 20
-82.84853625929155
 30
0.0
 11
168.8207940398398
 21
-72.93408764555345
 31
0.0
  0
LINE
  5
2CF
330
1F
100
AcDbEntity
  8
1-4ﾚｲﾔ
  6
Continuous
 62
     7
370
     9
100
AcDbLine
 10
170.1260559620403
 20
-82.84853625929155
 30
0.0
 11
171.4313178842408
 21
-72.93408764555345
 31
0.0
  0
LINE
  5
2D0
330
1F
100
AcDbEntity
  8
1-4ﾚｲﾔ
  6
Continuous
 62
     7
370
     9
100
AcDbLine
 10
170.1260559620403
 20
-32.45680893077324
 30
0.0
 11
168.8207940398398
 21
-42.37125754451134
 31
0.0
  0
LINE
  5
2D1
330
1F
100
AcDbEntity
  8
1-4ﾚｲﾔ
  6
Continuous
 62
     7
370
     9
100
AcDbLine
 10
170.1260559620403
 20
-32.45680893077324
 30
0.0
 11
171.4313178842408
 21
-42.37125754451134
 31
0.0
  0
LINE
  5
2D2
330
1F
100
AcDbEntity
  8
1-4ﾚｲﾔ
  6
Continuous
 62
     7
370
     9
100
AcDbLine
 10
171.3260559620403
 20
-32.45680893077324
 30
0.0
 11
-44.54061877587776
 21
-32.45680893077322
 31
0.0
  0
LINE
  5
2D3
330
1F
100
AcDbEntity
  8
1-5ﾚｲﾔ
  6
Continuous
 62
     7
370
     9
100
AcDbLine
 10
-52.54061877587775
 20
-32.45680893077322
 30
0.0
 11
-170.9855951979372
 21
172.6957253384837
 31
0.0
  0
TEXT
  5
2D4
330
1F
100
AcDbEntity
  8
1-5ﾚｲﾔ
  6
Continuous
 62
     7
370
     9
100
AcDbText
 10
-336.985595197937
 20
177.0543920051504
 30
0.0
 40
9.144
  1
ストレーナー：ＦＣ１５０
 41
1.152777777777776
  7
ＭＳ ゴシック
100
AcDbText
  0
LINE
  5
2D5
330
1F
100
AcDbEntity
  8
1-5ﾚｲﾔ
  6
Continuous
 62
     7
370
     9
100
AcDbLine
 10
-336.9855951979372
 20
172.6957253384837
 30
0.0
 11
-170.9855951979372
 21
172.6957253384837
 31
0.0
  0
LINE
  5
2D6
330
1F
100
AcDbEntity
  8
1-5ﾚｲﾔ
  6
Continuous
 62
     7
370
     9
100
AcDbLine
 10
-52.54061877587776
 20
-32.45680893077326
 30
0.0
 11
-58.62823226827629
 21
-24.5232943615165
 31
0.0
  0
LINE
  5
2D7
330
1F
100
AcDbEntity
  8
1-5ﾚｲﾔ
  6
Continuous
 62
     7
370
     9
100
AcDbLine
 10
-52.54061877587776
 20
-32.45680893077326
 30
0.0
 11
-56.36752307275275
 21
-23.21799980915171
 31
0.0
  0
LINE
  5
2D8
330
1F
100
AcDbEntity
  8
1-5ﾚｲﾔ
  6
Continuous
 62
     7
370
     9
100
AcDbLine
 10
-135.8641993667923
 20
-66.84859535027782
 30
0.0
 11
-238.4448536301632
 21
110.8263635653049
 31
0.0
  0
LINE
  5
2D9
330
1F
100
AcDbEntity
  8
1-5ﾚｲﾔ
  6
Continuous
 62
     7
370
     9
100
AcDbLine
 10
-238.4448536301632
 20
110.8263635653049
 30
0.0
 11
-376.4448602285583
 21
110.8263635653049
 31
0.0
  0
TEXT
  5
2DA
330
1F
100
AcDbEntity
  8
1-5ﾚｲﾔ
  6
Continuous
 62
     7
370
     9
100
AcDbText
 10
-376.4448536301632
 20
115.1850302319715
 30
0.0
 40
9.144
  1
ボルト：Ｃ３６０２Ｗ
 41
1.150000000000001
  7
ＭＳ ゴシック
100
AcDbText
  0
LINE
  5
2DB
330
1F
100
AcDbEntity
  8
1-5ﾚｲﾔ
  6
Continuous
 62
     7
370
     9
100
AcDbLine
 10
-135.8641993667923
 20
-66.84859535027782
 30
0.0
 11
-139.6910541757027
 21
-57.60973674069167
 31
0.0
  0
LINE
  5
2DC
330
1F
100
AcDbEntity
  8
1-5ﾚｲﾔ
  6
Continuous
 62
     7
370
     9
100
AcDbLine
 10
-135.8641993667923
 20
-66.84859535027782
 30
0.0
 11
-141.9518128591908
 21
-58.91508078102105
 31
0.0
  0
LINE
  5
2DD
330
1F
100
AcDbEntity
  8
1-5ﾚｲﾔ
  6
Continuous
 62
     7
370
     9
100
AcDbLine
 10
-196.5405860995407
 20
-91.84851386470326
 30
0.0
 11
-224.2533513550307
 21
-139.8485237622961
 31
0.0
  0
TEXT
  5
2DE
330
1F
100
AcDbEntity
  8
1-5ﾚｲﾔ
  6
Continuous
 62
     7
370
     9
100
AcDbText
 10
-334.2533513550306
 20
-135.4898570956294
 30
0.0
 40
9.144
  1
本体：ＦＣ１５０
 41
1.145833333333333
  7
ＭＳ ゴシック
100
AcDbText
  0
LINE
  5
2DF
330
1F
100
AcDbEntity
  8
1-5ﾚｲﾔ
  6
Continuous
 62
     7
370
     9
100
AcDbLine
 10
-334.2533513550306
 20
-139.8485237622961
 30
0.0
 11
-224.2533513550307
 21
-139.8485237622961
 31
0.0
  0
LINE
  5
2E0
330
1F
100
AcDbEntity
  8
1-5ﾚｲﾔ
  6
Continuous
 62
     7
370
     9
100
AcDbLine
 10
-196.5405860995407
 20
-91.84851386470326
 30
0.0
 11
-200.3674409084513
 21
-101.0873229863248
 31
0.0
  0
LINE
  5
2E1
330
1F
100
AcDbEntity
  8
1-5ﾚｲﾔ
  6
Continuous
 62
     7
370
     9
100
AcDbLine
 10
-196.5405860995407
 20
-91.84851386470326
 30
0.0
 11
-202.6281995919394
 21
-99.78202843396004
 31
0.0
  0
LINE
  5
2E2
330
1F
100
AcDbEntity
  8
1-5ﾚｲﾔ
  6
Continuous
 62
     7
370
     9
100
AcDbLine
 10
-145.5405791855061
 20
-169.5152337970218
 30
0.0
 11
-173.2533939289605
 21
-217.5151942066502
 31
0.0
  0
LINE
  5
2E3
330
1F
100
AcDbEntity
  8
1-5ﾚｲﾔ
  6
Continuous
 62
     7
370
     9
100
AcDbLine
 10
-173.2533939289605
 20
-217.5151942066502
 30
0.0
 11
-311.2533939289606
 21
-217.5151942066502
 31
0.0
  0
LINE
  5
2E4
330
1F
100
AcDbEntity
  8
1-5ﾚｲﾔ
  6
Continuous
 62
     7
370
     9
100
AcDbLine
 10
-145.5405791855061
 20
-169.5152337970218
 30
0.0
 11
-149.3674834823811
 21
-178.7540429186435
 31
0.0
  0
LINE
  5
2E5
330
1F
100
AcDbEntity
  8
1-5ﾚｲﾔ
  6
Continuous
 62
     7
370
     9
100
AcDbLine
 10
-145.5405791855061
 20
-169.5152337970218
 30
0.0
 11
-151.6281926779049
 21
-177.4487483662786
 31
0.0
  0
LINE
  5
2E6
330
1F
100
AcDbEntity
  8
1-5ﾚｲﾔ
  6
Continuous
 62
     7
370
     9
100
AcDbLine
 10
74.45930098292257
 20
-130.8484630878012
 30
0.0
 11
102.326022047287
 21
-234.848481940359
 31
0.0
  0
LINE
  5
2E7
330
1F
100
AcDbEntity
  8
1-5ﾚｲﾔ
  6
Continuous
 62
     7
370
     9
100
AcDbLine
 10
102.326022047287
 20
-234.848481940359
 30
0.0
 11
240.3260220472869
 21
-234.848481940359
 31
0.0
  0
TEXT
  5
2E8
330
1F
100
AcDbEntity
  8
1-5ﾚｲﾔ
  6
Continuous
 62
     7
370
     9
100
AcDbText
 10
102.326022047287
 20
-230.4898152736924
 30
0.0
 40
9.144
  1
アンカー：ＳＷＲＭ８
 41
1.149999999999999
  7
ＭＳ ゴシック
100
AcDbText
  0
LINE
  5
2E9
330
1F
100
AcDbEntity
  8
1-5ﾚｲﾔ
  6
Continuous
 62
     7
370
     9
100
AcDbLine
 10
74.45930098292257
 20
-130.8484630878012
 30
0.0
 11
78.28613530657347
 21
-140.0872584129141
 31
0.0
  0
LINE
  5
2EA
330
1F
100
AcDbEntity
  8
1-5ﾚｲﾔ
  6
Continuous
 62
     7
370
     9
100
AcDbLine
 10
74.45930098292257
 20
-130.8484630878012
 30
0.0
 11
75.76456290512309
 21
-140.7629117015393
 31
0.0
  0
LINE
  5
2EB
330
1F
100
AcDbEntity
  8
1-5ﾚｲﾔ
  6
Continuous
 62
     7
370
     9
100
AcDbLine
 10
50.95929314732818
 20
-76.55696202531645
 30
0.0
 11
112.3946241735686
 21
152.7228147444251
 31
0.0
  0
LINE
  5
2EC
330
1F
100
AcDbEntity
  8
1-5ﾚｲﾔ
  6
Continuous
 62
     7
370
     9
100
AcDbLine
 10
112.3946241735686
 20
152.7228147444252
 30
0.0
 11
264.3946241735685
 21
152.7228147444252
 31
0.0
  0
TEXT
  5
2ED
330
1F
100
AcDbEntity
  8
1-5ﾚｲﾔ
  6
Continuous
 62
     7
370
     9
100
AcDbText
 10
112.3946241735686
 20
157.0814814110918
 30
0.0
 40
9.144
  1
丸小ねじ：Ｃ２７００Ｗ
 41
1.151515151515151
  7
ＭＳ ゴシック
100
AcDbText
  0
LINE
  5
2EE
330
1F
100
AcDbEntity
  8
1-5ﾚｲﾔ
  6
Continuous
 62
     7
370
     9
100
AcDbLine
 10
50.95929314732818
 20
-76.55696202531645
 30
0.0
 11
54.78612747097907
 21
-67.31816670020359
 31
0.0
  0
LINE
  5
2EF
330
1F
100
AcDbEntity
  8
1-5ﾚｲﾔ
  6
Continuous
 62
     7
370
     9
100
AcDbLine
 10
50.95929314732818
 20
-76.55696202531645
 30
0.0
 11
52.26455506952869
 21
-66.64251341157835
 31
0.0
  0
LINE
  5
2F0
330
1F
100
AcDbEntity
  8
1-5ﾚｲﾔ
  6
Continuous
 62
     7
370
     9
100
AcDbLine
 10
60.95929014270181
 20
-80.95687350077434
 30
0.0
 11
113.3901801545746
 21
114.7178719095901
 31
0.0
  0
LINE
  5
2F1
330
1F
100
AcDbEntity
  8
1-5ﾚｲﾔ
  6
Continuous
 62
     7
370
     9
100
AcDbLine
 10
60.95929014270181
 20
-80.95687350077434
 30
0.0
 11
62.26455206490233
 21
-71.04242488703623
 31
0.0
  0
LINE
  5
2F2
330
1F
100
AcDbEntity
  8
1-5ﾚｲﾔ
  6
Continuous
 62
     7
370
     9
100
AcDbLine
 10
60.95929014270181
 20
-80.95687350077434
 30
0.0
 11
64.7861244663527
 21
-71.71807817566147
 31
0.0
  0
LINE
  5
2F3
330
1F
100
AcDbEntity
  8
1-5ﾚｲﾔ
  6
Continuous
 62
     7
370
     9
100
AcDbLine
 10
113.3901801545746
 20
114.7178719095901
 30
0.0
 11
265.3901801545745
 21
114.7178719095901
 31
0.0
  0
TEXT
  5
2F4
330
1F
100
AcDbEntity
  8
1-5ﾚｲﾔ
  6
Continuous
 62
     7
370
     9
100
AcDbText
 10
113.3901801545746
 20
119.0765385762568
 30
0.0
 40
9.144
  1
防水層押え：ＦＣ１５０
 41
1.15151515151515
  7
ＭＳ ゴシック
100
AcDbText
  0
LINE
  5
2F5
330
1F
100
AcDbEntity
  8
1-3ﾚｲﾔ
  6
Continuous
 62
     7
370
     9
100
AcDbLine
 10
30.84600759658849
 20
-145.8098197037294
 30
0.0
 11
44.63305758603098
 21
-143.3789708861617
 31
0.0
  0
LINE
  5
2F6
330
1F
100
AcDbEntity
  8
1-3ﾚｲﾔ
  6
Continuous
 62
     7
370
     9
100
AcDbLine
 10
31.54071964261879
 20
-149.7491111680453
 30
0.0
 11
45.32757168020327
 21
-147.318113886584
 31
0.0
  0
LINE
  5
2F7
330
1F
100
AcDbEntity
  8
1-3ﾚｲﾔ
  6
Continuous
 62
     4
370
     9
100
AcDbLine
 10
37.45928224819317
 20
-148.7055089720992
 30
0.0
 11
37.45928224819317
 21
-182.8485671303551
 31
0.0
  0
LINE
  5
2F8
330
1F
100
AcDbEntity
  8
1-3ﾚｲﾔ
  6
Continuous
 62
     4
370
     9
100
AcDbLine
 10
37.45928224819318
 20
-107.8485176423905
 30
0.0
 11
37.45928224819317
 21
-144.6438337715082
 31
0.0
  0
LINE
  5
2F9
330
1F
100
AcDbEntity
  8
1-3ﾚｲﾔ
  6
Continuous
 62
     4
370
     9
100
AcDbLine
 10
40.45934163375058
 20
-107.8485176423905
 30
0.0
 11
40.45934163375056
 21
-144.1148074307142
 31
0.0
  0
LINE
  5
2FA
330
1F
100
AcDbEntity
  8
1-3ﾚｲﾔ
  6
Continuous
 62
     4
370
     9
100
AcDbLine
 10
40.45934163375056
 20
-148.1765321192698
 30
0.0
 11
40.45934163375056
 21
-182.8485671303551
 31
0.0
  0
LINE
  5
2FB
330
1F
100
AcDbEntity
  8
1-3ﾚｲﾔ
  6
Continuous
 62
     7
370
     9
100
AcDbLine
 10
-150.6539726082257
 20
-145.8098197037294
 30
0.0
 11
-136.8670215947122
 21
-143.3789708861617
 31
0.0
  0
LINE
  5
2FC
330
1F
100
AcDbEntity
  8
1-3ﾚｲﾔ
  6
Continuous
 62
     7
370
     9
100
AcDbLine
 10
-149.9594585140534
 20
-149.7491111680453
 30
0.0
 11
-136.1724085246108
 21
-147.318113886584
 31
0.0
  0
LINE
  5
2FD
330
1F
100
AcDbEntity
  8
1-3ﾚｲﾔ
  6
Continuous
 62
     4
370
     9
100
AcDbLine
 10
-142.5406187758777
 20
-148.4409463137378
 30
0.0
 11
-142.5406187758777
 21
-182.8485671303551
 31
0.0
  0
LINE
  5
2FE
330
1F
100
AcDbEntity
  8
1-3ﾚｲﾔ
  6
Continuous
 62
     4
370
     9
100
AcDbLine
 10
-145.5405791855061
 20
-107.8485176423905
 30
0.0
 11
-145.5405791855061
 21
-144.9081984780115
 31
0.0
  0
LINE
  5
2FF
330
1F
100
AcDbEntity
  8
1-3ﾚｲﾔ
  6
Continuous
 62
     4
370
     9
100
AcDbLine
 10
-142.5406187758777
 20
-107.8485176423905
 30
0.0
 11
-142.5406187758777
 21
-144.3793700890757
 31
0.0
  0
LINE
  5
300
330
1F
100
AcDbEntity
  8
1-3ﾚｲﾔ
  6
Continuous
 62
     4
370
     9
100
AcDbLine
 10
-145.5405791855061
 20
-148.9699726545317
 30
0.0
 11
-145.5405791855061
 21
-182.8485671303551
 31
0.0
  0
LINE
  5
301
330
1F
100
AcDbEntity
  8
1-1ﾚｲﾔ
  6
JWW_DASHED1
 62
     2
370
     9
100
AcDbLine
 10
-160.3346843618059
 20
-88.9630050006649
 30
0.0
 11
-146.8513328741709
 21
-92.57586718119929
 31
0.0
  0
LINE
  5
302
330
1F
100
AcDbEntity
  8
1-1ﾚｲﾔ
  6
Continuous
 62
     2
370
     9
100
AcDbLine
 10
55.0733191322801
 20
350.9425165470926
 30
0.0
 11
60.47115429305488
 21
352.0162469569284
 31
0.0
  0
LINE
  5
303
330
1F
100
AcDbEntity
  8
1-1ﾚｲﾔ
  6
Continuous
 62
     2
370
     9
100
AcDbLine
 10
56.77485804301698
 20
349.7516077689646
 30
0.0
 11
59.72076681407536
 21
350.337573930744
 31
0.0
  0
LINE
  5
304
330
1F
100
AcDbEntity
  8
1-1ﾚｲﾔ
  6
Continuous
 62
     2
370
     9
100
AcDbLine
 10
53.51259245100907
 20
358.7888098160696
 30
0.0
 11
58.91042761178362
 21
359.8624906790266
 31
0.0
  0
LINE
  5
305
330
1F
100
AcDbEntity
  8
1-1ﾚｲﾔ
  6
Continuous
 62
     2
370
     9
100
AcDbLine
 10
54.62888362970868
 20
360.5402548204481
 30
0.0
 11
57.57474285388814
 21
361.1262333689472
 31
0.0
  0
LINE
  5
306
330
1F
100
AcDbEntity
  8
1-1ﾚｲﾔ
  6
Continuous
 62
     2
370
     9
100
AcDbLine
 10
40.25077578553639
 20
390.8056312759834
 30
0.0
 11
44.82682641502326
 21
393.8632682586692
 31
0.0
  0
LINE
  5
307
330
1F
100
AcDbEntity
  8
1-1ﾚｲﾔ
  6
Continuous
 62
     2
370
     9
100
AcDbLine
 10
42.27858089297699
 20
390.3565012066484
 30
0.0
 11
44.77599131740469
 21
392.0252029234802
 31
0.0
  0
LINE
  5
308
330
1F
100
AcDbEntity
  8
1-1ﾚｲﾔ
  6
Continuous
 62
     2
370
     9
100
AcDbLine
 10
35.80622257230645
 20
397.4573864579625
 30
0.0
 11
40.38232274867202
 21
400.5150110539286
 31
0.0
  0
LINE
  5
309
330
1F
100
AcDbEntity
  8
1-1ﾚｲﾔ
  6
Continuous
 62
     2
370
     9
100
AcDbLine
 10
36.16727067790718
 20
399.5026940003288
 30
0.0
 11
38.66468110233465
 21
401.1713833304409
 31
0.0
  0
LINE
  5
30A
330
1F
100
AcDbEntity
  8
1-1ﾚｲﾔ
  6
Continuous
 62
     2
370
     9
100
AcDbLine
 10
11.30162455125939
 20
421.9619968657291
 30
0.0
 11
14.35923676050577
 21
426.5380598819357
 31
0.0
  0
LINE
  5
30B
330
1F
100
AcDbEntity
  8
1-1ﾚｲﾔ
  6
Continuous
 62
     2
370
     9
100
AcDbLine
 10
13.34694448034558
 20
422.3230697447692
 30
0.0
 11
15.01560903701822
 21
424.8204553957574
 31
0.0
  0
LINE
  5
30C
330
1F
100
AcDbEntity
  8
1-1ﾚｲﾔ
  6
Continuous
 62
     2
370
     9
100
AcDbLine
 10
4.64988175600017
 20
426.4065500789591
 30
0.0
 11
7.707518738685778
 21
430.9826254818854
 31
0.0
  0
LINE
  5
30D
330
1F
100
AcDbEntity
  8
1-1ﾚｲﾔ
  6
Continuous
 62
     2
370
     9
100
AcDbLine
 10
4.200739299945482
 20
428.4343304129604
 30
0.0
 11
5.86945340349682
 21
430.931740837388
 31
0.0
  0
LINE
  5
30E
330
1F
100
AcDbEntity
  8
1-1ﾚｲﾔ
  6
Continuous
 62
     2
370
     9
100
AcDbLine
 10
-27.36693970391373
 20
439.668354357712
 30
0.0
 11
-26.29325884095677
 21
445.0662019052064
 31
0.0
  0
LINE
  5
30F
330
1F
100
AcDbEntity
  8
1-1ﾚｲﾔ
  6
Continuous
 62
     2
370
     9
100
AcDbLine
 10
-25.61550708625494
 20
440.7846207629723
 30
0.0
 11
-25.02956569791475
 21
443.7305171473109
 31
0.0
  0
LINE
  5
310
330
1F
100
AcDbEntity
  8
1-1ﾚｲﾔ
  6
Continuous
 62
     2
370
     9
100
AcDbLine
 10
-35.21323297289071
 20
441.2290562655438
 30
0.0
 11
-34.13950256305505
 21
446.6269285864774
 31
0.0
  0
LINE
  5
311
330
1F
100
AcDbEntity
  8
1-1ﾚｲﾔ
  6
Continuous
 62
     2
370
     9
100
AcDbLine
 10
-36.40416652445818
 20
442.93061994972
 30
0.0
 11
-35.81820036267875
 21
445.876503947339
 31
0.0
  0
LINE
  5
312
330
1F
100
AcDbEntity
  8
1-1ﾚｲﾔ
  6
Continuous
 62
     2
370
     9
100
AcDbLine
 10
-69.86800457886473
 20
441.2290562655438
 30
0.0
 11
-70.94168544182169
 21
446.6269038130381
 31
0.0
  0
LINE
  5
313
330
1F
100
AcDbEntity
  8
1-1ﾚｲﾔ
  6
Continuous
 62
     2
370
     9
100
AcDbLine
 10
-68.67702148041856
 20
442.93061994972
 30
0.0
 11
-69.26301241563745
 21
445.876503947339
 31
0.0
  0
LINE
  5
314
330
1F
100
AcDbEntity
  8
1-1ﾚｲﾔ
  6
Continuous
 62
     2
370
     9
100
AcDbLine
 10
-77.7142978478417
 20
439.668354357712
 30
0.0
 11
-78.7879539373592
 21
445.0662019052064
 31
0.0
  0
LINE
  5
315
330
1F
100
AcDbEntity
  8
1-1ﾚｲﾔ
  6
Continuous
 62
     2
370
     9
100
AcDbLine
 10
-79.4657304655005
 20
440.7846207629723
 30
0.0
 11
-80.05167185384069
 21
443.7305171473109
 31
0.0
  0
LINE
  5
316
330
1F
100
AcDbEntity
  8
1-1ﾚｲﾔ
  6
Continuous
 62
     2
370
     9
100
AcDbLine
 10
-109.7310697608767
 20
426.4065500789591
 30
0.0
 11
-112.788731517002
 21
430.9826254818854
 31
0.0
  0
LINE
  5
317
330
1F
100
AcDbEntity
  8
1-1ﾚｲﾔ
  6
Continuous
 62
     2
370
     9
100
AcDbLine
 10
-109.2819520782615
 20
428.4343304129604
 30
0.0
 11
-110.9506414083736
 21
430.931740837388
 31
0.0
  0
LINE
  5
318
330
1F
100
AcDbEntity
  8
1-1ﾚｲﾔ
  6
Continuous
 62
     2
370
     9
100
AcDbLine
 10
-116.3828373295754
 20
421.9619968657291
 30
0.0
 11
-119.4404495388219
 21
426.5380598819357
 31
0.0
  0
LINE
  5
319
330
1F
100
AcDbEntity
  8
1-1ﾚｲﾔ
  6
Continuous
 62
     2
370
     9
100
AcDbLine
 10
-118.4281324852222
 20
422.3230449713299
 30
0.0
 11
-120.0968465887736
 21
424.8204553957574
 31
0.0
  0
LINE
  5
31A
330
1F
100
AcDbEntity
  8
1-1ﾚｲﾔ
  6
Continuous
 62
     2
370
     9
100
AcDbLine
 10
-140.8874601240618
 20
397.4573864579625
 30
0.0
 11
-145.4635107535487
 21
400.5150110539286
 31
0.0
  0
LINE
  5
31B
330
1F
100
AcDbEntity
  8
1-1ﾚｲﾔ
  6
Continuous
 62
     2
370
     9
100
AcDbLine
 10
-141.2485082296625
 20
399.5026940003289
 30
0.0
 11
-143.7458938806508
 21
401.171383330441
 31
0.0
  0
LINE
  5
31C
330
1F
100
AcDbEntity
  8
1-1ﾚｲﾔ
  6
Continuous
 62
     2
370
     9
100
AcDbLine
 10
-145.3320133372918
 20
390.8056312759834
 30
0.0
 11
-149.9080639667787
 21
393.8632682586693
 31
0.0
  0
LINE
  5
31D
330
1F
100
AcDbEntity
  8
1-1ﾚｲﾔ
  6
Continuous
 62
     2
370
     9
100
AcDbLine
 10
-147.3597688978538
 20
390.3565012066485
 30
0.0
 11
-149.8571793222814
 21
392.0251905367605
 31
0.0
  0
LINE
  5
31E
330
1F
100
AcDbEntity
  8
1-1ﾚｲﾔ
  6
Continuous
 62
     2
370
     9
100
AcDbLine
 10
-158.5938300027644
 20
358.7888098160697
 30
0.0
 11
-163.9916651635391
 21
359.8624906790266
 31
0.0
  0
LINE
  5
31F
330
1F
100
AcDbEntity
  8
1-1ﾚｲﾔ
  6
Continuous
 62
     2
370
     9
100
AcDbLine
 10
-159.7100964080247
 20
360.5402548204482
 30
0.0
 11
-162.6559556322043
 21
361.1262333689472
 31
0.0
  0
LINE
  5
320
330
1F
100
AcDbEntity
  8
1-1ﾚｲﾔ
  6
Continuous
 62
     2
370
     9
100
AcDbLine
 10
-160.1545566840356
 20
350.9425165470927
 30
0.0
 11
-165.5523670713708
 21
352.0162469569285
 31
0.0
  0
LINE
  5
321
330
1F
100
AcDbEntity
  8
1-1ﾚｲﾔ
  6
Continuous
 62
     2
370
     9
100
AcDbLine
 10
-161.8560955947726
 20
349.7516077689647
 30
0.0
 11
-164.801954818952
 21
350.3375739307441
 31
0.0
  0
LINE
  5
322
330
1F
100
AcDbEntity
  8
1-1ﾚｲﾔ
  6
Continuous
 62
     2
370
     9
100
AcDbLine
 10
60.47115429305488
 20
352.0162221834889
 30
0.0
 11
59.72076681407536
 21
350.337573930744
 31
0.0
  0
LINE
  5
323
330
1F
100
AcDbEntity
  8
1-1ﾚｲﾔ
  6
Continuous
 62
     2
370
     9
100
AcDbLine
 10
55.0733191322801
 20
350.9425165470926
 30
0.0
 11
56.77485804301698
 21
349.7516077689646
 31
0.0
  0
LINE
  5
324
330
1F
100
AcDbEntity
  8
1-1ﾚｲﾔ
  6
Continuous
 62
     2
370
     9
100
AcDbLine
 10
44.82682641502326
 20
393.8632434852298
 30
0.0
 11
44.77599131740469
 21
392.0251905367604
 31
0.0
  0
LINE
  5
325
330
1F
100
AcDbEntity
  8
1-1ﾚｲﾔ
  6
Continuous
 62
     2
370
     9
100
AcDbLine
 10
57.57474285388814
 20
361.1261962087881
 30
0.0
 11
58.91042761178362
 21
359.8624535188675
 31
0.0
  0
LINE
  5
326
330
1F
100
AcDbEntity
  8
1-1ﾚｲﾔ
  6
Continuous
 62
     2
370
     9
100
AcDbLine
 10
40.25082533241509
 20
390.8055941158243
 30
0.0
 11
42.27858089297699
 21
390.3564888199287
 31
0.0
  0
LINE
  5
327
330
1F
100
AcDbEntity
  8
1-1ﾚｲﾔ
  6
Continuous
 62
     2
370
     9
100
AcDbLine
 10
53.51264199788777
 20
358.7887850426303
 30
0.0
 11
54.62888362970868
 21
360.540217660289
 31
0.0
  0
LINE
  5
328
330
1F
100
AcDbEntity
  8
1-1ﾚｲﾔ
  6
Continuous
 62
     2
370
     9
100
AcDbLine
 10
14.35926153394523
 20
426.5380227217767
 30
0.0
 11
15.01563381045746
 21
424.8204306223181
 31
0.0
  0
LINE
  5
329
330
1F
100
AcDbEntity
  8
1-1ﾚｲﾔ
  6
Continuous
 62
     2
370
     9
100
AcDbLine
 10
38.66473064921358
 20
401.1713585570014
 30
0.0
 11
40.38232274867202
 21
400.5149615070497
 31
0.0
  0
LINE
  5
32A
330
1F
100
AcDbEntity
  8
1-1ﾚｲﾔ
  6
Continuous
 62
     2
370
     9
100
AcDbLine
 10
11.30164932469886
 20
421.9619720922898
 30
0.0
 11
13.34694448034558
 21
422.3230078111708
 31
0.0
  0
LINE
  5
32B
330
1F
100
AcDbEntity
  8
1-1ﾚｲﾔ
  6
Continuous
 62
     2
370
     9
100
AcDbLine
 10
35.80627211918515
 20
397.4573492978034
 30
0.0
 11
36.16732022478588
 21
399.5026444534501
 31
0.0
  0
LINE
  5
32C
330
1F
100
AcDbEntity
  8
1-1ﾚｲﾔ
  6
Continuous
 62
     2
370
     9
100
AcDbLine
 10
-26.2931845206386
 20
445.0661399716079
 30
0.0
 11
-25.02951615103605
 21
443.7304923738716
 31
0.0
  0
LINE
  5
32D
330
1F
100
AcDbEntity
  8
1-1ﾚｲﾔ
  6
Continuous
 62
     2
370
     9
100
AcDbLine
 10
5.869527723814983
 20
430.9316912905093
 30
0.0
 11
7.707543512125241
 21
430.9825635482869
 31
0.0
  0
LINE
  5
32E
330
1F
100
AcDbEntity
  8
1-1ﾚｲﾔ
  6
Continuous
 62
     2
370
     9
100
AcDbLine
 10
-27.36686538359557
 20
439.6683295842727
 30
0.0
 11
-25.61545753937624
 21
440.7845836028132
 31
0.0
  0
LINE
  5
32F
330
1F
100
AcDbEntity
  8
1-1ﾚｲﾔ
  6
Continuous
 62
     2
370
     9
100
AcDbLine
 10
4.649931302878869
 20
426.4065129188
 30
0.0
 11
4.200813620263645
 21
428.4342932528014
 31
0.0
  0
LINE
  5
330
330
1F
100
AcDbEntity
  8
1-1ﾚｲﾔ
  6
Continuous
 62
     2
370
     9
100
AcDbLine
 10
-70.94161112150353
 20
446.6268790395987
 30
0.0
 11
-69.26296286875852
 21
445.8764791738996
 31
0.0
  0
LINE
  5
331
330
1F
100
AcDbEntity
  8
1-1ﾚｲﾔ
  6
Continuous
 62
     2
370
     9
100
AcDbLine
 10
-35.81810126892113
 20
445.8764791738996
 30
0.0
 11
-34.13942824273688
 21
446.6268790395987
 31
0.0
  0
LINE
  5
332
330
1F
100
AcDbEntity
  8
1-1ﾚｲﾔ
  6
Continuous
 62
     2
370
     9
100
AcDbLine
 10
-69.86788071166787
 20
441.2290562655438
 30
0.0
 11
-68.6769967069791
 21
442.930582789561
 31
0.0
  0
LINE
  5
333
330
1F
100
AcDbEntity
  8
1-1ﾚｲﾔ
  6
Continuous
 62
     2
370
     9
100
AcDbLine
 10
-35.21313387913308
 20
441.2290562655438
 30
0.0
 11
-36.40406743070055
 21
442.9305951762807
 31
0.0
  0
LINE
  5
334
330
1F
100
AcDbEntity
  8
1-1ﾚｲﾔ
  6
Continuous
 62
     2
370
     9
100
AcDbLine
 10
-112.7886076498051
 20
430.9826007084459
 30
0.0
 11
-110.9505670880554
 21
430.9317036772289
 31
0.0
  0
LINE
  5
335
330
1F
100
AcDbEntity
  8
1-1ﾚｲﾔ
  6
Continuous
 62
     2
370
     9
100
AcDbLine
 10
-80.05157276008306
 20
443.7304923738716
 30
0.0
 11
-78.78783007016234
 21
445.0661647450473
 31
0.0
  0
LINE
  5
336
330
1F
100
AcDbEntity
  8
1-1ﾚｲﾔ
  6
Continuous
 62
     2
370
     9
100
AcDbLine
 10
-109.7309706671193
 20
426.4065500789591
 30
0.0
 11
-109.2818529845038
 21
428.4342932528014
 31
0.0
  0
LINE
  5
337
330
1F
100
AcDbEntity
  8
1-1ﾚｲﾔ
  6
Continuous
 62
     2
370
     9
100
AcDbLine
 10
-77.71417398064484
 20
439.6683419709924
 30
0.0
 11
-79.46560659830364
 21
440.7846083762527
 31
0.0
  0
LINE
  5
338
330
1F
100
AcDbEntity
  8
1-1ﾚｲﾔ
  6
Continuous
 62
     2
370
     9
100
AcDbLine
 10
-145.4633868863518
 20
400.5150110539286
 30
0.0
 11
-143.7458195603326
 21
401.171383330441
 31
0.0
  0
LINE
  5
339
330
1F
100
AcDbEntity
  8
1-1ﾚｲﾔ
  6
Continuous
 62
     2
370
     9
100
AcDbLine
 10
-120.0967474950161
 20
424.8204553957574
 30
0.0
 11
-119.4403256716249
 21
426.5380598819357
 31
0.0
  0
LINE
  5
33A
330
1F
100
AcDbEntity
  8
1-1ﾚｲﾔ
  6
Continuous
 62
     2
370
     9
100
AcDbLine
 10
-140.887336256865
 20
397.4573864579625
 30
0.0
 11
-141.2483843624656
 21
399.5026692268895
 31
0.0
  0
LINE
  5
33B
330
1F
100
AcDbEntity
  8
1-1ﾚｲﾔ
  6
Continuous
 62
     2
370
     9
100
AcDbLine
 10
-116.3827134623786
 20
421.9620092524489
 30
0.0
 11
-118.4280086180253
 21
422.3230697447692
 31
0.0
  0
LINE
  5
33C
330
1F
100
AcDbEntity
  8
1-1ﾚｲﾔ
  6
Continuous
 62
     2
370
     9
100
AcDbLine
 10
-163.9915165229028
 20
359.8625278391857
 30
0.0
 11
-162.6558565384466
 21
361.1262333689472
 31
0.0
  0
LINE
  5
33D
330
1F
100
AcDbEntity
  8
1-1ﾚｲﾔ
  6
Continuous
 62
     2
370
     9
100
AcDbLine
 10
-149.8570802285238
 20
392.0252400836393
 30
0.0
 11
-149.9079400995818
 21
393.8632930321086
 31
0.0
  0
LINE
  5
33E
330
1F
100
AcDbEntity
  8
1-1ﾚｲﾔ
  6
Continuous
 62
     2
370
     9
100
AcDbLine
 10
-158.5936813621281
 20
358.788834589509
 30
0.0
 11
-159.7099725408277
 21
360.5402548204482
 31
0.0
  0
LINE
  5
33F
330
1F
100
AcDbEntity
  8
1-1ﾚｲﾔ
  6
Continuous
 62
     2
370
     9
100
AcDbLine
 10
-145.3318894700949
 20
390.8056560494228
 30
0.0
 11
-147.3596698040963
 21
390.3565383668075
 31
0.0
  0
LINE
  5
340
330
1F
100
AcDbEntity
  8
1-1ﾚｲﾔ
  6
Continuous
 62
     2
370
     9
100
AcDbLine
 10
-164.8018557251945
 20
350.3376234776229
 30
0.0
 11
-165.5522432041739
 21
352.0162965038072
 31
0.0
  0
LINE
  5
341
330
1F
100
AcDbEntity
  8
1-1ﾚｲﾔ
  6
Continuous
 62
     2
370
     9
100
AcDbLine
 10
-160.1544328168387
 20
350.9425660939715
 30
0.0
 11
-161.8559717275756
 21
349.7516573158434
 31
0.0
  0
ARC
  5
342
330
1F
100
AcDbEntity
  8
1-1ﾚｲﾔ
  6
Continuous
 62
     2
370
     9
100
AcDbCircle
 10
-52.54061877587772
 20
333.6151802909844
 30
0.0
 40
114.500025053282
100
AcDbArc
 50
0.0
 51
9.248001098632812
  0
ARC
  5
343
330
1F
100
AcDbEntity
  8
1-1ﾚｲﾔ
  6
Continuous
 62
     2
370
     9
100
AcDbCircle
 10
-52.54061877587772
 20
333.6151802909844
 30
0.0
 40
113.5000080123371
100
AcDbArc
 50
0.0
 51
8.47247314453125
  0
ARC
  5
344
330
1F
100
AcDbEntity
  8
1-1ﾚｲﾔ
  6
Continuous
 62
     2
370
     9
100
AcDbCircle
 10
-52.54061877587772
 20
333.6151802909844
 30
0.0
 40
110.5000188231008
100
AcDbArc
 50
0.0
 51
8.397003173828125
  0
ARC
  5
345
330
1F
100
AcDbEntity
  8
1-1ﾚｲﾔ
  6
Continuous
 62
     2
370
     9
100
AcDbCircle
 10
-52.54061877587772
 20
333.6151802909844
 30
0.0
 40
114.500025053282
100
AcDbArc
 50
13.25199890136718
 51
22.49999999999999
  0
ARC
  5
346
330
1F
100
AcDbEntity
  8
1-1ﾚｲﾔ
  6
Continuous
 62
     2
370
     9
100
AcDbCircle
 10
-52.54061877587772
 20
333.6151802909844
 30
0.0
 40
113.5000080123371
100
AcDbArc
 50
14.02752685546876
 51
22.50000000000001
  0
ARC
  5
347
330
1F
100
AcDbEntity
  8
1-1ﾚｲﾔ
  6
Continuous
 62
     2
370
     9
100
AcDbCircle
 10
-52.54061877587772
 20
333.6151802909844
 30
0.0
 40
110.5000188231008
100
AcDbArc
 50
14.10299682617187
 51
22.49999999999999
  0
ARC
  5
348
330
1F
100
AcDbEntity
  8
1-1ﾚｲﾔ
  6
Continuous
 62
     2
370
     9
100
AcDbCircle
 10
-52.54061877587772
 20
333.6151802909844
 30
0.0
 40
108.9999994550433
100
AcDbArc
 50
13.35308837890624
 51
31.64691162109374
  0
ARC
  5
349
330
1F
100
AcDbEntity
  8
1-1ﾚｲﾔ
  6
Continuous
 62
     2
370
     9
100
AcDbCircle
 10
-52.54061877587772
 20
333.6151802909844
 30
0.0
 40
114.500025053282
100
AcDbArc
 50
22.50001525878907
 51
31.74801635742188
  0
ARC
  5
34A
330
1F
100
AcDbEntity
  8
1-1ﾚｲﾔ
  6
Continuous
 62
     2
370
     9
100
AcDbCircle
 10
-52.54061877587772
 20
333.6151802909844
 30
0.0
 40
113.5000080123371
100
AcDbArc
 50
22.5
 51
30.97247314453125
  0
ARC
  5
34B
330
1F
100
AcDbEntity
  8
1-1ﾚｲﾔ
  6
Continuous
 62
     2
370
     9
100
AcDbCircle
 10
-52.54061877587772
 20
333.6151802909844
 30
0.0
 40
110.5000188231008
100
AcDbArc
 50
22.5
 51
30.89700317382812
  0
ARC
  5
34C
330
1F
100
AcDbEntity
  8
1-1ﾚｲﾔ
  6
Continuous
 62
     2
370
     9
100
AcDbCircle
 10
-52.54061877587772
 20
333.6151802909844
 30
0.0
 40
113.5000080123371
100
AcDbArc
 50
36.52752685546876
 51
45.00000000000001
  0
ARC
  5
34D
330
1F
100
AcDbEntity
  8
1-1ﾚｲﾔ
  6
Continuous
 62
     2
370
     9
100
AcDbCircle
 10
-52.54061877587772
 20
333.6151802909844
 30
0.0
 40
110.5000188231008
100
AcDbArc
 50
36.60299682617185
 51
44.99999999999998
  0
ARC
  5
34E
330
1F
100
AcDbEntity
  8
1-1ﾚｲﾔ
  6
Continuous
 62
     2
370
     9
100
AcDbCircle
 10
-52.54061877587772
 20
333.6151802909844
 30
0.0
 40
108.9999994550433
100
AcDbArc
 50
35.85308837890625
 51
54.14691162109375
  0
ARC
  5
34F
330
1F
100
AcDbEntity
  8
1-1ﾚｲﾔ
  6
Continuous
 62
     2
370
     9
100
AcDbCircle
 10
-52.54061877587772
 20
333.6151802909844
 30
0.0
 40
113.5000080123371
100
AcDbArc
 50
45.0
 51
53.47247314453125
  0
ARC
  5
350
330
1F
100
AcDbEntity
  8
1-1ﾚｲﾔ
  6
Continuous
 62
     2
370
     9
100
AcDbCircle
 10
-52.54061877587772
 20
333.6151802909844
 30
0.0
 40
110.5000188231008
100
AcDbArc
 50
45.0
 51
53.39700317382812
  0
ARC
  5
351
330
1F
100
AcDbEntity
  8
1-1ﾚｲﾔ
  6
Continuous
 62
     2
370
     9
100
AcDbCircle
 10
-52.54061877587772
 20
333.6151802909844
 30
0.0
 40
114.500025053282
100
AcDbArc
 50
58.25199890136719
 51
67.5
  0
ARC
  5
352
330
1F
100
AcDbEntity
  8
1-1ﾚｲﾔ
  6
Continuous
 62
     2
370
     9
100
AcDbCircle
 10
-52.54061877587772
 20
333.6151802909844
 30
0.0
 40
113.5000080123371
100
AcDbArc
 50
59.02752685546876
 51
67.50000000000001
  0
ARC
  5
353
330
1F
100
AcDbEntity
  8
1-1ﾚｲﾔ
  6
Continuous
 62
     2
370
     9
100
AcDbCircle
 10
-52.54061877587772
 20
333.6151802909844
 30
0.0
 40
110.5000188231008
100
AcDbArc
 50
59.10299682617185
 51
67.49999999999997
  0
ARC
  5
354
330
1F
100
AcDbEntity
  8
1-1ﾚｲﾔ
  6
Continuous
 62
     2
370
     9
100
AcDbCircle
 10
-52.54061877587772
 20
333.6151802909844
 30
0.0
 40
108.9999994550433
100
AcDbArc
 50
58.35308837890625
 51
76.64691162109375
  0
ARC
  5
355
330
1F
100
AcDbEntity
  8
1-1ﾚｲﾔ
  6
Continuous
 62
     2
370
     9
100
AcDbCircle
 10
-52.54061877587772
 20
333.6152050644238
 30
0.0
 40
114.500025053282
100
AcDbArc
 50
67.50001525878908
 51
76.74801635742188
  0
ARC
  5
356
330
1F
100
AcDbEntity
  8
1-1ﾚｲﾔ
  6
Continuous
 62
     2
370
     9
100
AcDbCircle
 10
-52.54061877587772
 20
333.6152050644238
 30
0.0
 40
113.5000080123371
100
AcDbArc
 50
67.5
 51
75.97247314453125
  0
ARC
  5
357
330
1F
100
AcDbEntity
  8
1-1ﾚｲﾔ
  6
Continuous
 62
     2
370
     9
100
AcDbCircle
 10
-52.54061877587772
 20
333.6152050644238
 30
0.0
 40
110.5000188231008
100
AcDbArc
 50
67.5
 51
75.89700317382812
  0
ARC
  5
358
330
1F
100
AcDbEntity
  8
1-1ﾚｲﾔ
  6
Continuous
 62
     2
370
     9
100
AcDbCircle
 10
-52.54061877587772
 20
333.6151802909844
 30
0.0
 40
114.500025053282
100
AcDbArc
 50
80.75199890136719
 51
90.0
  0
ARC
  5
359
330
1F
100
AcDbEntity
  8
1-1ﾚｲﾔ
  6
Continuous
 62
     2
370
     9
100
AcDbCircle
 10
-52.54061877587772
 20
333.6151802909844
 30
0.0
 40
113.5000080123371
100
AcDbArc
 50
81.52752685546876
 51
90.00000000000001
  0
ARC
  5
35A
330
1F
100
AcDbEntity
  8
1-1ﾚｲﾔ
  6
Continuous
 62
     2
370
     9
100
AcDbCircle
 10
-52.54061877587772
 20
333.6151802909844
 30
0.0
 40
110.5000188231008
100
AcDbArc
 50
81.60299682617186
 51
89.99999999999997
  0
ARC
  5
35B
330
1F
100
AcDbEntity
  8
1-1ﾚｲﾔ
  6
Continuous
 62
     2
370
     9
100
AcDbCircle
 10
-52.54061877587772
 20
333.6152050644238
 30
0.0
 40
114.500025053282
100
AcDbArc
 50
90.00001525878899
 51
99.24801635742189
  0
ARC
  5
35C
330
1F
100
AcDbEntity
  8
1-1ﾚｲﾔ
  6
Continuous
 62
     2
370
     9
100
AcDbCircle
 10
-52.54061877587772
 20
333.6152050644238
 30
0.0
 40
113.5000080123371
100
AcDbArc
 50
90.0
 51
98.47247314453126
  0
ARC
  5
35D
330
1F
100
AcDbEntity
  8
1-1ﾚｲﾔ
  6
Continuous
 62
     2
370
     9
100
AcDbCircle
 10
-52.54061877587772
 20
333.6152050644238
 30
0.0
 40
110.5000188231008
100
AcDbArc
 50
90.0
 51
98.39700317382811
  0
ARC
  5
35E
330
1F
100
AcDbEntity
  8
1-1ﾚｲﾔ
  6
Continuous
 62
     2
370
     9
100
AcDbCircle
 10
-52.54061877587772
 20
333.6151802909844
 30
0.0
 40
114.500025053282
100
AcDbArc
 50
103.2519989013673
 51
112.5
  0
ARC
  5
35F
330
1F
100
AcDbEntity
  8
1-1ﾚｲﾔ
  6
Continuous
 62
     2
370
     9
100
AcDbCircle
 10
-52.54061877587772
 20
333.6151802909844
 30
0.0
 40
113.5000080123371
100
AcDbArc
 50
104.0275268554687
 51
112.5
  0
ARC
  5
360
330
1F
100
AcDbEntity
  8
1-1ﾚｲﾔ
  6
Continuous
 62
     2
370
     9
100
AcDbCircle
 10
-52.54061877587772
 20
333.6151802909844
 30
0.0
 40
110.5000188231008
100
AcDbArc
 50
104.1029968261718
 51
112.5
  0
ARC
  5
361
330
1F
100
AcDbEntity
  8
1-1ﾚｲﾔ
  6
Continuous
 62
     2
370
     9
100
AcDbCircle
 10
-52.54061877587772
 20
333.6151802909844
 30
0.0
 40
108.9999994550433
100
AcDbArc
 50
103.3530883789062
 51
121.6469116210938
  0
ARC
  5
362
330
1F
100
AcDbEntity
  8
1-1ﾚｲﾔ
  6
Continuous
 62
     2
370
     9
100
AcDbCircle
 10
-52.54061877587772
 20
333.6152050644238
 30
0.0
 40
114.500025053282
100
AcDbArc
 50
112.5000152587891
 51
121.7480163574219
  0
ARC
  5
363
330
1F
100
AcDbEntity
  8
1-1ﾚｲﾔ
  6
Continuous
 62
     2
370
     9
100
AcDbCircle
 10
-52.54061877587772
 20
333.6152050644238
 30
0.0
 40
113.5000080123371
100
AcDbArc
 50
112.5
 51
120.9724731445313
  0
ARC
  5
364
330
1F
100
AcDbEntity
  8
1-1ﾚｲﾔ
  6
Continuous
 62
     2
370
     9
100
AcDbCircle
 10
-52.54061877587772
 20
333.6152050644238
 30
0.0
 40
110.5000188231008
100
AcDbArc
 50
112.5
 51
120.8970031738282
  0
ARC
  5
365
330
1F
100
AcDbEntity
  8
1-1ﾚｲﾔ
  6
Continuous
 62
     2
370
     9
100
AcDbCircle
 10
-52.54061877587772
 20
333.6151802909844
 30
0.0
 40
114.500025053282
100
AcDbArc
 50
125.7519989013672
 51
135.0
  0
ARC
  5
366
330
1F
100
AcDbEntity
  8
1-1ﾚｲﾔ
  6
Continuous
 62
     2
370
     9
100
AcDbCircle
 10
-52.54061877587772
 20
333.6151802909844
 30
0.0
 40
113.5000080123371
100
AcDbArc
 50
126.5275268554687
 51
134.9999999999999
  0
ARC
  5
367
330
1F
100
AcDbEntity
  8
1-1ﾚｲﾔ
  6
Continuous
 62
     2
370
     9
100
AcDbCircle
 10
-52.54061877587772
 20
333.6151802909844
 30
0.0
 40
110.5000188231008
100
AcDbArc
 50
126.6029968261718
 51
134.9999999999999
  0
ARC
  5
368
330
1F
100
AcDbEntity
  8
1-1ﾚｲﾔ
  6
Continuous
 62
     2
370
     9
100
AcDbCircle
 10
-52.54061877587772
 20
333.6151802909844
 30
0.0
 40
108.9999994550433
100
AcDbArc
 50
125.8530883789063
 51
144.1469116210938
  0
ARC
  5
369
330
1F
100
AcDbEntity
  8
1-1ﾚｲﾔ
  6
Continuous
 62
     2
370
     9
100
AcDbCircle
 10
-52.54061877587772
 20
333.6152050644238
 30
0.0
 40
114.500025053282
100
AcDbArc
 50
135.0000152587891
 51
144.2480163574219
  0
ARC
  5
36A
330
1F
100
AcDbEntity
  8
1-1ﾚｲﾔ
  6
Continuous
 62
     2
370
     9
100
AcDbCircle
 10
-52.54061877587772
 20
333.6152050644238
 30
0.0
 40
113.5000080123371
100
AcDbArc
 50
135.0
 51
143.4724731445312
  0
ARC
  5
36B
330
1F
100
AcDbEntity
  8
1-1ﾚｲﾔ
  6
Continuous
 62
     2
370
     9
100
AcDbCircle
 10
-52.54061877587772
 20
333.6152050644238
 30
0.0
 40
110.5000188231008
100
AcDbArc
 50
135.0
 51
143.3970031738281
  0
ARC
  5
36C
330
1F
100
AcDbEntity
  8
1-1ﾚｲﾔ
  6
Continuous
 62
     2
370
     9
100
AcDbCircle
 10
-52.54061877587772
 20
333.6151802909844
 30
0.0
 40
114.500025053282
100
AcDbArc
 50
148.2519989013672
 51
157.5
  0
ARC
  5
36D
330
1F
100
AcDbEntity
  8
1-1ﾚｲﾔ
  6
Continuous
 62
     2
370
     9
100
AcDbCircle
 10
-52.54061877587772
 20
333.6151802909844
 30
0.0
 40
113.5000080123371
100
AcDbArc
 50
149.0275268554687
 51
157.5
  0
ARC
  5
36E
330
1F
100
AcDbEntity
  8
1-1ﾚｲﾔ
  6
Continuous
 62
     2
370
     9
100
AcDbCircle
 10
-52.54061877587772
 20
333.6151802909844
 30
0.0
 40
110.5000188231008
100
AcDbArc
 50
149.1029968261718
 51
157.5
  0
ARC
  5
36F
330
1F
100
AcDbEntity
  8
1-1ﾚｲﾔ
  6
Continuous
 62
     2
370
     9
100
AcDbCircle
 10
-52.54061877587772
 20
333.6151802909844
 30
0.0
 40
108.9999994550433
100
AcDbArc
 50
148.3530883789062
 51
166.6469116210938
  0
ARC
  5
370
330
1F
100
AcDbEntity
  8
1-1ﾚｲﾔ
  6
Continuous
 62
     2
370
     9
100
AcDbCircle
 10
-52.54061877587772
 20
333.6152050644238
 30
0.0
 40
114.500025053282
100
AcDbArc
 50
157.5000152587891
 51
166.7480163574219
  0
ARC
  5
371
330
1F
100
AcDbEntity
  8
1-1ﾚｲﾔ
  6
Continuous
 62
     2
370
     9
100
AcDbCircle
 10
-52.54061877587772
 20
333.6152050644238
 30
0.0
 40
113.5000080123371
100
AcDbArc
 50
157.5
 51
165.9724731445312
  0
ARC
  5
372
330
1F
100
AcDbEntity
  8
1-1ﾚｲﾔ
  6
Continuous
 62
     2
370
     9
100
AcDbCircle
 10
-52.54061877587772
 20
333.6152050644238
 30
0.0
 40
110.5000188231008
100
AcDbArc
 50
157.5
 51
165.897003173828
  0
ARC
  5
373
330
1F
100
AcDbEntity
  8
1-1ﾚｲﾔ
  6
Continuous
 62
     2
370
     9
100
AcDbCircle
 10
-52.54061877587772
 20
333.6151802909844
 30
0.0
 40
114.500025053282
100
AcDbArc
 50
35.75199890136719
 51
45.0
  0
ARC
  5
374
330
1F
100
AcDbEntity
  8
1-1ﾚｲﾔ
  6
Continuous
 62
     2
370
     9
100
AcDbCircle
 10
-52.54061877587772
 20
333.6151802909844
 30
0.0
 40
114.500025053282
100
AcDbArc
 50
45.00001525878907
 51
54.24801635742188
  0
ARC
  5
375
330
1F
100
AcDbEntity
  8
1-1ﾚｲﾔ
  6
Continuous
 62
     2
370
     9
100
AcDbCircle
 10
-52.54061877587772
 20
333.6151802909844
 30
0.0
 40
109.2877553402227
100
AcDbArc
 50
0.0
 51
4.811996459960938
  0
ARC
  5
376
330
1F
100
AcDbEntity
  8
1-1ﾚｲﾔ
  6
Continuous
 62
     2
370
     9
100
AcDbCircle
 10
-52.54061877587772
 20
333.6151802909844
 30
0.0
 40
108.9999994550433
100
AcDbArc
 50
5.36256408691406
 51
9.146926879882809
  0
ARC
  5
377
330
1F
100
AcDbEntity
  8
1-1ﾚｲﾔ
  6
Continuous
 62
     2
370
     9
100
AcDbCircle
 10
-52.54061877587772
 20
333.6151802909844
 30
0.0
 40
114.500025053282
100
AcDbArc
 50
170.7519989013672
 51
180.0
  0
ARC
  5
378
330
1F
100
AcDbEntity
  8
1-1ﾚｲﾔ
  6
Continuous
 62
     2
370
     9
100
AcDbCircle
 10
-52.54061877587772
 20
333.6151802909844
 30
0.0
 40
113.5000080123371
100
AcDbArc
 50
171.5275268554688
 51
180.0
  0
ARC
  5
379
330
1F
100
AcDbEntity
  8
1-1ﾚｲﾔ
  6
Continuous
 62
     2
370
     9
100
AcDbCircle
 10
-52.54061877587772
 20
333.6151802909844
 30
0.0
 40
110.5000188231008
100
AcDbArc
 50
171.6029968261719
 51
180.0
  0
ARC
  5
37A
330
1F
100
AcDbEntity
  8
1-1ﾚｲﾔ
  6
Continuous
 62
     2
370
     9
100
AcDbCircle
 10
-52.54061877587772
 20
333.6151802909844
 30
0.0
 40
109.2877553402227
100
AcDbArc
 50
175.1880035400391
 51
180.0
  0
ARC
  5
37B
330
1F
100
AcDbEntity
  8
1-1ﾚｲﾔ
  6
Continuous
 62
     2
370
     9
100
AcDbCircle
 10
-52.54061877587772
 20
333.6151802909844
 30
0.0
 40
108.9999994550433
100
AcDbArc
 50
170.8530731201172
 51
174.637435913086
  0
ARC
  5
37C
330
1F
100
AcDbEntity
  8
1-1ﾚｲﾔ
  6
Continuous
 62
     2
370
     9
100
AcDbCircle
 10
-52.54061877587772
 20
333.6151802909844
 30
0.0
 40
108.9999994550433
100
AcDbArc
 50
80.85308837890625
 51
86.77696228027344
  0
ARC
  5
37D
330
1F
100
AcDbEntity
  8
1-1ﾚｲﾔ
  6
Continuous
 62
     2
370
     9
100
AcDbCircle
 10
-52.54061877587772
 20
333.6151802909844
 30
0.0
 40
108.9999994550433
100
AcDbArc
 50
93.22299194335938
 51
99.14691162109376
  0
ARC
  5
37E
330
1F
100
AcDbEntity
  8
1-1ﾚｲﾔ
  6
Continuous
 62
     2
370
     9
100
AcDbCircle
 10
-52.54061877587772
 20
333.6151802909844
 30
0.0
 40
109.2877553402227
100
AcDbArc
 50
87.86332702636719
 51
92.13662719726562
  0
ARC
  5
37F
330
1F
100
AcDbEntity
  8
1-1ﾚｲﾔ
  6
Continuous
 62
     2
370
     9
100
AcDbCircle
 10
-52.54061877587772
 20
333.6151802909844
 30
0.0
 40
130.2089249010712
100
AcDbArc
 50
0.0
 51
180.0
  0
ARC
  5
380
330
1F
100
AcDbEntity
  8
1-1ﾚｲﾔ
  6
Continuous
 62
     2
370
     9
100
AcDbCircle
 10
-52.54061877587772
 20
333.6151802909844
 30
0.0
 40
139.500017541716
100
AcDbArc
 50
0.0
 51
180.0
  0
ARC
  5
381
330
1F
100
AcDbEntity
  8
1-1ﾚｲﾔ
  6
Continuous
 62
     2
370
     9
100
AcDbCircle
 10
-52.54061877587772
 20
333.6151802909844
 30
0.0
 40
140.0000198688286
100
AcDbArc
 50
0.0
 51
180.0
  0
ARC
  5
382
330
1F
100
AcDbEntity
  8
1-1ﾚｲﾔ
  6
Continuous
 62
     2
370
     9
100
AcDbCircle
 10
-159.450198255434
 20
342.6151726321328
 30
0.0
 40
2.000000018410701
100
AcDbArc
 50
175.188232421875
 51
228.3045574676502
  0
ARC
  5
383
330
1F
100
AcDbEntity
  8
1-1ﾚｲﾔ
  6
Continuous
 62
     2
370
     9
100
AcDbCircle
 10
-159.0723042110513
 20
343.615177286358
 30
0.0
 40
2.000000018410701
100
AcDbArc
 50
174.6376495361328
 51
216.404026547297
  0
LINE
  5
384
330
1F
100
AcDbEntity
  8
1-2ﾚｲﾔ
  6
Continuous
 62
     6
370
     9
100
AcDbLine
 10
-159.924156981529
 20
338.6153453097803
 30
0.0
 11
-156.0404068318868
 21
338.6153453097803
 31
0.0
  0
LINE
  5
385
330
1F
100
AcDbEntity
  8
1-2ﾚｲﾔ
  6
Continuous
 62
     6
370
     9
100
AcDbLine
 10
-160.9667446742021
 20
337.6152925226182
 30
0.0
 11
-159.0402572605918
 21
337.6152925226182
 31
0.0
  0
ARC
  5
386
330
1F
100
AcDbEntity
  8
1-1ﾚｲﾔ
  6
Continuous
 62
     2
370
     9
100
AcDbCircle
 10
-132.5405451919876
 20
333.6152298378632
 30
0.0
 40
12.00000011046421
100
AcDbArc
 50
19.47153790143055
 51
61.40288276790004
  0
ARC
  5
387
330
1F
100
AcDbEntity
  8
1-1ﾚｲﾔ
  6
Continuous
 62
     2
370
     9
100
AcDbCircle
 10
-132.5405451919876
 20
333.6152298378632
 30
0.0
 40
12.99999857132959
100
AcDbArc
 50
17.92050553726883
 51
63.00916995900837
  0
LINE
  5
388
330
1F
100
AcDbEntity
  8
1-1ﾚｲﾔ
  6
Continuous
 62
     2
370
     9
100
AcDbLine
 10
-138.9909523939656
 20
345.6152299483274
 30
0.0
 11
-140.8858880176833
 21
345.6152299483274
 31
0.0
  0
LINE
  5
389
330
1F
100
AcDbEntity
  8
1-1ﾚｲﾔ
  6
Continuous
 62
     2
370
     9
100
AcDbLine
 10
-138.9698844838435
 20
345.7660412793718
 30
0.0
 11
-140.8858880176833
 21
345.6152299483274
 31
0.0
  0
ARC
  5
38A
330
1F
100
AcDbEntity
  8
1-1ﾚｲﾔ
  6
Continuous
 62
     2
370
     9
100
AcDbCircle
 10
-52.54074264307481
 20
333.6151802909844
 30
0.0
 40
89.1564125738549
100
AcDbArc
 50
172.2647712013097
 51
175.5424082790358
  0
ARC
  5
38B
330
1F
100
AcDbEntity
  8
1-1ﾚｲﾔ
  6
Continuous
 62
     2
370
     9
100
AcDbCircle
 10
-12.54055647406524
 20
402.8973240789722
 30
0.0
 40
12.00000011046421
100
AcDbArc
 50
227.9747225033502
 51
295.9717452366726
  0
ARC
  5
38C
330
1F
100
AcDbEntity
  8
1-1ﾚｲﾔ
  6
Continuous
 62
     2
370
     9
100
AcDbCircle
 10
-12.54055647406524
 20
402.8973240789722
 30
0.0
 40
12.99999857132959
100
AcDbArc
 50
229.3575407661159
 51
288.0654649472663
  0
ARC
  5
38D
330
1F
100
AcDbEntity
  8
1-1ﾚｲﾔ
  6
Continuous
 62
     2
370
     9
100
AcDbCircle
 10
-52.54074264307481
 20
333.6151802909844
 30
0.0
 40
89.1564125738549
100
AcDbArc
 50
53.54832705135485
 51
60.99692740145379
  0
LINE
  5
38E
330
1F
100
AcDbEntity
  8
1-9
  6
Continuous
 62
     4
370
     9
100
AcDbLine
 10
-17.93494499774651
 20
399.2405695201954
 30
0.0
 11
-16.29615639073684
 21
396.402100845834
 31
0.0
  0
LINE
  5
38F
330
1F
100
AcDbEntity
  8
1-9
  6
Continuous
 62
     4
370
     9
100
AcDbLine
 10
-11.51849798977357
 20
396.402123121792
 30
0.0
 11
-16.29615639073684
 21
396.402100845834
 31
0.0
  0
LINE
  5
390
330
1F
100
AcDbEntity
  8
1-9
  6
JWW_CENTER1
 62
     4
370
     9
100
AcDbLine
 10
-16.79826552065363
 20
395.5227449623277
 30
0.0
 11
-15.04057372412756
 21
398.5671681085758
 31
0.0
  0
LINE
  5
391
330
1F
100
AcDbEntity
  8
1-9
  6
Continuous
 62
     4
370
     9
100
AcDbLine
 10
-8.793317768971363
 20
409.3973948656438
 30
0.0
 11
-8.568903034374848
 21
409.0086927381716
 31
0.0
  0
LINE
  5
392
330
1F
100
AcDbEntity
  8
1-9
  6
Continuous
 62
     4
370
     9
100
AcDbLine
 10
-8.793317768971363
 20
409.3973948656438
 30
0.0
 11
-9.242242550730808
 21
409.3973947328427
 31
0.0
  0
ARC
  5
393
330
1F
100
AcDbEntity
  8
1-1ﾚｲﾔ
  6
Continuous
 62
     2
370
     9
100
AcDbCircle
 10
53.99106665929587
 20
343.6151772863579
 30
0.0
 40
2.000000018410701
100
AcDbArc
 50
323.6045888696106
 51
5.362350463867172
  0
ARC
  5
394
330
1F
100
AcDbEntity
  8
1-1ﾚｲﾔ
  6
Continuous
 62
     2
370
     9
100
AcDbCircle
 10
54.3689607036785
 20
342.6151726321327
 30
0.0
 40
2.000000018410701
100
AcDbArc
 50
311.7026042018501
 51
4.811767578124993
  0
LINE
  5
395
330
1F
100
AcDbEntity
  8
1-2ﾚｲﾔ
  6
Continuous
 62
     6
370
     9
100
AcDbLine
 10
54.84308050131521
 20
338.6153453097803
 30
0.0
 11
50.95939224108586
 21
338.6153453097803
 31
0.0
  0
LINE
  5
396
330
1F
100
AcDbEntity
  8
1-2ﾚｲﾔ
  6
Continuous
 62
     6
370
     9
100
AcDbLine
 10
55.88574242593513
 20
337.6152925226182
 30
0.0
 11
53.95924266979078
 21
337.6152925226182
 31
0.0
  0
ARC
  5
397
330
1F
100
AcDbEntity
  8
1-1ﾚｲﾔ
  6
Continuous
 62
     2
370
     9
100
AcDbCircle
 10
-48.5405506120979
 20
440.8283087233282
 30
0.0
 40
2.000000018410701
100
AcDbArc
 50
87.86328125
 51
140.9740993763899
  0
ARC
  5
398
330
1F
100
AcDbEntity
  8
1-1ﾚｲﾔ
  6
Continuous
 62
     2
370
     9
100
AcDbCircle
 10
-46.54054130364746
 20
440.4467853700755
 30
0.0
 40
2.000000018410701
100
AcDbArc
 50
86.32415771484374
 51
128.5440792028313
  0
ARC
  5
399
330
1F
100
AcDbEntity
  8
1-1ﾚｲﾔ
  6
Continuous
 62
     2
370
     9
100
AcDbCircle
 10
-56.54058784589991
 20
440.8283087233282
 30
0.0
 40
2.000000018410701
100
AcDbArc
 50
39.02581969210674
 51
92.13671874999991
  0
ARC
  5
39A
330
1F
100
AcDbEntity
  8
1-1ﾚｲﾔ
  6
Continuous
 62
     2
370
     9
100
AcDbCircle
 10
-58.54059715435035
 20
440.4467853700755
 30
0.0
 40
2.000000018410701
100
AcDbArc
 50
51.45573142134197
 51
93.67512512207031
  0
LINE
  5
39B
330
1F
100
AcDbEntity
  8
1-8
  6
Continuous
 62
     4
370
     9
100
AcDbLine
 10
-158.1706005643069
 20
-92.45695179780385
 30
0.0
 11
-159.0405942086383
 21
-91.58695815347242
 31
0.0
  0
LINE
  5
39C
330
1F
100
AcDbEntity
  8
1-8
  6
Continuous
 62
     4
370
     9
100
AcDbLine
 10
-158.1706005643069
 20
-92.45695179780385
 30
0.0
 11
-153.910609474497
 21
-92.45695179780385
 31
0.0
  0
LINE
  5
39D
330
1F
100
AcDbEntity
  8
1-8
  6
Continuous
 62
     4
370
     9
100
AcDbLine
 10
-159.0405942086383
 20
-91.58695815347242
 30
0.0
 11
-153.0405662832868
 21
-91.58695815347242
 31
0.0
  0
LINE
  5
39E
330
1F
100
AcDbEntity
  8
1-8
  6
Continuous
 62
     4
370
     9
100
AcDbLine
 10
-159.0405942086383
 20
-80.45689594710096
 30
0.0
 11
-159.0405942086383
 21
-91.58695815347242
 31
0.0
  0
LINE
  5
39F
330
1F
100
AcDbEntity
  8
1-8
  6
Continuous
 62
     4
370
     9
100
AcDbLine
 10
-151.2220471917728
 20
-78.38261586737347
 30
0.0
 11
-151.0405569748363
 21
-80.45689594710096
 31
0.0
  0
LINE
  5
3A0
330
1F
100
AcDbEntity
  8
1-8
  6
Continuous
 62
     4
370
     9
100
AcDbLine
 10
-158.8667342110325
 20
-76.55696202531645
 30
0.0
 11
-153.2144758277713
 21
-76.55696202531645
 31
0.0
  0
LINE
  5
3A1
330
1F
100
AcDbEntity
  8
1-8
  6
Continuous
 62
     4
370
     9
100
AcDbLine
 10
-161.0405539702099
 20
-80.45689594710096
 30
0.0
 11
-151.0405569748363
 21
-80.45689594710096
 31
0.0
  0
LINE
  5
3A2
330
1F
100
AcDbEntity
  8
1-8
  6
Continuous
 62
     4
370
     9
100
AcDbLine
 10
-160.8590637532735
 20
-78.38261586737347
 30
0.0
 11
-161.0405539702099
 21
-80.45689594710096
 31
0.0
  0
LINE
  5
3A3
330
1F
100
AcDbEntity
  8
1-8
  6
Continuous
 62
     4
370
     9
100
AcDbLine
 10
-153.910609474497
 20
-92.45695179780385
 30
0.0
 11
-153.0405662832868
 21
-91.58695815347242
 31
0.0
  0
LINE
  5
3A4
330
1F
100
AcDbEntity
  8
1-8
  6
JWW_CENTER1
 62
     4
370
     9
100
AcDbLine
 10
-156.0405306990838
 20
-74.7317045582896
 30
0.0
 11
-156.0405306990838
 21
-96.73512659212234
 31
0.0
  0
ARC
  5
3A5
330
1F
100
AcDbEntity
  8
1-8
  6
Continuous
 62
     4
370
     9
100
AcDbCircle
 10
-153.2144758277713
 20
-78.55687224000938
 30
0.0
 40
2.000000018410701
100
AcDbArc
 50
5.000015258789066
 51
90.0
  0
ARC
  5
3A6
330
1F
100
AcDbEntity
  8
1-8
  6
Continuous
 62
     4
370
     9
100
AcDbCircle
 10
-158.8667342110325
 20
-78.55687224000938
 30
0.0
 40
2.000000018410701
100
AcDbArc
 50
90.0
 51
174.9999847412109
  0
LINE
  5
3A7
330
1F
100
AcDbEntity
  8
1-8
  6
Continuous
 62
     4
370
     9
100
AcDbLine
 10
-153.910609474497
 20
-80.45689594710096
 30
0.0
 11
-153.910609474497
 21
-92.45695179780385
 31
0.0
  0
LINE
  5
3A8
330
1F
100
AcDbEntity
  8
1-8
  6
Continuous
 62
     4
370
     9
100
AcDbLine
 10
-153.0405662832868
 20
-80.45689594710096
 30
0.0
 11
-153.0405662832868
 21
-91.58695815347242
 31
0.0
  0
LINE
  5
3A9
330
1F
100
AcDbEntity
  8
1-8
  6
Continuous
 62
     4
370
     9
100
AcDbLine
 10
-158.1706005643069
 20
-80.45689594710096
 30
0.0
 11
-158.1706005643069
 21
-92.45695179780385
 31
0.0
  0
ARC
  5
3AA
330
1F
100
AcDbEntity
  8
1-8
  6
Continuous
 62
     4
370
     9
100
AcDbCircle
 10
48.13333736977328
 20
-78.55687224000938
 30
0.0
 40
2.000000018410701
100
AcDbArc
 50
90.0
 51
174.9999847412109
  0
LINE
  5
3AB
330
1F
100
AcDbEntity
  8
1-8
  6
Continuous
 62
     4
370
     9
100
AcDbLine
 10
46.14085918689594
 20
-78.38261586737347
 30
0.0
 11
45.95941851683828
 21
-80.45689594710096
 31
0.0
  0
LINE
  5
3AC
330
1F
100
AcDbEntity
  8
1-8
  6
Continuous
 62
     4
370
     9
100
AcDbLine
 10
53.78554620615572
 20
-76.55696202531645
 30
0.0
 11
48.13333736977328
 21
-76.55696202531645
 31
0.0
  0
ARC
  5
3AD
330
1F
100
AcDbEntity
  8
1-8
  6
Continuous
 62
     4
370
     9
100
AcDbCircle
 10
53.78554620615572
 20
-78.55687224000938
 30
0.0
 40
2.000000018410701
100
AcDbArc
 50
5.000015258789066
 51
90.0
  0
LINE
  5
3AE
330
1F
100
AcDbEntity
  8
1-8
  6
Continuous
 62
     4
370
     9
100
AcDbLine
 10
55.77782620151792
 20
-78.38261586737359
 30
0.0
 11
55.9593659653331
 21
-80.45689594710107
 31
0.0
  0
LINE
  5
3AF
330
1F
100
AcDbEntity
  8
1-8
  6
Continuous
 62
     4
370
     9
100
AcDbLine
 10
55.9593659653331
 20
-80.45689594710102
 30
0.0
 11
45.95941851683828
 21
-80.45689594710102
 31
0.0
  0
LINE
  5
3B0
330
1F
100
AcDbEntity
  8
1-8
  6
Continuous
 62
     4
370
     9
100
AcDbLine
 10
53.95945575064017
 20
-80.45689594710096
 30
0.0
 11
53.95945575064017
 21
-91.58695815347242
 31
0.0
  0
LINE
  5
3B1
330
1F
100
AcDbEntity
  8
1-8
  6
Continuous
 62
     4
370
     9
100
AcDbLine
 10
53.08941255943004
 20
-80.45689594710096
 30
0.0
 11
53.08941255943004
 21
-92.45695179780385
 31
0.0
  0
LINE
  5
3B2
330
1F
100
AcDbEntity
  8
1-8
  6
Continuous
 62
     4
370
     9
100
AcDbLine
 10
48.82937192274145
 20
-80.45689594710096
 30
0.0
 11
48.82937192274145
 21
-92.45695179780385
 31
0.0
  0
LINE
  5
3B3
330
1F
100
AcDbEntity
  8
1-8
  6
Continuous
 62
     4
370
     9
100
AcDbLine
 10
47.95932873153121
 20
-80.45689594710096
 30
0.0
 11
47.95932873153121
 21
-91.58695815347242
 31
0.0
  0
LINE
  5
3B4
330
1F
100
AcDbEntity
  8
1-8
  6
Continuous
 62
     4
370
     9
100
AcDbLine
 10
48.82937192274145
 20
-92.45695179780385
 30
0.0
 11
47.95932873153121
 21
-91.58695815347242
 31
0.0
  0
LINE
  5
3B5
330
1F
100
AcDbEntity
  8
1-8
  6
Continuous
 62
     4
370
     9
100
AcDbLine
 10
53.08941255943004
 20
-92.45695179780385
 30
0.0
 11
48.82937192274145
 21
-92.45695179780385
 31
0.0
  0
LINE
  5
3B6
330
1F
100
AcDbEntity
  8
1-8
  6
Continuous
 62
     4
370
     9
100
AcDbLine
 10
53.95945575064017
 20
-91.58695815347242
 30
0.0
 11
47.95932873153121
 21
-91.58695815347242
 31
0.0
  0
LINE
  5
3B7
330
1F
100
AcDbEntity
  8
1-8
  6
Continuous
 62
     4
370
     9
100
AcDbLine
 10
53.08941255943004
 20
-92.45695179780385
 30
0.0
 11
53.95945575064017
 21
-91.58695815347242
 31
0.0
  0
LINE
  5
3B8
330
1F
100
AcDbEntity
  8
1-8
  6
JWW_CENTER1
 62
     4
370
     9
100
AcDbLine
 10
50.95929314732818
 20
-74.7317045582896
 30
0.0
 11
50.95929314732818
 21
-97.16776993754648
 31
0.0
  0
LINE
  5
3B9
330
1F
100
AcDbEntity
  8
1-8
  6
JWW_CENTER1
 62
     4
370
     9
100
AcDbLine
 10
-156.0404068318868
 20
333.6151802909845
 30
0.0
 11
-156.0404068318868
 21
340.9246579019223
 31
0.0
  0
LINE
  5
3BA
330
1F
100
AcDbEntity
  8
1-8
  6
Continuous
 62
     4
370
     9
100
AcDbLine
 10
-155.4402950362183
 20
335.2153215143175
 30
0.0
 11
-155.4402950362183
 21
336.3651807033842
 31
0.0
  0
LINE
  5
3BB
330
1F
100
AcDbEntity
  8
1-8
  6
Continuous
 62
     4
370
     9
100
AcDbLine
 10
-156.6405186275552
 20
336.3651807033842
 30
0.0
 11
-155.4402950362183
 21
336.3651807033842
 31
0.0
  0
LINE
  5
3BC
330
1F
100
AcDbEntity
  8
1-8
  6
Continuous
 62
     4
370
     9
100
AcDbLine
 10
-156.6405186275552
 20
335.2153215143175
 30
0.0
 11
-156.6405186275552
 21
336.3651807033842
 31
0.0
  0
LINE
  5
3BD
330
1F
100
AcDbEntity
  8
1-8
  6
Continuous
 62
     4
370
     9
100
AcDbLine
 10
-151.0765527822631
 20
334.2153168600923
 30
0.0
 11
-161.0042608815105
 21
334.2153168600923
 31
0.0
  0
LINE
  5
3BE
330
1F
100
AcDbEntity
  8
1-8
  6
JWW_CENTER1
 62
     4
370
     9
100
AcDbLine
 10
50.95939224108586
 20
333.6151802909844
 30
0.0
 11
50.95939224108586
 21
340.9246579019223
 31
0.0
  0
LINE
  5
3BF
330
1F
100
AcDbEntity
  8
1-8
  6
Continuous
 62
     4
370
     9
100
AcDbLine
 10
50.3592804454174
 20
335.2153215143175
 30
0.0
 11
50.3592804454174
 21
336.3651807033841
 31
0.0
  0
LINE
  5
3C0
330
1F
100
AcDbEntity
  8
1-8
  6
Continuous
 62
     4
370
     9
100
AcDbLine
 10
51.55950403675426
 20
336.3651807033841
 30
0.0
 11
50.3592804454174
 21
336.3651807033841
 31
0.0
  0
LINE
  5
3C1
330
1F
100
AcDbEntity
  8
1-8
  6
Continuous
 62
     4
370
     9
100
AcDbLine
 10
51.55950403675426
 20
335.2153215143175
 30
0.0
 11
51.55950403675426
 21
336.3651807033841
 31
0.0
  0
LINE
  5
3C2
330
1F
100
AcDbEntity
  8
1-8
  6
Continuous
 62
     4
370
     9
100
AcDbLine
 10
45.99558773834091
 20
334.2153168600922
 30
0.0
 11
55.92329583758832
 21
334.2153168600922
 31
0.0
  0
ARC
  5
3C3
330
1F
100
AcDbEntity
  8
1-8
  6
Continuous
 62
     4
370
     9
100
AcDbCircle
 10
-157.6404737349017
 20
335.2153215143175
 30
0.0
 40
1.00000000920535
100
AcDbArc
 50
270.0
 51
0.0
  0
ARC
  5
3C4
330
1F
100
AcDbEntity
  8
1-8
  6
Continuous
 62
     4
370
     9
100
AcDbCircle
 10
-154.4402408351143
 20
335.2153215143175
 30
0.0
 40
1.00000000920535
100
AcDbArc
 50
180.0
 51
270.0
  0
ARC
  5
3C5
330
1F
100
AcDbEntity
  8
1-8
  6
Continuous
 62
     4
370
     9
100
AcDbCircle
 10
-156.0404068318868
 20
333.6151802909845
 30
0.0
 40
5.000000046026753
100
AcDbArc
 50
0.0
 51
180.0
  0
ARC
  5
3C6
330
1F
100
AcDbEntity
  8
1-8
  6
Continuous
 62
     4
370
     9
100
AcDbCircle
 10
52.55945914410072
 20
335.2153215143175
 30
0.0
 40
1.00000000920535
100
AcDbArc
 50
180.0
 51
270.0
  0
ARC
  5
3C7
330
1F
100
AcDbEntity
  8
1-8
  6
Continuous
 62
     4
370
     9
100
AcDbCircle
 10
49.35922624431337
 20
335.2153215143175
 30
0.0
 40
1.00000000920535
100
AcDbArc
 50
270.0
 51
0.0
  0
ARC
  5
3C8
330
1F
100
AcDbEntity
  8
1-8
  6
Continuous
 62
     4
370
     9
100
AcDbCircle
 10
50.95939224108586
 20
333.6151802909844
 30
0.0
 40
5.000000046026753
100
AcDbArc
 50
0.0
 51
180.0
  0
LINE
  5
3C9
330
1F
100
AcDbEntity
  8
1-9
  6
Continuous
 62
     4
370
     9
100
AcDbLine
 10
-140.0407039658739
 20
-88.17867790972763
 30
0.0
 11
-140.0407039658739
 21
-93.95693400570222
 31
0.0
  0
LINE
  5
3CA
330
1F
100
AcDbEntity
  8
1-9
  6
Continuous
 62
     4
370
     9
100
AcDbLine
 10
-125.0406836993741
 20
-88.17867790972763
 30
0.0
 11
-125.0406836993741
 21
-93.95693400570222
 31
0.0
  0
LINE
  5
3CB
330
1F
100
AcDbEntity
  8
1-9
  6
Continuous
 62
     4
370
     9
100
AcDbLine
 10
-136.2879242740377
 20
-88.17867790972763
 30
0.0
 11
-136.2879242740377
 21
-93.95693400570222
 31
0.0
  0
LINE
  5
3CC
330
1F
100
AcDbEntity
  8
1-9
  6
Continuous
 62
     4
370
     9
100
AcDbLine
 10
-128.7934633912102
 20
-88.17867790972763
 30
0.0
 11
-128.7934633912102
 21
-93.95693400570222
 31
0.0
  0
LINE
  5
3CD
330
1F
100
AcDbEntity
  8
1-9
  6
Continuous
 62
     4
370
     9
100
AcDbLine
 10
-138.1643636668346
 20
-87.45697807355644
 30
0.0
 11
-126.9171230921709
 21
-87.45697807355644
 31
0.0
  0
LINE
  5
3CE
330
1F
100
AcDbEntity
  8
1-9
  6
Continuous
 62
     4
370
     9
100
AcDbLine
 10
-128.5407743094806
 20
-93.95693400570222
 30
0.0
 11
-136.2879242740377
 21
-93.95693400570222
 31
0.0
  0
LINE
  5
3CF
330
1F
100
AcDbEntity
  8
1-9
  6
Continuous
 62
     4
370
     9
100
AcDbLine
 10
-136.5407124495249
 20
-93.95693400570222
 30
0.0
 11
-136.2879242740377
 21
-93.95693400570222
 31
0.0
  0
ARC
  5
3D0
330
1F
100
AcDbEntity
  8
1-9
  6
Continuous
 62
     4
370
     9
100
AcDbCircle
 10
-138.1643636668346
 20
-90.25716947415059
 30
0.0
 40
2.800173594684674
100
AcDbArc
 50
47.92556762695312
 51
132.0746307373047
  0
ARC
  5
3D1
330
1F
100
AcDbEntity
  8
1-9
  6
Continuous
 62
     4
370
     9
100
AcDbCircle
 10
-132.5406938326239
 20
-97.54635763823192
 30
0.0
 40
10.08940975730484
100
AcDbArc
 50
68.19786071777345
 51
111.8021392822266
  0
ARC
  5
3D2
330
1F
100
AcDbEntity
  8
1-9
  6
Continuous
 62
     4
370
     9
100
AcDbCircle
 10
-126.9171230921709
 20
-90.25716947415059
 30
0.0
 40
2.80018946516928
100
AcDbArc
 50
47.92572021484376
 51
132.0742797851562
  0
LINE
  5
3D3
330
1F
100
AcDbEntity
  8
1-9
  6
Continuous
 62
     4
370
     9
100
AcDbLine
 10
-128.5407743094806
 20
-106.1720702490395
 30
0.0
 11
-136.5407124495249
 21
-106.1720702490395
 31
0.0
  0
LINE
  5
3D4
330
1F
100
AcDbEntity
  8
1-9
  6
Continuous
 62
     4
370
     9
100
AcDbLine
 10
-136.5407124495249
 20
-106.1720702490395
 30
0.0
 11
-135.8641993667924
 21
-106.8485337848933
 31
0.0
  0
LINE
  5
3D5
330
1F
100
AcDbEntity
  8
1-9
  6
Continuous
 62
     4
370
     9
100
AcDbLine
 10
-129.2172873922131
 20
-106.8485337848933
 30
0.0
 11
-128.5407743094806
 21
-106.1720702490395
 31
0.0
  0
LINE
  5
3D6
330
1F
100
AcDbEntity
  8
1-9
  6
Continuous
 62
     4
370
     9
100
AcDbLine
 10
-128.5407743094806
 20
-67.52510843301035
 30
0.0
 11
-136.5407124495249
 21
-67.52510843301035
 31
0.0
  0
LINE
  5
3D7
330
1F
100
AcDbEntity
  8
1-9
  6
Continuous
 62
     4
370
     9
100
AcDbLine
 10
-136.5407124495249
 20
-67.52510843301035
 30
0.0
 11
-135.8641993667923
 21
-66.84859535027782
 31
0.0
  0
LINE
  5
3D8
330
1F
100
AcDbEntity
  8
1-9
  6
Continuous
 62
     4
370
     9
100
AcDbLine
 10
-135.8641993667923
 20
-66.84859535027782
 30
0.0
 11
-129.2172873922131
 21
-66.84859535027782
 31
0.0
  0
LINE
  5
3D9
330
1F
100
AcDbEntity
  8
1-9
  6
Continuous
 62
     4
370
     9
100
AcDbLine
 10
-129.2172873922131
 20
-66.84859535027782
 30
0.0
 11
-128.5407743094806
 21
-67.52510843301035
 31
0.0
  0
LINE
  5
3DA
330
1F
100
AcDbEntity
  8
1-9
  6
Continuous
 62
     4
370
     9
100
AcDbLine
 10
-135.8641993667924
 20
-106.8485337848933
 30
0.0
 11
-129.2172873922131
 21
-106.8485337848933
 31
0.0
  0
LINE
  5
3DB
330
1F
100
AcDbEntity
  8
1-9
  6
Continuous
 62
     4
370
     9
100
AcDbLine
 10
-135.8641993667923
 20
-93.95693400570222
 30
0.0
 11
-135.8641993667923
 21
-106.8485337848933
 31
0.0
  0
LINE
  5
3DC
330
1F
100
AcDbEntity
  8
1-9
  6
Continuous
 62
     4
370
     9
100
AcDbLine
 10
-136.5407124495249
 20
-93.95693400570222
 30
0.0
 11
-136.5407124495249
 21
-106.1720702490395
 31
0.0
  0
LINE
  5
3DD
330
1F
100
AcDbEntity
  8
1-9
  6
Continuous
 62
     4
370
     9
100
AcDbLine
 10
-129.2172873922131
 20
-93.95693400570222
 30
0.0
 11
-129.2172873922131
 21
-106.8485337848933
 31
0.0
  0
LINE
  5
3DE
330
1F
100
AcDbEntity
  8
1-9
  6
Continuous
 62
     4
370
     9
100
AcDbLine
 10
-128.5407743094806
 20
-93.95693400570222
 30
0.0
 11
-128.5407743094806
 21
-106.1720702490395
 31
0.0
  0
LINE
  5
3DF
330
1F
100
AcDbEntity
  8
1-9
  6
Continuous
 62
     4
370
     9
100
AcDbLine
 10
-135.8641993667923
 20
-87.45697807355644
 30
0.0
 11
-135.8641993667923
 21
-66.84859535027782
 31
0.0
  0
LINE
  5
3E0
330
1F
100
AcDbEntity
  8
1-9
  6
Continuous
 62
     4
370
     9
100
AcDbLine
 10
-136.5407124495249
 20
-87.45697807355644
 30
0.0
 11
-136.5407124495249
 21
-67.52510843301035
 31
0.0
  0
LINE
  5
3E1
330
1F
100
AcDbEntity
  8
1-9
  6
Continuous
 62
     4
370
     9
100
AcDbLine
 10
-129.2172873922131
 20
-87.45697807355644
 30
0.0
 11
-129.2172873922131
 21
-66.84859535027782
 31
0.0
  0
LINE
  5
3E2
330
1F
100
AcDbEntity
  8
1-9
  6
Continuous
 62
     4
370
     9
100
AcDbLine
 10
-128.5407743094806
 20
-87.45697807355644
 30
0.0
 11
-128.5407743094806
 21
-67.52510843301035
 31
0.0
  0
LINE
  5
3E3
330
1F
100
AcDbEntity
  8
1-9
  6
JWW_CENTER1
 62
     4
370
     9
100
AcDbLine
 10
-132.540693832624
 20
-64.45677193261848
 30
0.0
 11
-132.540693832624
 21
-112.1371702329661
 31
0.0
  0
TEXT
  5
3E4
330
1F
100
AcDbEntity
  8
1-4ﾚｲﾔ
  6
Continuous
 62
     2
370
   211
100
AcDbText
 10
163.8700559620403
 20
-66.15267259503239
 30
0.0
 40
12.192
  1
49
 50
90.0
 41
1.0625
  7
ＭＳ ゴシック
100
AcDbText
  0
TEXT
  5
3E5
330
1F
100
AcDbEntity
  8
1-5ﾚｲﾔ
  6
Continuous
 62
     7
370
     9
100
AcDbText
 10
154.3946241735686
 20
139.7481480777585
 30
0.0
 40
9.144
  1
Ｍ６×１２
 41
1.133333333333333
  7
ＭＳ ゴシック
100
AcDbText
  0
TEXT
  5
3E6
330
1F
100
AcDbEntity
  8
1-5ﾚｲﾔ
  6
Continuous
 62
     7
370
     9
100
AcDbText
 10
155.3901801545746
 20
101.7432052429234
 30
0.0
 40
9.144
  1
樹脂系塗装
 50
359.9999999999998
 41
1.133333333333333
  7
ＭＳ ゴシック
100
AcDbText
  0
TEXT
  5
3E7
330
1F
100
AcDbEntity
  8
1-5ﾚｲﾔ
  6
Continuous
 62
     7
370
     9
100
AcDbText
 10
-287.9855951979372
 20
159.721058671817
 30
0.0
 40
9.144
  1
樹脂系塗装
 41
1.133333333333333
  7
ＭＳ ゴシック
100
AcDbText
  0
TEXT
  5
3E8
330
1F
100
AcDbEntity
  8
1-5ﾚｲﾔ
  6
Continuous
 62
     7
370
     9
100
AcDbText
 10
-341.4448569293608
 20
97.85169689863827
 30
0.0
 40
9.144
  1
Ｍ８×４０
 41
1.133333333333333
  7
ＭＳ ゴシック
100
AcDbText
  0
TEXT
  5
3E9
330
1F
100
AcDbEntity
  8
1-5ﾚｲﾔ
  6
Continuous
 62
     7
370
     9
100
AcDbText
 10
-313.2533513550306
 20
-152.8231904289628
 30
0.0
 40
9.144
  1
樹脂系塗装
 41
1.133333333333333
  7
ＭＳ ゴシック
100
AcDbText
  0
TEXT
  5
3EA
330
1F
100
AcDbEntity
  8
1-5ﾚｲﾔ
  6
Continuous
 62
     7
370
     9
100
AcDbText
 10
-304.2533939289605
 20
-230.4898608733169
 30
0.0
 40
9.144
  1
硬質ポリ塩化ビニル
 41
1.148148148148148
  7
ＭＳ ゴシック
100
AcDbText
  0
TEXT
  5
3EB
330
1F
100
AcDbEntity
  8
1-5ﾚｲﾔ
  6
Continuous
 62
     7
370
     9
100
AcDbText
 10
-276.2533939289606
 20
-213.1565275399836
 30
0.0
 40
9.144
  1
スペーサー
 41
1.133333333333334
  7
ＭＳ ゴシック
100
AcDbText
  0
TEXT
  5
3EC
330
1F
100
AcDbEntity
  8
1-5ﾚｲﾔ
  6
Continuous
 62
     7
370
     9
100
AcDbText
 10
130.3260220472869
 20
-247.8231486070256
 30
0.0
 40
9.144
  1
りん酸塩被膜
 41
1.138888888888889
  7
ＭＳ ゴシック
100
AcDbText
  0
TEXT
  5
3ED
330
1F
100
AcDbEntity
  8
F-5ﾚｲﾔ
  6
Continuous
 62
     2
370
     9
100
AcDbText
 10
-55.60000000000001
 20
-369.4773333333333
 30
0.0
 40
12.192
  1
※ご注文の際はＣ寸法をご指示ください。
 50
360.0
 41
1.118421052631579
  7
ＭＳ ゴシック
100
AcDbText
  0
TEXT
  5
3EE
330
1F
100
AcDbEntity
  8
F-5ﾚｲﾔ
  6
Continuous
 62
     2
370
     9
100
AcDbText
 10
-51.06059113300492
 20
-441.6021280788177
 30
0.0
 40
12.192
  1
鋳鉄製ルーフドレン　防水層張掛け幅60mm　たて引き用　打込型
 50
360.0
 41
0.6991379310344827
  7
ＭＳ ゴシック
100
AcDbText
  0
TEXT
  5
3EF
330
1F
100
AcDbEntity
  8
F-5ﾚｲﾔ
  6
Continuous
 62
     2
370
     9
100
AcDbText
 10
-76.22008230452678
 20
-461.387842364532
 30
0.0
 40
12.192
  1
差し込み式　シート・屋根部塗膜防水用　　ＷＳＲ－１－１５０　Ｃ＝指示
 41
0.699264705882353
  7
ＭＳ ゴシック
100
AcDbText
  0
TEXT
  5
3F0
330
1F
100
AcDbEntity
  8
1-4ﾚｲﾔ
  6
Continuous
 62
     2
370
   211
100
AcDbText
 10
163.8700559620403
 20
-140.8485516948234
 30
0.0
 40
12.192
  1
Ｃ
 50
90.0
  7
ＭＳ ゴシック
100
AcDbText
  0
ENDSEC
  0
SECTION
  2
OBJECTS
  0
DICTIONARY
  5
C
330
0
100
AcDbDictionary
281
     1
  3
ACAD_DETAILVIEWSTYLE
350
436
  3
ACAD_GROUP
350
D
  3
ACAD_LAYOUT
350
1A
  3
ACAD_MATERIAL
350
43
  3
ACAD_MLEADERSTYLE
350
6B
  3
ACAD_MLINESTYLE
350
17
  3
ACAD_PLOTSETTINGS
350
19
  3
ACAD_PLOTSTYLENAME
350
E
  3
ACAD_SCALELIST
350
47
  3
ACAD_SECTIONVIEWSTYLE
350
437
  3
ACAD_TABLESTYLE
350
69
  3
ACAD_VISUALSTYLE
350
2A
  3
ACDB_RECOMPOSE_DATA
350
433
  3
AcDbVariableDictionary
350
3F3
  0
DICTIONARY
  5
3F1
330
8
100
AcDbDictionary
280
     1
281
     1
  3
ACAD_XREC_ROUNDTRIP
360
3F2
  0
DICTIONARY
  5
436
102
{ACAD_REACTORS
330
C
102
}
330
C
100
AcDbDictionary
281
     1
  0
DICTIONARY
  5
D
102
{ACAD_REACTORS
330
C
102
}
330
C
100
AcDbDictionary
281
     1
  0
DICTIONARY
  5
1A
102
{ACAD_REACTORS
330
C
102
}
330
C
100
AcDbDictionary
281
     1
  3
Layout1
350
1E
  3
Layout2
350
26
  3
Model
350
22
  0
DICTIONARY
  5
43
102
{ACAD_REACTORS
330
C
102
}
330
C
100
AcDbDictionary
281
     1
  3
ByBlock
350
45
  3
ByLayer
350
44
  3
Global
350
46
  0
DICTIONARY
  5
6B
102
{ACAD_REACTORS
330
C
102
}
330
C
100
AcDbDictionary
281
     1
  3
Standard
350
6C
  0
DICTIONARY
  5
17
102
{ACAD_REACTORS
330
C
102
}
330
C
100
AcDbDictionary
281
     1
  3
Standard
350
18
  0
DICTIONARY
  5
19
102
{ACAD_REACTORS
330
C
102
}
330
C
100
AcDbDictionary
281
     1
  0
ACDBDICTIONARYWDFLT
  5
E
102
{ACAD_REACTORS
330
C
102
}
330
C
100
AcDbDictionary
281
     1
  3
Normal
350
F
100
AcDbDictionaryWithDefault
340
F
  0
DICTIONARY
  5
47
102
{ACAD_REACTORS
330
C
102
}
330
C
100
AcDbDictionary
281
     1
  3
A0
350
48
  3
A1
350
49
  3
A2
350
4A
  3
A3
350
4B
  3
A4
350
4C
  3
A5
350
4D
  3
A6
350
4E
  3
A7
350
4F
  3
A8
350
50
  3
A9
350
51
  3
B0
350
52
  3
B1
350
53
  3
B2
350
54
  3
B3
350
55
  3
B4
350
56
  3
B5
350
57
  3
B6
350
58
  3
B7
350
59
  3
B8
350
5A
  3
B9
350
5B
  3
C0
350
5C
  3
C1
350
5D
  3
C2
350
5E
  3
C3
350
5F
  3
C4
350
60
  3
C5
350
61
  3
C6
350
62
  3
C7
350
63
  3
C8
350
64
  3
C9
350
65
  3
D0
350
66
  3
D1
350
67
  3
D2
350
68
  0
DICTIONARY
  5
437
102
{ACAD_REACTORS
330
C
102
}
330
C
100
AcDbDictionary
281
     1
  0
DICTIONARY
  5
69
102
{ACAD_REACTORS
330
C
102
}
330
C
100
AcDbDictionary
281
     1
  3
Standard
350
6A
  0
DICTIONARY
  5
2A
102
{ACAD_REACTORS
330
C
102
}
330
C
100
AcDbDictionary
281
     1
  3
2dWireframe
350
2F
  3
Basic
350
32
  3
Brighten
350
36
  3
ColorChange
350
3A
  3
Conceptual
350
34
  3
Dim
350
35
  3
EdgeColorOff
350
3D
  3
Facepattern
350
39
  3
Flat
350
2B
  3
FlatWithEdges
350
2C
  3
Gouraud
350
2D
  3
GouraudWithEdges
350
2E
  3
Hidden
350
31
  3
JitterOff
350
3B
  3
Linepattern
350
38
  3
OverhangOff
350
3C
  3
Realistic
350
33
  3
Shaded
350
42
  3
Shaded with edges
350
41
  3
Shades of Gray
350
3E
  3
Sketchy
350
3F
  3
Thicken
350
37
  3
Wireframe
350
30
  3
X-Ray
350
40
  0
XRECORD
  5
433
102
{ACAD_REACTORS
330
C
102
}
330
C
100
AcDbXrecord
280
     1
 90
        1
330
6A
  0
DICTIONARY
  5
3F3
102
{ACAD_REACTORS
330
C
102
}
330
C
100
AcDbDictionary
281
     1
  3
CANNOSCALE
350
3F4
  3
CENTEREXE
350
438
  3
CENTERLTYPEFILE
350
439
  3
CMLEADERSTYLE
350
435
  3
CTABLESTYLE
350
434
  3
MSLTSCALE
350
3F5
  3
XCLIPFRAME
350
3F6
  0
XRECORD
  5
3F2
102
{ACAD_REACTORS
330
3F1
102
}
330
3F1
100
AcDbXrecord
280
     1
102
VTR_0.000_0.000_1.000_1.000_VISUALSTYLE
340
2F
102
VTR_0.000_0.000_1.000_1.000_GRIDDISPLAY
 70
     3
102
VTR_0.000_0.000_1.000_1.000_GRIDMAJOR
 70
     5
102
VTR_0.000_0.000_1.000_1.000_DEFAULTLIGHTING
280
     1
102
VTR_0.000_0.000_1.000_1.000_DEFAULTLIGHTINGTYPE
 70
     1
102
VTR_0.000_0.000_1.000_1.000_BRIGHTNESS
141
0.0
102
VTR_0.000_0.000_1.000_1.000_CONTRAST
142
0.0
  0
LAYOUT
  5
1E
102
{ACAD_REACTORS
330
1A
102
}
330
1A
100
AcDbPlotSettings
  1

  2
none_device
  4

  6

 40
0.0
 41
0.0
 42
0.0
 43
0.0
 44
0.0
 45
0.0
 46
0.0
 47
0.0
 48
0.0
 49
0.0
140
0.0
141
0.0
142
1.0
143
1.0
 70
   688
 72
     1
 73
     0
 74
     5
  7

 75
    16
 76
     0
 77
     5
 78
   300
147
1.0
148
0.0
149
0.0
100
AcDbLayout
  1
Layout1
 70
     1
 71
     1
 10
0.0
 20
0.0
 11
420.0
 21
297.0
 12
0.0
 22
0.0
 32
0.0
 14
1.000000000000000E+20
 24
1.000000000000000E+20
 34
1.000000000000000E+20
 15
-1.000000000000000E+20
 25
-1.000000000000000E+20
 35
-1.000000000000000E+20
146
0.0
 13
0.0
 23
0.0
 33
0.0
 16
1.0
 26
0.0
 36
0.0
 17
0.0
 27
1.0
 37
0.0
 76
     0
330
1B
  0
LAYOUT
  5
26
102
{ACAD_REACTORS
330
1A
102
}
330
1A
100
AcDbPlotSettings
  1

  2
none_device
  4

  6

 40
0.0
 41
0.0
 42
0.0
 43
0.0
 44
0.0
 45
0.0
 46
0.0
 47
0.0
 48
0.0
 49
0.0
140
0.0
141
0.0
142
1.0
143
1.0
 70
   688
 72
     1
 73
     0
 74
     5
  7

 75
    16
 76
     0
 77
     5
 78
   300
147
1.0
148
0.0
149
0.0
100
AcDbLayout
  1
Layout2
 70
     1
 71
     2
 10
0.0
 20
0.0
 11
0.0
 21
0.0
 12
0.0
 22
0.0
 32
0.0
 14
0.0
 24
0.0
 34
0.0
 15
0.0
 25
0.0
 35
0.0
146
0.0
 13
0.0
 23
0.0
 33
0.0
 16
1.0
 26
0.0
 36
0.0
 17
0.0
 27
1.0
 37
0.0
 76
     0
330
23
  0
LAYOUT
  5
22
102
{ACAD_REACTORS
330
1A
102
}
330
1A
100
AcDbPlotSettings
  1

  2
none_device
  4
Letter_(8.50_x_11.00_Inches)
  6

 40
6.35
 41
6.35
 42
6.35000508
 43
6.35000508
 44
215.9
 45
279.4
 46
0.0
 47
0.0
 48
0.0
 49
0.0
140
0.0
141
0.0
142
1.0
143
1.0
 70
  1712
 72
     1
 73
     0
 74
     0
  7

 75
     0
 76
     0
 77
     5
 78
   300
147
1.0
148
0.0
149
0.0
100
AcDbLayout
  1
Model
 70
     1
 71
     0
 10
-840.0
 20
-594.0
 11
840.0
 21
594.0
 12
0.0
 22
0.0
 32
0.0
 14
-840.0
 24
-594.0
 34
0.0
 15
840.0
 25
594.0
 35
0.0
146
0.0
 13
0.0
 23
0.0
 33
0.0
 16
1.0
 26
0.0
 36
0.0
 17
0.0
 27
1.0
 37
0.0
 76
     0
330
1F
331
29
  0
MATERIAL
  5
45
102
{ACAD_REACTORS
330
43
102
}
102
{ACAD_XDICTIONARY
360
429
102
}
330
43
100
AcDbMaterial
  1
ByBlock
  0
MATERIAL
  5
44
102
{ACAD_REACTORS
330
43
102
}
102
{ACAD_XDICTIONARY
360
427
102
}
330
43
100
AcDbMaterial
  1
ByLayer
  0
MATERIAL
  5
46
102
{ACAD_REACTORS
330
43
102
}
102
{ACAD_XDICTIONARY
360
42B
102
}
330
43
100
AcDbMaterial
  1
Global
  0
MLEADERSTYLE
  5
6C
102
{ACAD_REACTORS
330
6B
102
}
102
{ACAD_XDICTIONARY
360
431
102
}
330
6B
100
AcDbMLeaderStyle
170
     2
171
     1
172
     0
 90
        2
 40
0.0
 41
0.0
173
     1
 91
-1056964608
340
14
 92
       -2
290
     1
 42
2.0
291
     1
 43
8.0
  3
Standard
341
0
 44
4.0
300

342
11
174
     1
178
     6
175
     1
176
     0
 93
-1056964608
 45
4.0
292
     0
297
     0
 46
4.0
343
0
 94
-1056964608
 47
1.0
 49
1.0
140
1.0
293
     1
141
0.0
294
     1
177
     0
142
1.0
295
     0
296
     0
143
3.75
1001
ACAD_MLEADERVER
1070
     2
  0
MLINESTYLE
  5
18
102
{ACAD_REACTORS
330
17
102
}
330
17
100
AcDbMlineStyle
  2
Standard
 70
     0
  3

 62
   256
 51
90.0
 52
90.0
 71
     2
 49
0.5
 62
   256
  6
BYLAYER
 49
-0.5
 62
   256
  6
BYLAYER
  0
ACDBPLACEHOLDER
  5
F
102
{ACAD_REACTORS
330
E
102
}
330
E
  0
SCALE
  5
48
102
{ACAD_REACTORS
330
47
102
}
330
47
100
AcDbScale
 70
     0
300
1:1
140
1.0
141
1.0
290
     1
  0
SCALE
  5
49
102
{ACAD_REACTORS
330
47
102
}
330
47
100
AcDbScale
 70
     0
300
1:2
140
1.0
141
2.0
290
     0
  0
SCALE
  5
4A
102
{ACAD_REACTORS
330
47
102
}
330
47
100
AcDbScale
 70
     0
300
1:4
140
1.0
141
4.0
290
     0
  0
SCALE
  5
4B
102
{ACAD_REACTORS
330
47
102
}
330
47
100
AcDbScale
 70
     0
300
1:5
140
1.0
141
5.0
290
     0
  0
SCALE
  5
4C
102
{ACAD_REACTORS
330
47
102
}
330
47
100
AcDbScale
 70
     0
300
1:8
140
1.0
141
8.0
290
     0
  0
SCALE
  5
4D
102
{ACAD_REACTORS
330
47
102
}
330
47
100
AcDbScale
 70
     0
300
1:10
140
1.0
141
10.0
290
     0
  0
SCALE
  5
4E
102
{ACAD_REACTORS
330
47
102
}
330
47
100
AcDbScale
 70
     0
300
1:16
140
1.0
141
16.0
290
     0
  0
SCALE
  5
4F
102
{ACAD_REACTORS
330
47
102
}
330
47
100
AcDbScale
 70
     0
300
1:20
140
1.0
141
20.0
290
     0
  0
SCALE
  5
50
102
{ACAD_REACTORS
330
47
102
}
330
47
100
AcDbScale
 70
     0
300
1:30
140
1.0
141
30.0
290
     0
  0
SCALE
  5
51
102
{ACAD_REACTORS
330
47
102
}
330
47
100
AcDbScale
 70
     0
300
1:40
140
1.0
141
40.0
290
     0
  0
SCALE
  5
52
102
{ACAD_REACTORS
330
47
102
}
330
47
100
AcDbScale
 70
     0
300
1:50
140
1.0
141
50.0
290
     0
  0
SCALE
  5
53
102
{ACAD_REACTORS
330
47
102
}
330
47
100
AcDbScale
 70
     0
300
1:100
140
1.0
141
100.0
290
     0
  0
SCALE
  5
54
102
{ACAD_REACTORS
330
47
102
}
330
47
100
AcDbScale
 70
     0
300
2:1
140
2.0
141
1.0
290
     0
  0
SCALE
  5
55
102
{ACAD_REACTORS
330
47
102
}
330
47
100
AcDbScale
 70
     0
300
4:1
140
4.0
141
1.0
290
     0
  0
SCALE
  5
56
102
{ACAD_REACTORS
330
47
102
}
330
47
100
AcDbScale
 70
     0
300
8:1
140
8.0
141
1.0
290
     0
  0
SCALE
  5
57
102
{ACAD_REACTORS
330
47
102
}
330
47
100
AcDbScale
 70
     0
300
10:1
140
10.0
141
1.0
290
     0
  0
SCALE
  5
58
102
{ACAD_REACTORS
330
47
102
}
330
47
100
AcDbScale
 70
     0
300
100:1
140
100.0
141
1.0
290
     0
  0
SCALE
  5
59
102
{ACAD_REACTORS
330
47
102
}
330
47
100
AcDbScale
 70
     0
300
1/128" = 1'-0"
140
0.0078125
141
12.0
290
     0
  0
SCALE
  5
5A
102
{ACAD_REACTORS
330
47
102
}
330
47
100
AcDbScale
 70
     0
300
1/64" = 1'-0"
140
0.015625
141
12.0
290
     0
  0
SCALE
  5
5B
102
{ACAD_REACTORS
330
47
102
}
330
47
100
AcDbScale
 70
     0
300
1/32" = 1'-0"
140
0.03125
141
12.0
290
     0
  0
SCALE
  5
5C
102
{ACAD_REACTORS
330
47
102
}
330
47
100
AcDbScale
 70
     0
300
1/16" = 1'-0"
140
0.0625
141
12.0
290
     0
  0
SCALE
  5
5D
102
{ACAD_REACTORS
330
47
102
}
330
47
100
AcDbScale
 70
     0
300
3/32" = 1'-0"
140
0.09375
141
12.0
290
     0
  0
SCALE
  5
5E
102
{ACAD_REACTORS
330
47
102
}
330
47
100
AcDbScale
 70
     0
300
1/8" = 1'-0"
140
0.125
141
12.0
290
     0
  0
SCALE
  5
5F
102
{ACAD_REACTORS
330
47
102
}
330
47
100
AcDbScale
 70
     0
300
3/16" = 1'-0"
140
0.1875
141
12.0
290
     0
  0
SCALE
  5
60
102
{ACAD_REACTORS
330
47
102
}
330
47
100
AcDbScale
 70
     0
300
1/4" = 1'-0"
140
0.25
141
12.0
290
     0
  0
SCALE
  5
61
102
{ACAD_REACTORS
330
47
102
}
330
47
100
AcDbScale
 70
     0
300
3/8" = 1'-0"
140
0.375
141
12.0
290
     0
  0
SCALE
  5
62
102
{ACAD_REACTORS
330
47
102
}
330
47
100
AcDbScale
 70
     0
300
1/2" = 1'-0"
140
0.5
141
12.0
290
     0
  0
SCALE
  5
63
102
{ACAD_REACTORS
330
47
102
}
330
47
100
AcDbScale
 70
     0
300
3/4" = 1'-0"
140
0.75
141
12.0
290
     0
  0
SCALE
  5
64
102
{ACAD_REACTORS
330
47
102
}
330
47
100
AcDbScale
 70
     0
300
1" = 1'-0"
140
1.0
141
12.0
290
     0
  0
SCALE
  5
65
102
{ACAD_REACTORS
330
47
102
}
330
47
100
AcDbScale
 70
     0
300
1-1/2" = 1'-0"
140
1.5
141
12.0
290
     0
  0
SCALE
  5
66
102
{ACAD_REACTORS
330
47
102
}
330
47
100
AcDbScale
 70
     0
300
3" = 1'-0"
140
3.0
141
12.0
290
     0
  0
SCALE
  5
67
102
{ACAD_REACTORS
330
47
102
}
330
47
100
AcDbScale
 70
     0
300
6" = 1'-0"
140
6.0
141
12.0
290
     0
  0
SCALE
  5
68
102
{ACAD_REACTORS
330
47
102
}
330
47
100
AcDbScale
 70
     0
300
1'-0" = 1'-0"
140
12.0
141
12.0
290
     0
  0
TABLESTYLE
  5
6A
102
{ACAD_REACTORS
330
69
102
}
102
{ACAD_XDICTIONARY
360
42D
102
}
330
69
100
AcDbTableStyle
  3
Standard
 70
     0
 71
     0
 40
0.06
 41
0.06
280
     0
281
     0
  7
Standard
140
4.5
170
     2
 62
     0
 63
   257
283
     0
274
    -2
284
     1
 64
     0
275
    -2
285
     1
 65
     0
276
    -2
286
     1
 66
     0
277
    -2
287
     1
 67
     0
278
    -2
288
     1
 68
     0
279
    -2
289
     1
 69
     0
  7
Standard
140
6.0
170
     5
 62
     0
 63
   257
283
     0
274
    -2
284
     1
 64
     0
275
    -2
285
     1
 65
     0
276
    -2
286
     1
 66
     0
277
    -2
287
     1
 67
     0
278
    -2
288
     1
 68
     0
279
    -2
289
     1
 69
     0
  7
Standard
140
4.5
170
     5
 62
     0
 63
   257
283
     0
274
    -2
284
     1
 64
     0
275
    -2
285
     1
 65
     0
276
    -2
286
     1
 66
     0
277
    -2
287
     1
 67
     0
278
    -2
288
     1
 68
     0
279
    -2
289
     1
 69
     0
  0
VISUALSTYLE
  5
2F
102
{ACAD_REACTORS
330
2A
102
}
102
{ACAD_XDICTIONARY
360
3FF
102
}
330
2A
100
AcDbVisualStyle
  2
2dWireframe
 70
     4
 71
     0
 72
     2
 73
     0
 90
        0
 40
0.6
 41
30.0
 62
     5
 63
     7
421
 16777215
 74
     1
 91
        4
 64
     7
 65
   257
 75
     1
175
     1
 42
1.0
 92
        0
 66
   257
 43
1.0
 76
     1
 77
     6
 78
     2
 67
     7
 79
     5
170
     0
171
     0
290
     0
174
     0
 93
        1
 44
0.0
173
     0
291
     0
 45
0.0
1001
ACAD
1000
AcDbSavedByObjectVersion
1070
     0
  0
VISUALSTYLE
  5
32
102
{ACAD_REACTORS
330
2A
102
}
102
{ACAD_XDICTIONARY
360
405
102
}
330
2A
100
AcDbVisualStyle
  2
Basic
 70
     7
 71
     1
 72
     0
 73
     1
 90
        0
 40
0.6
 41
30.0
 62
     5
 63
     7
421
 16777215
 74
     0
 91
        4
 64
     7
 65
   257
 75
     1
175
     1
 42
1.0
 92
        8
 66
     7
 43
1.0
 76
     1
 77
     6
 78
     2
 67
     7
 79
     5
170
     0
171
     0
290
     0
174
     0
 93
        1
 44
0.0
173
     0
291
     1
 45
0.0
1001
ACAD
1000
AcDbSavedByObjectVersion
1070
     0
  0
VISUALSTYLE
  5
36
102
{ACAD_REACTORS
330
2A
102
}
102
{ACAD_XDICTIONARY
360
40D
102
}
330
2A
100
AcDbVisualStyle
  2
Brighten
 70
    12
 71
     2
 72
     2
 73
     0
 90
        0
 40
0.6
 41
30.0
 62
     5
 63
     7
421
 16777215
 74
     1
 91
        4
 64
     7
 65
   257
 75
     1
175
     1
 42
1.0
 92
        8
 66
     7
 43
1.0
 76
     1
 77
     6
 78
     2
 67
     7
 79
     5
170
     0
171
     0
290
     0
174
     0
 93
        1
 44
50.0
173
     0
291
     1
 45
0.0
1001
ACAD
1000
AcDbSavedByObjectVersion
1070
     0
  0
VISUALSTYLE
  5
3A
102
{ACAD_REACTORS
330
2A
102
}
102
{ACAD_XDICTIONARY
360
415
102
}
330
2A
100
AcDbVisualStyle
  2
ColorChange
 70
    16
 71
     2
 72
     2
 73
     3
 90
        0
 40
0.6
 41
30.0
 62
     5
 63
     8
421
  8421504
 74
     1
 91
        4
 64
     7
 65
   257
 75
     1
175
     1
 42
1.0
 92
        8
 66
     8
424
  8421504
 43
1.0
 76
     1
 77
     6
 78
     2
 67
     7
 79
     5
170
     0
171
     0
290
     0
174
     0
 93
        1
 44
0.0
173
     0
291
     1
 45
0.0
1001
ACAD
1000
AcDbSavedByObjectVersion
1070
     0
  0
VISUALSTYLE
  5
34
102
{ACAD_REACTORS
330
2A
102
}
102
{ACAD_XDICTIONARY
360
409
102
}
330
2A
100
AcDbVisualStyle
  2
Conceptual
 70
     9
 71
     3
 72
     2
 73
     0
 90
        0
 40
0.6
 41
30.0
 62
     5
 63
     7
421
 16777215
 74
     2
 91
        2
 64
     7
 65
   257
 75
     1
175
     1
 42
179.0
 92
        8
 66
     7
 43
1.0
 76
     1
 77
     6
 78
     2
 67
     7
 79
     3
170
     0
171
     0
290
     0
174
     0
 93
        1
 44
0.0
173
     0
291
     0
 45
0.0
1001
ACAD
1000
AcDbSavedByObjectVersion
1070
     0
  0
VISUALSTYLE
  5
35
102
{ACAD_REACTORS
330
2A
102
}
102
{ACAD_XDICTIONARY
360
40B
102
}
330
2A
100
AcDbVisualStyle
  2
Dim
 70
    11
 71
     2
 72
     2
 73
     0
 90
        0
 40
0.6
 41
30.0
 62
     5
 63
     7
421
 16777215
 74
     1
 91
        4
 64
     7
 65
   257
 75
     1
175
     1
 42
1.0
 92
        8
 66
     7
 43
1.0
 76
     1
 77
     6
 78
     2
 67
     7
 79
     5
170
     0
171
     0
290
     0
174
     0
 93
        1
 44
-50.0
173
     0
291
     1
 45
0.0
1001
ACAD
1000
AcDbSavedByObjectVersion
1070
     0
  0
VISUALSTYLE
  5
3D
102
{ACAD_REACTORS
330
2A
102
}
102
{ACAD_XDICTIONARY
360
41B
102
}
330
2A
100
AcDbVisualStyle
  2
EdgeColorOff
 70
    22
 71
     2
 72
     2
 73
     0
 90
        0
 40
0.6
 41
30.0
 62
     5
 63
     7
421
 16777215
 74
     1
 91
        4
 64
     7
 65
   257
 75
     1
175
     1
 42
1.0
 92
        8
 66
     7
 43
1.0
 76
     1
 77
     6
 78
     2
 67
     7
 79
     5
170
     0
171
     0
290
     0
174
     0
 93
        1
 44
0.0
173
     0
291
     1
 45
0.0
1001
ACAD
1000
AcDbSavedByObjectVersion
1070
     0
  0
VISUALSTYLE
  5
39
102
{ACAD_REACTORS
330
2A
102
}
102
{ACAD_XDICTIONARY
360
413
102
}
330
2A
100
AcDbVisualStyle
  2
Facepattern
 70
    15
 71
     2
 72
     2
 73
     0
 90
        0
 40
0.6
 41
30.0
 62
     5
 63
     7
421
 16777215
 74
     1
 91
        4
 64
     7
 65
   257
 75
     1
175
     1
 42
1.0
 92
        8
 66
     7
 43
1.0
 76
     1
 77
     6
 78
     2
 67
     7
 79
     5
170
     0
171
     0
290
     0
174
     0
 93
        1
 44
0.0
173
     0
291
     1
 45
0.0
1001
ACAD
1000
AcDbSavedByObjectVersion
1070
     0
  0
VISUALSTYLE
  5
2B
102
{ACAD_REACTORS
330
2A
102
}
102
{ACAD_XDICTIONARY
360
3F7
102
}
330
2A
100
AcDbVisualStyle
  2
Flat
 70
     0
 71
     2
 72
     1
 73
     1
 90
        2
 40
0.6
 41
30.0
 62
     5
 63
     7
421
 16777215
 74
     0
 91
        0
 64
     7
 65
   257
 75
     1
175
     1
 42
1.0
 92
        8
 66
     7
 43
1.0
 76
     1
 77
     6
 78
     2
 67
     7
 79
     5
170
     0
171
     0
290
     0
174
     0
 93
       13
 44
0.0
173
     0
291
     1
 45
0.0
1001
ACAD
1000
AcDbSavedByObjectVersion
1070
     0
  0
VISUALSTYLE
  5
2C
102
{ACAD_REACTORS
330
2A
102
}
102
{ACAD_XDICTIONARY
360
3F9
102
}
330
2A
100
AcDbVisualStyle
  2
FlatWithEdges
 70
     1
 71
     2
 72
     1
 73
     1
 90
        2
 40
0.6
 41
30.0
 62
     5
 63
     7
421
 16777215
 74
     1
 91
        0
 64
     7
 65
   257
 75
     1
175
     1
 42
1.0
 92
        0
 66
   257
 43
1.0
 76
     1
 77
     6
 78
     2
 67
     7
 79
     5
170
     0
171
     0
290
     0
174
     0
 93
       13
 44
0.0
173
     0
291
     1
 45
0.0
1001
ACAD
1000
AcDbSavedByObjectVersion
1070
     0
  0
VISUALSTYLE
  5
2D
102
{ACAD_REACTORS
330
2A
102
}
102
{ACAD_XDICTIONARY
360
3FB
102
}
330
2A
100
AcDbVisualStyle
  2
Gouraud
 70
     2
 71
     2
 72
     2
 73
     1
 90
        2
 40
0.6
 41
30.0
 62
     5
 63
     7
421
 16777215
 74
     0
 91
        0
 64
     7
 65
   257
 75
     1
175
     1
 42
1.0
 92
        0
 66
     7
 43
1.0
 76
     1
 77
     6
 78
     2
 67
     7
 79
     5
170
     0
171
     0
290
     0
174
     0
 93
       13
 44
0.0
173
     0
291
     1
 45
0.0
1001
ACAD
1000
AcDbSavedByObjectVersion
1070
     0
  0
VISUALSTYLE
  5
2E
102
{ACAD_REACTORS
330
2A
102
}
102
{ACAD_XDICTIONARY
360
3FD
102
}
330
2A
100
AcDbVisualStyle
  2
GouraudWithEdges
 70
     3
 71
     2
 72
     2
 73
     1
 90
        2
 40
0.6
 41
30.0
 62
     5
 63
     7
421
 16777215
 74
     1
 91
        0
 64
     7
 65
   257
 75
     1
175
     1
 42
1.0
 92
        0
 66
   257
 43
1.0
 76
     1
 77
     6
 78
     2
 67
     7
 79
     5
170
     0
171
     0
290
     0
174
     0
 93
       13
 44
0.0
173
     0
291
     1
 45
0.0
1001
ACAD
1000
AcDbSavedByObjectVersion
1070
     0
  0
VISUALSTYLE
  5
31
102
{ACAD_REACTORS
330
2A
102
}
102
{ACAD_XDICTIONARY
360
403
102
}
330
2A
100
AcDbVisualStyle
  2
Hidden
 70
     6
 71
     1
 72
     2
 73
     2
 90
        0
 40
0.6
 41
30.0
 62
     5
 63
     7
421
 16777215
 74
     2
 91
        2
 64
     7
 65
   257
 75
     2
175
     1
 42
40.0
 92
        0
 66
   257
 43
1.0
 76
     1
 77
     6
 78
     2
 67
     7
 79
     3
170
     0
171
     0
290
     0
174
     0
 93
        1
 44
0.0
173
     0
291
     0
 45
0.0
1001
ACAD
1000
AcDbSavedByObjectVersion
1070
     0
  0
VISUALSTYLE
  5
3B
102
{ACAD_REACTORS
330
2A
102
}
102
{ACAD_XDICTIONARY
360
417
102
}
330
2A
100
AcDbVisualStyle
  2
JitterOff
 70
    20
 71
     2
 72
     2
 73
     0
 90
        0
 40
0.6
 41
30.0
 62
     5
 63
     7
421
 16777215
 74
     1
 91
        4
 64
     7
 65
   257
 75
     1
175
     1
 42
1.0
 92
       10
 66
     7
 43
1.0
 76
     1
 77
     6
 78
     2
 67
     7
 79
     5
170
     0
171
     0
290
     0
174
     0
 93
        1
 44
0.0
173
     0
291
     1
 45
0.0
1001
ACAD
1000
AcDbSavedByObjectVersion
1070
     0
  0
VISUALSTYLE
  5
38
102
{ACAD_REACTORS
330
2A
102
}
102
{ACAD_XDICTIONARY
360
411
102
}
330
2A
100
AcDbVisualStyle
  2
Linepattern
 70
    14
 71
     2
 72
     2
 73
     0
 90
        0
 40
0.6
 41
30.0
 62
     5
 63
     7
421
 16777215
 74
     1
 91
        4
 64
     7
 65
   257
 75
     7
175
     7
 42
1.0
 92
        8
 66
     7
 43
1.0
 76
     1
 77
     6
 78
     2
 67
     7
 79
     5
170
     0
171
     0
290
     0
174
     0
 93
        1
 44
0.0
173
     0
291
     1
 45
0.0
1001
ACAD
1000
AcDbSavedByObjectVersion
1070
     0
  0
VISUALSTYLE
  5
3C
102
{ACAD_REACTORS
330
2A
102
}
102
{ACAD_XDICTIONARY
360
419
102
}
330
2A
100
AcDbVisualStyle
  2
OverhangOff
 70
    21
 71
     2
 72
     2
 73
     0
 90
        0
 40
0.6
 41
30.0
 62
     5
 63
     7
421
 16777215
 74
     1
 91
        4
 64
     7
 65
   257
 75
     1
175
     1
 42
1.0
 92
        9
 66
     7
 43
1.0
 76
     1
 77
     6
 78
     2
 67
     7
 79
     5
170
     0
171
     0
290
     0
174
     0
 93
        1
 44
0.0
173
     0
291
     1
 45
0.0
1001
ACAD
1000
AcDbSavedByObjectVersion
1070
     0
  0
VISUALSTYLE
  5
33
102
{ACAD_REACTORS
330
2A
102
}
102
{ACAD_XDICTIONARY
360
407
102
}
330
2A
100
AcDbVisualStyle
  2
Realistic
 70
     8
 71
     2
 72
     3
 73
     0
 90
        2
 40
0.6
 41
30.0
 62
     5
 63
     7
421
 16777215
 74
     0
 91
        0
 64
     7
 65
   257
 75
     1
175
     1
 42
1.0
 92
        8
 66
   257
 43
1.0
 76
     1
 77
     6
 78
     2
 67
     7
 79
     3
170
     0
171
     0
290
     0
174
     0
 93
       13
 44
0.0
173
     0
291
     0
 45
0.0
1001
ACAD
1000
AcDbSavedByObjectVersion
1070
     0
  0
VISUALSTYLE
  5
42
102
{ACAD_REACTORS
330
2A
102
}
102
{ACAD_XDICTIONARY
360
425
102
}
330
2A
100
AcDbVisualStyle
  2
Shaded
 70
    27
 71
     2
 72
     2
 73
     1
 90
        2
 40
0.6
 41
30.0
 62
     5
 63
     7
421
 16777215
 74
     0
 91
        4
 64
     7
 65
   257
 75
     1
175
     1
 42
1.0
 92
        8
 66
   257
 43
1.0
 76
     1
 77
     6
 78
     2
 67
     8
425
  7895160
 79
     3
170
     0
171
     0
290
     0
174
     0
 93
        5
 44
0.0
173
     0
291
     0
 45
0.0
1001
ACAD
1000
AcDbSavedByObjectVersion
1070
     0
  0
VISUALSTYLE
  5
41
102
{ACAD_REACTORS
330
2A
102
}
102
{ACAD_XDICTIONARY
360
423
102
}
330
2A
100
AcDbVisualStyle
  2
Shaded with edges
 70
    26
 71
     2
 72
     2
 73
     1
 90
        2
 40
0.6
 41
30.0
 62
     5
 63
     7
421
 16777215
 74
     1
 91
       10
 64
     7
 65
   257
 75
     2
175
     1
 42
1.0
 92
        8
 66
   257
 43
1.0
 76
     1
 77
     6
 78
     2
 67
     7
 79
     3
170
     0
171
     0
290
     0
174
     0
 93
        5
 44
0.0
173
     0
291
     0
 45
0.0
1001
ACAD
1000
AcDbSavedByObjectVersion
1070
     0
  0
VISUALSTYLE
  5
3E
102
{ACAD_REACTORS
330
2A
102
}
102
{ACAD_XDICTIONARY
360
41D
102
}
330
2A
100
AcDbVisualStyle
  2
Shades of Gray
 70
    23
 71
     2
 72
     2
 73
     3
 90
        0
 40
0.6
 41
30.0
 62
     5
 63
     7
421
 16777215
 74
     2
 91
        2
 64
     7
 65
     7
 75
     1
175
     1
 42
40.0
 92
        8
 66
     7
 43
1.0
 76
     1
 77
     6
 78
     2
 67
     7
 79
     3
170
     0
171
     0
290
     0
174
     0
 93
        1
 44
0.0
173
     0
291
     0
 45
0.0
1001
ACAD
1000
AcDbSavedByObjectVersion
1070
     0
  0
VISUALSTYLE
  5
3F
102
{ACAD_REACTORS
330
2A
102
}
102
{ACAD_XDICTIONARY
360
41F
102
}
330
2A
100
AcDbVisualStyle
  2
Sketchy
 70
    24
 71
     1
 72
     2
 73
     2
 90
        0
 40
0.6
 41
30.0
 62
     5
 63
     7
421
 16777215
 74
     2
 91
        2
 64
     7
 65
     7
 75
     1
175
     1
 42
40.0
 92
       11
 66
     7
 43
1.0
 76
     1
 77
     6
 78
     2
 67
     7
 79
     6
170
     0
171
     0
290
     0
174
     0
 93
        1
 44
0.0
173
     0
291
     0
 45
0.0
1001
ACAD
1000
AcDbSavedByObjectVersion
1070
     0
  0
VISUALSTYLE
  5
37
102
{ACAD_REACTORS
330
2A
102
}
102
{ACAD_XDICTIONARY
360
40F
102
}
330
2A
100
AcDbVisualStyle
  2
Thicken
 70
    13
 71
     2
 72
     2
 73
     0
 90
        0
 40
0.6
 41
30.0
 62
     5
 63
     7
421
 16777215
 74
     1
 91
        4
 64
     7
 65
   257
 75
     1
175
     1
 42
1.0
 92
       12
 66
     7
 43
1.0
 76
     1
 77
     6
 78
     2
 67
     7
 79
     5
170
     0
171
     0
290
     0
174
     0
 93
        1
 44
0.0
173
     0
291
     1
 45
0.0
1001
ACAD
1000
AcDbSavedByObjectVersion
1070
     0
  0
VISUALSTYLE
  5
30
102
{ACAD_REACTORS
330
2A
102
}
102
{ACAD_XDICTIONARY
360
401
102
}
330
2A
100
AcDbVisualStyle
  2
Wireframe
 70
     5
 71
     0
 72
     2
 73
     0
 90
        0
 40
0.6
 41
30.0
 62
     5
 63
     7
421
 16777215
 74
     1
 91
        4
 64
     7
 65
   257
 75
     1
175
     1
 42
1.0
 92
        0
 66
   257
 43
1.0
 76
     1
 77
     6
 78
     2
 67
     7
 79
     3
170
     0
171
     0
290
     0
174
     0
 93
        1
 44
0.0
173
     0
291
     0
 45
0.0
1001
ACAD
1000
AcDbSavedByObjectVersion
1070
     0
  0
VISUALSTYLE
  5
40
102
{ACAD_REACTORS
330
2A
102
}
102
{ACAD_XDICTIONARY
360
421
102
}
330
2A
100
AcDbVisualStyle
  2
X-Ray
 70
    25
 71
     2
 72
     2
 73
     1
 90
        1
 40
0.5
 41
30.0
 62
     5
 63
     7
421
 16777215
 74
     1
 91
        0
 64
     7
 65
   257
 75
     1
175
     1
 42
1.0
 92
        8
 66
     7
 43
1.0
 76
     1
 77
     6
 78
     2
 67
     7
 79
     3
170
     0
171
     0
290
     0
174
     0
 93
       13
 44
0.0
173
     0
291
     0
 45
0.0
1001
ACAD
1000
AcDbSavedByObjectVersion
1070
     0
  0
DICTIONARYVAR
  5
3F4
102
{ACAD_REACTORS
330
3F3
102
}
330
3F3
100
DictionaryVariables
280
     0
  1
1:1
  0
DICTIONARYVAR
  5
438
102
{ACAD_REACTORS
330
3F3
102
}
330
3F3
100
DictionaryVariables
280
     0
  1
3.500000
  0
DICTIONARYVAR
  5
439
102
{ACAD_REACTORS
330
3F3
102
}
330
3F3
100
DictionaryVariables
280
     0
  1
acadiso.lin
  0
DICTIONARYVAR
  5
435
102
{ACAD_REACTORS
330
3F3
102
}
330
3F3
100
DictionaryVariables
280
     0
  1
Standard
  0
DICTIONARYVAR
  5
434
102
{ACAD_REACTORS
330
3F3
102
}
330
3F3
100
DictionaryVariables
280
     0
  1
Standard
  0
DICTIONARYVAR
  5
3F5
102
{ACAD_REACTORS
330
3F3
102
}
330
3F3
100
DictionaryVariables
280
     0
  1
1
  0
DICTIONARYVAR
  5
3F6
102
{ACAD_REACTORS
330
3F3
102
}
330
3F3
100
DictionaryVariables
280
     0
  1
2
  0
DICTIONARY
  5
429
330
45
100
AcDbDictionary
280
     1
281
     1
  3
ACAD_XREC_ROUNDTRIP
360
42A
  0
DICTIONARY
  5
427
330
44
100
AcDbDictionary
280
     1
281
     1
  3
ACAD_XREC_ROUNDTRIP
360
428
  0
DICTIONARY
  5
42B
330
46
100
AcDbDictionary
280
     1
281
     1
  3
ACAD_XREC_ROUNDTRIP
360
42C
  0
DICTIONARY
  5
431
330
6C
100
AcDbDictionary
280
     1
281
     1
  3
ACAD_XREC_ROUNDTRIP
360
432
  0
DICTIONARY
  5
42D
330
6A
100
AcDbDictionary
280
     1
281
     1
  3
ACAD_ROUNDTRIP_2008_TABLESTYLE_CELLSTYLEMAP
360
42F
  3
ACAD_XREC_ROUNDTRIP
360
42E
  0
DICTIONARY
  5
3FF
330
2F
100
AcDbDictionary
280
     1
281
     1
  3
ACAD_XREC_ROUNDTRIP
360
400
  0
DICTIONARY
  5
405
330
32
100
AcDbDictionary
280
     1
281
     1
  3
ACAD_XREC_ROUNDTRIP
360
406
  0
DICTIONARY
  5
40D
330
36
100
AcDbDictionary
280
     1
281
     1
  3
ACAD_XREC_ROUNDTRIP
360
40E
  0
DICTIONARY
  5
415
330
3A
100
AcDbDictionary
280
     1
281
     1
  3
ACAD_XREC_ROUNDTRIP
360
416
  0
DICTIONARY
  5
409
330
34
100
AcDbDictionary
280
     1
281
     1
  3
ACAD_XREC_ROUNDTRIP
360
40A
  0
DICTIONARY
  5
40B
330
35
100
AcDbDictionary
280
     1
281
     1
  3
ACAD_XREC_ROUNDTRIP
360
40C
  0
DICTIONARY
  5
41B
330
3D
100
AcDbDictionary
280
     1
281
     1
  3
ACAD_XREC_ROUNDTRIP
360
41C
  0
DICTIONARY
  5
413
330
39
100
AcDbDictionary
280
     1
281
     1
  3
ACAD_XREC_ROUNDTRIP
360
414
  0
DICTIONARY
  5
3F7
330
2B
100
AcDbDictionary
280
     1
281
     1
  3
ACAD_XREC_ROUNDTRIP
360
3F8
  0
DICTIONARY
  5
3F9
330
2C
100
AcDbDictionary
280
     1
281
     1
  3
ACAD_XREC_ROUNDTRIP
360
3FA
  0
DICTIONARY
  5
3FB
330
2D
100
AcDbDictionary
280
     1
281
     1
  3
ACAD_XREC_ROUNDTRIP
360
3FC
  0
DICTIONARY
  5
3FD
330
2E
100
AcDbDictionary
280
     1
281
     1
  3
ACAD_XREC_ROUNDTRIP
360
3FE
  0
DICTIONARY
  5
403
330
31
100
AcDbDictionary
280
     1
281
     1
  3
ACAD_XREC_ROUNDTRIP
360
404
  0
DICTIONARY
  5
417
330
3B
100
AcDbDictionary
280
     1
281
     1
  3
ACAD_XREC_ROUNDTRIP
360
418
  0
DICTIONARY
  5
411
330
38
100
AcDbDictionary
280
     1
281
     1
  3
ACAD_XREC_ROUNDTRIP
360
412
  0
DICTIONARY
  5
419
330
3C
100
AcDbDictionary
280
     1
281
     1
  3
ACAD_XREC_ROUNDTRIP
360
41A
  0
DICTIONARY
  5
407
330
33
100
AcDbDictionary
280
     1
281
     1
  3
ACAD_XREC_ROUNDTRIP
360
408
  0
DICTIONARY
  5
425
330
42
100
AcDbDictionary
280
     1
281
     1
  3
ACAD_XREC_ROUNDTRIP
360
426
  0
DICTIONARY
  5
423
330
41
100
AcDbDictionary
280
     1
281
     1
  3
ACAD_XREC_ROUNDTRIP
360
424
  0
DICTIONARY
  5
41D
330
3E
100
AcDbDictionary
280
     1
281
     1
  3
ACAD_XREC_ROUNDTRIP
360
41E
  0
DICTIONARY
  5
41F
330
3F
100
AcDbDictionary
280
     1
281
     1
  3
ACAD_XREC_ROUNDTRIP
360
420
  0
DICTIONARY
  5
40F
330
37
100
AcDbDictionary
280
     1
281
     1
  3
ACAD_XREC_ROUNDTRIP
360
410
  0
DICTIONARY
  5
401
330
30
100
AcDbDictionary
280
     1
281
     1
  3
ACAD_XREC_ROUNDTRIP
360
402
  0
DICTIONARY
  5
421
330
40
100
AcDbDictionary
280
     1
281
     1
  3
ACAD_XREC_ROUNDTRIP
360
422
  0
XRECORD
  5
42A
102
{ACAD_REACTORS
330
429
102
}
330
429
100
AcDbXrecord
280
     1
102
MATERIAL
148
0.0
149
0.0
149
0.0
 93
        0
 94
      127
282
     0
 72
     1
 77
     1
171
     1
175
     1
179
     1
273
     0
  0
XRECORD
  5
428
102
{ACAD_REACTORS
330
427
102
}
330
427
100
AcDbXrecord
280
     1
102
MATERIAL
148
0.0
149
0.0
149
0.0
 93
        0
 94
      127
282
     0
 72
     1
 77
     1
171
     1
175
     1
179
     1
273
     0
  0
XRECORD
  5
42C
102
{ACAD_REACTORS
330
42B
102
}
330
42B
100
AcDbXrecord
280
     1
102
MATERIAL
148
0.0
149
0.0
149
0.0
 93
        0
 94
      127
282
     0
 72
     1
 77
     1
171
     1
175
     1
179
     1
273
     0
  0
XRECORD
  5
432
102
{ACAD_REACTORS
330
431
102
}
330
431
100
AcDbXrecord
280
     1
102
ACAD_ROUNDTRIP_2010_MLEADER_STYLE
  0
CELLSTYLEMAP
  5
42F
102
{ACAD_REACTORS
330
42D
102
}
330
42D
100
AcDbCellStyleMap
 90
        3
300
CELLSTYLE
  1
TABLEFORMAT_BEGIN
 90
        5
170
     1
 91
        0
 92
    32768
 62
   257
 93
        1
300
CONTENTFORMAT
  1
CONTENTFORMAT_BEGIN
 90
        0
 91
        0
 92
        4
 93
        0
300

 40
0.0
140
1.0
 94
        5
 62
     0
340
11
144
6.0
309
CONTENTFORMAT_END
171
     1
301
MARGIN
  1
CELLMARGIN_BEGIN
 40
1.5
 40
1.5
 40
1.5
 40
1.5
 40
1.5
 40
1.5
309
CELLMARGIN_END
 94
        6
 95
        1
302
GRIDFORMAT
  1
GRIDFORMAT_BEGIN
 90
        0
 91
        1
 62
     0
 92
       -2
340
14
 93
        0
 40
0.045
309
GRIDFORMAT_END
 95
        2
302
GRIDFORMAT
  1
GRIDFORMAT_BEGIN
 90
        0
 91
        1
 62
     0
 92
       -2
340
14
 93
        0
 40
0.045
309
GRIDFORMAT_END
 95
        4
302
GRIDFORMAT
  1
GRIDFORMAT_BEGIN
 90
        0
 91
        1
 62
     0
 92
       -2
340
14
 93
        0
 40
0.045
309
GRIDFORMAT_END
 95
        8
302
GRIDFORMAT
  1
GRIDFORMAT_BEGIN
 90
        0
 91
        1
 62
     0
 92
       -2
340
14
 93
        0
 40
0.045
309
GRIDFORMAT_END
 95
       16
302
GRIDFORMAT
  1
GRIDFORMAT_BEGIN
 90
        0
 91
        1
 62
     0
 92
       -2
340
14
 93
        0
 40
0.045
309
GRIDFORMAT_END
 95
       32
302
GRIDFORMAT
  1
GRIDFORMAT_BEGIN
 90
        0
 91
        1
 62
     0
 92
       -2
340
14
 93
        0
 40
0.045
309
GRIDFORMAT_END
309
TABLEFORMAT_END
  1
CELLSTYLE_BEGIN
 90
        1
 91
        1
300
_TITLE
309
CELLSTYLE_END
300
CELLSTYLE
  1
TABLEFORMAT_BEGIN
 90
        5
170
     1
 91
        0
 92
        0
 62
   257
 93
        1
300
CONTENTFORMAT
  1
CONTENTFORMAT_BEGIN
 90
        0
 91
        0
 92
        4
 93
        0
300

 40
0.0
140
1.0
 94
        5
 62
     0
340
11
144
4.5
309
CONTENTFORMAT_END
171
     1
301
MARGIN
  1
CELLMARGIN_BEGIN
 40
1.5
 40
1.5
 40
1.5
 40
1.5
 40
1.5
 40
1.5
309
CELLMARGIN_END
 94
        6
 95
        1
302
GRIDFORMAT
  1
GRIDFORMAT_BEGIN
 90
        0
 91
        1
 62
     0
 92
       -2
340
14
 93
        0
 40
0.045
309
GRIDFORMAT_END
 95
        2
302
GRIDFORMAT
  1
GRIDFORMAT_BEGIN
 90
        0
 91
        1
 62
     0
 92
       -2
340
14
 93
        0
 40
0.045
309
GRIDFORMAT_END
 95
        4
302
GRIDFORMAT
  1
GRIDFORMAT_BEGIN
 90
        0
 91
        1
 62
     0
 92
       -2
340
14
 93
        0
 40
0.045
309
GRIDFORMAT_END
 95
        8
302
GRIDFORMAT
  1
GRIDFORMAT_BEGIN
 90
        0
 91
        1
 62
     0
 92
       -2
340
14
 93
        0
 40
0.045
309
GRIDFORMAT_END
 95
       16
302
GRIDFORMAT
  1
GRIDFORMAT_BEGIN
 90
        0
 91
        1
 62
     0
 92
       -2
340
14
 93
        0
 40
0.045
309
GRIDFORMAT_END
 95
       32
302
GRIDFORMAT
  1
GRIDFORMAT_BEGIN
 90
        0
 91
        1
 62
     0
 92
       -2
340
14
 93
        0
 40
0.045
309
GRIDFORMAT_END
309
TABLEFORMAT_END
  1
CELLSTYLE_BEGIN
 90
        2
 91
        1
300
_HEADER
309
CELLSTYLE_END
300
CELLSTYLE
  1
TABLEFORMAT_BEGIN
 90
        5
170
     1
 91
        0
 92
        0
 62
   257
 93
        1
300
CONTENTFORMAT
  1
CONTENTFORMAT_BEGIN
 90
        0
 91
        0
 92
        4
 93
        0
300

 40
0.0
140
1.0
 94
        2
 62
     0
340
11
144
4.5
309
CONTENTFORMAT_END
171
     1
301
MARGIN
  1
CELLMARGIN_BEGIN
 40
1.5
 40
1.5
 40
1.5
 40
1.5
 40
1.5
 40
1.5
309
CELLMARGIN_END
 94
        6
 95
        1
302
GRIDFORMAT
  1
GRIDFORMAT_BEGIN
 90
        0
 91
        1
 62
     0
 92
       -2
340
14
 93
        0
 40
0.045
309
GRIDFORMAT_END
 95
        2
302
GRIDFORMAT
  1
GRIDFORMAT_BEGIN
 90
        0
 91
        1
 62
     0
 92
       -2
340
14
 93
        0
 40
0.045
309
GRIDFORMAT_END
 95
        4
302
GRIDFORMAT
  1
GRIDFORMAT_BEGIN
 90
        0
 91
        1
 62
     0
 92
       -2
340
14
 93
        0
 40
0.045
309
GRIDFORMAT_END
 95
        8
302
GRIDFORMAT
  1
GRIDFORMAT_BEGIN
 90
        0
 91
        1
 62
     0
 92
       -2
340
14
 93
        0
 40
0.045
309
GRIDFORMAT_END
 95
       16
302
GRIDFORMAT
  1
GRIDFORMAT_BEGIN
 90
        0
 91
        1
 62
     0
 92
       -2
340
14
 93
        0
 40
0.045
309
GRIDFORMAT_END
 95
       32
302
GRIDFORMAT
  1
GRIDFORMAT_BEGIN
 90
        0
 91
        1
 62
     0
 92
       -2
340
14
 93
        0
 40
0.045
309
GRIDFORMAT_END
309
TABLEFORMAT_END
  1
CELLSTYLE_BEGIN
 90
        3
 91
        2
300
_DATA
309
CELLSTYLE_END
  0
XRECORD
  5
42E
102
{ACAD_REACTORS
330
42D
102
}
330
42D
100
AcDbXrecord
280
     1
102
ACAD_ROUNDTRIP_PRE2007_TABLESTYLE
 90
        4
 91
        0
  1

 92
        4
 93
        0
  2

 94
        4
 95
        0
  3

  0
XRECORD
  5
400
102
{ACAD_REACTORS
330
3FF
102
}
330
3FF
100
AcDbXrecord
280
     1
102
RTVSPropertyOp0
 70
     1
102
RTVSPropertyOp1
 70
     1
102
RTVSPropertyOp2
 70
     1
102
RTVSPropertyOp3
 70
     1
102
RTVSPropertyOp4
 70
     1
102
RTVSPropertyOp5
 70
     1
102
RTVSPropertyOp6
 70
     1
102
RTVSPropertyOp7
 70
     1
102
RTVSPropertyOp8
 70
     1
102
RTVSPropertyOp9
 70
     1
102
RTVSPropertyOp10
 70
     1
102
RTVSPropertyOp11
 70
     1
102
RTVSPropertyOp12
 70
     1
102
RTVSPropertyOp13
 70
     1
102
RTVSPropertyOp14
 70
     1
102
RTVSPropertyOp15
 70
     1
102
RTVSPropertyOp16
 70
     1
102
RTVSPropertyOp17
 70
     1
102
RTVSPropertyOp18
 70
     1
102
RTVSPropertyOp19
 70
     1
102
RTVSPropertyOp20
 70
     1
102
RTVSPropertyOp21
 70
     1
102
RTVSPropertyOp22
 70
     1
102
RTVSPropertyOp23
 70
     1
102
RTVSPropertyOp24
 70
     1
102
RTVSPropertyOp25
 70
     1
102
RTVSPropertyOp26
 70
     1
102
RTVSPropertyOp27
 70
     1
102
RTVSPropertyOp28
 70
     1
102
RTVSPropertyOp29
 70
     1
102
RTVSPropertyOp30
 70
     1
102
RTVSPropertyOp31
 70
     1
102
RTVSPropertyOp32
 70
     1
102
RTVSPropertyOp33
 70
     1
102
RTVSPropertyOp34
 70
     1
102
RTVSPropertyOp35
 70
     1
102
RTVSPropertyOp36
 70
     1
102
RTVSPropertyOp37
 70
     1
102
RTVSPropertyOp38
 70
     1
102
RTVSPropertyOp39
 70
     1
102
RTVSPropertyOp40
 70
     1
102
RTVSPropertyOp41
 70
     1
102
RTVSPropertyOp42
 70
     1
102
RTVSPropertyOp43
 70
     1
102
RTVSPropertyOp44
 70
     1
102
RTVSPropertyOp45
 70
     1
102
RTVSPropertyOp46
 70
     1
102
RTVSPropertyOp47
 70
     1
102
RTVSPropertyOp48
 70
     1
102
RTVSPropertyOp49
 70
     1
102
RTVSPropertyOp50
 70
     1
102
RTVSPropertyOp51
 70
     0
102
RTVSPropertyOp52
 70
     0
102
RTVSPropertyOp53
 70
     1
102
RTVSPropertyOp54
 70
     1
102
RTVSPropertyOp55
 70
     1
102
RTVSPropertyOp56
 70
     1
102
RTVSPropertyOp57
 70
     1
102
RTVSPost2010Prop28
280
     1
102
RTVSPost2010PropOp28
 70
     1
102
RTVSPost2010Prop29
280
     1
102
RTVSPost2010PropOp29
 70
     1
102
RTVSPost2010Prop30
280
     0
102
RTVSPost2010PropOp30
 70
     1
102
RTVSPost2010Prop31
280
     0
102
RTVSPost2010PropOp31
 70
     1
102
RTVSPost2010Prop32
280
     0
102
RTVSPost2010PropOp32
 70
     1
102
RTVSPost2010Prop33
280
     0
102
RTVSPost2010PropOp33
 70
     1
102
RTVSPost2010Prop34
280
     0
102
RTVSPost2010PropOp34
 70
     1
102
RTVSPost2010Prop35
280
     0
102
RTVSPost2010PropOp35
 70
     1
102
RTVSPost2010Prop36
280
     0
102
RTVSPost2010PropOp36
 70
     1
102
RTVSPost2010Prop37
 90
       50
102
RTVSPost2010PropOp37
 70
     1
102
RTVSPost2010Prop38
140
0.0
102
RTVSPost2010PropOp38
 70
     1
102
RTVSPost2010Prop39
140
1.0
102
RTVSPost2010PropOp39
 70
     1
102
RTVSPost2010Prop40
 90
        0
102
RTVSPost2010PropOp40
 70
     1
102
RTVSPost2010Prop41ColorIndex
 90
       18
102
RTVSPost2010Prop41ColorRGB
 90
        0
102
RTVSPost2010PropOp41
 70
     1
102
RTVSPost2010Prop42
 90
       50
102
RTVSPost2010PropOp42
 70
     1
102
RTVSPost2010Prop43
 90
        3
102
RTVSPost2010PropOp43
 70
     1
102
RTVSPost2010Prop44ColorIndex
 90
        5
102
RTVSPost2010Prop44ColorRGB
 90
      255
102
RTVSPost2010PropOp44
 70
     1
102
RTVSPost2010Prop45
280
     0
102
RTVSPost2010PropOp45
 70
     1
102
RTVSPost2010Prop46
 90
       50
102
RTVSPost2010PropOp46
 70
     1
102
RTVSPost2010Prop47
 90
       50
102
RTVSPost2010PropOp47
 70
     1
102
RTVSPost2010Prop48
 90
       50
102
RTVSPost2010PropOp48
 70
     1
102
RTVSPost2010Prop49
280
     0
102
RTVSPost2010PropOp49
 70
     1
102
RTVSPost2010Prop50
 90
       50
102
RTVSPost2010PropOp50
 70
     1
102
RTVSPost2010Prop51ColorIndex
 90
      256
102
RTVSPost2010Prop51ColorRGB
 90
-16777216
102
RTVSPost2010PropOp51
 70
     0
102
RTVSPost2010Prop52
140
1.0
102
RTVSPost2010PropOp52
 70
     0
102
RTVSPost2010Prop53
 90
        2
102
RTVSPost2010PropOp53
 70
     1
102
RTVSPost2010Prop54
  1
strokes_ogs.tif
102
RTVSPost2010PropOp54
 70
     1
102
RTVSPost2010Prop55
280
     0
102
RTVSPost2010PropOp55
 70
     1
102
RTVSPost2010Prop56
140
1.0
102
RTVSPost2010PropOp56
 70
     1
102
RTVSPost2010Prop57
140
1.0
102
RTVSPost2010PropOp57
 70
     1
  0
XRECORD
  5
406
102
{ACAD_REACTORS
330
405
102
}
330
405
100
AcDbXrecord
280
     1
102
RTVSPropertyOp0
 70
     1
102
RTVSPropertyOp1
 70
     1
102
RTVSPropertyOp2
 70
     1
102
RTVSPropertyOp3
 70
     1
102
RTVSPropertyOp4
 70
     1
102
RTVSPropertyOp5
 70
     1
102
RTVSPropertyOp6
 70
     1
102
RTVSPropertyOp7
 70
     1
102
RTVSPropertyOp8
 70
     1
102
RTVSPropertyOp9
 70
     1
102
RTVSPropertyOp10
 70
     1
102
RTVSPropertyOp11
 70
     1
102
RTVSPropertyOp12
 70
     1
102
RTVSPropertyOp13
 70
     1
102
RTVSPropertyOp14
 70
     1
102
RTVSPropertyOp15
 70
     1
102
RTVSPropertyOp16
 70
     1
102
RTVSPropertyOp17
 70
     1
102
RTVSPropertyOp18
 70
     1
102
RTVSPropertyOp19
 70
     1
102
RTVSPropertyOp20
 70
     1
102
RTVSPropertyOp21
 70
     1
102
RTVSPropertyOp22
 70
     1
102
RTVSPropertyOp23
 70
     1
102
RTVSPropertyOp24
 70
     1
102
RTVSPropertyOp25
 70
     1
102
RTVSPropertyOp26
 70
     1
102
RTVSPropertyOp27
 70
     1
102
RTVSPropertyOp28
 70
     1
102
RTVSPropertyOp29
 70
     1
102
RTVSPropertyOp30
 70
     1
102
RTVSPropertyOp31
 70
     1
102
RTVSPropertyOp32
 70
     1
102
RTVSPropertyOp33
 70
     1
102
RTVSPropertyOp34
 70
     1
102
RTVSPropertyOp35
 70
     1
102
RTVSPropertyOp36
 70
     1
102
RTVSPropertyOp37
 70
     1
102
RTVSPropertyOp38
 70
     1
102
RTVSPropertyOp39
 70
     1
102
RTVSPropertyOp40
 70
     1
102
RTVSPropertyOp41
 70
     1
102
RTVSPropertyOp42
 70
     1
102
RTVSPropertyOp43
 70
     1
102
RTVSPropertyOp44
 70
     1
102
RTVSPropertyOp45
 70
     1
102
RTVSPropertyOp46
 70
     1
102
RTVSPropertyOp47
 70
     1
102
RTVSPropertyOp48
 70
     1
102
RTVSPropertyOp49
 70
     1
102
RTVSPropertyOp50
 70
     1
102
RTVSPropertyOp51
 70
     0
102
RTVSPropertyOp52
 70
     0
102
RTVSPropertyOp53
 70
     1
102
RTVSPropertyOp54
 70
     1
102
RTVSPropertyOp55
 70
     1
102
RTVSPropertyOp56
 70
     1
102
RTVSPropertyOp57
 70
     1
102
RTVSPost2010Prop28
280
     0
102
RTVSPost2010PropOp28
 70
     1
102
RTVSPost2010Prop29
280
     1
102
RTVSPost2010PropOp29
 70
     1
102
RTVSPost2010Prop30
280
     1
102
RTVSPost2010PropOp30
 70
     1
102
RTVSPost2010Prop31
280
     0
102
RTVSPost2010PropOp31
 70
     1
102
RTVSPost2010Prop32
280
     0
102
RTVSPost2010PropOp32
 70
     1
102
RTVSPost2010Prop33
280
     0
102
RTVSPost2010PropOp33
 70
     1
102
RTVSPost2010Prop34
280
     0
102
RTVSPost2010PropOp34
 70
     1
102
RTVSPost2010Prop35
280
     0
102
RTVSPost2010PropOp35
 70
     1
102
RTVSPost2010Prop36
280
     0
102
RTVSPost2010PropOp36
 70
     1
102
RTVSPost2010Prop37
 90
       50
102
RTVSPost2010PropOp37
 70
     1
102
RTVSPost2010Prop38
140
0.0
102
RTVSPost2010PropOp38
 70
     1
102
RTVSPost2010Prop39
140
1.0
102
RTVSPost2010PropOp39
 70
     1
102
RTVSPost2010Prop40
 90
        0
102
RTVSPost2010PropOp40
 70
     1
102
RTVSPost2010Prop41ColorIndex
 90
       18
102
RTVSPost2010Prop41ColorRGB
 90
        0
102
RTVSPost2010PropOp41
 70
     1
102
RTVSPost2010Prop42
 90
       50
102
RTVSPost2010PropOp42
 70
     1
102
RTVSPost2010Prop43
 90
        3
102
RTVSPost2010PropOp43
 70
     1
102
RTVSPost2010Prop44ColorIndex
 90
        5
102
RTVSPost2010Prop44ColorRGB
 90
      255
102
RTVSPost2010PropOp44
 70
     1
102
RTVSPost2010Prop45
280
     0
102
RTVSPost2010PropOp45
 70
     1
102
RTVSPost2010Prop46
 90
       50
102
RTVSPost2010PropOp46
 70
     1
102
RTVSPost2010Prop47
 90
       50
102
RTVSPost2010PropOp47
 70
     1
102
RTVSPost2010Prop48
 90
       50
102
RTVSPost2010PropOp48
 70
     1
102
RTVSPost2010Prop49
280
     0
102
RTVSPost2010PropOp49
 70
     1
102
RTVSPost2010Prop50
 90
       50
102
RTVSPost2010PropOp50
 70
     1
102
RTVSPost2010Prop51ColorIndex
 90
      256
102
RTVSPost2010Prop51ColorRGB
 90
-16777216
102
RTVSPost2010PropOp51
 70
     0
102
RTVSPost2010Prop52
140
1.0
102
RTVSPost2010PropOp52
 70
     0
102
RTVSPost2010Prop53
 90
        2
102
RTVSPost2010PropOp53
 70
     1
102
RTVSPost2010Prop54
  1
strokes_ogs.tif
102
RTVSPost2010PropOp54
 70
     1
102
RTVSPost2010Prop55
280
     0
102
RTVSPost2010PropOp55
 70
     1
102
RTVSPost2010Prop56
140
1.0
102
RTVSPost2010PropOp56
 70
     1
102
RTVSPost2010Prop57
140
1.0
102
RTVSPost2010PropOp57
 70
     1
  0
XRECORD
  5
40E
102
{ACAD_REACTORS
330
40D
102
}
330
40D
100
AcDbXrecord
280
     1
102
RTVSPropertyOp0
 70
     1
102
RTVSPropertyOp1
 70
     1
102
RTVSPropertyOp2
 70
     1
102
RTVSPropertyOp3
 70
     1
102
RTVSPropertyOp4
 70
     1
102
RTVSPropertyOp5
 70
     1
102
RTVSPropertyOp6
 70
     1
102
RTVSPropertyOp7
 70
     1
102
RTVSPropertyOp8
 70
     1
102
RTVSPropertyOp9
 70
     1
102
RTVSPropertyOp10
 70
     1
102
RTVSPropertyOp11
 70
     1
102
RTVSPropertyOp12
 70
     1
102
RTVSPropertyOp13
 70
     1
102
RTVSPropertyOp14
 70
     1
102
RTVSPropertyOp15
 70
     1
102
RTVSPropertyOp16
 70
     1
102
RTVSPropertyOp17
 70
     1
102
RTVSPropertyOp18
 70
     1
102
RTVSPropertyOp19
 70
     1
102
RTVSPropertyOp20
 70
     1
102
RTVSPropertyOp21
 70
     1
102
RTVSPropertyOp22
 70
     1
102
RTVSPropertyOp23
 70
     1
102
RTVSPropertyOp24
 70
     1
102
RTVSPropertyOp25
 70
     1
102
RTVSPropertyOp26
 70
     1
102
RTVSPropertyOp27
 70
     1
102
RTVSPropertyOp28
 70
     1
102
RTVSPropertyOp29
 70
     1
102
RTVSPropertyOp30
 70
     1
102
RTVSPropertyOp31
 70
     1
102
RTVSPropertyOp32
 70
     1
102
RTVSPropertyOp33
 70
     1
102
RTVSPropertyOp34
 70
     1
102
RTVSPropertyOp35
 70
     1
102
RTVSPropertyOp36
 70
     1
102
RTVSPropertyOp37
 70
     1
102
RTVSPropertyOp38
 70
     1
102
RTVSPropertyOp39
 70
     1
102
RTVSPropertyOp40
 70
     1
102
RTVSPropertyOp41
 70
     1
102
RTVSPropertyOp42
 70
     1
102
RTVSPropertyOp43
 70
     1
102
RTVSPropertyOp44
 70
     1
102
RTVSPropertyOp45
 70
     1
102
RTVSPropertyOp46
 70
     1
102
RTVSPropertyOp47
 70
     1
102
RTVSPropertyOp48
 70
     1
102
RTVSPropertyOp49
 70
     1
102
RTVSPropertyOp50
 70
     1
102
RTVSPropertyOp51
 70
     0
102
RTVSPropertyOp52
 70
     0
102
RTVSPropertyOp53
 70
     1
102
RTVSPropertyOp54
 70
     1
102
RTVSPropertyOp55
 70
     1
102
RTVSPropertyOp56
 70
     1
102
RTVSPropertyOp57
 70
     1
102
RTVSPost2010Prop28
280
     0
102
RTVSPost2010PropOp28
 70
     1
102
RTVSPost2010Prop29
280
     1
102
RTVSPost2010PropOp29
 70
     1
102
RTVSPost2010Prop30
280
     1
102
RTVSPost2010PropOp30
 70
     1
102
RTVSPost2010Prop31
280
     0
102
RTVSPost2010PropOp31
 70
     1
102
RTVSPost2010Prop32
280
     0
102
RTVSPost2010PropOp32
 70
     1
102
RTVSPost2010Prop33
280
     0
102
RTVSPost2010PropOp33
 70
     1
102
RTVSPost2010Prop34
280
     0
102
RTVSPost2010PropOp34
 70
     1
102
RTVSPost2010Prop35
280
     0
102
RTVSPost2010PropOp35
 70
     1
102
RTVSPost2010Prop36
280
     0
102
RTVSPost2010PropOp36
 70
     1
102
RTVSPost2010Prop37
 90
       50
102
RTVSPost2010PropOp37
 70
     1
102
RTVSPost2010Prop38
140
0.0
102
RTVSPost2010PropOp38
 70
     1
102
RTVSPost2010Prop39
140
1.0
102
RTVSPost2010PropOp39
 70
     1
102
RTVSPost2010Prop40
 90
        0
102
RTVSPost2010PropOp40
 70
     1
102
RTVSPost2010Prop41ColorIndex
 90
       18
102
RTVSPost2010Prop41ColorRGB
 90
        0
102
RTVSPost2010PropOp41
 70
     1
102
RTVSPost2010Prop42
 90
       50
102
RTVSPost2010PropOp42
 70
     1
102
RTVSPost2010Prop43
 90
        3
102
RTVSPost2010PropOp43
 70
     1
102
RTVSPost2010Prop44ColorIndex
 90
        5
102
RTVSPost2010Prop44ColorRGB
 90
      255
102
RTVSPost2010PropOp44
 70
     1
102
RTVSPost2010Prop45
280
     0
102
RTVSPost2010PropOp45
 70
     1
102
RTVSPost2010Prop46
 90
       50
102
RTVSPost2010PropOp46
 70
     1
102
RTVSPost2010Prop47
 90
       50
102
RTVSPost2010PropOp47
 70
     1
102
RTVSPost2010Prop48
 90
       50
102
RTVSPost2010PropOp48
 70
     1
102
RTVSPost2010Prop49
280
     0
102
RTVSPost2010PropOp49
 70
     1
102
RTVSPost2010Prop50
 90
       50
102
RTVSPost2010PropOp50
 70
     1
102
RTVSPost2010Prop51ColorIndex
 90
      256
102
RTVSPost2010Prop51ColorRGB
 90
-16777216
102
RTVSPost2010PropOp51
 70
     0
102
RTVSPost2010Prop52
140
1.0
102
RTVSPost2010PropOp52
 70
     0
102
RTVSPost2010Prop53
 90
        2
102
RTVSPost2010PropOp53
 70
     1
102
RTVSPost2010Prop54
  1
strokes_ogs.tif
102
RTVSPost2010PropOp54
 70
     1
102
RTVSPost2010Prop55
280
     0
102
RTVSPost2010PropOp55
 70
     1
102
RTVSPost2010Prop56
140
1.0
102
RTVSPost2010PropOp56
 70
     1
102
RTVSPost2010Prop57
140
1.0
102
RTVSPost2010PropOp57
 70
     1
  0
XRECORD
  5
416
102
{ACAD_REACTORS
330
415
102
}
330
415
100
AcDbXrecord
280
     1
102
RTVSPropertyOp0
 70
     1
102
RTVSPropertyOp1
 70
     1
102
RTVSPropertyOp2
 70
     1
102
RTVSPropertyOp3
 70
     1
102
RTVSPropertyOp4
 70
     1
102
RTVSPropertyOp5
 70
     1
102
RTVSPropertyOp6
 70
     1
102
RTVSPropertyOp7
 70
     1
102
RTVSPropertyOp8
 70
     1
102
RTVSPropertyOp9
 70
     1
102
RTVSPropertyOp10
 70
     1
102
RTVSPropertyOp11
 70
     1
102
RTVSPropertyOp12
 70
     1
102
RTVSPropertyOp13
 70
     1
102
RTVSPropertyOp14
 70
     1
102
RTVSPropertyOp15
 70
     1
102
RTVSPropertyOp16
 70
     1
102
RTVSPropertyOp17
 70
     1
102
RTVSPropertyOp18
 70
     1
102
RTVSPropertyOp19
 70
     1
102
RTVSPropertyOp20
 70
     1
102
RTVSPropertyOp21
 70
     1
102
RTVSPropertyOp22
 70
     1
102
RTVSPropertyOp23
 70
     1
102
RTVSPropertyOp24
 70
     1
102
RTVSPropertyOp25
 70
     1
102
RTVSPropertyOp26
 70
     1
102
RTVSPropertyOp27
 70
     1
102
RTVSPropertyOp28
 70
     1
102
RTVSPropertyOp29
 70
     1
102
RTVSPropertyOp30
 70
     1
102
RTVSPropertyOp31
 70
     1
102
RTVSPropertyOp32
 70
     1
102
RTVSPropertyOp33
 70
     1
102
RTVSPropertyOp34
 70
     1
102
RTVSPropertyOp35
 70
     1
102
RTVSPropertyOp36
 70
     1
102
RTVSPropertyOp37
 70
     1
102
RTVSPropertyOp38
 70
     1
102
RTVSPropertyOp39
 70
     1
102
RTVSPropertyOp40
 70
     1
102
RTVSPropertyOp41
 70
     1
102
RTVSPropertyOp42
 70
     1
102
RTVSPropertyOp43
 70
     1
102
RTVSPropertyOp44
 70
     1
102
RTVSPropertyOp45
 70
     1
102
RTVSPropertyOp46
 70
     1
102
RTVSPropertyOp47
 70
     1
102
RTVSPropertyOp48
 70
     1
102
RTVSPropertyOp49
 70
     1
102
RTVSPropertyOp50
 70
     1
102
RTVSPropertyOp51
 70
     0
102
RTVSPropertyOp52
 70
     0
102
RTVSPropertyOp53
 70
     1
102
RTVSPropertyOp54
 70
     1
102
RTVSPropertyOp55
 70
     1
102
RTVSPropertyOp56
 70
     1
102
RTVSPropertyOp57
 70
     1
102
RTVSPost2010Prop28
280
     0
102
RTVSPost2010PropOp28
 70
     1
102
RTVSPost2010Prop29
280
     1
102
RTVSPost2010PropOp29
 70
     1
102
RTVSPost2010Prop30
280
     1
102
RTVSPost2010PropOp30
 70
     1
102
RTVSPost2010Prop31
280
     0
102
RTVSPost2010PropOp31
 70
     1
102
RTVSPost2010Prop32
280
     0
102
RTVSPost2010PropOp32
 70
     1
102
RTVSPost2010Prop33
280
     0
102
RTVSPost2010PropOp33
 70
     1
102
RTVSPost2010Prop34
280
     0
102
RTVSPost2010PropOp34
 70
     1
102
RTVSPost2010Prop35
280
     0
102
RTVSPost2010PropOp35
 70
     1
102
RTVSPost2010Prop36
280
     0
102
RTVSPost2010PropOp36
 70
     1
102
RTVSPost2010Prop37
 90
       50
102
RTVSPost2010PropOp37
 70
     1
102
RTVSPost2010Prop38
140
0.0
102
RTVSPost2010PropOp38
 70
     1
102
RTVSPost2010Prop39
140
1.0
102
RTVSPost2010PropOp39
 70
     1
102
RTVSPost2010Prop40
 90
        0
102
RTVSPost2010PropOp40
 70
     1
102
RTVSPost2010Prop41ColorIndex
 90
       18
102
RTVSPost2010Prop41ColorRGB
 90
        0
102
RTVSPost2010PropOp41
 70
     1
102
RTVSPost2010Prop42
 90
       50
102
RTVSPost2010PropOp42
 70
     1
102
RTVSPost2010Prop43
 90
        3
102
RTVSPost2010PropOp43
 70
     1
102
RTVSPost2010Prop44ColorIndex
 90
        5
102
RTVSPost2010Prop44ColorRGB
 90
      255
102
RTVSPost2010PropOp44
 70
     1
102
RTVSPost2010Prop45
280
     0
102
RTVSPost2010PropOp45
 70
     1
102
RTVSPost2010Prop46
 90
       50
102
RTVSPost2010PropOp46
 70
     1
102
RTVSPost2010Prop47
 90
       50
102
RTVSPost2010PropOp47
 70
     1
102
RTVSPost2010Prop48
 90
       50
102
RTVSPost2010PropOp48
 70
     1
102
RTVSPost2010Prop49
280
     0
102
RTVSPost2010PropOp49
 70
     1
102
RTVSPost2010Prop50
 90
       50
102
RTVSPost2010PropOp50
 70
     1
102
RTVSPost2010Prop51ColorIndex
 90
      256
102
RTVSPost2010Prop51ColorRGB
 90
-16777216
102
RTVSPost2010PropOp51
 70
     0
102
RTVSPost2010Prop52
140
1.0
102
RTVSPost2010PropOp52
 70
     0
102
RTVSPost2010Prop53
 90
        2
102
RTVSPost2010PropOp53
 70
     1
102
RTVSPost2010Prop54
  1
strokes_ogs.tif
102
RTVSPost2010PropOp54
 70
     1
102
RTVSPost2010Prop55
280
     0
102
RTVSPost2010PropOp55
 70
     1
102
RTVSPost2010Prop56
140
1.0
102
RTVSPost2010PropOp56
 70
     1
102
RTVSPost2010Prop57
140
1.0
102
RTVSPost2010PropOp57
 70
     1
  0
XRECORD
  5
40A
102
{ACAD_REACTORS
330
409
102
}
330
409
100
AcDbXrecord
280
     1
102
RTVSPropertyOp0
 70
     1
102
RTVSPropertyOp1
 70
     1
102
RTVSPropertyOp2
 70
     1
102
RTVSPropertyOp3
 70
     1
102
RTVSPropertyOp4
 70
     1
102
RTVSPropertyOp5
 70
     1
102
RTVSPropertyOp6
 70
     1
102
RTVSPropertyOp7
 70
     1
102
RTVSPropertyOp8
 70
     1
102
RTVSPropertyOp9
 70
     1
102
RTVSPropertyOp10
 70
     1
102
RTVSPropertyOp11
 70
     1
102
RTVSPropertyOp12
 70
     1
102
RTVSPropertyOp13
 70
     1
102
RTVSPropertyOp14
 70
     1
102
RTVSPropertyOp15
 70
     1
102
RTVSPropertyOp16
 70
     1
102
RTVSPropertyOp17
 70
     1
102
RTVSPropertyOp18
 70
     1
102
RTVSPropertyOp19
 70
     1
102
RTVSPropertyOp20
 70
     1
102
RTVSPropertyOp21
 70
     1
102
RTVSPropertyOp22
 70
     1
102
RTVSPropertyOp23
 70
     1
102
RTVSPropertyOp24
 70
     1
102
RTVSPropertyOp25
 70
     1
102
RTVSPropertyOp26
 70
     1
102
RTVSPropertyOp27
 70
     1
102
RTVSPropertyOp28
 70
     1
102
RTVSPropertyOp29
 70
     1
102
RTVSPropertyOp30
 70
     1
102
RTVSPropertyOp31
 70
     1
102
RTVSPropertyOp32
 70
     1
102
RTVSPropertyOp33
 70
     1
102
RTVSPropertyOp34
 70
     1
102
RTVSPropertyOp35
 70
     1
102
RTVSPropertyOp36
 70
     1
102
RTVSPropertyOp37
 70
     1
102
RTVSPropertyOp38
 70
     1
102
RTVSPropertyOp39
 70
     1
102
RTVSPropertyOp40
 70
     1
102
RTVSPropertyOp41
 70
     1
102
RTVSPropertyOp42
 70
     1
102
RTVSPropertyOp43
 70
     1
102
RTVSPropertyOp44
 70
     1
102
RTVSPropertyOp45
 70
     1
102
RTVSPropertyOp46
 70
     1
102
RTVSPropertyOp47
 70
     1
102
RTVSPropertyOp48
 70
     1
102
RTVSPropertyOp49
 70
     1
102
RTVSPropertyOp50
 70
     1
102
RTVSPropertyOp51
 70
     0
102
RTVSPropertyOp52
 70
     0
102
RTVSPropertyOp53
 70
     1
102
RTVSPropertyOp54
 70
     1
102
RTVSPropertyOp55
 70
     1
102
RTVSPropertyOp56
 70
     1
102
RTVSPropertyOp57
 70
     1
102
RTVSPost2010Prop28
280
     0
102
RTVSPost2010PropOp28
 70
     1
102
RTVSPost2010Prop29
280
     1
102
RTVSPost2010PropOp29
 70
     1
102
RTVSPost2010Prop30
280
     1
102
RTVSPost2010PropOp30
 70
     1
102
RTVSPost2010Prop31
280
     0
102
RTVSPost2010PropOp31
 70
     1
102
RTVSPost2010Prop32
280
     0
102
RTVSPost2010PropOp32
 70
     1
102
RTVSPost2010Prop33
280
     0
102
RTVSPost2010PropOp33
 70
     1
102
RTVSPost2010Prop34
280
     0
102
RTVSPost2010PropOp34
 70
     1
102
RTVSPost2010Prop35
280
     0
102
RTVSPost2010PropOp35
 70
     1
102
RTVSPost2010Prop36
280
     0
102
RTVSPost2010PropOp36
 70
     1
102
RTVSPost2010Prop37
 90
       50
102
RTVSPost2010PropOp37
 70
     1
102
RTVSPost2010Prop38
140
0.0
102
RTVSPost2010PropOp38
 70
     1
102
RTVSPost2010Prop39
140
1.0
102
RTVSPost2010PropOp39
 70
     1
102
RTVSPost2010Prop40
 90
        0
102
RTVSPost2010PropOp40
 70
     1
102
RTVSPost2010Prop41ColorIndex
 90
       18
102
RTVSPost2010Prop41ColorRGB
 90
        0
102
RTVSPost2010PropOp41
 70
     1
102
RTVSPost2010Prop42
 90
       50
102
RTVSPost2010PropOp42
 70
     1
102
RTVSPost2010Prop43
 90
        3
102
RTVSPost2010PropOp43
 70
     1
102
RTVSPost2010Prop44ColorIndex
 90
        5
102
RTVSPost2010Prop44ColorRGB
 90
      255
102
RTVSPost2010PropOp44
 70
     1
102
RTVSPost2010Prop45
280
     0
102
RTVSPost2010PropOp45
 70
     1
102
RTVSPost2010Prop46
 90
       50
102
RTVSPost2010PropOp46
 70
     1
102
RTVSPost2010Prop47
 90
       50
102
RTVSPost2010PropOp47
 70
     1
102
RTVSPost2010Prop48
 90
       50
102
RTVSPost2010PropOp48
 70
     1
102
RTVSPost2010Prop49
280
     0
102
RTVSPost2010PropOp49
 70
     1
102
RTVSPost2010Prop50
 90
       50
102
RTVSPost2010PropOp50
 70
     1
102
RTVSPost2010Prop51ColorIndex
 90
      256
102
RTVSPost2010Prop51ColorRGB
 90
-16777216
102
RTVSPost2010PropOp51
 70
     0
102
RTVSPost2010Prop52
140
1.0
102
RTVSPost2010PropOp52
 70
     0
102
RTVSPost2010Prop53
 90
        2
102
RTVSPost2010PropOp53
 70
     1
102
RTVSPost2010Prop54
  1
strokes_ogs.tif
102
RTVSPost2010PropOp54
 70
     1
102
RTVSPost2010Prop55
280
     0
102
RTVSPost2010PropOp55
 70
     1
102
RTVSPost2010Prop56
140
1.0
102
RTVSPost2010PropOp56
 70
     1
102
RTVSPost2010Prop57
140
1.0
102
RTVSPost2010PropOp57
 70
     1
  0
XRECORD
  5
40C
102
{ACAD_REACTORS
330
40B
102
}
330
40B
100
AcDbXrecord
280
     1
102
RTVSPropertyOp0
 70
     1
102
RTVSPropertyOp1
 70
     1
102
RTVSPropertyOp2
 70
     1
102
RTVSPropertyOp3
 70
     1
102
RTVSPropertyOp4
 70
     1
102
RTVSPropertyOp5
 70
     1
102
RTVSPropertyOp6
 70
     1
102
RTVSPropertyOp7
 70
     1
102
RTVSPropertyOp8
 70
     1
102
RTVSPropertyOp9
 70
     1
102
RTVSPropertyOp10
 70
     1
102
RTVSPropertyOp11
 70
     1
102
RTVSPropertyOp12
 70
     1
102
RTVSPropertyOp13
 70
     1
102
RTVSPropertyOp14
 70
     1
102
RTVSPropertyOp15
 70
     1
102
RTVSPropertyOp16
 70
     1
102
RTVSPropertyOp17
 70
     1
102
RTVSPropertyOp18
 70
     1
102
RTVSPropertyOp19
 70
     1
102
RTVSPropertyOp20
 70
     1
102
RTVSPropertyOp21
 70
     1
102
RTVSPropertyOp22
 70
     1
102
RTVSPropertyOp23
 70
     1
102
RTVSPropertyOp24
 70
     1
102
RTVSPropertyOp25
 70
     1
102
RTVSPropertyOp26
 70
     1
102
RTVSPropertyOp27
 70
     1
102
RTVSPropertyOp28
 70
     1
102
RTVSPropertyOp29
 70
     1
102
RTVSPropertyOp30
 70
     1
102
RTVSPropertyOp31
 70
     1
102
RTVSPropertyOp32
 70
     1
102
RTVSPropertyOp33
 70
     1
102
RTVSPropertyOp34
 70
     1
102
RTVSPropertyOp35
 70
     1
102
RTVSPropertyOp36
 70
     1
102
RTVSPropertyOp37
 70
     1
102
RTVSPropertyOp38
 70
     1
102
RTVSPropertyOp39
 70
     1
102
RTVSPropertyOp40
 70
     1
102
RTVSPropertyOp41
 70
     1
102
RTVSPropertyOp42
 70
     1
102
RTVSPropertyOp43
 70
     1
102
RTVSPropertyOp44
 70
     1
102
RTVSPropertyOp45
 70
     1
102
RTVSPropertyOp46
 70
     1
102
RTVSPropertyOp47
 70
     1
102
RTVSPropertyOp48
 70
     1
102
RTVSPropertyOp49
 70
     1
102
RTVSPropertyOp50
 70
     1
102
RTVSPropertyOp51
 70
     0
102
RTVSPropertyOp52
 70
     0
102
RTVSPropertyOp53
 70
     1
102
RTVSPropertyOp54
 70
     1
102
RTVSPropertyOp55
 70
     1
102
RTVSPropertyOp56
 70
     1
102
RTVSPropertyOp57
 70
     1
102
RTVSPost2010Prop28
280
     0
102
RTVSPost2010PropOp28
 70
     1
102
RTVSPost2010Prop29
280
     1
102
RTVSPost2010PropOp29
 70
     1
102
RTVSPost2010Prop30
280
     1
102
RTVSPost2010PropOp30
 70
     1
102
RTVSPost2010Prop31
280
     0
102
RTVSPost2010PropOp31
 70
     1
102
RTVSPost2010Prop32
280
     0
102
RTVSPost2010PropOp32
 70
     1
102
RTVSPost2010Prop33
280
     0
102
RTVSPost2010PropOp33
 70
     1
102
RTVSPost2010Prop34
280
     0
102
RTVSPost2010PropOp34
 70
     1
102
RTVSPost2010Prop35
280
     0
102
RTVSPost2010PropOp35
 70
     1
102
RTVSPost2010Prop36
280
     0
102
RTVSPost2010PropOp36
 70
     1
102
RTVSPost2010Prop37
 90
       50
102
RTVSPost2010PropOp37
 70
     1
102
RTVSPost2010Prop38
140
0.0
102
RTVSPost2010PropOp38
 70
     1
102
RTVSPost2010Prop39
140
1.0
102
RTVSPost2010PropOp39
 70
     1
102
RTVSPost2010Prop40
 90
        0
102
RTVSPost2010PropOp40
 70
     1
102
RTVSPost2010Prop41ColorIndex
 90
       18
102
RTVSPost2010Prop41ColorRGB
 90
        0
102
RTVSPost2010PropOp41
 70
     1
102
RTVSPost2010Prop42
 90
       50
102
RTVSPost2010PropOp42
 70
     1
102
RTVSPost2010Prop43
 90
        3
102
RTVSPost2010PropOp43
 70
     1
102
RTVSPost2010Prop44ColorIndex
 90
        5
102
RTVSPost2010Prop44ColorRGB
 90
      255
102
RTVSPost2010PropOp44
 70
     1
102
RTVSPost2010Prop45
280
     0
102
RTVSPost2010PropOp45
 70
     1
102
RTVSPost2010Prop46
 90
       50
102
RTVSPost2010PropOp46
 70
     1
102
RTVSPost2010Prop47
 90
       50
102
RTVSPost2010PropOp47
 70
     1
102
RTVSPost2010Prop48
 90
       50
102
RTVSPost2010PropOp48
 70
     1
102
RTVSPost2010Prop49
280
     0
102
RTVSPost2010PropOp49
 70
     1
102
RTVSPost2010Prop50
 90
       50
102
RTVSPost2010PropOp50
 70
     1
102
RTVSPost2010Prop51ColorIndex
 90
      256
102
RTVSPost2010Prop51ColorRGB
 90
-16777216
102
RTVSPost2010PropOp51
 70
     0
102
RTVSPost2010Prop52
140
1.0
102
RTVSPost2010PropOp52
 70
     0
102
RTVSPost2010Prop53
 90
        2
102
RTVSPost2010PropOp53
 70
     1
102
RTVSPost2010Prop54
  1
strokes_ogs.tif
102
RTVSPost2010PropOp54
 70
     1
102
RTVSPost2010Prop55
280
     0
102
RTVSPost2010PropOp55
 70
     1
102
RTVSPost2010Prop56
140
1.0
102
RTVSPost2010PropOp56
 70
     1
102
RTVSPost2010Prop57
140
1.0
102
RTVSPost2010PropOp57
 70
     1
  0
XRECORD
  5
41C
102
{ACAD_REACTORS
330
41B
102
}
330
41B
100
AcDbXrecord
280
     1
102
RTVSPropertyOp0
 70
     0
102
RTVSPropertyOp1
 70
     0
102
RTVSPropertyOp2
 70
     0
102
RTVSPropertyOp3
 70
     0
102
RTVSPropertyOp4
 70
     0
102
RTVSPropertyOp5
 70
     0
102
RTVSPropertyOp6
 70
     0
102
RTVSPropertyOp7
 70
     0
102
RTVSPropertyOp8
 70
     0
102
RTVSPropertyOp9
 70
     0
102
RTVSPropertyOp10
 70
     0
102
RTVSPropertyOp11
 70
     0
102
RTVSPropertyOp12
 70
     0
102
RTVSPropertyOp13
 70
     0
102
RTVSPropertyOp14
 70
     2
102
RTVSPropertyOp15
 70
     0
102
RTVSPropertyOp16
 70
     0
102
RTVSPropertyOp17
 70
     0
102
RTVSPropertyOp18
 70
     0
102
RTVSPropertyOp19
 70
     0
102
RTVSPropertyOp20
 70
     0
102
RTVSPropertyOp21
 70
     0
102
RTVSPropertyOp22
 70
     0
102
RTVSPropertyOp23
 70
     0
102
RTVSPropertyOp24
 70
     0
102
RTVSPropertyOp25
 70
     0
102
RTVSPropertyOp26
 70
     0
102
RTVSPropertyOp27
 70
     0
102
RTVSPropertyOp28
 70
     0
102
RTVSPropertyOp29
 70
     0
102
RTVSPropertyOp30
 70
     0
102
RTVSPropertyOp31
 70
     0
102
RTVSPropertyOp32
 70
     0
102
RTVSPropertyOp33
 70
     0
102
RTVSPropertyOp34
 70
     0
102
RTVSPropertyOp35
 70
     0
102
RTVSPropertyOp36
 70
     0
102
RTVSPropertyOp37
 70
     0
102
RTVSPropertyOp38
 70
     0
102
RTVSPropertyOp39
 70
     0
102
RTVSPropertyOp40
 70
     0
102
RTVSPropertyOp41
 70
     0
102
RTVSPropertyOp42
 70
     0
102
RTVSPropertyOp43
 70
     0
102
RTVSPropertyOp44
 70
     0
102
RTVSPropertyOp45
 70
     0
102
RTVSPropertyOp46
 70
     0
102
RTVSPropertyOp47
 70
     0
102
RTVSPropertyOp48
 70
     0
102
RTVSPropertyOp49
 70
     0
102
RTVSPropertyOp50
 70
     0
102
RTVSPropertyOp51
 70
     0
102
RTVSPropertyOp52
 70
     0
102
RTVSPropertyOp53
 70
     0
102
RTVSPropertyOp54
 70
     0
102
RTVSPropertyOp55
 70
     0
102
RTVSPropertyOp56
 70
     0
102
RTVSPropertyOp57
 70
     0
102
RTVSPost2010Prop28
280
     0
102
RTVSPost2010PropOp28
 70
     0
102
RTVSPost2010Prop29
280
     1
102
RTVSPost2010PropOp29
 70
     0
102
RTVSPost2010Prop30
280
     1
102
RTVSPost2010PropOp30
 70
     0
102
RTVSPost2010Prop31
280
     0
102
RTVSPost2010PropOp31
 70
     0
102
RTVSPost2010Prop32
280
     0
102
RTVSPost2010PropOp32
 70
     0
102
RTVSPost2010Prop33
280
     0
102
RTVSPost2010PropOp33
 70
     0
102
RTVSPost2010Prop34
280
     0
102
RTVSPost2010PropOp34
 70
     0
102
RTVSPost2010Prop35
280
     0
102
RTVSPost2010PropOp35
 70
     0
102
RTVSPost2010Prop36
280
     0
102
RTVSPost2010PropOp36
 70
     0
102
RTVSPost2010Prop37
 90
       50
102
RTVSPost2010PropOp37
 70
     0
102
RTVSPost2010Prop38
140
0.0
102
RTVSPost2010PropOp38
 70
     0
102
RTVSPost2010Prop39
140
1.0
102
RTVSPost2010PropOp39
 70
     0
102
RTVSPost2010Prop40
 90
        0
102
RTVSPost2010PropOp40
 70
     0
102
RTVSPost2010Prop41ColorIndex
 90
       18
102
RTVSPost2010Prop41ColorRGB
 90
        0
102
RTVSPost2010PropOp41
 70
     0
102
RTVSPost2010Prop42
 90
       50
102
RTVSPost2010PropOp42
 70
     0
102
RTVSPost2010Prop43
 90
        3
102
RTVSPost2010PropOp43
 70
     0
102
RTVSPost2010Prop44ColorIndex
 90
        5
102
RTVSPost2010Prop44ColorRGB
 90
      255
102
RTVSPost2010PropOp44
 70
     0
102
RTVSPost2010Prop45
280
     0
102
RTVSPost2010PropOp45
 70
     0
102
RTVSPost2010Prop46
 90
       50
102
RTVSPost2010PropOp46
 70
     0
102
RTVSPost2010Prop47
 90
       50
102
RTVSPost2010PropOp47
 70
     0
102
RTVSPost2010Prop48
 90
       50
102
RTVSPost2010PropOp48
 70
     0
102
RTVSPost2010Prop49
280
     0
102
RTVSPost2010PropOp49
 70
     0
102
RTVSPost2010Prop50
 90
       50
102
RTVSPost2010PropOp50
 70
     0
102
RTVSPost2010Prop51ColorIndex
 90
      256
102
RTVSPost2010Prop51ColorRGB
 90
-16777216
102
RTVSPost2010PropOp51
 70
     0
102
RTVSPost2010Prop52
140
1.0
102
RTVSPost2010PropOp52
 70
     0
102
RTVSPost2010Prop53
 90
        2
102
RTVSPost2010PropOp53
 70
     0
102
RTVSPost2010Prop54
  1
strokes_ogs.tif
102
RTVSPost2010PropOp54
 70
     0
102
RTVSPost2010Prop55
280
     0
102
RTVSPost2010PropOp55
 70
     0
102
RTVSPost2010Prop56
140
1.0
102
RTVSPost2010PropOp56
 70
     0
102
RTVSPost2010Prop57
140
1.0
102
RTVSPost2010PropOp57
 70
     0
  0
XRECORD
  5
414
102
{ACAD_REACTORS
330
413
102
}
330
413
100
AcDbXrecord
280
     1
102
RTVSPropertyOp0
 70
     1
102
RTVSPropertyOp1
 70
     1
102
RTVSPropertyOp2
 70
     1
102
RTVSPropertyOp3
 70
     1
102
RTVSPropertyOp4
 70
     1
102
RTVSPropertyOp5
 70
     1
102
RTVSPropertyOp6
 70
     1
102
RTVSPropertyOp7
 70
     1
102
RTVSPropertyOp8
 70
     1
102
RTVSPropertyOp9
 70
     1
102
RTVSPropertyOp10
 70
     1
102
RTVSPropertyOp11
 70
     1
102
RTVSPropertyOp12
 70
     1
102
RTVSPropertyOp13
 70
     1
102
RTVSPropertyOp14
 70
     1
102
RTVSPropertyOp15
 70
     1
102
RTVSPropertyOp16
 70
     1
102
RTVSPropertyOp17
 70
     1
102
RTVSPropertyOp18
 70
     1
102
RTVSPropertyOp19
 70
     1
102
RTVSPropertyOp20
 70
     1
102
RTVSPropertyOp21
 70
     1
102
RTVSPropertyOp22
 70
     1
102
RTVSPropertyOp23
 70
     1
102
RTVSPropertyOp24
 70
     1
102
RTVSPropertyOp25
 70
     1
102
RTVSPropertyOp26
 70
     1
102
RTVSPropertyOp27
 70
     1
102
RTVSPropertyOp28
 70
     1
102
RTVSPropertyOp29
 70
     1
102
RTVSPropertyOp30
 70
     1
102
RTVSPropertyOp31
 70
     1
102
RTVSPropertyOp32
 70
     1
102
RTVSPropertyOp33
 70
     1
102
RTVSPropertyOp34
 70
     1
102
RTVSPropertyOp35
 70
     1
102
RTVSPropertyOp36
 70
     1
102
RTVSPropertyOp37
 70
     1
102
RTVSPropertyOp38
 70
     1
102
RTVSPropertyOp39
 70
     1
102
RTVSPropertyOp40
 70
     1
102
RTVSPropertyOp41
 70
     1
102
RTVSPropertyOp42
 70
     1
102
RTVSPropertyOp43
 70
     1
102
RTVSPropertyOp44
 70
     1
102
RTVSPropertyOp45
 70
     1
102
RTVSPropertyOp46
 70
     1
102
RTVSPropertyOp47
 70
     1
102
RTVSPropertyOp48
 70
     1
102
RTVSPropertyOp49
 70
     1
102
RTVSPropertyOp50
 70
     1
102
RTVSPropertyOp51
 70
     0
102
RTVSPropertyOp52
 70
     0
102
RTVSPropertyOp53
 70
     1
102
RTVSPropertyOp54
 70
     1
102
RTVSPropertyOp55
 70
     1
102
RTVSPropertyOp56
 70
     1
102
RTVSPropertyOp57
 70
     1
102
RTVSPost2010Prop28
280
     0
102
RTVSPost2010PropOp28
 70
     1
102
RTVSPost2010Prop29
280
     1
102
RTVSPost2010PropOp29
 70
     1
102
RTVSPost2010Prop30
280
     1
102
RTVSPost2010PropOp30
 70
     1
102
RTVSPost2010Prop31
280
     0
102
RTVSPost2010PropOp31
 70
     1
102
RTVSPost2010Prop32
280
     0
102
RTVSPost2010PropOp32
 70
     1
102
RTVSPost2010Prop33
280
     0
102
RTVSPost2010PropOp33
 70
     1
102
RTVSPost2010Prop34
280
     0
102
RTVSPost2010PropOp34
 70
     1
102
RTVSPost2010Prop35
280
     0
102
RTVSPost2010PropOp35
 70
     1
102
RTVSPost2010Prop36
280
     0
102
RTVSPost2010PropOp36
 70
     1
102
RTVSPost2010Prop37
 90
       50
102
RTVSPost2010PropOp37
 70
     1
102
RTVSPost2010Prop38
140
0.0
102
RTVSPost2010PropOp38
 70
     1
102
RTVSPost2010Prop39
140
1.0
102
RTVSPost2010PropOp39
 70
     1
102
RTVSPost2010Prop40
 90
        0
102
RTVSPost2010PropOp40
 70
     1
102
RTVSPost2010Prop41ColorIndex
 90
       18
102
RTVSPost2010Prop41ColorRGB
 90
        0
102
RTVSPost2010PropOp41
 70
     1
102
RTVSPost2010Prop42
 90
       50
102
RTVSPost2010PropOp42
 70
     1
102
RTVSPost2010Prop43
 90
        3
102
RTVSPost2010PropOp43
 70
     1
102
RTVSPost2010Prop44ColorIndex
 90
        5
102
RTVSPost2010Prop44ColorRGB
 90
      255
102
RTVSPost2010PropOp44
 70
     1
102
RTVSPost2010Prop45
280
     0
102
RTVSPost2010PropOp45
 70
     1
102
RTVSPost2010Prop46
 90
       50
102
RTVSPost2010PropOp46
 70
     1
102
RTVSPost2010Prop47
 90
       50
102
RTVSPost2010PropOp47
 70
     1
102
RTVSPost2010Prop48
 90
       50
102
RTVSPost2010PropOp48
 70
     1
102
RTVSPost2010Prop49
280
     0
102
RTVSPost2010PropOp49
 70
     1
102
RTVSPost2010Prop50
 90
       50
102
RTVSPost2010PropOp50
 70
     1
102
RTVSPost2010Prop51ColorIndex
 90
      256
102
RTVSPost2010Prop51ColorRGB
 90
-16777216
102
RTVSPost2010PropOp51
 70
     0
102
RTVSPost2010Prop52
140
1.0
102
RTVSPost2010PropOp52
 70
     0
102
RTVSPost2010Prop53
 90
        2
102
RTVSPost2010PropOp53
 70
     1
102
RTVSPost2010Prop54
  1
strokes_ogs.tif
102
RTVSPost2010PropOp54
 70
     1
102
RTVSPost2010Prop55
280
     0
102
RTVSPost2010PropOp55
 70
     1
102
RTVSPost2010Prop56
140
1.0
102
RTVSPost2010PropOp56
 70
     1
102
RTVSPost2010Prop57
140
1.0
102
RTVSPost2010PropOp57
 70
     1
  0
XRECORD
  5
3F8
102
{ACAD_REACTORS
330
3F7
102
}
330
3F7
100
AcDbXrecord
280
     1
102
RTVSPropertyOp0
 70
     1
102
RTVSPropertyOp1
 70
     1
102
RTVSPropertyOp2
 70
     1
102
RTVSPropertyOp3
 70
     1
102
RTVSPropertyOp4
 70
     1
102
RTVSPropertyOp5
 70
     1
102
RTVSPropertyOp6
 70
     1
102
RTVSPropertyOp7
 70
     1
102
RTVSPropertyOp8
 70
     1
102
RTVSPropertyOp9
 70
     1
102
RTVSPropertyOp10
 70
     1
102
RTVSPropertyOp11
 70
     1
102
RTVSPropertyOp12
 70
     1
102
RTVSPropertyOp13
 70
     1
102
RTVSPropertyOp14
 70
     1
102
RTVSPropertyOp15
 70
     1
102
RTVSPropertyOp16
 70
     1
102
RTVSPropertyOp17
 70
     1
102
RTVSPropertyOp18
 70
     1
102
RTVSPropertyOp19
 70
     1
102
RTVSPropertyOp20
 70
     1
102
RTVSPropertyOp21
 70
     1
102
RTVSPropertyOp22
 70
     1
102
RTVSPropertyOp23
 70
     1
102
RTVSPropertyOp24
 70
     1
102
RTVSPropertyOp25
 70
     1
102
RTVSPropertyOp26
 70
     1
102
RTVSPropertyOp27
 70
     1
102
RTVSPropertyOp28
 70
     1
102
RTVSPropertyOp29
 70
     1
102
RTVSPropertyOp30
 70
     1
102
RTVSPropertyOp31
 70
     1
102
RTVSPropertyOp32
 70
     1
102
RTVSPropertyOp33
 70
     1
102
RTVSPropertyOp34
 70
     1
102
RTVSPropertyOp35
 70
     1
102
RTVSPropertyOp36
 70
     1
102
RTVSPropertyOp37
 70
     1
102
RTVSPropertyOp38
 70
     1
102
RTVSPropertyOp39
 70
     1
102
RTVSPropertyOp40
 70
     1
102
RTVSPropertyOp41
 70
     1
102
RTVSPropertyOp42
 70
     1
102
RTVSPropertyOp43
 70
     1
102
RTVSPropertyOp44
 70
     1
102
RTVSPropertyOp45
 70
     1
102
RTVSPropertyOp46
 70
     1
102
RTVSPropertyOp47
 70
     1
102
RTVSPropertyOp48
 70
     1
102
RTVSPropertyOp49
 70
     1
102
RTVSPropertyOp50
 70
     1
102
RTVSPropertyOp51
 70
     0
102
RTVSPropertyOp52
 70
     0
102
RTVSPropertyOp53
 70
     1
102
RTVSPropertyOp54
 70
     1
102
RTVSPropertyOp55
 70
     1
102
RTVSPropertyOp56
 70
     1
102
RTVSPropertyOp57
 70
     1
102
RTVSPost2010Prop28
280
     0
102
RTVSPost2010PropOp28
 70
     1
102
RTVSPost2010Prop29
280
     1
102
RTVSPost2010PropOp29
 70
     1
102
RTVSPost2010Prop30
280
     1
102
RTVSPost2010PropOp30
 70
     1
102
RTVSPost2010Prop31
280
     0
102
RTVSPost2010PropOp31
 70
     1
102
RTVSPost2010Prop32
280
     0
102
RTVSPost2010PropOp32
 70
     1
102
RTVSPost2010Prop33
280
     0
102
RTVSPost2010PropOp33
 70
     1
102
RTVSPost2010Prop34
280
     0
102
RTVSPost2010PropOp34
 70
     1
102
RTVSPost2010Prop35
280
     0
102
RTVSPost2010PropOp35
 70
     1
102
RTVSPost2010Prop36
280
     0
102
RTVSPost2010PropOp36
 70
     1
102
RTVSPost2010Prop37
 90
       50
102
RTVSPost2010PropOp37
 70
     1
102
RTVSPost2010Prop38
140
0.0
102
RTVSPost2010PropOp38
 70
     1
102
RTVSPost2010Prop39
140
1.0
102
RTVSPost2010PropOp39
 70
     1
102
RTVSPost2010Prop40
 90
        0
102
RTVSPost2010PropOp40
 70
     1
102
RTVSPost2010Prop41ColorIndex
 90
       18
102
RTVSPost2010Prop41ColorRGB
 90
        0
102
RTVSPost2010PropOp41
 70
     1
102
RTVSPost2010Prop42
 90
       50
102
RTVSPost2010PropOp42
 70
     1
102
RTVSPost2010Prop43
 90
        3
102
RTVSPost2010PropOp43
 70
     1
102
RTVSPost2010Prop44ColorIndex
 90
        5
102
RTVSPost2010Prop44ColorRGB
 90
      255
102
RTVSPost2010PropOp44
 70
     1
102
RTVSPost2010Prop45
280
     0
102
RTVSPost2010PropOp45
 70
     1
102
RTVSPost2010Prop46
 90
       50
102
RTVSPost2010PropOp46
 70
     1
102
RTVSPost2010Prop47
 90
       50
102
RTVSPost2010PropOp47
 70
     1
102
RTVSPost2010Prop48
 90
       50
102
RTVSPost2010PropOp48
 70
     1
102
RTVSPost2010Prop49
280
     0
102
RTVSPost2010PropOp49
 70
     1
102
RTVSPost2010Prop50
 90
       50
102
RTVSPost2010PropOp50
 70
     1
102
RTVSPost2010Prop51ColorIndex
 90
      256
102
RTVSPost2010Prop51ColorRGB
 90
-16777216
102
RTVSPost2010PropOp51
 70
     0
102
RTVSPost2010Prop52
140
1.0
102
RTVSPost2010PropOp52
 70
     0
102
RTVSPost2010Prop53
 90
        2
102
RTVSPost2010PropOp53
 70
     1
102
RTVSPost2010Prop54
  1
strokes_ogs.tif
102
RTVSPost2010PropOp54
 70
     1
102
RTVSPost2010Prop55
280
     0
102
RTVSPost2010PropOp55
 70
     1
102
RTVSPost2010Prop56
140
1.0
102
RTVSPost2010PropOp56
 70
     1
102
RTVSPost2010Prop57
140
1.0
102
RTVSPost2010PropOp57
 70
     1
  0
XRECORD
  5
3FA
102
{ACAD_REACTORS
330
3F9
102
}
330
3F9
100
AcDbXrecord
280
     1
102
RTVSPropertyOp0
 70
     1
102
RTVSPropertyOp1
 70
     1
102
RTVSPropertyOp2
 70
     1
102
RTVSPropertyOp3
 70
     1
102
RTVSPropertyOp4
 70
     1
102
RTVSPropertyOp5
 70
     1
102
RTVSPropertyOp6
 70
     1
102
RTVSPropertyOp7
 70
     1
102
RTVSPropertyOp8
 70
     1
102
RTVSPropertyOp9
 70
     1
102
RTVSPropertyOp10
 70
     1
102
RTVSPropertyOp11
 70
     1
102
RTVSPropertyOp12
 70
     1
102
RTVSPropertyOp13
 70
     1
102
RTVSPropertyOp14
 70
     1
102
RTVSPropertyOp15
 70
     1
102
RTVSPropertyOp16
 70
     1
102
RTVSPropertyOp17
 70
     1
102
RTVSPropertyOp18
 70
     1
102
RTVSPropertyOp19
 70
     1
102
RTVSPropertyOp20
 70
     1
102
RTVSPropertyOp21
 70
     1
102
RTVSPropertyOp22
 70
     1
102
RTVSPropertyOp23
 70
     1
102
RTVSPropertyOp24
 70
     1
102
RTVSPropertyOp25
 70
     1
102
RTVSPropertyOp26
 70
     1
102
RTVSPropertyOp27
 70
     1
102
RTVSPropertyOp28
 70
     1
102
RTVSPropertyOp29
 70
     1
102
RTVSPropertyOp30
 70
     1
102
RTVSPropertyOp31
 70
     1
102
RTVSPropertyOp32
 70
     1
102
RTVSPropertyOp33
 70
     1
102
RTVSPropertyOp34
 70
     1
102
RTVSPropertyOp35
 70
     1
102
RTVSPropertyOp36
 70
     1
102
RTVSPropertyOp37
 70
     1
102
RTVSPropertyOp38
 70
     1
102
RTVSPropertyOp39
 70
     1
102
RTVSPropertyOp40
 70
     1
102
RTVSPropertyOp41
 70
     1
102
RTVSPropertyOp42
 70
     1
102
RTVSPropertyOp43
 70
     1
102
RTVSPropertyOp44
 70
     1
102
RTVSPropertyOp45
 70
     1
102
RTVSPropertyOp46
 70
     1
102
RTVSPropertyOp47
 70
     1
102
RTVSPropertyOp48
 70
     1
102
RTVSPropertyOp49
 70
     1
102
RTVSPropertyOp50
 70
     1
102
RTVSPropertyOp51
 70
     0
102
RTVSPropertyOp52
 70
     0
102
RTVSPropertyOp53
 70
     1
102
RTVSPropertyOp54
 70
     1
102
RTVSPropertyOp55
 70
     1
102
RTVSPropertyOp56
 70
     1
102
RTVSPropertyOp57
 70
     1
102
RTVSPost2010Prop28
280
     0
102
RTVSPost2010PropOp28
 70
     1
102
RTVSPost2010Prop29
280
     1
102
RTVSPost2010PropOp29
 70
     1
102
RTVSPost2010Prop30
280
     1
102
RTVSPost2010PropOp30
 70
     1
102
RTVSPost2010Prop31
280
     0
102
RTVSPost2010PropOp31
 70
     1
102
RTVSPost2010Prop32
280
     0
102
RTVSPost2010PropOp32
 70
     1
102
RTVSPost2010Prop33
280
     0
102
RTVSPost2010PropOp33
 70
     1
102
RTVSPost2010Prop34
280
     0
102
RTVSPost2010PropOp34
 70
     1
102
RTVSPost2010Prop35
280
     0
102
RTVSPost2010PropOp35
 70
     1
102
RTVSPost2010Prop36
280
     0
102
RTVSPost2010PropOp36
 70
     1
102
RTVSPost2010Prop37
 90
       50
102
RTVSPost2010PropOp37
 70
     1
102
RTVSPost2010Prop38
140
0.0
102
RTVSPost2010PropOp38
 70
     1
102
RTVSPost2010Prop39
140
1.0
102
RTVSPost2010PropOp39
 70
     1
102
RTVSPost2010Prop40
 90
        0
102
RTVSPost2010PropOp40
 70
     1
102
RTVSPost2010Prop41ColorIndex
 90
       18
102
RTVSPost2010Prop41ColorRGB
 90
        0
102
RTVSPost2010PropOp41
 70
     1
102
RTVSPost2010Prop42
 90
       50
102
RTVSPost2010PropOp42
 70
     1
102
RTVSPost2010Prop43
 90
        3
102
RTVSPost2010PropOp43
 70
     1
102
RTVSPost2010Prop44ColorIndex
 90
        5
102
RTVSPost2010Prop44ColorRGB
 90
      255
102
RTVSPost2010PropOp44
 70
     1
102
RTVSPost2010Prop45
280
     0
102
RTVSPost2010PropOp45
 70
     1
102
RTVSPost2010Prop46
 90
       50
102
RTVSPost2010PropOp46
 70
     1
102
RTVSPost2010Prop47
 90
       50
102
RTVSPost2010PropOp47
 70
     1
102
RTVSPost2010Prop48
 90
       50
102
RTVSPost2010PropOp48
 70
     1
102
RTVSPost2010Prop49
280
     0
102
RTVSPost2010PropOp49
 70
     1
102
RTVSPost2010Prop50
 90
       50
102
RTVSPost2010PropOp50
 70
     1
102
RTVSPost2010Prop51ColorIndex
 90
      256
102
RTVSPost2010Prop51ColorRGB
 90
-16777216
102
RTVSPost2010PropOp51
 70
     0
102
RTVSPost2010Prop52
140
1.0
102
RTVSPost2010PropOp52
 70
     0
102
RTVSPost2010Prop53
 90
        2
102
RTVSPost2010PropOp53
 70
     1
102
RTVSPost2010Prop54
  1
strokes_ogs.tif
102
RTVSPost2010PropOp54
 70
     1
102
RTVSPost2010Prop55
280
     0
102
RTVSPost2010PropOp55
 70
     1
102
RTVSPost2010Prop56
140
1.0
102
RTVSPost2010PropOp56
 70
     1
102
RTVSPost2010Prop57
140
1.0
102
RTVSPost2010PropOp57
 70
     1
  0
XRECORD
  5
3FC
102
{ACAD_REACTORS
330
3FB
102
}
330
3FB
100
AcDbXrecord
280
     1
102
RTVSPropertyOp0
 70
     1
102
RTVSPropertyOp1
 70
     1
102
RTVSPropertyOp2
 70
     1
102
RTVSPropertyOp3
 70
     1
102
RTVSPropertyOp4
 70
     1
102
RTVSPropertyOp5
 70
     1
102
RTVSPropertyOp6
 70
     1
102
RTVSPropertyOp7
 70
     1
102
RTVSPropertyOp8
 70
     1
102
RTVSPropertyOp9
 70
     1
102
RTVSPropertyOp10
 70
     1
102
RTVSPropertyOp11
 70
     1
102
RTVSPropertyOp12
 70
     1
102
RTVSPropertyOp13
 70
     1
102
RTVSPropertyOp14
 70
     1
102
RTVSPropertyOp15
 70
     1
102
RTVSPropertyOp16
 70
     1
102
RTVSPropertyOp17
 70
     1
102
RTVSPropertyOp18
 70
     1
102
RTVSPropertyOp19
 70
     1
102
RTVSPropertyOp20
 70
     1
102
RTVSPropertyOp21
 70
     1
102
RTVSPropertyOp22
 70
     1
102
RTVSPropertyOp23
 70
     1
102
RTVSPropertyOp24
 70
     1
102
RTVSPropertyOp25
 70
     1
102
RTVSPropertyOp26
 70
     1
102
RTVSPropertyOp27
 70
     1
102
RTVSPropertyOp28
 70
     1
102
RTVSPropertyOp29
 70
     1
102
RTVSPropertyOp30
 70
     1
102
RTVSPropertyOp31
 70
     1
102
RTVSPropertyOp32
 70
     1
102
RTVSPropertyOp33
 70
     1
102
RTVSPropertyOp34
 70
     1
102
RTVSPropertyOp35
 70
     1
102
RTVSPropertyOp36
 70
     1
102
RTVSPropertyOp37
 70
     1
102
RTVSPropertyOp38
 70
     1
102
RTVSPropertyOp39
 70
     1
102
RTVSPropertyOp40
 70
     1
102
RTVSPropertyOp41
 70
     1
102
RTVSPropertyOp42
 70
     1
102
RTVSPropertyOp43
 70
     1
102
RTVSPropertyOp44
 70
     1
102
RTVSPropertyOp45
 70
     1
102
RTVSPropertyOp46
 70
     1
102
RTVSPropertyOp47
 70
     1
102
RTVSPropertyOp48
 70
     1
102
RTVSPropertyOp49
 70
     1
102
RTVSPropertyOp50
 70
     1
102
RTVSPropertyOp51
 70
     0
102
RTVSPropertyOp52
 70
     0
102
RTVSPropertyOp53
 70
     1
102
RTVSPropertyOp54
 70
     1
102
RTVSPropertyOp55
 70
     1
102
RTVSPropertyOp56
 70
     1
102
RTVSPropertyOp57
 70
     1
102
RTVSPost2010Prop28
280
     0
102
RTVSPost2010PropOp28
 70
     1
102
RTVSPost2010Prop29
280
     1
102
RTVSPost2010PropOp29
 70
     1
102
RTVSPost2010Prop30
280
     1
102
RTVSPost2010PropOp30
 70
     1
102
RTVSPost2010Prop31
280
     0
102
RTVSPost2010PropOp31
 70
     1
102
RTVSPost2010Prop32
280
     0
102
RTVSPost2010PropOp32
 70
     1
102
RTVSPost2010Prop33
280
     0
102
RTVSPost2010PropOp33
 70
     1
102
RTVSPost2010Prop34
280
     0
102
RTVSPost2010PropOp34
 70
     1
102
RTVSPost2010Prop35
280
     0
102
RTVSPost2010PropOp35
 70
     1
102
RTVSPost2010Prop36
280
     0
102
RTVSPost2010PropOp36
 70
     1
102
RTVSPost2010Prop37
 90
       50
102
RTVSPost2010PropOp37
 70
     1
102
RTVSPost2010Prop38
140
0.0
102
RTVSPost2010PropOp38
 70
     1
102
RTVSPost2010Prop39
140
1.0
102
RTVSPost2010PropOp39
 70
     1
102
RTVSPost2010Prop40
 90
        0
102
RTVSPost2010PropOp40
 70
     1
102
RTVSPost2010Prop41ColorIndex
 90
       18
102
RTVSPost2010Prop41ColorRGB
 90
        0
102
RTVSPost2010PropOp41
 70
     1
102
RTVSPost2010Prop42
 90
       50
102
RTVSPost2010PropOp42
 70
     1
102
RTVSPost2010Prop43
 90
        3
102
RTVSPost2010PropOp43
 70
     1
102
RTVSPost2010Prop44ColorIndex
 90
        5
102
RTVSPost2010Prop44ColorRGB
 90
      255
102
RTVSPost2010PropOp44
 70
     1
102
RTVSPost2010Prop45
280
     0
102
RTVSPost2010PropOp45
 70
     1
102
RTVSPost2010Prop46
 90
       50
102
RTVSPost2010PropOp46
 70
     1
102
RTVSPost2010Prop47
 90
       50
102
RTVSPost2010PropOp47
 70
     1
102
RTVSPost2010Prop48
 90
       50
102
RTVSPost2010PropOp48
 70
     1
102
RTVSPost2010Prop49
280
     0
102
RTVSPost2010PropOp49
 70
     1
102
RTVSPost2010Prop50
 90
       50
102
RTVSPost2010PropOp50
 70
     1
102
RTVSPost2010Prop51ColorIndex
 90
      256
102
RTVSPost2010Prop51ColorRGB
 90
-16777216
102
RTVSPost2010PropOp51
 70
     0
102
RTVSPost2010Prop52
140
1.0
102
RTVSPost2010PropOp52
 70
     0
102
RTVSPost2010Prop53
 90
        2
102
RTVSPost2010PropOp53
 70
     1
102
RTVSPost2010Prop54
  1
strokes_ogs.tif
102
RTVSPost2010PropOp54
 70
     1
102
RTVSPost2010Prop55
280
     0
102
RTVSPost2010PropOp55
 70
     1
102
RTVSPost2010Prop56
140
1.0
102
RTVSPost2010PropOp56
 70
     1
102
RTVSPost2010Prop57
140
1.0
102
RTVSPost2010PropOp57
 70
     1
  0
XRECORD
  5
3FE
102
{ACAD_REACTORS
330
3FD
102
}
330
3FD
100
AcDbXrecord
280
     1
102
RTVSPropertyOp0
 70
     1
102
RTVSPropertyOp1
 70
     1
102
RTVSPropertyOp2
 70
     1
102
RTVSPropertyOp3
 70
     1
102
RTVSPropertyOp4
 70
     1
102
RTVSPropertyOp5
 70
     1
102
RTVSPropertyOp6
 70
     1
102
RTVSPropertyOp7
 70
     1
102
RTVSPropertyOp8
 70
     1
102
RTVSPropertyOp9
 70
     1
102
RTVSPropertyOp10
 70
     1
102
RTVSPropertyOp11
 70
     1
102
RTVSPropertyOp12
 70
     1
102
RTVSPropertyOp13
 70
     1
102
RTVSPropertyOp14
 70
     1
102
RTVSPropertyOp15
 70
     1
102
RTVSPropertyOp16
 70
     1
102
RTVSPropertyOp17
 70
     1
102
RTVSPropertyOp18
 70
     1
102
RTVSPropertyOp19
 70
     1
102
RTVSPropertyOp20
 70
     1
102
RTVSPropertyOp21
 70
     1
102
RTVSPropertyOp22
 70
     1
102
RTVSPropertyOp23
 70
     1
102
RTVSPropertyOp24
 70
     1
102
RTVSPropertyOp25
 70
     1
102
RTVSPropertyOp26
 70
     1
102
RTVSPropertyOp27
 70
     1
102
RTVSPropertyOp28
 70
     1
102
RTVSPropertyOp29
 70
     1
102
RTVSPropertyOp30
 70
     1
102
RTVSPropertyOp31
 70
     1
102
RTVSPropertyOp32
 70
     1
102
RTVSPropertyOp33
 70
     1
102
RTVSPropertyOp34
 70
     1
102
RTVSPropertyOp35
 70
     1
102
RTVSPropertyOp36
 70
     1
102
RTVSPropertyOp37
 70
     1
102
RTVSPropertyOp38
 70
     1
102
RTVSPropertyOp39
 70
     1
102
RTVSPropertyOp40
 70
     1
102
RTVSPropertyOp41
 70
     1
102
RTVSPropertyOp42
 70
     1
102
RTVSPropertyOp43
 70
     1
102
RTVSPropertyOp44
 70
     1
102
RTVSPropertyOp45
 70
     1
102
RTVSPropertyOp46
 70
     1
102
RTVSPropertyOp47
 70
     1
102
RTVSPropertyOp48
 70
     1
102
RTVSPropertyOp49
 70
     1
102
RTVSPropertyOp50
 70
     1
102
RTVSPropertyOp51
 70
     0
102
RTVSPropertyOp52
 70
     0
102
RTVSPropertyOp53
 70
     1
102
RTVSPropertyOp54
 70
     1
102
RTVSPropertyOp55
 70
     1
102
RTVSPropertyOp56
 70
     1
102
RTVSPropertyOp57
 70
     1
102
RTVSPost2010Prop28
280
     0
102
RTVSPost2010PropOp28
 70
     1
102
RTVSPost2010Prop29
280
     1
102
RTVSPost2010PropOp29
 70
     1
102
RTVSPost2010Prop30
280
     1
102
RTVSPost2010PropOp30
 70
     1
102
RTVSPost2010Prop31
280
     0
102
RTVSPost2010PropOp31
 70
     1
102
RTVSPost2010Prop32
280
     0
102
RTVSPost2010PropOp32
 70
     1
102
RTVSPost2010Prop33
280
     0
102
RTVSPost2010PropOp33
 70
     1
102
RTVSPost2010Prop34
280
     0
102
RTVSPost2010PropOp34
 70
     1
102
RTVSPost2010Prop35
280
     0
102
RTVSPost2010PropOp35
 70
     1
102
RTVSPost2010Prop36
280
     0
102
RTVSPost2010PropOp36
 70
     1
102
RTVSPost2010Prop37
 90
       50
102
RTVSPost2010PropOp37
 70
     1
102
RTVSPost2010Prop38
140
0.0
102
RTVSPost2010PropOp38
 70
     1
102
RTVSPost2010Prop39
140
1.0
102
RTVSPost2010PropOp39
 70
     1
102
RTVSPost2010Prop40
 90
        0
102
RTVSPost2010PropOp40
 70
     1
102
RTVSPost2010Prop41ColorIndex
 90
       18
102
RTVSPost2010Prop41ColorRGB
 90
        0
102
RTVSPost2010PropOp41
 70
     1
102
RTVSPost2010Prop42
 90
       50
102
RTVSPost2010PropOp42
 70
     1
102
RTVSPost2010Prop43
 90
        3
102
RTVSPost2010PropOp43
 70
     1
102
RTVSPost2010Prop44ColorIndex
 90
        5
102
RTVSPost2010Prop44ColorRGB
 90
      255
102
RTVSPost2010PropOp44
 70
     1
102
RTVSPost2010Prop45
280
     0
102
RTVSPost2010PropOp45
 70
     1
102
RTVSPost2010Prop46
 90
       50
102
RTVSPost2010PropOp46
 70
     1
102
RTVSPost2010Prop47
 90
       50
102
RTVSPost2010PropOp47
 70
     1
102
RTVSPost2010Prop48
 90
       50
102
RTVSPost2010PropOp48
 70
     1
102
RTVSPost2010Prop49
280
     0
102
RTVSPost2010PropOp49
 70
     1
102
RTVSPost2010Prop50
 90
       50
102
RTVSPost2010PropOp50
 70
     1
102
RTVSPost2010Prop51ColorIndex
 90
      256
102
RTVSPost2010Prop51ColorRGB
 90
-16777216
102
RTVSPost2010PropOp51
 70
     0
102
RTVSPost2010Prop52
140
1.0
102
RTVSPost2010PropOp52
 70
     0
102
RTVSPost2010Prop53
 90
        2
102
RTVSPost2010PropOp53
 70
     1
102
RTVSPost2010Prop54
  1
strokes_ogs.tif
102
RTVSPost2010PropOp54
 70
     1
102
RTVSPost2010Prop55
280
     0
102
RTVSPost2010PropOp55
 70
     1
102
RTVSPost2010Prop56
140
1.0
102
RTVSPost2010PropOp56
 70
     1
102
RTVSPost2010Prop57
140
1.0
102
RTVSPost2010PropOp57
 70
     1
  0
XRECORD
  5
404
102
{ACAD_REACTORS
330
403
102
}
330
403
100
AcDbXrecord
280
     1
102
RTVSPropertyOp0
 70
     1
102
RTVSPropertyOp1
 70
     1
102
RTVSPropertyOp2
 70
     1
102
RTVSPropertyOp3
 70
     1
102
RTVSPropertyOp4
 70
     1
102
RTVSPropertyOp5
 70
     1
102
RTVSPropertyOp6
 70
     1
102
RTVSPropertyOp7
 70
     1
102
RTVSPropertyOp8
 70
     1
102
RTVSPropertyOp9
 70
     1
102
RTVSPropertyOp10
 70
     1
102
RTVSPropertyOp11
 70
     1
102
RTVSPropertyOp12
 70
     1
102
RTVSPropertyOp13
 70
     1
102
RTVSPropertyOp14
 70
     1
102
RTVSPropertyOp15
 70
     1
102
RTVSPropertyOp16
 70
     1
102
RTVSPropertyOp17
 70
     1
102
RTVSPropertyOp18
 70
     1
102
RTVSPropertyOp19
 70
     1
102
RTVSPropertyOp20
 70
     1
102
RTVSPropertyOp21
 70
     1
102
RTVSPropertyOp22
 70
     1
102
RTVSPropertyOp23
 70
     1
102
RTVSPropertyOp24
 70
     1
102
RTVSPropertyOp25
 70
     1
102
RTVSPropertyOp26
 70
     1
102
RTVSPropertyOp27
 70
     1
102
RTVSPropertyOp28
 70
     1
102
RTVSPropertyOp29
 70
     1
102
RTVSPropertyOp30
 70
     1
102
RTVSPropertyOp31
 70
     1
102
RTVSPropertyOp32
 70
     1
102
RTVSPropertyOp33
 70
     1
102
RTVSPropertyOp34
 70
     1
102
RTVSPropertyOp35
 70
     1
102
RTVSPropertyOp36
 70
     1
102
RTVSPropertyOp37
 70
     1
102
RTVSPropertyOp38
 70
     1
102
RTVSPropertyOp39
 70
     1
102
RTVSPropertyOp40
 70
     1
102
RTVSPropertyOp41
 70
     1
102
RTVSPropertyOp42
 70
     1
102
RTVSPropertyOp43
 70
     1
102
RTVSPropertyOp44
 70
     1
102
RTVSPropertyOp45
 70
     1
102
RTVSPropertyOp46
 70
     1
102
RTVSPropertyOp47
 70
     1
102
RTVSPropertyOp48
 70
     1
102
RTVSPropertyOp49
 70
     1
102
RTVSPropertyOp50
 70
     1
102
RTVSPropertyOp51
 70
     0
102
RTVSPropertyOp52
 70
     0
102
RTVSPropertyOp53
 70
     1
102
RTVSPropertyOp54
 70
     1
102
RTVSPropertyOp55
 70
     1
102
RTVSPropertyOp56
 70
     1
102
RTVSPropertyOp57
 70
     1
102
RTVSPost2010Prop28
280
     0
102
RTVSPost2010PropOp28
 70
     1
102
RTVSPost2010Prop29
280
     1
102
RTVSPost2010PropOp29
 70
     1
102
RTVSPost2010Prop30
280
     1
102
RTVSPost2010PropOp30
 70
     1
102
RTVSPost2010Prop31
280
     0
102
RTVSPost2010PropOp31
 70
     1
102
RTVSPost2010Prop32
280
     0
102
RTVSPost2010PropOp32
 70
     1
102
RTVSPost2010Prop33
280
     0
102
RTVSPost2010PropOp33
 70
     1
102
RTVSPost2010Prop34
280
     0
102
RTVSPost2010PropOp34
 70
     1
102
RTVSPost2010Prop35
280
     0
102
RTVSPost2010PropOp35
 70
     1
102
RTVSPost2010Prop36
280
     0
102
RTVSPost2010PropOp36
 70
     1
102
RTVSPost2010Prop37
 90
       50
102
RTVSPost2010PropOp37
 70
     1
102
RTVSPost2010Prop38
140
0.0
102
RTVSPost2010PropOp38
 70
     1
102
RTVSPost2010Prop39
140
1.0
102
RTVSPost2010PropOp39
 70
     1
102
RTVSPost2010Prop40
 90
        0
102
RTVSPost2010PropOp40
 70
     1
102
RTVSPost2010Prop41ColorIndex
 90
       18
102
RTVSPost2010Prop41ColorRGB
 90
        0
102
RTVSPost2010PropOp41
 70
     1
102
RTVSPost2010Prop42
 90
       50
102
RTVSPost2010PropOp42
 70
     1
102
RTVSPost2010Prop43
 90
        3
102
RTVSPost2010PropOp43
 70
     1
102
RTVSPost2010Prop44ColorIndex
 90
        5
102
RTVSPost2010Prop44ColorRGB
 90
      255
102
RTVSPost2010PropOp44
 70
     1
102
RTVSPost2010Prop45
280
     0
102
RTVSPost2010PropOp45
 70
     1
102
RTVSPost2010Prop46
 90
       50
102
RTVSPost2010PropOp46
 70
     1
102
RTVSPost2010Prop47
 90
       50
102
RTVSPost2010PropOp47
 70
     1
102
RTVSPost2010Prop48
 90
       50
102
RTVSPost2010PropOp48
 70
     1
102
RTVSPost2010Prop49
280
     0
102
RTVSPost2010PropOp49
 70
     1
102
RTVSPost2010Prop50
 90
       50
102
RTVSPost2010PropOp50
 70
     1
102
RTVSPost2010Prop51ColorIndex
 90
      256
102
RTVSPost2010Prop51ColorRGB
 90
-16777216
102
RTVSPost2010PropOp51
 70
     0
102
RTVSPost2010Prop52
140
1.0
102
RTVSPost2010PropOp52
 70
     0
102
RTVSPost2010Prop53
 90
        2
102
RTVSPost2010PropOp53
 70
     1
102
RTVSPost2010Prop54
  1
strokes_ogs.tif
102
RTVSPost2010PropOp54
 70
     1
102
RTVSPost2010Prop55
280
     0
102
RTVSPost2010PropOp55
 70
     1
102
RTVSPost2010Prop56
140
1.0
102
RTVSPost2010PropOp56
 70
     1
102
RTVSPost2010Prop57
140
1.0
102
RTVSPost2010PropOp57
 70
     1
  0
XRECORD
  5
418
102
{ACAD_REACTORS
330
417
102
}
330
417
100
AcDbXrecord
280
     1
102
RTVSPropertyOp0
 70
     0
102
RTVSPropertyOp1
 70
     0
102
RTVSPropertyOp2
 70
     0
102
RTVSPropertyOp3
 70
     0
102
RTVSPropertyOp4
 70
     0
102
RTVSPropertyOp5
 70
     0
102
RTVSPropertyOp6
 70
     0
102
RTVSPropertyOp7
 70
     0
102
RTVSPropertyOp8
 70
     0
102
RTVSPropertyOp9
 70
     0
102
RTVSPropertyOp10
 70
     0
102
RTVSPropertyOp11
 70
     0
102
RTVSPropertyOp12
 70
     0
102
RTVSPropertyOp13
 70
     0
102
RTVSPropertyOp14
 70
     2
102
RTVSPropertyOp15
 70
     0
102
RTVSPropertyOp16
 70
     0
102
RTVSPropertyOp17
 70
     0
102
RTVSPropertyOp18
 70
     0
102
RTVSPropertyOp19
 70
     0
102
RTVSPropertyOp20
 70
     0
102
RTVSPropertyOp21
 70
     0
102
RTVSPropertyOp22
 70
     0
102
RTVSPropertyOp23
 70
     0
102
RTVSPropertyOp24
 70
     0
102
RTVSPropertyOp25
 70
     0
102
RTVSPropertyOp26
 70
     0
102
RTVSPropertyOp27
 70
     0
102
RTVSPropertyOp28
 70
     0
102
RTVSPropertyOp29
 70
     0
102
RTVSPropertyOp30
 70
     0
102
RTVSPropertyOp31
 70
     0
102
RTVSPropertyOp32
 70
     0
102
RTVSPropertyOp33
 70
     0
102
RTVSPropertyOp34
 70
     0
102
RTVSPropertyOp35
 70
     0
102
RTVSPropertyOp36
 70
     0
102
RTVSPropertyOp37
 70
     0
102
RTVSPropertyOp38
 70
     0
102
RTVSPropertyOp39
 70
     0
102
RTVSPropertyOp40
 70
     0
102
RTVSPropertyOp41
 70
     0
102
RTVSPropertyOp42
 70
     0
102
RTVSPropertyOp43
 70
     0
102
RTVSPropertyOp44
 70
     0
102
RTVSPropertyOp45
 70
     0
102
RTVSPropertyOp46
 70
     0
102
RTVSPropertyOp47
 70
     0
102
RTVSPropertyOp48
 70
     0
102
RTVSPropertyOp49
 70
     0
102
RTVSPropertyOp50
 70
     0
102
RTVSPropertyOp51
 70
     0
102
RTVSPropertyOp52
 70
     0
102
RTVSPropertyOp53
 70
     0
102
RTVSPropertyOp54
 70
     0
102
RTVSPropertyOp55
 70
     0
102
RTVSPropertyOp56
 70
     0
102
RTVSPropertyOp57
 70
     0
102
RTVSPost2010Prop28
280
     0
102
RTVSPost2010PropOp28
 70
     0
102
RTVSPost2010Prop29
280
     1
102
RTVSPost2010PropOp29
 70
     0
102
RTVSPost2010Prop30
280
     1
102
RTVSPost2010PropOp30
 70
     0
102
RTVSPost2010Prop31
280
     0
102
RTVSPost2010PropOp31
 70
     0
102
RTVSPost2010Prop32
280
     0
102
RTVSPost2010PropOp32
 70
     0
102
RTVSPost2010Prop33
280
     0
102
RTVSPost2010PropOp33
 70
     0
102
RTVSPost2010Prop34
280
     0
102
RTVSPost2010PropOp34
 70
     0
102
RTVSPost2010Prop35
280
     0
102
RTVSPost2010PropOp35
 70
     0
102
RTVSPost2010Prop36
280
     0
102
RTVSPost2010PropOp36
 70
     0
102
RTVSPost2010Prop37
 90
       50
102
RTVSPost2010PropOp37
 70
     0
102
RTVSPost2010Prop38
140
0.0
102
RTVSPost2010PropOp38
 70
     0
102
RTVSPost2010Prop39
140
1.0
102
RTVSPost2010PropOp39
 70
     0
102
RTVSPost2010Prop40
 90
        0
102
RTVSPost2010PropOp40
 70
     0
102
RTVSPost2010Prop41ColorIndex
 90
       18
102
RTVSPost2010Prop41ColorRGB
 90
        0
102
RTVSPost2010PropOp41
 70
     0
102
RTVSPost2010Prop42
 90
       50
102
RTVSPost2010PropOp42
 70
     0
102
RTVSPost2010Prop43
 90
        3
102
RTVSPost2010PropOp43
 70
     0
102
RTVSPost2010Prop44ColorIndex
 90
        5
102
RTVSPost2010Prop44ColorRGB
 90
      255
102
RTVSPost2010PropOp44
 70
     0
102
RTVSPost2010Prop45
280
     0
102
RTVSPost2010PropOp45
 70
     0
102
RTVSPost2010Prop46
 90
       50
102
RTVSPost2010PropOp46
 70
     0
102
RTVSPost2010Prop47
 90
       50
102
RTVSPost2010PropOp47
 70
     0
102
RTVSPost2010Prop48
 90
       50
102
RTVSPost2010PropOp48
 70
     0
102
RTVSPost2010Prop49
280
     0
102
RTVSPost2010PropOp49
 70
     0
102
RTVSPost2010Prop50
 90
       50
102
RTVSPost2010PropOp50
 70
     0
102
RTVSPost2010Prop51ColorIndex
 90
      256
102
RTVSPost2010Prop51ColorRGB
 90
-16777216
102
RTVSPost2010PropOp51
 70
     0
102
RTVSPost2010Prop52
140
1.0
102
RTVSPost2010PropOp52
 70
     0
102
RTVSPost2010Prop53
 90
        2
102
RTVSPost2010PropOp53
 70
     0
102
RTVSPost2010Prop54
  1
strokes_ogs.tif
102
RTVSPost2010PropOp54
 70
     0
102
RTVSPost2010Prop55
280
     0
102
RTVSPost2010PropOp55
 70
     0
102
RTVSPost2010Prop56
140
1.0
102
RTVSPost2010PropOp56
 70
     0
102
RTVSPost2010Prop57
140
1.0
102
RTVSPost2010PropOp57
 70
     0
  0
XRECORD
  5
412
102
{ACAD_REACTORS
330
411
102
}
330
411
100
AcDbXrecord
280
     1
102
RTVSPropertyOp0
 70
     1
102
RTVSPropertyOp1
 70
     1
102
RTVSPropertyOp2
 70
     1
102
RTVSPropertyOp3
 70
     1
102
RTVSPropertyOp4
 70
     1
102
RTVSPropertyOp5
 70
     1
102
RTVSPropertyOp6
 70
     1
102
RTVSPropertyOp7
 70
     1
102
RTVSPropertyOp8
 70
     1
102
RTVSPropertyOp9
 70
     1
102
RTVSPropertyOp10
 70
     1
102
RTVSPropertyOp11
 70
     1
102
RTVSPropertyOp12
 70
     1
102
RTVSPropertyOp13
 70
     1
102
RTVSPropertyOp14
 70
     1
102
RTVSPropertyOp15
 70
     1
102
RTVSPropertyOp16
 70
     1
102
RTVSPropertyOp17
 70
     1
102
RTVSPropertyOp18
 70
     1
102
RTVSPropertyOp19
 70
     1
102
RTVSPropertyOp20
 70
     1
102
RTVSPropertyOp21
 70
     1
102
RTVSPropertyOp22
 70
     1
102
RTVSPropertyOp23
 70
     1
102
RTVSPropertyOp24
 70
     1
102
RTVSPropertyOp25
 70
     1
102
RTVSPropertyOp26
 70
     1
102
RTVSPropertyOp27
 70
     1
102
RTVSPropertyOp28
 70
     1
102
RTVSPropertyOp29
 70
     1
102
RTVSPropertyOp30
 70
     1
102
RTVSPropertyOp31
 70
     1
102
RTVSPropertyOp32
 70
     1
102
RTVSPropertyOp33
 70
     1
102
RTVSPropertyOp34
 70
     1
102
RTVSPropertyOp35
 70
     1
102
RTVSPropertyOp36
 70
     1
102
RTVSPropertyOp37
 70
     1
102
RTVSPropertyOp38
 70
     1
102
RTVSPropertyOp39
 70
     1
102
RTVSPropertyOp40
 70
     1
102
RTVSPropertyOp41
 70
     1
102
RTVSPropertyOp42
 70
     1
102
RTVSPropertyOp43
 70
     1
102
RTVSPropertyOp44
 70
     1
102
RTVSPropertyOp45
 70
     1
102
RTVSPropertyOp46
 70
     1
102
RTVSPropertyOp47
 70
     1
102
RTVSPropertyOp48
 70
     1
102
RTVSPropertyOp49
 70
     1
102
RTVSPropertyOp50
 70
     1
102
RTVSPropertyOp51
 70
     0
102
RTVSPropertyOp52
 70
     0
102
RTVSPropertyOp53
 70
     1
102
RTVSPropertyOp54
 70
     1
102
RTVSPropertyOp55
 70
     1
102
RTVSPropertyOp56
 70
     1
102
RTVSPropertyOp57
 70
     1
102
RTVSPost2010Prop28
280
     0
102
RTVSPost2010PropOp28
 70
     1
102
RTVSPost2010Prop29
280
     1
102
RTVSPost2010PropOp29
 70
     1
102
RTVSPost2010Prop30
280
     1
102
RTVSPost2010PropOp30
 70
     1
102
RTVSPost2010Prop31
280
     0
102
RTVSPost2010PropOp31
 70
     1
102
RTVSPost2010Prop32
280
     0
102
RTVSPost2010PropOp32
 70
     1
102
RTVSPost2010Prop33
280
     0
102
RTVSPost2010PropOp33
 70
     1
102
RTVSPost2010Prop34
280
     0
102
RTVSPost2010PropOp34
 70
     1
102
RTVSPost2010Prop35
280
     0
102
RTVSPost2010PropOp35
 70
     1
102
RTVSPost2010Prop36
280
     0
102
RTVSPost2010PropOp36
 70
     1
102
RTVSPost2010Prop37
 90
       50
102
RTVSPost2010PropOp37
 70
     1
102
RTVSPost2010Prop38
140
0.0
102
RTVSPost2010PropOp38
 70
     1
102
RTVSPost2010Prop39
140
1.0
102
RTVSPost2010PropOp39
 70
     1
102
RTVSPost2010Prop40
 90
        0
102
RTVSPost2010PropOp40
 70
     1
102
RTVSPost2010Prop41ColorIndex
 90
       18
102
RTVSPost2010Prop41ColorRGB
 90
        0
102
RTVSPost2010PropOp41
 70
     1
102
RTVSPost2010Prop42
 90
       50
102
RTVSPost2010PropOp42
 70
     1
102
RTVSPost2010Prop43
 90
        3
102
RTVSPost2010PropOp43
 70
     1
102
RTVSPost2010Prop44ColorIndex
 90
        5
102
RTVSPost2010Prop44ColorRGB
 90
      255
102
RTVSPost2010PropOp44
 70
     1
102
RTVSPost2010Prop45
280
     0
102
RTVSPost2010PropOp45
 70
     1
102
RTVSPost2010Prop46
 90
       50
102
RTVSPost2010PropOp46
 70
     1
102
RTVSPost2010Prop47
 90
       50
102
RTVSPost2010PropOp47
 70
     1
102
RTVSPost2010Prop48
 90
       50
102
RTVSPost2010PropOp48
 70
     1
102
RTVSPost2010Prop49
280
     0
102
RTVSPost2010PropOp49
 70
     1
102
RTVSPost2010Prop50
 90
       50
102
RTVSPost2010PropOp50
 70
     1
102
RTVSPost2010Prop51ColorIndex
 90
      256
102
RTVSPost2010Prop51ColorRGB
 90
-16777216
102
RTVSPost2010PropOp51
 70
     0
102
RTVSPost2010Prop52
140
1.0
102
RTVSPost2010PropOp52
 70
     0
102
RTVSPost2010Prop53
 90
        2
102
RTVSPost2010PropOp53
 70
     1
102
RTVSPost2010Prop54
  1
strokes_ogs.tif
102
RTVSPost2010PropOp54
 70
     1
102
RTVSPost2010Prop55
280
     0
102
RTVSPost2010PropOp55
 70
     1
102
RTVSPost2010Prop56
140
1.0
102
RTVSPost2010PropOp56
 70
     1
102
RTVSPost2010Prop57
140
1.0
102
RTVSPost2010PropOp57
 70
     1
  0
XRECORD
  5
41A
102
{ACAD_REACTORS
330
419
102
}
330
419
100
AcDbXrecord
280
     1
102
RTVSPropertyOp0
 70
     0
102
RTVSPropertyOp1
 70
     0
102
RTVSPropertyOp2
 70
     0
102
RTVSPropertyOp3
 70
     0
102
RTVSPropertyOp4
 70
     0
102
RTVSPropertyOp5
 70
     0
102
RTVSPropertyOp6
 70
     0
102
RTVSPropertyOp7
 70
     0
102
RTVSPropertyOp8
 70
     0
102
RTVSPropertyOp9
 70
     0
102
RTVSPropertyOp10
 70
     0
102
RTVSPropertyOp11
 70
     0
102
RTVSPropertyOp12
 70
     0
102
RTVSPropertyOp13
 70
     0
102
RTVSPropertyOp14
 70
     2
102
RTVSPropertyOp15
 70
     0
102
RTVSPropertyOp16
 70
     0
102
RTVSPropertyOp17
 70
     0
102
RTVSPropertyOp18
 70
     0
102
RTVSPropertyOp19
 70
     0
102
RTVSPropertyOp20
 70
     0
102
RTVSPropertyOp21
 70
     0
102
RTVSPropertyOp22
 70
     0
102
RTVSPropertyOp23
 70
     0
102
RTVSPropertyOp24
 70
     0
102
RTVSPropertyOp25
 70
     0
102
RTVSPropertyOp26
 70
     0
102
RTVSPropertyOp27
 70
     0
102
RTVSPropertyOp28
 70
     0
102
RTVSPropertyOp29
 70
     0
102
RTVSPropertyOp30
 70
     0
102
RTVSPropertyOp31
 70
     0
102
RTVSPropertyOp32
 70
     0
102
RTVSPropertyOp33
 70
     0
102
RTVSPropertyOp34
 70
     0
102
RTVSPropertyOp35
 70
     0
102
RTVSPropertyOp36
 70
     0
102
RTVSPropertyOp37
 70
     0
102
RTVSPropertyOp38
 70
     0
102
RTVSPropertyOp39
 70
     0
102
RTVSPropertyOp40
 70
     0
102
RTVSPropertyOp41
 70
     0
102
RTVSPropertyOp42
 70
     0
102
RTVSPropertyOp43
 70
     0
102
RTVSPropertyOp44
 70
     0
102
RTVSPropertyOp45
 70
     0
102
RTVSPropertyOp46
 70
     0
102
RTVSPropertyOp47
 70
     0
102
RTVSPropertyOp48
 70
     0
102
RTVSPropertyOp49
 70
     0
102
RTVSPropertyOp50
 70
     0
102
RTVSPropertyOp51
 70
     0
102
RTVSPropertyOp52
 70
     0
102
RTVSPropertyOp53
 70
     0
102
RTVSPropertyOp54
 70
     0
102
RTVSPropertyOp55
 70
     0
102
RTVSPropertyOp56
 70
     0
102
RTVSPropertyOp57
 70
     0
102
RTVSPost2010Prop28
280
     0
102
RTVSPost2010PropOp28
 70
     0
102
RTVSPost2010Prop29
280
     1
102
RTVSPost2010PropOp29
 70
     0
102
RTVSPost2010Prop30
280
     1
102
RTVSPost2010PropOp30
 70
     0
102
RTVSPost2010Prop31
280
     0
102
RTVSPost2010PropOp31
 70
     0
102
RTVSPost2010Prop32
280
     0
102
RTVSPost2010PropOp32
 70
     0
102
RTVSPost2010Prop33
280
     0
102
RTVSPost2010PropOp33
 70
     0
102
RTVSPost2010Prop34
280
     0
102
RTVSPost2010PropOp34
 70
     0
102
RTVSPost2010Prop35
280
     0
102
RTVSPost2010PropOp35
 70
     0
102
RTVSPost2010Prop36
280
     0
102
RTVSPost2010PropOp36
 70
     0
102
RTVSPost2010Prop37
 90
       50
102
RTVSPost2010PropOp37
 70
     0
102
RTVSPost2010Prop38
140
0.0
102
RTVSPost2010PropOp38
 70
     0
102
RTVSPost2010Prop39
140
1.0
102
RTVSPost2010PropOp39
 70
     0
102
RTVSPost2010Prop40
 90
        0
102
RTVSPost2010PropOp40
 70
     0
102
RTVSPost2010Prop41ColorIndex
 90
       18
102
RTVSPost2010Prop41ColorRGB
 90
        0
102
RTVSPost2010PropOp41
 70
     0
102
RTVSPost2010Prop42
 90
       50
102
RTVSPost2010PropOp42
 70
     0
102
RTVSPost2010Prop43
 90
        3
102
RTVSPost2010PropOp43
 70
     0
102
RTVSPost2010Prop44ColorIndex
 90
        5
102
RTVSPost2010Prop44ColorRGB
 90
      255
102
RTVSPost2010PropOp44
 70
     0
102
RTVSPost2010Prop45
280
     0
102
RTVSPost2010PropOp45
 70
     0
102
RTVSPost2010Prop46
 90
       50
102
RTVSPost2010PropOp46
 70
     0
102
RTVSPost2010Prop47
 90
       50
102
RTVSPost2010PropOp47
 70
     0
102
RTVSPost2010Prop48
 90
       50
102
RTVSPost2010PropOp48
 70
     0
102
RTVSPost2010Prop49
280
     0
102
RTVSPost2010PropOp49
 70
     0
102
RTVSPost2010Prop50
 90
       50
102
RTVSPost2010PropOp50
 70
     0
102
RTVSPost2010Prop51ColorIndex
 90
      256
102
RTVSPost2010Prop51ColorRGB
 90
-16777216
102
RTVSPost2010PropOp51
 70
     0
102
RTVSPost2010Prop52
140
1.0
102
RTVSPost2010PropOp52
 70
     0
102
RTVSPost2010Prop53
 90
        2
102
RTVSPost2010PropOp53
 70
     0
102
RTVSPost2010Prop54
  1
strokes_ogs.tif
102
RTVSPost2010PropOp54
 70
     0
102
RTVSPost2010Prop55
280
     0
102
RTVSPost2010PropOp55
 70
     0
102
RTVSPost2010Prop56
140
1.0
102
RTVSPost2010PropOp56
 70
     0
102
RTVSPost2010Prop57
140
1.0
102
RTVSPost2010PropOp57
 70
     0
  0
XRECORD
  5
408
102
{ACAD_REACTORS
330
407
102
}
330
407
100
AcDbXrecord
280
     1
102
RTVSPropertyOp0
 70
     1
102
RTVSPropertyOp1
 70
     1
102
RTVSPropertyOp2
 70
     1
102
RTVSPropertyOp3
 70
     1
102
RTVSPropertyOp4
 70
     1
102
RTVSPropertyOp5
 70
     1
102
RTVSPropertyOp6
 70
     1
102
RTVSPropertyOp7
 70
     1
102
RTVSPropertyOp8
 70
     1
102
RTVSPropertyOp9
 70
     1
102
RTVSPropertyOp10
 70
     1
102
RTVSPropertyOp11
 70
     1
102
RTVSPropertyOp12
 70
     1
102
RTVSPropertyOp13
 70
     1
102
RTVSPropertyOp14
 70
     1
102
RTVSPropertyOp15
 70
     1
102
RTVSPropertyOp16
 70
     1
102
RTVSPropertyOp17
 70
     1
102
RTVSPropertyOp18
 70
     1
102
RTVSPropertyOp19
 70
     1
102
RTVSPropertyOp20
 70
     1
102
RTVSPropertyOp21
 70
     1
102
RTVSPropertyOp22
 70
     1
102
RTVSPropertyOp23
 70
     1
102
RTVSPropertyOp24
 70
     1
102
RTVSPropertyOp25
 70
     1
102
RTVSPropertyOp26
 70
     1
102
RTVSPropertyOp27
 70
     1
102
RTVSPropertyOp28
 70
     1
102
RTVSPropertyOp29
 70
     1
102
RTVSPropertyOp30
 70
     1
102
RTVSPropertyOp31
 70
     1
102
RTVSPropertyOp32
 70
     1
102
RTVSPropertyOp33
 70
     1
102
RTVSPropertyOp34
 70
     1
102
RTVSPropertyOp35
 70
     1
102
RTVSPropertyOp36
 70
     1
102
RTVSPropertyOp37
 70
     1
102
RTVSPropertyOp38
 70
     1
102
RTVSPropertyOp39
 70
     1
102
RTVSPropertyOp40
 70
     1
102
RTVSPropertyOp41
 70
     1
102
RTVSPropertyOp42
 70
     1
102
RTVSPropertyOp43
 70
     1
102
RTVSPropertyOp44
 70
     1
102
RTVSPropertyOp45
 70
     1
102
RTVSPropertyOp46
 70
     1
102
RTVSPropertyOp47
 70
     1
102
RTVSPropertyOp48
 70
     1
102
RTVSPropertyOp49
 70
     1
102
RTVSPropertyOp50
 70
     1
102
RTVSPropertyOp51
 70
     0
102
RTVSPropertyOp52
 70
     0
102
RTVSPropertyOp53
 70
     1
102
RTVSPropertyOp54
 70
     1
102
RTVSPropertyOp55
 70
     1
102
RTVSPropertyOp56
 70
     1
102
RTVSPropertyOp57
 70
     1
102
RTVSPost2010Prop28
280
     0
102
RTVSPost2010PropOp28
 70
     1
102
RTVSPost2010Prop29
280
     1
102
RTVSPost2010PropOp29
 70
     1
102
RTVSPost2010Prop30
280
     1
102
RTVSPost2010PropOp30
 70
     1
102
RTVSPost2010Prop31
280
     0
102
RTVSPost2010PropOp31
 70
     1
102
RTVSPost2010Prop32
280
     0
102
RTVSPost2010PropOp32
 70
     1
102
RTVSPost2010Prop33
280
     0
102
RTVSPost2010PropOp33
 70
     1
102
RTVSPost2010Prop34
280
     0
102
RTVSPost2010PropOp34
 70
     1
102
RTVSPost2010Prop35
280
     0
102
RTVSPost2010PropOp35
 70
     1
102
RTVSPost2010Prop36
280
     0
102
RTVSPost2010PropOp36
 70
     1
102
RTVSPost2010Prop37
 90
       50
102
RTVSPost2010PropOp37
 70
     1
102
RTVSPost2010Prop38
140
0.0
102
RTVSPost2010PropOp38
 70
     1
102
RTVSPost2010Prop39
140
1.0
102
RTVSPost2010PropOp39
 70
     1
102
RTVSPost2010Prop40
 90
        0
102
RTVSPost2010PropOp40
 70
     1
102
RTVSPost2010Prop41ColorIndex
 90
       18
102
RTVSPost2010Prop41ColorRGB
 90
        0
102
RTVSPost2010PropOp41
 70
     1
102
RTVSPost2010Prop42
 90
       50
102
RTVSPost2010PropOp42
 70
     1
102
RTVSPost2010Prop43
 90
        3
102
RTVSPost2010PropOp43
 70
     1
102
RTVSPost2010Prop44ColorIndex
 90
        5
102
RTVSPost2010Prop44ColorRGB
 90
      255
102
RTVSPost2010PropOp44
 70
     1
102
RTVSPost2010Prop45
280
     0
102
RTVSPost2010PropOp45
 70
     1
102
RTVSPost2010Prop46
 90
       50
102
RTVSPost2010PropOp46
 70
     1
102
RTVSPost2010Prop47
 90
       50
102
RTVSPost2010PropOp47
 70
     1
102
RTVSPost2010Prop48
 90
       50
102
RTVSPost2010PropOp48
 70
     1
102
RTVSPost2010Prop49
280
     0
102
RTVSPost2010PropOp49
 70
     1
102
RTVSPost2010Prop50
 90
       50
102
RTVSPost2010PropOp50
 70
     1
102
RTVSPost2010Prop51ColorIndex
 90
      256
102
RTVSPost2010Prop51ColorRGB
 90
-16777216
102
RTVSPost2010PropOp51
 70
     0
102
RTVSPost2010Prop52
140
1.0
102
RTVSPost2010PropOp52
 70
     0
102
RTVSPost2010Prop53
 90
        2
102
RTVSPost2010PropOp53
 70
     1
102
RTVSPost2010Prop54
  1
strokes_ogs.tif
102
RTVSPost2010PropOp54
 70
     1
102
RTVSPost2010Prop55
280
     0
102
RTVSPost2010PropOp55
 70
     1
102
RTVSPost2010Prop56
140
1.0
102
RTVSPost2010PropOp56
 70
     1
102
RTVSPost2010Prop57
140
1.0
102
RTVSPost2010PropOp57
 70
     1
  0
XRECORD
  5
426
102
{ACAD_REACTORS
330
425
102
}
330
425
100
AcDbXrecord
280
     1
102
RTVSPropertyOp0
 70
     1
102
RTVSPropertyOp1
 70
     1
102
RTVSPropertyOp2
 70
     1
102
RTVSPropertyOp3
 70
     1
102
RTVSPropertyOp4
 70
     1
102
RTVSPropertyOp5
 70
     1
102
RTVSPropertyOp6
 70
     1
102
RTVSPropertyOp7
 70
     1
102
RTVSPropertyOp8
 70
     1
102
RTVSPropertyOp9
 70
     1
102
RTVSPropertyOp10
 70
     1
102
RTVSPropertyOp11
 70
     1
102
RTVSPropertyOp12
 70
     1
102
RTVSPropertyOp13
 70
     1
102
RTVSPropertyOp14
 70
     1
102
RTVSPropertyOp15
 70
     1
102
RTVSPropertyOp16
 70
     1
102
RTVSPropertyOp17
 70
     1
102
RTVSPropertyOp18
 70
     1
102
RTVSPropertyOp19
 70
     1
102
RTVSPropertyOp20
 70
     1
102
RTVSPropertyOp21
 70
     1
102
RTVSPropertyOp22
 70
     1
102
RTVSPropertyOp23
 70
     1
102
RTVSPropertyOp24
 70
     1
102
RTVSPropertyOp25
 70
     1
102
RTVSPropertyOp26
 70
     1
102
RTVSPropertyOp27
 70
     1
102
RTVSPropertyOp28
 70
     1
102
RTVSPropertyOp29
 70
     1
102
RTVSPropertyOp30
 70
     1
102
RTVSPropertyOp31
 70
     1
102
RTVSPropertyOp32
 70
     1
102
RTVSPropertyOp33
 70
     1
102
RTVSPropertyOp34
 70
     1
102
RTVSPropertyOp35
 70
     1
102
RTVSPropertyOp36
 70
     1
102
RTVSPropertyOp37
 70
     1
102
RTVSPropertyOp38
 70
     1
102
RTVSPropertyOp39
 70
     1
102
RTVSPropertyOp40
 70
     1
102
RTVSPropertyOp41
 70
     1
102
RTVSPropertyOp42
 70
     1
102
RTVSPropertyOp43
 70
     1
102
RTVSPropertyOp44
 70
     1
102
RTVSPropertyOp45
 70
     1
102
RTVSPropertyOp46
 70
     1
102
RTVSPropertyOp47
 70
     1
102
RTVSPropertyOp48
 70
     1
102
RTVSPropertyOp49
 70
     1
102
RTVSPropertyOp50
 70
     1
102
RTVSPropertyOp51
 70
     0
102
RTVSPropertyOp52
 70
     0
102
RTVSPropertyOp53
 70
     1
102
RTVSPropertyOp54
 70
     1
102
RTVSPropertyOp55
 70
     1
102
RTVSPropertyOp56
 70
     1
102
RTVSPropertyOp57
 70
     1
102
RTVSPost2010Prop28
280
     0
102
RTVSPost2010PropOp28
 70
     1
102
RTVSPost2010Prop29
280
     1
102
RTVSPost2010PropOp29
 70
     1
102
RTVSPost2010Prop30
280
     1
102
RTVSPost2010PropOp30
 70
     1
102
RTVSPost2010Prop31
280
     0
102
RTVSPost2010PropOp31
 70
     1
102
RTVSPost2010Prop32
280
     0
102
RTVSPost2010PropOp32
 70
     1
102
RTVSPost2010Prop33
280
     0
102
RTVSPost2010PropOp33
 70
     1
102
RTVSPost2010Prop34
280
     0
102
RTVSPost2010PropOp34
 70
     1
102
RTVSPost2010Prop35
280
     0
102
RTVSPost2010PropOp35
 70
     1
102
RTVSPost2010Prop36
280
     0
102
RTVSPost2010PropOp36
 70
     1
102
RTVSPost2010Prop37
 90
       50
102
RTVSPost2010PropOp37
 70
     1
102
RTVSPost2010Prop38
140
0.0
102
RTVSPost2010PropOp38
 70
     1
102
RTVSPost2010Prop39
140
1.0
102
RTVSPost2010PropOp39
 70
     1
102
RTVSPost2010Prop40
 90
        0
102
RTVSPost2010PropOp40
 70
     1
102
RTVSPost2010Prop41ColorIndex
 90
       18
102
RTVSPost2010Prop41ColorRGB
 90
        0
102
RTVSPost2010PropOp41
 70
     1
102
RTVSPost2010Prop42
 90
       50
102
RTVSPost2010PropOp42
 70
     1
102
RTVSPost2010Prop43
 90
        3
102
RTVSPost2010PropOp43
 70
     1
102
RTVSPost2010Prop44ColorIndex
 90
        5
102
RTVSPost2010Prop44ColorRGB
 90
      255
102
RTVSPost2010PropOp44
 70
     1
102
RTVSPost2010Prop45
280
     0
102
RTVSPost2010PropOp45
 70
     1
102
RTVSPost2010Prop46
 90
       50
102
RTVSPost2010PropOp46
 70
     1
102
RTVSPost2010Prop47
 90
       50
102
RTVSPost2010PropOp47
 70
     1
102
RTVSPost2010Prop48
 90
       50
102
RTVSPost2010PropOp48
 70
     1
102
RTVSPost2010Prop49
280
     0
102
RTVSPost2010PropOp49
 70
     1
102
RTVSPost2010Prop50
 90
       50
102
RTVSPost2010PropOp50
 70
     1
102
RTVSPost2010Prop51ColorIndex
 90
      256
102
RTVSPost2010Prop51ColorRGB
 90
-16777216
102
RTVSPost2010PropOp51
 70
     0
102
RTVSPost2010Prop52
140
1.0
102
RTVSPost2010PropOp52
 70
     0
102
RTVSPost2010Prop53
 90
        2
102
RTVSPost2010PropOp53
 70
     1
102
RTVSPost2010Prop54
  1
strokes_ogs.tif
102
RTVSPost2010PropOp54
 70
     1
102
RTVSPost2010Prop55
280
     0
102
RTVSPost2010PropOp55
 70
     1
102
RTVSPost2010Prop56
140
1.0
102
RTVSPost2010PropOp56
 70
     1
102
RTVSPost2010Prop57
140
1.0
102
RTVSPost2010PropOp57
 70
     1
  0
XRECORD
  5
424
102
{ACAD_REACTORS
330
423
102
}
330
423
100
AcDbXrecord
280
     1
102
RTVSPropertyOp0
 70
     1
102
RTVSPropertyOp1
 70
     1
102
RTVSPropertyOp2
 70
     1
102
RTVSPropertyOp3
 70
     1
102
RTVSPropertyOp4
 70
     1
102
RTVSPropertyOp5
 70
     1
102
RTVSPropertyOp6
 70
     1
102
RTVSPropertyOp7
 70
     1
102
RTVSPropertyOp8
 70
     1
102
RTVSPropertyOp9
 70
     1
102
RTVSPropertyOp10
 70
     1
102
RTVSPropertyOp11
 70
     1
102
RTVSPropertyOp12
 70
     1
102
RTVSPropertyOp13
 70
     1
102
RTVSPropertyOp14
 70
     1
102
RTVSPropertyOp15
 70
     1
102
RTVSPropertyOp16
 70
     1
102
RTVSPropertyOp17
 70
     1
102
RTVSPropertyOp18
 70
     1
102
RTVSPropertyOp19
 70
     1
102
RTVSPropertyOp20
 70
     1
102
RTVSPropertyOp21
 70
     1
102
RTVSPropertyOp22
 70
     1
102
RTVSPropertyOp23
 70
     1
102
RTVSPropertyOp24
 70
     1
102
RTVSPropertyOp25
 70
     1
102
RTVSPropertyOp26
 70
     1
102
RTVSPropertyOp27
 70
     1
102
RTVSPropertyOp28
 70
     1
102
RTVSPropertyOp29
 70
     1
102
RTVSPropertyOp30
 70
     1
102
RTVSPropertyOp31
 70
     1
102
RTVSPropertyOp32
 70
     1
102
RTVSPropertyOp33
 70
     1
102
RTVSPropertyOp34
 70
     1
102
RTVSPropertyOp35
 70
     1
102
RTVSPropertyOp36
 70
     1
102
RTVSPropertyOp37
 70
     1
102
RTVSPropertyOp38
 70
     1
102
RTVSPropertyOp39
 70
     1
102
RTVSPropertyOp40
 70
     1
102
RTVSPropertyOp41
 70
     1
102
RTVSPropertyOp42
 70
     1
102
RTVSPropertyOp43
 70
     1
102
RTVSPropertyOp44
 70
     1
102
RTVSPropertyOp45
 70
     1
102
RTVSPropertyOp46
 70
     1
102
RTVSPropertyOp47
 70
     1
102
RTVSPropertyOp48
 70
     1
102
RTVSPropertyOp49
 70
     1
102
RTVSPropertyOp50
 70
     1
102
RTVSPropertyOp51
 70
     0
102
RTVSPropertyOp52
 70
     0
102
RTVSPropertyOp53
 70
     1
102
RTVSPropertyOp54
 70
     1
102
RTVSPropertyOp55
 70
     1
102
RTVSPropertyOp56
 70
     1
102
RTVSPropertyOp57
 70
     1
102
RTVSPost2010Prop28
280
     0
102
RTVSPost2010PropOp28
 70
     1
102
RTVSPost2010Prop29
280
     1
102
RTVSPost2010PropOp29
 70
     1
102
RTVSPost2010Prop30
280
     1
102
RTVSPost2010PropOp30
 70
     1
102
RTVSPost2010Prop31
280
     0
102
RTVSPost2010PropOp31
 70
     1
102
RTVSPost2010Prop32
280
     0
102
RTVSPost2010PropOp32
 70
     1
102
RTVSPost2010Prop33
280
     0
102
RTVSPost2010PropOp33
 70
     1
102
RTVSPost2010Prop34
280
     0
102
RTVSPost2010PropOp34
 70
     1
102
RTVSPost2010Prop35
280
     0
102
RTVSPost2010PropOp35
 70
     1
102
RTVSPost2010Prop36
280
     0
102
RTVSPost2010PropOp36
 70
     1
102
RTVSPost2010Prop37
 90
       50
102
RTVSPost2010PropOp37
 70
     1
102
RTVSPost2010Prop38
140
0.0
102
RTVSPost2010PropOp38
 70
     1
102
RTVSPost2010Prop39
140
1.0
102
RTVSPost2010PropOp39
 70
     1
102
RTVSPost2010Prop40
 90
        0
102
RTVSPost2010PropOp40
 70
     1
102
RTVSPost2010Prop41ColorIndex
 90
       18
102
RTVSPost2010Prop41ColorRGB
 90
        0
102
RTVSPost2010PropOp41
 70
     1
102
RTVSPost2010Prop42
 90
       50
102
RTVSPost2010PropOp42
 70
     1
102
RTVSPost2010Prop43
 90
        3
102
RTVSPost2010PropOp43
 70
     1
102
RTVSPost2010Prop44ColorIndex
 90
        5
102
RTVSPost2010Prop44ColorRGB
 90
      255
102
RTVSPost2010PropOp44
 70
     1
102
RTVSPost2010Prop45
280
     0
102
RTVSPost2010PropOp45
 70
     1
102
RTVSPost2010Prop46
 90
       50
102
RTVSPost2010PropOp46
 70
     1
102
RTVSPost2010Prop47
 90
       50
102
RTVSPost2010PropOp47
 70
     1
102
RTVSPost2010Prop48
 90
       50
102
RTVSPost2010PropOp48
 70
     1
102
RTVSPost2010Prop49
280
     0
102
RTVSPost2010PropOp49
 70
     1
102
RTVSPost2010Prop50
 90
       50
102
RTVSPost2010PropOp50
 70
     1
102
RTVSPost2010Prop51ColorIndex
 90
      256
102
RTVSPost2010Prop51ColorRGB
 90
-16777216
102
RTVSPost2010PropOp51
 70
     0
102
RTVSPost2010Prop52
140
1.0
102
RTVSPost2010PropOp52
 70
     0
102
RTVSPost2010Prop53
 90
        2
102
RTVSPost2010PropOp53
 70
     1
102
RTVSPost2010Prop54
  1
strokes_ogs.tif
102
RTVSPost2010PropOp54
 70
     1
102
RTVSPost2010Prop55
280
     0
102
RTVSPost2010PropOp55
 70
     1
102
RTVSPost2010Prop56
140
1.0
102
RTVSPost2010PropOp56
 70
     1
102
RTVSPost2010Prop57
140
1.0
102
RTVSPost2010PropOp57
 70
     1
  0
XRECORD
  5
41E
102
{ACAD_REACTORS
330
41D
102
}
330
41D
100
AcDbXrecord
280
     1
102
RTVSPropertyOp0
 70
     1
102
RTVSPropertyOp1
 70
     1
102
RTVSPropertyOp2
 70
     1
102
RTVSPropertyOp3
 70
     1
102
RTVSPropertyOp4
 70
     1
102
RTVSPropertyOp5
 70
     1
102
RTVSPropertyOp6
 70
     1
102
RTVSPropertyOp7
 70
     1
102
RTVSPropertyOp8
 70
     1
102
RTVSPropertyOp9
 70
     1
102
RTVSPropertyOp10
 70
     1
102
RTVSPropertyOp11
 70
     1
102
RTVSPropertyOp12
 70
     1
102
RTVSPropertyOp13
 70
     1
102
RTVSPropertyOp14
 70
     1
102
RTVSPropertyOp15
 70
     1
102
RTVSPropertyOp16
 70
     1
102
RTVSPropertyOp17
 70
     1
102
RTVSPropertyOp18
 70
     1
102
RTVSPropertyOp19
 70
     1
102
RTVSPropertyOp20
 70
     1
102
RTVSPropertyOp21
 70
     1
102
RTVSPropertyOp22
 70
     1
102
RTVSPropertyOp23
 70
     1
102
RTVSPropertyOp24
 70
     1
102
RTVSPropertyOp25
 70
     1
102
RTVSPropertyOp26
 70
     1
102
RTVSPropertyOp27
 70
     1
102
RTVSPropertyOp28
 70
     1
102
RTVSPropertyOp29
 70
     1
102
RTVSPropertyOp30
 70
     1
102
RTVSPropertyOp31
 70
     1
102
RTVSPropertyOp32
 70
     1
102
RTVSPropertyOp33
 70
     1
102
RTVSPropertyOp34
 70
     1
102
RTVSPropertyOp35
 70
     1
102
RTVSPropertyOp36
 70
     1
102
RTVSPropertyOp37
 70
     1
102
RTVSPropertyOp38
 70
     1
102
RTVSPropertyOp39
 70
     1
102
RTVSPropertyOp40
 70
     1
102
RTVSPropertyOp41
 70
     1
102
RTVSPropertyOp42
 70
     1
102
RTVSPropertyOp43
 70
     1
102
RTVSPropertyOp44
 70
     1
102
RTVSPropertyOp45
 70
     1
102
RTVSPropertyOp46
 70
     1
102
RTVSPropertyOp47
 70
     1
102
RTVSPropertyOp48
 70
     1
102
RTVSPropertyOp49
 70
     1
102
RTVSPropertyOp50
 70
     1
102
RTVSPropertyOp51
 70
     0
102
RTVSPropertyOp52
 70
     0
102
RTVSPropertyOp53
 70
     1
102
RTVSPropertyOp54
 70
     1
102
RTVSPropertyOp55
 70
     1
102
RTVSPropertyOp56
 70
     1
102
RTVSPropertyOp57
 70
     1
102
RTVSPost2010Prop28
280
     0
102
RTVSPost2010PropOp28
 70
     1
102
RTVSPost2010Prop29
280
     1
102
RTVSPost2010PropOp29
 70
     1
102
RTVSPost2010Prop30
280
     1
102
RTVSPost2010PropOp30
 70
     1
102
RTVSPost2010Prop31
280
     0
102
RTVSPost2010PropOp31
 70
     1
102
RTVSPost2010Prop32
280
     0
102
RTVSPost2010PropOp32
 70
     1
102
RTVSPost2010Prop33
280
     0
102
RTVSPost2010PropOp33
 70
     1
102
RTVSPost2010Prop34
280
     0
102
RTVSPost2010PropOp34
 70
     1
102
RTVSPost2010Prop35
280
     0
102
RTVSPost2010PropOp35
 70
     1
102
RTVSPost2010Prop36
280
     0
102
RTVSPost2010PropOp36
 70
     1
102
RTVSPost2010Prop37
 90
       50
102
RTVSPost2010PropOp37
 70
     1
102
RTVSPost2010Prop38
140
0.0
102
RTVSPost2010PropOp38
 70
     1
102
RTVSPost2010Prop39
140
1.0
102
RTVSPost2010PropOp39
 70
     1
102
RTVSPost2010Prop40
 90
        0
102
RTVSPost2010PropOp40
 70
     1
102
RTVSPost2010Prop41ColorIndex
 90
       18
102
RTVSPost2010Prop41ColorRGB
 90
        0
102
RTVSPost2010PropOp41
 70
     1
102
RTVSPost2010Prop42
 90
       50
102
RTVSPost2010PropOp42
 70
     1
102
RTVSPost2010Prop43
 90
        3
102
RTVSPost2010PropOp43
 70
     1
102
RTVSPost2010Prop44ColorIndex
 90
        5
102
RTVSPost2010Prop44ColorRGB
 90
      255
102
RTVSPost2010PropOp44
 70
     1
102
RTVSPost2010Prop45
280
     0
102
RTVSPost2010PropOp45
 70
     1
102
RTVSPost2010Prop46
 90
       50
102
RTVSPost2010PropOp46
 70
     1
102
RTVSPost2010Prop47
 90
       50
102
RTVSPost2010PropOp47
 70
     1
102
RTVSPost2010Prop48
 90
       50
102
RTVSPost2010PropOp48
 70
     1
102
RTVSPost2010Prop49
280
     0
102
RTVSPost2010PropOp49
 70
     1
102
RTVSPost2010Prop50
 90
       50
102
RTVSPost2010PropOp50
 70
     1
102
RTVSPost2010Prop51ColorIndex
 90
      256
102
RTVSPost2010Prop51ColorRGB
 90
-16777216
102
RTVSPost2010PropOp51
 70
     0
102
RTVSPost2010Prop52
140
1.0
102
RTVSPost2010PropOp52
 70
     0
102
RTVSPost2010Prop53
 90
        2
102
RTVSPost2010PropOp53
 70
     1
102
RTVSPost2010Prop54
  1
strokes_ogs.tif
102
RTVSPost2010PropOp54
 70
     1
102
RTVSPost2010Prop55
280
     0
102
RTVSPost2010PropOp55
 70
     1
102
RTVSPost2010Prop56
140
1.0
102
RTVSPost2010PropOp56
 70
     1
102
RTVSPost2010Prop57
140
1.0
102
RTVSPost2010PropOp57
 70
     1
  0
XRECORD
  5
420
102
{ACAD_REACTORS
330
41F
102
}
330
41F
100
AcDbXrecord
280
     1
102
RTVSPropertyOp0
 70
     1
102
RTVSPropertyOp1
 70
     1
102
RTVSPropertyOp2
 70
     1
102
RTVSPropertyOp3
 70
     1
102
RTVSPropertyOp4
 70
     1
102
RTVSPropertyOp5
 70
     1
102
RTVSPropertyOp6
 70
     1
102
RTVSPropertyOp7
 70
     1
102
RTVSPropertyOp8
 70
     1
102
RTVSPropertyOp9
 70
     1
102
RTVSPropertyOp10
 70
     1
102
RTVSPropertyOp11
 70
     1
102
RTVSPropertyOp12
 70
     1
102
RTVSPropertyOp13
 70
     1
102
RTVSPropertyOp14
 70
     1
102
RTVSPropertyOp15
 70
     1
102
RTVSPropertyOp16
 70
     1
102
RTVSPropertyOp17
 70
     1
102
RTVSPropertyOp18
 70
     1
102
RTVSPropertyOp19
 70
     1
102
RTVSPropertyOp20
 70
     1
102
RTVSPropertyOp21
 70
     1
102
RTVSPropertyOp22
 70
     1
102
RTVSPropertyOp23
 70
     1
102
RTVSPropertyOp24
 70
     1
102
RTVSPropertyOp25
 70
     1
102
RTVSPropertyOp26
 70
     1
102
RTVSPropertyOp27
 70
     1
102
RTVSPropertyOp28
 70
     1
102
RTVSPropertyOp29
 70
     1
102
RTVSPropertyOp30
 70
     1
102
RTVSPropertyOp31
 70
     1
102
RTVSPropertyOp32
 70
     1
102
RTVSPropertyOp33
 70
     1
102
RTVSPropertyOp34
 70
     1
102
RTVSPropertyOp35
 70
     1
102
RTVSPropertyOp36
 70
     1
102
RTVSPropertyOp37
 70
     1
102
RTVSPropertyOp38
 70
     1
102
RTVSPropertyOp39
 70
     1
102
RTVSPropertyOp40
 70
     1
102
RTVSPropertyOp41
 70
     1
102
RTVSPropertyOp42
 70
     1
102
RTVSPropertyOp43
 70
     1
102
RTVSPropertyOp44
 70
     1
102
RTVSPropertyOp45
 70
     1
102
RTVSPropertyOp46
 70
     1
102
RTVSPropertyOp47
 70
     1
102
RTVSPropertyOp48
 70
     1
102
RTVSPropertyOp49
 70
     1
102
RTVSPropertyOp50
 70
     1
102
RTVSPropertyOp51
 70
     0
102
RTVSPropertyOp52
 70
     0
102
RTVSPropertyOp53
 70
     1
102
RTVSPropertyOp54
 70
     1
102
RTVSPropertyOp55
 70
     1
102
RTVSPropertyOp56
 70
     1
102
RTVSPropertyOp57
 70
     1
102
RTVSPost2010Prop28
280
     0
102
RTVSPost2010PropOp28
 70
     1
102
RTVSPost2010Prop29
280
     1
102
RTVSPost2010PropOp29
 70
     1
102
RTVSPost2010Prop30
280
     1
102
RTVSPost2010PropOp30
 70
     1
102
RTVSPost2010Prop31
280
     0
102
RTVSPost2010PropOp31
 70
     1
102
RTVSPost2010Prop32
280
     0
102
RTVSPost2010PropOp32
 70
     1
102
RTVSPost2010Prop33
280
     0
102
RTVSPost2010PropOp33
 70
     1
102
RTVSPost2010Prop34
280
     0
102
RTVSPost2010PropOp34
 70
     1
102
RTVSPost2010Prop35
280
     0
102
RTVSPost2010PropOp35
 70
     1
102
RTVSPost2010Prop36
280
     0
102
RTVSPost2010PropOp36
 70
     1
102
RTVSPost2010Prop37
 90
       50
102
RTVSPost2010PropOp37
 70
     1
102
RTVSPost2010Prop38
140
0.0
102
RTVSPost2010PropOp38
 70
     1
102
RTVSPost2010Prop39
140
1.0
102
RTVSPost2010PropOp39
 70
     1
102
RTVSPost2010Prop40
 90
        0
102
RTVSPost2010PropOp40
 70
     1
102
RTVSPost2010Prop41ColorIndex
 90
       18
102
RTVSPost2010Prop41ColorRGB
 90
        0
102
RTVSPost2010PropOp41
 70
     1
102
RTVSPost2010Prop42
 90
       50
102
RTVSPost2010PropOp42
 70
     1
102
RTVSPost2010Prop43
 90
        3
102
RTVSPost2010PropOp43
 70
     1
102
RTVSPost2010Prop44ColorIndex
 90
        5
102
RTVSPost2010Prop44ColorRGB
 90
      255
102
RTVSPost2010PropOp44
 70
     1
102
RTVSPost2010Prop45
280
     0
102
RTVSPost2010PropOp45
 70
     1
102
RTVSPost2010Prop46
 90
       50
102
RTVSPost2010PropOp46
 70
     1
102
RTVSPost2010Prop47
 90
       50
102
RTVSPost2010PropOp47
 70
     1
102
RTVSPost2010Prop48
 90
       50
102
RTVSPost2010PropOp48
 70
     1
102
RTVSPost2010Prop49
280
     0
102
RTVSPost2010PropOp49
 70
     1
102
RTVSPost2010Prop50
 90
       50
102
RTVSPost2010PropOp50
 70
     1
102
RTVSPost2010Prop51ColorIndex
 90
      256
102
RTVSPost2010Prop51ColorRGB
 90
-16777216
102
RTVSPost2010PropOp51
 70
     0
102
RTVSPost2010Prop52
140
1.0
102
RTVSPost2010PropOp52
 70
     0
102
RTVSPost2010Prop53
 90
        2
102
RTVSPost2010PropOp53
 70
     1
102
RTVSPost2010Prop54
  1
strokes_ogs.tif
102
RTVSPost2010PropOp54
 70
     1
102
RTVSPost2010Prop55
280
     0
102
RTVSPost2010PropOp55
 70
     1
102
RTVSPost2010Prop56
140
1.0
102
RTVSPost2010PropOp56
 70
     1
102
RTVSPost2010Prop57
140
1.0
102
RTVSPost2010PropOp57
 70
     1
  0
XRECORD
  5
410
102
{ACAD_REACTORS
330
40F
102
}
330
40F
100
AcDbXrecord
280
     1
102
RTVSPropertyOp0
 70
     1
102
RTVSPropertyOp1
 70
     1
102
RTVSPropertyOp2
 70
     1
102
RTVSPropertyOp3
 70
     1
102
RTVSPropertyOp4
 70
     1
102
RTVSPropertyOp5
 70
     1
102
RTVSPropertyOp6
 70
     1
102
RTVSPropertyOp7
 70
     1
102
RTVSPropertyOp8
 70
     1
102
RTVSPropertyOp9
 70
     1
102
RTVSPropertyOp10
 70
     1
102
RTVSPropertyOp11
 70
     1
102
RTVSPropertyOp12
 70
     1
102
RTVSPropertyOp13
 70
     1
102
RTVSPropertyOp14
 70
     1
102
RTVSPropertyOp15
 70
     1
102
RTVSPropertyOp16
 70
     1
102
RTVSPropertyOp17
 70
     1
102
RTVSPropertyOp18
 70
     1
102
RTVSPropertyOp19
 70
     1
102
RTVSPropertyOp20
 70
     1
102
RTVSPropertyOp21
 70
     1
102
RTVSPropertyOp22
 70
     1
102
RTVSPropertyOp23
 70
     1
102
RTVSPropertyOp24
 70
     1
102
RTVSPropertyOp25
 70
     1
102
RTVSPropertyOp26
 70
     1
102
RTVSPropertyOp27
 70
     1
102
RTVSPropertyOp28
 70
     1
102
RTVSPropertyOp29
 70
     1
102
RTVSPropertyOp30
 70
     1
102
RTVSPropertyOp31
 70
     1
102
RTVSPropertyOp32
 70
     1
102
RTVSPropertyOp33
 70
     1
102
RTVSPropertyOp34
 70
     1
102
RTVSPropertyOp35
 70
     1
102
RTVSPropertyOp36
 70
     1
102
RTVSPropertyOp37
 70
     1
102
RTVSPropertyOp38
 70
     1
102
RTVSPropertyOp39
 70
     1
102
RTVSPropertyOp40
 70
     1
102
RTVSPropertyOp41
 70
     1
102
RTVSPropertyOp42
 70
     1
102
RTVSPropertyOp43
 70
     1
102
RTVSPropertyOp44
 70
     1
102
RTVSPropertyOp45
 70
     1
102
RTVSPropertyOp46
 70
     1
102
RTVSPropertyOp47
 70
     1
102
RTVSPropertyOp48
 70
     1
102
RTVSPropertyOp49
 70
     1
102
RTVSPropertyOp50
 70
     1
102
RTVSPropertyOp51
 70
     0
102
RTVSPropertyOp52
 70
     0
102
RTVSPropertyOp53
 70
     1
102
RTVSPropertyOp54
 70
     1
102
RTVSPropertyOp55
 70
     1
102
RTVSPropertyOp56
 70
     1
102
RTVSPropertyOp57
 70
     1
102
RTVSPost2010Prop28
280
     0
102
RTVSPost2010PropOp28
 70
     1
102
RTVSPost2010Prop29
280
     1
102
RTVSPost2010PropOp29
 70
     1
102
RTVSPost2010Prop30
280
     1
102
RTVSPost2010PropOp30
 70
     1
102
RTVSPost2010Prop31
280
     0
102
RTVSPost2010PropOp31
 70
     1
102
RTVSPost2010Prop32
280
     0
102
RTVSPost2010PropOp32
 70
     1
102
RTVSPost2010Prop33
280
     0
102
RTVSPost2010PropOp33
 70
     1
102
RTVSPost2010Prop34
280
     0
102
RTVSPost2010PropOp34
 70
     1
102
RTVSPost2010Prop35
280
     0
102
RTVSPost2010PropOp35
 70
     1
102
RTVSPost2010Prop36
280
     0
102
RTVSPost2010PropOp36
 70
     1
102
RTVSPost2010Prop37
 90
       50
102
RTVSPost2010PropOp37
 70
     1
102
RTVSPost2010Prop38
140
0.0
102
RTVSPost2010PropOp38
 70
     1
102
RTVSPost2010Prop39
140
1.0
102
RTVSPost2010PropOp39
 70
     1
102
RTVSPost2010Prop40
 90
        0
102
RTVSPost2010PropOp40
 70
     1
102
RTVSPost2010Prop41ColorIndex
 90
       18
102
RTVSPost2010Prop41ColorRGB
 90
        0
102
RTVSPost2010PropOp41
 70
     1
102
RTVSPost2010Prop42
 90
       50
102
RTVSPost2010PropOp42
 70
     1
102
RTVSPost2010Prop43
 90
        3
102
RTVSPost2010PropOp43
 70
     1
102
RTVSPost2010Prop44ColorIndex
 90
        5
102
RTVSPost2010Prop44ColorRGB
 90
      255
102
RTVSPost2010PropOp44
 70
     1
102
RTVSPost2010Prop45
280
     0
102
RTVSPost2010PropOp45
 70
     1
102
RTVSPost2010Prop46
 90
       50
102
RTVSPost2010PropOp46
 70
     1
102
RTVSPost2010Prop47
 90
       50
102
RTVSPost2010PropOp47
 70
     1
102
RTVSPost2010Prop48
 90
       50
102
RTVSPost2010PropOp48
 70
     1
102
RTVSPost2010Prop49
280
     0
102
RTVSPost2010PropOp49
 70
     1
102
RTVSPost2010Prop50
 90
       50
102
RTVSPost2010PropOp50
 70
     1
102
RTVSPost2010Prop51ColorIndex
 90
      256
102
RTVSPost2010Prop51ColorRGB
 90
-16777216
102
RTVSPost2010PropOp51
 70
     0
102
RTVSPost2010Prop52
140
1.0
102
RTVSPost2010PropOp52
 70
     0
102
RTVSPost2010Prop53
 90
        2
102
RTVSPost2010PropOp53
 70
     1
102
RTVSPost2010Prop54
  1
strokes_ogs.tif
102
RTVSPost2010PropOp54
 70
     1
102
RTVSPost2010Prop55
280
     0
102
RTVSPost2010PropOp55
 70
     1
102
RTVSPost2010Prop56
140
1.0
102
RTVSPost2010PropOp56
 70
     1
102
RTVSPost2010Prop57
140
1.0
102
RTVSPost2010PropOp57
 70
     1
  0
XRECORD
  5
402
102
{ACAD_REACTORS
330
401
102
}
330
401
100
AcDbXrecord
280
     1
102
RTVSPropertyOp0
 70
     1
102
RTVSPropertyOp1
 70
     1
102
RTVSPropertyOp2
 70
     1
102
RTVSPropertyOp3
 70
     1
102
RTVSPropertyOp4
 70
     1
102
RTVSPropertyOp5
 70
     1
102
RTVSPropertyOp6
 70
     1
102
RTVSPropertyOp7
 70
     1
102
RTVSPropertyOp8
 70
     1
102
RTVSPropertyOp9
 70
     1
102
RTVSPropertyOp10
 70
     1
102
RTVSPropertyOp11
 70
     1
102
RTVSPropertyOp12
 70
     1
102
RTVSPropertyOp13
 70
     1
102
RTVSPropertyOp14
 70
     1
102
RTVSPropertyOp15
 70
     1
102
RTVSPropertyOp16
 70
     1
102
RTVSPropertyOp17
 70
     1
102
RTVSPropertyOp18
 70
     1
102
RTVSPropertyOp19
 70
     1
102
RTVSPropertyOp20
 70
     1
102
RTVSPropertyOp21
 70
     1
102
RTVSPropertyOp22
 70
     1
102
RTVSPropertyOp23
 70
     1
102
RTVSPropertyOp24
 70
     1
102
RTVSPropertyOp25
 70
     1
102
RTVSPropertyOp26
 70
     1
102
RTVSPropertyOp27
 70
     1
102
RTVSPropertyOp28
 70
     1
102
RTVSPropertyOp29
 70
     1
102
RTVSPropertyOp30
 70
     1
102
RTVSPropertyOp31
 70
     1
102
RTVSPropertyOp32
 70
     1
102
RTVSPropertyOp33
 70
     1
102
RTVSPropertyOp34
 70
     1
102
RTVSPropertyOp35
 70
     1
102
RTVSPropertyOp36
 70
     1
102
RTVSPropertyOp37
 70
     1
102
RTVSPropertyOp38
 70
     1
102
RTVSPropertyOp39
 70
     1
102
RTVSPropertyOp40
 70
     1
102
RTVSPropertyOp41
 70
     1
102
RTVSPropertyOp42
 70
     1
102
RTVSPropertyOp43
 70
     1
102
RTVSPropertyOp44
 70
     1
102
RTVSPropertyOp45
 70
     1
102
RTVSPropertyOp46
 70
     1
102
RTVSPropertyOp47
 70
     1
102
RTVSPropertyOp48
 70
     1
102
RTVSPropertyOp49
 70
     1
102
RTVSPropertyOp50
 70
     1
102
RTVSPropertyOp51
 70
     0
102
RTVSPropertyOp52
 70
     0
102
RTVSPropertyOp53
 70
     1
102
RTVSPropertyOp54
 70
     1
102
RTVSPropertyOp55
 70
     1
102
RTVSPropertyOp56
 70
     1
102
RTVSPropertyOp57
 70
     1
102
RTVSPost2010Prop28
280
     0
102
RTVSPost2010PropOp28
 70
     1
102
RTVSPost2010Prop29
280
     1
102
RTVSPost2010PropOp29
 70
     1
102
RTVSPost2010Prop30
280
     1
102
RTVSPost2010PropOp30
 70
     1
102
RTVSPost2010Prop31
280
     0
102
RTVSPost2010PropOp31
 70
     1
102
RTVSPost2010Prop32
280
     0
102
RTVSPost2010PropOp32
 70
     1
102
RTVSPost2010Prop33
280
     0
102
RTVSPost2010PropOp33
 70
     1
102
RTVSPost2010Prop34
280
     0
102
RTVSPost2010PropOp34
 70
     1
102
RTVSPost2010Prop35
280
     0
102
RTVSPost2010PropOp35
 70
     1
102
RTVSPost2010Prop36
280
     0
102
RTVSPost2010PropOp36
 70
     1
102
RTVSPost2010Prop37
 90
       50
102
RTVSPost2010PropOp37
 70
     1
102
RTVSPost2010Prop38
140
0.0
102
RTVSPost2010PropOp38
 70
     1
102
RTVSPost2010Prop39
140
1.0
102
RTVSPost2010PropOp39
 70
     1
102
RTVSPost2010Prop40
 90
        0
102
RTVSPost2010PropOp40
 70
     1
102
RTVSPost2010Prop41ColorIndex
 90
       18
102
RTVSPost2010Prop41ColorRGB
 90
        0
102
RTVSPost2010PropOp41
 70
     1
102
RTVSPost2010Prop42
 90
       50
102
RTVSPost2010PropOp42
 70
     1
102
RTVSPost2010Prop43
 90
        3
102
RTVSPost2010PropOp43
 70
     1
102
RTVSPost2010Prop44ColorIndex
 90
        5
102
RTVSPost2010Prop44ColorRGB
 90
      255
102
RTVSPost2010PropOp44
 70
     1
102
RTVSPost2010Prop45
280
     0
102
RTVSPost2010PropOp45
 70
     1
102
RTVSPost2010Prop46
 90
       50
102
RTVSPost2010PropOp46
 70
     1
102
RTVSPost2010Prop47
 90
       50
102
RTVSPost2010PropOp47
 70
     1
102
RTVSPost2010Prop48
 90
       50
102
RTVSPost2010PropOp48
 70
     1
102
RTVSPost2010Prop49
280
     0
102
RTVSPost2010PropOp49
 70
     1
102
RTVSPost2010Prop50
 90
       50
102
RTVSPost2010PropOp50
 70
     1
102
RTVSPost2010Prop51ColorIndex
 90
      256
102
RTVSPost2010Prop51ColorRGB
 90
-16777216
102
RTVSPost2010PropOp51
 70
     0
102
RTVSPost2010Prop52
140
1.0
102
RTVSPost2010PropOp52
 70
     0
102
RTVSPost2010Prop53
 90
        2
102
RTVSPost2010PropOp53
 70
     1
102
RTVSPost2010Prop54
  1
strokes_ogs.tif
102
RTVSPost2010PropOp54
 70
     1
102
RTVSPost2010Prop55
280
     0
102
RTVSPost2010PropOp55
 70
     1
102
RTVSPost2010Prop56
140
1.0
102
RTVSPost2010PropOp56
 70
     1
102
RTVSPost2010Prop57
140
1.0
102
RTVSPost2010PropOp57
 70
     1
  0
XRECORD
  5
422
102
{ACAD_REACTORS
330
421
102
}
330
421
100
AcDbXrecord
280
     1
102
RTVSPropertyOp0
 70
     1
102
RTVSPropertyOp1
 70
     1
102
RTVSPropertyOp2
 70
     1
102
RTVSPropertyOp3
 70
     1
102
RTVSPropertyOp4
 70
     1
102
RTVSPropertyOp5
 70
     1
102
RTVSPropertyOp6
 70
     1
102
RTVSPropertyOp7
 70
     1
102
RTVSPropertyOp8
 70
     1
102
RTVSPropertyOp9
 70
     1
102
RTVSPropertyOp10
 70
     1
102
RTVSPropertyOp11
 70
     1
102
RTVSPropertyOp12
 70
     1
102
RTVSPropertyOp13
 70
     1
102
RTVSPropertyOp14
 70
     1
102
RTVSPropertyOp15
 70
     1
102
RTVSPropertyOp16
 70
     1
102
RTVSPropertyOp17
 70
     1
102
RTVSPropertyOp18
 70
     1
102
RTVSPropertyOp19
 70
     1
102
RTVSPropertyOp20
 70
     1
102
RTVSPropertyOp21
 70
     1
102
RTVSPropertyOp22
 70
     1
102
RTVSPropertyOp23
 70
     1
102
RTVSPropertyOp24
 70
     1
102
RTVSPropertyOp25
 70
     1
102
RTVSPropertyOp26
 70
     1
102
RTVSPropertyOp27
 70
     1
102
RTVSPropertyOp28
 70
     1
102
RTVSPropertyOp29
 70
     1
102
RTVSPropertyOp30
 70
     1
102
RTVSPropertyOp31
 70
     1
102
RTVSPropertyOp32
 70
     1
102
RTVSPropertyOp33
 70
     1
102
RTVSPropertyOp34
 70
     1
102
RTVSPropertyOp35
 70
     1
102
RTVSPropertyOp36
 70
     1
102
RTVSPropertyOp37
 70
     1
102
RTVSPropertyOp38
 70
     1
102
RTVSPropertyOp39
 70
     1
102
RTVSPropertyOp40
 70
     1
102
RTVSPropertyOp41
 70
     1
102
RTVSPropertyOp42
 70
     1
102
RTVSPropertyOp43
 70
     1
102
RTVSPropertyOp44
 70
     1
102
RTVSPropertyOp45
 70
     1
102
RTVSPropertyOp46
 70
     1
102
RTVSPropertyOp47
 70
     1
102
RTVSPropertyOp48
 70
     1
102
RTVSPropertyOp49
 70
     1
102
RTVSPropertyOp50
 70
     1
102
RTVSPropertyOp51
 70
     0
102
RTVSPropertyOp52
 70
     0
102
RTVSPropertyOp53
 70
     1
102
RTVSPropertyOp54
 70
     1
102
RTVSPropertyOp55
 70
     1
102
RTVSPropertyOp56
 70
     1
102
RTVSPropertyOp57
 70
     1
102
RTVSPost2010Prop28
280
     0
102
RTVSPost2010PropOp28
 70
     1
102
RTVSPost2010Prop29
280
     1
102
RTVSPost2010PropOp29
 70
     1
102
RTVSPost2010Prop30
280
     1
102
RTVSPost2010PropOp30
 70
     1
102
RTVSPost2010Prop31
280
     0
102
RTVSPost2010PropOp31
 70
     1
102
RTVSPost2010Prop32
280
     0
102
RTVSPost2010PropOp32
 70
     1
102
RTVSPost2010Prop33
280
     0
102
RTVSPost2010PropOp33
 70
     1
102
RTVSPost2010Prop34
280
     0
102
RTVSPost2010PropOp34
 70
     1
102
RTVSPost2010Prop35
280
     0
102
RTVSPost2010PropOp35
 70
     1
102
RTVSPost2010Prop36
280
     0
102
RTVSPost2010PropOp36
 70
     1
102
RTVSPost2010Prop37
 90
       50
102
RTVSPost2010PropOp37
 70
     1
102
RTVSPost2010Prop38
140
0.0
102
RTVSPost2010PropOp38
 70
     1
102
RTVSPost2010Prop39
140
1.0
102
RTVSPost2010PropOp39
 70
     1
102
RTVSPost2010Prop40
 90
        0
102
RTVSPost2010PropOp40
 70
     1
102
RTVSPost2010Prop41ColorIndex
 90
       18
102
RTVSPost2010Prop41ColorRGB
 90
        0
102
RTVSPost2010PropOp41
 70
     1
102
RTVSPost2010Prop42
 90
       50
102
RTVSPost2010PropOp42
 70
     1
102
RTVSPost2010Prop43
 90
        3
102
RTVSPost2010PropOp43
 70
     1
102
RTVSPost2010Prop44ColorIndex
 90
        5
102
RTVSPost2010Prop44ColorRGB
 90
      255
102
RTVSPost2010PropOp44
 70
     1
102
RTVSPost2010Prop45
280
     0
102
RTVSPost2010PropOp45
 70
     1
102
RTVSPost2010Prop46
 90
       50
102
RTVSPost2010PropOp46
 70
     1
102
RTVSPost2010Prop47
 90
       50
102
RTVSPost2010PropOp47
 70
     1
102
RTVSPost2010Prop48
 90
       50
102
RTVSPost2010PropOp48
 70
     1
102
RTVSPost2010Prop49
280
     0
102
RTVSPost2010PropOp49
 70
     1
102
RTVSPost2010Prop50
 90
       50
102
RTVSPost2010PropOp50
 70
     1
102
RTVSPost2010Prop51ColorIndex
 90
      256
102
RTVSPost2010Prop51ColorRGB
 90
-16777216
102
RTVSPost2010PropOp51
 70
     0
102
RTVSPost2010Prop52
140
1.0
102
RTVSPost2010PropOp52
 70
     0
102
RTVSPost2010Prop53
 90
        2
102
RTVSPost2010PropOp53
 70
     1
102
RTVSPost2010Prop54
  1
strokes_ogs.tif
102
RTVSPost2010PropOp54
 70
     1
102
RTVSPost2010Prop55
280
     0
102
RTVSPost2010PropOp55
 70
     1
102
RTVSPost2010Prop56
140
1.0
102
RTVSPost2010PropOp56
 70
     1
102
RTVSPost2010Prop57
140
1.0
102
RTVSPost2010PropOp57
 70
     1
  0
ENDSEC
  0
EOF
