  0
SECTION
  2
HEADER
  9
$ACADVER
  1
AC1018
  9
$ACADMAINTVER
 70
     0
  9
$DWGCODEPAGE
  3
ANSI_932
  9
$LASTSAVEDBY
  1
m.murai
  9
$INSBASE
 10
0.0
 20
0.0
 30
0.0
  9
$EXTMIN
 10
-1050.0
 20
-742.5
 30
0.0
  9
$EXTMAX
 10
1050.0
 20
742.5
 30
0.0
  9
$LIMMIN
 10
-1050.0
 20
-742.5
  9
$LIMMAX
 10
1050.0
 20
742.5
  9
$ORTHOMODE
 70
     0
  9
$REGENMODE
 70
     1
  9
$FILLMODE
 70
     1
  9
$QTEXTMODE
 70
     0
  9
$MIRRTEXT
 70
     1
  9
$LTSCALE
 40
5.0
  9
$ATTMODE
 70
     1
  9
$TEXTSIZE
 40
2.5
  9
$TRACEWID
 40
1.0
  9
$TEXTSTYLE
  7
Standard
  9
$CLAYER
  8
0
  9
$CELTYPE
  6
ByLayer
  9
$CECOLOR
 62
   256
  9
$CELTSCALE
 40
1.0
  9
$DISPSILH
 70
     0
  9
$DIMSCALE
 40
1.0
  9
$DIMASZ
 40
2.5
  9
$DIMEXO
 40
0.625
  9
$DIMDLI
 40
3.75
  9
$DIMRND
 40
0.0
  9
$DIMDLE
 40
0.0
  9
$DIMEXE
 40
1.25
  9
$DIMTP
 40
0.0
  9
$DIMTM
 40
0.0
  9
$DIMTXT
 40
2.5
  9
$DIMCEN
 40
2.5
  9
$DIMTSZ
 40
0.0
  9
$DIMTOL
 70
     0
  9
$DIMLIM
 70
     0
  9
$DIMTIH
 70
     0
  9
$DIMTOH
 70
     0
  9
$DIMSE1
 70
     0
  9
$DIMSE2
 70
     0
  9
$DIMTAD
 70
     1
  9
$DIMZIN
 70
     8
  9
$DIMBLK
  1

  9
$DIMASO
 70
     1
  9
$DIMSHO
 70
     1
  9
$DIMPOST
  1

  9
$DIMAPOST
  1

  9
$DIMALT
 70
     0
  9
$DIMALTD
 70
     3
  9
$DIMALTF
 40
0.03937007874016
  9
$DIMLFAC
 40
1.0
  9
$DIMTOFL
 70
     1
  9
$DIMTVP
 40
0.0
  9
$DIMTIX
 70
     0
  9
$DIMSOXD
 70
     0
  9
$DIMSAH
 70
     0
  9
$DIMBLK1
  1

  9
$DIMBLK2
  1

  9
$DIMSTYLE
  2
ISO-25
  9
$DIMCLRD
 70
     0
  9
$DIMCLRE
 70
     0
  9
$DIMCLRT
 70
     0
  9
$DIMTFAC
 40
1.0
  9
$DIMGAP
 40
0.625
  9
$DIMJUST
 70
     0
  9
$DIMSD1
 70
     0
  9
$DIMSD2
 70
     0
  9
$DIMTOLJ
 70
     0
  9
$DIMTZIN
 70
     8
  9
$DIMALTZ
 70
     0
  9
$DIMALTTZ
 70
     0
  9
$DIMUPT
 70
     0
  9
$DIMDEC
 70
     2
  9
$DIMTDEC
 70
     2
  9
$DIMALTU
 70
     2
  9
$DIMALTTD
 70
     3
  9
$DIMTXSTY
  7
Standard
  9
$DIMAUNIT
 70
     0
  9
$DIMADEC
 70
     0
  9
$DIMALTRND
 40
0.0
  9
$DIMAZIN
 70
     0
  9
$DIMDSEP
 70
    44
  9
$DIMATFIT
 70
     3
  9
$DIMFRAC
 70
     0
  9
$DIMLDRBLK
  1

  9
$DIMLUNIT
 70
     2
  9
$DIMLWD
 70
    -2
  9
$DIMLWE
 70
    -2
  9
$DIMTMOVE
 70
     0
  9
$LUNITS
 70
     2
  9
$LUPREC
 70
     4
  9
$SKETCHINC
 40
1.0
  9
$FILLETRAD
 40
10.0
  9
$AUNITS
 70
     0
  9
$AUPREC
 70
     0
  9
$MENU
  1
.
  9
$ELEVATION
 40
0.0
  9
$PELEVATION
 40
0.0
  9
$THICKNESS
 40
0.0
  9
$LIMCHECK
 70
     0
  9
$CHAMFERA
 40
0.0
  9
$CHAMFERB
 40
0.0
  9
$CHAMFERC
 40
0.0
  9
$CHAMFERD
 40
0.0
  9
$SKPOLY
 70
     0
  9
$TDCREATE
 40
2460290.573371736
  9
$TDUCREATE
 40
2460290.198371736
  9
$TDUPDATE
 40
2460290.573371898
  9
$TDUUPDATE
 40
2460290.198371898
  9
$TDINDWG
 40
0.0000000116
  9
$TDUSRTIMER
 40
0.0000000116
  9
$USRTIMER
 70
     1
  9
$ANGBASE
 50
0.0
  9
$ANGDIR
 70
     0
  9
$PDMODE
 70
     0
  9
$PDSIZE
 40
0.0
  9
$PLINEWID
 40
0.0
  9
$SPLFRAME
 70
     0
  9
$SPLINETYPE
 70
     6
  9
$SPLINESEGS
 70
     8
  9
$HANDSEED
  5
3BE
  9
$SURFTAB1
 70
     6
  9
$SURFTAB2
 70
     6
  9
$SURFTYPE
 70
     6
  9
$SURFU
 70
     6
  9
$SURFV
 70
     6
  9
$UCSBASE
  2

  9
$UCSNAME
  2

  9
$UCSORG
 10
0.0
 20
0.0
 30
0.0
  9
$UCSXDIR
 10
1.0
 20
0.0
 30
0.0
  9
$UCSYDIR
 10
0.0
 20
1.0
 30
0.0
  9
$UCSORTHOREF
  2

  9
$UCSORTHOVIEW
 70
     0
  9
$UCSORGTOP
 10
0.0
 20
0.0
 30
0.0
  9
$UCSORGBOTTOM
 10
0.0
 20
0.0
 30
0.0
  9
$UCSORGLEFT
 10
0.0
 20
0.0
 30
0.0
  9
$UCSORGRIGHT
 10
0.0
 20
0.0
 30
0.0
  9
$UCSORGFRONT
 10
0.0
 20
0.0
 30
0.0
  9
$UCSORGBACK
 10
0.0
 20
0.0
 30
0.0
  9
$PUCSBASE
  2

  9
$PUCSNAME
  2

  9
$PUCSORG
 10
0.0
 20
0.0
 30
0.0
  9
$PUCSXDIR
 10
1.0
 20
0.0
 30
0.0
  9
$PUCSYDIR
 10
0.0
 20
1.0
 30
0.0
  9
$PUCSORTHOREF
  2

  9
$PUCSORTHOVIEW
 70
     0
  9
$PUCSORGTOP
 10
0.0
 20
0.0
 30
0.0
  9
$PUCSORGBOTTOM
 10
0.0
 20
0.0
 30
0.0
  9
$PUCSORGLEFT
 10
0.0
 20
0.0
 30
0.0
  9
$PUCSORGRIGHT
 10
0.0
 20
0.0
 30
0.0
  9
$PUCSORGFRONT
 10
0.0
 20
0.0
 30
0.0
  9
$PUCSORGBACK
 10
0.0
 20
0.0
 30
0.0
  9
$USERI1
 70
     0
  9
$USERI2
 70
     0
  9
$USERI3
 70
     0
  9
$USERI4
 70
     0
  9
$USERI5
 70
     0
  9
$USERR1
 40
0.0
  9
$USERR2
 40
0.0
  9
$USERR3
 40
0.0
  9
$USERR4
 40
0.0
  9
$USERR5
 40
0.0
  9
$WORLDVIEW
 70
     1
  9
$SHADEDGE
 70
     3
  9
$SHADEDIF
 70
    70
  9
$TILEMODE
 70
     1
  9
$MAXACTVP
 70
    64
  9
$PINSBASE
 10
0.0
 20
0.0
 30
0.0
  9
$PLIMCHECK
 70
     0
  9
$PEXTMIN
 10
1.000000000000000E+20
 20
1.000000000000000E+20
 30
1.000000000000000E+20
  9
$PEXTMAX
 10
-1.000000000000000E+20
 20
-1.000000000000000E+20
 30
-1.000000000000000E+20
  9
$PLIMMIN
 10
0.0
 20
0.0
  9
$PLIMMAX
 10
420.0
 20
297.0
  9
$UNITMODE
 70
     0
  9
$VISRETAIN
 70
     1
  9
$PLINEGEN
 70
     0
  9
$PSLTSCALE
 70
     1
  9
$TREEDEPTH
 70
  3020
  9
$CMLSTYLE
  2
Standard
  9
$CMLJUST
 70
     0
  9
$CMLSCALE
 40
20.0
  9
$PROXYGRAPHICS
 70
     1
  9
$MEASUREMENT
 70
     1
  9
$CELWEIGHT
370
    -1
  9
$ENDCAPS
280
     0
  9
$JOINSTYLE
280
     0
  9
$LWDISPLAY
290
     0
  9
$INSUNITS
 70
     4
  9
$HYPERLINKBASE
  1

  9
$STYLESHEET
  1

  9
$XEDIT
290
     1
  9
$CEPSNTYPE
380
     0
  9
$PSTYLEMODE
290
     1
  9
$FINGERPRINTGUID
  2
{088b7751-abe6-4973-bfaf-6455005773a2}
  9
$VERSIONGUID
  2
{FAEB1C32-E019-11D5-929B-00C0DF256EC4}
  9
$EXTNAMES
290
     1
  9
$PSVPSCALE
 40
0.0
  9
$OLESTARTUP
290
     0
  9
$SORTENTS
280
   127
  9
$INDEXCTL
280
     0
  9
$HIDETEXT
280
     1
  9
$XCLIPFRAME
290
     0
  9
$HALOGAP
280
     0
  9
$OBSCOLOR
 70
   257
  9
$OBSLTYPE
280
     0
  9
$INTERSECTIONDISPLAY
280
     0
  9
$INTERSECTIONCOLOR
 70
   257
  9
$DIMASSOC
280
     2
  9
$PROJECTNAME
  1

  0
ENDSEC
  0
SECTION
  2
CLASSES
  0
CLASS
  1
ACDBDICTIONARYWDFLT
  2
AcDbDictionaryWithDefault
  3
ObjectDBX Classes
 90
        0
 91
        3
280
     0
281
     0
  0
CLASS
  1
VISUALSTYLE
  2
AcDbVisualStyle
  3
ObjectDBX Classes
 90
     4095
 91
        3
280
     0
281
     0
  0
CLASS
  1
MATERIAL
  2
AcDbMaterial
  3
ObjectDBX Classes
 90
     1153
 91
        3
280
     0
281
     0
  0
CLASS
  1
SCALE
  2
AcDbScale
  3
ObjectDBX Classes
 90
     1153
 91
        3
280
     0
281
     0
  0
CLASS
  1
TABLESTYLE
  2
AcDbTableStyle
  3
ObjectDBX Classes
 90
     4095
 91
        3
280
     0
281
     0
  0
CLASS
  1
MLEADERSTYLE
  2
AcDbMLeaderStyle
  3
ACDB_MLEADERSTYLE_CLASS
 90
     4095
 91
        3
280
     0
281
     0
  0
CLASS
  1
SUN
  2
AcDbSun
  3
SCENEOE
 90
     1153
 91
        3
280
     0
281
     0
  0
CLASS
  1
DICTIONARYVAR
  2
AcDbDictionaryVar
  3
ObjectDBX Classes
 90
        0
 91
        3
280
     0
281
     0
  0
CLASS
  1
CELLSTYLEMAP
  2
AcDbCellStyleMap
  3
ObjectDBX Classes
 90
     1152
 91
        3
280
     0
281
     0
  0
ENDSEC
  0
SECTION
  2
TABLES
  0
TABLE
  2
VPORT
  5
8
102
{ACAD_XDICTIONARY
360
375
102
}
330
0
100
AcDbSymbolTable
 70
     1
  0
VPORT
  5
29
330
8
100
AcDbSymbolTableRecord
100
AcDbViewportTableRecord
  2
*Active
 70
     0
 10
0.0
 20
0.0
 11
1.0
 21
1.0
 12
0.0
 22
0.0
 13
0.0
 23
0.0
 14
10.0
 24
10.0
 15
10.0
 25
10.0
 16
0.0
 26
0.0
 36
1.0
 17
0.0
 27
0.0
 37
0.0
 40
1633.5
 41
1.414141414141414
 42
50.0
 43
0.0
 44
0.0
 50
0.0
 51
0.0
 71
     0
 72
 10000
 73
     1
 74
     3
 75
     0
 76
     0
 77
     0
 78
     0
281
     0
 65
     1
110
0.0
120
0.0
130
0.0
111
1.0
121
0.0
131
0.0
112
0.0
122
1.0
132
0.0
 79
     0
146
0.0
  0
ENDTAB
  0
TABLE
  2
LTYPE
  5
5
330
0
100
AcDbSymbolTable
 70
     7
  0
LTYPE
  5
14
330
5
100
AcDbSymbolTableRecord
100
AcDbLinetypeTableRecord
  2
ByBlock
 70
     0
  3

 72
    65
 73
     0
 40
0.0
  0
LTYPE
  5
15
330
5
100
AcDbSymbolTableRecord
100
AcDbLinetypeTableRecord
  2
ByLayer
 70
     0
  3

 72
    65
 73
     0
 40
0.0
  0
LTYPE
  5
16
330
5
100
AcDbSymbolTableRecord
100
AcDbLinetypeTableRecord
  2
Continuous
 70
     0
  3
Solid line
 72
    65
 73
     0
 40
0.0
  0
LTYPE
  5
6F
330
5
100
AcDbSymbolTableRecord
100
AcDbLinetypeTableRecord
  2
JWW_CENTER1
 70
     0
  3
-----  --  ----------  --  -----
 72
    65
 73
     8
 40
13.54666666666667
 49
4.233333333333333
 74
     0
 49
-0.8466666666666667
 74
     0
 49
0.8466666666666667
 74
     0
 49
-0.8466666666666667
 74
     0
 49
4.233333333333333
 74
     0
 49
-0.8466666666666667
 74
     0
 49
0.8466666666666667
 74
     0
 49
-0.8466666666666667
 74
     0
  0
LTYPE
  5
70
330
5
100
AcDbSymbolTableRecord
100
AcDbLinetypeTableRecord
  2
JWW_DASHED2
 70
     0
  3
--    ----    ----    ----    --
 72
    65
 73
     8
 40
13.54666666666667
 49
1.693333333333333
 74
     0
 49
-1.693333333333333
 74
     0
 49
1.693333333333333
 74
     0
 49
-1.693333333333333
 74
     0
 49
1.693333333333333
 74
     0
 49
-1.693333333333333
 74
     0
 49
1.693333333333333
 74
     0
 49
-1.693333333333333
 74
     0
  0
LTYPE
  5
71
330
5
100
AcDbSymbolTableRecord
100
AcDbLinetypeTableRecord
  2
JWW_PHANTOM1
 70
     0
  3
----  -  -  --------  -  -  ----
 72
    65
 73
    12
 40
13.54666666666667
 49
3.386666666666667
 74
     0
 49
-0.8466666666666667
 74
     0
 49
0.4233333333333333
 74
     0
 49
-0.8466666666666667
 74
     0
 49
0.4233333333333333
 74
     0
 49
-0.8466666666666667
 74
     0
 49
3.386666666666667
 74
     0
 49
-0.8466666666666667
 74
     0
 49
0.4233333333333333
 74
     0
 49
-0.8466666666666667
 74
     0
 49
0.4233333333333333
 74
     0
 49
-0.8466666666666667
 74
     0
  0
LTYPE
  5
72
330
5
100
AcDbSymbolTableRecord
100
AcDbLinetypeTableRecord
  2
JWW_DASHED1
 70
     0
  3
-  --  --  --  --  --  --  --  -
 72
    65
 73
    12
 40
10.16
 49
0.8466666666666667
 74
     0
 49
-0.8466666666666667
 74
     0
 49
0.8466666666666667
 74
     0
 49
-0.8466666666666667
 74
     0
 49
0.8466666666666667
 74
     0
 49
-0.8466666666666667
 74
     0
 49
0.8466666666666667
 74
     0
 49
-0.8466666666666667
 74
     0
 49
0.8466666666666667
 74
     0
 49
-0.8466666666666667
 74
     0
 49
0.8466666666666667
 74
     0
 49
-0.8466666666666667
 74
     0
  0
LTYPE
  5
73
330
5
100
AcDbSymbolTableRecord
100
AcDbLinetypeTableRecord
  2
JWW_CENTER2
 70
     0
  3
-------------  --  -------------
 72
    65
 73
     4
 40
13.54666666666667
 49
11.00666666666667
 74
     0
 49
-0.8466666666666667
 74
     0
 49
0.8466666666666667
 74
     0
 49
-0.8466666666666667
 74
     0
  0
LTYPE
  5
74
330
5
100
AcDbSymbolTableRecord
100
AcDbLinetypeTableRecord
  2
JWW_DASHED3
 70
     0
  3
---  ------  ------  ------  ---
 72
    65
 73
     8
 40
13.54666666666667
 49
2.54
 74
     0
 49
-0.8466666666666667
 74
     0
 49
2.54
 74
     0
 49
-0.8466666666666667
 74
     0
 49
2.54
 74
     0
 49
-0.8466666666666667
 74
     0
 49
2.54
 74
     0
 49
-0.8466666666666667
 74
     0
  0
ENDTAB
  0
TABLE
  2
LAYER
  5
2
330
0
100
AcDbSymbolTable
 70
    11
  0
LAYER
  5
10
330
2
100
AcDbSymbolTableRecord
100
AcDbLayerTableRecord
  2
0
 70
     0
 62
     7
  6
Continuous
370
    -3
390
F
  0
LAYER
  5
75
330
2
100
AcDbSymbolTableRecord
100
AcDbLayerTableRecord
  2
A-6
 70
     0
 62
     7
  6
Continuous
370
    -3
390
F
  0
LAYER
  5
76
330
2
100
AcDbSymbolTableRecord
100
AcDbLayerTableRecord
  2
F-5ﾚｲﾔ
 70
     0
 62
     7
  6
Continuous
370
    -3
390
F
  0
LAYER
  5
77
330
2
100
AcDbSymbolTableRecord
100
AcDbLayerTableRecord
  2
A-4
 70
     0
 62
     7
  6
Continuous
370
    -3
390
F
  0
LAYER
  5
78
330
2
100
AcDbSymbolTableRecord
100
AcDbLayerTableRecord
  2
A-F
 70
     0
 62
     7
  6
Continuous
370
    -3
390
F
  0
LAYER
  5
79
330
2
100
AcDbSymbolTableRecord
100
AcDbLayerTableRecord
  2
A-5
 70
     0
 62
     7
  6
Continuous
370
    -3
390
F
  0
LAYER
  5
7A
330
2
100
AcDbSymbolTableRecord
100
AcDbLayerTableRecord
  2
A-E
 70
     0
 62
     7
  6
Continuous
370
    -3
390
F
  0
LAYER
  5
7B
330
2
100
AcDbSymbolTableRecord
100
AcDbLayerTableRecord
  2
A-1
 70
     0
 62
     7
  6
Continuous
370
    -3
390
F
  0
LAYER
  5
7C
330
2
100
AcDbSymbolTableRecord
100
AcDbLayerTableRecord
  2
A-0
 70
     0
 62
     7
  6
Continuous
370
    -3
390
F
  0
LAYER
  5
7D
330
2
100
AcDbSymbolTableRecord
100
AcDbLayerTableRecord
  2
A-D
 70
     0
 62
     7
  6
Continuous
370
    -3
390
F
  0
LAYER
  5
7E
330
2
100
AcDbSymbolTableRecord
100
AcDbLayerTableRecord
  2
A-3
 70
     0
 62
     7
  6
Continuous
370
    -3
390
F
  0
ENDTAB
  0
TABLE
  2
STYLE
  5
3
330
0
100
AcDbSymbolTable
 70
     2
  0
STYLE
  5
11
330
3
100
AcDbSymbolTableRecord
100
AcDbTextStyleTableRecord
  2
Standard
 70
     0
 40
0.0
 41
1.0
 50
0.0
 71
     0
 42
2.5
  3
txt
  4

  0
STYLE
  5
6E
330
3
100
AcDbSymbolTableRecord
100
AcDbTextStyleTableRecord
  2
ＭＳ ゴシック
 70
     0
 40
0.0
 41
1.0
 50
0.0
 71
     0
 42
2.5
  3

  4

1001
ACAD
1000
MS Gothic
1071
    32817
  0
ENDTAB
  0
TABLE
  2
VIEW
  5
6
330
0
100
AcDbSymbolTable
 70
     0
  0
ENDTAB
  0
TABLE
  2
UCS
  5
7
330
0
100
AcDbSymbolTable
 70
     0
  0
ENDTAB
  0
TABLE
  2
APPID
  5
9
330
0
100
AcDbSymbolTable
 70
     2
  0
APPID
  5
12
330
9
100
AcDbSymbolTableRecord
100
AcDbRegAppTableRecord
  2
ACAD
 70
     0
  0
APPID
  5
3B4
330
9
100
AcDbSymbolTableRecord
100
AcDbRegAppTableRecord
  2
ACAD_MLEADERVER
 70
     0
  0
ENDTAB
  0
TABLE
  2
DIMSTYLE
  5
A
330
0
100
AcDbSymbolTable
 70
     2
100
AcDbDimStyleTable
  0
DIMSTYLE
105
27
330
A
100
AcDbSymbolTableRecord
100
AcDbDimStyleTableRecord
  2
ISO-25
 70
     0
 41
2.5
 42
0.625
 43
3.75
 44
1.25
 73
     0
 74
     0
 77
     1
 78
     8
140
2.5
141
2.5
143
0.03937007874016
147
0.625
171
     3
172
     1
178
     0
271
     2
272
     2
274
     3
278
    44
283
     0
284
     8
340
11
  0
DIMSTYLE
105
7F
330
A
100
AcDbSymbolTableRecord
100
AcDbDimStyleTableRecord
  2
JWAC_DIMSTYLE
 70
     0
  3
x
  4
mm
 41
0.0
 42
0.625
 43
3.75
 44
1.25
 73
     0
 74
     0
 75
     1
 76
     1
 77
     1
 78
     8
140
2.5
141
2.5
143
0.03937007874016
147
0.625
171
     3
172
     1
173
     1
178
     0
271
     2
272
     2
274
     3
278
    32
283
     0
284
     8
340
11
371
     0
372
     0
  0
ENDTAB
  0
TABLE
  2
BLOCK_RECORD
  5
1
330
0
100
AcDbSymbolTable
 70
     1
  0
BLOCK_RECORD
  5
1F
330
1
100
AcDbSymbolTableRecord
100
AcDbBlockTableRecord
  2
*Model_Space
340
22
  0
BLOCK_RECORD
  5
1B
330
1
100
AcDbSymbolTableRecord
100
AcDbBlockTableRecord
  2
*Paper_Space
340
1E
  0
BLOCK_RECORD
  5
23
330
1
100
AcDbSymbolTableRecord
100
AcDbBlockTableRecord
  2
*Paper_Space0
340
26
  0
ENDTAB
  0
ENDSEC
  0
SECTION
  2
BLOCKS
  0
BLOCK
  5
20
330
1F
100
AcDbEntity
  8
0
100
AcDbBlockBegin
  2
*Model_Space
 70
     0
 10
0.0
 20
0.0
 30
0.0
  3
*Model_Space
  1

  0
ENDBLK
  5
21
330
1F
100
AcDbEntity
  8
0
100
AcDbBlockEnd
  0
BLOCK
  5
1C
330
1B
100
AcDbEntity
 67
     1
  8
0
100
AcDbBlockBegin
  2
*Paper_Space
 70
     0
 10
0.0
 20
0.0
 30
0.0
  3
*Paper_Space
  1

  0
ENDBLK
  5
1D
330
1B
100
AcDbEntity
 67
     1
  8
0
100
AcDbBlockEnd
  0
BLOCK
  5
24
330
23
100
AcDbEntity
  8
0
100
AcDbBlockBegin
  2
*Paper_Space0
 70
     0
 10
0.0
 20
0.0
 30
0.0
  3
*Paper_Space0
  1

  0
ENDBLK
  5
25
330
23
100
AcDbEntity
  8
0
100
AcDbBlockEnd
  0
ENDSEC
  0
SECTION
  2
ENTITIES
  0
LINE
  5
80
330
1F
100
AcDbEntity
  8
A-6
  6
Continuous
 62
     6
370
     5
100
AcDbLine
 10
-153.3513480493636
 20
117.8242996465869
 30
0.0
 11
-691.405990135126
 21
117.8242996465869
 31
0.0
  0
TEXT
  5
81
330
1F
100
AcDbEntity
  8
F-5ﾚｲﾔ
  6
Continuous
 62
     2
370
     9
100
AcDbText
 10
-370.1048385556594
 20
-676.5256519184746
 30
0.0
 40
15.24
  1
外壁-外壁用　ＷＳＸ２２－５００Ｇ
 41
1.117424242424242
  7
ＭＳ ゴシック
100
AcDbText
  0
LINE
  5
82
330
1F
100
AcDbEntity
  8
A-4
  6
Continuous
 62
     7
370
     9
100
AcDbLine
 10
329.5455815775516
 20
-2.326765149385643
 30
0.0
 11
281.9202911670015
 21
3.659194533949197
 31
0.0
  0
LINE
  5
83
330
1F
100
AcDbEntity
  8
A-F
  6
Continuous
 62
     7
370
     9
100
AcDbLine
 10
329.5455815775516
 20
-2.326765149385643
 30
0.0
 11
343.8806725740859
 21
111.725602042021
 31
0.0
  0
LINE
  5
84
330
1F
100
AcDbEntity
  8
A-F
  6
Continuous
 62
     7
370
     9
100
AcDbLine
 10
326.5690009269051
 20
-1.952642669178779
 30
0.0
 11
340.9040919234393
 21
112.0997245222278
 31
0.0
  0
LINE
  5
85
330
1F
100
AcDbEntity
  8
A-4
  6
Continuous
 62
     3
370
     9
100
AcDbLine
 10
329.5455815775516
 20
-2.326765149385643
 30
0.0
 11
314.6626783241879
 21
-0.4561527493907036
 31
0.0
  0
LINE
  5
86
330
1F
100
AcDbEntity
  8
A-4
  6
Continuous
 62
     3
370
     9
100
AcDbLine
 10
330.7926565108817
 20
7.595170352856648
 30
0.0
 11
329.5455815775516
 21
-2.326765149385643
 31
0.0
  0
LINE
  5
87
330
1F
100
AcDbEntity
  8
A-4
  6
Continuous
 62
     3
370
     9
100
AcDbLine
 10
310.6993705197308
 20
8.10493311906864
 30
0.0
 11
330.5432415242157
 21
5.610783252408389
 31
0.0
  0
LINE
  5
88
330
1F
100
AcDbEntity
  8
A-4
  6
Continuous
 62
     3
370
     9
100
AcDbLine
 10
309.7017105730667
 20
0.1673847172744658
 30
0.0
 11
310.6993705197308
 21
8.10493311906864
 31
0.0
  0
ARC
  5
89
330
1F
100
AcDbEntity
  8
A-4
  6
Continuous
 62
     7
370
     9
100
AcDbCircle
 10
325.0043862122111
 20
142.8243301622245
 30
0.0
 40
2.0
100
AcDbArc
 50
38.49999999999986
 51
90.00000000000006
  0
ARC
  5
8A
330
1F
100
AcDbEntity
  8
A-4
  6
Continuous
 62
     7
370
     9
100
AcDbCircle
 10
325.0043862122112
 20
142.8243301622245
 30
0.0
 40
4.0
100
AcDbArc
 50
38.49999999999986
 51
90.00000000000006
  0
LWPOLYLINE
  5
8B
330
1F
100
AcDbEntity
  8
A-4
  6
Continuous
 62
     3
370
     9
100
AcDbPolyline
 90
        4
 70
     1
 43
1.0
 10
347.1486276319409
 20
121.0121138431483
 42
0.4142135623731
 10
346.6486276319409
 20
121.5121138431483
 42
0.4142135623731
 10
346.1486276319409
 20
121.0121138431483
 42
0.4142135623731
 10
346.6486276319409
 20
120.5121138431483
 42
0.4142135623731
  0
LINE
  5
8C
330
1F
100
AcDbEntity
  8
A-4
  6
Continuous
 62
     7
370
     9
100
AcDbLine
 10
343.0124316857508
 20
106.8015632769601
 30
0.0
 11
340.2983239356499
 21
107.2801337018528
 31
0.0
  0
LINE
  5
8D
330
1F
100
AcDbEntity
  8
A-4
  6
Continuous
 62
     7
370
     9
100
AcDbLine
 10
343.8806725740859
 20
111.725602042021
 30
0.0
 11
340.9226260918002
 21
112.2471854470379
 31
0.0
  0
ARC
  5
8E
330
1F
100
AcDbEntity
  8
A-5
  6
Continuous
 62
     3
370
     9
100
AcDbCircle
 10
343.6326532918946
 20
121.0121138431483
 30
0.0
 40
3.0
100
AcDbArc
 50
253.5
 51
38.5
  0
LINE
  5
8F
330
1F
100
AcDbEntity
  8
A-5
  6
Continuous
 62
     3
370
     9
100
AcDbLine
 10
342.7806072577832
 20
118.1356546385437
 30
0.0
 11
314.4069500074515
 21
126.5403148175207
 31
0.0
  0
LWPOLYLINE
  5
90
330
1F
100
AcDbEntity
  8
A-4
  6
Continuous
 62
     7
370
     9
100
AcDbPolyline
 90
        4
 70
     1
 43
1.0
 10
347.1326532918945
 20
121.0121138431483
 42
0.4142135623731
 10
346.6326532918946
 20
121.5121138431483
 42
0.4142135623731
 10
346.1326532918946
 20
121.0121138431483
 42
0.4142135623731
 10
346.6326532918946
 20
120.5121138431483
 42
0.4142135623731
  0
ELLIPSE
  5
91
330
1F
100
AcDbEntity
  8
A-E
  6
Continuous
 62
     4
370
     9
100
AcDbEllipse
 10
316.3435050331263
 20
121.6381950429527
 30
0.0
 11
-5.69545374114293
 21
1.961101993289439
 31
0.0
210
0.0
220
0.0
230
1.0
 40
0.6758999999999998
 41
5.777516263620245
 42
9.987412552677732
  0
LINE
  5
92
330
1F
100
AcDbEntity
  8
A-E
  6
Continuous
 62
     4
370
     9
100
AcDbLine
 10
323.5612187216447
 20
128.187491226478
 30
0.0
 11
322.3506134429989
 21
126.5915123171044
 31
0.0
  0
LINE
  5
93
330
1F
100
AcDbEntity
  8
A-E
  6
Continuous
 62
     4
370
     9
100
AcDbLine
 10
322.292579970076
 20
129.0430532188776
 30
0.0
 11
323.5612187216447
 21
128.187491226478
 31
0.0
  0
LINE
  5
94
330
1F
100
AcDbEntity
  8
A-E
  6
Continuous
 62
     4
370
     9
100
AcDbLine
 10
314.8179205469581
 20
127.9581069234339
 30
0.0
 11
314.3295285730658
 21
126.539713640287
 31
0.0
  0
LINE
  5
95
330
1F
100
AcDbEntity
  8
A-E
  6
Continuous
 62
     4
370
     9
100
AcDbLine
 10
319.4896577876038
 20
124.3559380291256
 30
0.0
 11
319.6691486641679
 21
124.8234127069
 31
0.0
  0
LINE
  5
96
330
1F
100
AcDbEntity
  8
A-E
  6
Continuous
 62
     4
370
     9
100
AcDbLine
 10
318.1547684342408
 20
124.7850119015639
 30
0.0
 11
318.3342259639511
 21
125.2525303376023
 31
0.0
  0
LINE
  5
97
330
1F
100
AcDbEntity
  8
A-E
  6
Continuous
 62
     4
370
     9
100
AcDbLine
 10
319.4896577876038
 20
124.3559380291256
 30
0.0
 11
318.3342259639511
 21
125.2525303376023
 31
0.0
  0
LINE
  5
98
330
1F
100
AcDbEntity
  8
A-E
  6
Continuous
 62
     4
370
     9
100
AcDbLine
 10
316.8199034438974
 20
125.2141096611632
 30
0.0
 11
316.999394320462
 21
125.6815843389373
 31
0.0
  0
LINE
  5
99
330
1F
100
AcDbEntity
  8
A-E
  6
Continuous
 62
     4
370
     9
100
AcDbLine
 10
318.1547684342408
 20
124.7850119015639
 30
0.0
 11
316.999394320462
 21
125.6815843389373
 31
0.0
  0
LINE
  5
9A
330
1F
100
AcDbEntity
  8
A-E
  6
Continuous
 62
     4
370
     9
100
AcDbLine
 10
315.4850767681846
 20
125.6431780899666
 30
0.0
 11
315.6644761121619
 21
126.1106681469269
 31
0.0
  0
LINE
  5
9B
330
1F
100
AcDbEntity
  8
A-E
  6
Continuous
 62
     4
370
     9
100
AcDbLine
 10
316.8199034438974
 20
125.2141096611632
 30
0.0
 11
315.6644761121619
 21
126.1106681469269
 31
0.0
  0
LINE
  5
9C
330
1F
100
AcDbEntity
  8
A-E
  6
Continuous
 62
     4
370
     9
100
AcDbLine
 10
315.4850767681846
 20
125.6431780899666
 30
0.0
 11
314.3295534119451
 21
126.5397857776292
 31
0.0
  0
LINE
  5
9D
330
1F
100
AcDbEntity
  8
A-E
  6
Continuous
 62
     4
370
     9
100
AcDbLine
 10
320.824575995904
 20
123.926854221136
 30
0.0
 11
319.6691486641679
 21
124.8234127069
 31
0.0
  0
LINE
  5
9E
330
1F
100
AcDbEntity
  8
A-E
  6
Continuous
 62
     4
370
     9
100
AcDbLine
 10
321.0040663966092
 20
124.394280648729
 30
0.0
 11
320.824575995904
 21
123.926854221136
 31
0.0
  0
LINE
  5
9F
330
1F
100
AcDbEntity
  8
A-E
  6
Continuous
 62
     4
370
     9
100
AcDbLine
 10
313.3431109120887
 20
124.7561509394489
 30
0.0
 11
320.4641052105835
 21
122.4671091882561
 31
0.0
  0
ELLIPSE
  5
A0
330
1F
100
AcDbEntity
  8
A-E
  6
Continuous
 62
     4
370
     9
100
AcDbEllipse
 10
316.3435050331263
 20
121.6381950429527
 30
0.0
 11
-4.749935165543611
 21
1.635533838832282
 31
0.0
210
0.0
220
0.0
230
1.0
 40
0.6113000000000001
 41
5.586205157237203
 42
10.18912916207193
  0
ARC
  5
A1
330
1F
100
AcDbEntity
  8
A-E
  6
Continuous
 62
     4
370
     9
100
AcDbCircle
 10
321.8959079394834
 20
122.5320394221486
 30
0.0
 40
0.5000000000000003
100
AcDbArc
 50
266.8085784912109
 51
338.9999999999999
  0
LINE
  5
A2
330
1F
100
AcDbEntity
  8
A-E
  6
Continuous
 62
     4
370
     9
100
AcDbLine
 10
322.3626860827116
 20
122.3528690717165
 30
0.0
 11
322.9110661883191
 21
123.7813012813424
 31
0.0
  0
LINE
  5
A3
330
1F
100
AcDbEntity
  8
A-E
  6
Continuous
 62
     4
370
     9
100
AcDbLine
 10
322.9110661883191
 20
123.7813012813424
 30
0.0
 11
321.0040663966092
 21
124.394280648729
 31
0.0
  0
LINE
  5
A4
330
1F
100
AcDbEntity
  8
A-E
  6
Continuous
 62
     4
370
     9
100
AcDbLine
 10
320.5958378766537
 20
127.2857579568972
 30
0.0
 11
320.474718911792
 21
126.79981471085
 31
0.0
  0
LINE
  5
A5
330
1F
100
AcDbEntity
  8
A-E
  6
Continuous
 62
     4
370
     9
100
AcDbLine
 10
321.9354512174244
 20
126.8715652066463
 30
0.0
 11
320.474718911792
 21
126.79981471085
 31
0.0
  0
LINE
  5
A6
330
1F
100
AcDbEntity
  8
A-E
  6
Continuous
 62
     4
370
     9
100
AcDbLine
 10
321.9354512174244
 20
126.8715652066463
 30
0.0
 11
322.3506134429989
 21
126.5915123171044
 31
0.0
  0
LINE
  5
A7
330
1F
100
AcDbEntity
  8
A-E
  6
Continuous
 62
     4
370
     9
100
AcDbLine
 10
321.614592315541
 20
128.9307671061986
 30
0.0
 11
321.3750294362059
 21
128.6149041663776
 31
0.0
  0
ARC
  5
A8
330
1F
100
AcDbEntity
  8
A-E
  6
Continuous
 62
     4
370
     9
100
AcDbCircle
 10
322.0129385169075
 20
128.6285508275941
 30
0.0
 40
0.5000000000000002
100
AcDbArc
 50
55.9999999999999
 51
142.8223876953124
  0
LINE
  5
A9
330
1F
100
AcDbEntity
  8
A-E
  6
Continuous
 62
     4
370
     9
100
AcDbLine
 10
320.5958378766537
 20
127.2857579568972
 30
0.0
 11
319.1350866974398
 21
127.2139969993037
 31
0.0
  0
LINE
  5
AA
330
1F
100
AcDbEntity
  8
A-E
  6
Continuous
 62
     4
370
     9
100
AcDbLine
 10
319.2562454594782
 20
127.6999129599845
 30
0.0
 11
319.1350866974398
 21
127.2139969993037
 31
0.0
  0
LINE
  5
AB
330
1F
100
AcDbEntity
  8
A-E
  6
Continuous
 62
     4
370
     9
100
AcDbLine
 10
319.2562454594782
 20
127.6999129599845
 30
0.0
 11
317.7955739804833
 21
127.6282085172693
 31
0.0
  0
LINE
  5
AC
330
1F
100
AcDbEntity
  8
A-E
  6
Continuous
 62
     4
370
     9
100
AcDbLine
 10
317.9166719158837
 20
128.1140784248691
 30
0.0
 11
317.7955739804833
 21
127.6282085172693
 31
0.0
  0
LINE
  5
AD
330
1F
100
AcDbEntity
  8
A-E
  6
Continuous
 62
     4
370
     9
100
AcDbLine
 10
317.9166719158837
 20
128.1140784248691
 30
0.0
 11
316.4559564338205
 21
128.0423865998305
 31
0.0
  0
LINE
  5
AE
330
1F
100
AcDbEntity
  8
A-E
  6
Continuous
 62
     4
370
     9
100
AcDbLine
 10
316.5771465812502
 20
128.5282459397663
 30
0.0
 11
316.4559564338205
 21
128.0423865998305
 31
0.0
  0
LINE
  5
AF
330
1F
100
AcDbEntity
  8
A-E
  6
Continuous
 62
     4
370
     9
100
AcDbLine
 10
316.5771465812502
 20
128.5282459397663
 30
0.0
 11
315.1163200135762
 21
128.4565542205948
 31
0.0
  0
LINE
  5
B0
330
1F
100
AcDbEntity
  8
A-E
  6
Continuous
 62
     4
370
     9
100
AcDbLine
 10
321.3750294362059
 20
128.6149041663776
 30
0.0
 11
314.1922037091779
 21
130.8355850847488
 31
0.0
  0
ARC
  5
B1
330
1F
100
AcDbEntity
  8
A-E
  6
Continuous
 62
     4
370
     9
100
AcDbCircle
 10
314.0444655731748
 20
130.3578938378756
 30
0.0
 40
0.5000000000000002
100
AcDbArc
 50
72.82011413574212
 51
165.9999999999999
  0
LINE
  5
B2
330
1F
100
AcDbEntity
  8
A-E
  6
Continuous
 62
     4
370
     9
100
AcDbLine
 10
311.9223416294589
 20
125.6915608984584
 30
0.0
 11
313.5776924454373
 21
130.4990487445921
 31
0.0
  0
LINE
  5
B3
330
1F
100
AcDbEntity
  8
A-4
  6
Continuous
 62
     3
370
     9
100
AcDbLine
 10
314.4069500074515
 20
126.5403148175207
 30
0.0
 11
314.9982609565705
 21
128.5365471269051
 31
0.0
  0
ARC
  5
B4
330
1F
100
AcDbEntity
  8
A-E
  6
Continuous
 62
     4
370
     9
100
AcDbCircle
 10
312.3951009172584
 20
125.5288016601091
 30
0.0
 40
0.5000000000000001
100
AcDbArc
 50
161.0
 51
218.3493499755859
  0
LINE
  5
B5
330
1F
100
AcDbEntity
  8
A-4
  6
Continuous
 62
     3
370
     9
100
AcDbLine
 10
326.5696025259159
 20
144.0693594354999
 30
0.0
 11
344.4150972196346
 21
121.6344978460512
 31
0.0
  0
ARC
  5
B6
330
1F
100
AcDbEntity
  8
A-4
  6
Continuous
 62
     3
370
     9
100
AcDbCircle
 10
325.0043862122111
 20
142.8243301622245
 30
0.0
 40
2.0
100
AcDbArc
 50
38.49999999999986
 51
90.00000000000006
  0
LINE
  5
B7
330
1F
100
AcDbEntity
  8
A-5
  6
Continuous
 62
     3
370
     9
100
AcDbLine
 10
328.1348188396208
 20
145.3143887087751
 30
0.0
 11
345.9803135333395
 21
122.8795271193266
 31
0.0
  0
ARC
  5
B8
330
1F
100
AcDbEntity
  8
A-4
  6
Continuous
 62
     3
370
     9
100
AcDbCircle
 10
325.0043862122112
 20
142.8243301622245
 30
0.0
 40
4.0
100
AcDbArc
 50
38.49999999999986
 51
90.00000000000006
  0
ARC
  5
B9
330
1F
100
AcDbEntity
  8
A-4
  6
Continuous
 62
     3
370
     9
100
AcDbCircle
 10
343.6326532918946
 20
121.0121138431483
 30
0.0
 40
0.9999999999999999
100
AcDbArc
 50
253.5
 51
38.5
  0
LINE
  5
BA
330
1F
100
AcDbEntity
  8
A-4
  6
Continuous
 62
     3
370
     9
100
AcDbLine
 10
343.348637947191
 20
120.0532941082802
 30
0.0
 11
314.9749806968593
 21
128.4579542872572
 31
0.0
  0
LINE
  5
BB
330
1F
100
AcDbEntity
  8
A-4
  6
Continuous
 62
     7
370
     9
100
AcDbLine
 10
282.1169548274818
 20
126.8243301622246
 30
0.0
 11
282.1169548274818
 21
129.8243301622244
 31
0.0
  0
LINE
  5
BC
330
1F
100
AcDbEntity
  8
A-4
  6
Continuous
 62
     7
370
     9
100
AcDbLine
 10
197.1019268723347
 20
126.8243301622246
 30
0.0
 11
282.1169548274818
 21
126.8243301622246
 31
0.0
  0
ARC
  5
BD
330
1F
100
AcDbEntity
  8
A-4
  6
Continuous
 62
     7
370
     9
100
AcDbCircle
 10
342.1169548274818
 20
113.4345825308676
 30
0.0
 40
130.0
100
AcDbArc
 50
207.5134917061958
 51
230.0427673610095
  0
LINE
  5
BE
330
1F
100
AcDbEntity
  8
A-4
  6
Continuous
 62
     7
370
     9
100
AcDbLine
 10
299.7034083271508
 20
78.68655574030652
 30
0.0
 11
341.3561613742459
 21
112.0146003117233
 31
0.0
  0
ARC
  5
BF
330
1F
100
AcDbEntity
  8
A-4
  6
Continuous
 62
     7
370
     9
100
AcDbCircle
 10
342.1169548274818
 20
113.4345825308679
 30
0.0
 40
60.0
100
AcDbArc
 50
179.9999981203058
 51
214.1110780682279
  0
ARC
  5
C0
330
1F
100
AcDbEntity
  8
A-4
  6
Continuous
 62
     7
370
     9
100
AcDbCircle
 10
296.5795992116541
 20
82.59063266192823
 30
0.0
 40
5.0
100
AcDbArc
 50
214.1110780682273
 51
308.6647080371723
  0
ARC
  5
C1
330
1F
100
AcDbEntity
  8
A-4
  6
Continuous
 62
     7
370
     9
100
AcDbCircle
 10
287.5286261795987
 20
48.28004028375542
 30
0.0
 40
45.0
100
AcDbArc
 50
230.0427673610095
 51
262.8361357859998
  0
LINE
  5
C2
330
1F
100
AcDbEntity
  8
A-4
  6
Continuous
 62
     7
370
     9
100
AcDbLine
 10
197.6674164799654
 20
109.348915924067
 30
0.0
 11
226.8196846258877
 21
53.38011155608964
 31
0.0
  0
ARC
  5
C3
330
1F
100
AcDbEntity
  8
A-4
  6
Continuous
 62
     7
370
     9
100
AcDbCircle
 10
202.1019268723347
 20
111.6587032692507
 30
0.0
 40
5.0
100
AcDbArc
 50
180.0
 51
207.5134917061954
  0
LINE
  5
C4
330
1F
100
AcDbEntity
  8
A-4
  6
Continuous
 62
     7
370
     9
100
AcDbLine
 10
282.1169548274817
 20
126.8243301622246
 30
0.0
 11
282.1169548274817
 21
113.4345844992793
 31
0.0
  0
LINE
  5
C5
330
1F
100
AcDbEntity
  8
A-4
  6
Continuous
 62
     7
370
     9
100
AcDbLine
 10
341.3561613742459
 20
112.0146003117233
 30
0.0
 11
343.8771703830473
 21
111.6977380278837
 31
0.0
  0
LINE
  5
C6
330
1F
100
AcDbEntity
  8
A-4
  6
Continuous
 62
     7
370
     9
100
AcDbLine
 10
334.6652150625119
 20
62.46218299728394
 30
0.0
 11
337.6417957131587
 21
62.08806051707722
 31
0.0
  0
LINE
  5
C7
330
1F
100
AcDbEntity
  8
A-4
  6
Continuous
 62
     3
370
     9
100
AcDbLine
 10
197.1019268723347
 20
109.8243301622244
 30
0.0
 11
197.1019268723347
 21
129.8243301622244
 31
0.0
  0
LINE
  5
C8
330
1F
100
AcDbEntity
  8
A-4
  6
Continuous
 62
     3
370
     9
100
AcDbLine
 10
197.1019268723347
 20
129.8243301622244
 30
0.0
 11
207.1019268723347
 21
129.8243301622244
 31
0.0
  0
LINE
  5
C9
330
1F
100
AcDbEntity
  8
A-4
  6
Continuous
 62
     3
370
     9
100
AcDbLine
 10
205.1019268723345
 20
129.8243301622244
 30
0.0
 11
205.1019268723345
 21
109.8243301622244
 31
0.0
  0
LINE
  5
CA
330
1F
100
AcDbEntity
  8
A-F
  6
Continuous
 62
     3
370
     9
100
AcDbLine
 10
205.1019268723345
 20
109.8243301622244
 30
0.0
 11
197.1019268723347
 21
109.8243301622244
 31
0.0
  0
LINE
  5
CB
330
1F
100
AcDbEntity
  8
A-1
  6
Continuous
 62
     2
370
     9
100
AcDbLine
 10
307.1326532918947
 20
129.8243301622244
 30
0.0
 11
307.1326532918947
 21
144.8243301622244
 31
0.0
  0
LINE
  5
CC
330
1F
100
AcDbEntity
  8
A-E
  6
Continuous
 62
     2
370
     9
100
AcDbLine
 10
281.9326105672851
 20
146.8243301622246
 30
0.0
 11
291.3327265340819
 21
146.8243301622246
 31
0.0
  0
LINE
  5
CD
330
1F
100
AcDbEntity
  8
A-E
  6
Continuous
 62
     2
370
     9
100
AcDbLine
 10
281.9326105672851
 20
147.1127975694511
 30
0.0
 11
281.9326105672851
 21
146.8243301622246
 31
0.0
  0
LINE
  5
CE
330
1F
100
AcDbEntity
  8
A-E
  6
Continuous
 62
     2
370
     9
100
AcDbLine
 10
291.3327265340819
 20
147.1127975694511
 30
0.0
 11
291.3327265340819
 21
146.8243301622246
 31
0.0
  0
LINE
  5
CF
330
1F
100
AcDbEntity
  8
A-E
  6
Continuous
 62
     2
370
     9
100
AcDbLine
 10
281.9326105672851
 20
147.1127975694511
 30
0.0
 11
291.3327265340819
 21
147.1127975694511
 31
0.0
  0
LINE
  5
D0
330
1F
100
AcDbEntity
  8
A-E
  6
Continuous
 62
     2
370
     9
100
AcDbLine
 10
286.1325617391601
 20
148.9038131944511
 30
0.0
 11
287.1326227743164
 21
148.9038131944511
 31
0.0
  0
LINE
  5
D1
330
1F
100
AcDbEntity
  8
A-E
  6
Continuous
 62
     2
370
     9
100
AcDbLine
 10
287.1326227743164
 20
149.3038528673025
 30
0.0
 11
287.1326227743164
 21
148.9038131944511
 31
0.0
  0
LINE
  5
D2
330
1F
100
AcDbEntity
  8
A-E
  6
Continuous
 62
     2
370
     9
100
AcDbLine
 10
286.1325617391601
 20
149.3038528673025
 30
0.0
 11
286.1325617391601
 21
148.9038131944511
 31
0.0
  0
ARC
  5
D3
330
1F
100
AcDbEntity
  8
A-E
  6
Continuous
 62
     2
370
     9
100
AcDbCircle
 10
286.6325922567382
 20
143.224354576287
 30
0.0
 40
6.099999904632569
100
AcDbArc
 50
39.60198974609384
 51
85.2985382080079
  0
ARC
  5
D4
330
1F
100
AcDbEntity
  8
A-E
  6
Continuous
 62
     2
370
     9
100
AcDbCircle
 10
286.6325922567382
 20
143.224354576287
 30
0.0
 40
6.099999904632569
100
AcDbArc
 50
94.70191955566406
 51
140.3980102539062
  0
LINE
  5
D5
330
1F
100
AcDbEntity
  8
A-E
  6
Continuous
 62
     2
370
     9
100
AcDbLine
 10
284.6326532918945
 20
146.8243301622246
 30
0.0
 11
284.6326532918945
 21
138.2884262315605
 31
0.0
  0
LINE
  5
D6
330
1F
100
AcDbEntity
  8
A-E
  6
Continuous
 62
     2
370
     9
100
AcDbLine
 10
285.232628877832
 20
146.8243301622246
 30
0.0
 11
285.232628877832
 21
137.2491806260916
 31
0.0
  0
LINE
  5
D7
330
1F
100
AcDbEntity
  8
A-E
  6
JWW_CENTER1
 62
     2
370
     9
100
AcDbLine
 10
286.6326532918945
 20
150.7301376573417
 30
0.0
 11
286.6326532918945
 21
133.2036331407401
 31
0.0
  0
LINE
  5
D8
330
1F
100
AcDbEntity
  8
A-E
  6
Continuous
 62
     2
370
     9
100
AcDbLine
 10
288.0326471883789
 20
146.8243301622246
 30
0.0
 11
288.0326471883789
 21
137.2492264024589
 31
0.0
  0
LINE
  5
D9
330
1F
100
AcDbEntity
  8
A-E
  6
Continuous
 62
     2
370
     9
100
AcDbLine
 10
288.6327143270507
 20
143.7912885141796
 30
0.0
 11
288.6327143270507
 21
138.2885177842948
 31
0.0
  0
LINE
  5
DA
330
1F
100
AcDbEntity
  8
A-E
  6
Continuous
 62
     2
370
     9
100
AcDbLine
 10
286.6326532918945
 20
134.8243149034354
 30
0.0
 11
288.6327143270507
 21
138.2885177842948
 31
0.0
  0
LINE
  5
DB
330
1F
100
AcDbEntity
  8
A-E
  6
Continuous
 62
     2
370
     9
100
AcDbLine
 10
286.6326532918945
 20
134.8243149034354
 30
0.0
 11
284.6326532918945
 21
138.2884262315605
 31
0.0
  0
LINE
  5
DC
330
1F
100
AcDbEntity
  8
A-E
  6
Continuous
 62
     2
370
     9
100
AcDbLine
 10
288.6327143270507
 20
146.8243301622246
 30
0.0
 11
288.6327143270507
 21
143.7912885141796
 31
0.0
  0
LWPOLYLINE
  5
DD
330
1F
100
AcDbEntity
  8
A-6
  6
Continuous
 62
     6
370
     5
100
AcDbPolyline
 90
        4
 70
     1
 43
1.0
 10
344.1326532918946
 20
121.0121138431483
 42
0.4142135623731
 10
343.6326532918946
 20
121.5121138431483
 42
0.4142135623731
 10
343.1326532918946
 20
121.0121138431483
 42
0.4142135623731
 10
343.6326532918946
 20
120.5121138431483
 42
0.4142135623731
  0
ARC
  5
DE
330
1F
100
AcDbEntity
  8
A-F
  6
Continuous
 62
     2
370
     9
100
AcDbCircle
 10
344.7326532918941
 20
-73.17570035341237
 30
0.0
 40
0.9999999999999991
100
AcDbArc
 50
0.0
 51
180.0
  0
LINE
  5
DF
330
1F
100
AcDbEntity
  8
A-5
  6
JWW_CENTER1
 62
     7
370
     9
100
AcDbLine
 10
326.0718016519103
 20
-62.68726496923296
 30
0.0
 11
198.9892316551567
 21
135.4226657274489
 31
0.0
  0
LINE
  5
E0
330
1F
100
AcDbEntity
  8
A-4
  6
Continuous
 62
    30
370
     5
100
AcDbLine
 10
321.6326532918946
 20
-46.67570035341317
 30
0.0
 11
342.6326532918947
 21
-46.67570035341317
 31
0.0
  0
LINE
  5
E1
330
1F
100
AcDbEntity
  8
A-4
  6
Continuous
 62
    30
370
     5
100
AcDbLine
 10
300.6326532918944
 20
125.3242996465869
 30
0.0
 11
300.6326532918944
 21
118.3242996465867
 31
0.0
  0
ARC
  5
E2
330
1F
100
AcDbEntity
  8
A-4
  6
Continuous
 62
    30
370
     5
100
AcDbCircle
 10
303.6326532918945
 20
118.3242996465867
 30
0.0
 40
3.0
100
AcDbArc
 50
180.0
 51
270.0
  0
LINE
  5
E3
330
1F
100
AcDbEntity
  8
A-4
  6
Continuous
 62
    30
370
     5
100
AcDbLine
 10
344.1326532918946
 20
115.3242996465869
 30
0.0
 11
303.6326532918945
 21
115.3242996465869
 31
0.0
  0
ARC
  5
E4
330
1F
100
AcDbEntity
  8
A-4
  6
Continuous
 62
    30
370
     5
100
AcDbCircle
 10
342.6326532918947
 20
-45.17570035341326
 30
0.0
 40
1.5
100
AcDbArc
 50
270.0
 51
0.0
  0
LINE
  5
E5
330
1F
100
AcDbEntity
  8
A-4
  6
Continuous
 62
    30
370
     5
100
AcDbLine
 10
321.6326532918946
 20
115.3242996465869
 30
0.0
 11
321.6326532918946
 21
-46.67570035341317
 31
0.0
  0
LINE
  5
E6
330
1F
100
AcDbEntity
  8
A-F
  6
Continuous
 62
    30
370
     5
100
AcDbLine
 10
346.6326532918946
 20
113.8242996465868
 30
0.0
 11
346.6326532918946
 21
32.82429964658672
 31
0.0
  0
LINE
  5
E7
330
1F
100
AcDbEntity
  8
A-1
  6
Continuous
 62
     6
370
     5
100
AcDbLine
 10
344.6326532918947
 20
117.8242996465869
 30
0.0
 11
314.6326532918947
 21
117.8242996465869
 31
0.0
  0
ARC
  5
E8
330
1F
100
AcDbEntity
  8
A-4
  6
Continuous
 62
     6
370
     5
100
AcDbCircle
 10
344.6326532918947
 20
115.8242996465867
 30
0.0
 40
1.0
100
AcDbArc
 50
0.0
 51
90.0
  0
ARC
  5
E9
330
1F
100
AcDbEntity
  8
A-4
  6
Continuous
 62
     6
370
     5
100
AcDbCircle
 10
344.6326532918947
 20
115.8242996465867
 30
0.0
 40
2.0
100
AcDbArc
 50
0.0
 51
90.0
  0
LINE
  5
EA
330
1F
100
AcDbEntity
  8
A-4
  6
Continuous
 62
     6
370
     5
100
AcDbLine
 10
344.6326532918947
 20
116.8242996465868
 30
0.0
 11
314.6326532918947
 21
116.8242996465868
 31
0.0
  0
ARC
  5
EB
330
1F
100
AcDbEntity
  8
A-4
  6
Continuous
 62
    30
370
     5
100
AcDbCircle
 10
342.6326532918947
 20
113.8242996465868
 30
0.0
 40
3.0
100
AcDbArc
 50
0.0
 51
90.0
  0
LINE
  5
EC
330
1F
100
AcDbEntity
  8
A-4
  6
Continuous
 62
     7
370
     9
100
AcDbLine
 10
343.3326064161547
 20
52.12313372020301
 30
0.0
 11
342.9973344254348
 21
53.93620085200592
 31
0.0
  0
LINE
  5
ED
330
1F
100
AcDbEntity
  8
A-4
  6
Continuous
 62
     7
370
     9
100
AcDbLine
 10
342.9973344254348
 20
53.93620085200592
 30
0.0
 11
342.3872062230784
 21
57.03485084280469
 31
0.0
  0
LINE
  5
EE
330
1F
100
AcDbEntity
  8
A-4
  6
Continuous
 62
     7
370
     9
100
AcDbLine
 10
342.3872062230784
 20
57.03485084280469
 30
0.0
 11
341.687986226434
 21
60.0575902151186
 31
0.0
  0
LINE
  5
EF
330
1F
100
AcDbEntity
  8
A-4
  6
Continuous
 62
     7
370
     9
100
AcDbLine
 10
341.687986226434
 20
60.0575902151186
 30
0.0
 11
340.8432872239254
 21
62.95637427370433
 31
0.0
  0
LINE
  5
F0
330
1F
100
AcDbEntity
  8
A-4
  6
Continuous
 62
     7
370
     9
100
AcDbLine
 10
340.8432872239254
 20
62.95637427370433
 30
0.0
 11
339.796722003979
 21
65.68315832331845
 31
0.0
  0
LINE
  5
F1
330
1F
100
AcDbEntity
  8
A-4
  6
Continuous
 62
     7
370
     9
100
AcDbLine
 10
339.796722003979
 20
65.68315832331845
 30
0.0
 11
338.4919033550186
 21
68.18989766871664
 31
0.0
  0
LINE
  5
F2
330
1F
100
AcDbEntity
  8
A-4
  6
Continuous
 62
     7
370
     9
100
AcDbLine
 10
338.4919033550186
 20
68.18989766871664
 30
0.0
 11
337.5945573239522
 21
69.52404989732625
 31
0.0
  0
LINE
  5
F3
330
1F
100
AcDbEntity
  8
A-4
  6
Continuous
 62
     7
370
     9
100
AcDbLine
 10
337.5945573239522
 20
69.52404989732625
 30
0.0
 11
335.8258447923425
 21
71.56058741302115
 31
0.0
  0
LINE
  5
F4
330
1F
100
AcDbEntity
  8
A-4
  6
Continuous
 62
     7
370
     9
100
AcDbLine
 10
335.8258447923425
 20
71.56058741302115
 30
0.0
 11
332.1345057542538
 21
74.54057175606548
 31
0.0
  0
LINE
  5
F5
330
1F
100
AcDbEntity
  8
A-4
  6
Continuous
 62
     7
370
     9
100
AcDbLine
 10
332.1345057542538
 20
74.54057175606548
 30
0.0
 11
327.8424491783625
 21
77.0520141193897
 31
0.0
  0
LINE
  5
F6
330
1F
100
AcDbEntity
  8
A-4
  6
Continuous
 62
     7
370
     9
100
AcDbLine
 10
327.8424491783625
 20
77.0520141193897
 30
0.0
 11
323.1958743852174
 21
79.3320930013179
 31
0.0
  0
LINE
  5
F7
330
1F
100
AcDbEntity
  8
A-4
  6
Continuous
 62
     7
370
     9
100
AcDbLine
 10
323.1958743852174
 20
79.3320930013179
 30
0.0
 11
318.4409806953663
 21
81.6179869001736
 31
0.0
  0
LINE
  5
F8
330
1F
100
AcDbEntity
  8
A-4
  6
Continuous
 62
     7
370
     9
100
AcDbLine
 10
318.4409806953663
 20
81.6179869001736
 30
0.0
 11
313.8239674293589
 21
84.14687431428047
 31
0.0
  0
LINE
  5
F9
330
1F
100
AcDbEntity
  8
A-4
  6
Continuous
 62
     7
370
     9
100
AcDbLine
 10
313.8239674293589
 20
84.14687431428047
 30
0.0
 11
311.3062918799404
 21
85.81842930477191
 31
0.0
  0
LINE
  5
FA
330
1F
100
AcDbEntity
  8
A-4
  6
Continuous
 62
     7
370
     9
100
AcDbLine
 10
311.3062918799404
 20
85.81842930477191
 30
0.0
 11
309.5956297605998
 21
87.14595823734624
 31
0.0
  0
LINE
  5
FB
330
1F
100
AcDbEntity
  8
A-4
  6
Continuous
 62
     7
370
     9
100
AcDbLine
 10
309.5956297605998
 20
87.14595823734624
 30
0.0
 11
306.8720845880324
 21
89.66836041120683
 31
0.0
  0
LINE
  5
FC
330
1F
100
AcDbEntity
  8
A-4
  6
Continuous
 62
     7
370
     9
100
AcDbLine
 10
306.8720845880324
 20
89.66836041120683
 30
0.0
 11
304.4487552563031
 21
92.45590375330633
 31
0.0
  0
LINE
  5
FD
330
1F
100
AcDbEntity
  8
A-4
  6
Continuous
 62
     7
370
     9
100
AcDbLine
 10
304.4487552563031
 20
92.45590375330633
 30
0.0
 11
302.3422714970773
 21
95.47311922662001
 31
0.0
  0
LINE
  5
FE
330
1F
100
AcDbEntity
  8
A-4
  6
Continuous
 62
     7
370
     9
100
AcDbLine
 10
302.3422714970773
 20
95.47311922662001
 30
0.0
 11
300.5692630420187
 21
98.68453779412275
 31
0.0
  0
LINE
  5
FF
330
1F
100
AcDbEntity
  8
A-4
  6
Continuous
 62
     7
370
     9
100
AcDbLine
 10
300.5692630420187
 20
98.68453779412275
 30
0.0
 11
299.1463596227939
 21
102.0546904187892
 31
0.0
  0
LINE
  5
100
330
1F
100
AcDbEntity
  8
A-4
  6
Continuous
 62
     7
370
     9
100
AcDbLine
 10
299.1463596227939
 20
102.0546904187892
 30
0.0
 11
298.4880467460833
 21
104.0681342411108
 31
0.0
  0
LINE
  5
101
330
1F
100
AcDbEntity
  8
A-4
  6
Continuous
 62
     7
370
     9
100
AcDbLine
 10
298.4880467460833
 20
104.0681342411108
 30
0.0
 11
298.0873882618487
 21
105.5614904016725
 31
0.0
  0
LINE
  5
102
330
1F
100
AcDbEntity
  8
A-4
  6
Continuous
 62
     7
370
     9
100
AcDbLine
 10
298.0873882618487
 20
105.5614904016725
 30
0.0
 11
297.5671437758518
 21
108.1720635786324
 31
0.0
  0
LINE
  5
103
330
1F
100
AcDbEntity
  8
A-4
  6
Continuous
 62
     7
370
     9
100
AcDbLine
 10
297.5671437758518
 20
108.1720635786324
 30
0.0
 11
297.280645478181
 21
110.8166594821953
 31
0.0
  0
LINE
  5
104
330
1F
100
AcDbEntity
  8
A-4
  6
Continuous
 62
     7
370
     9
100
AcDbLine
 10
297.280645478181
 20
110.8166594821953
 30
0.0
 11
297.2486668229373
 21
113.4821147005638
 31
0.0
  0
LINE
  5
105
330
1F
100
AcDbEntity
  8
A-4
  6
Continuous
 62
     7
370
     9
100
AcDbLine
 10
297.2486668229373
 20
113.4821147005638
 30
0.0
 11
297.4919812642227
 21
116.1552658219406
 31
0.0
  0
LINE
  5
106
330
1F
100
AcDbEntity
  8
A-4
  6
Continuous
 62
     7
370
     9
100
AcDbLine
 10
297.4919812642227
 20
116.1552658219406
 30
0.0
 11
298.0313622561378
 21
118.8229494345283
 31
0.0
  0
LINE
  5
107
330
1F
100
AcDbEntity
  8
A-4
  6
Continuous
 62
     7
370
     9
100
AcDbLine
 10
298.0313622561378
 20
118.8229494345283
 30
0.0
 11
298.4880467460833
 21
120.3625136485561
 31
0.0
  0
LINE
  5
108
330
1F
100
AcDbEntity
  8
A-4
  6
Continuous
 62
     7
370
     9
100
AcDbLine
 10
298.4880467460833
 20
120.3625136485561
 30
0.0
 11
299.1010194507087
 21
122.0053984729725
 31
0.0
  0
LINE
  5
109
330
1F
100
AcDbEntity
  8
A-4
  6
Continuous
 62
     7
370
     9
100
AcDbLine
 10
299.1010194507087
 20
122.0053984729725
 30
0.0
 11
300.4421999606673
 21
124.7534401362205
 31
0.0
  0
LINE
  5
10A
330
1F
100
AcDbEntity
  8
A-4
  6
Continuous
 62
     7
370
     9
100
AcDbLine
 10
300.4421999606673
 20
124.7534401362205
 30
0.0
 11
302.118822342656
 21
127.3029951399022
 31
0.0
  0
LINE
  5
10B
330
1F
100
AcDbEntity
  8
A-4
  6
Continuous
 62
     7
370
     9
100
AcDbLine
 10
302.118822342656
 20
127.3029951399022
 30
0.0
 11
304.1024321658241
 21
129.5476665422937
 31
0.0
  0
LINE
  5
10C
330
1F
100
AcDbEntity
  8
A-4
  6
Continuous
 62
     7
370
     9
100
AcDbLine
 10
304.1024321658241
 20
129.5476665422937
 30
0.0
 11
306.3645749993192
 21
131.3810574016712
 31
0.0
  0
LINE
  5
10D
330
1F
100
AcDbEntity
  8
A-4
  6
Continuous
 62
     7
370
     9
100
AcDbLine
 10
306.3645749993192
 20
131.3810574016712
 30
0.0
 11
308.8767964122898
 21
132.6967707763103
 31
0.0
  0
LINE
  5
10E
330
1F
100
AcDbEntity
  8
A-4
  6
Continuous
 62
     7
370
     9
100
AcDbLine
 10
308.8767964122898
 20
132.6967707763103
 30
0.0
 11
310.4372583115427
 21
133.1807587824133
 31
0.0
  0
LINE
  5
10F
330
1F
100
AcDbEntity
  8
A-4
  6
Continuous
 62
     7
370
     9
100
AcDbLine
 10
310.4372583115427
 20
133.1807587824133
 30
0.0
 11
311.9534542073478
 21
133.4293969220567
 31
0.0
  0
LINE
  5
110
330
1F
100
AcDbEntity
  8
A-4
  6
Continuous
 62
     7
370
     9
100
AcDbLine
 10
311.9534542073478
 20
133.4293969220567
 30
0.0
 11
314.6534986394144
 21
133.4185568754671
 31
0.0
  0
LINE
  5
111
330
1F
100
AcDbEntity
  8
A-4
  6
Continuous
 62
     7
370
     9
100
AcDbLine
 10
314.6534986394144
 20
133.4185568754671
 30
0.0
 11
317.3788197638704
 21
132.9001821772986
 31
0.0
  0
LINE
  5
112
330
1F
100
AcDbEntity
  8
A-4
  6
Continuous
 62
     7
370
     9
100
AcDbLine
 10
317.3788197638704
 20
132.9001821772986
 30
0.0
 11
320.0323540095641
 21
131.9310495710075
 31
0.0
  0
LINE
  5
113
330
1F
100
AcDbEntity
  8
A-4
  6
Continuous
 62
     7
370
     9
100
AcDbLine
 10
320.0323540095641
 20
131.9310495710075
 30
0.0
 11
322.5170378053426
 21
130.5679358000486
 31
0.0
  0
LINE
  5
114
330
1F
100
AcDbEntity
  8
A-4
  6
Continuous
 62
     7
370
     9
100
AcDbLine
 10
322.5170378053426
 20
130.5679358000486
 30
0.0
 11
324.735807580053
 21
128.867617607878
 31
0.0
  0
LINE
  5
115
330
1F
100
AcDbEntity
  8
A-4
  6
Continuous
 62
     7
370
     9
100
AcDbLine
 10
324.735807580053
 20
128.867617607878
 30
0.0
 11
325.8626041505913
 21
127.7492989799316
 31
0.0
  0
LINE
  5
116
330
1F
100
AcDbEntity
  8
A-4
  6
Continuous
 62
     7
370
     9
100
AcDbLine
 10
325.8626041505913
 20
127.7492989799316
 30
0.0
 11
326.3471967108634
 21
127.192239411994
 31
0.0
  0
LINE
  5
117
330
1F
100
AcDbEntity
  8
A-4
  6
Continuous
 62
     7
370
     9
100
AcDbLine
 10
326.3471967108634
 20
127.192239411994
 30
0.0
 11
327.1176009424707
 21
126.1933633285267
 31
0.0
  0
LINE
  5
118
330
1F
100
AcDbEntity
  8
A-4
  6
Continuous
 62
     7
370
     9
100
AcDbLine
 10
327.1176009424707
 20
126.1933633285267
 30
0.0
 11
327.8186271871646
 21
125.1535335102681
 31
0.0
  0
LINE
  5
119
330
1F
100
AcDbEntity
  8
A-4
  6
Continuous
 62
     7
370
     9
100
AcDbLine
 10
327.8186271871646
 20
125.1535335102681
 30
0.0
 11
328.4654234770204
 21
124.0816918207105
 31
0.0
  0
LINE
  5
11A
330
1F
100
AcDbEntity
  8
A-4
  6
Continuous
 62
     7
370
     9
100
AcDbLine
 10
328.4654234770204
 20
124.0816918207105
 30
0.0
 11
329.0731378441168
 21
122.9867801233445
 31
0.0
  0
LINE
  5
11B
330
1F
100
AcDbEntity
  8
A-4
  6
Continuous
 62
     7
370
     9
100
AcDbLine
 10
329.0731378441168
 20
122.9867801233445
 30
0.0
 11
329.656918320532
 21
121.8777402816623
 31
0.0
  0
LINE
  5
11C
330
1F
100
AcDbEntity
  8
A-4
  6
Continuous
 62
     7
370
     9
100
AcDbLine
 10
329.656918320532
 20
121.8777402816623
 30
0.0
 11
329.9905136004771
 21
121.2315472169535
 31
0.0
  0
LINE
  5
11D
330
1F
100
AcDbEntity
  8
A-4
  6
Continuous
 62
    30
370
     5
100
AcDbLine
 10
344.1326532918946
 20
106.8242996465868
 30
0.0
 11
331.1326532918946
 21
106.8242996465868
 31
0.0
  0
LINE
  5
11E
330
1F
100
AcDbEntity
  8
A-4
  6
Continuous
 62
    30
370
     5
100
AcDbLine
 10
331.1326532918946
 20
115.3242996465869
 30
0.0
 11
331.1326532918946
 21
106.8242996465868
 31
0.0
  0
LINE
  5
11F
330
1F
100
AcDbEntity
  8
A-4
  6
Continuous
 62
    30
370
     5
100
AcDbLine
 10
302.1326532918947
 20
125.3242996465869
 30
0.0
 11
302.1326532918947
 21
118.3242996465867
 31
0.0
  0
LINE
  5
120
330
1F
100
AcDbEntity
  8
A-4
  6
Continuous
 62
    30
370
     5
100
AcDbLine
 10
302.1326532918947
 20
125.3242996465869
 30
0.0
 11
300.6326532918944
 21
125.3242996465869
 31
0.0
  0
ARC
  5
121
330
1F
100
AcDbEntity
  8
A-4
  6
Continuous
 62
    30
370
     5
100
AcDbCircle
 10
303.6326532918945
 20
118.3242996465867
 30
0.0
 40
1.5
100
AcDbArc
 50
180.0
 51
270.0
  0
LINE
  5
122
330
1F
100
AcDbEntity
  8
A-1
  6
Continuous
 62
     6
370
     5
100
AcDbLine
 10
345.6326532918946
 20
116.8242996465868
 30
0.0
 11
345.6326532918946
 21
29.02429964658676
 31
0.0
  0
LINE
  5
123
330
1F
100
AcDbEntity
  8
A-1
  6
Continuous
 62
    30
370
     5
100
AcDbLine
 10
303.6326532918945
 20
116.8242996465868
 30
0.0
 11
345.6326532918946
 21
116.8242996465868
 31
0.0
  0
LINE
  5
124
330
1F
100
AcDbEntity
  8
A-0
  6
Continuous
 62
     2
370
     9
100
AcDbLine
 10
346.6326532918946
 20
115.8242996465867
 30
0.0
 11
346.6326532918946
 21
6.248487609119699
 31
0.0
  0
LINE
  5
125
330
1F
100
AcDbEntity
  8
A-4
  6
Continuous
 62
     6
370
     5
100
AcDbLine
 10
342.6326532918947
 20
117.8242996465869
 30
0.0
 11
311.6326532918945
 21
117.8242996465869
 31
0.0
  0
LINE
  5
126
330
1F
100
AcDbEntity
  8
A-4
  6
Continuous
 62
    30
370
     5
100
AcDbLine
 10
321.6326532918946
 20
-58.17570035341323
 30
0.0
 11
323.1326532918946
 21
-58.17570035341323
 31
0.0
  0
LINE
  5
127
330
1F
100
AcDbEntity
  8
A-4
  6
Continuous
 62
    30
370
     5
100
AcDbLine
 10
323.1326532918946
 20
-49.67570035341328
 30
0.0
 11
323.1326532918946
 21
-58.17570035341323
 31
0.0
  0
ARC
  5
128
330
1F
100
AcDbEntity
  8
A-4
  6
Continuous
 62
    30
370
     5
100
AcDbCircle
 10
324.6326532918947
 20
-49.67570035341328
 30
0.0
 40
1.5
100
AcDbArc
 50
90.0
 51
180.0
  0
LINE
  5
129
330
1F
100
AcDbEntity
  8
A-4
  6
Continuous
 62
    30
370
     5
100
AcDbLine
 10
321.6326532918946
 20
-49.67572240041267
 30
0.0
 11
321.6326532918946
 21
-58.17570035341323
 31
0.0
  0
ARC
  5
12A
330
1F
100
AcDbEntity
  8
A-4
  6
Continuous
 62
    30
370
     5
100
AcDbCircle
 10
324.6326532918947
 20
-49.67572240041267
 30
0.0
 40
3.0
100
AcDbArc
 50
90.0
 51
180.0
  0
LINE
  5
12B
330
1F
100
AcDbEntity
  8
A-4
  6
Continuous
 62
    30
370
     5
100
AcDbLine
 10
324.6326532918947
 20
-48.17570035341323
 30
0.0
 11
342.6326532918947
 21
-48.17570035341323
 31
0.0
  0
ARC
  5
12C
330
1F
100
AcDbEntity
  8
A-4
  6
Continuous
 62
    30
370
     5
100
AcDbCircle
 10
342.6326532918947
 20
-45.17570035341326
 30
0.0
 40
3.0
100
AcDbArc
 50
270.0
 51
0.0
  0
LINE
  5
12D
330
1F
100
AcDbEntity
  8
A-F
  6
JWW_DASHED2
 62
    30
370
     5
100
AcDbLine
 10
341.6326532918946
 20
-48.17570035341323
 30
0.0
 11
341.6326532918946
 21
-46.67570035341317
 31
0.0
  0
LINE
  5
12E
330
1F
100
AcDbEntity
  8
A-1
  6
Continuous
 62
    30
370
     5
100
AcDbLine
 10
345.6326532918946
 20
113.8242996465868
 30
0.0
 11
345.6326532918946
 21
-45.17570035341326
 31
0.0
  0
LINE
  5
12F
330
1F
100
AcDbEntity
  8
A-5
  6
JWW_PHANTOM1
 62
     7
370
     9
100
AcDbLine
 10
318.5413375062961
 20
-20.3924260233207
 30
0.0
 11
291.0470280250554
 21
-38.64243824659656
 31
0.0
  0
LINE
  5
130
330
1F
100
AcDbEntity
  8
A-5
  6
JWW_PHANTOM1
 62
     7
370
     9
100
AcDbLine
 10
291.0470280250554
 20
-38.64243824659656
 30
0.0
 11
205.8396812207009
 21
94.1879063922475
 31
0.0
  0
ARC
  5
131
330
1F
100
AcDbEntity
  8
A-5
  6
JWW_PHANTOM1
 62
     7
370
     9
100
AcDbCircle
 10
314.2716757082197
 20
-43.27243019329533
 30
0.0
 40
16.5
100
AcDbArc
 50
123.5751793022231
 51
74.13500009071964
  0
LINE
  5
132
330
1F
100
AcDbEntity
  8
A-5
  6
JWW_PHANTOM1
 62
     7
370
     9
100
AcDbLine
 10
233.3339907019424
 20
112.4379186155235
 30
0.0
 11
318.5413375062961
 21
-20.3924260233207
 31
0.0
  0
ARC
  5
133
330
1F
100
AcDbEntity
  8
A-5
  6
JWW_PHANTOM1
 62
     7
370
     9
100
AcDbCircle
 10
210.0015267758814
 20
116.7431711692846
 30
0.0
 40
16.5
100
AcDbArc
 50
301.6345308946536
 51
269.1699101248917
  0
LINE
  5
134
330
1F
100
AcDbEntity
  8
A-5
  6
JWW_PHANTOM1
 62
     7
370
     9
100
AcDbLine
 10
233.3339907019424
 20
112.4379186155235
 30
0.0
 11
205.8396812207009
 21
94.1879063922475
 31
0.0
  0
LINE
  5
135
330
1F
100
AcDbEntity
  8
A-4
  6
Continuous
 62
     6
370
     5
100
AcDbLine
 10
345.6326532918946
 20
31.82429964658677
 30
0.0
 11
346.6326532918946
 21
31.82429964658677
 31
0.0
  0
LINE
  5
136
330
1F
100
AcDbEntity
  8
A-4
  6
Continuous
 62
     6
370
     5
100
AcDbLine
 10
311.6326532918945
 20
117.8242996465869
 30
0.0
 11
311.6326532918945
 21
116.8242996465868
 31
0.0
  0
LINE
  5
137
330
1F
100
AcDbEntity
  8
A-F
  6
JWW_DASHED2
 62
    30
370
     5
100
AcDbLine
 10
331.6326532918946
 20
-48.17570035341323
 30
0.0
 11
331.6326532918946
 21
-46.67570035341317
 31
0.0
  0
LINE
  5
138
330
1F
100
AcDbEntity
  8
A-4
  6
Continuous
 62
     3
370
     9
100
AcDbLine
 10
317.3826532918946
 20
116.8242996465868
 30
0.0
 11
302.3826532918945
 21
116.8242996465868
 31
0.0
  0
LINE
  5
139
330
1F
100
AcDbEntity
  8
A-4
  6
Continuous
 62
     3
370
     9
100
AcDbLine
 10
317.3826532918946
 20
116.8242996465868
 30
0.0
 11
317.3826532918946
 21
115.3242996465869
 31
0.0
  0
LINE
  5
13A
330
1F
100
AcDbEntity
  8
A-4
  6
Continuous
 62
     3
370
     9
100
AcDbLine
 10
300.6326532918944
 20
125.3242996465869
 30
0.0
 11
300.6326532918944
 21
115.3242996465869
 31
0.0
  0
LINE
  5
13B
330
1F
100
AcDbEntity
  8
A-4
  6
Continuous
 62
     3
370
     9
100
AcDbLine
 10
302.3826532918945
 20
115.3242996465869
 30
0.0
 11
300.6326532918944
 21
115.3242996465869
 31
0.0
  0
LINE
  5
13C
330
1F
100
AcDbEntity
  8
A-4
  6
Continuous
 62
     3
370
     9
100
AcDbLine
 10
338.1326532918946
 20
115.3242996465869
 30
0.0
 11
317.3826532918946
 21
115.3242996465869
 31
0.0
  0
LINE
  5
13D
330
1F
100
AcDbEntity
  8
A-4
  6
Continuous
 62
     3
370
     9
100
AcDbLine
 10
344.1326532918946
 20
109.3242996465868
 30
0.0
 11
338.1326532918946
 21
115.3242996465869
 31
0.0
  0
LINE
  5
13E
330
1F
100
AcDbEntity
  8
A-4
  6
Continuous
 62
     3
370
     9
100
AcDbLine
 10
302.3826532918945
 20
116.8242996465868
 30
0.0
 11
302.3826532918945
 21
115.3242996465869
 31
0.0
  0
LINE
  5
13F
330
1F
100
AcDbEntity
  8
A-4
  6
Continuous
 62
     3
370
     9
100
AcDbLine
 10
345.6326532918946
 20
45.32429964658672
 30
0.0
 11
345.6326532918946
 21
30.32429964658672
 31
0.0
  0
LINE
  5
140
330
1F
100
AcDbEntity
  8
A-4
  6
Continuous
 62
     3
370
     9
100
AcDbLine
 10
345.6326532918946
 20
30.32429964658672
 30
0.0
 11
344.1326532918946
 21
30.32429964658672
 31
0.0
  0
LINE
  5
141
330
1F
100
AcDbEntity
  8
A-4
  6
Continuous
 62
     3
370
     9
100
AcDbLine
 10
344.1326532918946
 20
109.3242996465868
 30
0.0
 11
344.1326532918946
 21
45.32429964658672
 31
0.0
  0
LINE
  5
142
330
1F
100
AcDbEntity
  8
A-4
  6
Continuous
 62
     3
370
     9
100
AcDbLine
 10
344.1326532918946
 20
25.32429964658672
 30
0.0
 11
344.1326532918946
 21
30.32429964658672
 31
0.0
  0
LINE
  5
143
330
1F
100
AcDbEntity
  8
A-4
  6
JWW_DASHED1
 62
     7
370
     9
100
AcDbLine
 10
197.1019268723347
 20
126.8243301622246
 30
0.0
 11
282.1169548274818
 21
126.8243301622246
 31
0.0
  0
CIRCLE
  5
144
330
1F
100
AcDbEntity
  8
A-4
  6
Continuous
 62
     7
370
     9
100
AcDbCircle
 10
312.9093811253487
 20
19.54942070259886
 30
0.0
 40
4.0
  0
LINE
  5
145
330
1F
100
AcDbEntity
  8
A-4
  6
JWW_CENTER2
 62
     7
370
     9
100
AcDbLine
 10
317.8979048583827
 20
19.54942070259886
 30
0.0
 11
307.3050322062843
 21
19.54942070259886
 31
0.0
  0
LINE
  5
146
330
1F
100
AcDbEntity
  8
A-4
  6
JWW_CENTER2
 62
     7
370
     9
100
AcDbLine
 10
312.9093811253487
 20
24.72685810244865
 30
0.0
 11
312.9093811253487
 21
14.48708120542033
 31
0.0
  0
LINE
  5
147
330
1F
100
AcDbEntity
  8
A-4
  6
Continuous
 62
     3
370
     9
100
AcDbLine
 10
299.000290800171
 20
25.32429964658672
 30
0.0
 11
344.1326532918946
 21
25.32429964658672
 31
0.0
  0
ARC
  5
148
330
1F
100
AcDbEntity
  8
A-4
  6
Continuous
 62
     3
370
     9
100
AcDbCircle
 10
299.000290800171
 20
45.32429964658672
 30
0.0
 40
20.0
100
AcDbArc
 50
217.4782072656779
 51
270.0
  0
LINE
  5
149
330
1F
100
AcDbEntity
  8
A-4
  6
Continuous
 62
    30
370
     5
100
AcDbLine
 10
344.1326532918946
 20
-45.17570035341326
 30
0.0
 11
344.1326532918946
 21
115.3242996465869
 31
0.0
  0
ARC
  5
14A
330
1F
100
AcDbEntity
  8
A-F
  6
Continuous
 62
     2
370
     9
100
AcDbCircle
 10
342.732699068261
 20
-101.275767492085
 30
0.0
 40
2.899999856948853
100
AcDbArc
 50
90.00000000000001
 51
180.0
  0
LINE
  5
14B
330
1F
100
AcDbEntity
  8
A-F
  6
JWW_CENTER1
 62
     2
370
     9
100
AcDbLine
 10
371.2568632680903
 20
-102.1757003534133
 30
0.0
 11
331.7309395391475
 21
-102.1757003534133
 31
0.0
  0
LINE
  5
14C
330
1F
100
AcDbEntity
  8
A-F
  6
Continuous
 62
    30
370
     5
100
AcDbLine
 10
340.5947278458585
 20
-101.8127128832025
 30
0.0
 11
340.4235752060548
 21
-101.6415602433976
 31
0.0
  0
LINE
  5
14D
330
1F
100
AcDbEntity
  8
A-F
  6
Continuous
 62
    30
370
     5
100
AcDbLine
 10
346.6326532918935
 20
-72.20212137067438
 30
0.0
 11
346.6165106323966
 21
-72.21826403017008
 31
0.0
  0
LINE
  5
14E
330
1F
100
AcDbEntity
  8
A-F
  6
Continuous
 62
     2
370
     9
100
AcDbLine
 10
343.7327295858391
 20
-110.1758300531202
 30
0.0
 11
343.7327295858391
 21
-86.17563931826157
 31
0.0
  0
ARC
  5
14F
330
1F
100
AcDbEntity
  8
A-F
  6
Continuous
 62
     2
370
     9
100
AcDbCircle
 10
344.7326532918941
 20
-109.1757613885732
 30
0.0
 40
0.9999999999999991
100
AcDbArc
 50
180.7077590440263
 51
359.9999999999999
  0
ARC
  5
150
330
1F
100
AcDbEntity
  8
A-F
  6
Continuous
 62
     2
370
     9
100
AcDbCircle
 10
340.2327448446282
 20
-86.17563931826157
 30
0.0
 40
3.500000000000001
100
AcDbArc
 50
0.0000000000000254
 51
92.60691833496097
  0
ARC
  5
151
330
1F
100
AcDbEntity
  8
A-F
  6
Continuous
 62
     2
370
     9
100
AcDbCircle
 10
339.9825769979485
 20
-80.6812850702106
 30
0.0
 40
1.999999999999998
100
AcDbArc
 50
179.9999999999999
 51
272.6069793701172
  0
ARC
  5
152
330
1F
100
AcDbEntity
  8
A-F
  6
Continuous
 62
     2
370
     9
100
AcDbCircle
 10
338.9825769979483
 20
-73.17570035341237
 30
0.0
 40
0.9999999999999991
100
AcDbArc
 50
0.0
 51
180.0
  0
LINE
  5
153
330
1F
100
AcDbEntity
  8
A-F
  6
Continuous
 62
     2
370
     9
100
AcDbLine
 10
337.9825922567373
 20
-80.6812850702106
 30
0.0
 11
337.9825922567373
 21
-73.17570035341237
 31
0.0
  0
LINE
  5
154
330
1F
100
AcDbEntity
  8
A-F
  6
Continuous
 62
     2
370
     9
100
AcDbLine
 10
339.9825769979485
 20
-80.67570035341237
 30
0.0
 11
339.9825769979485
 21
-73.17570035341237
 31
0.0
  0
LINE
  5
155
330
1F
100
AcDbEntity
  8
A-F
  6
Continuous
 62
     2
370
     9
100
AcDbLine
 10
345.732638033105
 20
-109.1757613885732
 30
0.0
 11
345.732638033105
 21
-73.17570035341237
 31
0.0
  0
LINE
  5
156
330
1F
100
AcDbEntity
  8
A-F
  6
Continuous
 62
     2
370
     9
100
AcDbLine
 10
339.9825769979485
 20
-80.67570035341237
 30
0.0
 11
343.7327295858391
 21
-80.67570035341237
 31
0.0
  0
LINE
  5
157
330
1F
100
AcDbEntity
  8
A-F
  6
Continuous
 62
     2
370
     9
100
AcDbLine
 10
343.7327295858391
 20
-73.17570035341237
 30
0.0
 11
343.7327295858391
 21
-80.67570035341237
 31
0.0
  0
LINE
  5
158
330
1F
100
AcDbEntity
  8
A-F
  6
Continuous
 62
     2
370
     9
100
AcDbLine
 10
339.832796724511
 20
-101.275767492085
 30
0.0
 11
339.832796724511
 21
-103.0758926141555
 31
0.0
  0
LINE
  5
159
330
1F
100
AcDbEntity
  8
A-F
  6
JWW_DASHED1
 62
     2
370
     9
100
AcDbLine
 10
341.4670893270501
 20
-102.6716262567335
 30
0.0
 11
341.4670893270501
 21
-101.6802322137648
 31
0.0
  0
LINE
  5
15A
330
1F
100
AcDbEntity
  8
A-F
  6
JWW_DASHED1
 62
     2
370
     9
100
AcDbLine
 10
340.3167902547846
 20
-101.6802322137648
 30
0.0
 11
341.4670893270501
 21
-101.6802322137648
 31
0.0
  0
LINE
  5
15B
330
1F
100
AcDbEntity
  8
A-F
  6
JWW_DASHED1
 62
     2
370
     9
100
AcDbLine
 10
340.3167902547846
 20
-102.6716262567335
 30
0.0
 11
341.4670893270501
 21
-102.6716262567335
 31
0.0
  0
LINE
  5
15C
330
1F
100
AcDbEntity
  8
A-F
  6
Continuous
 62
     2
370
     9
100
AcDbLine
 10
342.732699068261
 20
-94.17572324159681
 30
0.0
 11
343.7327295858391
 21
-94.17572324159681
 31
0.0
  0
LINE
  5
15D
330
1F
100
AcDbEntity
  8
A-F
  6
Continuous
 62
     2
370
     9
100
AcDbLine
 10
342.732699068261
 20
-98.92587582948738
 30
0.0
 11
343.7327295858391
 21
-98.92587582948738
 31
0.0
  0
LINE
  5
15E
330
1F
100
AcDbEntity
  8
A-F
  6
Continuous
 62
     2
370
     9
100
AcDbLine
 10
342.732699068261
 20
-105.4258758294874
 30
0.0
 11
343.7327295858391
 21
-105.4258758294874
 31
0.0
  0
LINE
  5
15F
330
1F
100
AcDbEntity
  8
A-F
  6
Continuous
 62
     2
370
     9
100
AcDbLine
 10
342.732699068261
 20
-94.17572324159681
 30
0.0
 11
342.732699068261
 21
-110.1758300531202
 31
0.0
  0
LINE
  5
160
330
1F
100
AcDbEntity
  8
A-F
  6
Continuous
 62
     2
370
     9
100
AcDbLine
 10
342.732699068261
 20
-105.4255782831007
 30
0.0
 11
343.7327295858391
 21
-105.4255782831007
 31
0.0
  0
LINE
  5
161
330
1F
100
AcDbEntity
  8
A-F
  6
Continuous
 62
     2
370
     9
100
AcDbLine
 10
342.732699068261
 20
-98.9256774652296
 30
0.0
 11
343.7327295858391
 21
-98.9256774652296
 31
0.0
  0
LINE
  5
162
330
1F
100
AcDbEntity
  8
A-F
  6
Continuous
 62
     2
370
     9
100
AcDbLine
 10
343.7327295858391
 20
-98.9256774652296
 30
0.0
 11
345.7326075155266
 21
-98.9256774652296
 31
0.0
  0
LINE
  5
163
330
1F
100
AcDbEntity
  8
A-F
  6
Continuous
 62
     2
370
     9
100
AcDbLine
 10
343.7327295858391
 20
-105.4255782831007
 30
0.0
 11
345.7326075155266
 21
-105.4255782831007
 31
0.0
  0
LINE
  5
164
330
1F
100
AcDbEntity
  8
A-F
  6
Continuous
 62
     2
370
     9
100
AcDbLine
 10
345.7326075155266
 20
-99.62563626649913
 30
0.0
 11
342.732699068261
 21
-99.62563626649913
 31
0.0
  0
LINE
  5
165
330
1F
100
AcDbEntity
  8
A-F
  6
Continuous
 62
     2
370
     9
100
AcDbLine
 10
345.7326075155266
 20
-104.7256194818312
 30
0.0
 11
342.732699068261
 21
-104.7256194818312
 31
0.0
  0
ARC
  5
166
330
1F
100
AcDbEntity
  8
A-F
  6
Continuous
 62
     2
370
     9
100
AcDbCircle
 10
342.732699068261
 20
-103.0758926141555
 30
0.0
 40
2.899999856948853
100
AcDbArc
 50
180.0
 51
270.0
  0
ARC
  5
167
330
1F
100
AcDbEntity
  8
A-F
  6
JWW_DASHED1
 62
     2
370
     9
100
AcDbCircle
 10
340.3167902547846
 20
-101.1800567376905
 30
0.0
 40
0.5000000000000001
100
AcDbArc
 50
165.5855102539063
 51
270.0
  0
ARC
  5
168
330
1F
100
AcDbEntity
  8
A-F
  6
JWW_DASHED1
 62
     2
370
     9
100
AcDbCircle
 10
340.3167902547846
 20
-103.1714507806594
 30
0.0
 40
0.5000000000000001
100
AcDbArc
 50
90.00000000000006
 51
194.4144897460938
  0
LINE
  5
169
330
1F
100
AcDbEntity
  8
A-F
  6
Continuous
 62
     2
370
     9
100
AcDbLine
 10
342.732699068261
 20
-110.1758300531202
 30
0.0
 11
343.7327295858391
 21
-110.1758300531202
 31
0.0
  0
LINE
  5
16A
330
1F
100
AcDbEntity
  8
A-D
  6
Continuous
 62
     2
370
     9
100
AcDbLine
 10
307.1326532918947
 20
134.824324388627
 30
0.0
 11
294.6329114541102
 21
134.824324388627
 31
0.0
  0
LINE
  5
16B
330
1F
100
AcDbEntity
  8
A-4
  6
Continuous
 62
     3
370
     9
100
AcDbLine
 10
345.6326532918946
 20
45.32429964658672
 30
0.0
 11
344.1326532918946
 21
45.32429964658672
 31
0.0
  0
LINE
  5
16C
330
1F
100
AcDbEntity
  8
A-4
  6
Continuous
 62
    30
370
     5
100
AcDbLine
 10
345.6326532918946
 20
40.82429964658683
 30
0.0
 11
344.1326532918946
 21
40.82429964658683
 31
0.0
  0
LINE
  5
16D
330
1F
100
AcDbEntity
  8
A-F
  6
JWW_DASHED3
 62
     2
370
     9
100
AcDbLine
 10
344.1326532918946
 20
44.8243301641649
 30
0.0
 11
371.0912021045333
 21
44.8243301641649
 31
0.0
  0
LINE
  5
16E
330
1F
100
AcDbEntity
  8
A-F
  6
Continuous
 62
     2
370
     9
100
AcDbLine
 10
346.6326532918946
 20
43.82426912900865
 30
0.0
 11
371.3300409872072
 21
43.82426912900865
 31
0.0
  0
LINE
  5
16F
330
1F
100
AcDbEntity
  8
A-4
  6
Continuous
 62
     3
370
     9
100
AcDbLine
 10
344.1326532918946
 20
40.57429964658677
 30
0.0
 11
345.6326532918946
 21
40.57429964658677
 31
0.0
  0
LINE
  5
170
330
1F
100
AcDbEntity
  8
A-4
  6
Continuous
 62
    30
370
     5
100
AcDbLine
 10
345.6326532918946
 20
54.82429964658674
 30
0.0
 11
344.1326532918946
 21
54.82429964658674
 31
0.0
  0
LINE
  5
171
330
1F
100
AcDbEntity
  8
A-F
  6
JWW_DASHED3
 62
     2
370
     9
100
AcDbLine
 10
344.1326532918946
 20
50.82425387021953
 30
0.0
 11
369.6578538689045
 21
50.82425387021953
 31
0.0
  0
LINE
  5
172
330
1F
100
AcDbEntity
  8
A-F
  6
Continuous
 62
     2
370
     9
100
AcDbLine
 10
346.6326532918946
 20
51.82431490537578
 30
0.0
 11
369.4189234334962
 21
51.82431490537578
 31
0.0
  0
LINE
  5
173
330
1F
100
AcDbEntity
  8
A-F
  6
JWW_CENTER1
 62
     2
370
     9
100
AcDbLine
 10
339.1326377350823
 20
47.82429964658672
 30
0.0
 11
373.5073786336915
 21
47.82429964658672
 31
0.0
  0
LINE
  5
174
330
1F
100
AcDbEntity
  8
A-F
  6
Continuous
 62
     2
370
     9
100
AcDbLine
 10
368.5828180868165
 20
55.32429964658672
 30
0.0
 11
372.1662378866212
 21
40.32428438779771
 31
0.0
  0
LINE
  5
175
330
1F
100
AcDbEntity
  8
A-4
  6
Continuous
 62
     3
370
     9
100
AcDbLine
 10
344.1326532918946
 20
55.0742996465868
 30
0.0
 11
345.6326532918946
 21
55.0742996465868
 31
0.0
  0
LINE
  5
176
330
1F
100
AcDbEntity
  8
A-F
  6
Continuous
 62
     2
370
     9
100
AcDbLine
 10
343.1326532918946
 20
39.82429964658674
 30
0.0
 11
344.1326532918946
 21
39.82429964658674
 31
0.0
  0
LINE
  5
177
330
1F
100
AcDbEntity
  8
A-F
  6
Continuous
 62
     2
370
     9
100
AcDbLine
 10
343.1326532918946
 20
55.82429964658683
 30
0.0
 11
344.1326532918946
 21
55.82429964658683
 31
0.0
  0
LINE
  5
178
330
1F
100
AcDbEntity
  8
A-F
  6
Continuous
 62
     2
370
     9
100
AcDbLine
 10
341.332638753206
 20
47.32426912900859
 30
0.0
 11
339.832654011995
 21
47.32426912900859
 31
0.0
  0
LINE
  5
179
330
1F
100
AcDbEntity
  8
A-F
  6
Continuous
 62
     2
370
     9
100
AcDbLine
 10
341.332638753206
 20
48.32431490537584
 30
0.0
 11
341.332638753206
 21
47.32426912900859
 31
0.0
  0
LINE
  5
17A
330
1F
100
AcDbEntity
  8
A-F
  6
Continuous
 62
     2
370
     9
100
AcDbLine
 10
339.832654011995
 20
48.32431490537584
 30
0.0
 11
341.332638753206
 21
48.32431490537584
 31
0.0
  0
ARC
  5
17B
330
1F
100
AcDbEntity
  8
A-F
  6
Continuous
 62
     2
370
     9
100
AcDbCircle
 10
344.2826509602372
 20
47.82429964658672
 30
0.0
 40
4.449995040893554
100
AcDbArc
 50
104.9766540527344
 51
255.0232696533203
  0
LINE
  5
17C
330
1F
100
AcDbEntity
  8
A-F
  6
Continuous
 62
     7
370
     9
100
AcDbLine
 10
346.6326532918946
 20
52.82425387021956
 30
0.0
 11
345.6326532918946
 21
52.82425387021956
 31
0.0
  0
LINE
  5
17D
330
1F
100
AcDbEntity
  8
A-F
  6
Continuous
 62
     7
370
     9
100
AcDbLine
 10
345.6326532918946
 20
42.82433016416487
 30
0.0
 11
346.6326532918946
 21
42.82433016416487
 31
0.0
  0
LINE
  5
17E
330
1F
100
AcDbEntity
  8
A-F
  6
Continuous
 62
     2
370
     9
100
AcDbLine
 10
343.1326532918946
 20
39.82429964658674
 30
0.0
 11
343.1326532918946
 21
55.82429964658683
 31
0.0
  0
LINE
  5
17F
330
1F
100
AcDbEntity
  8
A-4
  6
Continuous
 62
     3
370
     9
100
AcDbLine
 10
224.7927949761558
 20
109.2397033556091
 30
0.0
 11
283.1285942335378
 21
33.15510706463169
 31
0.0
  0
ARC
  5
180
330
1F
100
AcDbEntity
  8
A-4
  6
Continuous
 62
     3
370
     9
100
AcDbCircle
 10
232.7286432594726
 20
115.3242996465869
 30
0.0
 40
10.0
100
AcDbArc
 50
90.0
 51
217.4782072656778
  0
LINE
  5
181
330
1F
100
AcDbEntity
  8
A-4
  6
Continuous
 62
     3
370
     9
100
AcDbLine
 10
232.7286432594726
 20
125.3242996465869
 30
0.0
 11
300.6326532918944
 21
125.3242996465869
 31
0.0
  0
LWPOLYLINE
  5
182
330
1F
100
AcDbEntity
  8
A-4
  6
Continuous
 62
     7
370
     9
100
AcDbPolyline
 90
        4
 70
     1
 43
1.0
 10
466.910219744876
 20
117.8242996465869
 42
0.4142135623731
 10
466.410219744876
 20
118.3242996465869
 42
0.4142135623731
 10
465.910219744876
 20
117.8242996465869
 42
0.4142135623731
 10
466.410219744876
 20
117.3242996465869
 42
0.4142135623731
  0
LWPOLYLINE
  5
183
330
1F
100
AcDbEntity
  8
A-4
  6
Continuous
 62
     7
370
     9
100
AcDbPolyline
 90
        4
 70
     1
 43
1.0
 10
466.910219744876
 20
146.8243301622246
 42
0.4142135623731
 10
466.410219744876
 20
147.3243301622246
 42
0.4142135623731
 10
465.910219744876
 20
146.8243301622246
 42
0.4142135623731
 10
466.410219744876
 20
146.3243301622246
 42
0.4142135623731
  0
LINE
  5
184
330
1F
100
AcDbEntity
  8
A-4
  6
Continuous
 62
     7
370
     9
100
AcDbLine
 10
466.410219744876
 20
146.8243301622246
 30
0.0
 11
466.410219744876
 21
117.8242996465869
 31
0.0
  0
LINE
  5
185
330
1F
100
AcDbEntity
  8
A-4
  6
Continuous
 62
     7
370
     9
100
AcDbLine
 10
417.3013123545462
 20
205.4976280591337
 30
0.0
 11
345.9541647405669
 21
81.92074341660484
 31
0.0
  0
LINE
  5
186
330
1F
100
AcDbEntity
  8
A-4
  6
Continuous
 62
     7
370
     9
100
AcDbLine
 10
345.9541647405669
 20
81.92074341660484
 30
0.0
 11
351.6944162260432
 21
95.77893640427416
 31
0.0
  0
LINE
  5
187
330
1F
100
AcDbEntity
  8
A-4
  6
Continuous
 62
     7
370
     9
100
AcDbLine
 10
345.9541647405669
 20
81.92074341660484
 30
0.0
 11
355.0855861756978
 21
93.8210435209734
 31
0.0
  0
LINE
  5
188
330
1F
100
AcDbEntity
  8
A-4
  6
Continuous
 62
     7
370
     9
100
AcDbLine
 10
210.5380907147648
 20
213.9100715195892
 30
0.0
 11
249.1896988649084
 21
146.963522409297
 31
0.0
  0
LINE
  5
189
330
1F
100
AcDbEntity
  8
A-4
  6
Continuous
 62
     7
370
     9
100
AcDbLine
 10
249.1896988649084
 20
146.963522409297
 30
0.0
 11
240.0582774297777
 21
158.8638225136655
 31
0.0
  0
LINE
  5
18A
330
1F
100
AcDbEntity
  8
A-4
  6
Continuous
 62
     7
370
     9
100
AcDbLine
 10
249.1896988649084
 20
146.963522409297
 30
0.0
 11
243.4494473794321
 21
160.8217153969663
 31
0.0
  0
LINE
  5
18B
330
1F
100
AcDbEntity
  8
A-4
  6
Continuous
 62
     7
370
     9
100
AcDbLine
 10
425.4532133376767
 20
-203.3813677599989
 30
0.0
 11
369.2160752549854
 21
-105.9757873285109
 31
0.0
  0
LINE
  5
18C
330
1F
100
AcDbEntity
  8
A-4
  6
Continuous
 62
     7
370
     9
100
AcDbLine
 10
369.2160752549854
 20
-105.9757873285109
 30
0.0
 11
378.3474966901163
 21
-117.8760874328794
 31
0.0
  0
LINE
  5
18D
330
1F
100
AcDbEntity
  8
A-4
  6
Continuous
 62
     7
370
     9
100
AcDbLine
 10
369.2160752549854
 20
-105.9757873285109
 30
0.0
 11
374.9563267404618
 21
-119.8339803161802
 31
0.0
  0
LINE
  5
18E
330
1F
100
AcDbEntity
  8
A-F
  6
Continuous
 62
     2
370
     9
100
AcDbLine
 10
345.7326532918938
 20
-98.37567441347178
 30
0.0
 11
370.2964807866159
 21
-98.37567441347178
 31
0.0
  0
LINE
  5
18F
330
1F
100
AcDbEntity
  8
A-F
  6
Continuous
 62
     2
370
     9
100
AcDbLine
 10
370.2964807866165
 20
-105.9757873285109
 30
0.0
 11
345.7326532918938
 21
-105.9757873285109
 31
0.0
  0
LINE
  5
190
330
1F
100
AcDbEntity
  8
A-F
  6
JWW_DASHED1
 62
     2
370
     9
100
AcDbLine
 10
345.7326532918938
 20
-99.62583463075691
 30
0.0
 11
370.8647028325145
 21
-99.62583463075691
 31
0.0
  0
LINE
  5
191
330
1F
100
AcDbEntity
  8
A-F
  6
JWW_DASHED1
 62
     2
370
     9
100
AcDbLine
 10
345.7326532918938
 20
-104.7258178460889
 30
0.0
 11
370.8647028325149
 21
-104.7258178460889
 31
0.0
  0
LINE
  5
192
330
1F
100
AcDbEntity
  8
A-5
  6
Continuous
 62
     7
370
     9
100
AcDbLine
 10
212.0521759493601
 20
23.61140508873969
 30
0.0
 11
257.5602786590184
 21
85.95067097791326
 31
0.0
  0
LINE
  5
193
330
1F
100
AcDbEntity
  8
A-5
  6
Continuous
 62
     7
370
     9
100
AcDbLine
 10
257.5602786590184
 20
85.95067097791326
 30
0.0
 11
251.5709409533539
 21
74.97898770470923
 31
0.0
  0
LINE
  5
194
330
1F
100
AcDbEntity
  8
A-5
  6
Continuous
 62
     7
370
     9
100
AcDbLine
 10
257.5602786590184
 20
85.95067097791326
 30
0.0
 11
248.9353420988122
 21
76.90299341223817
 31
0.0
  0
LWPOLYLINE
  5
195
330
1F
100
AcDbEntity
  8
A-4
  6
Continuous
 62
     7
370
     9
100
AcDbPolyline
 90
        4
 70
     1
 43
1.0
 10
347.1326532918945
 20
280.6399344032224
 42
0.4142135623731
 10
346.6326532918946
 20
281.1399344032224
 42
0.4142135623731
 10
346.1326532918946
 20
280.6399344032224
 42
0.4142135623731
 10
346.6326532918946
 20
280.1399344032224
 42
0.4142135623731
  0
LINE
  5
196
330
1F
100
AcDbEntity
  8
A-4
  6
Continuous
 62
     7
370
     9
100
AcDbLine
 10
466.410219744876
 20
117.8242996465869
 30
0.0
 11
466.410219744876
 21
-58.17570035341323
 31
0.0
  0
LWPOLYLINE
  5
197
330
1F
100
AcDbEntity
  8
A-4
  6
Continuous
 62
     7
370
     9
100
AcDbPolyline
 90
        4
 70
     1
 43
1.0
 10
466.910219744876
 20
117.8242996465869
 42
0.4142135623731
 10
466.410219744876
 20
118.3242996465869
 42
0.4142135623731
 10
465.910219744876
 20
117.8242996465869
 42
0.4142135623731
 10
466.410219744876
 20
117.3242996465869
 42
0.4142135623731
  0
LWPOLYLINE
  5
198
330
1F
100
AcDbEntity
  8
A-4
  6
Continuous
 62
     7
370
     9
100
AcDbPolyline
 90
        4
 70
     1
 43
1.0
 10
466.910219744876
 20
-58.17570035341323
 42
0.4142135623731
 10
466.410219744876
 20
-57.67570035341323
 42
0.4142135623731
 10
465.910219744876
 20
-58.17570035341323
 42
0.4142135623731
 10
466.410219744876
 20
-58.67570035341323
 42
0.4142135623731
  0
LINE
  5
199
330
1F
100
AcDbEntity
  8
A-4
  6
Continuous
 62
     7
370
     9
100
AcDbLine
 10
467.9102197448759
 20
-58.17570035341323
 30
0.0
 11
333.1326532918946
 21
-58.17570035341323
 31
0.0
  0
LWPOLYLINE
  5
19A
330
1F
100
AcDbEntity
  8
A-4
  6
Continuous
 62
     7
370
     9
100
AcDbPolyline
 90
        4
 70
     1
 43
1.0
 10
197.1326532918945
 20
-270.3418478865018
 42
0.4142135623731
 10
196.6326532918945
 20
-269.8418478865018
 42
0.4142135623731
 10
196.1326532918945
 20
-270.3418478865018
 42
0.4142135623731
 10
196.6326532918945
 20
-270.8418478865018
 42
0.4142135623731
  0
LWPOLYLINE
  5
19B
330
1F
100
AcDbEntity
  8
A-4
  6
Continuous
 62
     7
370
     9
100
AcDbPolyline
 90
        4
 70
     1
 43
1.0
 10
347.1326532918945
 20
-270.3418478865018
 42
0.4142135623731
 10
346.6326532918946
 20
-269.8418478865018
 42
0.4142135623731
 10
346.1326532918946
 20
-270.3418478865018
 42
0.4142135623731
 10
346.6326532918946
 20
-270.8418478865018
 42
0.4142135623731
  0
LINE
  5
19C
330
1F
100
AcDbEntity
  8
A-4
  6
Continuous
 62
     7
370
     9
100
AcDbLine
 10
196.6326532918945
 20
-270.3418478865018
 30
0.0
 11
346.6326532918946
 21
-270.3418478865018
 31
0.0
  0
LINE
  5
19D
330
1F
100
AcDbEntity
  8
A-4
  6
Continuous
 62
     7
370
     9
100
AcDbLine
 10
196.6326532918945
 20
-270.3418478865018
 30
0.0
 11
196.6326532918945
 21
-124.5745079654962
 31
0.0
  0
LINE
  5
19E
330
1F
100
AcDbEntity
  8
A-5
  6
Continuous
 62
     7
370
     9
100
AcDbLine
 10
361.4025874668127
 20
43.60337624521005
 30
0.0
 11
368.2549035675906
 21
33.14891480259998
 31
0.0
  0
LINE
  5
19F
330
1F
100
AcDbEntity
  8
A-5
  6
Continuous
 62
     7
370
     9
100
AcDbLine
 10
361.4025874668127
 20
43.60337624521005
 30
0.0
 11
365.3156028308131
 21
31.73163202790573
 31
0.0
  0
LINE
  5
1A0
330
1F
100
AcDbEntity
  8
A-D
  6
Continuous
 62
     2
370
     9
100
AcDbLine
 10
-160.1631780931564
 20
144.8242996446464
 30
0.0
 11
303.0020134307396
 21
144.8242996446464
 31
0.0
  0
LINE
  5
1A1
330
1F
100
AcDbEntity
  8
A-F
  6
Continuous
 62
    30
370
     5
100
AcDbLine
 10
-147.3134226033276
 20
48.1872871167975
 30
0.0
 11
-147.1422699635238
 21
48.35843975660236
 31
0.0
  0
LINE
  5
1A2
330
1F
100
AcDbEntity
  8
A-F
  6
Continuous
 62
     2
370
     9
100
AcDbLine
 10
-150.4514243433082
 20
39.82416994687977
 30
0.0
 11
-150.4514243433082
 21
63.82436068173842
 31
0.0
  0
LINE
  5
1A3
330
1F
100
AcDbEntity
  8
A-F
  6
Continuous
 62
     2
370
     9
100
AcDbLine
 10
-152.451332790574
 20
40.82423861142683
 30
0.0
 11
-152.451332790574
 21
76.82429964658778
 31
0.0
  0
LINE
  5
1A4
330
1F
100
AcDbEntity
  8
A-F
  6
Continuous
 62
     2
370
     9
100
AcDbLine
 10
-146.5514914819801
 20
48.72423250791496
 30
0.0
 11
-146.5514914819801
 21
46.92410738584453
 31
0.0
  0
LINE
  5
1A5
330
1F
100
AcDbEntity
  8
A-F
  6
Continuous
 62
     2
370
     9
100
AcDbLine
 10
-149.4513938257302
 20
55.82427675840318
 30
0.0
 11
-150.4514243433082
 21
55.82427675840318
 31
0.0
  0
LINE
  5
1A6
330
1F
100
AcDbEntity
  8
A-F
  6
Continuous
 62
     2
370
     9
100
AcDbLine
 10
-149.4513938257302
 20
51.07412417051261
 30
0.0
 11
-150.4514243433082
 21
51.07412417051261
 31
0.0
  0
LINE
  5
1A7
330
1F
100
AcDbEntity
  8
A-F
  6
Continuous
 62
     2
370
     9
100
AcDbLine
 10
-149.4513938257302
 20
44.57412417051255
 30
0.0
 11
-150.4514243433082
 21
44.57412417051255
 31
0.0
  0
LINE
  5
1A8
330
1F
100
AcDbEntity
  8
A-F
  6
Continuous
 62
     2
370
     9
100
AcDbLine
 10
-149.4513938257302
 20
55.82427675840318
 30
0.0
 11
-149.4513938257302
 21
39.82416994687977
 31
0.0
  0
LINE
  5
1A9
330
1F
100
AcDbEntity
  8
A-F
  6
Continuous
 62
     2
370
     9
100
AcDbLine
 10
-152.451348049363
 20
51.62432558652821
 30
0.0
 11
-165.4514243433082
 21
51.62432558652821
 31
0.0
  0
LINE
  5
1AA
330
1F
100
AcDbEntity
  8
A-F
  6
Continuous
 62
     2
370
     9
100
AcDbLine
 10
-165.4514243433087
 20
44.02421267148906
 30
0.0
 11
-152.451348049363
 21
44.02421267148906
 31
0.0
  0
LINE
  5
1AB
330
1F
100
AcDbEntity
  8
A-F
  6
Continuous
 62
     2
370
     9
100
AcDbLine
 10
-149.4513938257302
 20
44.5744217168993
 30
0.0
 11
-150.4514243433082
 21
44.5744217168993
 31
0.0
  0
LINE
  5
1AC
330
1F
100
AcDbEntity
  8
A-F
  6
Continuous
 62
     2
370
     9
100
AcDbLine
 10
-149.4513938257302
 20
51.0743225347704
 30
0.0
 11
-150.4514243433082
 21
51.0743225347704
 31
0.0
  0
LINE
  5
1AD
330
1F
100
AcDbEntity
  8
A-F
  6
Continuous
 62
     2
370
     9
100
AcDbLine
 10
-150.4514243433082
 20
51.0743225347704
 30
0.0
 11
-152.4513022729957
 21
51.0743225347704
 31
0.0
  0
LINE
  5
1AE
330
1F
100
AcDbEntity
  8
A-F
  6
Continuous
 62
     2
370
     9
100
AcDbLine
 10
-150.4514243433082
 20
44.5744217168993
 30
0.0
 11
-152.4513022729957
 21
44.5744217168993
 31
0.0
  0
LINE
  5
1AF
330
1F
100
AcDbEntity
  8
A-F
  6
Continuous
 62
     2
370
     9
100
AcDbLine
 10
-152.4513022729957
 20
50.37436373350086
 30
0.0
 11
-149.4513938257302
 21
50.37436373350086
 31
0.0
  0
LINE
  5
1B0
330
1F
100
AcDbEntity
  8
A-F
  6
Continuous
 62
     2
370
     9
100
AcDbLine
 10
-152.4513022729957
 20
45.27438051816883
 30
0.0
 11
-149.4513938257302
 21
45.27438051816883
 31
0.0
  0
LINE
  5
1B1
330
1F
100
AcDbEntity
  8
A-F
  6
Continuous
 62
     2
370
     9
100
AcDbLine
 10
-149.4513938257302
 20
39.82416994687977
 30
0.0
 11
-150.4514243433082
 21
39.82416994687977
 31
0.0
  0
LINE
  5
1B2
330
1F
100
AcDbEntity
  8
A-6
  6
Continuous
 62
     6
370
     5
100
AcDbLine
 10
-153.3513480493636
 20
117.8242996465869
 30
0.0
 11
-153.3513480493636
 21
-217.1219494629433
 31
0.0
  0
ARC
  5
1B3
330
1F
100
AcDbEntity
  8
A-F
  6
Continuous
 62
     2
370
     9
100
AcDbCircle
 10
-149.4513938257302
 20
48.72423250791496
 30
0.0
 40
2.899999856948852
100
AcDbArc
 50
0.0000000000000254
 51
90.00000000000001
  0
LINE
  5
1B4
330
1F
100
AcDbEntity
  8
A-F
  6
JWW_CENTER1
 62
     2
370
     9
100
AcDbLine
 10
-177.9755580255594
 20
47.82429964658672
 30
0.0
 11
-138.4496342966165
 21
47.82429964658672
 31
0.0
  0
ARC
  5
1B5
330
1F
100
AcDbEntity
  8
A-F
  6
Continuous
 62
     2
370
     9
100
AcDbCircle
 10
-151.4513480493631
 20
40.82423861142683
 30
0.0
 40
0.9999999999999992
100
AcDbArc
 50
180.0
 51
359.2922409559736
  0
ARC
  5
1B6
330
1F
100
AcDbEntity
  8
A-F
  6
Continuous
 62
     2
370
     9
100
AcDbCircle
 10
-146.9514396020972
 20
63.82436068173842
 30
0.0
 40
3.500000000000001
100
AcDbArc
 50
87.39308166503903
 51
179.9999999999999
  0
ARC
  5
1B7
330
1F
100
AcDbEntity
  8
A-F
  6
Continuous
 62
     2
370
     9
100
AcDbCircle
 10
-146.7012717554175
 20
69.31871492978954
 30
0.0
 40
1.999999999999998
100
AcDbArc
 50
267.3930206298829
 51
0.0000000000000568
  0
ARC
  5
1B8
330
1F
100
AcDbEntity
  8
A-F
  6
Continuous
 62
     2
370
     9
100
AcDbCircle
 10
-145.7012717554173
 20
76.82429964658778
 30
0.0
 40
0.9999999999999992
100
AcDbArc
 50
0.0
 51
180.0
  0
ARC
  5
1B9
330
1F
100
AcDbEntity
  8
A-F
  6
Continuous
 62
     2
370
     9
100
AcDbCircle
 10
-151.4513480493631
 20
76.82429964658778
 30
0.0
 40
0.9999999999999992
100
AcDbArc
 50
0.0
 51
180.0
  0
LINE
  5
1BA
330
1F
100
AcDbEntity
  8
A-F
  6
Continuous
 62
     2
370
     9
100
AcDbLine
 10
-144.7012870142064
 20
69.31871492978954
 30
0.0
 11
-144.7012870142064
 21
76.82429964658778
 31
0.0
  0
LINE
  5
1BB
330
1F
100
AcDbEntity
  8
A-F
  6
Continuous
 62
     2
370
     9
100
AcDbLine
 10
-146.7012717554175
 20
69.32429964658778
 30
0.0
 11
-146.7012717554175
 21
76.82429964658778
 31
0.0
  0
LINE
  5
1BC
330
1F
100
AcDbEntity
  8
A-F
  6
Continuous
 62
     2
370
     9
100
AcDbLine
 10
-146.7012717554175
 20
69.32429964658778
 30
0.0
 11
-150.4514243433082
 21
69.32429964658778
 31
0.0
  0
LINE
  5
1BD
330
1F
100
AcDbEntity
  8
A-F
  6
Continuous
 62
     2
370
     9
100
AcDbLine
 10
-150.4514243433082
 20
76.82429964658778
 30
0.0
 11
-150.4514243433082
 21
69.32429964658778
 31
0.0
  0
LINE
  5
1BE
330
1F
100
AcDbEntity
  8
A-F
  6
JWW_DASHED1
 62
     2
370
     9
100
AcDbLine
 10
-148.1857840845192
 20
47.32837374326646
 30
0.0
 11
-148.1857840845192
 21
48.31976778623524
 31
0.0
  0
LINE
  5
1BF
330
1F
100
AcDbEntity
  8
A-F
  6
JWW_DASHED1
 62
     2
370
     9
100
AcDbLine
 10
-147.0354850122536
 20
48.31976778623524
 30
0.0
 11
-148.1857840845192
 21
48.31976778623524
 31
0.0
  0
LINE
  5
1C0
330
1F
100
AcDbEntity
  8
A-F
  6
JWW_DASHED1
 62
     2
370
     9
100
AcDbLine
 10
-147.0354850122536
 20
47.32837374326646
 30
0.0
 11
-148.1857840845192
 21
47.32837374326646
 31
0.0
  0
LINE
  5
1C1
330
1F
100
AcDbEntity
  8
A-F
  6
JWW_DASHED1
 62
     2
370
     9
100
AcDbLine
 10
-152.451348049363
 20
50.37416536924308
 30
0.0
 11
-166.0196463892067
 21
50.37416536924308
 31
0.0
  0
LINE
  5
1C2
330
1F
100
AcDbEntity
  8
A-F
  6
JWW_DASHED1
 62
     2
370
     9
100
AcDbLine
 10
-152.451348049363
 20
45.27418215391105
 30
0.0
 11
-166.0196463892072
 21
45.27418215391105
 31
0.0
  0
ARC
  5
1C3
330
1F
100
AcDbEntity
  8
A-F
  6
Continuous
 62
     2
370
     9
100
AcDbCircle
 10
-149.4513938257302
 20
46.92410738584453
 30
0.0
 40
2.899999856948852
100
AcDbArc
 50
270.0
 51
0.0
  0
ARC
  5
1C4
330
1F
100
AcDbEntity
  8
A-F
  6
JWW_DASHED1
 62
     2
370
     9
100
AcDbCircle
 10
-147.0354850122536
 20
48.81994326230949
 30
0.0
 40
0.4999999999999999
100
AcDbArc
 50
270.0
 51
14.41448974609369
  0
ARC
  5
1C5
330
1F
100
AcDbEntity
  8
A-F
  6
JWW_DASHED1
 62
     2
370
     9
100
AcDbCircle
 10
-147.0354850122536
 20
46.82854921934062
 30
0.0
 40
0.4999999999999999
100
AcDbArc
 50
345.5855102539062
 51
89.99999999999997
  0
LINE
  5
1C6
330
1F
100
AcDbEntity
  8
A-4
  6
Continuous
 62
     7
370
     9
100
AcDbLine
 10
-149.8297412333449
 20
47.77413948484831
 30
0.0
 11
-140.6983197982142
 21
35.87383938047974
 31
0.0
  0
LINE
  5
1C7
330
1F
100
AcDbEntity
  8
A-4
  6
Continuous
 62
     7
370
     9
100
AcDbLine
 10
-149.8297412333449
 20
47.77413948484831
 30
0.0
 11
-144.0894897478686
 21
33.91594649717899
 31
0.0
  0
LINE
  5
1C8
330
1F
100
AcDbEntity
  8
A-4
  6
Continuous
 62
     7
370
     9
100
AcDbLine
 10
-75.31656589616122
 20
-81.28646603244209
 30
0.0
 11
-149.8297412333449
 21
47.77413948484831
 31
0.0
  0
LINE
  5
1C9
330
1F
100
AcDbEntity
  8
A-E
  6
Continuous
 62
     3
370
     9
100
AcDbLine
 10
-363.8673467081057
 20
144.8243301622244
 30
0.0
 11
325.0043862122111
 21
144.8243301622244
 31
0.0
  0
LINE
  5
1CA
330
1F
100
AcDbEntity
  8
A-E
  6
Continuous
 62
     4
370
     9
100
AcDbLine
 10
-421.5526139631689
 20
127.9581069234339
 30
0.0
 11
-421.0642219892767
 21
126.539713640287
 31
0.0
  0
LINE
  5
1CB
330
1F
100
AcDbEntity
  8
A-E
  6
Continuous
 62
     4
370
     9
100
AcDbLine
 10
-426.2243512038148
 20
124.3559380291256
 30
0.0
 11
-426.4038420803789
 21
124.8234127069
 31
0.0
  0
LINE
  5
1CC
330
1F
100
AcDbEntity
  8
A-E
  6
Continuous
 62
     4
370
     9
100
AcDbLine
 10
-424.8894618504514
 20
124.7850119015639
 30
0.0
 11
-425.068919380162
 21
125.2525303376023
 31
0.0
  0
LINE
  5
1CD
330
1F
100
AcDbEntity
  8
A-E
  6
Continuous
 62
     4
370
     9
100
AcDbLine
 10
-426.2243512038148
 20
124.3559380291256
 30
0.0
 11
-425.068919380162
 21
125.2525303376023
 31
0.0
  0
LINE
  5
1CE
330
1F
100
AcDbEntity
  8
A-E
  6
Continuous
 62
     4
370
     9
100
AcDbLine
 10
-423.5545968601085
 20
125.2141096611632
 30
0.0
 11
-423.7340877366731
 21
125.6815843389373
 31
0.0
  0
LINE
  5
1CF
330
1F
100
AcDbEntity
  8
A-E
  6
Continuous
 62
     4
370
     9
100
AcDbLine
 10
-424.8894618504514
 20
124.7850119015639
 30
0.0
 11
-423.7340877366731
 21
125.6815843389373
 31
0.0
  0
LINE
  5
1D0
330
1F
100
AcDbEntity
  8
A-E
  6
Continuous
 62
     4
370
     9
100
AcDbLine
 10
-422.2197701843956
 20
125.6431780899666
 30
0.0
 11
-422.3991695283726
 21
126.1106681469269
 31
0.0
  0
LINE
  5
1D1
330
1F
100
AcDbEntity
  8
A-E
  6
Continuous
 62
     4
370
     9
100
AcDbLine
 10
-423.5545968601085
 20
125.2141096611632
 30
0.0
 11
-422.3991695283726
 21
126.1106681469269
 31
0.0
  0
LINE
  5
1D2
330
1F
100
AcDbEntity
  8
A-E
  6
Continuous
 62
     4
370
     9
100
AcDbLine
 10
-422.2197701843956
 20
125.6431780899666
 30
0.0
 11
-421.0642468281557
 21
126.5397857776292
 31
0.0
  0
LINE
  5
1D3
330
1F
100
AcDbEntity
  8
A-E
  6
Continuous
 62
     4
370
     9
100
AcDbLine
 10
-427.5592694121147
 20
123.926854221136
 30
0.0
 11
-426.4038420803789
 21
124.8234127069
 31
0.0
  0
LINE
  5
1D4
330
1F
100
AcDbEntity
  8
A-E
  6
Continuous
 62
     4
370
     9
100
AcDbLine
 10
-427.7387598128198
 20
124.394280648729
 30
0.0
 11
-427.5592694121147
 21
123.926854221136
 31
0.0
  0
LINE
  5
1D5
330
1F
100
AcDbEntity
  8
A-E
  6
Continuous
 62
     4
370
     9
100
AcDbLine
 10
-420.0778043282995
 20
124.7561509394489
 30
0.0
 11
-427.1987986267945
 21
122.4671091882561
 31
0.0
  0
ELLIPSE
  5
1D6
330
1F
100
AcDbEntity
  8
A-E
  6
Continuous
 62
     4
370
     9
100
AcDbEllipse
 10
-423.0781984493373
 20
121.6381950429527
 30
0.0
 11
4.749935165543612
 21
1.635533838832282
 31
0.0
210
0.0
220
0.0
230
1.0
 40
0.6113
 41
2.377241452287241
 42
6.980165457121968
  0
ARC
  5
1D7
330
1F
100
AcDbEntity
  8
A-E
  6
Continuous
 62
     4
370
     9
100
AcDbCircle
 10
-428.6306013556944
 20
122.5320394221486
 30
0.0
 40
0.5000000000000002
100
AcDbArc
 50
201.0
 51
273.1914215087891
  0
LINE
  5
1D8
330
1F
100
AcDbEntity
  8
A-E
  6
Continuous
 62
     4
370
     9
100
AcDbLine
 10
-429.0973794989222
 20
122.3528690717165
 30
0.0
 11
-429.64575960453
 21
123.7813012813424
 31
0.0
  0
LINE
  5
1D9
330
1F
100
AcDbEntity
  8
A-E
  6
Continuous
 62
     4
370
     9
100
AcDbLine
 10
-429.64575960453
 20
123.7813012813424
 30
0.0
 11
-427.7387598128198
 21
124.394280648729
 31
0.0
  0
ELLIPSE
  5
1DA
330
1F
100
AcDbEntity
  8
A-E
  6
Continuous
 62
     4
370
     9
100
AcDbEllipse
 10
-423.0781984493373
 20
121.6381950429527
 30
0.0
 11
5.69545374114293
 21
1.961101993289439
 31
0.0
210
0.0
220
0.0
230
1.0
 40
0.6758999999999998
 41
2.578958061681439
 42
6.788854350738927
  0
ARC
  5
1DB
330
1F
100
AcDbEntity
  8
A-5
  6
Continuous
 62
     3
370
     9
100
AcDbCircle
 10
-450.3673467081055
 20
121.0121138431483
 30
0.0
 40
3.0
100
AcDbArc
 50
141.5000000000001
 51
286.5000000000001
  0
LINE
  5
1DC
330
1F
100
AcDbEntity
  8
A-5
  6
Continuous
 62
     3
370
     9
100
AcDbLine
 10
-449.5153006739937
 20
118.1356546385437
 30
0.0
 11
-421.1416434236625
 21
126.5403148175207
 31
0.0
  0
LWPOLYLINE
  5
1DD
330
1F
100
AcDbEntity
  8
A-4
  6
Continuous
 62
     7
370
     9
100
AcDbPolyline
 90
        4
 70
     1
 43
1.0
 10
-452.8673467081056
 20
121.0121138431483
 42
0.4142135623731
 10
-453.3673467081056
 20
121.5121138431483
 42
0.4142135623731
 10
-453.8673467081055
 20
121.0121138431483
 42
0.4142135623731
 10
-453.3673467081056
 20
120.5121138431483
 42
0.4142135623731
  0
LINE
  5
1DE
330
1F
100
AcDbEntity
  8
A-5
  6
Continuous
 62
     3
370
     9
100
AcDbLine
 10
-434.8695122558317
 20
145.3143887087751
 30
0.0
 11
-452.7150069495505
 21
122.8795271193266
 31
0.0
  0
LINE
  5
1DF
330
1F
100
AcDbEntity
  8
A-E
  6
Continuous
 62
     4
370
     9
100
AcDbLine
 10
-427.3305312928645
 20
127.2857579568972
 30
0.0
 11
-427.209412328003
 21
126.79981471085
 31
0.0
  0
LINE
  5
1E0
330
1F
100
AcDbEntity
  8
A-E
  6
Continuous
 62
     4
370
     9
100
AcDbLine
 10
-428.6701446336352
 20
126.8715652066463
 30
0.0
 11
-427.209412328003
 21
126.79981471085
 31
0.0
  0
LINE
  5
1E1
330
1F
100
AcDbEntity
  8
A-E
  6
Continuous
 62
     4
370
     9
100
AcDbLine
 10
-428.6701446336352
 20
126.8715652066463
 30
0.0
 11
-429.0853068592097
 21
126.5915123171044
 31
0.0
  0
LINE
  5
1E2
330
1F
100
AcDbEntity
  8
A-E
  6
Continuous
 62
     4
370
     9
100
AcDbLine
 10
-428.3492857317518
 20
128.9307671061986
 30
0.0
 11
-428.1097228524166
 21
128.6149041663776
 31
0.0
  0
ARC
  5
1E3
330
1F
100
AcDbEntity
  8
A-E
  6
Continuous
 62
     4
370
     9
100
AcDbCircle
 10
-428.7476319331185
 20
128.6285508275941
 30
0.0
 40
0.5000000000000001
100
AcDbArc
 50
37.17761230468755
 51
124.0
  0
LINE
  5
1E4
330
1F
100
AcDbEntity
  8
A-E
  6
Continuous
 62
     4
370
     9
100
AcDbLine
 10
-430.2959121378555
 20
128.187491226478
 30
0.0
 11
-429.0853068592097
 21
126.5915123171044
 31
0.0
  0
LINE
  5
1E5
330
1F
100
AcDbEntity
  8
A-E
  6
Continuous
 62
     4
370
     9
100
AcDbLine
 10
-429.0272733862869
 20
129.0430532188776
 30
0.0
 11
-430.2959121378555
 21
128.187491226478
 31
0.0
  0
LINE
  5
1E6
330
1F
100
AcDbEntity
  8
A-E
  6
Continuous
 62
     4
370
     9
100
AcDbLine
 10
-427.3305312928645
 20
127.2857579568972
 30
0.0
 11
-425.8697801136506
 21
127.2139969993037
 31
0.0
  0
LINE
  5
1E7
330
1F
100
AcDbEntity
  8
A-E
  6
Continuous
 62
     4
370
     9
100
AcDbLine
 10
-425.990938875689
 20
127.6999129599845
 30
0.0
 11
-425.8697801136506
 21
127.2139969993037
 31
0.0
  0
LINE
  5
1E8
330
1F
100
AcDbEntity
  8
A-E
  6
Continuous
 62
     4
370
     9
100
AcDbLine
 10
-425.990938875689
 20
127.6999129599845
 30
0.0
 11
-424.5302673966941
 21
127.6282085172693
 31
0.0
  0
LINE
  5
1E9
330
1F
100
AcDbEntity
  8
A-E
  6
Continuous
 62
     4
370
     9
100
AcDbLine
 10
-424.6513653320946
 20
128.1140784248691
 30
0.0
 11
-424.5302673966941
 21
127.6282085172693
 31
0.0
  0
LINE
  5
1EA
330
1F
100
AcDbEntity
  8
A-E
  6
Continuous
 62
     4
370
     9
100
AcDbLine
 10
-424.6513653320946
 20
128.1140784248691
 30
0.0
 11
-423.1906498500311
 21
128.0423865998305
 31
0.0
  0
LINE
  5
1EB
330
1F
100
AcDbEntity
  8
A-E
  6
Continuous
 62
     4
370
     9
100
AcDbLine
 10
-423.3118399974612
 20
128.5282459397663
 30
0.0
 11
-423.1906498500311
 21
128.0423865998305
 31
0.0
  0
LINE
  5
1EC
330
1F
100
AcDbEntity
  8
A-E
  6
Continuous
 62
     4
370
     9
100
AcDbLine
 10
-423.3118399974612
 20
128.5282459397663
 30
0.0
 11
-421.851013429787
 21
128.4565542205948
 31
0.0
  0
LINE
  5
1ED
330
1F
100
AcDbEntity
  8
A-E
  6
Continuous
 62
     4
370
     9
100
AcDbLine
 10
-428.1097228524166
 20
128.6149041663776
 30
0.0
 11
-420.9268971253888
 21
130.8355850847488
 31
0.0
  0
ARC
  5
1EE
330
1F
100
AcDbEntity
  8
A-E
  6
Continuous
 62
     4
370
     9
100
AcDbCircle
 10
-420.7791589893858
 20
130.3578938378756
 30
0.0
 40
0.5000000000000001
100
AcDbArc
 50
14.00000000000004
 51
107.1798858642578
  0
LINE
  5
1EF
330
1F
100
AcDbEntity
  8
A-E
  6
Continuous
 62
     4
370
     9
100
AcDbLine
 10
-418.6570350456699
 20
125.6915608984584
 30
0.0
 11
-420.3123858616479
 21
130.4990487445921
 31
0.0
  0
LINE
  5
1F0
330
1F
100
AcDbEntity
  8
A-4
  6
Continuous
 62
     3
370
     9
100
AcDbLine
 10
-421.1416434236625
 20
126.5403148175207
 30
0.0
 11
-421.7329543727814
 21
128.5365471269051
 31
0.0
  0
ARC
  5
1F1
330
1F
100
AcDbEntity
  8
A-E
  6
Continuous
 62
     4
370
     9
100
AcDbCircle
 10
-419.1297943334692
 20
125.5288016601091
 30
0.0
 40
0.5
100
AcDbArc
 50
321.650650024414
 51
18.99999999999996
  0
ARC
  5
1F2
330
1F
100
AcDbEntity
  8
A-4
  6
Continuous
 62
     3
370
     9
100
AcDbCircle
 10
-450.3673467081055
 20
121.0121138431483
 30
0.0
 40
1.0
100
AcDbArc
 50
141.5000000000001
 51
286.5000000000001
  0
LINE
  5
1F3
330
1F
100
AcDbEntity
  8
A-4
  6
Continuous
 62
     3
370
     9
100
AcDbLine
 10
-450.0833313634016
 20
120.0532941082802
 30
0.0
 11
-421.7096741130703
 21
128.4579542872572
 31
0.0
  0
LINE
  5
1F4
330
1F
100
AcDbEntity
  8
A-4
  6
Continuous
 62
     3
370
     9
100
AcDbLine
 10
-433.3042959421269
 20
144.0693594354999
 30
0.0
 11
-451.1497906358451
 21
121.6344978460512
 31
0.0
  0
ARC
  5
1F5
330
1F
100
AcDbEntity
  8
A-4
  6
Continuous
 62
     3
370
     9
100
AcDbCircle
 10
-431.7390796284221
 20
142.8243301622245
 30
0.0
 40
2.0
100
AcDbArc
 50
90.0
 51
141.5000000000002
  0
ARC
  5
1F6
330
1F
100
AcDbEntity
  8
A-4
  6
Continuous
 62
     3
370
     9
100
AcDbCircle
 10
-431.7390796284221
 20
142.8243301622245
 30
0.0
 40
4.0
100
AcDbArc
 50
90.0
 51
141.5000000000002
  0
LINE
  5
1F7
330
1F
100
AcDbEntity
  8
A-1
  6
Continuous
 62
     2
370
     9
100
AcDbLine
 10
-405.8673619668943
 20
131.8240414824308
 30
0.0
 11
-412.8673467081055
 21
131.8240414824308
 31
0.0
  0
LINE
  5
1F8
330
1F
100
AcDbEntity
  8
A-1
  6
Continuous
 62
     2
370
     9
100
AcDbLine
 10
-413.9852666299802
 20
117.824102517587
 30
0.0
 11
-414.3673161905272
 21
117.824102517587
 31
0.0
  0
LINE
  5
1F9
330
1F
100
AcDbEntity
  8
A-1
  6
Continuous
 62
     2
370
     9
100
AcDbLine
 10
-402.3673619668946
 20
131.8240414824308
 30
0.0
 11
-404.8673467081053
 21
131.8240414824308
 31
0.0
  0
LINE
  5
1FA
330
1F
100
AcDbEntity
  8
A-1
  6
Continuous
 62
     2
370
     9
100
AcDbLine
 10
-405.8673619668943
 20
131.6476803984463
 30
0.0
 11
-405.8673619668943
 21
131.8240414824308
 31
0.0
  0
LINE
  5
1FB
330
1F
100
AcDbEntity
  8
A-1
  6
Continuous
 62
     2
370
     9
100
AcDbLine
 10
-405.5779027383787
 20
131.4689084257901
 30
0.0
 11
-404.8673467081053
 21
131.8240414824308
 31
0.0
  0
LINE
  5
1FC
330
1F
100
AcDbEntity
  8
A-1
  6
Continuous
 62
     2
370
     9
100
AcDbLine
 10
-415.3673314493162
 20
134.8242245878995
 30
0.0
 11
-402.3673619668946
 21
134.8242245878995
 31
0.0
  0
LINE
  5
1FD
330
1F
100
AcDbEntity
  8
A-1
  6
Continuous
 62
     2
370
     9
100
AcDbLine
 10
-412.5478581827147
 20
118.8954831328213
 30
0.0
 11
-411.6673192422851
 21
121.8476926054776
 31
0.0
  0
LINE
  5
1FE
330
1F
100
AcDbEntity
  8
A-1
  6
Continuous
 62
     2
370
     9
100
AcDbLine
 10
-405.7699498575195
 20
131.5592709746181
 30
0.0
 11
-405.9668034952151
 21
131.7858029570401
 31
0.0
  0
ARC
  5
1FF
330
1F
100
AcDbEntity
  8
A-1
  6
Continuous
 62
     2
370
     9
100
AcDbCircle
 10
-414.3673161905272
 20
119.3241635527431
 30
0.0
 40
1.5
100
AcDbArc
 50
180.0
 51
270.0
  0
ARC
  5
200
330
1F
100
AcDbEntity
  8
A-1
  6
Continuous
 62
     2
370
     9
100
AcDbCircle
 10
-413.9852666299802
 20
119.3241635527431
 30
0.0
 40
1.5
100
AcDbArc
 50
270.0
 51
343.3929595947266
  0
ARC
  5
201
330
1F
100
AcDbEntity
  8
A-1
  6
Continuous
 62
     2
370
     9
100
AcDbCircle
 10
-405.6673345010742
 20
131.6476803984463
 30
0.0
 40
0.2000000029802323
100
AcDbArc
 50
180.0
 51
296.5650482177734
  0
ARC
  5
202
330
1F
100
AcDbEntity
  8
A-1
  6
Continuous
 62
     2
370
     9
100
AcDbCircle
 10
-415.3673314493162
 20
134.3241940703214
 30
0.0
 40
0.5
100
AcDbArc
 50
89.99999999999997
 51
180.0
  0
LINE
  5
203
330
1F
100
AcDbEntity
  8
A-1
  6
Continuous
 62
     2
370
     9
100
AcDbLine
 10
-411.6673192422851
 20
123.8244076933682
 30
0.0
 11
-411.6673192422851
 21
121.8476926054776
 31
0.0
  0
ARC
  5
204
330
1F
100
AcDbEntity
  8
A-1
  6
Continuous
 62
     2
370
     9
100
AcDbCircle
 10
-402.3673619668946
 20
133.3243466582119
 30
0.0
 40
1.5
100
AcDbArc
 50
270.0
 51
90.0
  0
LINE
  5
205
330
1F
100
AcDbEntity
  8
A-1
  6
Continuous
 62
     2
370
     9
100
AcDbLine
 10
-412.8673467081055
 20
123.8244076933682
 30
0.0
 11
-412.8673467081055
 21
131.8243243886266
 31
0.0
  0
LINE
  5
206
330
1F
100
AcDbEntity
  8
A-D
  6
Continuous
 62
     2
370
     9
100
AcDbLine
 10
-415.8673467081061
 20
134.3241940703214
 30
0.0
 11
-415.8673467081061
 21
119.3242996446463
 31
0.0
  0
LINE
  5
207
330
1F
100
AcDbEntity
  8
A-1
  6
Continuous
 62
     2
370
     9
100
AcDbLine
 10
-411.6673192422851
 20
123.8244076933682
 30
0.0
 11
-412.8673467081055
 21
123.8244076933682
 31
0.0
  0
LINE
  5
208
330
1F
100
AcDbEntity
  8
A-1
  6
Continuous
 62
     2
370
     9
100
AcDbLine
 10
-412.8673467081055
 20
134.8243466582119
 30
0.0
 11
-412.8673467081055
 21
144.8243301622244
 31
0.0
  0
LINE
  5
209
330
1F
100
AcDbEntity
  8
A-1
  6
Continuous
 62
     2
370
     9
100
AcDbLine
 10
-405.8673619668943
 20
131.8243243886266
 30
0.0
 11
-412.8673467081055
 21
131.8243243886266
 31
0.0
  0
LINE
  5
20A
330
1F
100
AcDbEntity
  8
A-E
  6
Continuous
 62
     2
370
     9
100
AcDbLine
 10
-388.6673039834963
 20
146.8243301622246
 30
0.0
 11
-398.0674199502928
 21
146.8243301622246
 31
0.0
  0
LINE
  5
20B
330
1F
100
AcDbEntity
  8
A-E
  6
Continuous
 62
     2
370
     9
100
AcDbLine
 10
-388.6673039834963
 20
147.1127975694511
 30
0.0
 11
-388.6673039834963
 21
146.8243301622246
 31
0.0
  0
LINE
  5
20C
330
1F
100
AcDbEntity
  8
A-E
  6
Continuous
 62
     2
370
     9
100
AcDbLine
 10
-398.0674199502928
 20
147.1127975694511
 30
0.0
 11
-398.0674199502928
 21
146.8243301622246
 31
0.0
  0
LINE
  5
20D
330
1F
100
AcDbEntity
  8
A-E
  6
Continuous
 62
     2
370
     9
100
AcDbLine
 10
-388.6673039834963
 20
147.1127975694511
 30
0.0
 11
-398.0674199502928
 21
147.1127975694511
 31
0.0
  0
LINE
  5
20E
330
1F
100
AcDbEntity
  8
A-E
  6
Continuous
 62
     2
370
     9
100
AcDbLine
 10
-392.8672551553709
 20
148.9038131944511
 30
0.0
 11
-393.8673161905271
 21
148.9038131944511
 31
0.0
  0
LINE
  5
20F
330
1F
100
AcDbEntity
  8
A-E
  6
Continuous
 62
     2
370
     9
100
AcDbLine
 10
-393.8673161905271
 20
149.3038528673025
 30
0.0
 11
-393.8673161905271
 21
148.9038131944511
 31
0.0
  0
LINE
  5
210
330
1F
100
AcDbEntity
  8
A-E
  6
Continuous
 62
     2
370
     9
100
AcDbLine
 10
-392.8672551553709
 20
149.3038528673025
 30
0.0
 11
-392.8672551553709
 21
148.9038131944511
 31
0.0
  0
ARC
  5
211
330
1F
100
AcDbEntity
  8
A-E
  6
Continuous
 62
     2
370
     9
100
AcDbCircle
 10
-393.367285672949
 20
143.224354576287
 30
0.0
 40
6.099999904632568
100
AcDbArc
 50
94.70146179199214
 51
140.3980102539062
  0
ARC
  5
212
330
1F
100
AcDbEntity
  8
A-E
  6
Continuous
 62
     2
370
     9
100
AcDbCircle
 10
-393.367285672949
 20
143.224354576287
 30
0.0
 40
6.099999904632568
100
AcDbArc
 50
39.60198974609376
 51
85.29808044433597
  0
LINE
  5
213
330
1F
100
AcDbEntity
  8
A-E
  6
Continuous
 62
     2
370
     9
100
AcDbLine
 10
-393.3673467081056
 20
134.8243149034354
 30
0.0
 11
-395.3674077432615
 21
138.2885177842948
 31
0.0
  0
LINE
  5
214
330
1F
100
AcDbEntity
  8
A-E
  6
Continuous
 62
     2
370
     9
100
AcDbLine
 10
-393.3673467081056
 20
134.8243149034354
 30
0.0
 11
-391.3673467081057
 21
138.2884262315605
 31
0.0
  0
LINE
  5
215
330
1F
100
AcDbEntity
  8
A-E
  6
Continuous
 62
     2
370
     9
100
AcDbLine
 10
-391.9673222940432
 20
146.8243301622246
 30
0.0
 11
-391.9673222940432
 21
137.2491806260916
 31
0.0
  0
LINE
  5
216
330
1F
100
AcDbEntity
  8
A-E
  6
Continuous
 62
     2
370
     9
100
AcDbLine
 10
-391.3673467081057
 20
146.8243301622246
 30
0.0
 11
-391.3673467081057
 21
138.2884262315605
 31
0.0
  0
LINE
  5
217
330
1F
100
AcDbEntity
  8
A-E
  6
Continuous
 62
     2
370
     9
100
AcDbLine
 10
-395.3674077432615
 20
143.7912885141796
 30
0.0
 11
-395.3674077432615
 21
138.2885177842948
 31
0.0
  0
LINE
  5
218
330
1F
100
AcDbEntity
  8
A-E
  6
Continuous
 62
     2
370
     9
100
AcDbLine
 10
-394.7673406045899
 20
146.8243301622246
 30
0.0
 11
-394.7673406045899
 21
137.2492264024589
 31
0.0
  0
LINE
  5
219
330
1F
100
AcDbEntity
  8
A-E
  6
Continuous
 62
     2
370
     9
100
AcDbLine
 10
-395.3674077432615
 20
146.8243301622246
 30
0.0
 11
-395.3674077432615
 21
143.7912885141796
 31
0.0
  0
LINE
  5
21A
330
1F
100
AcDbEntity
  8
A-D
  6
Continuous
 62
     2
370
     9
100
AcDbLine
 10
-395.3674625795347
 20
141.1244095079277
 30
0.0
 11
-395.3674625795347
 21
140.7423294298027
 31
0.0
  0
LINE
  5
21B
330
1F
100
AcDbEntity
  8
A-E
  6
JWW_CENTER1
 62
     2
370
     9
100
AcDbLine
 10
-393.3673467081056
 20
150.7301376573417
 30
0.0
 11
-393.3673467081056
 21
133.2036331407401
 31
0.0
  0
LWPOLYLINE
  5
21C
330
1F
100
AcDbEntity
  8
A-4
  6
Continuous
 62
     7
370
     9
100
AcDbPolyline
 90
        4
 70
     1
 43
1.0
 10
-452.8673467081056
 20
280.6399344032224
 42
0.4142135623731
 10
-453.3673467081056
 20
281.1399344032224
 42
0.4142135623731
 10
-453.8673467081055
 20
280.6399344032224
 42
0.4142135623731
 10
-453.3673467081056
 20
280.1399344032224
 42
0.4142135623731
  0
LINE
  5
21D
330
1F
100
AcDbEntity
  8
A-D
  6
Continuous
 62
     2
370
     9
100
AcDbLine
 10
-412.8673467081055
 20
144.8242996446464
 30
0.0
 11
-164.1632391283128
 21
144.8242996446464
 31
0.0
  0
LINE
  5
21E
330
1F
100
AcDbEntity
  8
A-1
  6
Continuous
 62
     2
370
     9
100
AcDbLine
 10
307.1326532918947
 20
136.8243408846159
 30
0.0
 11
-412.8673467081055
 21
136.8243408846159
 31
0.0
  0
LINE
  5
21F
330
1F
100
AcDbEntity
  8
A-1
  6
Continuous
 62
     2
370
     9
100
AcDbLine
 10
307.1326532918947
 20
134.8243466582119
 30
0.0
 11
-412.8673467081055
 21
134.8243466582119
 31
0.0
  0
LINE
  5
220
330
1F
100
AcDbEntity
  8
A-1
  6
Continuous
 62
     2
370
     9
100
AcDbLine
 10
307.2109484099398
 20
131.8243243886266
 30
0.0
 11
-412.8673467081055
 21
131.8243243886266
 31
0.0
  0
LINE
  5
221
330
1F
100
AcDbEntity
  8
A-1
  6
Continuous
 62
     2
370
     9
100
AcDbLine
 10
307.1326532918947
 20
129.8243301622244
 30
0.0
 11
-412.8673467081055
 21
129.8243301622244
 31
0.0
  0
LINE
  5
222
330
1F
100
AcDbEntity
  8
A-1
  6
Continuous
 62
     2
370
     9
100
AcDbLine
 10
307.1326532918947
 20
142.8243359358188
 30
0.0
 11
-412.8673467081055
 21
142.8243359358188
 31
0.0
  0
LINE
  5
223
330
1F
100
AcDbEntity
  8
A-4
  6
Continuous
 62
     3
370
     9
100
AcDbLine
 10
-431.7390796284221
 20
146.8243301622246
 30
0.0
 11
325.0043862122112
 21
146.8243301622246
 31
0.0
  0
LINE
  5
224
330
1F
100
AcDbEntity
  8
A-E
  6
Continuous
 62
     3
370
     9
100
AcDbLine
 10
-431.7390796284221
 20
144.8243301622244
 30
0.0
 11
-412.8673467081055
 21
144.8243301622244
 31
0.0
  0
LINE
  5
225
330
1F
100
AcDbEntity
  8
A-5
  6
Continuous
 62
     7
370
     9
100
AcDbLine
 10
-422.9497260797075
 20
119.4129714502239
 30
0.0
 11
-427.8984247016407
 21
107.9342789310702
 31
0.0
  0
LINE
  5
226
330
1F
100
AcDbEntity
  8
A-5
  6
Continuous
 62
     7
370
     9
100
AcDbLine
 10
-422.9497260797075
 20
119.4129714502239
 30
0.0
 11
-430.7007061219869
 21
109.6062233457712
 31
0.0
  0
LINE
  5
227
330
1F
100
AcDbEntity
  8
A-4
  6
Continuous
 62
     7
370
     9
100
AcDbLine
 10
346.6326532918946
 20
280.6399344032224
 30
0.0
 11
-453.3673467081056
 21
280.6399344032224
 31
0.0
  0
LWPOLYLINE
  5
228
330
1F
100
AcDbEntity
  8
A-4
  6
Continuous
 62
     7
370
     9
100
AcDbPolyline
 90
        4
 70
     1
 43
1.0
 10
347.1326532918945
 20
280.6399344032224
 42
0.4142135623731
 10
346.6326532918946
 20
281.1399344032224
 42
0.4142135623731
 10
346.1326532918946
 20
280.6399344032224
 42
0.4142135623731
 10
346.6326532918946
 20
280.1399344032224
 42
0.4142135623731
  0
LWPOLYLINE
  5
229
330
1F
100
AcDbEntity
  8
A-4
  6
Continuous
 62
     7
370
     9
100
AcDbPolyline
 90
        4
 70
     1
 43
1.0
 10
-452.8673467081056
 20
280.6399344032224
 42
0.4142135623731
 10
-453.3673467081056
 20
281.1399344032224
 42
0.4142135623731
 10
-453.8673467081055
 20
280.6399344032224
 42
0.4142135623731
 10
-453.3673467081056
 20
280.1399344032224
 42
0.4142135623731
  0
ARC
  5
22A
330
1F
100
AcDbEntity
  8
A-3
  6
Continuous
 62
     4
370
     9
100
AcDbCircle
 10
119.7299763616591
 20
54.01753316304077
 30
0.0
 40
279.926901040219
100
AcDbArc
 50
193.5089276927388
 51
323.8394454571647
  0
ARC
  5
22B
330
1F
100
AcDbEntity
  8
A-3
  6
Continuous
 62
     4
370
     9
100
AcDbCircle
 10
119.7299763616591
 20
54.01753316304077
 30
0.0
 40
280.826901040219
100
AcDbArc
 50
193.5089276927388
 51
323.8990933742181
  0
LINE
  5
22C
330
1F
100
AcDbEntity
  8
A-5
  6
Continuous
 62
     7
370
     9
100
AcDbLine
 10
-166.3562909397503
 20
-261.7427603266867
 30
0.0
 11
-69.98004167986468
 21
-152.4752221450688
 31
0.0
  0
LINE
  5
22D
330
1F
100
AcDbEntity
  8
A-5
  6
Continuous
 62
     7
370
     9
100
AcDbLine
 10
-69.98004167986468
 20
-152.4752221450688
 30
0.0
 11
-76.95420330137966
 21
-162.8487976943664
 31
0.0
  0
LINE
  5
22E
330
1F
100
AcDbEntity
  8
A-5
  6
Continuous
 62
     7
370
     9
100
AcDbLine
 10
-69.98004167986468
 20
-152.4752221450688
 30
0.0
 11
-79.40144342476816
 21
-160.690280827825
 31
0.0
  0
LINE
  5
22F
330
1F
100
AcDbEntity
  8
A-4
  6
Continuous
 62
     7
370
     9
100
AcDbLine
 10
280.8252471242877
 20
-16.6272711025211
 30
0.0
 11
271.6938256891571
 21
-28.52757120688967
 31
0.0
  0
LINE
  5
230
330
1F
100
AcDbEntity
  8
A-4
  6
Continuous
 62
     7
370
     9
100
AcDbLine
 10
280.8252471242877
 20
-16.6272711025211
 30
0.0
 11
275.0849956388114
 21
-30.48546409019043
 31
0.0
  0
LINE
  5
231
330
1F
100
AcDbEntity
  8
A-4
  6
Continuous
 62
     7
370
     9
100
AcDbLine
 10
253.6263483427753
 20
-63.73714570202413
 30
0.0
 11
280.8252471242877
 21
-16.6272711025211
 31
0.0
  0
LINE
  5
232
330
1F
100
AcDbEntity
  8
A-E
  6
Continuous
 62
     2
370
     9
100
AcDbLine
 10
-58.06738943271487
 20
146.8243301622246
 30
0.0
 11
-48.66727346591805
 21
146.8243301622246
 31
0.0
  0
LINE
  5
233
330
1F
100
AcDbEntity
  8
A-E
  6
Continuous
 62
     2
370
     9
100
AcDbLine
 10
-58.06738943271487
 20
147.1127975694511
 30
0.0
 11
-58.06738943271487
 21
146.8243301622246
 31
0.0
  0
LINE
  5
234
330
1F
100
AcDbEntity
  8
A-E
  6
Continuous
 62
     2
370
     9
100
AcDbLine
 10
-48.66727346591805
 20
147.1127975694511
 30
0.0
 11
-48.66727346591805
 21
146.8243301622246
 31
0.0
  0
LINE
  5
235
330
1F
100
AcDbEntity
  8
A-E
  6
Continuous
 62
     2
370
     9
100
AcDbLine
 10
-58.06738943271487
 20
147.1127975694511
 30
0.0
 11
-48.66727346591805
 21
147.1127975694511
 31
0.0
  0
LINE
  5
236
330
1F
100
AcDbEntity
  8
A-E
  6
Continuous
 62
     2
370
     9
100
AcDbLine
 10
-53.8674382608399
 20
148.9038131944511
 30
0.0
 11
-52.86737722568365
 21
148.9038131944511
 31
0.0
  0
LINE
  5
237
330
1F
100
AcDbEntity
  8
A-E
  6
Continuous
 62
     2
370
     9
100
AcDbLine
 10
-52.86737722568365
 20
149.3038528673025
 30
0.0
 11
-52.86737722568365
 21
148.9038131944511
 31
0.0
  0
LINE
  5
238
330
1F
100
AcDbEntity
  8
A-E
  6
Continuous
 62
     2
370
     9
100
AcDbLine
 10
-53.8674382608399
 20
149.3038528673025
 30
0.0
 11
-53.8674382608399
 21
148.9038131944511
 31
0.0
  0
ARC
  5
239
330
1F
100
AcDbEntity
  8
A-E
  6
Continuous
 62
     2
370
     9
100
AcDbCircle
 10
-53.36740774326177
 20
143.224354576287
 30
0.0
 40
6.099999904632569
100
AcDbArc
 50
39.60198974609384
 51
85.2985382080079
  0
ARC
  5
23A
330
1F
100
AcDbEntity
  8
A-E
  6
Continuous
 62
     2
370
     9
100
AcDbCircle
 10
-53.36740774326177
 20
143.224354576287
 30
0.0
 40
6.099999904632569
100
AcDbArc
 50
94.70191955566406
 51
140.3980102539062
  0
LINE
  5
23B
330
1F
100
AcDbEntity
  8
A-E
  6
Continuous
 62
     2
370
     9
100
AcDbLine
 10
-55.36734670810549
 20
146.8243301622246
 30
0.0
 11
-55.36734670810549
 21
138.2884262315605
 31
0.0
  0
LINE
  5
23C
330
1F
100
AcDbEntity
  8
A-E
  6
Continuous
 62
     2
370
     9
100
AcDbLine
 10
-54.76737112216799
 20
146.8243301622246
 30
0.0
 11
-54.76737112216799
 21
137.2491806260916
 31
0.0
  0
LINE
  5
23D
330
1F
100
AcDbEntity
  8
A-E
  6
JWW_CENTER1
 62
     2
370
     9
100
AcDbLine
 10
-53.36734670810547
 20
150.7301376573417
 30
0.0
 11
-53.36734670810547
 21
133.2036331407401
 31
0.0
  0
LINE
  5
23E
330
1F
100
AcDbEntity
  8
A-E
  6
Continuous
 62
     2
370
     9
100
AcDbLine
 10
-51.96735281162109
 20
146.8243301622246
 30
0.0
 11
-51.96735281162109
 21
137.2492264024589
 31
0.0
  0
LINE
  5
23F
330
1F
100
AcDbEntity
  8
A-E
  6
Continuous
 62
     2
370
     9
100
AcDbLine
 10
-51.36728567294927
 20
143.7912885141796
 30
0.0
 11
-51.36728567294927
 21
138.2885177842948
 31
0.0
  0
LINE
  5
240
330
1F
100
AcDbEntity
  8
A-E
  6
Continuous
 62
     2
370
     9
100
AcDbLine
 10
-53.36734670810547
 20
134.8243149034354
 30
0.0
 11
-51.36728567294927
 21
138.2885177842948
 31
0.0
  0
LINE
  5
241
330
1F
100
AcDbEntity
  8
A-E
  6
Continuous
 62
     2
370
     9
100
AcDbLine
 10
-53.36734670810547
 20
134.8243149034354
 30
0.0
 11
-55.36734670810549
 21
138.2884262315605
 31
0.0
  0
LINE
  5
242
330
1F
100
AcDbEntity
  8
A-E
  6
Continuous
 62
     2
370
     9
100
AcDbLine
 10
-51.36728567294927
 20
146.8243301622246
 30
0.0
 11
-51.36728567294927
 21
143.7912885141796
 31
0.0
  0
LWPOLYLINE
  5
243
330
1F
100
AcDbEntity
  8
A-4
  6
Continuous
 62
     7
370
     9
100
AcDbPolyline
 90
        4
 70
     1
 43
1.0
 10
-530.643443461825
 20
117.8242996465869
 42
0.4142135623731
 10
-531.143443461825
 20
118.3242996465869
 42
0.4142135623731
 10
-531.6434434618249
 20
117.8242996465869
 42
0.4142135623731
 10
-531.143443461825
 20
117.3242996465869
 42
0.4142135623731
  0
LWPOLYLINE
  5
244
330
1F
100
AcDbEntity
  8
A-4
  6
Continuous
 62
     7
370
     9
100
AcDbPolyline
 90
        4
 70
     1
 43
1.0
 10
-530.643443461825
 20
146.8243301622246
 42
0.4142135623731
 10
-531.143443461825
 20
147.3243301622246
 42
0.4142135623731
 10
-531.6434434618249
 20
146.8243301622246
 42
0.4142135623731
 10
-531.143443461825
 20
146.3243301622246
 42
0.4142135623731
  0
LINE
  5
245
330
1F
100
AcDbEntity
  8
A-4
  6
Continuous
 62
     7
370
     9
100
AcDbLine
 10
-531.143443461825
 20
117.8242996465869
 30
0.0
 11
-531.143443461825
 21
47.82429964658672
 31
0.0
  0
LWPOLYLINE
  5
246
330
1F
100
AcDbEntity
  8
A-4
  6
Continuous
 62
     7
370
     9
100
AcDbPolyline
 90
        4
 70
     1
 43
1.0
 10
-530.643443461825
 20
117.8242996465869
 42
0.4142135623731
 10
-531.143443461825
 20
118.3242996465869
 42
0.4142135623731
 10
-531.6434434618249
 20
117.8242996465869
 42
0.4142135623731
 10
-531.143443461825
 20
117.3242996465869
 42
0.4142135623731
  0
LWPOLYLINE
  5
247
330
1F
100
AcDbEntity
  8
A-4
  6
Continuous
 62
     7
370
     9
100
AcDbPolyline
 90
        4
 70
     1
 43
1.0
 10
-530.643443461825
 20
47.82429964658672
 42
0.4142135623731
 10
-531.143443461825
 20
48.32429964658672
 42
0.4142135623731
 10
-531.6434434618249
 20
47.82429964658672
 42
0.4142135623731
 10
-531.143443461825
 20
47.32429964658672
 42
0.4142135623731
  0
LINE
  5
248
330
1F
100
AcDbEntity
  8
A-4
  6
Continuous
 62
     7
370
     9
100
AcDbLine
 10
-531.143443461825
 20
117.8242996465869
 30
0.0
 11
-531.143443461825
 21
146.8243301622246
 31
0.0
  0
LINE
  5
249
330
1F
100
AcDbEntity
  8
A-5
  6
Continuous
 62
     7
370
     9
100
AcDbLine
 10
-141.4229325868721
 20
373.288815947006
 30
0.0
 11
-53.67352800142019
 21
148.5201976641507
 31
0.0
  0
LINE
  5
24A
330
1F
100
AcDbEntity
  8
A-5
  6
Continuous
 62
     7
370
     9
100
AcDbLine
 10
-53.67352800142019
 20
148.5201976641507
 30
0.0
 11
-59.70034544583957
 21
159.4713378555481
 31
0.0
  0
LINE
  5
24B
330
1F
100
AcDbEntity
  8
A-5
  6
Continuous
 62
     7
370
     9
100
AcDbLine
 10
-53.67352800142019
 20
148.5201976641507
 30
0.0
 11
-56.66062297419305
 21
160.6580419383056
 31
0.0
  0
LINE
  5
24C
330
1F
100
AcDbEntity
  8
A-5
  6
Continuous
 62
     7
370
     9
100
AcDbLine
 10
-161.26698607309
 20
48.78722003464826
 30
0.0
 11
-169.394558780908
 21
39.29024357478848
 31
0.0
  0
LINE
  5
24D
330
1F
100
AcDbEntity
  8
A-5
  6
Continuous
 62
     7
370
     9
100
AcDbLine
 10
-161.26698607309
 20
48.78722003464826
 30
0.0
 11
-171.5756168353156
 21
41.71741580764913
 31
0.0
  0
LINE
  5
24E
330
1F
100
AcDbEntity
  8
A-4
  6
Continuous
 62
     7
370
     9
100
AcDbLine
 10
-531.143443461825
 20
47.82429964658672
 30
0.0
 11
-210.7836215393451
 21
47.82429964658672
 31
0.0
  0
LINE
  5
24F
330
1F
100
AcDbEntity
  8
A-3
  6
Continuous
 62
     4
370
     9
100
AcDbLine
 10
345.7336417441057
 20
-111.153327341104
 30
0.0
 11
345.7336417441057
 21
-72.05117585185906
 31
0.0
  0
LINE
  5
250
330
1F
100
AcDbEntity
  8
A-3
  6
Continuous
 62
     4
370
     9
100
AcDbLine
 10
346.6326532918946
 20
-111.4482444157267
 30
0.0
 11
346.6326532918946
 21
-72.21826403017008
 31
0.0
  0
LINE
  5
251
330
1F
100
AcDbEntity
  8
A-3
  6
Continuous
 62
     4
370
     9
100
AcDbLine
 10
-152.4523365015748
 20
-11.37251570069143
 30
0.0
 11
-152.4523365015748
 21
77.94882414814109
 31
0.0
  0
LINE
  5
252
330
1F
100
AcDbEntity
  8
A-3
  6
Continuous
 62
     4
370
     9
100
AcDbLine
 10
-152.5534341245452
 20
79.94419467184369
 30
0.0
 11
-152.0513992740428
 21
94.1235307337632
 31
0.0
  0
LINE
  5
253
330
1F
100
AcDbEntity
  8
A-3
  6
Continuous
 62
     4
370
     9
100
AcDbLine
 10
-153.351434124545
 20
79.94419467184369
 30
0.0
 11
-152.8493992740426
 21
94.36200709108132
 31
0.0
  0
LINE
  5
254
330
1F
100
AcDbEntity
  8
A-3
  6
Continuous
 62
     4
370
     9
100
AcDbLine
 10
-152.5534341245452
 20
79.94419467184369
 30
0.0
 11
-153.351434124545
 21
79.94419467184369
 31
0.0
  0
LINE
  5
255
330
1F
100
AcDbEntity
  8
A-3
  6
Continuous
 62
     4
370
     9
100
AcDbLine
 10
-151.1516279555701
 20
79.92407987838175
 30
0.0
 11
-151.1516279555701
 21
93.99964972832291
 31
0.0
  0
LINE
  5
256
330
1F
100
AcDbEntity
  8
A-3
  6
Continuous
 62
     4
370
     9
100
AcDbLine
 10
-151.1516279555701
 20
93.99964972832291
 30
0.0
 11
-145.0020328762526
 21
80.77563460061296
 31
0.0
  0
LINE
  5
257
330
1F
100
AcDbEntity
  8
A-3
  6
Continuous
 62
     4
370
     9
100
AcDbLine
 10
-151.1516279555701
 20
79.92407987838175
 30
0.0
 11
-151.1358490012504
 21
79.99319067551906
 31
0.0
  0
LINE
  5
258
330
1F
100
AcDbEntity
  8
A-3
  6
Continuous
 62
     4
370
     9
100
AcDbLine
 10
-151.1794140555708
 20
79.8052294172548
 30
0.0
 11
-151.1516279555701
 21
79.92407987838175
 31
0.0
  0
LINE
  5
259
330
1F
100
AcDbEntity
  8
A-3
  6
Continuous
 62
     4
370
     9
100
AcDbLine
 10
-151.2088140620893
 20
79.68722919407594
 30
0.0
 11
-151.1794140555708
 21
79.8052294172548
 31
0.0
  0
LINE
  5
25A
330
1F
100
AcDbEntity
  8
A-3
  6
Continuous
 62
     4
370
     9
100
AcDbLine
 10
-151.2408494349461
 20
79.57061733412883
 30
0.0
 11
-151.2088140620893
 21
79.68722919407594
 31
0.0
  0
LINE
  5
25B
330
1F
100
AcDbEntity
  8
A-3
  6
Continuous
 62
     4
370
     9
100
AcDbLine
 10
-151.276541633963
 20
79.45593196269724
 30
0.0
 11
-151.2408494349461
 21
79.57061733412897
 31
0.0
  0
LINE
  5
25C
330
1F
100
AcDbEntity
  8
A-3
  6
Continuous
 62
     4
370
     9
100
AcDbLine
 10
-151.3169121189628
 20
79.3437112050648
 30
0.0
 11
-151.276541633963
 21
79.45593196269724
 31
0.0
  0
LINE
  5
25D
330
1F
100
AcDbEntity
  8
A-3
  6
Continuous
 62
     4
370
     9
100
AcDbLine
 10
-151.3428730991837
 20
79.27996450102509
 30
0.0
 11
-151.3169121189628
 21
79.3437112050648
 31
0.0
  0
LINE
  5
25E
330
1F
100
AcDbEntity
  8
A-3
  6
Continuous
 62
     4
370
     9
100
AcDbLine
 10
-151.4109587240728
 20
79.13630803421225
 30
0.0
 11
-151.3428730991837
 21
79.27996450102495
 31
0.0
  0
LINE
  5
25F
330
1F
100
AcDbEntity
  8
A-3
  6
Continuous
 62
     4
370
     9
100
AcDbLine
 10
-151.5519499892662
 20
78.90105860750634
 30
0.0
 11
-151.4109587240728
 21
79.13630803421225
 31
0.0
  0
LINE
  5
260
330
1F
100
AcDbEntity
  8
A-3
  6
Continuous
 62
     4
370
     9
100
AcDbLine
 10
-151.7180944413531
 20
78.6790603783015
 30
0.0
 11
-151.5519499892662
 21
78.90105860750634
 31
0.0
  0
LINE
  5
261
330
1F
100
AcDbEntity
  8
A-3
  6
Continuous
 62
     4
370
     9
100
AcDbLine
 10
-151.9039001181295
 20
78.467420072034
 30
0.0
 11
-151.7180944413531
 21
78.6790603783015
 31
0.0
  0
LINE
  5
262
330
1F
100
AcDbEntity
  8
A-3
  6
Continuous
 62
     4
370
     9
100
AcDbLine
 10
-152.1038750573894
 20
78.2632444141407
 30
0.0
 11
-151.9039001181295
 21
78.467420072034
 31
0.0
  0
LINE
  5
263
330
1F
100
AcDbEntity
  8
A-3
  6
Continuous
 62
     4
370
     9
100
AcDbLine
 10
-152.3125272969333
 20
78.06364013005759
 30
0.0
 11
-152.1038750573894
 21
78.2632444141407
 31
0.0
  0
LINE
  5
264
330
1F
100
AcDbEntity
  8
A-3
  6
Continuous
 62
     4
370
     9
100
AcDbLine
 10
-152.435357416166
 20
77.94882414814109
 30
0.0
 11
-152.3125272969333
 21
78.06364013005759
 31
0.0
  0
LINE
  5
265
330
1F
100
AcDbEntity
  8
A-3
  6
Continuous
 62
     4
370
     9
100
AcDbLine
 10
-152.8493992740426
 20
94.36200709108132
 30
0.0
 11
-152.6013696283951
 21
95.62083741020783
 31
0.0
  0
LINE
  5
266
330
1F
100
AcDbEntity
  8
A-3
  6
Continuous
 62
     4
370
     9
100
AcDbLine
 10
-152.0513992740428
 20
79.92407987838175
 30
0.0
 11
-152.0513992740428
 21
94.1235307337632
 31
0.0
  0
LINE
  5
267
330
1F
100
AcDbEntity
  8
A-3
  6
Continuous
 62
     4
370
     9
100
AcDbLine
 10
-151.3894529736683
 20
102.1268380615646
 30
0.0
 11
-150.6016576012178
 21
101.3390426891129
 31
0.0
  0
LINE
  5
268
330
1F
100
AcDbEntity
  8
A-3
  6
Continuous
 62
     4
370
     9
100
AcDbLine
 10
-151.8135742559423
 20
102.1268380615646
 30
0.0
 11
-152.6013696283951
 21
101.3390426891129
 31
0.0
  0
LINE
  5
269
330
1F
100
AcDbEntity
  8
A-3
  6
Continuous
 62
     4
370
     9
100
AcDbLine
 10
-150.6016576012178
 20
101.3390426891129
 30
0.0
 11
-150.5075185315525
 21
101.2310304933936
 31
0.0
  0
LINE
  5
26A
330
1F
100
AcDbEntity
  8
A-3
  6
Continuous
 62
     4
370
     9
100
AcDbLine
 10
-150.5075185315525
 20
101.2310304933936
 30
0.0
 11
-150.3499594570633
 21
101.0417614164902
 31
0.0
  0
LINE
  5
26B
330
1F
100
AcDbEntity
  8
A-3
  6
Continuous
 62
     4
370
     9
100
AcDbLine
 10
-150.3499594570633
 20
101.0417614164902
 30
0.0
 11
-150.2023097583254
 21
100.84753765171
 31
0.0
  0
LINE
  5
26C
330
1F
100
AcDbEntity
  8
A-3
  6
Continuous
 62
     4
370
     9
100
AcDbLine
 10
-150.2023097583254
 20
100.84753765171
 30
0.0
 11
-150.0724969359487
 21
100.6434045111751
 31
0.0
  0
LINE
  5
26D
330
1F
100
AcDbEntity
  8
A-3
  6
Continuous
 62
     4
370
     9
100
AcDbLine
 10
-150.0724969359487
 20
100.6434045111751
 30
0.0
 11
-150.0080859935463
 21
100.5195373142493
 31
0.0
  0
LINE
  5
26E
330
1F
100
AcDbEntity
  8
A-3
  6
Continuous
 62
     4
370
     9
100
AcDbLine
 10
-150.0080859935463
 20
100.5195373142493
 30
0.0
 11
-149.9823216165862
 21
100.4650357476015
 31
0.0
  0
LINE
  5
26F
330
1F
100
AcDbEntity
  8
A-3
  6
Continuous
 62
     4
370
     9
100
AcDbLine
 10
-149.9823216165862
 20
100.4650357476015
 30
0.0
 11
-149.9426841135699
 21
100.368914802786
 31
0.0
  0
LINE
  5
270
330
1F
100
AcDbEntity
  8
A-3
  6
Continuous
 62
     4
370
     9
100
AcDbLine
 10
-149.9426841135699
 20
100.368914802786
 30
0.0
 11
-149.9060194232777
 21
100.2713074516083
 31
0.0
  0
LINE
  5
271
330
1F
100
AcDbEntity
  8
A-3
  6
Continuous
 62
     4
370
     9
100
AcDbLine
 10
-149.9060194232777
 20
100.2713074516083
 30
0.0
 11
-149.8713366081404
 21
100.1722136940674
 31
0.0
  0
LINE
  5
272
330
1F
100
AcDbEntity
  8
A-3
  6
Continuous
 62
     4
370
     9
100
AcDbLine
 10
-149.8713366081404
 20
100.1722136940674
 30
0.0
 11
-149.8515178566311
 21
100.1147393146942
 31
0.0
  0
LINE
  5
273
330
1F
100
AcDbEntity
  8
A-3
  6
Continuous
 62
     4
370
     9
100
AcDbLine
 10
-152.6013696283951
 20
101.3390426891129
 30
0.0
 11
-152.6955086980581
 21
101.2310304933936
 31
0.0
  0
LINE
  5
274
330
1F
100
AcDbEntity
  8
A-3
  6
Continuous
 62
     4
370
     9
100
AcDbLine
 10
-152.6955086980581
 20
101.2310304933936
 30
0.0
 11
-152.8540587101236
 21
101.0417614164902
 31
0.0
  0
LINE
  5
275
330
1F
100
AcDbEntity
  8
A-3
  6
Continuous
 62
     4
370
     9
100
AcDbLine
 10
-152.8540587101236
 20
101.0417614164902
 30
0.0
 11
-153.0007174712853
 21
100.84753765171
 31
0.0
  0
LINE
  5
276
330
1F
100
AcDbEntity
  8
A-3
  6
Continuous
 62
     4
370
     9
100
AcDbLine
 10
-153.0007174712853
 20
100.84753765171
 30
0.0
 11
-153.1315212312382
 21
100.6434045111751
 31
0.0
  0
LINE
  5
277
330
1F
100
AcDbEntity
  8
A-3
  6
Continuous
 62
     4
370
     9
100
AcDbLine
 10
-153.1315212312382
 20
100.6434045111751
 30
0.0
 11
-153.1959321736406
 21
100.5195373142493
 31
0.0
  0
LINE
  5
278
330
1F
100
AcDbEntity
  8
A-3
  6
Continuous
 62
     4
370
     9
100
AcDbLine
 10
-153.1959321736406
 20
100.5195373142493
 30
0.0
 11
-153.2207056130267
 21
100.4650357476015
 31
0.0
  0
LINE
  5
279
330
1F
100
AcDbEntity
  8
A-3
  6
Continuous
 62
     4
370
     9
100
AcDbLine
 10
-153.2207056130267
 20
100.4650357476015
 30
0.0
 11
-153.2603431160431
 21
100.368914802786
 31
0.0
  0
LINE
  5
27A
330
1F
100
AcDbEntity
  8
A-3
  6
Continuous
 62
     4
370
     9
100
AcDbLine
 10
-153.2603431160431
 20
100.368914802786
 30
0.0
 11
-153.2979987439069
 21
100.2713074516083
 31
0.0
  0
LINE
  5
27B
330
1F
100
AcDbEntity
  8
A-3
  6
Continuous
 62
     4
370
     9
100
AcDbLine
 10
-153.2979987439069
 20
100.2713074516083
 30
0.0
 11
-153.3316906214725
 21
100.1722136940674
 31
0.0
  0
LINE
  5
27C
330
1F
100
AcDbEntity
  8
A-3
  6
Continuous
 62
     4
370
     9
100
AcDbLine
 10
-150.6016576012178
 20
100.2143285410221
 30
0.0
 11
-150.491663530346
 21
100.0746063428897
 31
0.0
  0
LINE
  5
27D
330
1F
100
AcDbEntity
  8
A-3
  6
Continuous
 62
     4
370
     9
100
AcDbLine
 10
-150.491663530346
 20
100.0746063428897
 30
0.0
 11
-150.3073491413204
 21
99.83034023055151
 31
0.0
  0
LINE
  5
27E
330
1F
100
AcDbEntity
  8
A-3
  6
Continuous
 62
     4
370
     9
100
AcDbLine
 10
-150.3073491413204
 20
99.83034023055151
 30
0.0
 11
-150.1388897534992
 21
99.57864208639702
 31
0.0
  0
LINE
  5
27F
330
1F
100
AcDbEntity
  8
A-3
  6
Continuous
 62
     4
370
     9
100
AcDbLine
 10
-150.1388897534992
 20
99.57864208639702
 30
0.0
 11
-150.000158492943
 21
99.3145572225495
 31
0.0
  0
LINE
  5
280
330
1F
100
AcDbEntity
  8
A-3
  6
Continuous
 62
     4
370
     9
100
AcDbLine
 10
-150.000158492943
 20
99.3145572225495
 30
0.0
 11
-149.9347566129666
 21
99.15352986654565
 31
0.0
  0
LINE
  5
281
330
1F
100
AcDbEntity
  8
A-3
  6
Continuous
 62
     4
370
     9
100
AcDbLine
 10
-149.9347566129666
 20
99.15352986654565
 30
0.0
 11
-149.9218744244843
 21
99.11438783231742
 31
0.0
  0
LINE
  5
282
330
1F
100
AcDbEntity
  8
A-3
  6
Continuous
 62
     4
370
     9
100
AcDbLine
 10
-149.9218744244843
 20
99.11438783231742
 30
0.0
 11
-149.901064735401
 21
99.04502220203821
 31
0.0
  0
LINE
  5
283
330
1F
100
AcDbEntity
  8
A-3
  6
Continuous
 62
     4
370
     9
100
AcDbLine
 10
-149.901064735401
 20
99.04502220203821
 30
0.0
 11
-149.8812459838939
 21
98.97565657176014
 31
0.0
  0
LINE
  5
284
330
1F
100
AcDbEntity
  8
A-3
  6
Continuous
 62
     4
370
     9
100
AcDbLine
 10
-149.8812459838939
 20
98.97565657176014
 30
0.0
 11
-149.8624181699609
 21
98.90530000390581
 31
0.0
  0
LINE
  5
285
330
1F
100
AcDbEntity
  8
A-3
  6
Continuous
 62
     4
370
     9
100
AcDbLine
 10
-149.8624181699609
 20
98.90530000390581
 30
0.0
 11
-149.8515178566311
 21
98.86467156331432
 31
0.0
  0
LINE
  5
286
330
1F
100
AcDbEntity
  8
A-3
  6
Continuous
 62
     4
370
     9
100
AcDbLine
 10
-150.6016576012178
 20
98.96475625843036
 30
0.0
 11
-150.491663530346
 21
98.82453859150982
 31
0.0
  0
LINE
  5
287
330
1F
100
AcDbEntity
  8
A-3
  6
Continuous
 62
     4
370
     9
100
AcDbLine
 10
-150.491663530346
 20
98.82453859150982
 30
0.0
 11
-150.3073491413204
 21
98.58027247917047
 31
0.0
  0
LINE
  5
288
330
1F
100
AcDbEntity
  8
A-3
  6
Continuous
 62
     4
370
     9
100
AcDbLine
 10
-150.3073491413204
 20
98.58027247917047
 30
0.0
 11
-150.1388897534992
 21
98.32857433501712
 31
0.0
  0
LINE
  5
289
330
1F
100
AcDbEntity
  8
A-3
  6
Continuous
 62
     4
370
     9
100
AcDbLine
 10
-150.1388897534992
 20
98.32857433501712
 30
0.0
 11
-150.000158492943
 21
98.0644894711696
 31
0.0
  0
LINE
  5
28A
330
1F
100
AcDbEntity
  8
A-3
  6
Continuous
 62
     4
370
     9
100
AcDbLine
 10
-150.000158492943
 20
98.0644894711696
 30
0.0
 11
-149.9347566129666
 21
97.90346211516575
 31
0.0
  0
LINE
  5
28B
330
1F
100
AcDbEntity
  8
A-3
  6
Continuous
 62
     4
370
     9
100
AcDbLine
 10
-149.9347566129666
 20
97.90346211516575
 30
0.0
 11
-149.9218744244843
 21
97.86382461214939
 31
0.0
  0
LINE
  5
28C
330
1F
100
AcDbEntity
  8
A-3
  6
Continuous
 62
     4
370
     9
100
AcDbLine
 10
-149.9218744244843
 20
97.86382461214939
 30
0.0
 11
-149.901064735401
 21
97.79495445065831
 31
0.0
  0
LINE
  5
28D
330
1F
100
AcDbEntity
  8
A-3
  6
Continuous
 62
     4
370
     9
100
AcDbLine
 10
-149.901064735401
 20
97.79495445065831
 30
0.0
 11
-149.8812459838939
 21
97.72558882038024
 31
0.0
  0
LINE
  5
28E
330
1F
100
AcDbEntity
  8
A-3
  6
Continuous
 62
     4
370
     9
100
AcDbLine
 10
-149.8812459838939
 20
97.72558882038024
 30
0.0
 11
-149.8624181699609
 21
97.6552322525259
 31
0.0
  0
LINE
  5
28F
330
1F
100
AcDbEntity
  8
A-3
  6
Continuous
 62
     4
370
     9
100
AcDbLine
 10
-149.8624181699609
 20
97.6552322525259
 30
0.0
 11
-149.8515178566311
 21
97.61460381193328
 31
0.0
  0
LINE
  5
290
330
1F
100
AcDbEntity
  8
A-3
  6
Continuous
 62
     4
370
     9
100
AcDbLine
 10
-152.6013696283951
 20
100.2143285410221
 30
0.0
 11
-152.712354636841
 21
100.0746063428897
 31
0.0
  0
LINE
  5
291
330
1F
100
AcDbEntity
  8
A-3
  6
Continuous
 62
     4
370
     9
100
AcDbLine
 10
-152.712354636841
 20
100.0746063428897
 30
0.0
 11
-152.8966690258665
 21
99.83034023055151
 31
0.0
  0
LINE
  5
292
330
1F
100
AcDbEntity
  8
A-3
  6
Continuous
 62
     4
370
     9
100
AcDbLine
 10
-152.8966690258665
 20
99.83034023055151
 30
0.0
 11
-153.0641374761115
 21
99.57864208639702
 31
0.0
  0
LINE
  5
293
330
1F
100
AcDbEntity
  8
A-3
  6
Continuous
 62
     4
370
     9
100
AcDbLine
 10
-153.0641374761115
 20
99.57864208639702
 30
0.0
 11
-153.2038596742439
 21
99.3145572225495
 31
0.0
  0
LINE
  5
294
330
1F
100
AcDbEntity
  8
A-3
  6
Continuous
 62
     4
370
     9
100
AcDbLine
 10
-153.2038596742439
 20
99.3145572225495
 30
0.0
 11
-153.2682706166463
 21
99.15352986654565
 31
0.0
  0
LINE
  5
295
330
1F
100
AcDbEntity
  8
A-3
  6
Continuous
 62
     4
370
     9
100
AcDbLine
 10
-153.2682706166463
 20
99.15352986654565
 30
0.0
 11
-153.2811528051264
 21
99.11438783231742
 31
0.0
  0
LINE
  5
296
330
1F
100
AcDbEntity
  8
A-3
  6
Continuous
 62
     4
370
     9
100
AcDbLine
 10
-153.2811528051264
 20
99.11438783231742
 30
0.0
 11
-153.3029534317859
 21
99.04502220203821
 31
0.0
  0
LINE
  5
297
330
1F
100
AcDbEntity
  8
A-3
  6
Continuous
 62
     4
370
     9
100
AcDbLine
 10
-153.3029534317859
 20
99.04502220203821
 30
0.0
 11
-153.3217812457167
 21
98.97565657176014
 31
0.0
  0
LINE
  5
298
330
1F
100
AcDbEntity
  8
A-3
  6
Continuous
 62
     4
370
     9
100
AcDbLine
 10
-153.3217812457167
 20
98.97565657176014
 30
0.0
 11
-153.341599997226
 21
98.90530000390581
 31
0.0
  0
LINE
  5
299
330
1F
100
AcDbEntity
  8
A-3
  6
Continuous
 62
     4
370
     9
100
AcDbLine
 10
-152.6013696283951
 20
98.96475625843036
 30
0.0
 11
-152.712354636841
 21
98.82453859150982
 31
0.0
  0
LINE
  5
29A
330
1F
100
AcDbEntity
  8
A-3
  6
Continuous
 62
     4
370
     9
100
AcDbLine
 10
-152.712354636841
 20
98.82453859150982
 30
0.0
 11
-152.8966690258665
 21
98.58027247917047
 31
0.0
  0
LINE
  5
29B
330
1F
100
AcDbEntity
  8
A-3
  6
Continuous
 62
     4
370
     9
100
AcDbLine
 10
-152.8966690258665
 20
98.58027247917047
 30
0.0
 11
-153.0641374761115
 21
98.32857433501712
 31
0.0
  0
LINE
  5
29C
330
1F
100
AcDbEntity
  8
A-3
  6
Continuous
 62
     4
370
     9
100
AcDbLine
 10
-153.0641374761115
 20
98.32857433501712
 30
0.0
 11
-153.2038596742439
 21
98.0644894711696
 31
0.0
  0
LINE
  5
29D
330
1F
100
AcDbEntity
  8
A-3
  6
Continuous
 62
     4
370
     9
100
AcDbLine
 10
-153.2038596742439
 20
98.0644894711696
 30
0.0
 11
-153.2682706166463
 21
97.90346211516575
 31
0.0
  0
LINE
  5
29E
330
1F
100
AcDbEntity
  8
A-3
  6
Continuous
 62
     4
370
     9
100
AcDbLine
 10
-153.2682706166463
 20
97.90346211516575
 30
0.0
 11
-153.2811528051264
 21
97.86382461214939
 31
0.0
  0
LINE
  5
29F
330
1F
100
AcDbEntity
  8
A-3
  6
Continuous
 62
     4
370
     9
100
AcDbLine
 10
-153.2811528051264
 20
97.86382461214939
 30
0.0
 11
-153.3029534317859
 21
97.79495445065831
 31
0.0
  0
LINE
  5
2A0
330
1F
100
AcDbEntity
  8
A-3
  6
Continuous
 62
     4
370
     9
100
AcDbLine
 10
-153.3029534317859
 20
97.79495445065831
 30
0.0
 11
-153.3217812457167
 21
97.72558882038024
 31
0.0
  0
LINE
  5
2A1
330
1F
100
AcDbEntity
  8
A-3
  6
Continuous
 62
     4
370
     9
100
AcDbLine
 10
-153.3217812457167
 20
97.72558882038024
 30
0.0
 11
-153.3515093729796
 21
97.61509928072141
 31
0.0
  0
LINE
  5
2A2
330
1F
100
AcDbEntity
  8
A-3
  6
Continuous
 62
     4
370
     9
100
AcDbLine
 10
-150.6016576012178
 20
97.71468850705045
 30
0.0
 11
-150.6016576012178
 21
94.71462499749518
 31
0.0
  0
LINE
  5
2A3
330
1F
100
AcDbEntity
  8
A-3
  6
Continuous
 62
     4
370
     9
100
AcDbLine
 10
-152.6013696283951
 20
97.71468850705045
 30
0.0
 11
-152.6013696283951
 21
95.62083741020783
 31
0.0
  0
ARC
  5
2A4
330
1F
100
AcDbEntity
  8
A-3
  6
Continuous
 62
     4
370
     9
100
AcDbCircle
 10
-151.6015136148065
 20
101.9147774204265
 30
0.0
 40
0.3000001213063834
100
AcDbArc
 50
45.0
 51
135.0
  0
ARC
  5
2A5
330
1F
100
AcDbEntity
  8
A-3
  6
Continuous
 62
     4
370
     9
100
AcDbCircle
 10
-150.5947210381885
 20
97.40402957715955
 30
0.0
 40
2.810700080684712
100
AcDbArc
 50
74.66914367675783
 51
90.139892578125
  0
ARC
  5
2A6
330
1F
100
AcDbEntity
  8
A-3
  6
Continuous
 62
     4
370
     9
100
AcDbCircle
 10
-152.6083061914221
 20
97.40402957715955
 30
0.0
 40
2.810700080684712
100
AcDbArc
 50
89.86010742187501
 51
105.3308563232422
  0
ARC
  5
2A7
330
1F
100
AcDbEntity
  8
A-3
  6
Continuous
 62
     4
370
     9
100
AcDbCircle
 10
-150.5947210381885
 20
96.15396182577851
 30
0.0
 40
2.810700080684712
100
AcDbArc
 50
74.66914367675783
 51
90.139892578125
  0
ARC
  5
2A8
330
1F
100
AcDbEntity
  8
A-3
  6
Continuous
 62
     4
370
     9
100
AcDbCircle
 10
-152.6083061914221
 20
96.15396182577851
 30
0.0
 40
2.810700080684712
100
AcDbArc
 50
89.86010742187501
 51
105.3308563232422
  0
ARC
  5
2A9
330
1F
100
AcDbEntity
  8
A-3
  6
Continuous
 62
     4
370
     9
100
AcDbCircle
 10
-152.6083061914221
 20
94.90389407439861
 30
0.0
 40
2.810700080684712
100
AcDbArc
 50
89.86010742187501
 51
105.3308563232422
  0
ARC
  5
2AA
330
1F
100
AcDbEntity
  8
A-3
  6
Continuous
 62
     4
370
     9
100
AcDbCircle
 10
-150.5947210381885
 20
94.90389407439861
 30
0.0
 40
2.810700080684712
100
AcDbArc
 50
74.66914367675783
 51
90.139892578125
  0
LINE
  5
2AB
330
1F
100
AcDbEntity
  8
A-3
  6
Continuous
 62
     4
370
     9
100
AcDbLine
 10
-150.6016576012178
 20
94.71462499749518
 30
0.0
 11
-144.2774397382539
 21
81.113058535617
 31
0.0
  0
LINE
  5
2AC
330
1F
100
AcDbEntity
  8
A-3
  6
Continuous
 62
     4
370
     9
100
AcDbLine
 10
-144.2774397382539
 20
81.113058535617
 30
0.0
 11
-145.0020328762526
 21
80.77563460061296
 31
0.0
  0
LINE
  5
2AD
330
1F
100
AcDbEntity
  8
A-3
  6
Continuous
 62
     4
370
     9
100
AcDbLine
 10
-152.0671782283626
 20
79.85496908124443
 30
0.0
 11
-152.0513992740428
 21
79.92407987838175
 31
0.0
  0
LINE
  5
2AE
330
1F
100
AcDbEntity
  8
A-3
  6
Continuous
 62
     4
370
     9
100
AcDbLine
 10
-152.0949643283632
 20
79.73611862011748
 30
0.0
 11
-152.0671782283626
 21
79.85496908124443
 31
0.0
  0
LINE
  5
2AF
330
1F
100
AcDbEntity
  8
A-3
  6
Continuous
 62
     4
370
     9
100
AcDbLine
 10
-152.1243643348817
 20
79.61811839693863
 30
0.0
 11
-152.0949643283632
 21
79.73611862011748
 31
0.0
  0
LINE
  5
2B0
330
1F
100
AcDbEntity
  8
A-3
  6
Continuous
 62
     4
370
     9
100
AcDbLine
 10
-152.1563997077385
 20
79.50150653699166
 30
0.0
 11
-152.1243643348817
 21
79.61811839693863
 31
0.0
  0
LINE
  5
2B1
330
1F
100
AcDbEntity
  8
A-3
  6
Continuous
 62
     4
370
     9
100
AcDbLine
 10
-152.1920919067566
 20
79.38682116556006
 30
0.0
 11
-152.1563997077385
 21
79.50150653699166
 31
0.0
  0
LINE
  5
2B2
330
1F
100
AcDbEntity
  8
A-3
  6
Continuous
 62
     4
370
     9
100
AcDbLine
 10
-152.2324623917553
 20
79.27460040792764
 30
0.0
 11
-152.1920919067566
 21
79.38682116556006
 31
0.0
  0
LINE
  5
2B3
330
1F
100
AcDbEntity
  8
A-3
  6
Continuous
 62
     4
370
     9
100
AcDbLine
 10
-152.2584233719772
 20
79.21085370388778
 30
0.0
 11
-152.2324623917553
 21
79.27460040792764
 31
0.0
  0
LINE
  5
2B4
330
1F
100
AcDbEntity
  8
A-3
  6
Continuous
 62
     4
370
     9
100
AcDbLine
 10
-152.3265089968652
 20
79.06719723707508
 30
0.0
 11
-152.2584233719772
 21
79.21085370388778
 31
0.0
  0
LINE
  5
2B5
330
1F
100
AcDbEntity
  8
A-3
  6
Continuous
 62
     4
370
     9
100
AcDbLine
 10
-152.4675002620598
 20
78.83194781036903
 30
0.0
 11
-152.3265089968652
 21
79.06719723707508
 31
0.0
  0
LINE
  5
2B6
330
1F
100
AcDbEntity
  8
A-3
  6
Continuous
 62
     4
370
     9
100
AcDbLine
 10
-152.6336447141466
 20
78.60994958116419
 30
0.0
 11
-152.4675002620598
 21
78.83194781036903
 31
0.0
  0
LINE
  5
2B7
330
1F
100
AcDbEntity
  8
A-3
  6
Continuous
 62
     4
370
     9
100
AcDbLine
 10
-152.8194503909208
 20
78.39830927489683
 30
0.0
 11
-152.6336447141466
 21
78.60994958116419
 31
0.0
  0
LINE
  5
2B8
330
1F
100
AcDbEntity
  8
A-3
  6
Continuous
 62
     4
370
     9
100
AcDbLine
 10
-153.0194253301829
 20
78.19413361700339
 30
0.0
 11
-152.8194503909208
 21
78.39830927489683
 31
0.0
  0
LINE
  5
2B9
330
1F
100
AcDbEntity
  8
A-3
  6
Continuous
 62
     4
370
     9
100
AcDbLine
 10
-153.2280775697245
 20
77.99452933292028
 30
0.0
 11
-153.0194253301829
 21
78.19413361700339
 31
0.0
  0
LINE
  5
2BA
330
1F
100
AcDbEntity
  8
A-3
  6
Continuous
 62
     4
370
     9
100
AcDbLine
 10
-153.3509076889584
 20
77.87971335100377
 30
0.0
 11
-153.2280775697245
 21
77.99452933292028
 31
0.0
  0
LINE
  5
2BB
330
1F
100
AcDbEntity
  8
A-3
  6
Continuous
 62
     4
370
     9
100
AcDbLine
 10
-153.3274366818954
 20
-11.58275288675203
 30
0.0
 11
-153.3274366818954
 21
77.90165297574174
 31
0.0
  0
LINE
  5
2BC
330
1F
100
AcDbEntity
  8
A-3
  6
Continuous
 62
     4
370
     9
100
AcDbLine
 10
345.8346630731307
 20
-70.05580532815645
 30
0.0
 11
345.3326282226283
 21
-55.87646926623687
 31
0.0
  0
LINE
  5
2BD
330
1F
100
AcDbEntity
  8
A-3
  6
Continuous
 62
     4
370
     9
100
AcDbLine
 10
346.6326630731305
 20
-70.05580532815645
 30
0.0
 11
346.130628222628
 21
-55.63799290891875
 31
0.0
  0
LINE
  5
2BE
330
1F
100
AcDbEntity
  8
A-3
  6
Continuous
 62
     4
370
     9
100
AcDbLine
 10
345.8346630731307
 20
-70.05580532815645
 30
0.0
 11
346.6326630731305
 21
-70.05580532815645
 31
0.0
  0
LINE
  5
2BF
330
1F
100
AcDbEntity
  8
A-3
  6
Continuous
 62
     4
370
     9
100
AcDbLine
 10
344.4328569041556
 20
-70.07592012161825
 30
0.0
 11
344.4328569041556
 21
-56.00035027167717
 31
0.0
  0
LINE
  5
2C0
330
1F
100
AcDbEntity
  8
A-3
  6
Continuous
 62
     4
370
     9
100
AcDbLine
 10
344.4328569041556
 20
-56.00035027167717
 30
0.0
 11
338.2832618248381
 21
-69.22436539938718
 31
0.0
  0
LINE
  5
2C1
330
1F
100
AcDbEntity
  8
A-3
  6
Continuous
 62
     4
370
     9
100
AcDbLine
 10
346.130628222628
 20
-55.63799290891875
 30
0.0
 11
345.8825985769806
 21
-54.37916258979225
 31
0.0
  0
LINE
  5
2C2
330
1F
100
AcDbEntity
  8
A-3
  6
Continuous
 62
     4
370
     9
100
AcDbLine
 10
345.3326282226283
 20
-70.07592012161825
 30
0.0
 11
345.3326282226283
 21
-55.87646926623687
 31
0.0
  0
LINE
  5
2C3
330
1F
100
AcDbEntity
  8
A-3
  6
Continuous
 62
     4
370
     9
100
AcDbLine
 10
344.6706819222538
 20
-47.87316193843548
 30
0.0
 11
343.8828865498033
 21
-48.66095731088716
 31
0.0
  0
LINE
  5
2C4
330
1F
100
AcDbEntity
  8
A-3
  6
Continuous
 62
     4
370
     9
100
AcDbLine
 10
345.0948032045278
 20
-47.87316193843548
 30
0.0
 11
345.8825985769806
 21
-48.66095731088716
 31
0.0
  0
LINE
  5
2C5
330
1F
100
AcDbEntity
  8
A-3
  6
Continuous
 62
     4
370
     9
100
AcDbLine
 10
343.8828865498033
 20
-48.66095731088716
 30
0.0
 11
343.788747480138
 21
-48.76896950660647
 31
0.0
  0
LINE
  5
2C6
330
1F
100
AcDbEntity
  8
A-3
  6
Continuous
 62
     4
370
     9
100
AcDbLine
 10
343.788747480138
 20
-48.76896950660647
 30
0.0
 11
343.6311884056488
 21
-48.9582385835099
 31
0.0
  0
LINE
  5
2C7
330
1F
100
AcDbEntity
  8
A-3
  6
Continuous
 62
     4
370
     9
100
AcDbLine
 10
343.6311884056488
 20
-48.9582385835099
 30
0.0
 11
343.4835387069108
 21
-49.15246234829009
 31
0.0
  0
LINE
  5
2C8
330
1F
100
AcDbEntity
  8
A-3
  6
Continuous
 62
     4
370
     9
100
AcDbLine
 10
343.4835387069108
 20
-49.15246234829009
 30
0.0
 11
343.3537258845342
 21
-49.35659548882494
 31
0.0
  0
LINE
  5
2C9
330
1F
100
AcDbEntity
  8
A-3
  6
Continuous
 62
     4
370
     9
100
AcDbLine
 10
343.3537258845342
 20
-49.35659548882494
 30
0.0
 11
343.2893149421318
 21
-49.4804626857508
 31
0.0
  0
LINE
  5
2CA
330
1F
100
AcDbEntity
  8
A-3
  6
Continuous
 62
     4
370
     9
100
AcDbLine
 10
343.2893149421318
 20
-49.4804626857508
 30
0.0
 11
343.2635505651717
 21
-49.53496425239859
 31
0.0
  0
LINE
  5
2CB
330
1F
100
AcDbEntity
  8
A-3
  6
Continuous
 62
     4
370
     9
100
AcDbLine
 10
343.2635505651717
 20
-49.53496425239859
 30
0.0
 11
343.2239130621554
 21
-49.63108519721413
 31
0.0
  0
LINE
  5
2CC
330
1F
100
AcDbEntity
  8
A-3
  6
Continuous
 62
     4
370
     9
100
AcDbLine
 10
343.2239130621554
 20
-49.63108519721413
 30
0.0
 11
343.1872483718632
 21
-49.72869254839178
 31
0.0
  0
LINE
  5
2CD
330
1F
100
AcDbEntity
  8
A-3
  6
Continuous
 62
     4
370
     9
100
AcDbLine
 10
343.1872483718632
 20
-49.72869254839178
 30
0.0
 11
343.1525655567259
 21
-49.8277863059327
 31
0.0
  0
LINE
  5
2CE
330
1F
100
AcDbEntity
  8
A-3
  6
Continuous
 62
     4
370
     9
100
AcDbLine
 10
343.1525655567259
 20
-49.8277863059327
 30
0.0
 11
343.1327468052166
 21
-49.88526068530586
 31
0.0
  0
LINE
  5
2CF
330
1F
100
AcDbEntity
  8
A-3
  6
Continuous
 62
     4
370
     9
100
AcDbLine
 10
345.8825985769806
 20
-48.66095731088716
 30
0.0
 11
345.9767376466436
 21
-48.76896950660647
 31
0.0
  0
LINE
  5
2D0
330
1F
100
AcDbEntity
  8
A-3
  6
Continuous
 62
     4
370
     9
100
AcDbLine
 10
345.9767376466436
 20
-48.76896950660647
 30
0.0
 11
346.1352876587091
 21
-48.9582385835099
 31
0.0
  0
LINE
  5
2D1
330
1F
100
AcDbEntity
  8
A-3
  6
Continuous
 62
     4
370
     9
100
AcDbLine
 10
346.1352876587091
 20
-48.9582385835099
 30
0.0
 11
346.2819464198708
 21
-49.15246234829009
 31
0.0
  0
LINE
  5
2D2
330
1F
100
AcDbEntity
  8
A-3
  6
Continuous
 62
     4
370
     9
100
AcDbLine
 10
346.2819464198708
 20
-49.15246234829009
 30
0.0
 11
346.4127501798237
 21
-49.35659548882494
 31
0.0
  0
LINE
  5
2D3
330
1F
100
AcDbEntity
  8
A-3
  6
Continuous
 62
     4
370
     9
100
AcDbLine
 10
346.4127501798237
 20
-49.35659548882494
 30
0.0
 11
346.4771611222261
 21
-49.4804626857508
 31
0.0
  0
LINE
  5
2D4
330
1F
100
AcDbEntity
  8
A-3
  6
Continuous
 62
     4
370
     9
100
AcDbLine
 10
346.4771611222261
 20
-49.4804626857508
 30
0.0
 11
346.5019345616122
 21
-49.53496425239859
 31
0.0
  0
LINE
  5
2D5
330
1F
100
AcDbEntity
  8
A-3
  6
Continuous
 62
     4
370
     9
100
AcDbLine
 10
346.5019345616122
 20
-49.53496425239859
 30
0.0
 11
346.5415720646286
 21
-49.63108519721413
 31
0.0
  0
LINE
  5
2D6
330
1F
100
AcDbEntity
  8
A-3
  6
Continuous
 62
     4
370
     9
100
AcDbLine
 10
346.5415720646286
 20
-49.63108519721413
 30
0.0
 11
346.5792276924924
 21
-49.72869254839178
 31
0.0
  0
LINE
  5
2D7
330
1F
100
AcDbEntity
  8
A-3
  6
Continuous
 62
     4
370
     9
100
AcDbLine
 10
346.5792276924924
 20
-49.72869254839178
 30
0.0
 11
346.612919570058
 21
-49.8277863059327
 31
0.0
  0
LINE
  5
2D8
330
1F
100
AcDbEntity
  8
A-3
  6
Continuous
 62
     4
370
     9
100
AcDbLine
 10
343.8828865498033
 20
-49.78567145897795
 30
0.0
 11
343.7728924789315
 21
-49.92539365711036
 31
0.0
  0
LINE
  5
2D9
330
1F
100
AcDbEntity
  8
A-3
  6
Continuous
 62
     4
370
     9
100
AcDbLine
 10
343.7728924789315
 20
-49.92539365711036
 30
0.0
 11
343.5885780899059
 21
-50.16965976944856
 31
0.0
  0
LINE
  5
2DA
330
1F
100
AcDbEntity
  8
A-3
  6
Continuous
 62
     4
370
     9
100
AcDbLine
 10
343.5885780899059
 20
-50.16965976944856
 30
0.0
 11
343.4201187020847
 21
-50.42135791360305
 31
0.0
  0
LINE
  5
2DB
330
1F
100
AcDbEntity
  8
A-3
  6
Continuous
 62
     4
370
     9
100
AcDbLine
 10
343.4201187020847
 20
-50.42135791360305
 30
0.0
 11
343.2813874415285
 21
-50.68544277745058
 31
0.0
  0
LINE
  5
2DC
330
1F
100
AcDbEntity
  8
A-3
  6
Continuous
 62
     4
370
     9
100
AcDbLine
 10
343.2813874415285
 20
-50.68544277745058
 30
0.0
 11
343.2159855615521
 21
-50.84647013345442
 31
0.0
  0
LINE
  5
2DD
330
1F
100
AcDbEntity
  8
A-3
  6
Continuous
 62
     4
370
     9
100
AcDbLine
 10
343.2159855615521
 20
-50.84647013345442
 30
0.0
 11
343.2031033730698
 21
-50.88561216768266
 31
0.0
  0
LINE
  5
2DE
330
1F
100
AcDbEntity
  8
A-3
  6
Continuous
 62
     4
370
     9
100
AcDbLine
 10
343.2031033730698
 20
-50.88561216768266
 30
0.0
 11
343.1822936839865
 21
-50.95497779796187
 31
0.0
  0
LINE
  5
2DF
330
1F
100
AcDbEntity
  8
A-3
  6
Continuous
 62
     4
370
     9
100
AcDbLine
 10
343.1822936839865
 20
-50.95497779796187
 30
0.0
 11
343.1624749324794
 21
-51.02434342823994
 31
0.0
  0
LINE
  5
2E0
330
1F
100
AcDbEntity
  8
A-3
  6
Continuous
 62
     4
370
     9
100
AcDbLine
 10
343.1624749324794
 20
-51.02434342823994
 30
0.0
 11
343.1436471185464
 21
-51.09469999609427
 31
0.0
  0
LINE
  5
2E1
330
1F
100
AcDbEntity
  8
A-3
  6
Continuous
 62
     4
370
     9
100
AcDbLine
 10
343.1436471185464
 20
-51.09469999609427
 30
0.0
 11
343.1327468052166
 21
-51.13532843668576
 31
0.0
  0
LINE
  5
2E2
330
1F
100
AcDbEntity
  8
A-3
  6
Continuous
 62
     4
370
     9
100
AcDbLine
 10
343.8828865498033
 20
-51.03524374156972
 30
0.0
 11
343.7728924789315
 21
-51.17546140849026
 31
0.0
  0
LINE
  5
2E3
330
1F
100
AcDbEntity
  8
A-3
  6
Continuous
 62
     4
370
     9
100
AcDbLine
 10
343.7728924789315
 20
-51.17546140849026
 30
0.0
 11
343.5885780899059
 21
-51.4197275208296
 31
0.0
  0
LINE
  5
2E4
330
1F
100
AcDbEntity
  8
A-3
  6
Continuous
 62
     4
370
     9
100
AcDbLine
 10
343.5885780899059
 20
-51.4197275208296
 30
0.0
 11
343.4201187020847
 21
-51.67142566498296
 31
0.0
  0
LINE
  5
2E5
330
1F
100
AcDbEntity
  8
A-3
  6
Continuous
 62
     4
370
     9
100
AcDbLine
 10
343.4201187020847
 20
-51.67142566498296
 30
0.0
 11
343.2813874415285
 21
-51.93551052883048
 31
0.0
  0
LINE
  5
2E6
330
1F
100
AcDbEntity
  8
A-3
  6
Continuous
 62
     4
370
     9
100
AcDbLine
 10
343.2813874415285
 20
-51.93551052883048
 30
0.0
 11
343.2159855615521
 21
-52.09653788483433
 31
0.0
  0
LINE
  5
2E7
330
1F
100
AcDbEntity
  8
A-3
  6
Continuous
 62
     4
370
     9
100
AcDbLine
 10
343.2159855615521
 20
-52.09653788483433
 30
0.0
 11
343.2031033730698
 21
-52.13617538785069
 31
0.0
  0
LINE
  5
2E8
330
1F
100
AcDbEntity
  8
A-3
  6
Continuous
 62
     4
370
     9
100
AcDbLine
 10
343.2031033730698
 20
-52.13617538785069
 30
0.0
 11
343.1822936839865
 21
-52.20504554934177
 31
0.0
  0
LINE
  5
2E9
330
1F
100
AcDbEntity
  8
A-3
  6
Continuous
 62
     4
370
     9
100
AcDbLine
 10
343.1822936839865
 20
-52.20504554934177
 30
0.0
 11
343.1624749324794
 21
-52.27441117961984
 31
0.0
  0
LINE
  5
2EA
330
1F
100
AcDbEntity
  8
A-3
  6
Continuous
 62
     4
370
     9
100
AcDbLine
 10
343.1624749324794
 20
-52.27441117961984
 30
0.0
 11
343.1436471185464
 21
-52.34476774747417
 31
0.0
  0
LINE
  5
2EB
330
1F
100
AcDbEntity
  8
A-3
  6
Continuous
 62
     4
370
     9
100
AcDbLine
 10
343.1436471185464
 20
-52.34476774747417
 30
0.0
 11
343.1327468052166
 21
-52.3853961880668
 31
0.0
  0
LINE
  5
2EC
330
1F
100
AcDbEntity
  8
A-3
  6
Continuous
 62
     4
370
     9
100
AcDbLine
 10
345.8825985769806
 20
-49.78567145897795
 30
0.0
 11
345.9935835854264
 21
-49.92539365711036
 31
0.0
  0
LINE
  5
2ED
330
1F
100
AcDbEntity
  8
A-3
  6
Continuous
 62
     4
370
     9
100
AcDbLine
 10
345.9935835854264
 20
-49.92539365711036
 30
0.0
 11
346.177897974452
 21
-50.16965976944856
 31
0.0
  0
LINE
  5
2EE
330
1F
100
AcDbEntity
  8
A-3
  6
Continuous
 62
     4
370
     9
100
AcDbLine
 10
346.177897974452
 20
-50.16965976944856
 30
0.0
 11
346.345366424697
 21
-50.42135791360305
 31
0.0
  0
LINE
  5
2EF
330
1F
100
AcDbEntity
  8
A-3
  6
Continuous
 62
     4
370
     9
100
AcDbLine
 10
346.345366424697
 20
-50.42135791360305
 30
0.0
 11
346.4850886228294
 21
-50.68544277745058
 31
0.0
  0
LINE
  5
2F0
330
1F
100
AcDbEntity
  8
A-3
  6
Continuous
 62
     4
370
     9
100
AcDbLine
 10
346.4850886228294
 20
-50.68544277745058
 30
0.0
 11
346.5494995652318
 21
-50.84647013345442
 31
0.0
  0
LINE
  5
2F1
330
1F
100
AcDbEntity
  8
A-3
  6
Continuous
 62
     4
370
     9
100
AcDbLine
 10
346.5494995652318
 20
-50.84647013345442
 30
0.0
 11
346.5623817537119
 21
-50.88561216768266
 31
0.0
  0
LINE
  5
2F2
330
1F
100
AcDbEntity
  8
A-3
  6
Continuous
 62
     4
370
     9
100
AcDbLine
 10
346.5623817537119
 20
-50.88561216768266
 30
0.0
 11
346.5841823803714
 21
-50.95497779796187
 31
0.0
  0
LINE
  5
2F3
330
1F
100
AcDbEntity
  8
A-3
  6
Continuous
 62
     4
370
     9
100
AcDbLine
 10
346.5841823803714
 20
-50.95497779796187
 30
0.0
 11
346.6030101943022
 21
-51.02434342823994
 31
0.0
  0
LINE
  5
2F4
330
1F
100
AcDbEntity
  8
A-3
  6
Continuous
 62
     4
370
     9
100
AcDbLine
 10
346.6030101943022
 20
-51.02434342823994
 30
0.0
 11
346.6228289458115
 21
-51.09469999609427
 31
0.0
  0
LINE
  5
2F5
330
1F
100
AcDbEntity
  8
A-3
  6
Continuous
 62
     4
370
     9
100
AcDbLine
 10
345.8825985769806
 20
-51.03524374156972
 30
0.0
 11
345.9935835854264
 21
-51.17546140849026
 31
0.0
  0
LINE
  5
2F6
330
1F
100
AcDbEntity
  8
A-3
  6
Continuous
 62
     4
370
     9
100
AcDbLine
 10
345.9935835854264
 20
-51.17546140849026
 30
0.0
 11
346.177897974452
 21
-51.4197275208296
 31
0.0
  0
LINE
  5
2F7
330
1F
100
AcDbEntity
  8
A-3
  6
Continuous
 62
     4
370
     9
100
AcDbLine
 10
346.177897974452
 20
-51.4197275208296
 30
0.0
 11
346.345366424697
 21
-51.67142566498296
 31
0.0
  0
LINE
  5
2F8
330
1F
100
AcDbEntity
  8
A-3
  6
Continuous
 62
     4
370
     9
100
AcDbLine
 10
346.345366424697
 20
-51.67142566498296
 30
0.0
 11
346.4850886228294
 21
-51.93551052883048
 31
0.0
  0
LINE
  5
2F9
330
1F
100
AcDbEntity
  8
A-3
  6
Continuous
 62
     4
370
     9
100
AcDbLine
 10
346.4850886228294
 20
-51.93551052883048
 30
0.0
 11
346.5494995652318
 21
-52.09653788483433
 31
0.0
  0
LINE
  5
2FA
330
1F
100
AcDbEntity
  8
A-3
  6
Continuous
 62
     4
370
     9
100
AcDbLine
 10
346.5494995652318
 20
-52.09653788483433
 30
0.0
 11
346.5623817537119
 21
-52.13617538785069
 31
0.0
  0
LINE
  5
2FB
330
1F
100
AcDbEntity
  8
A-3
  6
Continuous
 62
     4
370
     9
100
AcDbLine
 10
346.5623817537119
 20
-52.13617538785069
 30
0.0
 11
346.5841823803714
 21
-52.20504554934177
 31
0.0
  0
LINE
  5
2FC
330
1F
100
AcDbEntity
  8
A-3
  6
Continuous
 62
     4
370
     9
100
AcDbLine
 10
346.5841823803714
 20
-52.20504554934177
 30
0.0
 11
346.6030101943022
 21
-52.27441117961984
 31
0.0
  0
LINE
  5
2FD
330
1F
100
AcDbEntity
  8
A-3
  6
Continuous
 62
     4
370
     9
100
AcDbLine
 10
346.6030101943022
 20
-52.27441117961984
 30
0.0
 11
346.6327383215651
 21
-52.38490071927867
 31
0.0
  0
LINE
  5
2FE
330
1F
100
AcDbEntity
  8
A-3
  6
Continuous
 62
     4
370
     9
100
AcDbLine
 10
343.8828865498033
 20
-52.28531149294962
 30
0.0
 11
343.8828865498033
 21
-55.2853750025049
 31
0.0
  0
LINE
  5
2FF
330
1F
100
AcDbEntity
  8
A-3
  6
Continuous
 62
     4
370
     9
100
AcDbLine
 10
345.8825985769806
 20
-52.28531149294962
 30
0.0
 11
345.8825985769806
 21
-54.37916258979225
 31
0.0
  0
ARC
  5
300
330
1F
100
AcDbEntity
  8
A-3
  6
Continuous
 62
     4
370
     9
100
AcDbCircle
 10
344.882742563392
 20
-48.0852225795736
 30
0.0
 40
0.3000001213063833
100
AcDbArc
 50
44.99999999999997
 51
135.0
  0
ARC
  5
301
330
1F
100
AcDbEntity
  8
A-3
  6
Continuous
 62
     4
370
     9
100
AcDbCircle
 10
343.875949986774
 20
-52.59597042284053
 30
0.0
 40
2.810700080684713
100
AcDbArc
 50
89.86010742187501
 51
105.3308563232422
  0
ARC
  5
302
330
1F
100
AcDbEntity
  8
A-3
  6
Continuous
 62
     4
370
     9
100
AcDbCircle
 10
345.8895351400076
 20
-52.59597042284053
 30
0.0
 40
2.810700080684713
100
AcDbArc
 50
74.66914367675783
 51
90.139892578125
  0
ARC
  5
303
330
1F
100
AcDbEntity
  8
A-3
  6
Continuous
 62
     4
370
     9
100
AcDbCircle
 10
343.875949986774
 20
-53.84603817422157
 30
0.0
 40
2.810700080684713
100
AcDbArc
 50
89.86010742187501
 51
105.3308563232422
  0
ARC
  5
304
330
1F
100
AcDbEntity
  8
A-3
  6
Continuous
 62
     4
370
     9
100
AcDbCircle
 10
345.8895351400076
 20
-53.84603817422157
 30
0.0
 40
2.810700080684713
100
AcDbArc
 50
74.66914367675783
 51
90.139892578125
  0
ARC
  5
305
330
1F
100
AcDbEntity
  8
A-3
  6
Continuous
 62
     4
370
     9
100
AcDbCircle
 10
345.8895351400076
 20
-55.09610592560147
 30
0.0
 40
2.810700080684713
100
AcDbArc
 50
74.66914367675783
 51
90.139892578125
  0
ARC
  5
306
330
1F
100
AcDbEntity
  8
A-3
  6
Continuous
 62
     4
370
     9
100
AcDbCircle
 10
343.875949986774
 20
-55.09610592560147
 30
0.0
 40
2.810700080684713
100
AcDbArc
 50
89.86010742187501
 51
105.3308563232422
  0
LINE
  5
307
330
1F
100
AcDbEntity
  8
A-3
  6
Continuous
 62
     4
370
     9
100
AcDbLine
 10
343.8828865498033
 20
-55.2853750025049
 30
0.0
 11
337.5586686868394
 21
-68.88694146438314
 31
0.0
  0
LINE
  5
308
330
1F
100
AcDbEntity
  8
A-3
  6
Continuous
 62
     4
370
     9
100
AcDbLine
 10
337.5586686868394
 20
-68.88694146438314
 30
0.0
 11
338.2832618248381
 21
-69.22436539938718
 31
0.0
  0
LINE
  5
309
330
1F
100
AcDbEntity
  8
A-3
  6
Continuous
 62
     4
370
     9
100
AcDbLine
 10
344.4328569041556
 20
-70.07592012161825
 30
0.0
 11
344.4170779498359
 21
-70.00680932448108
 31
0.0
  0
LINE
  5
30A
330
1F
100
AcDbEntity
  8
A-3
  6
Continuous
 62
     4
370
     9
100
AcDbLine
 10
344.4606430041563
 20
-70.1947705827452
 30
0.0
 11
344.4328569041556
 21
-70.07592012161825
 31
0.0
  0
LINE
  5
30B
330
1F
100
AcDbEntity
  8
A-3
  6
Continuous
 62
     4
370
     9
100
AcDbLine
 10
344.4900430106748
 20
-70.31277080592406
 30
0.0
 11
344.4606430041563
 21
-70.1947705827452
 31
0.0
  0
LINE
  5
30C
330
1F
100
AcDbEntity
  8
A-3
  6
Continuous
 62
     4
370
     9
100
AcDbLine
 10
344.5220783835316
 20
-70.42938266587117
 30
0.0
 11
344.4900430106748
 21
-70.31277080592406
 31
0.0
  0
LINE
  5
30D
330
1F
100
AcDbEntity
  8
A-3
  6
Continuous
 62
     4
370
     9
100
AcDbLine
 10
344.5577705825485
 20
-70.5440680373029
 30
0.0
 11
344.5220783835316
 21
-70.42938266587117
 31
0.0
  0
LINE
  5
30E
330
1F
100
AcDbEntity
  8
A-3
  6
Continuous
 62
     4
370
     9
100
AcDbLine
 10
344.5981410675483
 20
-70.65628879493534
 30
0.0
 11
344.5577705825485
 21
-70.5440680373029
 31
0.0
  0
LINE
  5
30F
330
1F
100
AcDbEntity
  8
A-3
  6
Continuous
 62
     4
370
     9
100
AcDbLine
 10
344.6241020477692
 20
-70.72003549897505
 30
0.0
 11
344.5981410675483
 21
-70.65628879493534
 31
0.0
  0
LINE
  5
310
330
1F
100
AcDbEntity
  8
A-3
  6
Continuous
 62
     4
370
     9
100
AcDbLine
 10
344.6921876726583
 20
-70.8636919657879
 30
0.0
 11
344.6241020477692
 21
-70.72003549897505
 31
0.0
  0
LINE
  5
311
330
1F
100
AcDbEntity
  8
A-3
  6
Continuous
 62
     4
370
     9
100
AcDbLine
 10
344.8331789378517
 20
-71.09894139249366
 30
0.0
 11
344.6921876726583
 21
-70.8636919657879
 31
0.0
  0
LINE
  5
312
330
1F
100
AcDbEntity
  8
A-3
  6
Continuous
 62
     4
370
     9
100
AcDbLine
 10
344.9993233899386
 20
-71.32093962169864
 30
0.0
 11
344.8331789378517
 21
-71.09894139249366
 31
0.0
  0
LINE
  5
313
330
1F
100
AcDbEntity
  8
A-3
  6
Continuous
 62
     4
370
     9
100
AcDbLine
 10
345.185129066715
 20
-71.53257992796614
 30
0.0
 11
344.9993233899386
 21
-71.32093962169864
 31
0.0
  0
LINE
  5
314
330
1F
100
AcDbEntity
  8
A-3
  6
Continuous
 62
     4
370
     9
100
AcDbLine
 10
345.3851040059749
 20
-71.73675558585944
 30
0.0
 11
345.185129066715
 21
-71.53257992796614
 31
0.0
  0
LINE
  5
315
330
1F
100
AcDbEntity
  8
A-3
  6
Continuous
 62
     4
370
     9
100
AcDbLine
 10
345.5937562455188
 20
-71.93635986994241
 30
0.0
 11
345.3851040059749
 21
-71.73675558585944
 31
0.0
  0
LINE
  5
316
330
1F
100
AcDbEntity
  8
A-3
  6
Continuous
 62
     4
370
     9
100
AcDbLine
 10
345.7165863647515
 20
-72.05117585185906
 30
0.0
 11
345.5937562455188
 21
-71.93635986994241
 31
0.0
  0
LINE
  5
317
330
1F
100
AcDbEntity
  8
A-3
  6
Continuous
 62
     4
370
     9
100
AcDbLine
 10
345.3484071769481
 20
-70.14503091875571
 30
0.0
 11
345.3326282226283
 21
-70.07592012161825
 31
0.0
  0
LINE
  5
318
330
1F
100
AcDbEntity
  8
A-3
  6
Continuous
 62
     4
370
     9
100
AcDbLine
 10
345.3761932769487
 20
-70.26388137988266
 30
0.0
 11
345.3484071769481
 21
-70.14503091875571
 31
0.0
  0
LINE
  5
319
330
1F
100
AcDbEntity
  8
A-3
  6
Continuous
 62
     4
370
     9
100
AcDbLine
 10
345.4055932834672
 20
-70.38188160306152
 30
0.0
 11
345.3761932769487
 21
-70.26388137988266
 31
0.0
  0
LINE
  5
31A
330
1F
100
AcDbEntity
  8
A-3
  6
Continuous
 62
     4
370
     9
100
AcDbLine
 10
345.437628656324
 20
-70.49849346300834
 30
0.0
 11
345.4055932834672
 21
-70.38188160306152
 31
0.0
  0
LINE
  5
31B
330
1F
100
AcDbEntity
  8
A-3
  6
Continuous
 62
     4
370
     9
100
AcDbLine
 10
345.4733208553421
 20
-70.61317883444008
 30
0.0
 11
345.437628656324
 21
-70.49849346300834
 31
0.0
  0
LINE
  5
31C
330
1F
100
AcDbEntity
  8
A-3
  6
Continuous
 62
     4
370
     9
100
AcDbLine
 10
345.5136913403408
 20
-70.7253995920725
 30
0.0
 11
345.4733208553421
 21
-70.61317883444008
 31
0.0
  0
LINE
  5
31D
330
1F
100
AcDbEntity
  8
A-3
  6
Continuous
 62
     4
370
     9
100
AcDbLine
 10
345.5396523205627
 20
-70.78914629611222
 30
0.0
 11
345.5136913403408
 21
-70.7253995920725
 31
0.0
  0
LINE
  5
31E
330
1F
100
AcDbEntity
  8
A-3
  6
Continuous
 62
     4
370
     9
100
AcDbLine
 10
345.6077379454507
 20
-70.93280276292506
 30
0.0
 11
345.5396523205627
 21
-70.78914629611222
 31
0.0
  0
LINE
  5
31F
330
1F
100
AcDbEntity
  8
A-3
  6
Continuous
 62
     4
370
     9
100
AcDbLine
 10
345.7487292106453
 20
-71.16805218963111
 30
0.0
 11
345.6077379454507
 21
-70.93280276292506
 31
0.0
  0
LINE
  5
320
330
1F
100
AcDbEntity
  8
A-3
  6
Continuous
 62
     4
370
     9
100
AcDbLine
 10
345.9148736627321
 20
-71.39005041883581
 30
0.0
 11
345.7487292106453
 21
-71.16805218963111
 31
0.0
  0
LINE
  5
321
330
1F
100
AcDbEntity
  8
A-3
  6
Continuous
 62
     4
370
     9
100
AcDbLine
 10
346.1006793395063
 20
-71.60169072510331
 30
0.0
 11
345.9148736627321
 21
-71.39005041883581
 31
0.0
  0
LINE
  5
322
330
1F
100
AcDbEntity
  8
A-3
  6
Continuous
 62
     4
370
     9
100
AcDbLine
 10
346.3006542787684
 20
-71.80586638299661
 30
0.0
 11
346.1006793395063
 21
-71.60169072510331
 31
0.0
  0
LINE
  5
323
330
1F
100
AcDbEntity
  8
A-3
  6
Continuous
 62
     4
370
     9
100
AcDbLine
 10
346.50930651831
 20
-72.00547066707986
 30
0.0
 11
346.3006542787684
 21
-71.80586638299661
 31
0.0
  0
LINE
  5
324
330
1F
100
AcDbEntity
  8
A-3
  6
Continuous
 62
     4
370
     9
100
AcDbLine
 10
346.6321366375439
 20
-72.12028664899623
 30
0.0
 11
346.50930651831
 21
-72.00547066707986
 31
0.0
  0
LINE
  5
325
330
1F
100
AcDbEntity
  8
A-4
  6
Continuous
 62
     7
370
     9
100
AcDbLine
 10
-306.1482227107303
 20
-81.40312403031731
 30
0.0
 11
-544.9840247567167
 21
-81.40312403031731
 31
0.0
  0
TEXT
  5
326
330
1F
100
AcDbEntity
  8
A-4
  6
Continuous
 62
     2
370
     9
100
AcDbText
 10
-545.3949057649058
 20
-73.98160691458602
 30
0.0
 40
15.24
  1
ナイロンプラグ　呼び８
 41
1.113636363636363
  7
ＭＳ ゴシック
100
AcDbText
  0
TEXT
  5
327
330
1F
100
AcDbEntity
  8
A-4
  6
Continuous
 62
     2
370
     9
100
AcDbText
 10
-701.3152055659504
 20
-26.49840122784967
 30
0.0
 40
15.24
  1
軟質ポリ塩化ビニル
 41
1.111111111111107
  7
ＭＳ ゴシック
100
AcDbText
  0
TEXT
  5
328
330
1F
100
AcDbEntity
  8
A-4
  6
Continuous
 62
     2
370
     9
100
AcDbText
 10
-701.3152055659504
 20
1.142187487291775
 30
0.0
 40
15.24
  1
パッキン
 41
1.093750000000001
  7
ＭＳ ゴシック
100
AcDbText
  0
LINE
  5
329
330
1F
100
AcDbEntity
  8
A-5
  6
Continuous
 62
     7
370
     9
100
AcDbLine
 10
-422.9497260797075
 20
119.4129714502239
 30
0.0
 11
-497.0268937175053
 21
-4.744906478021456
 31
0.0
  0
LINE
  5
32A
330
1F
100
AcDbEntity
  8
A-4
  6
Continuous
 62
     7
370
     9
100
AcDbLine
 10
-166.3562909397503
 20
-261.7427603266867
 30
0.0
 11
-366.9950833455883
 21
-261.7427603266867
 31
0.0
  0
TEXT
  5
32B
330
1F
100
AcDbEntity
  8
A-4
  6
Continuous
 62
     2
370
     9
100
AcDbText
 10
-367.1992915215611
 20
-283.496255076515
 30
0.0
 40
15.24
  1
軟質ポリ塩化ビニル
 41
1.111111111111111
  7
ＭＳ ゴシック
100
AcDbText
  0
TEXT
  5
32C
330
1F
100
AcDbEntity
  8
A-4
  6
Continuous
 62
     2
370
     9
100
AcDbText
 10
-367.1992915215611
 20
-254.3492655768584
 30
0.0
 40
15.24
  1
補助シート：t=0.9
 41
1.117647058823529
  7
ＭＳ ゴシック
100
AcDbText
  0
LINE
  5
32D
330
1F
100
AcDbEntity
  8
A-4
  6
Continuous
 62
     7
370
     9
100
AcDbLine
 10
672.2519510395186
 20
-203.3813677599989
 30
0.0
 11
425.4532133376767
 21
-203.3813677599989
 31
0.0
  0
TEXT
  5
32E
330
1F
100
AcDbEntity
  8
A-4
  6
Continuous
 62
     2
370
     9
100
AcDbText
 10
426.4089504577078
 20
-195.9878730101707
 30
0.0
 40
15.24
  1
ナイロンプラグ　呼び８
 41
1.113636363636363
  7
ＭＳ ゴシック
100
AcDbText
  0
TEXT
  5
32F
330
1F
100
AcDbEntity
  8
A-4
  6
Continuous
 62
     2
370
     9
100
AcDbText
 10
457.6976795508381
 20
-140.6648778646411
 30
0.0
 40
15.24
  1
ナイロンプラグ　呼び８
 41
1.113636363636364
  7
ＭＳ ゴシック
100
AcDbText
  0
LINE
  5
330
330
1F
100
AcDbEntity
  8
A-4
  6
Continuous
 62
     7
370
     9
100
AcDbLine
 10
703.5406801326491
 20
-148.0583726144693
 30
0.0
 11
453.8187502050289
 21
-148.0583726144693
 31
0.0
  0
LINE
  5
331
330
1F
100
AcDbEntity
  8
A-5
  6
Continuous
 62
     7
370
     9
100
AcDbLine
 10
361.4025874668127
 20
43.60337624521005
 30
0.0
 11
453.8187502050289
 21
-148.0583726144694
 31
0.0
  0
TEXT
  5
332
330
1F
100
AcDbEntity
  8
A-4
  6
Continuous
 62
     2
370
     9
100
AcDbText
 10
423.8884745980454
 20
212.8911228089619
 30
0.0
 40
15.24
  1
位置決めフレーム：t=1.0
 41
1.119565217391304
  7
ＭＳ ゴシック
100
AcDbText
  0
LINE
  5
333
330
1F
100
AcDbEntity
  8
A-4
  6
Continuous
 62
     7
370
     9
100
AcDbLine
 10
682.2314751798565
 20
205.4976280591337
 30
0.0
 11
417.3013123545462
 21
205.4976280591337
 31
0.0
  0
TEXT
  5
334
330
1F
100
AcDbEntity
  8
A-4
  6
Continuous
 62
     2
370
     9
100
AcDbText
 10
426.0886042832925
 20
183.7441333093057
 30
0.0
 40
15.24
  1
A1100P
 41
1.104166666666667
  7
ＭＳ ゴシック
100
AcDbText
  0
TEXT
  5
335
330
1F
100
AcDbEntity
  8
A-4
  6
Continuous
 62
     2
370
   211
100
AcDbText
 10
255.3826532918945
 20
-264.1451958887921
 30
0.0
 40
15.24
  1
150
 41
1.083333333333333
  7
ＭＳ ゴシック
100
AcDbText
  0
TEXT
  5
336
330
1F
100
AcDbEntity
  8
A-4
  6
Continuous
 62
     2
370
   211
100
AcDbText
 10
-69.61734670810546
 20
287.3762436129038
 30
0.0
 40
15.24
  1
800
 41
1.083333333333333
  7
ＭＳ ゴシック
100
AcDbText
  0
TEXT
  5
337
330
1F
100
AcDbEntity
  8
A-4
  6
Continuous
 62
     2
370
   211
100
AcDbText
 10
-538.7521709130704
 20
121.6993149044057
 30
0.0
 40
15.24
  1
29
 50
90.0
 41
1.0625
  7
ＭＳ ゴシック
100
AcDbText
  0
TEXT
  5
338
330
1F
100
AcDbEntity
  8
A-4
  6
Continuous
 62
     2
370
   211
100
AcDbText
 10
-538.7521709130704
 20
72.19929964658687
 30
0.0
 40
15.24
  1
70
 50
90.0
 41
1.0625
  7
ＭＳ ゴシック
100
AcDbText
  0
TEXT
  5
339
330
1F
100
AcDbEntity
  8
A-4
  6
Continuous
 62
     2
370
   211
100
AcDbText
 10
460.1751717301195
 20
121.6993149044057
 30
0.0
 40
15.24
  1
29
 50
90.0
 41
1.0625
  7
ＭＳ ゴシック
100
AcDbText
  0
TEXT
  5
33A
330
1F
100
AcDbEntity
  8
A-4
  6
Continuous
 62
     2
370
   211
100
AcDbText
 10
460.6751717301195
 20
13.57429964658689
 30
0.0
 40
15.24
  1
176
 50
90.0
 41
1.083333333333333
  7
ＭＳ ゴシック
100
AcDbText
  0
LWPOLYLINE
  5
33B
330
1F
100
AcDbEntity
  8
A-4
  6
Continuous
 62
     7
370
     9
100
AcDbPolyline
 90
        4
 70
     1
 43
1.0
 10
431.9853227468811
 20
117.8242996465869
 42
0.4142135623731
 10
431.4853227468811
 20
118.3242996465869
 42
0.4142135623731
 10
430.9853227468812
 20
117.8242996465869
 42
0.4142135623731
 10
431.4853227468811
 20
117.3242996465869
 42
0.4142135623731
  0
LWPOLYLINE
  5
33C
330
1F
100
AcDbEntity
  8
A-4
  6
Continuous
 62
     7
370
     9
100
AcDbPolyline
 90
        4
 70
     1
 43
1.0
 10
431.9853227468811
 20
47.82429964658672
 42
0.4142135623731
 10
431.4853227468811
 20
48.32429964658672
 42
0.4142135623731
 10
430.9853227468812
 20
47.82429964658672
 42
0.4142135623731
 10
431.4853227468811
 20
47.32429964658672
 42
0.4142135623731
  0
LINE
  5
33D
330
1F
100
AcDbEntity
  8
A-4
  6
Continuous
 62
     7
370
     9
100
AcDbLine
 10
431.4853227468811
 20
47.82429964658672
 30
0.0
 11
398.5073786336915
 21
47.82429964658672
 31
0.0
  0
TEXT
  5
33E
330
1F
100
AcDbEntity
  8
A-4
  6
Continuous
 62
     2
370
   211
100
AcDbText
 10
425.2502747321246
 20
72.19929964658687
 30
0.0
 40
15.24
  1
70
 50
90.0
 41
1.0625
  7
ＭＳ ゴシック
100
AcDbText
  0
LINE
  5
33F
330
1F
100
AcDbEntity
  8
A-4
  6
Continuous
 62
     7
370
     9
100
AcDbLine
 10
502.2023080651732
 20
117.8242996465869
 30
0.0
 11
502.2023080651732
 21
-102.1757003534133
 31
0.0
  0
LWPOLYLINE
  5
340
330
1F
100
AcDbEntity
  8
A-4
  6
Continuous
 62
     7
370
     9
100
AcDbPolyline
 90
        4
 70
     1
 43
1.0
 10
502.7023080651731
 20
117.8242996465869
 42
0.4142135623731
 10
502.2023080651732
 20
118.3242996465869
 42
0.4142135623731
 10
501.7023080651732
 20
117.8242996465869
 42
0.4142135623731
 10
502.2023080651732
 20
117.3242996465869
 42
0.4142135623731
  0
LWPOLYLINE
  5
341
330
1F
100
AcDbEntity
  8
A-4
  6
Continuous
 62
     7
370
     9
100
AcDbPolyline
 90
        4
 70
     1
 43
1.0
 10
502.7023080651731
 20
-102.1757003534133
 42
0.4142135623731
 10
502.2023080651732
 20
-101.6757003534133
 42
0.4142135623731
 10
501.7023080651732
 20
-102.1757003534133
 42
0.4142135623731
 10
502.2023080651732
 20
-102.6757003534133
 42
0.4142135623731
  0
LINE
  5
342
330
1F
100
AcDbEntity
  8
A-4
  6
Continuous
 62
     7
370
     9
100
AcDbLine
 10
502.2023080651732
 20
117.8242996465869
 30
0.0
 11
465.6751295457287
 21
117.8242996465869
 31
0.0
  0
LINE
  5
343
330
1F
100
AcDbEntity
  8
A-4
  6
Continuous
 62
     7
370
     9
100
AcDbLine
 10
502.2023080651732
 20
-102.1757003534133
 30
0.0
 11
396.2568632680903
 21
-102.1757003534133
 31
0.0
  0
TEXT
  5
344
330
1F
100
AcDbEntity
  8
A-4
  6
Continuous
 62
     2
370
   211
100
AcDbText
 10
495.9672600504167
 20
-8.425700353413283
 30
0.0
 40
15.24
  1
220
 50
90.0
 41
1.083333333333333
  7
ＭＳ ゴシック
100
AcDbText
  0
LINE
  5
345
330
1F
100
AcDbEntity
  8
A-4
  6
Continuous
 62
     7
370
     9
100
AcDbLine
 10
212.0521759493601
 20
23.61140508873969
 30
0.0
 11
6.450751592765123
 21
23.61140508873969
 31
0.0
  0
TEXT
  5
346
330
1F
100
AcDbEntity
  8
A-4
  6
Continuous
 62
     2
370
     9
100
AcDbText
 10
9.595777944821116
 20
31.69461589062564
 30
0.0
 40
15.24
  1
ホルダー　＠４５０
 41
1.111111111111111
  7
ＭＳ ゴシック
100
AcDbText
  0
TEXT
  5
347
330
1F
100
AcDbEntity
  8
A-4
  6
Continuous
 62
     2
370
     9
100
AcDbText
 10
8.591569422961491
 20
2.78420426752648
 30
0.0
 40
15.24
  1
A6063S､SUS304
 41
1.115384615384615
  7
ＭＳ ゴシック
100
AcDbText
  0
LINE
  5
348
330
1F
100
AcDbEntity
  8
A-4
  6
Continuous
 62
     7
370
     9
100
AcDbLine
 10
124.4387875448771
 20
-81.28646603244209
 30
0.0
 11
-75.31656589616124
 21
-81.28646603244209
 31
0.0
  0
TEXT
  5
349
330
1F
100
AcDbEntity
  8
A-4
  6
Continuous
 62
     2
370
     9
100
AcDbText
 10
-77.09645621853615
 20
-76.223088673201
 30
0.0
 40
15.24
  1
シート受けフレーム
 41
1.111111111111111
  7
ＭＳ ゴシック
100
AcDbText
  0
TEXT
  5
34A
330
1F
100
AcDbEntity
  8
A-4
  6
Continuous
 62
     2
370
     9
100
AcDbText
 10
-73.17567720118707
 20
-101.6497503624929
 30
0.0
 40
15.24
  1
A6063S
 41
1.104166666666667
  7
ＭＳ ゴシック
100
AcDbText
  0
TEXT
  5
34B
330
1F
100
AcDbEntity
  8
A-4
  6
Continuous
 62
     2
370
     9
100
AcDbText
 10
143.1724670116354
 20
-85.4406732178143
 30
0.0
 40
15.24
  1
SUS304WPB
 41
1.111111111111111
  7
ＭＳ ゴシック
100
AcDbText
  0
TEXT
  5
34C
330
1F
100
AcDbEntity
  8
A-4
  6
Continuous
 62
     2
370
     9
100
AcDbText
 10
142.7833477609643
 20
-56.34365095219593
 30
0.0
 40
15.24
  1
スプリング
 41
1.1
  7
ＭＳ ゴシック
100
AcDbText
  0
LINE
  5
34D
330
1F
100
AcDbEntity
  8
A-4
  6
Continuous
 62
     7
370
     9
100
AcDbLine
 10
253.6263483427753
 20
-63.73714570202413
 30
0.0
 11
143.9805936256607
 21
-63.73714570202413
 31
0.0
  0
LWPOLYLINE
  5
34E
330
1F
100
AcDbEntity
  8
A-4
  6
Continuous
 62
     7
370
     9
100
AcDbPolyline
 90
        4
 70
     1
 43
1.0
 10
347.1326532918945
 20
-321.1944295432366
 42
0.4142135623731
 10
346.6326532918946
 20
-320.6944295432367
 42
0.4142135623731
 10
346.1326532918946
 20
-321.1944295432366
 42
0.4142135623731
 10
346.6326532918946
 20
-321.6944295432365
 42
0.4142135623731
  0
LINE
  5
34F
330
1F
100
AcDbEntity
  8
A-4
  6
Continuous
 62
     7
370
     9
100
AcDbLine
 10
346.6326532918946
 20
-321.1944295432366
 30
0.0
 11
346.6326532918946
 21
-242.1219494629433
 31
0.0
  0
LINE
  5
350
330
1F
100
AcDbEntity
  8
A-4
  6
Continuous
 62
     7
370
     9
100
AcDbLine
 10
346.6326532918946
 20
-321.1944295432366
 30
0.0
 11
-153.3513480493638
 21
-321.1944295432366
 31
0.0
  0
LWPOLYLINE
  5
351
330
1F
100
AcDbEntity
  8
A-4
  6
Continuous
 62
     7
370
     9
100
AcDbPolyline
 90
        4
 70
     1
 43
1.0
 10
-152.8513480493638
 20
-321.1944295432366
 42
0.4142135623731
 10
-153.3513480493638
 20
-320.6944295432367
 42
0.4142135623731
 10
-153.8513480493638
 20
-321.1944295432366
 42
0.4142135623731
 10
-153.3513480493638
 20
-321.6944295432365
 42
0.4142135623731
  0
LINE
  5
352
330
1F
100
AcDbEntity
  8
A-4
  6
Continuous
 62
     7
370
     9
100
AcDbLine
 10
-153.3513480493638
 20
-321.1944295432366
 30
0.0
 11
-153.3513480493638
 21
-242.1219494629433
 31
0.0
  0
TEXT
  5
353
330
1F
100
AcDbEntity
  8
A-4
  6
Continuous
 62
     2
370
   211
100
AcDbText
 10
80.39065262126539
 20
-314.997777545527
 30
0.0
 40
15.24
  1
500
 41
1.083333333333333
  7
ＭＳ ゴシック
100
AcDbText
  0
LINE
  5
354
330
1F
100
AcDbEntity
  8
A-5
  6
Continuous
 62
     7
370
     9
100
AcDbLine
 10
-306.1482227107303
 20
-81.40312403031731
 30
0.0
 11
-161.26698607309
 21
48.78722003464826
 31
0.0
  0
LINE
  5
355
330
1F
100
AcDbEntity
  8
A-6
  6
Continuous
 62
     6
370
     5
100
AcDbLine
 10
-546.3104059203532
 20
22.80592316495152
 30
0.0
 11
-451.2920294387176
 21
117.8242996465868
 31
0.0
  0
LINE
  5
356
330
1F
100
AcDbEntity
  8
A-6
  6
Continuous
 62
     6
370
     5
100
AcDbLine
 10
-539.2393381084865
 20
22.80592316495152
 30
0.0
 11
-444.2209616268508
 21
117.8242996465868
 31
0.0
  0
LINE
  5
357
330
1F
100
AcDbEntity
  8
A-6
  6
Continuous
 62
     6
370
     5
100
AcDbLine
 10
-532.1682702966199
 20
22.80592316495152
 30
0.0
 11
-437.1498938149842
 21
117.8242996465869
 31
0.0
  0
LINE
  5
358
330
1F
100
AcDbEntity
  8
A-4
  6
Continuous
 62
     7
370
     9
100
AcDbLine
 10
-702.2701603658987
 20
-4.744906478021473
 30
0.0
 11
-497.0268937175053
 21
-4.744906478021473
 31
0.0
  0
LINE
  5
359
330
1F
100
AcDbEntity
  8
A-6
  6
Continuous
 62
     6
370
     5
100
AcDbLine
 10
-691.4059901351247
 20
-136.431796673553
 30
0.0
 11
-599.6040120493009
 21
-44.62981858773013
 31
0.0
  0
LINE
  5
35A
330
1F
100
AcDbEntity
  8
A-6
  6
Continuous
 62
     6
370
     5
100
AcDbLine
 10
-691.4059901351259
 20
-122.2896610498209
 30
0.0
 11
-613.1794607675495
 21
-44.06313168224541
 31
0.0
  0
LINE
  5
35B
330
1F
100
AcDbEntity
  8
A-6
  6
Continuous
 62
     6
370
     5
100
AcDbLine
 10
-691.4059901351253
 20
-129.3607288616871
 30
0.0
 11
-606.1083929556828
 21
-44.06313168224541
 31
0.0
  0
LINE
  5
35C
330
1F
100
AcDbEntity
  8
A-6
  6
Continuous
 62
     6
370
     5
100
AcDbLine
 10
-407.3490737058992
 20
-217.1219494629418
 30
0.0
 11
-153.3513480493636
 21
36.87577619359281
 31
0.0
  0
LINE
  5
35D
330
1F
100
AcDbEntity
  8
A-6
  6
Continuous
 62
     6
370
     5
100
AcDbLine
 10
-400.278005894033
 20
-217.1219494629425
 30
0.0
 11
-153.3513480493636
 21
29.80470838172625
 31
0.0
  0
LINE
  5
35E
330
1F
100
AcDbEntity
  8
A-6
  6
Continuous
 62
     6
370
     5
100
AcDbLine
 10
-393.2069380821669
 20
-217.1219494629431
 30
0.0
 11
-153.3513480493637
 21
22.73364056985947
 31
0.0
  0
LINE
  5
35F
330
1F
100
AcDbEntity
  8
A-6
  6
Continuous
 62
     6
370
     5
100
AcDbLine
 10
346.6326532918946
 20
-217.1219494629433
 30
0.0
 11
346.6326532918946
 21
117.8242996465869
 31
0.0
  0
LINE
  5
360
330
1F
100
AcDbEntity
  8
A-6
  6
Continuous
 62
     6
370
     5
100
AcDbLine
 10
681.4506593203345
 20
117.8242996465869
 30
0.0
 11
346.6326532918946
 21
117.8242996465869
 31
0.0
  0
LINE
  5
361
330
1F
100
AcDbEntity
  8
A-6
  6
Continuous
 62
     6
370
     5
100
AcDbLine
 10
346.6326532918955
 20
-196.779708993385
 30
0.0
 11
661.236661931865
 21
117.824299646587
 31
0.0
  0
LINE
  5
362
330
1F
100
AcDbEntity
  8
A-6
  6
Continuous
 62
     6
370
     5
100
AcDbLine
 10
346.6326532918944
 20
-203.8507768052438
 30
0.0
 11
668.3077297437228
 21
117.824299646587
 31
0.0
  0
LINE
  5
363
330
1F
100
AcDbEntity
  8
A-6
  6
Continuous
 62
     6
370
     5
100
AcDbLine
 10
346.6326532918946
 20
-210.9218446171099
 30
0.0
 11
675.3787975555908
 21
117.8242996465869
 31
0.0
  0
LINE
  5
364
330
1F
100
AcDbEntity
  8
A-6
  6
Continuous
 62
     6
370
     5
100
AcDbLine
 10
438.3854930271135
 20
91.7905311666131
 30
0.0
 11
464.4192615070872
 21
117.8242996465869
 31
0.0
  0
LINE
  5
365
330
1F
100
AcDbEntity
  8
A-6
  6
Continuous
 62
     6
370
     5
100
AcDbLine
 10
436.236047133209
 20
96.71215308457553
 30
0.0
 11
457.3481936952203
 21
117.8242996465869
 31
0.0
  0
LINE
  5
366
330
1F
100
AcDbEntity
  8
A-6
  6
Continuous
 62
     6
370
     5
100
AcDbLine
 10
346.6326532918955
 20
14.179827055119
 30
0.0
 11
404.7607255154342
 21
72.30789927865813
 31
0.0
  0
LINE
  5
367
330
1F
100
AcDbEntity
  8
A-6
  6
Continuous
 62
     6
370
     5
100
AcDbLine
 10
346.6326532918946
 20
0.0376914313940802
 30
0.0
 11
413.4548823249509
 21
66.85992046445045
 31
0.0
  0
LINE
  5
368
330
1F
100
AcDbEntity
  8
A-6
  6
Continuous
 62
     6
370
     5
100
AcDbLine
 10
346.6326532918944
 20
7.108759243260181
 30
0.0
 11
406.8930278454431
 21
67.3691337968094
 31
0.0
  0
LINE
  5
369
330
1F
100
AcDbEntity
  8
A-4
  6
Continuous
 62
     7
370
     9
100
AcDbLine
 10
431.4853227468811
 20
117.8242996465869
 30
0.0
 11
431.4853227468811
 21
47.82429964658672
 31
0.0
  0
LINE
  5
36A
330
1F
100
AcDbEntity
  8
A-6
  6
Continuous
 62
     6
370
     5
100
AcDbLine
 10
429.1649793213514
 20
96.71215308457553
 30
0.0
 11
450.2771258833626
 21
117.8242996465869
 31
0.0
  0
LINE
  5
36B
330
1F
100
AcDbEntity
  8
A-5
  6
Continuous
 62
     7
370
     9
100
AcDbLine
 10
346.6326532918946
 20
280.6399344032224
 30
0.0
 11
346.6326532918946
 21
46.5222393560823
 31
0.0
  0
LINE
  5
36C
330
1F
100
AcDbEntity
  8
A-4
  6
Continuous
 62
     7
370
     9
100
AcDbLine
 10
466.410219744876
 20
146.8243301622246
 30
0.0
 11
341.8039866492451
 21
146.8243301622246
 31
0.0
  0
LINE
  5
36D
330
1F
100
AcDbEntity
  8
A-4
  6
Continuous
 62
     7
370
     9
100
AcDbLine
 10
-453.3673467081056
 20
280.6399344032224
 30
0.0
 11
-453.3673467081056
 21
141.8172670953836
 31
0.0
  0
LINE
  5
36E
330
1F
100
AcDbEntity
  8
A-4
  6
Continuous
 62
     7
370
     9
100
AcDbLine
 10
-531.143443461825
 20
146.8243301622246
 30
0.0
 11
-449.2494234235403
 21
146.8243301622246
 31
0.0
  0
LINE
  5
36F
330
1F
100
AcDbEntity
  8
A-4
  6
Continuous
 62
     7
370
     9
100
AcDbLine
 10
-141.4229325868721
 20
373.288815947006
 30
0.0
 11
-350.9404598568328
 21
373.288815947006
 31
0.0
  0
TEXT
  5
370
330
1F
100
AcDbEntity
  8
A-4
  6
Continuous
 62
     2
370
     9
100
AcDbText
 10
-340.6992485415834
 20
350.7039438669288
 30
0.0
 40
15.24
  1
SUS
 41
1.083333333333332
  7
ＭＳ ゴシック
100
AcDbText
  0
TEXT
  5
371
330
1F
100
AcDbEntity
  8
A-4
  6
Continuous
 62
     2
370
     9
100
AcDbText
 10
-344.7285159291239
 20
379.0170214753932
 30
0.0
 40
15.24
  1
ドリルねじ　M4×16
 41
1.118055555555555
  7
ＭＳ ゴシック
100
AcDbText
  0
LINE
  5
372
330
1F
100
AcDbEntity
  8
A-4
  6
Continuous
 62
     7
370
     9
100
AcDbLine
 10
210.5380907147648
 20
213.9100715195892
 30
0.0
 11
1.811077742592975
 21
213.9100715195892
 31
0.0
  0
TEXT
  5
373
330
1F
100
AcDbEntity
  8
A-4
  6
Continuous
 62
     2
370
     9
100
AcDbText
 10
9.434562660851151
 20
221.3035662694174
 30
0.0
 40
15.24
  1
カバー：t=1.5
 41
1.115384615384615
  7
ＭＳ ゴシック
100
AcDbText
  0
TEXT
  5
374
330
1F
100
AcDbEntity
  8
A-4
  6
Continuous
 62
     2
370
     9
100
AcDbText
 10
9.434562660851196
 20
192.5980678053999
 30
0.0
 40
15.24
  1
ステンレス　Ｈ.Ｌ.
 41
1.118055555555555
  7
ＭＳ ゴシック
100
AcDbText
  0
ENDSEC
  0
SECTION
  2
OBJECTS
  0
DICTIONARY
  5
C
330
0
100
AcDbDictionary
281
     1
  3
ACAD_DETAILVIEWSTYLE
350
3BA
  3
ACAD_GROUP
350
D
  3
ACAD_LAYOUT
350
1A
  3
ACAD_MATERIAL
350
43
  3
ACAD_MLEADERSTYLE
350
6B
  3
ACAD_MLINESTYLE
350
17
  3
ACAD_PLOTSETTINGS
350
19
  3
ACAD_PLOTSTYLENAME
350
E
  3
ACAD_SCALELIST
350
47
  3
ACAD_SECTIONVIEWSTYLE
350
3BB
  3
ACAD_TABLESTYLE
350
69
  3
ACAD_VISUALSTYLE
350
2A
  3
ACDB_RECOMPOSE_DATA
350
3B7
  3
AcDbVariableDictionary
350
377
  0
DICTIONARY
  5
375
330
8
100
AcDbDictionary
280
     1
281
     1
  3
ACAD_XREC_ROUNDTRIP
360
376
  0
DICTIONARY
  5
3BA
102
{ACAD_REACTORS
330
C
102
}
330
C
100
AcDbDictionary
281
     1
  0
DICTIONARY
  5
D
102
{ACAD_REACTORS
330
C
102
}
330
C
100
AcDbDictionary
281
     1
  0
DICTIONARY
  5
1A
102
{ACAD_REACTORS
330
C
102
}
330
C
100
AcDbDictionary
281
     1
  3
Layout1
350
1E
  3
Layout2
350
26
  3
Model
350
22
  0
DICTIONARY
  5
43
102
{ACAD_REACTORS
330
C
102
}
330
C
100
AcDbDictionary
281
     1
  3
ByBlock
350
45
  3
ByLayer
350
44
  3
Global
350
46
  0
DICTIONARY
  5
6B
102
{ACAD_REACTORS
330
C
102
}
330
C
100
AcDbDictionary
281
     1
  3
Standard
350
6C
  0
DICTIONARY
  5
17
102
{ACAD_REACTORS
330
C
102
}
330
C
100
AcDbDictionary
281
     1
  3
Standard
350
18
  0
DICTIONARY
  5
19
102
{ACAD_REACTORS
330
C
102
}
330
C
100
AcDbDictionary
281
     1
  0
ACDBDICTIONARYWDFLT
  5
E
102
{ACAD_REACTORS
330
C
102
}
330
C
100
AcDbDictionary
281
     1
  3
Normal
350
F
100
AcDbDictionaryWithDefault
340
F
  0
DICTIONARY
  5
47
102
{ACAD_REACTORS
330
C
102
}
330
C
100
AcDbDictionary
281
     1
  3
A0
350
48
  3
A1
350
49
  3
A2
350
4A
  3
A3
350
4B
  3
A4
350
4C
  3
A5
350
4D
  3
A6
350
4E
  3
A7
350
4F
  3
A8
350
50
  3
A9
350
51
  3
B0
350
52
  3
B1
350
53
  3
B2
350
54
  3
B3
350
55
  3
B4
350
56
  3
B5
350
57
  3
B6
350
58
  3
B7
350
59
  3
B8
350
5A
  3
B9
350
5B
  3
C0
350
5C
  3
C1
350
5D
  3
C2
350
5E
  3
C3
350
5F
  3
C4
350
60
  3
C5
350
61
  3
C6
350
62
  3
C7
350
63
  3
C8
350
64
  3
C9
350
65
  3
D0
350
66
  3
D1
350
67
  3
D2
350
68
  0
DICTIONARY
  5
3BB
102
{ACAD_REACTORS
330
C
102
}
330
C
100
AcDbDictionary
281
     1
  0
DICTIONARY
  5
69
102
{ACAD_REACTORS
330
C
102
}
330
C
100
AcDbDictionary
281
     1
  3
Standard
350
6A
  0
DICTIONARY
  5
2A
102
{ACAD_REACTORS
330
C
102
}
330
C
100
AcDbDictionary
281
     1
  3
2dWireframe
350
2F
  3
Basic
350
32
  3
Brighten
350
36
  3
ColorChange
350
3A
  3
Conceptual
350
34
  3
Dim
350
35
  3
EdgeColorOff
350
3D
  3
Facepattern
350
39
  3
Flat
350
2B
  3
FlatWithEdges
350
2C
  3
Gouraud
350
2D
  3
GouraudWithEdges
350
2E
  3
Hidden
350
31
  3
JitterOff
350
3B
  3
Linepattern
350
38
  3
OverhangOff
350
3C
  3
Realistic
350
33
  3
Shaded
350
42
  3
Shaded with edges
350
41
  3
Shades of Gray
350
3E
  3
Sketchy
350
3F
  3
Thicken
350
37
  3
Wireframe
350
30
  3
X-Ray
350
40
  0
XRECORD
  5
3B7
102
{ACAD_REACTORS
330
C
102
}
330
C
100
AcDbXrecord
280
     1
 90
        1
330
6A
  0
DICTIONARY
  5
377
102
{ACAD_REACTORS
330
C
102
}
330
C
100
AcDbDictionary
281
     1
  3
CANNOSCALE
350
378
  3
CENTEREXE
350
3BC
  3
CENTERLTYPEFILE
350
3BD
  3
CMLEADERSTYLE
350
3B9
  3
CTABLESTYLE
350
3B8
  3
MSLTSCALE
350
379
  3
XCLIPFRAME
350
37A
  0
XRECORD
  5
376
102
{ACAD_REACTORS
330
375
102
}
330
375
100
AcDbXrecord
280
     1
102
VTR_0.000_0.000_1.000_1.000_VISUALSTYLE
340
2F
102
VTR_0.000_0.000_1.000_1.000_GRIDDISPLAY
 70
     3
102
VTR_0.000_0.000_1.000_1.000_GRIDMAJOR
 70
     5
102
VTR_0.000_0.000_1.000_1.000_DEFAULTLIGHTING
280
     1
102
VTR_0.000_0.000_1.000_1.000_DEFAULTLIGHTINGTYPE
 70
     1
102
VTR_0.000_0.000_1.000_1.000_BRIGHTNESS
141
0.0
102
VTR_0.000_0.000_1.000_1.000_CONTRAST
142
0.0
  0
LAYOUT
  5
1E
102
{ACAD_REACTORS
330
1A
102
}
330
1A
100
AcDbPlotSettings
  1

  2
none_device
  4

  6

 40
0.0
 41
0.0
 42
0.0
 43
0.0
 44
0.0
 45
0.0
 46
0.0
 47
0.0
 48
0.0
 49
0.0
140
0.0
141
0.0
142
1.0
143
1.0
 70
   688
 72
     1
 73
     0
 74
     5
  7

 75
    16
 76
     0
 77
     5
 78
   300
147
1.0
148
0.0
149
0.0
100
AcDbLayout
  1
Layout1
 70
     1
 71
     1
 10
0.0
 20
0.0
 11
420.0
 21
297.0
 12
0.0
 22
0.0
 32
0.0
 14
1.000000000000000E+20
 24
1.000000000000000E+20
 34
1.000000000000000E+20
 15
-1.000000000000000E+20
 25
-1.000000000000000E+20
 35
-1.000000000000000E+20
146
0.0
 13
0.0
 23
0.0
 33
0.0
 16
1.0
 26
0.0
 36
0.0
 17
0.0
 27
1.0
 37
0.0
 76
     0
330
1B
  0
LAYOUT
  5
26
102
{ACAD_REACTORS
330
1A
102
}
330
1A
100
AcDbPlotSettings
  1

  2
none_device
  4

  6

 40
0.0
 41
0.0
 42
0.0
 43
0.0
 44
0.0
 45
0.0
 46
0.0
 47
0.0
 48
0.0
 49
0.0
140
0.0
141
0.0
142
1.0
143
1.0
 70
   688
 72
     1
 73
     0
 74
     5
  7

 75
    16
 76
     0
 77
     5
 78
   300
147
1.0
148
0.0
149
0.0
100
AcDbLayout
  1
Layout2
 70
     1
 71
     2
 10
0.0
 20
0.0
 11
0.0
 21
0.0
 12
0.0
 22
0.0
 32
0.0
 14
0.0
 24
0.0
 34
0.0
 15
0.0
 25
0.0
 35
0.0
146
0.0
 13
0.0
 23
0.0
 33
0.0
 16
1.0
 26
0.0
 36
0.0
 17
0.0
 27
1.0
 37
0.0
 76
     0
330
23
  0
LAYOUT
  5
22
102
{ACAD_REACTORS
330
1A
102
}
330
1A
100
AcDbPlotSettings
  1

  2
none_device
  4
Letter_(8.50_x_11.00_Inches)
  6

 40
6.35
 41
6.35
 42
6.35000508
 43
6.35000508
 44
215.9
 45
279.4
 46
0.0
 47
0.0
 48
0.0
 49
0.0
140
0.0
141
0.0
142
1.0
143
1.0
 70
  1712
 72
     1
 73
     0
 74
     0
  7

 75
     0
 76
     0
 77
     5
 78
   300
147
1.0
148
0.0
149
0.0
100
AcDbLayout
  1
Model
 70
     1
 71
     0
 10
-1050.0
 20
-742.5
 11
1050.0
 21
742.5
 12
0.0
 22
0.0
 32
0.0
 14
-1050.0
 24
-742.5
 34
0.0
 15
1050.0
 25
742.5
 35
0.0
146
0.0
 13
0.0
 23
0.0
 33
0.0
 16
1.0
 26
0.0
 36
0.0
 17
0.0
 27
1.0
 37
0.0
 76
     0
330
1F
331
29
  0
MATERIAL
  5
45
102
{ACAD_REACTORS
330
43
102
}
102
{ACAD_XDICTIONARY
360
3AD
102
}
330
43
100
AcDbMaterial
  1
ByBlock
  0
MATERIAL
  5
44
102
{ACAD_REACTORS
330
43
102
}
102
{ACAD_XDICTIONARY
360
3AB
102
}
330
43
100
AcDbMaterial
  1
ByLayer
  0
MATERIAL
  5
46
102
{ACAD_REACTORS
330
43
102
}
102
{ACAD_XDICTIONARY
360
3AF
102
}
330
43
100
AcDbMaterial
  1
Global
  0
MLEADERSTYLE
  5
6C
102
{ACAD_REACTORS
330
6B
102
}
102
{ACAD_XDICTIONARY
360
3B5
102
}
330
6B
100
AcDbMLeaderStyle
170
     2
171
     1
172
     0
 90
        2
 40
0.0
 41
0.0
173
     1
 91
-1056964608
340
14
 92
       -2
290
     1
 42
2.0
291
     1
 43
8.0
  3
Standard
341
0
 44
4.0
300

342
11
174
     1
178
     6
175
     1
176
     0
 93
-1056964608
 45
4.0
292
     0
297
     0
 46
4.0
343
0
 94
-1056964608
 47
1.0
 49
1.0
140
1.0
293
     1
141
0.0
294
     1
177
     0
142
1.0
295
     0
296
     0
143
3.75
1001
ACAD_MLEADERVER
1070
     2
  0
MLINESTYLE
  5
18
102
{ACAD_REACTORS
330
17
102
}
330
17
100
AcDbMlineStyle
  2
Standard
 70
     0
  3

 62
   256
 51
90.0
 52
90.0
 71
     2
 49
0.5
 62
   256
  6
BYLAYER
 49
-0.5
 62
   256
  6
BYLAYER
  0
ACDBPLACEHOLDER
  5
F
102
{ACAD_REACTORS
330
E
102
}
330
E
  0
SCALE
  5
48
102
{ACAD_REACTORS
330
47
102
}
330
47
100
AcDbScale
 70
     0
300
1:1
140
1.0
141
1.0
290
     1
  0
SCALE
  5
49
102
{ACAD_REACTORS
330
47
102
}
330
47
100
AcDbScale
 70
     0
300
1:2
140
1.0
141
2.0
290
     0
  0
SCALE
  5
4A
102
{ACAD_REACTORS
330
47
102
}
330
47
100
AcDbScale
 70
     0
300
1:4
140
1.0
141
4.0
290
     0
  0
SCALE
  5
4B
102
{ACAD_REACTORS
330
47
102
}
330
47
100
AcDbScale
 70
     0
300
1:5
140
1.0
141
5.0
290
     0
  0
SCALE
  5
4C
102
{ACAD_REACTORS
330
47
102
}
330
47
100
AcDbScale
 70
     0
300
1:8
140
1.0
141
8.0
290
     0
  0
SCALE
  5
4D
102
{ACAD_REACTORS
330
47
102
}
330
47
100
AcDbScale
 70
     0
300
1:10
140
1.0
141
10.0
290
     0
  0
SCALE
  5
4E
102
{ACAD_REACTORS
330
47
102
}
330
47
100
AcDbScale
 70
     0
300
1:16
140
1.0
141
16.0
290
     0
  0
SCALE
  5
4F
102
{ACAD_REACTORS
330
47
102
}
330
47
100
AcDbScale
 70
     0
300
1:20
140
1.0
141
20.0
290
     0
  0
SCALE
  5
50
102
{ACAD_REACTORS
330
47
102
}
330
47
100
AcDbScale
 70
     0
300
1:30
140
1.0
141
30.0
290
     0
  0
SCALE
  5
51
102
{ACAD_REACTORS
330
47
102
}
330
47
100
AcDbScale
 70
     0
300
1:40
140
1.0
141
40.0
290
     0
  0
SCALE
  5
52
102
{ACAD_REACTORS
330
47
102
}
330
47
100
AcDbScale
 70
     0
300
1:50
140
1.0
141
50.0
290
     0
  0
SCALE
  5
53
102
{ACAD_REACTORS
330
47
102
}
330
47
100
AcDbScale
 70
     0
300
1:100
140
1.0
141
100.0
290
     0
  0
SCALE
  5
54
102
{ACAD_REACTORS
330
47
102
}
330
47
100
AcDbScale
 70
     0
300
2:1
140
2.0
141
1.0
290
     0
  0
SCALE
  5
55
102
{ACAD_REACTORS
330
47
102
}
330
47
100
AcDbScale
 70
     0
300
4:1
140
4.0
141
1.0
290
     0
  0
SCALE
  5
56
102
{ACAD_REACTORS
330
47
102
}
330
47
100
AcDbScale
 70
     0
300
8:1
140
8.0
141
1.0
290
     0
  0
SCALE
  5
57
102
{ACAD_REACTORS
330
47
102
}
330
47
100
AcDbScale
 70
     0
300
10:1
140
10.0
141
1.0
290
     0
  0
SCALE
  5
58
102
{ACAD_REACTORS
330
47
102
}
330
47
100
AcDbScale
 70
     0
300
100:1
140
100.0
141
1.0
290
     0
  0
SCALE
  5
59
102
{ACAD_REACTORS
330
47
102
}
330
47
100
AcDbScale
 70
     0
300
1/128" = 1'-0"
140
0.0078125
141
12.0
290
     0
  0
SCALE
  5
5A
102
{ACAD_REACTORS
330
47
102
}
330
47
100
AcDbScale
 70
     0
300
1/64" = 1'-0"
140
0.015625
141
12.0
290
     0
  0
SCALE
  5
5B
102
{ACAD_REACTORS
330
47
102
}
330
47
100
AcDbScale
 70
     0
300
1/32" = 1'-0"
140
0.03125
141
12.0
290
     0
  0
SCALE
  5
5C
102
{ACAD_REACTORS
330
47
102
}
330
47
100
AcDbScale
 70
     0
300
1/16" = 1'-0"
140
0.0625
141
12.0
290
     0
  0
SCALE
  5
5D
102
{ACAD_REACTORS
330
47
102
}
330
47
100
AcDbScale
 70
     0
300
3/32" = 1'-0"
140
0.09375
141
12.0
290
     0
  0
SCALE
  5
5E
102
{ACAD_REACTORS
330
47
102
}
330
47
100
AcDbScale
 70
     0
300
1/8" = 1'-0"
140
0.125
141
12.0
290
     0
  0
SCALE
  5
5F
102
{ACAD_REACTORS
330
47
102
}
330
47
100
AcDbScale
 70
     0
300
3/16" = 1'-0"
140
0.1875
141
12.0
290
     0
  0
SCALE
  5
60
102
{ACAD_REACTORS
330
47
102
}
330
47
100
AcDbScale
 70
     0
300
1/4" = 1'-0"
140
0.25
141
12.0
290
     0
  0
SCALE
  5
61
102
{ACAD_REACTORS
330
47
102
}
330
47
100
AcDbScale
 70
     0
300
3/8" = 1'-0"
140
0.375
141
12.0
290
     0
  0
SCALE
  5
62
102
{ACAD_REACTORS
330
47
102
}
330
47
100
AcDbScale
 70
     0
300
1/2" = 1'-0"
140
0.5
141
12.0
290
     0
  0
SCALE
  5
63
102
{ACAD_REACTORS
330
47
102
}
330
47
100
AcDbScale
 70
     0
300
3/4" = 1'-0"
140
0.75
141
12.0
290
     0
  0
SCALE
  5
64
102
{ACAD_REACTORS
330
47
102
}
330
47
100
AcDbScale
 70
     0
300
1" = 1'-0"
140
1.0
141
12.0
290
     0
  0
SCALE
  5
65
102
{ACAD_REACTORS
330
47
102
}
330
47
100
AcDbScale
 70
     0
300
1-1/2" = 1'-0"
140
1.5
141
12.0
290
     0
  0
SCALE
  5
66
102
{ACAD_REACTORS
330
47
102
}
330
47
100
AcDbScale
 70
     0
300
3" = 1'-0"
140
3.0
141
12.0
290
     0
  0
SCALE
  5
67
102
{ACAD_REACTORS
330
47
102
}
330
47
100
AcDbScale
 70
     0
300
6" = 1'-0"
140
6.0
141
12.0
290
     0
  0
SCALE
  5
68
102
{ACAD_REACTORS
330
47
102
}
330
47
100
AcDbScale
 70
     0
300
1'-0" = 1'-0"
140
12.0
141
12.0
290
     0
  0
TABLESTYLE
  5
6A
102
{ACAD_REACTORS
330
69
102
}
102
{ACAD_XDICTIONARY
360
3B1
102
}
330
69
100
AcDbTableStyle
  3
Standard
 70
     0
 71
     0
 40
0.06
 41
0.06
280
     0
281
     0
  7
Standard
140
4.5
170
     2
 62
     0
 63
   257
283
     0
274
    -2
284
     1
 64
     0
275
    -2
285
     1
 65
     0
276
    -2
286
     1
 66
     0
277
    -2
287
     1
 67
     0
278
    -2
288
     1
 68
     0
279
    -2
289
     1
 69
     0
  7
Standard
140
6.0
170
     5
 62
     0
 63
   257
283
     0
274
    -2
284
     1
 64
     0
275
    -2
285
     1
 65
     0
276
    -2
286
     1
 66
     0
277
    -2
287
     1
 67
     0
278
    -2
288
     1
 68
     0
279
    -2
289
     1
 69
     0
  7
Standard
140
4.5
170
     5
 62
     0
 63
   257
283
     0
274
    -2
284
     1
 64
     0
275
    -2
285
     1
 65
     0
276
    -2
286
     1
 66
     0
277
    -2
287
     1
 67
     0
278
    -2
288
     1
 68
     0
279
    -2
289
     1
 69
     0
  0
VISUALSTYLE
  5
2F
102
{ACAD_REACTORS
330
2A
102
}
102
{ACAD_XDICTIONARY
360
383
102
}
330
2A
100
AcDbVisualStyle
  2
2dWireframe
 70
     4
 71
     0
 72
     2
 73
     0
 90
        0
 40
0.6
 41
30.0
 62
     5
 63
     7
421
 16777215
 74
     1
 91
        4
 64
     7
 65
   257
 75
     1
175
     1
 42
1.0
 92
        0
 66
   257
 43
1.0
 76
     1
 77
     6
 78
     2
 67
     7
 79
     5
170
     0
171
     0
290
     0
174
     0
 93
        1
 44
0.0
173
     0
291
     0
 45
0.0
1001
ACAD
1000
AcDbSavedByObjectVersion
1070
     0
  0
VISUALSTYLE
  5
32
102
{ACAD_REACTORS
330
2A
102
}
102
{ACAD_XDICTIONARY
360
389
102
}
330
2A
100
AcDbVisualStyle
  2
Basic
 70
     7
 71
     1
 72
     0
 73
     1
 90
        0
 40
0.6
 41
30.0
 62
     5
 63
     7
421
 16777215
 74
     0
 91
        4
 64
     7
 65
   257
 75
     1
175
     1
 42
1.0
 92
        8
 66
     7
 43
1.0
 76
     1
 77
     6
 78
     2
 67
     7
 79
     5
170
     0
171
     0
290
     0
174
     0
 93
        1
 44
0.0
173
     0
291
     1
 45
0.0
1001
ACAD
1000
AcDbSavedByObjectVersion
1070
     0
  0
VISUALSTYLE
  5
36
102
{ACAD_REACTORS
330
2A
102
}
102
{ACAD_XDICTIONARY
360
391
102
}
330
2A
100
AcDbVisualStyle
  2
Brighten
 70
    12
 71
     2
 72
     2
 73
     0
 90
        0
 40
0.6
 41
30.0
 62
     5
 63
     7
421
 16777215
 74
     1
 91
        4
 64
     7
 65
   257
 75
     1
175
     1
 42
1.0
 92
        8
 66
     7
 43
1.0
 76
     1
 77
     6
 78
     2
 67
     7
 79
     5
170
     0
171
     0
290
     0
174
     0
 93
        1
 44
50.0
173
     0
291
     1
 45
0.0
1001
ACAD
1000
AcDbSavedByObjectVersion
1070
     0
  0
VISUALSTYLE
  5
3A
102
{ACAD_REACTORS
330
2A
102
}
102
{ACAD_XDICTIONARY
360
399
102
}
330
2A
100
AcDbVisualStyle
  2
ColorChange
 70
    16
 71
     2
 72
     2
 73
     3
 90
        0
 40
0.6
 41
30.0
 62
     5
 63
     8
421
  8421504
 74
     1
 91
        4
 64
     7
 65
   257
 75
     1
175
     1
 42
1.0
 92
        8
 66
     8
424
  8421504
 43
1.0
 76
     1
 77
     6
 78
     2
 67
     7
 79
     5
170
     0
171
     0
290
     0
174
     0
 93
        1
 44
0.0
173
     0
291
     1
 45
0.0
1001
ACAD
1000
AcDbSavedByObjectVersion
1070
     0
  0
VISUALSTYLE
  5
34
102
{ACAD_REACTORS
330
2A
102
}
102
{ACAD_XDICTIONARY
360
38D
102
}
330
2A
100
AcDbVisualStyle
  2
Conceptual
 70
     9
 71
     3
 72
     2
 73
     0
 90
        0
 40
0.6
 41
30.0
 62
     5
 63
     7
421
 16777215
 74
     2
 91
        2
 64
     7
 65
   257
 75
     1
175
     1
 42
179.0
 92
        8
 66
     7
 43
1.0
 76
     1
 77
     6
 78
     2
 67
     7
 79
     3
170
     0
171
     0
290
     0
174
     0
 93
        1
 44
0.0
173
     0
291
     0
 45
0.0
1001
ACAD
1000
AcDbSavedByObjectVersion
1070
     0
  0
VISUALSTYLE
  5
35
102
{ACAD_REACTORS
330
2A
102
}
102
{ACAD_XDICTIONARY
360
38F
102
}
330
2A
100
AcDbVisualStyle
  2
Dim
 70
    11
 71
     2
 72
     2
 73
     0
 90
        0
 40
0.6
 41
30.0
 62
     5
 63
     7
421
 16777215
 74
     1
 91
        4
 64
     7
 65
   257
 75
     1
175
     1
 42
1.0
 92
        8
 66
     7
 43
1.0
 76
     1
 77
     6
 78
     2
 67
     7
 79
     5
170
     0
171
     0
290
     0
174
     0
 93
        1
 44
-50.0
173
     0
291
     1
 45
0.0
1001
ACAD
1000
AcDbSavedByObjectVersion
1070
     0
  0
VISUALSTYLE
  5
3D
102
{ACAD_REACTORS
330
2A
102
}
102
{ACAD_XDICTIONARY
360
39F
102
}
330
2A
100
AcDbVisualStyle
  2
EdgeColorOff
 70
    22
 71
     2
 72
     2
 73
     0
 90
        0
 40
0.6
 41
30.0
 62
     5
 63
     7
421
 16777215
 74
     1
 91
        4
 64
     7
 65
   257
 75
     1
175
     1
 42
1.0
 92
        8
 66
     7
 43
1.0
 76
     1
 77
     6
 78
     2
 67
     7
 79
     5
170
     0
171
     0
290
     0
174
     0
 93
        1
 44
0.0
173
     0
291
     1
 45
0.0
1001
ACAD
1000
AcDbSavedByObjectVersion
1070
     0
  0
VISUALSTYLE
  5
39
102
{ACAD_REACTORS
330
2A
102
}
102
{ACAD_XDICTIONARY
360
397
102
}
330
2A
100
AcDbVisualStyle
  2
Facepattern
 70
    15
 71
     2
 72
     2
 73
     0
 90
        0
 40
0.6
 41
30.0
 62
     5
 63
     7
421
 16777215
 74
     1
 91
        4
 64
     7
 65
   257
 75
     1
175
     1
 42
1.0
 92
        8
 66
     7
 43
1.0
 76
     1
 77
     6
 78
     2
 67
     7
 79
     5
170
     0
171
     0
290
     0
174
     0
 93
        1
 44
0.0
173
     0
291
     1
 45
0.0
1001
ACAD
1000
AcDbSavedByObjectVersion
1070
     0
  0
VISUALSTYLE
  5
2B
102
{ACAD_REACTORS
330
2A
102
}
102
{ACAD_XDICTIONARY
360
37B
102
}
330
2A
100
AcDbVisualStyle
  2
Flat
 70
     0
 71
     2
 72
     1
 73
     1
 90
        2
 40
0.6
 41
30.0
 62
     5
 63
     7
421
 16777215
 74
     0
 91
        0
 64
     7
 65
   257
 75
     1
175
     1
 42
1.0
 92
        8
 66
     7
 43
1.0
 76
     1
 77
     6
 78
     2
 67
     7
 79
     5
170
     0
171
     0
290
     0
174
     0
 93
       13
 44
0.0
173
     0
291
     1
 45
0.0
1001
ACAD
1000
AcDbSavedByObjectVersion
1070
     0
  0
VISUALSTYLE
  5
2C
102
{ACAD_REACTORS
330
2A
102
}
102
{ACAD_XDICTIONARY
360
37D
102
}
330
2A
100
AcDbVisualStyle
  2
FlatWithEdges
 70
     1
 71
     2
 72
     1
 73
     1
 90
        2
 40
0.6
 41
30.0
 62
     5
 63
     7
421
 16777215
 74
     1
 91
        0
 64
     7
 65
   257
 75
     1
175
     1
 42
1.0
 92
        0
 66
   257
 43
1.0
 76
     1
 77
     6
 78
     2
 67
     7
 79
     5
170
     0
171
     0
290
     0
174
     0
 93
       13
 44
0.0
173
     0
291
     1
 45
0.0
1001
ACAD
1000
AcDbSavedByObjectVersion
1070
     0
  0
VISUALSTYLE
  5
2D
102
{ACAD_REACTORS
330
2A
102
}
102
{ACAD_XDICTIONARY
360
37F
102
}
330
2A
100
AcDbVisualStyle
  2
Gouraud
 70
     2
 71
     2
 72
     2
 73
     1
 90
        2
 40
0.6
 41
30.0
 62
     5
 63
     7
421
 16777215
 74
     0
 91
        0
 64
     7
 65
   257
 75
     1
175
     1
 42
1.0
 92
        0
 66
     7
 43
1.0
 76
     1
 77
     6
 78
     2
 67
     7
 79
     5
170
     0
171
     0
290
     0
174
     0
 93
       13
 44
0.0
173
     0
291
     1
 45
0.0
1001
ACAD
1000
AcDbSavedByObjectVersion
1070
     0
  0
VISUALSTYLE
  5
2E
102
{ACAD_REACTORS
330
2A
102
}
102
{ACAD_XDICTIONARY
360
381
102
}
330
2A
100
AcDbVisualStyle
  2
GouraudWithEdges
 70
     3
 71
     2
 72
     2
 73
     1
 90
        2
 40
0.6
 41
30.0
 62
     5
 63
     7
421
 16777215
 74
     1
 91
        0
 64
     7
 65
   257
 75
     1
175
     1
 42
1.0
 92
        0
 66
   257
 43
1.0
 76
     1
 77
     6
 78
     2
 67
     7
 79
     5
170
     0
171
     0
290
     0
174
     0
 93
       13
 44
0.0
173
     0
291
     1
 45
0.0
1001
ACAD
1000
AcDbSavedByObjectVersion
1070
     0
  0
VISUALSTYLE
  5
31
102
{ACAD_REACTORS
330
2A
102
}
102
{ACAD_XDICTIONARY
360
387
102
}
330
2A
100
AcDbVisualStyle
  2
Hidden
 70
     6
 71
     1
 72
     2
 73
     2
 90
        0
 40
0.6
 41
30.0
 62
     5
 63
     7
421
 16777215
 74
     2
 91
        2
 64
     7
 65
   257
 75
     2
175
     1
 42
40.0
 92
        0
 66
   257
 43
1.0
 76
     1
 77
     6
 78
     2
 67
     7
 79
     3
170
     0
171
     0
290
     0
174
     0
 93
        1
 44
0.0
173
     0
291
     0
 45
0.0
1001
ACAD
1000
AcDbSavedByObjectVersion
1070
     0
  0
VISUALSTYLE
  5
3B
102
{ACAD_REACTORS
330
2A
102
}
102
{ACAD_XDICTIONARY
360
39B
102
}
330
2A
100
AcDbVisualStyle
  2
JitterOff
 70
    20
 71
     2
 72
     2
 73
     0
 90
        0
 40
0.6
 41
30.0
 62
     5
 63
     7
421
 16777215
 74
     1
 91
        4
 64
     7
 65
   257
 75
     1
175
     1
 42
1.0
 92
       10
 66
     7
 43
1.0
 76
     1
 77
     6
 78
     2
 67
     7
 79
     5
170
     0
171
     0
290
     0
174
     0
 93
        1
 44
0.0
173
     0
291
     1
 45
0.0
1001
ACAD
1000
AcDbSavedByObjectVersion
1070
     0
  0
VISUALSTYLE
  5
38
102
{ACAD_REACTORS
330
2A
102
}
102
{ACAD_XDICTIONARY
360
395
102
}
330
2A
100
AcDbVisualStyle
  2
Linepattern
 70
    14
 71
     2
 72
     2
 73
     0
 90
        0
 40
0.6
 41
30.0
 62
     5
 63
     7
421
 16777215
 74
     1
 91
        4
 64
     7
 65
   257
 75
     7
175
     7
 42
1.0
 92
        8
 66
     7
 43
1.0
 76
     1
 77
     6
 78
     2
 67
     7
 79
     5
170
     0
171
     0
290
     0
174
     0
 93
        1
 44
0.0
173
     0
291
     1
 45
0.0
1001
ACAD
1000
AcDbSavedByObjectVersion
1070
     0
  0
VISUALSTYLE
  5
3C
102
{ACAD_REACTORS
330
2A
102
}
102
{ACAD_XDICTIONARY
360
39D
102
}
330
2A
100
AcDbVisualStyle
  2
OverhangOff
 70
    21
 71
     2
 72
     2
 73
     0
 90
        0
 40
0.6
 41
30.0
 62
     5
 63
     7
421
 16777215
 74
     1
 91
        4
 64
     7
 65
   257
 75
     1
175
     1
 42
1.0
 92
        9
 66
     7
 43
1.0
 76
     1
 77
     6
 78
     2
 67
     7
 79
     5
170
     0
171
     0
290
     0
174
     0
 93
        1
 44
0.0
173
     0
291
     1
 45
0.0
1001
ACAD
1000
AcDbSavedByObjectVersion
1070
     0
  0
VISUALSTYLE
  5
33
102
{ACAD_REACTORS
330
2A
102
}
102
{ACAD_XDICTIONARY
360
38B
102
}
330
2A
100
AcDbVisualStyle
  2
Realistic
 70
     8
 71
     2
 72
     3
 73
     0
 90
        2
 40
0.6
 41
30.0
 62
     5
 63
     7
421
 16777215
 74
     0
 91
        0
 64
     7
 65
   257
 75
     1
175
     1
 42
1.0
 92
        8
 66
   257
 43
1.0
 76
     1
 77
     6
 78
     2
 67
     7
 79
     3
170
     0
171
     0
290
     0
174
     0
 93
       13
 44
0.0
173
     0
291
     0
 45
0.0
1001
ACAD
1000
AcDbSavedByObjectVersion
1070
     0
  0
VISUALSTYLE
  5
42
102
{ACAD_REACTORS
330
2A
102
}
102
{ACAD_XDICTIONARY
360
3A9
102
}
330
2A
100
AcDbVisualStyle
  2
Shaded
 70
    27
 71
     2
 72
     2
 73
     1
 90
        2
 40
0.6
 41
30.0
 62
     5
 63
     7
421
 16777215
 74
     0
 91
        4
 64
     7
 65
   257
 75
     1
175
     1
 42
1.0
 92
        8
 66
   257
 43
1.0
 76
     1
 77
     6
 78
     2
 67
     8
425
  7895160
 79
     3
170
     0
171
     0
290
     0
174
     0
 93
        5
 44
0.0
173
     0
291
     0
 45
0.0
1001
ACAD
1000
AcDbSavedByObjectVersion
1070
     0
  0
VISUALSTYLE
  5
41
102
{ACAD_REACTORS
330
2A
102
}
102
{ACAD_XDICTIONARY
360
3A7
102
}
330
2A
100
AcDbVisualStyle
  2
Shaded with edges
 70
    26
 71
     2
 72
     2
 73
     1
 90
        2
 40
0.6
 41
30.0
 62
     5
 63
     7
421
 16777215
 74
     1
 91
       10
 64
     7
 65
   257
 75
     2
175
     1
 42
1.0
 92
        8
 66
   257
 43
1.0
 76
     1
 77
     6
 78
     2
 67
     7
 79
     3
170
     0
171
     0
290
     0
174
     0
 93
        5
 44
0.0
173
     0
291
     0
 45
0.0
1001
ACAD
1000
AcDbSavedByObjectVersion
1070
     0
  0
VISUALSTYLE
  5
3E
102
{ACAD_REACTORS
330
2A
102
}
102
{ACAD_XDICTIONARY
360
3A1
102
}
330
2A
100
AcDbVisualStyle
  2
Shades of Gray
 70
    23
 71
     2
 72
     2
 73
     3
 90
        0
 40
0.6
 41
30.0
 62
     5
 63
     7
421
 16777215
 74
     2
 91
        2
 64
     7
 65
     7
 75
     1
175
     1
 42
40.0
 92
        8
 66
     7
 43
1.0
 76
     1
 77
     6
 78
     2
 67
     7
 79
     3
170
     0
171
     0
290
     0
174
     0
 93
        1
 44
0.0
173
     0
291
     0
 45
0.0
1001
ACAD
1000
AcDbSavedByObjectVersion
1070
     0
  0
VISUALSTYLE
  5
3F
102
{ACAD_REACTORS
330
2A
102
}
102
{ACAD_XDICTIONARY
360
3A3
102
}
330
2A
100
AcDbVisualStyle
  2
Sketchy
 70
    24
 71
     1
 72
     2
 73
     2
 90
        0
 40
0.6
 41
30.0
 62
     5
 63
     7
421
 16777215
 74
     2
 91
        2
 64
     7
 65
     7
 75
     1
175
     1
 42
40.0
 92
       11
 66
     7
 43
1.0
 76
     1
 77
     6
 78
     2
 67
     7
 79
     6
170
     0
171
     0
290
     0
174
     0
 93
        1
 44
0.0
173
     0
291
     0
 45
0.0
1001
ACAD
1000
AcDbSavedByObjectVersion
1070
     0
  0
VISUALSTYLE
  5
37
102
{ACAD_REACTORS
330
2A
102
}
102
{ACAD_XDICTIONARY
360
393
102
}
330
2A
100
AcDbVisualStyle
  2
Thicken
 70
    13
 71
     2
 72
     2
 73
     0
 90
        0
 40
0.6
 41
30.0
 62
     5
 63
     7
421
 16777215
 74
     1
 91
        4
 64
     7
 65
   257
 75
     1
175
     1
 42
1.0
 92
       12
 66
     7
 43
1.0
 76
     1
 77
     6
 78
     2
 67
     7
 79
     5
170
     0
171
     0
290
     0
174
     0
 93
        1
 44
0.0
173
     0
291
     1
 45
0.0
1001
ACAD
1000
AcDbSavedByObjectVersion
1070
     0
  0
VISUALSTYLE
  5
30
102
{ACAD_REACTORS
330
2A
102
}
102
{ACAD_XDICTIONARY
360
385
102
}
330
2A
100
AcDbVisualStyle
  2
Wireframe
 70
     5
 71
     0
 72
     2
 73
     0
 90
        0
 40
0.6
 41
30.0
 62
     5
 63
     7
421
 16777215
 74
     1
 91
        4
 64
     7
 65
   257
 75
     1
175
     1
 42
1.0
 92
        0
 66
   257
 43
1.0
 76
     1
 77
     6
 78
     2
 67
     7
 79
     3
170
     0
171
     0
290
     0
174
     0
 93
        1
 44
0.0
173
     0
291
     0
 45
0.0
1001
ACAD
1000
AcDbSavedByObjectVersion
1070
     0
  0
VISUALSTYLE
  5
40
102
{ACAD_REACTORS
330
2A
102
}
102
{ACAD_XDICTIONARY
360
3A5
102
}
330
2A
100
AcDbVisualStyle
  2
X-Ray
 70
    25
 71
     2
 72
     2
 73
     1
 90
        1
 40
0.5
 41
30.0
 62
     5
 63
     7
421
 16777215
 74
     1
 91
        0
 64
     7
 65
   257
 75
     1
175
     1
 42
1.0
 92
        8
 66
     7
 43
1.0
 76
     1
 77
     6
 78
     2
 67
     7
 79
     3
170
     0
171
     0
290
     0
174
     0
 93
       13
 44
0.0
173
     0
291
     0
 45
0.0
1001
ACAD
1000
AcDbSavedByObjectVersion
1070
     0
  0
DICTIONARYVAR
  5
378
102
{ACAD_REACTORS
330
377
102
}
330
377
100
DictionaryVariables
280
     0
  1
1:1
  0
DICTIONARYVAR
  5
3BC
102
{ACAD_REACTORS
330
377
102
}
330
377
100
DictionaryVariables
280
     0
  1
3.500000
  0
DICTIONARYVAR
  5
3BD
102
{ACAD_REACTORS
330
377
102
}
330
377
100
DictionaryVariables
280
     0
  1
acadiso.lin
  0
DICTIONARYVAR
  5
3B9
102
{ACAD_REACTORS
330
377
102
}
330
377
100
DictionaryVariables
280
     0
  1
Standard
  0
DICTIONARYVAR
  5
3B8
102
{ACAD_REACTORS
330
377
102
}
330
377
100
DictionaryVariables
280
     0
  1
Standard
  0
DICTIONARYVAR
  5
379
102
{ACAD_REACTORS
330
377
102
}
330
377
100
DictionaryVariables
280
     0
  1
1
  0
DICTIONARYVAR
  5
37A
102
{ACAD_REACTORS
330
377
102
}
330
377
100
DictionaryVariables
280
     0
  1
2
  0
DICTIONARY
  5
3AD
330
45
100
AcDbDictionary
280
     1
281
     1
  3
ACAD_XREC_ROUNDTRIP
360
3AE
  0
DICTIONARY
  5
3AB
330
44
100
AcDbDictionary
280
     1
281
     1
  3
ACAD_XREC_ROUNDTRIP
360
3AC
  0
DICTIONARY
  5
3AF
330
46
100
AcDbDictionary
280
     1
281
     1
  3
ACAD_XREC_ROUNDTRIP
360
3B0
  0
DICTIONARY
  5
3B5
330
6C
100
AcDbDictionary
280
     1
281
     1
  3
ACAD_XREC_ROUNDTRIP
360
3B6
  0
DICTIONARY
  5
3B1
330
6A
100
AcDbDictionary
280
     1
281
     1
  3
ACAD_ROUNDTRIP_2008_TABLESTYLE_CELLSTYLEMAP
360
3B3
  3
ACAD_XREC_ROUNDTRIP
360
3B2
  0
DICTIONARY
  5
383
330
2F
100
AcDbDictionary
280
     1
281
     1
  3
ACAD_XREC_ROUNDTRIP
360
384
  0
DICTIONARY
  5
389
330
32
100
AcDbDictionary
280
     1
281
     1
  3
ACAD_XREC_ROUNDTRIP
360
38A
  0
DICTIONARY
  5
391
330
36
100
AcDbDictionary
280
     1
281
     1
  3
ACAD_XREC_ROUNDTRIP
360
392
  0
DICTIONARY
  5
399
330
3A
100
AcDbDictionary
280
     1
281
     1
  3
ACAD_XREC_ROUNDTRIP
360
39A
  0
DICTIONARY
  5
38D
330
34
100
AcDbDictionary
280
     1
281
     1
  3
ACAD_XREC_ROUNDTRIP
360
38E
  0
DICTIONARY
  5
38F
330
35
100
AcDbDictionary
280
     1
281
     1
  3
ACAD_XREC_ROUNDTRIP
360
390
  0
DICTIONARY
  5
39F
330
3D
100
AcDbDictionary
280
     1
281
     1
  3
ACAD_XREC_ROUNDTRIP
360
3A0
  0
DICTIONARY
  5
397
330
39
100
AcDbDictionary
280
     1
281
     1
  3
ACAD_XREC_ROUNDTRIP
360
398
  0
DICTIONARY
  5
37B
330
2B
100
AcDbDictionary
280
     1
281
     1
  3
ACAD_XREC_ROUNDTRIP
360
37C
  0
DICTIONARY
  5
37D
330
2C
100
AcDbDictionary
280
     1
281
     1
  3
ACAD_XREC_ROUNDTRIP
360
37E
  0
DICTIONARY
  5
37F
330
2D
100
AcDbDictionary
280
     1
281
     1
  3
ACAD_XREC_ROUNDTRIP
360
380
  0
DICTIONARY
  5
381
330
2E
100
AcDbDictionary
280
     1
281
     1
  3
ACAD_XREC_ROUNDTRIP
360
382
  0
DICTIONARY
  5
387
330
31
100
AcDbDictionary
280
     1
281
     1
  3
ACAD_XREC_ROUNDTRIP
360
388
  0
DICTIONARY
  5
39B
330
3B
100
AcDbDictionary
280
     1
281
     1
  3
ACAD_XREC_ROUNDTRIP
360
39C
  0
DICTIONARY
  5
395
330
38
100
AcDbDictionary
280
     1
281
     1
  3
ACAD_XREC_ROUNDTRIP
360
396
  0
DICTIONARY
  5
39D
330
3C
100
AcDbDictionary
280
     1
281
     1
  3
ACAD_XREC_ROUNDTRIP
360
39E
  0
DICTIONARY
  5
38B
330
33
100
AcDbDictionary
280
     1
281
     1
  3
ACAD_XREC_ROUNDTRIP
360
38C
  0
DICTIONARY
  5
3A9
330
42
100
AcDbDictionary
280
     1
281
     1
  3
ACAD_XREC_ROUNDTRIP
360
3AA
  0
DICTIONARY
  5
3A7
330
41
100
AcDbDictionary
280
     1
281
     1
  3
ACAD_XREC_ROUNDTRIP
360
3A8
  0
DICTIONARY
  5
3A1
330
3E
100
AcDbDictionary
280
     1
281
     1
  3
ACAD_XREC_ROUNDTRIP
360
3A2
  0
DICTIONARY
  5
3A3
330
3F
100
AcDbDictionary
280
     1
281
     1
  3
ACAD_XREC_ROUNDTRIP
360
3A4
  0
DICTIONARY
  5
393
330
37
100
AcDbDictionary
280
     1
281
     1
  3
ACAD_XREC_ROUNDTRIP
360
394
  0
DICTIONARY
  5
385
330
30
100
AcDbDictionary
280
     1
281
     1
  3
ACAD_XREC_ROUNDTRIP
360
386
  0
DICTIONARY
  5
3A5
330
40
100
AcDbDictionary
280
     1
281
     1
  3
ACAD_XREC_ROUNDTRIP
360
3A6
  0
XRECORD
  5
3AE
102
{ACAD_REACTORS
330
3AD
102
}
330
3AD
100
AcDbXrecord
280
     1
102
MATERIAL
148
0.0
149
0.0
149
0.0
 93
        0
 94
      127
282
     0
 72
     1
 77
     1
171
     1
175
     1
179
     1
273
     0
  0
XRECORD
  5
3AC
102
{ACAD_REACTORS
330
3AB
102
}
330
3AB
100
AcDbXrecord
280
     1
102
MATERIAL
148
0.0
149
0.0
149
0.0
 93
        0
 94
      127
282
     0
 72
     1
 77
     1
171
     1
175
     1
179
     1
273
     0
  0
XRECORD
  5
3B0
102
{ACAD_REACTORS
330
3AF
102
}
330
3AF
100
AcDbXrecord
280
     1
102
MATERIAL
148
0.0
149
0.0
149
0.0
 93
        0
 94
      127
282
     0
 72
     1
 77
     1
171
     1
175
     1
179
     1
273
     0
  0
XRECORD
  5
3B6
102
{ACAD_REACTORS
330
3B5
102
}
330
3B5
100
AcDbXrecord
280
     1
102
ACAD_ROUNDTRIP_2010_MLEADER_STYLE
  0
CELLSTYLEMAP
  5
3B3
102
{ACAD_REACTORS
330
3B1
102
}
330
3B1
100
AcDbCellStyleMap
 90
        3
300
CELLSTYLE
  1
TABLEFORMAT_BEGIN
 90
        5
170
     1
 91
        0
 92
    32768
 62
   257
 93
        1
300
CONTENTFORMAT
  1
CONTENTFORMAT_BEGIN
 90
        0
 91
        0
 92
        4
 93
        0
300

 40
0.0
140
1.0
 94
        5
 62
     0
340
11
144
6.0
309
CONTENTFORMAT_END
171
     1
301
MARGIN
  1
CELLMARGIN_BEGIN
 40
1.5
 40
1.5
 40
1.5
 40
1.5
 40
1.5
 40
1.5
309
CELLMARGIN_END
 94
        6
 95
        1
302
GRIDFORMAT
  1
GRIDFORMAT_BEGIN
 90
        0
 91
        1
 62
     0
 92
       -2
340
14
 93
        0
 40
0.045
309
GRIDFORMAT_END
 95
        2
302
GRIDFORMAT
  1
GRIDFORMAT_BEGIN
 90
        0
 91
        1
 62
     0
 92
       -2
340
14
 93
        0
 40
0.045
309
GRIDFORMAT_END
 95
        4
302
GRIDFORMAT
  1
GRIDFORMAT_BEGIN
 90
        0
 91
        1
 62
     0
 92
       -2
340
14
 93
        0
 40
0.045
309
GRIDFORMAT_END
 95
        8
302
GRIDFORMAT
  1
GRIDFORMAT_BEGIN
 90
        0
 91
        1
 62
     0
 92
       -2
340
14
 93
        0
 40
0.045
309
GRIDFORMAT_END
 95
       16
302
GRIDFORMAT
  1
GRIDFORMAT_BEGIN
 90
        0
 91
        1
 62
     0
 92
       -2
340
14
 93
        0
 40
0.045
309
GRIDFORMAT_END
 95
       32
302
GRIDFORMAT
  1
GRIDFORMAT_BEGIN
 90
        0
 91
        1
 62
     0
 92
       -2
340
14
 93
        0
 40
0.045
309
GRIDFORMAT_END
309
TABLEFORMAT_END
  1
CELLSTYLE_BEGIN
 90
        1
 91
        1
300
_TITLE
309
CELLSTYLE_END
300
CELLSTYLE
  1
TABLEFORMAT_BEGIN
 90
        5
170
     1
 91
        0
 92
        0
 62
   257
 93
        1
300
CONTENTFORMAT
  1
CONTENTFORMAT_BEGIN
 90
        0
 91
        0
 92
        4
 93
        0
300

 40
0.0
140
1.0
 94
        5
 62
     0
340
11
144
4.5
309
CONTENTFORMAT_END
171
     1
301
MARGIN
  1
CELLMARGIN_BEGIN
 40
1.5
 40
1.5
 40
1.5
 40
1.5
 40
1.5
 40
1.5
309
CELLMARGIN_END
 94
        6
 95
        1
302
GRIDFORMAT
  1
GRIDFORMAT_BEGIN
 90
        0
 91
        1
 62
     0
 92
       -2
340
14
 93
        0
 40
0.045
309
GRIDFORMAT_END
 95
        2
302
GRIDFORMAT
  1
GRIDFORMAT_BEGIN
 90
        0
 91
        1
 62
     0
 92
       -2
340
14
 93
        0
 40
0.045
309
GRIDFORMAT_END
 95
        4
302
GRIDFORMAT
  1
GRIDFORMAT_BEGIN
 90
        0
 91
        1
 62
     0
 92
       -2
340
14
 93
        0
 40
0.045
309
GRIDFORMAT_END
 95
        8
302
GRIDFORMAT
  1
GRIDFORMAT_BEGIN
 90
        0
 91
        1
 62
     0
 92
       -2
340
14
 93
        0
 40
0.045
309
GRIDFORMAT_END
 95
       16
302
GRIDFORMAT
  1
GRIDFORMAT_BEGIN
 90
        0
 91
        1
 62
     0
 92
       -2
340
14
 93
        0
 40
0.045
309
GRIDFORMAT_END
 95
       32
302
GRIDFORMAT
  1
GRIDFORMAT_BEGIN
 90
        0
 91
        1
 62
     0
 92
       -2
340
14
 93
        0
 40
0.045
309
GRIDFORMAT_END
309
TABLEFORMAT_END
  1
CELLSTYLE_BEGIN
 90
        2
 91
        1
300
_HEADER
309
CELLSTYLE_END
300
CELLSTYLE
  1
TABLEFORMAT_BEGIN
 90
        5
170
     1
 91
        0
 92
        0
 62
   257
 93
        1
300
CONTENTFORMAT
  1
CONTENTFORMAT_BEGIN
 90
        0
 91
        0
 92
        4
 93
        0
300

 40
0.0
140
1.0
 94
        2
 62
     0
340
11
144
4.5
309
CONTENTFORMAT_END
171
     1
301
MARGIN
  1
CELLMARGIN_BEGIN
 40
1.5
 40
1.5
 40
1.5
 40
1.5
 40
1.5
 40
1.5
309
CELLMARGIN_END
 94
        6
 95
        1
302
GRIDFORMAT
  1
GRIDFORMAT_BEGIN
 90
        0
 91
        1
 62
     0
 92
       -2
340
14
 93
        0
 40
0.045
309
GRIDFORMAT_END
 95
        2
302
GRIDFORMAT
  1
GRIDFORMAT_BEGIN
 90
        0
 91
        1
 62
     0
 92
       -2
340
14
 93
        0
 40
0.045
309
GRIDFORMAT_END
 95
        4
302
GRIDFORMAT
  1
GRIDFORMAT_BEGIN
 90
        0
 91
        1
 62
     0
 92
       -2
340
14
 93
        0
 40
0.045
309
GRIDFORMAT_END
 95
        8
302
GRIDFORMAT
  1
GRIDFORMAT_BEGIN
 90
        0
 91
        1
 62
     0
 92
       -2
340
14
 93
        0
 40
0.045
309
GRIDFORMAT_END
 95
       16
302
GRIDFORMAT
  1
GRIDFORMAT_BEGIN
 90
        0
 91
        1
 62
     0
 92
       -2
340
14
 93
        0
 40
0.045
309
GRIDFORMAT_END
 95
       32
302
GRIDFORMAT
  1
GRIDFORMAT_BEGIN
 90
        0
 91
        1
 62
     0
 92
       -2
340
14
 93
        0
 40
0.045
309
GRIDFORMAT_END
309
TABLEFORMAT_END
  1
CELLSTYLE_BEGIN
 90
        3
 91
        2
300
_DATA
309
CELLSTYLE_END
  0
XRECORD
  5
3B2
102
{ACAD_REACTORS
330
3B1
102
}
330
3B1
100
AcDbXrecord
280
     1
102
ACAD_ROUNDTRIP_PRE2007_TABLESTYLE
 90
        4
 91
        0
  1

 92
        4
 93
        0
  2

 94
        4
 95
        0
  3

  0
XRECORD
  5
384
102
{ACAD_REACTORS
330
383
102
}
330
383
100
AcDbXrecord
280
     1
102
RTVSPropertyOp0
 70
     1
102
RTVSPropertyOp1
 70
     1
102
RTVSPropertyOp2
 70
     1
102
RTVSPropertyOp3
 70
     1
102
RTVSPropertyOp4
 70
     1
102
RTVSPropertyOp5
 70
     1
102
RTVSPropertyOp6
 70
     1
102
RTVSPropertyOp7
 70
     1
102
RTVSPropertyOp8
 70
     1
102
RTVSPropertyOp9
 70
     1
102
RTVSPropertyOp10
 70
     1
102
RTVSPropertyOp11
 70
     1
102
RTVSPropertyOp12
 70
     1
102
RTVSPropertyOp13
 70
     1
102
RTVSPropertyOp14
 70
     1
102
RTVSPropertyOp15
 70
     1
102
RTVSPropertyOp16
 70
     1
102
RTVSPropertyOp17
 70
     1
102
RTVSPropertyOp18
 70
     1
102
RTVSPropertyOp19
 70
     1
102
RTVSPropertyOp20
 70
     1
102
RTVSPropertyOp21
 70
     1
102
RTVSPropertyOp22
 70
     1
102
RTVSPropertyOp23
 70
     1
102
RTVSPropertyOp24
 70
     1
102
RTVSPropertyOp25
 70
     1
102
RTVSPropertyOp26
 70
     1
102
RTVSPropertyOp27
 70
     1
102
RTVSPropertyOp28
 70
     1
102
RTVSPropertyOp29
 70
     1
102
RTVSPropertyOp30
 70
     1
102
RTVSPropertyOp31
 70
     1
102
RTVSPropertyOp32
 70
     1
102
RTVSPropertyOp33
 70
     1
102
RTVSPropertyOp34
 70
     1
102
RTVSPropertyOp35
 70
     1
102
RTVSPropertyOp36
 70
     1
102
RTVSPropertyOp37
 70
     1
102
RTVSPropertyOp38
 70
     1
102
RTVSPropertyOp39
 70
     1
102
RTVSPropertyOp40
 70
     1
102
RTVSPropertyOp41
 70
     1
102
RTVSPropertyOp42
 70
     1
102
RTVSPropertyOp43
 70
     1
102
RTVSPropertyOp44
 70
     1
102
RTVSPropertyOp45
 70
     1
102
RTVSPropertyOp46
 70
     1
102
RTVSPropertyOp47
 70
     1
102
RTVSPropertyOp48
 70
     1
102
RTVSPropertyOp49
 70
     1
102
RTVSPropertyOp50
 70
     1
102
RTVSPropertyOp51
 70
     0
102
RTVSPropertyOp52
 70
     0
102
RTVSPropertyOp53
 70
     1
102
RTVSPropertyOp54
 70
     1
102
RTVSPropertyOp55
 70
     1
102
RTVSPropertyOp56
 70
     1
102
RTVSPropertyOp57
 70
     1
102
RTVSPost2010Prop28
280
     1
102
RTVSPost2010PropOp28
 70
     1
102
RTVSPost2010Prop29
280
     1
102
RTVSPost2010PropOp29
 70
     1
102
RTVSPost2010Prop30
280
     0
102
RTVSPost2010PropOp30
 70
     1
102
RTVSPost2010Prop31
280
     0
102
RTVSPost2010PropOp31
 70
     1
102
RTVSPost2010Prop32
280
     0
102
RTVSPost2010PropOp32
 70
     1
102
RTVSPost2010Prop33
280
     0
102
RTVSPost2010PropOp33
 70
     1
102
RTVSPost2010Prop34
280
     0
102
RTVSPost2010PropOp34
 70
     1
102
RTVSPost2010Prop35
280
     0
102
RTVSPost2010PropOp35
 70
     1
102
RTVSPost2010Prop36
280
     0
102
RTVSPost2010PropOp36
 70
     1
102
RTVSPost2010Prop37
 90
       50
102
RTVSPost2010PropOp37
 70
     1
102
RTVSPost2010Prop38
140
0.0
102
RTVSPost2010PropOp38
 70
     1
102
RTVSPost2010Prop39
140
1.0
102
RTVSPost2010PropOp39
 70
     1
102
RTVSPost2010Prop40
 90
        0
102
RTVSPost2010PropOp40
 70
     1
102
RTVSPost2010Prop41ColorIndex
 90
       18
102
RTVSPost2010Prop41ColorRGB
 90
        0
102
RTVSPost2010PropOp41
 70
     1
102
RTVSPost2010Prop42
 90
       50
102
RTVSPost2010PropOp42
 70
     1
102
RTVSPost2010Prop43
 90
        3
102
RTVSPost2010PropOp43
 70
     1
102
RTVSPost2010Prop44ColorIndex
 90
        5
102
RTVSPost2010Prop44ColorRGB
 90
      255
102
RTVSPost2010PropOp44
 70
     1
102
RTVSPost2010Prop45
280
     0
102
RTVSPost2010PropOp45
 70
     1
102
RTVSPost2010Prop46
 90
       50
102
RTVSPost2010PropOp46
 70
     1
102
RTVSPost2010Prop47
 90
       50
102
RTVSPost2010PropOp47
 70
     1
102
RTVSPost2010Prop48
 90
       50
102
RTVSPost2010PropOp48
 70
     1
102
RTVSPost2010Prop49
280
     0
102
RTVSPost2010PropOp49
 70
     1
102
RTVSPost2010Prop50
 90
       50
102
RTVSPost2010PropOp50
 70
     1
102
RTVSPost2010Prop51ColorIndex
 90
      256
102
RTVSPost2010Prop51ColorRGB
 90
-16777216
102
RTVSPost2010PropOp51
 70
     0
102
RTVSPost2010Prop52
140
1.0
102
RTVSPost2010PropOp52
 70
     0
102
RTVSPost2010Prop53
 90
        2
102
RTVSPost2010PropOp53
 70
     1
102
RTVSPost2010Prop54
  1
strokes_ogs.tif
102
RTVSPost2010PropOp54
 70
     1
102
RTVSPost2010Prop55
280
     0
102
RTVSPost2010PropOp55
 70
     1
102
RTVSPost2010Prop56
140
1.0
102
RTVSPost2010PropOp56
 70
     1
102
RTVSPost2010Prop57
140
1.0
102
RTVSPost2010PropOp57
 70
     1
  0
XRECORD
  5
38A
102
{ACAD_REACTORS
330
389
102
}
330
389
100
AcDbXrecord
280
     1
102
RTVSPropertyOp0
 70
     1
102
RTVSPropertyOp1
 70
     1
102
RTVSPropertyOp2
 70
     1
102
RTVSPropertyOp3
 70
     1
102
RTVSPropertyOp4
 70
     1
102
RTVSPropertyOp5
 70
     1
102
RTVSPropertyOp6
 70
     1
102
RTVSPropertyOp7
 70
     1
102
RTVSPropertyOp8
 70
     1
102
RTVSPropertyOp9
 70
     1
102
RTVSPropertyOp10
 70
     1
102
RTVSPropertyOp11
 70
     1
102
RTVSPropertyOp12
 70
     1
102
RTVSPropertyOp13
 70
     1
102
RTVSPropertyOp14
 70
     1
102
RTVSPropertyOp15
 70
     1
102
RTVSPropertyOp16
 70
     1
102
RTVSPropertyOp17
 70
     1
102
RTVSPropertyOp18
 70
     1
102
RTVSPropertyOp19
 70
     1
102
RTVSPropertyOp20
 70
     1
102
RTVSPropertyOp21
 70
     1
102
RTVSPropertyOp22
 70
     1
102
RTVSPropertyOp23
 70
     1
102
RTVSPropertyOp24
 70
     1
102
RTVSPropertyOp25
 70
     1
102
RTVSPropertyOp26
 70
     1
102
RTVSPropertyOp27
 70
     1
102
RTVSPropertyOp28
 70
     1
102
RTVSPropertyOp29
 70
     1
102
RTVSPropertyOp30
 70
     1
102
RTVSPropertyOp31
 70
     1
102
RTVSPropertyOp32
 70
     1
102
RTVSPropertyOp33
 70
     1
102
RTVSPropertyOp34
 70
     1
102
RTVSPropertyOp35
 70
     1
102
RTVSPropertyOp36
 70
     1
102
RTVSPropertyOp37
 70
     1
102
RTVSPropertyOp38
 70
     1
102
RTVSPropertyOp39
 70
     1
102
RTVSPropertyOp40
 70
     1
102
RTVSPropertyOp41
 70
     1
102
RTVSPropertyOp42
 70
     1
102
RTVSPropertyOp43
 70
     1
102
RTVSPropertyOp44
 70
     1
102
RTVSPropertyOp45
 70
     1
102
RTVSPropertyOp46
 70
     1
102
RTVSPropertyOp47
 70
     1
102
RTVSPropertyOp48
 70
     1
102
RTVSPropertyOp49
 70
     1
102
RTVSPropertyOp50
 70
     1
102
RTVSPropertyOp51
 70
     0
102
RTVSPropertyOp52
 70
     0
102
RTVSPropertyOp53
 70
     1
102
RTVSPropertyOp54
 70
     1
102
RTVSPropertyOp55
 70
     1
102
RTVSPropertyOp56
 70
     1
102
RTVSPropertyOp57
 70
     1
102
RTVSPost2010Prop28
280
     0
102
RTVSPost2010PropOp28
 70
     1
102
RTVSPost2010Prop29
280
     1
102
RTVSPost2010PropOp29
 70
     1
102
RTVSPost2010Prop30
280
     1
102
RTVSPost2010PropOp30
 70
     1
102
RTVSPost2010Prop31
280
     0
102
RTVSPost2010PropOp31
 70
     1
102
RTVSPost2010Prop32
280
     0
102
RTVSPost2010PropOp32
 70
     1
102
RTVSPost2010Prop33
280
     0
102
RTVSPost2010PropOp33
 70
     1
102
RTVSPost2010Prop34
280
     0
102
RTVSPost2010PropOp34
 70
     1
102
RTVSPost2010Prop35
280
     0
102
RTVSPost2010PropOp35
 70
     1
102
RTVSPost2010Prop36
280
     0
102
RTVSPost2010PropOp36
 70
     1
102
RTVSPost2010Prop37
 90
       50
102
RTVSPost2010PropOp37
 70
     1
102
RTVSPost2010Prop38
140
0.0
102
RTVSPost2010PropOp38
 70
     1
102
RTVSPost2010Prop39
140
1.0
102
RTVSPost2010PropOp39
 70
     1
102
RTVSPost2010Prop40
 90
        0
102
RTVSPost2010PropOp40
 70
     1
102
RTVSPost2010Prop41ColorIndex
 90
       18
102
RTVSPost2010Prop41ColorRGB
 90
        0
102
RTVSPost2010PropOp41
 70
     1
102
RTVSPost2010Prop42
 90
       50
102
RTVSPost2010PropOp42
 70
     1
102
RTVSPost2010Prop43
 90
        3
102
RTVSPost2010PropOp43
 70
     1
102
RTVSPost2010Prop44ColorIndex
 90
        5
102
RTVSPost2010Prop44ColorRGB
 90
      255
102
RTVSPost2010PropOp44
 70
     1
102
RTVSPost2010Prop45
280
     0
102
RTVSPost2010PropOp45
 70
     1
102
RTVSPost2010Prop46
 90
       50
102
RTVSPost2010PropOp46
 70
     1
102
RTVSPost2010Prop47
 90
       50
102
RTVSPost2010PropOp47
 70
     1
102
RTVSPost2010Prop48
 90
       50
102
RTVSPost2010PropOp48
 70
     1
102
RTVSPost2010Prop49
280
     0
102
RTVSPost2010PropOp49
 70
     1
102
RTVSPost2010Prop50
 90
       50
102
RTVSPost2010PropOp50
 70
     1
102
RTVSPost2010Prop51ColorIndex
 90
      256
102
RTVSPost2010Prop51ColorRGB
 90
-16777216
102
RTVSPost2010PropOp51
 70
     0
102
RTVSPost2010Prop52
140
1.0
102
RTVSPost2010PropOp52
 70
     0
102
RTVSPost2010Prop53
 90
        2
102
RTVSPost2010PropOp53
 70
     1
102
RTVSPost2010Prop54
  1
strokes_ogs.tif
102
RTVSPost2010PropOp54
 70
     1
102
RTVSPost2010Prop55
280
     0
102
RTVSPost2010PropOp55
 70
     1
102
RTVSPost2010Prop56
140
1.0
102
RTVSPost2010PropOp56
 70
     1
102
RTVSPost2010Prop57
140
1.0
102
RTVSPost2010PropOp57
 70
     1
  0
XRECORD
  5
392
102
{ACAD_REACTORS
330
391
102
}
330
391
100
AcDbXrecord
280
     1
102
RTVSPropertyOp0
 70
     1
102
RTVSPropertyOp1
 70
     1
102
RTVSPropertyOp2
 70
     1
102
RTVSPropertyOp3
 70
     1
102
RTVSPropertyOp4
 70
     1
102
RTVSPropertyOp5
 70
     1
102
RTVSPropertyOp6
 70
     1
102
RTVSPropertyOp7
 70
     1
102
RTVSPropertyOp8
 70
     1
102
RTVSPropertyOp9
 70
     1
102
RTVSPropertyOp10
 70
     1
102
RTVSPropertyOp11
 70
     1
102
RTVSPropertyOp12
 70
     1
102
RTVSPropertyOp13
 70
     1
102
RTVSPropertyOp14
 70
     1
102
RTVSPropertyOp15
 70
     1
102
RTVSPropertyOp16
 70
     1
102
RTVSPropertyOp17
 70
     1
102
RTVSPropertyOp18
 70
     1
102
RTVSPropertyOp19
 70
     1
102
RTVSPropertyOp20
 70
     1
102
RTVSPropertyOp21
 70
     1
102
RTVSPropertyOp22
 70
     1
102
RTVSPropertyOp23
 70
     1
102
RTVSPropertyOp24
 70
     1
102
RTVSPropertyOp25
 70
     1
102
RTVSPropertyOp26
 70
     1
102
RTVSPropertyOp27
 70
     1
102
RTVSPropertyOp28
 70
     1
102
RTVSPropertyOp29
 70
     1
102
RTVSPropertyOp30
 70
     1
102
RTVSPropertyOp31
 70
     1
102
RTVSPropertyOp32
 70
     1
102
RTVSPropertyOp33
 70
     1
102
RTVSPropertyOp34
 70
     1
102
RTVSPropertyOp35
 70
     1
102
RTVSPropertyOp36
 70
     1
102
RTVSPropertyOp37
 70
     1
102
RTVSPropertyOp38
 70
     1
102
RTVSPropertyOp39
 70
     1
102
RTVSPropertyOp40
 70
     1
102
RTVSPropertyOp41
 70
     1
102
RTVSPropertyOp42
 70
     1
102
RTVSPropertyOp43
 70
     1
102
RTVSPropertyOp44
 70
     1
102
RTVSPropertyOp45
 70
     1
102
RTVSPropertyOp46
 70
     1
102
RTVSPropertyOp47
 70
     1
102
RTVSPropertyOp48
 70
     1
102
RTVSPropertyOp49
 70
     1
102
RTVSPropertyOp50
 70
     1
102
RTVSPropertyOp51
 70
     0
102
RTVSPropertyOp52
 70
     0
102
RTVSPropertyOp53
 70
     1
102
RTVSPropertyOp54
 70
     1
102
RTVSPropertyOp55
 70
     1
102
RTVSPropertyOp56
 70
     1
102
RTVSPropertyOp57
 70
     1
102
RTVSPost2010Prop28
280
     0
102
RTVSPost2010PropOp28
 70
     1
102
RTVSPost2010Prop29
280
     1
102
RTVSPost2010PropOp29
 70
     1
102
RTVSPost2010Prop30
280
     1
102
RTVSPost2010PropOp30
 70
     1
102
RTVSPost2010Prop31
280
     0
102
RTVSPost2010PropOp31
 70
     1
102
RTVSPost2010Prop32
280
     0
102
RTVSPost2010PropOp32
 70
     1
102
RTVSPost2010Prop33
280
     0
102
RTVSPost2010PropOp33
 70
     1
102
RTVSPost2010Prop34
280
     0
102
RTVSPost2010PropOp34
 70
     1
102
RTVSPost2010Prop35
280
     0
102
RTVSPost2010PropOp35
 70
     1
102
RTVSPost2010Prop36
280
     0
102
RTVSPost2010PropOp36
 70
     1
102
RTVSPost2010Prop37
 90
       50
102
RTVSPost2010PropOp37
 70
     1
102
RTVSPost2010Prop38
140
0.0
102
RTVSPost2010PropOp38
 70
     1
102
RTVSPost2010Prop39
140
1.0
102
RTVSPost2010PropOp39
 70
     1
102
RTVSPost2010Prop40
 90
        0
102
RTVSPost2010PropOp40
 70
     1
102
RTVSPost2010Prop41ColorIndex
 90
       18
102
RTVSPost2010Prop41ColorRGB
 90
        0
102
RTVSPost2010PropOp41
 70
     1
102
RTVSPost2010Prop42
 90
       50
102
RTVSPost2010PropOp42
 70
     1
102
RTVSPost2010Prop43
 90
        3
102
RTVSPost2010PropOp43
 70
     1
102
RTVSPost2010Prop44ColorIndex
 90
        5
102
RTVSPost2010Prop44ColorRGB
 90
      255
102
RTVSPost2010PropOp44
 70
     1
102
RTVSPost2010Prop45
280
     0
102
RTVSPost2010PropOp45
 70
     1
102
RTVSPost2010Prop46
 90
       50
102
RTVSPost2010PropOp46
 70
     1
102
RTVSPost2010Prop47
 90
       50
102
RTVSPost2010PropOp47
 70
     1
102
RTVSPost2010Prop48
 90
       50
102
RTVSPost2010PropOp48
 70
     1
102
RTVSPost2010Prop49
280
     0
102
RTVSPost2010PropOp49
 70
     1
102
RTVSPost2010Prop50
 90
       50
102
RTVSPost2010PropOp50
 70
     1
102
RTVSPost2010Prop51ColorIndex
 90
      256
102
RTVSPost2010Prop51ColorRGB
 90
-16777216
102
RTVSPost2010PropOp51
 70
     0
102
RTVSPost2010Prop52
140
1.0
102
RTVSPost2010PropOp52
 70
     0
102
RTVSPost2010Prop53
 90
        2
102
RTVSPost2010PropOp53
 70
     1
102
RTVSPost2010Prop54
  1
strokes_ogs.tif
102
RTVSPost2010PropOp54
 70
     1
102
RTVSPost2010Prop55
280
     0
102
RTVSPost2010PropOp55
 70
     1
102
RTVSPost2010Prop56
140
1.0
102
RTVSPost2010PropOp56
 70
     1
102
RTVSPost2010Prop57
140
1.0
102
RTVSPost2010PropOp57
 70
     1
  0
XRECORD
  5
39A
102
{ACAD_REACTORS
330
399
102
}
330
399
100
AcDbXrecord
280
     1
102
RTVSPropertyOp0
 70
     1
102
RTVSPropertyOp1
 70
     1
102
RTVSPropertyOp2
 70
     1
102
RTVSPropertyOp3
 70
     1
102
RTVSPropertyOp4
 70
     1
102
RTVSPropertyOp5
 70
     1
102
RTVSPropertyOp6
 70
     1
102
RTVSPropertyOp7
 70
     1
102
RTVSPropertyOp8
 70
     1
102
RTVSPropertyOp9
 70
     1
102
RTVSPropertyOp10
 70
     1
102
RTVSPropertyOp11
 70
     1
102
RTVSPropertyOp12
 70
     1
102
RTVSPropertyOp13
 70
     1
102
RTVSPropertyOp14
 70
     1
102
RTVSPropertyOp15
 70
     1
102
RTVSPropertyOp16
 70
     1
102
RTVSPropertyOp17
 70
     1
102
RTVSPropertyOp18
 70
     1
102
RTVSPropertyOp19
 70
     1
102
RTVSPropertyOp20
 70
     1
102
RTVSPropertyOp21
 70
     1
102
RTVSPropertyOp22
 70
     1
102
RTVSPropertyOp23
 70
     1
102
RTVSPropertyOp24
 70
     1
102
RTVSPropertyOp25
 70
     1
102
RTVSPropertyOp26
 70
     1
102
RTVSPropertyOp27
 70
     1
102
RTVSPropertyOp28
 70
     1
102
RTVSPropertyOp29
 70
     1
102
RTVSPropertyOp30
 70
     1
102
RTVSPropertyOp31
 70
     1
102
RTVSPropertyOp32
 70
     1
102
RTVSPropertyOp33
 70
     1
102
RTVSPropertyOp34
 70
     1
102
RTVSPropertyOp35
 70
     1
102
RTVSPropertyOp36
 70
     1
102
RTVSPropertyOp37
 70
     1
102
RTVSPropertyOp38
 70
     1
102
RTVSPropertyOp39
 70
     1
102
RTVSPropertyOp40
 70
     1
102
RTVSPropertyOp41
 70
     1
102
RTVSPropertyOp42
 70
     1
102
RTVSPropertyOp43
 70
     1
102
RTVSPropertyOp44
 70
     1
102
RTVSPropertyOp45
 70
     1
102
RTVSPropertyOp46
 70
     1
102
RTVSPropertyOp47
 70
     1
102
RTVSPropertyOp48
 70
     1
102
RTVSPropertyOp49
 70
     1
102
RTVSPropertyOp50
 70
     1
102
RTVSPropertyOp51
 70
     0
102
RTVSPropertyOp52
 70
     0
102
RTVSPropertyOp53
 70
     1
102
RTVSPropertyOp54
 70
     1
102
RTVSPropertyOp55
 70
     1
102
RTVSPropertyOp56
 70
     1
102
RTVSPropertyOp57
 70
     1
102
RTVSPost2010Prop28
280
     0
102
RTVSPost2010PropOp28
 70
     1
102
RTVSPost2010Prop29
280
     1
102
RTVSPost2010PropOp29
 70
     1
102
RTVSPost2010Prop30
280
     1
102
RTVSPost2010PropOp30
 70
     1
102
RTVSPost2010Prop31
280
     0
102
RTVSPost2010PropOp31
 70
     1
102
RTVSPost2010Prop32
280
     0
102
RTVSPost2010PropOp32
 70
     1
102
RTVSPost2010Prop33
280
     0
102
RTVSPost2010PropOp33
 70
     1
102
RTVSPost2010Prop34
280
     0
102
RTVSPost2010PropOp34
 70
     1
102
RTVSPost2010Prop35
280
     0
102
RTVSPost2010PropOp35
 70
     1
102
RTVSPost2010Prop36
280
     0
102
RTVSPost2010PropOp36
 70
     1
102
RTVSPost2010Prop37
 90
       50
102
RTVSPost2010PropOp37
 70
     1
102
RTVSPost2010Prop38
140
0.0
102
RTVSPost2010PropOp38
 70
     1
102
RTVSPost2010Prop39
140
1.0
102
RTVSPost2010PropOp39
 70
     1
102
RTVSPost2010Prop40
 90
        0
102
RTVSPost2010PropOp40
 70
     1
102
RTVSPost2010Prop41ColorIndex
 90
       18
102
RTVSPost2010Prop41ColorRGB
 90
        0
102
RTVSPost2010PropOp41
 70
     1
102
RTVSPost2010Prop42
 90
       50
102
RTVSPost2010PropOp42
 70
     1
102
RTVSPost2010Prop43
 90
        3
102
RTVSPost2010PropOp43
 70
     1
102
RTVSPost2010Prop44ColorIndex
 90
        5
102
RTVSPost2010Prop44ColorRGB
 90
      255
102
RTVSPost2010PropOp44
 70
     1
102
RTVSPost2010Prop45
280
     0
102
RTVSPost2010PropOp45
 70
     1
102
RTVSPost2010Prop46
 90
       50
102
RTVSPost2010PropOp46
 70
     1
102
RTVSPost2010Prop47
 90
       50
102
RTVSPost2010PropOp47
 70
     1
102
RTVSPost2010Prop48
 90
       50
102
RTVSPost2010PropOp48
 70
     1
102
RTVSPost2010Prop49
280
     0
102
RTVSPost2010PropOp49
 70
     1
102
RTVSPost2010Prop50
 90
       50
102
RTVSPost2010PropOp50
 70
     1
102
RTVSPost2010Prop51ColorIndex
 90
      256
102
RTVSPost2010Prop51ColorRGB
 90
-16777216
102
RTVSPost2010PropOp51
 70
     0
102
RTVSPost2010Prop52
140
1.0
102
RTVSPost2010PropOp52
 70
     0
102
RTVSPost2010Prop53
 90
        2
102
RTVSPost2010PropOp53
 70
     1
102
RTVSPost2010Prop54
  1
strokes_ogs.tif
102
RTVSPost2010PropOp54
 70
     1
102
RTVSPost2010Prop55
280
     0
102
RTVSPost2010PropOp55
 70
     1
102
RTVSPost2010Prop56
140
1.0
102
RTVSPost2010PropOp56
 70
     1
102
RTVSPost2010Prop57
140
1.0
102
RTVSPost2010PropOp57
 70
     1
  0
XRECORD
  5
38E
102
{ACAD_REACTORS
330
38D
102
}
330
38D
100
AcDbXrecord
280
     1
102
RTVSPropertyOp0
 70
     1
102
RTVSPropertyOp1
 70
     1
102
RTVSPropertyOp2
 70
     1
102
RTVSPropertyOp3
 70
     1
102
RTVSPropertyOp4
 70
     1
102
RTVSPropertyOp5
 70
     1
102
RTVSPropertyOp6
 70
     1
102
RTVSPropertyOp7
 70
     1
102
RTVSPropertyOp8
 70
     1
102
RTVSPropertyOp9
 70
     1
102
RTVSPropertyOp10
 70
     1
102
RTVSPropertyOp11
 70
     1
102
RTVSPropertyOp12
 70
     1
102
RTVSPropertyOp13
 70
     1
102
RTVSPropertyOp14
 70
     1
102
RTVSPropertyOp15
 70
     1
102
RTVSPropertyOp16
 70
     1
102
RTVSPropertyOp17
 70
     1
102
RTVSPropertyOp18
 70
     1
102
RTVSPropertyOp19
 70
     1
102
RTVSPropertyOp20
 70
     1
102
RTVSPropertyOp21
 70
     1
102
RTVSPropertyOp22
 70
     1
102
RTVSPropertyOp23
 70
     1
102
RTVSPropertyOp24
 70
     1
102
RTVSPropertyOp25
 70
     1
102
RTVSPropertyOp26
 70
     1
102
RTVSPropertyOp27
 70
     1
102
RTVSPropertyOp28
 70
     1
102
RTVSPropertyOp29
 70
     1
102
RTVSPropertyOp30
 70
     1
102
RTVSPropertyOp31
 70
     1
102
RTVSPropertyOp32
 70
     1
102
RTVSPropertyOp33
 70
     1
102
RTVSPropertyOp34
 70
     1
102
RTVSPropertyOp35
 70
     1
102
RTVSPropertyOp36
 70
     1
102
RTVSPropertyOp37
 70
     1
102
RTVSPropertyOp38
 70
     1
102
RTVSPropertyOp39
 70
     1
102
RTVSPropertyOp40
 70
     1
102
RTVSPropertyOp41
 70
     1
102
RTVSPropertyOp42
 70
     1
102
RTVSPropertyOp43
 70
     1
102
RTVSPropertyOp44
 70
     1
102
RTVSPropertyOp45
 70
     1
102
RTVSPropertyOp46
 70
     1
102
RTVSPropertyOp47
 70
     1
102
RTVSPropertyOp48
 70
     1
102
RTVSPropertyOp49
 70
     1
102
RTVSPropertyOp50
 70
     1
102
RTVSPropertyOp51
 70
     0
102
RTVSPropertyOp52
 70
     0
102
RTVSPropertyOp53
 70
     1
102
RTVSPropertyOp54
 70
     1
102
RTVSPropertyOp55
 70
     1
102
RTVSPropertyOp56
 70
     1
102
RTVSPropertyOp57
 70
     1
102
RTVSPost2010Prop28
280
     0
102
RTVSPost2010PropOp28
 70
     1
102
RTVSPost2010Prop29
280
     1
102
RTVSPost2010PropOp29
 70
     1
102
RTVSPost2010Prop30
280
     1
102
RTVSPost2010PropOp30
 70
     1
102
RTVSPost2010Prop31
280
     0
102
RTVSPost2010PropOp31
 70
     1
102
RTVSPost2010Prop32
280
     0
102
RTVSPost2010PropOp32
 70
     1
102
RTVSPost2010Prop33
280
     0
102
RTVSPost2010PropOp33
 70
     1
102
RTVSPost2010Prop34
280
     0
102
RTVSPost2010PropOp34
 70
     1
102
RTVSPost2010Prop35
280
     0
102
RTVSPost2010PropOp35
 70
     1
102
RTVSPost2010Prop36
280
     0
102
RTVSPost2010PropOp36
 70
     1
102
RTVSPost2010Prop37
 90
       50
102
RTVSPost2010PropOp37
 70
     1
102
RTVSPost2010Prop38
140
0.0
102
RTVSPost2010PropOp38
 70
     1
102
RTVSPost2010Prop39
140
1.0
102
RTVSPost2010PropOp39
 70
     1
102
RTVSPost2010Prop40
 90
        0
102
RTVSPost2010PropOp40
 70
     1
102
RTVSPost2010Prop41ColorIndex
 90
       18
102
RTVSPost2010Prop41ColorRGB
 90
        0
102
RTVSPost2010PropOp41
 70
     1
102
RTVSPost2010Prop42
 90
       50
102
RTVSPost2010PropOp42
 70
     1
102
RTVSPost2010Prop43
 90
        3
102
RTVSPost2010PropOp43
 70
     1
102
RTVSPost2010Prop44ColorIndex
 90
        5
102
RTVSPost2010Prop44ColorRGB
 90
      255
102
RTVSPost2010PropOp44
 70
     1
102
RTVSPost2010Prop45
280
     0
102
RTVSPost2010PropOp45
 70
     1
102
RTVSPost2010Prop46
 90
       50
102
RTVSPost2010PropOp46
 70
     1
102
RTVSPost2010Prop47
 90
       50
102
RTVSPost2010PropOp47
 70
     1
102
RTVSPost2010Prop48
 90
       50
102
RTVSPost2010PropOp48
 70
     1
102
RTVSPost2010Prop49
280
     0
102
RTVSPost2010PropOp49
 70
     1
102
RTVSPost2010Prop50
 90
       50
102
RTVSPost2010PropOp50
 70
     1
102
RTVSPost2010Prop51ColorIndex
 90
      256
102
RTVSPost2010Prop51ColorRGB
 90
-16777216
102
RTVSPost2010PropOp51
 70
     0
102
RTVSPost2010Prop52
140
1.0
102
RTVSPost2010PropOp52
 70
     0
102
RTVSPost2010Prop53
 90
        2
102
RTVSPost2010PropOp53
 70
     1
102
RTVSPost2010Prop54
  1
strokes_ogs.tif
102
RTVSPost2010PropOp54
 70
     1
102
RTVSPost2010Prop55
280
     0
102
RTVSPost2010PropOp55
 70
     1
102
RTVSPost2010Prop56
140
1.0
102
RTVSPost2010PropOp56
 70
     1
102
RTVSPost2010Prop57
140
1.0
102
RTVSPost2010PropOp57
 70
     1
  0
XRECORD
  5
390
102
{ACAD_REACTORS
330
38F
102
}
330
38F
100
AcDbXrecord
280
     1
102
RTVSPropertyOp0
 70
     1
102
RTVSPropertyOp1
 70
     1
102
RTVSPropertyOp2
 70
     1
102
RTVSPropertyOp3
 70
     1
102
RTVSPropertyOp4
 70
     1
102
RTVSPropertyOp5
 70
     1
102
RTVSPropertyOp6
 70
     1
102
RTVSPropertyOp7
 70
     1
102
RTVSPropertyOp8
 70
     1
102
RTVSPropertyOp9
 70
     1
102
RTVSPropertyOp10
 70
     1
102
RTVSPropertyOp11
 70
     1
102
RTVSPropertyOp12
 70
     1
102
RTVSPropertyOp13
 70
     1
102
RTVSPropertyOp14
 70
     1
102
RTVSPropertyOp15
 70
     1
102
RTVSPropertyOp16
 70
     1
102
RTVSPropertyOp17
 70
     1
102
RTVSPropertyOp18
 70
     1
102
RTVSPropertyOp19
 70
     1
102
RTVSPropertyOp20
 70
     1
102
RTVSPropertyOp21
 70
     1
102
RTVSPropertyOp22
 70
     1
102
RTVSPropertyOp23
 70
     1
102
RTVSPropertyOp24
 70
     1
102
RTVSPropertyOp25
 70
     1
102
RTVSPropertyOp26
 70
     1
102
RTVSPropertyOp27
 70
     1
102
RTVSPropertyOp28
 70
     1
102
RTVSPropertyOp29
 70
     1
102
RTVSPropertyOp30
 70
     1
102
RTVSPropertyOp31
 70
     1
102
RTVSPropertyOp32
 70
     1
102
RTVSPropertyOp33
 70
     1
102
RTVSPropertyOp34
 70
     1
102
RTVSPropertyOp35
 70
     1
102
RTVSPropertyOp36
 70
     1
102
RTVSPropertyOp37
 70
     1
102
RTVSPropertyOp38
 70
     1
102
RTVSPropertyOp39
 70
     1
102
RTVSPropertyOp40
 70
     1
102
RTVSPropertyOp41
 70
     1
102
RTVSPropertyOp42
 70
     1
102
RTVSPropertyOp43
 70
     1
102
RTVSPropertyOp44
 70
     1
102
RTVSPropertyOp45
 70
     1
102
RTVSPropertyOp46
 70
     1
102
RTVSPropertyOp47
 70
     1
102
RTVSPropertyOp48
 70
     1
102
RTVSPropertyOp49
 70
     1
102
RTVSPropertyOp50
 70
     1
102
RTVSPropertyOp51
 70
     0
102
RTVSPropertyOp52
 70
     0
102
RTVSPropertyOp53
 70
     1
102
RTVSPropertyOp54
 70
     1
102
RTVSPropertyOp55
 70
     1
102
RTVSPropertyOp56
 70
     1
102
RTVSPropertyOp57
 70
     1
102
RTVSPost2010Prop28
280
     0
102
RTVSPost2010PropOp28
 70
     1
102
RTVSPost2010Prop29
280
     1
102
RTVSPost2010PropOp29
 70
     1
102
RTVSPost2010Prop30
280
     1
102
RTVSPost2010PropOp30
 70
     1
102
RTVSPost2010Prop31
280
     0
102
RTVSPost2010PropOp31
 70
     1
102
RTVSPost2010Prop32
280
     0
102
RTVSPost2010PropOp32
 70
     1
102
RTVSPost2010Prop33
280
     0
102
RTVSPost2010PropOp33
 70
     1
102
RTVSPost2010Prop34
280
     0
102
RTVSPost2010PropOp34
 70
     1
102
RTVSPost2010Prop35
280
     0
102
RTVSPost2010PropOp35
 70
     1
102
RTVSPost2010Prop36
280
     0
102
RTVSPost2010PropOp36
 70
     1
102
RTVSPost2010Prop37
 90
       50
102
RTVSPost2010PropOp37
 70
     1
102
RTVSPost2010Prop38
140
0.0
102
RTVSPost2010PropOp38
 70
     1
102
RTVSPost2010Prop39
140
1.0
102
RTVSPost2010PropOp39
 70
     1
102
RTVSPost2010Prop40
 90
        0
102
RTVSPost2010PropOp40
 70
     1
102
RTVSPost2010Prop41ColorIndex
 90
       18
102
RTVSPost2010Prop41ColorRGB
 90
        0
102
RTVSPost2010PropOp41
 70
     1
102
RTVSPost2010Prop42
 90
       50
102
RTVSPost2010PropOp42
 70
     1
102
RTVSPost2010Prop43
 90
        3
102
RTVSPost2010PropOp43
 70
     1
102
RTVSPost2010Prop44ColorIndex
 90
        5
102
RTVSPost2010Prop44ColorRGB
 90
      255
102
RTVSPost2010PropOp44
 70
     1
102
RTVSPost2010Prop45
280
     0
102
RTVSPost2010PropOp45
 70
     1
102
RTVSPost2010Prop46
 90
       50
102
RTVSPost2010PropOp46
 70
     1
102
RTVSPost2010Prop47
 90
       50
102
RTVSPost2010PropOp47
 70
     1
102
RTVSPost2010Prop48
 90
       50
102
RTVSPost2010PropOp48
 70
     1
102
RTVSPost2010Prop49
280
     0
102
RTVSPost2010PropOp49
 70
     1
102
RTVSPost2010Prop50
 90
       50
102
RTVSPost2010PropOp50
 70
     1
102
RTVSPost2010Prop51ColorIndex
 90
      256
102
RTVSPost2010Prop51ColorRGB
 90
-16777216
102
RTVSPost2010PropOp51
 70
     0
102
RTVSPost2010Prop52
140
1.0
102
RTVSPost2010PropOp52
 70
     0
102
RTVSPost2010Prop53
 90
        2
102
RTVSPost2010PropOp53
 70
     1
102
RTVSPost2010Prop54
  1
strokes_ogs.tif
102
RTVSPost2010PropOp54
 70
     1
102
RTVSPost2010Prop55
280
     0
102
RTVSPost2010PropOp55
 70
     1
102
RTVSPost2010Prop56
140
1.0
102
RTVSPost2010PropOp56
 70
     1
102
RTVSPost2010Prop57
140
1.0
102
RTVSPost2010PropOp57
 70
     1
  0
XRECORD
  5
3A0
102
{ACAD_REACTORS
330
39F
102
}
330
39F
100
AcDbXrecord
280
     1
102
RTVSPropertyOp0
 70
     0
102
RTVSPropertyOp1
 70
     0
102
RTVSPropertyOp2
 70
     0
102
RTVSPropertyOp3
 70
     0
102
RTVSPropertyOp4
 70
     0
102
RTVSPropertyOp5
 70
     0
102
RTVSPropertyOp6
 70
     0
102
RTVSPropertyOp7
 70
     0
102
RTVSPropertyOp8
 70
     0
102
RTVSPropertyOp9
 70
     0
102
RTVSPropertyOp10
 70
     0
102
RTVSPropertyOp11
 70
     0
102
RTVSPropertyOp12
 70
     0
102
RTVSPropertyOp13
 70
     0
102
RTVSPropertyOp14
 70
     2
102
RTVSPropertyOp15
 70
     0
102
RTVSPropertyOp16
 70
     0
102
RTVSPropertyOp17
 70
     0
102
RTVSPropertyOp18
 70
     0
102
RTVSPropertyOp19
 70
     0
102
RTVSPropertyOp20
 70
     0
102
RTVSPropertyOp21
 70
     0
102
RTVSPropertyOp22
 70
     0
102
RTVSPropertyOp23
 70
     0
102
RTVSPropertyOp24
 70
     0
102
RTVSPropertyOp25
 70
     0
102
RTVSPropertyOp26
 70
     0
102
RTVSPropertyOp27
 70
     0
102
RTVSPropertyOp28
 70
     0
102
RTVSPropertyOp29
 70
     0
102
RTVSPropertyOp30
 70
     0
102
RTVSPropertyOp31
 70
     0
102
RTVSPropertyOp32
 70
     0
102
RTVSPropertyOp33
 70
     0
102
RTVSPropertyOp34
 70
     0
102
RTVSPropertyOp35
 70
     0
102
RTVSPropertyOp36
 70
     0
102
RTVSPropertyOp37
 70
     0
102
RTVSPropertyOp38
 70
     0
102
RTVSPropertyOp39
 70
     0
102
RTVSPropertyOp40
 70
     0
102
RTVSPropertyOp41
 70
     0
102
RTVSPropertyOp42
 70
     0
102
RTVSPropertyOp43
 70
     0
102
RTVSPropertyOp44
 70
     0
102
RTVSPropertyOp45
 70
     0
102
RTVSPropertyOp46
 70
     0
102
RTVSPropertyOp47
 70
     0
102
RTVSPropertyOp48
 70
     0
102
RTVSPropertyOp49
 70
     0
102
RTVSPropertyOp50
 70
     0
102
RTVSPropertyOp51
 70
     0
102
RTVSPropertyOp52
 70
     0
102
RTVSPropertyOp53
 70
     0
102
RTVSPropertyOp54
 70
     0
102
RTVSPropertyOp55
 70
     0
102
RTVSPropertyOp56
 70
     0
102
RTVSPropertyOp57
 70
     0
102
RTVSPost2010Prop28
280
     0
102
RTVSPost2010PropOp28
 70
     0
102
RTVSPost2010Prop29
280
     1
102
RTVSPost2010PropOp29
 70
     0
102
RTVSPost2010Prop30
280
     1
102
RTVSPost2010PropOp30
 70
     0
102
RTVSPost2010Prop31
280
     0
102
RTVSPost2010PropOp31
 70
     0
102
RTVSPost2010Prop32
280
     0
102
RTVSPost2010PropOp32
 70
     0
102
RTVSPost2010Prop33
280
     0
102
RTVSPost2010PropOp33
 70
     0
102
RTVSPost2010Prop34
280
     0
102
RTVSPost2010PropOp34
 70
     0
102
RTVSPost2010Prop35
280
     0
102
RTVSPost2010PropOp35
 70
     0
102
RTVSPost2010Prop36
280
     0
102
RTVSPost2010PropOp36
 70
     0
102
RTVSPost2010Prop37
 90
       50
102
RTVSPost2010PropOp37
 70
     0
102
RTVSPost2010Prop38
140
0.0
102
RTVSPost2010PropOp38
 70
     0
102
RTVSPost2010Prop39
140
1.0
102
RTVSPost2010PropOp39
 70
     0
102
RTVSPost2010Prop40
 90
        0
102
RTVSPost2010PropOp40
 70
     0
102
RTVSPost2010Prop41ColorIndex
 90
       18
102
RTVSPost2010Prop41ColorRGB
 90
        0
102
RTVSPost2010PropOp41
 70
     0
102
RTVSPost2010Prop42
 90
       50
102
RTVSPost2010PropOp42
 70
     0
102
RTVSPost2010Prop43
 90
        3
102
RTVSPost2010PropOp43
 70
     0
102
RTVSPost2010Prop44ColorIndex
 90
        5
102
RTVSPost2010Prop44ColorRGB
 90
      255
102
RTVSPost2010PropOp44
 70
     0
102
RTVSPost2010Prop45
280
     0
102
RTVSPost2010PropOp45
 70
     0
102
RTVSPost2010Prop46
 90
       50
102
RTVSPost2010PropOp46
 70
     0
102
RTVSPost2010Prop47
 90
       50
102
RTVSPost2010PropOp47
 70
     0
102
RTVSPost2010Prop48
 90
       50
102
RTVSPost2010PropOp48
 70
     0
102
RTVSPost2010Prop49
280
     0
102
RTVSPost2010PropOp49
 70
     0
102
RTVSPost2010Prop50
 90
       50
102
RTVSPost2010PropOp50
 70
     0
102
RTVSPost2010Prop51ColorIndex
 90
      256
102
RTVSPost2010Prop51ColorRGB
 90
-16777216
102
RTVSPost2010PropOp51
 70
     0
102
RTVSPost2010Prop52
140
1.0
102
RTVSPost2010PropOp52
 70
     0
102
RTVSPost2010Prop53
 90
        2
102
RTVSPost2010PropOp53
 70
     0
102
RTVSPost2010Prop54
  1
strokes_ogs.tif
102
RTVSPost2010PropOp54
 70
     0
102
RTVSPost2010Prop55
280
     0
102
RTVSPost2010PropOp55
 70
     0
102
RTVSPost2010Prop56
140
1.0
102
RTVSPost2010PropOp56
 70
     0
102
RTVSPost2010Prop57
140
1.0
102
RTVSPost2010PropOp57
 70
     0
  0
XRECORD
  5
398
102
{ACAD_REACTORS
330
397
102
}
330
397
100
AcDbXrecord
280
     1
102
RTVSPropertyOp0
 70
     1
102
RTVSPropertyOp1
 70
     1
102
RTVSPropertyOp2
 70
     1
102
RTVSPropertyOp3
 70
     1
102
RTVSPropertyOp4
 70
     1
102
RTVSPropertyOp5
 70
     1
102
RTVSPropertyOp6
 70
     1
102
RTVSPropertyOp7
 70
     1
102
RTVSPropertyOp8
 70
     1
102
RTVSPropertyOp9
 70
     1
102
RTVSPropertyOp10
 70
     1
102
RTVSPropertyOp11
 70
     1
102
RTVSPropertyOp12
 70
     1
102
RTVSPropertyOp13
 70
     1
102
RTVSPropertyOp14
 70
     1
102
RTVSPropertyOp15
 70
     1
102
RTVSPropertyOp16
 70
     1
102
RTVSPropertyOp17
 70
     1
102
RTVSPropertyOp18
 70
     1
102
RTVSPropertyOp19
 70
     1
102
RTVSPropertyOp20
 70
     1
102
RTVSPropertyOp21
 70
     1
102
RTVSPropertyOp22
 70
     1
102
RTVSPropertyOp23
 70
     1
102
RTVSPropertyOp24
 70
     1
102
RTVSPropertyOp25
 70
     1
102
RTVSPropertyOp26
 70
     1
102
RTVSPropertyOp27
 70
     1
102
RTVSPropertyOp28
 70
     1
102
RTVSPropertyOp29
 70
     1
102
RTVSPropertyOp30
 70
     1
102
RTVSPropertyOp31
 70
     1
102
RTVSPropertyOp32
 70
     1
102
RTVSPropertyOp33
 70
     1
102
RTVSPropertyOp34
 70
     1
102
RTVSPropertyOp35
 70
     1
102
RTVSPropertyOp36
 70
     1
102
RTVSPropertyOp37
 70
     1
102
RTVSPropertyOp38
 70
     1
102
RTVSPropertyOp39
 70
     1
102
RTVSPropertyOp40
 70
     1
102
RTVSPropertyOp41
 70
     1
102
RTVSPropertyOp42
 70
     1
102
RTVSPropertyOp43
 70
     1
102
RTVSPropertyOp44
 70
     1
102
RTVSPropertyOp45
 70
     1
102
RTVSPropertyOp46
 70
     1
102
RTVSPropertyOp47
 70
     1
102
RTVSPropertyOp48
 70
     1
102
RTVSPropertyOp49
 70
     1
102
RTVSPropertyOp50
 70
     1
102
RTVSPropertyOp51
 70
     0
102
RTVSPropertyOp52
 70
     0
102
RTVSPropertyOp53
 70
     1
102
RTVSPropertyOp54
 70
     1
102
RTVSPropertyOp55
 70
     1
102
RTVSPropertyOp56
 70
     1
102
RTVSPropertyOp57
 70
     1
102
RTVSPost2010Prop28
280
     0
102
RTVSPost2010PropOp28
 70
     1
102
RTVSPost2010Prop29
280
     1
102
RTVSPost2010PropOp29
 70
     1
102
RTVSPost2010Prop30
280
     1
102
RTVSPost2010PropOp30
 70
     1
102
RTVSPost2010Prop31
280
     0
102
RTVSPost2010PropOp31
 70
     1
102
RTVSPost2010Prop32
280
     0
102
RTVSPost2010PropOp32
 70
     1
102
RTVSPost2010Prop33
280
     0
102
RTVSPost2010PropOp33
 70
     1
102
RTVSPost2010Prop34
280
     0
102
RTVSPost2010PropOp34
 70
     1
102
RTVSPost2010Prop35
280
     0
102
RTVSPost2010PropOp35
 70
     1
102
RTVSPost2010Prop36
280
     0
102
RTVSPost2010PropOp36
 70
     1
102
RTVSPost2010Prop37
 90
       50
102
RTVSPost2010PropOp37
 70
     1
102
RTVSPost2010Prop38
140
0.0
102
RTVSPost2010PropOp38
 70
     1
102
RTVSPost2010Prop39
140
1.0
102
RTVSPost2010PropOp39
 70
     1
102
RTVSPost2010Prop40
 90
        0
102
RTVSPost2010PropOp40
 70
     1
102
RTVSPost2010Prop41ColorIndex
 90
       18
102
RTVSPost2010Prop41ColorRGB
 90
        0
102
RTVSPost2010PropOp41
 70
     1
102
RTVSPost2010Prop42
 90
       50
102
RTVSPost2010PropOp42
 70
     1
102
RTVSPost2010Prop43
 90
        3
102
RTVSPost2010PropOp43
 70
     1
102
RTVSPost2010Prop44ColorIndex
 90
        5
102
RTVSPost2010Prop44ColorRGB
 90
      255
102
RTVSPost2010PropOp44
 70
     1
102
RTVSPost2010Prop45
280
     0
102
RTVSPost2010PropOp45
 70
     1
102
RTVSPost2010Prop46
 90
       50
102
RTVSPost2010PropOp46
 70
     1
102
RTVSPost2010Prop47
 90
       50
102
RTVSPost2010PropOp47
 70
     1
102
RTVSPost2010Prop48
 90
       50
102
RTVSPost2010PropOp48
 70
     1
102
RTVSPost2010Prop49
280
     0
102
RTVSPost2010PropOp49
 70
     1
102
RTVSPost2010Prop50
 90
       50
102
RTVSPost2010PropOp50
 70
     1
102
RTVSPost2010Prop51ColorIndex
 90
      256
102
RTVSPost2010Prop51ColorRGB
 90
-16777216
102
RTVSPost2010PropOp51
 70
     0
102
RTVSPost2010Prop52
140
1.0
102
RTVSPost2010PropOp52
 70
     0
102
RTVSPost2010Prop53
 90
        2
102
RTVSPost2010PropOp53
 70
     1
102
RTVSPost2010Prop54
  1
strokes_ogs.tif
102
RTVSPost2010PropOp54
 70
     1
102
RTVSPost2010Prop55
280
     0
102
RTVSPost2010PropOp55
 70
     1
102
RTVSPost2010Prop56
140
1.0
102
RTVSPost2010PropOp56
 70
     1
102
RTVSPost2010Prop57
140
1.0
102
RTVSPost2010PropOp57
 70
     1
  0
XRECORD
  5
37C
102
{ACAD_REACTORS
330
37B
102
}
330
37B
100
AcDbXrecord
280
     1
102
RTVSPropertyOp0
 70
     1
102
RTVSPropertyOp1
 70
     1
102
RTVSPropertyOp2
 70
     1
102
RTVSPropertyOp3
 70
     1
102
RTVSPropertyOp4
 70
     1
102
RTVSPropertyOp5
 70
     1
102
RTVSPropertyOp6
 70
     1
102
RTVSPropertyOp7
 70
     1
102
RTVSPropertyOp8
 70
     1
102
RTVSPropertyOp9
 70
     1
102
RTVSPropertyOp10
 70
     1
102
RTVSPropertyOp11
 70
     1
102
RTVSPropertyOp12
 70
     1
102
RTVSPropertyOp13
 70
     1
102
RTVSPropertyOp14
 70
     1
102
RTVSPropertyOp15
 70
     1
102
RTVSPropertyOp16
 70
     1
102
RTVSPropertyOp17
 70
     1
102
RTVSPropertyOp18
 70
     1
102
RTVSPropertyOp19
 70
     1
102
RTVSPropertyOp20
 70
     1
102
RTVSPropertyOp21
 70
     1
102
RTVSPropertyOp22
 70
     1
102
RTVSPropertyOp23
 70
     1
102
RTVSPropertyOp24
 70
     1
102
RTVSPropertyOp25
 70
     1
102
RTVSPropertyOp26
 70
     1
102
RTVSPropertyOp27
 70
     1
102
RTVSPropertyOp28
 70
     1
102
RTVSPropertyOp29
 70
     1
102
RTVSPropertyOp30
 70
     1
102
RTVSPropertyOp31
 70
     1
102
RTVSPropertyOp32
 70
     1
102
RTVSPropertyOp33
 70
     1
102
RTVSPropertyOp34
 70
     1
102
RTVSPropertyOp35
 70
     1
102
RTVSPropertyOp36
 70
     1
102
RTVSPropertyOp37
 70
     1
102
RTVSPropertyOp38
 70
     1
102
RTVSPropertyOp39
 70
     1
102
RTVSPropertyOp40
 70
     1
102
RTVSPropertyOp41
 70
     1
102
RTVSPropertyOp42
 70
     1
102
RTVSPropertyOp43
 70
     1
102
RTVSPropertyOp44
 70
     1
102
RTVSPropertyOp45
 70
     1
102
RTVSPropertyOp46
 70
     1
102
RTVSPropertyOp47
 70
     1
102
RTVSPropertyOp48
 70
     1
102
RTVSPropertyOp49
 70
     1
102
RTVSPropertyOp50
 70
     1
102
RTVSPropertyOp51
 70
     0
102
RTVSPropertyOp52
 70
     0
102
RTVSPropertyOp53
 70
     1
102
RTVSPropertyOp54
 70
     1
102
RTVSPropertyOp55
 70
     1
102
RTVSPropertyOp56
 70
     1
102
RTVSPropertyOp57
 70
     1
102
RTVSPost2010Prop28
280
     0
102
RTVSPost2010PropOp28
 70
     1
102
RTVSPost2010Prop29
280
     1
102
RTVSPost2010PropOp29
 70
     1
102
RTVSPost2010Prop30
280
     1
102
RTVSPost2010PropOp30
 70
     1
102
RTVSPost2010Prop31
280
     0
102
RTVSPost2010PropOp31
 70
     1
102
RTVSPost2010Prop32
280
     0
102
RTVSPost2010PropOp32
 70
     1
102
RTVSPost2010Prop33
280
     0
102
RTVSPost2010PropOp33
 70
     1
102
RTVSPost2010Prop34
280
     0
102
RTVSPost2010PropOp34
 70
     1
102
RTVSPost2010Prop35
280
     0
102
RTVSPost2010PropOp35
 70
     1
102
RTVSPost2010Prop36
280
     0
102
RTVSPost2010PropOp36
 70
     1
102
RTVSPost2010Prop37
 90
       50
102
RTVSPost2010PropOp37
 70
     1
102
RTVSPost2010Prop38
140
0.0
102
RTVSPost2010PropOp38
 70
     1
102
RTVSPost2010Prop39
140
1.0
102
RTVSPost2010PropOp39
 70
     1
102
RTVSPost2010Prop40
 90
        0
102
RTVSPost2010PropOp40
 70
     1
102
RTVSPost2010Prop41ColorIndex
 90
       18
102
RTVSPost2010Prop41ColorRGB
 90
        0
102
RTVSPost2010PropOp41
 70
     1
102
RTVSPost2010Prop42
 90
       50
102
RTVSPost2010PropOp42
 70
     1
102
RTVSPost2010Prop43
 90
        3
102
RTVSPost2010PropOp43
 70
     1
102
RTVSPost2010Prop44ColorIndex
 90
        5
102
RTVSPost2010Prop44ColorRGB
 90
      255
102
RTVSPost2010PropOp44
 70
     1
102
RTVSPost2010Prop45
280
     0
102
RTVSPost2010PropOp45
 70
     1
102
RTVSPost2010Prop46
 90
       50
102
RTVSPost2010PropOp46
 70
     1
102
RTVSPost2010Prop47
 90
       50
102
RTVSPost2010PropOp47
 70
     1
102
RTVSPost2010Prop48
 90
       50
102
RTVSPost2010PropOp48
 70
     1
102
RTVSPost2010Prop49
280
     0
102
RTVSPost2010PropOp49
 70
     1
102
RTVSPost2010Prop50
 90
       50
102
RTVSPost2010PropOp50
 70
     1
102
RTVSPost2010Prop51ColorIndex
 90
      256
102
RTVSPost2010Prop51ColorRGB
 90
-16777216
102
RTVSPost2010PropOp51
 70
     0
102
RTVSPost2010Prop52
140
1.0
102
RTVSPost2010PropOp52
 70
     0
102
RTVSPost2010Prop53
 90
        2
102
RTVSPost2010PropOp53
 70
     1
102
RTVSPost2010Prop54
  1
strokes_ogs.tif
102
RTVSPost2010PropOp54
 70
     1
102
RTVSPost2010Prop55
280
     0
102
RTVSPost2010PropOp55
 70
     1
102
RTVSPost2010Prop56
140
1.0
102
RTVSPost2010PropOp56
 70
     1
102
RTVSPost2010Prop57
140
1.0
102
RTVSPost2010PropOp57
 70
     1
  0
XRECORD
  5
37E
102
{ACAD_REACTORS
330
37D
102
}
330
37D
100
AcDbXrecord
280
     1
102
RTVSPropertyOp0
 70
     1
102
RTVSPropertyOp1
 70
     1
102
RTVSPropertyOp2
 70
     1
102
RTVSPropertyOp3
 70
     1
102
RTVSPropertyOp4
 70
     1
102
RTVSPropertyOp5
 70
     1
102
RTVSPropertyOp6
 70
     1
102
RTVSPropertyOp7
 70
     1
102
RTVSPropertyOp8
 70
     1
102
RTVSPropertyOp9
 70
     1
102
RTVSPropertyOp10
 70
     1
102
RTVSPropertyOp11
 70
     1
102
RTVSPropertyOp12
 70
     1
102
RTVSPropertyOp13
 70
     1
102
RTVSPropertyOp14
 70
     1
102
RTVSPropertyOp15
 70
     1
102
RTVSPropertyOp16
 70
     1
102
RTVSPropertyOp17
 70
     1
102
RTVSPropertyOp18
 70
     1
102
RTVSPropertyOp19
 70
     1
102
RTVSPropertyOp20
 70
     1
102
RTVSPropertyOp21
 70
     1
102
RTVSPropertyOp22
 70
     1
102
RTVSPropertyOp23
 70
     1
102
RTVSPropertyOp24
 70
     1
102
RTVSPropertyOp25
 70
     1
102
RTVSPropertyOp26
 70
     1
102
RTVSPropertyOp27
 70
     1
102
RTVSPropertyOp28
 70
     1
102
RTVSPropertyOp29
 70
     1
102
RTVSPropertyOp30
 70
     1
102
RTVSPropertyOp31
 70
     1
102
RTVSPropertyOp32
 70
     1
102
RTVSPropertyOp33
 70
     1
102
RTVSPropertyOp34
 70
     1
102
RTVSPropertyOp35
 70
     1
102
RTVSPropertyOp36
 70
     1
102
RTVSPropertyOp37
 70
     1
102
RTVSPropertyOp38
 70
     1
102
RTVSPropertyOp39
 70
     1
102
RTVSPropertyOp40
 70
     1
102
RTVSPropertyOp41
 70
     1
102
RTVSPropertyOp42
 70
     1
102
RTVSPropertyOp43
 70
     1
102
RTVSPropertyOp44
 70
     1
102
RTVSPropertyOp45
 70
     1
102
RTVSPropertyOp46
 70
     1
102
RTVSPropertyOp47
 70
     1
102
RTVSPropertyOp48
 70
     1
102
RTVSPropertyOp49
 70
     1
102
RTVSPropertyOp50
 70
     1
102
RTVSPropertyOp51
 70
     0
102
RTVSPropertyOp52
 70
     0
102
RTVSPropertyOp53
 70
     1
102
RTVSPropertyOp54
 70
     1
102
RTVSPropertyOp55
 70
     1
102
RTVSPropertyOp56
 70
     1
102
RTVSPropertyOp57
 70
     1
102
RTVSPost2010Prop28
280
     0
102
RTVSPost2010PropOp28
 70
     1
102
RTVSPost2010Prop29
280
     1
102
RTVSPost2010PropOp29
 70
     1
102
RTVSPost2010Prop30
280
     1
102
RTVSPost2010PropOp30
 70
     1
102
RTVSPost2010Prop31
280
     0
102
RTVSPost2010PropOp31
 70
     1
102
RTVSPost2010Prop32
280
     0
102
RTVSPost2010PropOp32
 70
     1
102
RTVSPost2010Prop33
280
     0
102
RTVSPost2010PropOp33
 70
     1
102
RTVSPost2010Prop34
280
     0
102
RTVSPost2010PropOp34
 70
     1
102
RTVSPost2010Prop35
280
     0
102
RTVSPost2010PropOp35
 70
     1
102
RTVSPost2010Prop36
280
     0
102
RTVSPost2010PropOp36
 70
     1
102
RTVSPost2010Prop37
 90
       50
102
RTVSPost2010PropOp37
 70
     1
102
RTVSPost2010Prop38
140
0.0
102
RTVSPost2010PropOp38
 70
     1
102
RTVSPost2010Prop39
140
1.0
102
RTVSPost2010PropOp39
 70
     1
102
RTVSPost2010Prop40
 90
        0
102
RTVSPost2010PropOp40
 70
     1
102
RTVSPost2010Prop41ColorIndex
 90
       18
102
RTVSPost2010Prop41ColorRGB
 90
        0
102
RTVSPost2010PropOp41
 70
     1
102
RTVSPost2010Prop42
 90
       50
102
RTVSPost2010PropOp42
 70
     1
102
RTVSPost2010Prop43
 90
        3
102
RTVSPost2010PropOp43
 70
     1
102
RTVSPost2010Prop44ColorIndex
 90
        5
102
RTVSPost2010Prop44ColorRGB
 90
      255
102
RTVSPost2010PropOp44
 70
     1
102
RTVSPost2010Prop45
280
     0
102
RTVSPost2010PropOp45
 70
     1
102
RTVSPost2010Prop46
 90
       50
102
RTVSPost2010PropOp46
 70
     1
102
RTVSPost2010Prop47
 90
       50
102
RTVSPost2010PropOp47
 70
     1
102
RTVSPost2010Prop48
 90
       50
102
RTVSPost2010PropOp48
 70
     1
102
RTVSPost2010Prop49
280
     0
102
RTVSPost2010PropOp49
 70
     1
102
RTVSPost2010Prop50
 90
       50
102
RTVSPost2010PropOp50
 70
     1
102
RTVSPost2010Prop51ColorIndex
 90
      256
102
RTVSPost2010Prop51ColorRGB
 90
-16777216
102
RTVSPost2010PropOp51
 70
     0
102
RTVSPost2010Prop52
140
1.0
102
RTVSPost2010PropOp52
 70
     0
102
RTVSPost2010Prop53
 90
        2
102
RTVSPost2010PropOp53
 70
     1
102
RTVSPost2010Prop54
  1
strokes_ogs.tif
102
RTVSPost2010PropOp54
 70
     1
102
RTVSPost2010Prop55
280
     0
102
RTVSPost2010PropOp55
 70
     1
102
RTVSPost2010Prop56
140
1.0
102
RTVSPost2010PropOp56
 70
     1
102
RTVSPost2010Prop57
140
1.0
102
RTVSPost2010PropOp57
 70
     1
  0
XRECORD
  5
380
102
{ACAD_REACTORS
330
37F
102
}
330
37F
100
AcDbXrecord
280
     1
102
RTVSPropertyOp0
 70
     1
102
RTVSPropertyOp1
 70
     1
102
RTVSPropertyOp2
 70
     1
102
RTVSPropertyOp3
 70
     1
102
RTVSPropertyOp4
 70
     1
102
RTVSPropertyOp5
 70
     1
102
RTVSPropertyOp6
 70
     1
102
RTVSPropertyOp7
 70
     1
102
RTVSPropertyOp8
 70
     1
102
RTVSPropertyOp9
 70
     1
102
RTVSPropertyOp10
 70
     1
102
RTVSPropertyOp11
 70
     1
102
RTVSPropertyOp12
 70
     1
102
RTVSPropertyOp13
 70
     1
102
RTVSPropertyOp14
 70
     1
102
RTVSPropertyOp15
 70
     1
102
RTVSPropertyOp16
 70
     1
102
RTVSPropertyOp17
 70
     1
102
RTVSPropertyOp18
 70
     1
102
RTVSPropertyOp19
 70
     1
102
RTVSPropertyOp20
 70
     1
102
RTVSPropertyOp21
 70
     1
102
RTVSPropertyOp22
 70
     1
102
RTVSPropertyOp23
 70
     1
102
RTVSPropertyOp24
 70
     1
102
RTVSPropertyOp25
 70
     1
102
RTVSPropertyOp26
 70
     1
102
RTVSPropertyOp27
 70
     1
102
RTVSPropertyOp28
 70
     1
102
RTVSPropertyOp29
 70
     1
102
RTVSPropertyOp30
 70
     1
102
RTVSPropertyOp31
 70
     1
102
RTVSPropertyOp32
 70
     1
102
RTVSPropertyOp33
 70
     1
102
RTVSPropertyOp34
 70
     1
102
RTVSPropertyOp35
 70
     1
102
RTVSPropertyOp36
 70
     1
102
RTVSPropertyOp37
 70
     1
102
RTVSPropertyOp38
 70
     1
102
RTVSPropertyOp39
 70
     1
102
RTVSPropertyOp40
 70
     1
102
RTVSPropertyOp41
 70
     1
102
RTVSPropertyOp42
 70
     1
102
RTVSPropertyOp43
 70
     1
102
RTVSPropertyOp44
 70
     1
102
RTVSPropertyOp45
 70
     1
102
RTVSPropertyOp46
 70
     1
102
RTVSPropertyOp47
 70
     1
102
RTVSPropertyOp48
 70
     1
102
RTVSPropertyOp49
 70
     1
102
RTVSPropertyOp50
 70
     1
102
RTVSPropertyOp51
 70
     0
102
RTVSPropertyOp52
 70
     0
102
RTVSPropertyOp53
 70
     1
102
RTVSPropertyOp54
 70
     1
102
RTVSPropertyOp55
 70
     1
102
RTVSPropertyOp56
 70
     1
102
RTVSPropertyOp57
 70
     1
102
RTVSPost2010Prop28
280
     0
102
RTVSPost2010PropOp28
 70
     1
102
RTVSPost2010Prop29
280
     1
102
RTVSPost2010PropOp29
 70
     1
102
RTVSPost2010Prop30
280
     1
102
RTVSPost2010PropOp30
 70
     1
102
RTVSPost2010Prop31
280
     0
102
RTVSPost2010PropOp31
 70
     1
102
RTVSPost2010Prop32
280
     0
102
RTVSPost2010PropOp32
 70
     1
102
RTVSPost2010Prop33
280
     0
102
RTVSPost2010PropOp33
 70
     1
102
RTVSPost2010Prop34
280
     0
102
RTVSPost2010PropOp34
 70
     1
102
RTVSPost2010Prop35
280
     0
102
RTVSPost2010PropOp35
 70
     1
102
RTVSPost2010Prop36
280
     0
102
RTVSPost2010PropOp36
 70
     1
102
RTVSPost2010Prop37
 90
       50
102
RTVSPost2010PropOp37
 70
     1
102
RTVSPost2010Prop38
140
0.0
102
RTVSPost2010PropOp38
 70
     1
102
RTVSPost2010Prop39
140
1.0
102
RTVSPost2010PropOp39
 70
     1
102
RTVSPost2010Prop40
 90
        0
102
RTVSPost2010PropOp40
 70
     1
102
RTVSPost2010Prop41ColorIndex
 90
       18
102
RTVSPost2010Prop41ColorRGB
 90
        0
102
RTVSPost2010PropOp41
 70
     1
102
RTVSPost2010Prop42
 90
       50
102
RTVSPost2010PropOp42
 70
     1
102
RTVSPost2010Prop43
 90
        3
102
RTVSPost2010PropOp43
 70
     1
102
RTVSPost2010Prop44ColorIndex
 90
        5
102
RTVSPost2010Prop44ColorRGB
 90
      255
102
RTVSPost2010PropOp44
 70
     1
102
RTVSPost2010Prop45
280
     0
102
RTVSPost2010PropOp45
 70
     1
102
RTVSPost2010Prop46
 90
       50
102
RTVSPost2010PropOp46
 70
     1
102
RTVSPost2010Prop47
 90
       50
102
RTVSPost2010PropOp47
 70
     1
102
RTVSPost2010Prop48
 90
       50
102
RTVSPost2010PropOp48
 70
     1
102
RTVSPost2010Prop49
280
     0
102
RTVSPost2010PropOp49
 70
     1
102
RTVSPost2010Prop50
 90
       50
102
RTVSPost2010PropOp50
 70
     1
102
RTVSPost2010Prop51ColorIndex
 90
      256
102
RTVSPost2010Prop51ColorRGB
 90
-16777216
102
RTVSPost2010PropOp51
 70
     0
102
RTVSPost2010Prop52
140
1.0
102
RTVSPost2010PropOp52
 70
     0
102
RTVSPost2010Prop53
 90
        2
102
RTVSPost2010PropOp53
 70
     1
102
RTVSPost2010Prop54
  1
strokes_ogs.tif
102
RTVSPost2010PropOp54
 70
     1
102
RTVSPost2010Prop55
280
     0
102
RTVSPost2010PropOp55
 70
     1
102
RTVSPost2010Prop56
140
1.0
102
RTVSPost2010PropOp56
 70
     1
102
RTVSPost2010Prop57
140
1.0
102
RTVSPost2010PropOp57
 70
     1
  0
XRECORD
  5
382
102
{ACAD_REACTORS
330
381
102
}
330
381
100
AcDbXrecord
280
     1
102
RTVSPropertyOp0
 70
     1
102
RTVSPropertyOp1
 70
     1
102
RTVSPropertyOp2
 70
     1
102
RTVSPropertyOp3
 70
     1
102
RTVSPropertyOp4
 70
     1
102
RTVSPropertyOp5
 70
     1
102
RTVSPropertyOp6
 70
     1
102
RTVSPropertyOp7
 70
     1
102
RTVSPropertyOp8
 70
     1
102
RTVSPropertyOp9
 70
     1
102
RTVSPropertyOp10
 70
     1
102
RTVSPropertyOp11
 70
     1
102
RTVSPropertyOp12
 70
     1
102
RTVSPropertyOp13
 70
     1
102
RTVSPropertyOp14
 70
     1
102
RTVSPropertyOp15
 70
     1
102
RTVSPropertyOp16
 70
     1
102
RTVSPropertyOp17
 70
     1
102
RTVSPropertyOp18
 70
     1
102
RTVSPropertyOp19
 70
     1
102
RTVSPropertyOp20
 70
     1
102
RTVSPropertyOp21
 70
     1
102
RTVSPropertyOp22
 70
     1
102
RTVSPropertyOp23
 70
     1
102
RTVSPropertyOp24
 70
     1
102
RTVSPropertyOp25
 70
     1
102
RTVSPropertyOp26
 70
     1
102
RTVSPropertyOp27
 70
     1
102
RTVSPropertyOp28
 70
     1
102
RTVSPropertyOp29
 70
     1
102
RTVSPropertyOp30
 70
     1
102
RTVSPropertyOp31
 70
     1
102
RTVSPropertyOp32
 70
     1
102
RTVSPropertyOp33
 70
     1
102
RTVSPropertyOp34
 70
     1
102
RTVSPropertyOp35
 70
     1
102
RTVSPropertyOp36
 70
     1
102
RTVSPropertyOp37
 70
     1
102
RTVSPropertyOp38
 70
     1
102
RTVSPropertyOp39
 70
     1
102
RTVSPropertyOp40
 70
     1
102
RTVSPropertyOp41
 70
     1
102
RTVSPropertyOp42
 70
     1
102
RTVSPropertyOp43
 70
     1
102
RTVSPropertyOp44
 70
     1
102
RTVSPropertyOp45
 70
     1
102
RTVSPropertyOp46
 70
     1
102
RTVSPropertyOp47
 70
     1
102
RTVSPropertyOp48
 70
     1
102
RTVSPropertyOp49
 70
     1
102
RTVSPropertyOp50
 70
     1
102
RTVSPropertyOp51
 70
     0
102
RTVSPropertyOp52
 70
     0
102
RTVSPropertyOp53
 70
     1
102
RTVSPropertyOp54
 70
     1
102
RTVSPropertyOp55
 70
     1
102
RTVSPropertyOp56
 70
     1
102
RTVSPropertyOp57
 70
     1
102
RTVSPost2010Prop28
280
     0
102
RTVSPost2010PropOp28
 70
     1
102
RTVSPost2010Prop29
280
     1
102
RTVSPost2010PropOp29
 70
     1
102
RTVSPost2010Prop30
280
     1
102
RTVSPost2010PropOp30
 70
     1
102
RTVSPost2010Prop31
280
     0
102
RTVSPost2010PropOp31
 70
     1
102
RTVSPost2010Prop32
280
     0
102
RTVSPost2010PropOp32
 70
     1
102
RTVSPost2010Prop33
280
     0
102
RTVSPost2010PropOp33
 70
     1
102
RTVSPost2010Prop34
280
     0
102
RTVSPost2010PropOp34
 70
     1
102
RTVSPost2010Prop35
280
     0
102
RTVSPost2010PropOp35
 70
     1
102
RTVSPost2010Prop36
280
     0
102
RTVSPost2010PropOp36
 70
     1
102
RTVSPost2010Prop37
 90
       50
102
RTVSPost2010PropOp37
 70
     1
102
RTVSPost2010Prop38
140
0.0
102
RTVSPost2010PropOp38
 70
     1
102
RTVSPost2010Prop39
140
1.0
102
RTVSPost2010PropOp39
 70
     1
102
RTVSPost2010Prop40
 90
        0
102
RTVSPost2010PropOp40
 70
     1
102
RTVSPost2010Prop41ColorIndex
 90
       18
102
RTVSPost2010Prop41ColorRGB
 90
        0
102
RTVSPost2010PropOp41
 70
     1
102
RTVSPost2010Prop42
 90
       50
102
RTVSPost2010PropOp42
 70
     1
102
RTVSPost2010Prop43
 90
        3
102
RTVSPost2010PropOp43
 70
     1
102
RTVSPost2010Prop44ColorIndex
 90
        5
102
RTVSPost2010Prop44ColorRGB
 90
      255
102
RTVSPost2010PropOp44
 70
     1
102
RTVSPost2010Prop45
280
     0
102
RTVSPost2010PropOp45
 70
     1
102
RTVSPost2010Prop46
 90
       50
102
RTVSPost2010PropOp46
 70
     1
102
RTVSPost2010Prop47
 90
       50
102
RTVSPost2010PropOp47
 70
     1
102
RTVSPost2010Prop48
 90
       50
102
RTVSPost2010PropOp48
 70
     1
102
RTVSPost2010Prop49
280
     0
102
RTVSPost2010PropOp49
 70
     1
102
RTVSPost2010Prop50
 90
       50
102
RTVSPost2010PropOp50
 70
     1
102
RTVSPost2010Prop51ColorIndex
 90
      256
102
RTVSPost2010Prop51ColorRGB
 90
-16777216
102
RTVSPost2010PropOp51
 70
     0
102
RTVSPost2010Prop52
140
1.0
102
RTVSPost2010PropOp52
 70
     0
102
RTVSPost2010Prop53
 90
        2
102
RTVSPost2010PropOp53
 70
     1
102
RTVSPost2010Prop54
  1
strokes_ogs.tif
102
RTVSPost2010PropOp54
 70
     1
102
RTVSPost2010Prop55
280
     0
102
RTVSPost2010PropOp55
 70
     1
102
RTVSPost2010Prop56
140
1.0
102
RTVSPost2010PropOp56
 70
     1
102
RTVSPost2010Prop57
140
1.0
102
RTVSPost2010PropOp57
 70
     1
  0
XRECORD
  5
388
102
{ACAD_REACTORS
330
387
102
}
330
387
100
AcDbXrecord
280
     1
102
RTVSPropertyOp0
 70
     1
102
RTVSPropertyOp1
 70
     1
102
RTVSPropertyOp2
 70
     1
102
RTVSPropertyOp3
 70
     1
102
RTVSPropertyOp4
 70
     1
102
RTVSPropertyOp5
 70
     1
102
RTVSPropertyOp6
 70
     1
102
RTVSPropertyOp7
 70
     1
102
RTVSPropertyOp8
 70
     1
102
RTVSPropertyOp9
 70
     1
102
RTVSPropertyOp10
 70
     1
102
RTVSPropertyOp11
 70
     1
102
RTVSPropertyOp12
 70
     1
102
RTVSPropertyOp13
 70
     1
102
RTVSPropertyOp14
 70
     1
102
RTVSPropertyOp15
 70
     1
102
RTVSPropertyOp16
 70
     1
102
RTVSPropertyOp17
 70
     1
102
RTVSPropertyOp18
 70
     1
102
RTVSPropertyOp19
 70
     1
102
RTVSPropertyOp20
 70
     1
102
RTVSPropertyOp21
 70
     1
102
RTVSPropertyOp22
 70
     1
102
RTVSPropertyOp23
 70
     1
102
RTVSPropertyOp24
 70
     1
102
RTVSPropertyOp25
 70
     1
102
RTVSPropertyOp26
 70
     1
102
RTVSPropertyOp27
 70
     1
102
RTVSPropertyOp28
 70
     1
102
RTVSPropertyOp29
 70
     1
102
RTVSPropertyOp30
 70
     1
102
RTVSPropertyOp31
 70
     1
102
RTVSPropertyOp32
 70
     1
102
RTVSPropertyOp33
 70
     1
102
RTVSPropertyOp34
 70
     1
102
RTVSPropertyOp35
 70
     1
102
RTVSPropertyOp36
 70
     1
102
RTVSPropertyOp37
 70
     1
102
RTVSPropertyOp38
 70
     1
102
RTVSPropertyOp39
 70
     1
102
RTVSPropertyOp40
 70
     1
102
RTVSPropertyOp41
 70
     1
102
RTVSPropertyOp42
 70
     1
102
RTVSPropertyOp43
 70
     1
102
RTVSPropertyOp44
 70
     1
102
RTVSPropertyOp45
 70
     1
102
RTVSPropertyOp46
 70
     1
102
RTVSPropertyOp47
 70
     1
102
RTVSPropertyOp48
 70
     1
102
RTVSPropertyOp49
 70
     1
102
RTVSPropertyOp50
 70
     1
102
RTVSPropertyOp51
 70
     0
102
RTVSPropertyOp52
 70
     0
102
RTVSPropertyOp53
 70
     1
102
RTVSPropertyOp54
 70
     1
102
RTVSPropertyOp55
 70
     1
102
RTVSPropertyOp56
 70
     1
102
RTVSPropertyOp57
 70
     1
102
RTVSPost2010Prop28
280
     0
102
RTVSPost2010PropOp28
 70
     1
102
RTVSPost2010Prop29
280
     1
102
RTVSPost2010PropOp29
 70
     1
102
RTVSPost2010Prop30
280
     1
102
RTVSPost2010PropOp30
 70
     1
102
RTVSPost2010Prop31
280
     0
102
RTVSPost2010PropOp31
 70
     1
102
RTVSPost2010Prop32
280
     0
102
RTVSPost2010PropOp32
 70
     1
102
RTVSPost2010Prop33
280
     0
102
RTVSPost2010PropOp33
 70
     1
102
RTVSPost2010Prop34
280
     0
102
RTVSPost2010PropOp34
 70
     1
102
RTVSPost2010Prop35
280
     0
102
RTVSPost2010PropOp35
 70
     1
102
RTVSPost2010Prop36
280
     0
102
RTVSPost2010PropOp36
 70
     1
102
RTVSPost2010Prop37
 90
       50
102
RTVSPost2010PropOp37
 70
     1
102
RTVSPost2010Prop38
140
0.0
102
RTVSPost2010PropOp38
 70
     1
102
RTVSPost2010Prop39
140
1.0
102
RTVSPost2010PropOp39
 70
     1
102
RTVSPost2010Prop40
 90
        0
102
RTVSPost2010PropOp40
 70
     1
102
RTVSPost2010Prop41ColorIndex
 90
       18
102
RTVSPost2010Prop41ColorRGB
 90
        0
102
RTVSPost2010PropOp41
 70
     1
102
RTVSPost2010Prop42
 90
       50
102
RTVSPost2010PropOp42
 70
     1
102
RTVSPost2010Prop43
 90
        3
102
RTVSPost2010PropOp43
 70
     1
102
RTVSPost2010Prop44ColorIndex
 90
        5
102
RTVSPost2010Prop44ColorRGB
 90
      255
102
RTVSPost2010PropOp44
 70
     1
102
RTVSPost2010Prop45
280
     0
102
RTVSPost2010PropOp45
 70
     1
102
RTVSPost2010Prop46
 90
       50
102
RTVSPost2010PropOp46
 70
     1
102
RTVSPost2010Prop47
 90
       50
102
RTVSPost2010PropOp47
 70
     1
102
RTVSPost2010Prop48
 90
       50
102
RTVSPost2010PropOp48
 70
     1
102
RTVSPost2010Prop49
280
     0
102
RTVSPost2010PropOp49
 70
     1
102
RTVSPost2010Prop50
 90
       50
102
RTVSPost2010PropOp50
 70
     1
102
RTVSPost2010Prop51ColorIndex
 90
      256
102
RTVSPost2010Prop51ColorRGB
 90
-16777216
102
RTVSPost2010PropOp51
 70
     0
102
RTVSPost2010Prop52
140
1.0
102
RTVSPost2010PropOp52
 70
     0
102
RTVSPost2010Prop53
 90
        2
102
RTVSPost2010PropOp53
 70
     1
102
RTVSPost2010Prop54
  1
strokes_ogs.tif
102
RTVSPost2010PropOp54
 70
     1
102
RTVSPost2010Prop55
280
     0
102
RTVSPost2010PropOp55
 70
     1
102
RTVSPost2010Prop56
140
1.0
102
RTVSPost2010PropOp56
 70
     1
102
RTVSPost2010Prop57
140
1.0
102
RTVSPost2010PropOp57
 70
     1
  0
XRECORD
  5
39C
102
{ACAD_REACTORS
330
39B
102
}
330
39B
100
AcDbXrecord
280
     1
102
RTVSPropertyOp0
 70
     0
102
RTVSPropertyOp1
 70
     0
102
RTVSPropertyOp2
 70
     0
102
RTVSPropertyOp3
 70
     0
102
RTVSPropertyOp4
 70
     0
102
RTVSPropertyOp5
 70
     0
102
RTVSPropertyOp6
 70
     0
102
RTVSPropertyOp7
 70
     0
102
RTVSPropertyOp8
 70
     0
102
RTVSPropertyOp9
 70
     0
102
RTVSPropertyOp10
 70
     0
102
RTVSPropertyOp11
 70
     0
102
RTVSPropertyOp12
 70
     0
102
RTVSPropertyOp13
 70
     0
102
RTVSPropertyOp14
 70
     2
102
RTVSPropertyOp15
 70
     0
102
RTVSPropertyOp16
 70
     0
102
RTVSPropertyOp17
 70
     0
102
RTVSPropertyOp18
 70
     0
102
RTVSPropertyOp19
 70
     0
102
RTVSPropertyOp20
 70
     0
102
RTVSPropertyOp21
 70
     0
102
RTVSPropertyOp22
 70
     0
102
RTVSPropertyOp23
 70
     0
102
RTVSPropertyOp24
 70
     0
102
RTVSPropertyOp25
 70
     0
102
RTVSPropertyOp26
 70
     0
102
RTVSPropertyOp27
 70
     0
102
RTVSPropertyOp28
 70
     0
102
RTVSPropertyOp29
 70
     0
102
RTVSPropertyOp30
 70
     0
102
RTVSPropertyOp31
 70
     0
102
RTVSPropertyOp32
 70
     0
102
RTVSPropertyOp33
 70
     0
102
RTVSPropertyOp34
 70
     0
102
RTVSPropertyOp35
 70
     0
102
RTVSPropertyOp36
 70
     0
102
RTVSPropertyOp37
 70
     0
102
RTVSPropertyOp38
 70
     0
102
RTVSPropertyOp39
 70
     0
102
RTVSPropertyOp40
 70
     0
102
RTVSPropertyOp41
 70
     0
102
RTVSPropertyOp42
 70
     0
102
RTVSPropertyOp43
 70
     0
102
RTVSPropertyOp44
 70
     0
102
RTVSPropertyOp45
 70
     0
102
RTVSPropertyOp46
 70
     0
102
RTVSPropertyOp47
 70
     0
102
RTVSPropertyOp48
 70
     0
102
RTVSPropertyOp49
 70
     0
102
RTVSPropertyOp50
 70
     0
102
RTVSPropertyOp51
 70
     0
102
RTVSPropertyOp52
 70
     0
102
RTVSPropertyOp53
 70
     0
102
RTVSPropertyOp54
 70
     0
102
RTVSPropertyOp55
 70
     0
102
RTVSPropertyOp56
 70
     0
102
RTVSPropertyOp57
 70
     0
102
RTVSPost2010Prop28
280
     0
102
RTVSPost2010PropOp28
 70
     0
102
RTVSPost2010Prop29
280
     1
102
RTVSPost2010PropOp29
 70
     0
102
RTVSPost2010Prop30
280
     1
102
RTVSPost2010PropOp30
 70
     0
102
RTVSPost2010Prop31
280
     0
102
RTVSPost2010PropOp31
 70
     0
102
RTVSPost2010Prop32
280
     0
102
RTVSPost2010PropOp32
 70
     0
102
RTVSPost2010Prop33
280
     0
102
RTVSPost2010PropOp33
 70
     0
102
RTVSPost2010Prop34
280
     0
102
RTVSPost2010PropOp34
 70
     0
102
RTVSPost2010Prop35
280
     0
102
RTVSPost2010PropOp35
 70
     0
102
RTVSPost2010Prop36
280
     0
102
RTVSPost2010PropOp36
 70
     0
102
RTVSPost2010Prop37
 90
       50
102
RTVSPost2010PropOp37
 70
     0
102
RTVSPost2010Prop38
140
0.0
102
RTVSPost2010PropOp38
 70
     0
102
RTVSPost2010Prop39
140
1.0
102
RTVSPost2010PropOp39
 70
     0
102
RTVSPost2010Prop40
 90
        0
102
RTVSPost2010PropOp40
 70
     0
102
RTVSPost2010Prop41ColorIndex
 90
       18
102
RTVSPost2010Prop41ColorRGB
 90
        0
102
RTVSPost2010PropOp41
 70
     0
102
RTVSPost2010Prop42
 90
       50
102
RTVSPost2010PropOp42
 70
     0
102
RTVSPost2010Prop43
 90
        3
102
RTVSPost2010PropOp43
 70
     0
102
RTVSPost2010Prop44ColorIndex
 90
        5
102
RTVSPost2010Prop44ColorRGB
 90
      255
102
RTVSPost2010PropOp44
 70
     0
102
RTVSPost2010Prop45
280
     0
102
RTVSPost2010PropOp45
 70
     0
102
RTVSPost2010Prop46
 90
       50
102
RTVSPost2010PropOp46
 70
     0
102
RTVSPost2010Prop47
 90
       50
102
RTVSPost2010PropOp47
 70
     0
102
RTVSPost2010Prop48
 90
       50
102
RTVSPost2010PropOp48
 70
     0
102
RTVSPost2010Prop49
280
     0
102
RTVSPost2010PropOp49
 70
     0
102
RTVSPost2010Prop50
 90
       50
102
RTVSPost2010PropOp50
 70
     0
102
RTVSPost2010Prop51ColorIndex
 90
      256
102
RTVSPost2010Prop51ColorRGB
 90
-16777216
102
RTVSPost2010PropOp51
 70
     0
102
RTVSPost2010Prop52
140
1.0
102
RTVSPost2010PropOp52
 70
     0
102
RTVSPost2010Prop53
 90
        2
102
RTVSPost2010PropOp53
 70
     0
102
RTVSPost2010Prop54
  1
strokes_ogs.tif
102
RTVSPost2010PropOp54
 70
     0
102
RTVSPost2010Prop55
280
     0
102
RTVSPost2010PropOp55
 70
     0
102
RTVSPost2010Prop56
140
1.0
102
RTVSPost2010PropOp56
 70
     0
102
RTVSPost2010Prop57
140
1.0
102
RTVSPost2010PropOp57
 70
     0
  0
XRECORD
  5
396
102
{ACAD_REACTORS
330
395
102
}
330
395
100
AcDbXrecord
280
     1
102
RTVSPropertyOp0
 70
     1
102
RTVSPropertyOp1
 70
     1
102
RTVSPropertyOp2
 70
     1
102
RTVSPropertyOp3
 70
     1
102
RTVSPropertyOp4
 70
     1
102
RTVSPropertyOp5
 70
     1
102
RTVSPropertyOp6
 70
     1
102
RTVSPropertyOp7
 70
     1
102
RTVSPropertyOp8
 70
     1
102
RTVSPropertyOp9
 70
     1
102
RTVSPropertyOp10
 70
     1
102
RTVSPropertyOp11
 70
     1
102
RTVSPropertyOp12
 70
     1
102
RTVSPropertyOp13
 70
     1
102
RTVSPropertyOp14
 70
     1
102
RTVSPropertyOp15
 70
     1
102
RTVSPropertyOp16
 70
     1
102
RTVSPropertyOp17
 70
     1
102
RTVSPropertyOp18
 70
     1
102
RTVSPropertyOp19
 70
     1
102
RTVSPropertyOp20
 70
     1
102
RTVSPropertyOp21
 70
     1
102
RTVSPropertyOp22
 70
     1
102
RTVSPropertyOp23
 70
     1
102
RTVSPropertyOp24
 70
     1
102
RTVSPropertyOp25
 70
     1
102
RTVSPropertyOp26
 70
     1
102
RTVSPropertyOp27
 70
     1
102
RTVSPropertyOp28
 70
     1
102
RTVSPropertyOp29
 70
     1
102
RTVSPropertyOp30
 70
     1
102
RTVSPropertyOp31
 70
     1
102
RTVSPropertyOp32
 70
     1
102
RTVSPropertyOp33
 70
     1
102
RTVSPropertyOp34
 70
     1
102
RTVSPropertyOp35
 70
     1
102
RTVSPropertyOp36
 70
     1
102
RTVSPropertyOp37
 70
     1
102
RTVSPropertyOp38
 70
     1
102
RTVSPropertyOp39
 70
     1
102
RTVSPropertyOp40
 70
     1
102
RTVSPropertyOp41
 70
     1
102
RTVSPropertyOp42
 70
     1
102
RTVSPropertyOp43
 70
     1
102
RTVSPropertyOp44
 70
     1
102
RTVSPropertyOp45
 70
     1
102
RTVSPropertyOp46
 70
     1
102
RTVSPropertyOp47
 70
     1
102
RTVSPropertyOp48
 70
     1
102
RTVSPropertyOp49
 70
     1
102
RTVSPropertyOp50
 70
     1
102
RTVSPropertyOp51
 70
     0
102
RTVSPropertyOp52
 70
     0
102
RTVSPropertyOp53
 70
     1
102
RTVSPropertyOp54
 70
     1
102
RTVSPropertyOp55
 70
     1
102
RTVSPropertyOp56
 70
     1
102
RTVSPropertyOp57
 70
     1
102
RTVSPost2010Prop28
280
     0
102
RTVSPost2010PropOp28
 70
     1
102
RTVSPost2010Prop29
280
     1
102
RTVSPost2010PropOp29
 70
     1
102
RTVSPost2010Prop30
280
     1
102
RTVSPost2010PropOp30
 70
     1
102
RTVSPost2010Prop31
280
     0
102
RTVSPost2010PropOp31
 70
     1
102
RTVSPost2010Prop32
280
     0
102
RTVSPost2010PropOp32
 70
     1
102
RTVSPost2010Prop33
280
     0
102
RTVSPost2010PropOp33
 70
     1
102
RTVSPost2010Prop34
280
     0
102
RTVSPost2010PropOp34
 70
     1
102
RTVSPost2010Prop35
280
     0
102
RTVSPost2010PropOp35
 70
     1
102
RTVSPost2010Prop36
280
     0
102
RTVSPost2010PropOp36
 70
     1
102
RTVSPost2010Prop37
 90
       50
102
RTVSPost2010PropOp37
 70
     1
102
RTVSPost2010Prop38
140
0.0
102
RTVSPost2010PropOp38
 70
     1
102
RTVSPost2010Prop39
140
1.0
102
RTVSPost2010PropOp39
 70
     1
102
RTVSPost2010Prop40
 90
        0
102
RTVSPost2010PropOp40
 70
     1
102
RTVSPost2010Prop41ColorIndex
 90
       18
102
RTVSPost2010Prop41ColorRGB
 90
        0
102
RTVSPost2010PropOp41
 70
     1
102
RTVSPost2010Prop42
 90
       50
102
RTVSPost2010PropOp42
 70
     1
102
RTVSPost2010Prop43
 90
        3
102
RTVSPost2010PropOp43
 70
     1
102
RTVSPost2010Prop44ColorIndex
 90
        5
102
RTVSPost2010Prop44ColorRGB
 90
      255
102
RTVSPost2010PropOp44
 70
     1
102
RTVSPost2010Prop45
280
     0
102
RTVSPost2010PropOp45
 70
     1
102
RTVSPost2010Prop46
 90
       50
102
RTVSPost2010PropOp46
 70
     1
102
RTVSPost2010Prop47
 90
       50
102
RTVSPost2010PropOp47
 70
     1
102
RTVSPost2010Prop48
 90
       50
102
RTVSPost2010PropOp48
 70
     1
102
RTVSPost2010Prop49
280
     0
102
RTVSPost2010PropOp49
 70
     1
102
RTVSPost2010Prop50
 90
       50
102
RTVSPost2010PropOp50
 70
     1
102
RTVSPost2010Prop51ColorIndex
 90
      256
102
RTVSPost2010Prop51ColorRGB
 90
-16777216
102
RTVSPost2010PropOp51
 70
     0
102
RTVSPost2010Prop52
140
1.0
102
RTVSPost2010PropOp52
 70
     0
102
RTVSPost2010Prop53
 90
        2
102
RTVSPost2010PropOp53
 70
     1
102
RTVSPost2010Prop54
  1
strokes_ogs.tif
102
RTVSPost2010PropOp54
 70
     1
102
RTVSPost2010Prop55
280
     0
102
RTVSPost2010PropOp55
 70
     1
102
RTVSPost2010Prop56
140
1.0
102
RTVSPost2010PropOp56
 70
     1
102
RTVSPost2010Prop57
140
1.0
102
RTVSPost2010PropOp57
 70
     1
  0
XRECORD
  5
39E
102
{ACAD_REACTORS
330
39D
102
}
330
39D
100
AcDbXrecord
280
     1
102
RTVSPropertyOp0
 70
     0
102
RTVSPropertyOp1
 70
     0
102
RTVSPropertyOp2
 70
     0
102
RTVSPropertyOp3
 70
     0
102
RTVSPropertyOp4
 70
     0
102
RTVSPropertyOp5
 70
     0
102
RTVSPropertyOp6
 70
     0
102
RTVSPropertyOp7
 70
     0
102
RTVSPropertyOp8
 70
     0
102
RTVSPropertyOp9
 70
     0
102
RTVSPropertyOp10
 70
     0
102
RTVSPropertyOp11
 70
     0
102
RTVSPropertyOp12
 70
     0
102
RTVSPropertyOp13
 70
     0
102
RTVSPropertyOp14
 70
     2
102
RTVSPropertyOp15
 70
     0
102
RTVSPropertyOp16
 70
     0
102
RTVSPropertyOp17
 70
     0
102
RTVSPropertyOp18
 70
     0
102
RTVSPropertyOp19
 70
     0
102
RTVSPropertyOp20
 70
     0
102
RTVSPropertyOp21
 70
     0
102
RTVSPropertyOp22
 70
     0
102
RTVSPropertyOp23
 70
     0
102
RTVSPropertyOp24
 70
     0
102
RTVSPropertyOp25
 70
     0
102
RTVSPropertyOp26
 70
     0
102
RTVSPropertyOp27
 70
     0
102
RTVSPropertyOp28
 70
     0
102
RTVSPropertyOp29
 70
     0
102
RTVSPropertyOp30
 70
     0
102
RTVSPropertyOp31
 70
     0
102
RTVSPropertyOp32
 70
     0
102
RTVSPropertyOp33
 70
     0
102
RTVSPropertyOp34
 70
     0
102
RTVSPropertyOp35
 70
     0
102
RTVSPropertyOp36
 70
     0
102
RTVSPropertyOp37
 70
     0
102
RTVSPropertyOp38
 70
     0
102
RTVSPropertyOp39
 70
     0
102
RTVSPropertyOp40
 70
     0
102
RTVSPropertyOp41
 70
     0
102
RTVSPropertyOp42
 70
     0
102
RTVSPropertyOp43
 70
     0
102
RTVSPropertyOp44
 70
     0
102
RTVSPropertyOp45
 70
     0
102
RTVSPropertyOp46
 70
     0
102
RTVSPropertyOp47
 70
     0
102
RTVSPropertyOp48
 70
     0
102
RTVSPropertyOp49
 70
     0
102
RTVSPropertyOp50
 70
     0
102
RTVSPropertyOp51
 70
     0
102
RTVSPropertyOp52
 70
     0
102
RTVSPropertyOp53
 70
     0
102
RTVSPropertyOp54
 70
     0
102
RTVSPropertyOp55
 70
     0
102
RTVSPropertyOp56
 70
     0
102
RTVSPropertyOp57
 70
     0
102
RTVSPost2010Prop28
280
     0
102
RTVSPost2010PropOp28
 70
     0
102
RTVSPost2010Prop29
280
     1
102
RTVSPost2010PropOp29
 70
     0
102
RTVSPost2010Prop30
280
     1
102
RTVSPost2010PropOp30
 70
     0
102
RTVSPost2010Prop31
280
     0
102
RTVSPost2010PropOp31
 70
     0
102
RTVSPost2010Prop32
280
     0
102
RTVSPost2010PropOp32
 70
     0
102
RTVSPost2010Prop33
280
     0
102
RTVSPost2010PropOp33
 70
     0
102
RTVSPost2010Prop34
280
     0
102
RTVSPost2010PropOp34
 70
     0
102
RTVSPost2010Prop35
280
     0
102
RTVSPost2010PropOp35
 70
     0
102
RTVSPost2010Prop36
280
     0
102
RTVSPost2010PropOp36
 70
     0
102
RTVSPost2010Prop37
 90
       50
102
RTVSPost2010PropOp37
 70
     0
102
RTVSPost2010Prop38
140
0.0
102
RTVSPost2010PropOp38
 70
     0
102
RTVSPost2010Prop39
140
1.0
102
RTVSPost2010PropOp39
 70
     0
102
RTVSPost2010Prop40
 90
        0
102
RTVSPost2010PropOp40
 70
     0
102
RTVSPost2010Prop41ColorIndex
 90
       18
102
RTVSPost2010Prop41ColorRGB
 90
        0
102
RTVSPost2010PropOp41
 70
     0
102
RTVSPost2010Prop42
 90
       50
102
RTVSPost2010PropOp42
 70
     0
102
RTVSPost2010Prop43
 90
        3
102
RTVSPost2010PropOp43
 70
     0
102
RTVSPost2010Prop44ColorIndex
 90
        5
102
RTVSPost2010Prop44ColorRGB
 90
      255
102
RTVSPost2010PropOp44
 70
     0
102
RTVSPost2010Prop45
280
     0
102
RTVSPost2010PropOp45
 70
     0
102
RTVSPost2010Prop46
 90
       50
102
RTVSPost2010PropOp46
 70
     0
102
RTVSPost2010Prop47
 90
       50
102
RTVSPost2010PropOp47
 70
     0
102
RTVSPost2010Prop48
 90
       50
102
RTVSPost2010PropOp48
 70
     0
102
RTVSPost2010Prop49
280
     0
102
RTVSPost2010PropOp49
 70
     0
102
RTVSPost2010Prop50
 90
       50
102
RTVSPost2010PropOp50
 70
     0
102
RTVSPost2010Prop51ColorIndex
 90
      256
102
RTVSPost2010Prop51ColorRGB
 90
-16777216
102
RTVSPost2010PropOp51
 70
     0
102
RTVSPost2010Prop52
140
1.0
102
RTVSPost2010PropOp52
 70
     0
102
RTVSPost2010Prop53
 90
        2
102
RTVSPost2010PropOp53
 70
     0
102
RTVSPost2010Prop54
  1
strokes_ogs.tif
102
RTVSPost2010PropOp54
 70
     0
102
RTVSPost2010Prop55
280
     0
102
RTVSPost2010PropOp55
 70
     0
102
RTVSPost2010Prop56
140
1.0
102
RTVSPost2010PropOp56
 70
     0
102
RTVSPost2010Prop57
140
1.0
102
RTVSPost2010PropOp57
 70
     0
  0
XRECORD
  5
38C
102
{ACAD_REACTORS
330
38B
102
}
330
38B
100
AcDbXrecord
280
     1
102
RTVSPropertyOp0
 70
     1
102
RTVSPropertyOp1
 70
     1
102
RTVSPropertyOp2
 70
     1
102
RTVSPropertyOp3
 70
     1
102
RTVSPropertyOp4
 70
     1
102
RTVSPropertyOp5
 70
     1
102
RTVSPropertyOp6
 70
     1
102
RTVSPropertyOp7
 70
     1
102
RTVSPropertyOp8
 70
     1
102
RTVSPropertyOp9
 70
     1
102
RTVSPropertyOp10
 70
     1
102
RTVSPropertyOp11
 70
     1
102
RTVSPropertyOp12
 70
     1
102
RTVSPropertyOp13
 70
     1
102
RTVSPropertyOp14
 70
     1
102
RTVSPropertyOp15
 70
     1
102
RTVSPropertyOp16
 70
     1
102
RTVSPropertyOp17
 70
     1
102
RTVSPropertyOp18
 70
     1
102
RTVSPropertyOp19
 70
     1
102
RTVSPropertyOp20
 70
     1
102
RTVSPropertyOp21
 70
     1
102
RTVSPropertyOp22
 70
     1
102
RTVSPropertyOp23
 70
     1
102
RTVSPropertyOp24
 70
     1
102
RTVSPropertyOp25
 70
     1
102
RTVSPropertyOp26
 70
     1
102
RTVSPropertyOp27
 70
     1
102
RTVSPropertyOp28
 70
     1
102
RTVSPropertyOp29
 70
     1
102
RTVSPropertyOp30
 70
     1
102
RTVSPropertyOp31
 70
     1
102
RTVSPropertyOp32
 70
     1
102
RTVSPropertyOp33
 70
     1
102
RTVSPropertyOp34
 70
     1
102
RTVSPropertyOp35
 70
     1
102
RTVSPropertyOp36
 70
     1
102
RTVSPropertyOp37
 70
     1
102
RTVSPropertyOp38
 70
     1
102
RTVSPropertyOp39
 70
     1
102
RTVSPropertyOp40
 70
     1
102
RTVSPropertyOp41
 70
     1
102
RTVSPropertyOp42
 70
     1
102
RTVSPropertyOp43
 70
     1
102
RTVSPropertyOp44
 70
     1
102
RTVSPropertyOp45
 70
     1
102
RTVSPropertyOp46
 70
     1
102
RTVSPropertyOp47
 70
     1
102
RTVSPropertyOp48
 70
     1
102
RTVSPropertyOp49
 70
     1
102
RTVSPropertyOp50
 70
     1
102
RTVSPropertyOp51
 70
     0
102
RTVSPropertyOp52
 70
     0
102
RTVSPropertyOp53
 70
     1
102
RTVSPropertyOp54
 70
     1
102
RTVSPropertyOp55
 70
     1
102
RTVSPropertyOp56
 70
     1
102
RTVSPropertyOp57
 70
     1
102
RTVSPost2010Prop28
280
     0
102
RTVSPost2010PropOp28
 70
     1
102
RTVSPost2010Prop29
280
     1
102
RTVSPost2010PropOp29
 70
     1
102
RTVSPost2010Prop30
280
     1
102
RTVSPost2010PropOp30
 70
     1
102
RTVSPost2010Prop31
280
     0
102
RTVSPost2010PropOp31
 70
     1
102
RTVSPost2010Prop32
280
     0
102
RTVSPost2010PropOp32
 70
     1
102
RTVSPost2010Prop33
280
     0
102
RTVSPost2010PropOp33
 70
     1
102
RTVSPost2010Prop34
280
     0
102
RTVSPost2010PropOp34
 70
     1
102
RTVSPost2010Prop35
280
     0
102
RTVSPost2010PropOp35
 70
     1
102
RTVSPost2010Prop36
280
     0
102
RTVSPost2010PropOp36
 70
     1
102
RTVSPost2010Prop37
 90
       50
102
RTVSPost2010PropOp37
 70
     1
102
RTVSPost2010Prop38
140
0.0
102
RTVSPost2010PropOp38
 70
     1
102
RTVSPost2010Prop39
140
1.0
102
RTVSPost2010PropOp39
 70
     1
102
RTVSPost2010Prop40
 90
        0
102
RTVSPost2010PropOp40
 70
     1
102
RTVSPost2010Prop41ColorIndex
 90
       18
102
RTVSPost2010Prop41ColorRGB
 90
        0
102
RTVSPost2010PropOp41
 70
     1
102
RTVSPost2010Prop42
 90
       50
102
RTVSPost2010PropOp42
 70
     1
102
RTVSPost2010Prop43
 90
        3
102
RTVSPost2010PropOp43
 70
     1
102
RTVSPost2010Prop44ColorIndex
 90
        5
102
RTVSPost2010Prop44ColorRGB
 90
      255
102
RTVSPost2010PropOp44
 70
     1
102
RTVSPost2010Prop45
280
     0
102
RTVSPost2010PropOp45
 70
     1
102
RTVSPost2010Prop46
 90
       50
102
RTVSPost2010PropOp46
 70
     1
102
RTVSPost2010Prop47
 90
       50
102
RTVSPost2010PropOp47
 70
     1
102
RTVSPost2010Prop48
 90
       50
102
RTVSPost2010PropOp48
 70
     1
102
RTVSPost2010Prop49
280
     0
102
RTVSPost2010PropOp49
 70
     1
102
RTVSPost2010Prop50
 90
       50
102
RTVSPost2010PropOp50
 70
     1
102
RTVSPost2010Prop51ColorIndex
 90
      256
102
RTVSPost2010Prop51ColorRGB
 90
-16777216
102
RTVSPost2010PropOp51
 70
     0
102
RTVSPost2010Prop52
140
1.0
102
RTVSPost2010PropOp52
 70
     0
102
RTVSPost2010Prop53
 90
        2
102
RTVSPost2010PropOp53
 70
     1
102
RTVSPost2010Prop54
  1
strokes_ogs.tif
102
RTVSPost2010PropOp54
 70
     1
102
RTVSPost2010Prop55
280
     0
102
RTVSPost2010PropOp55
 70
     1
102
RTVSPost2010Prop56
140
1.0
102
RTVSPost2010PropOp56
 70
     1
102
RTVSPost2010Prop57
140
1.0
102
RTVSPost2010PropOp57
 70
     1
  0
XRECORD
  5
3AA
102
{ACAD_REACTORS
330
3A9
102
}
330
3A9
100
AcDbXrecord
280
     1
102
RTVSPropertyOp0
 70
     1
102
RTVSPropertyOp1
 70
     1
102
RTVSPropertyOp2
 70
     1
102
RTVSPropertyOp3
 70
     1
102
RTVSPropertyOp4
 70
     1
102
RTVSPropertyOp5
 70
     1
102
RTVSPropertyOp6
 70
     1
102
RTVSPropertyOp7
 70
     1
102
RTVSPropertyOp8
 70
     1
102
RTVSPropertyOp9
 70
     1
102
RTVSPropertyOp10
 70
     1
102
RTVSPropertyOp11
 70
     1
102
RTVSPropertyOp12
 70
     1
102
RTVSPropertyOp13
 70
     1
102
RTVSPropertyOp14
 70
     1
102
RTVSPropertyOp15
 70
     1
102
RTVSPropertyOp16
 70
     1
102
RTVSPropertyOp17
 70
     1
102
RTVSPropertyOp18
 70
     1
102
RTVSPropertyOp19
 70
     1
102
RTVSPropertyOp20
 70
     1
102
RTVSPropertyOp21
 70
     1
102
RTVSPropertyOp22
 70
     1
102
RTVSPropertyOp23
 70
     1
102
RTVSPropertyOp24
 70
     1
102
RTVSPropertyOp25
 70
     1
102
RTVSPropertyOp26
 70
     1
102
RTVSPropertyOp27
 70
     1
102
RTVSPropertyOp28
 70
     1
102
RTVSPropertyOp29
 70
     1
102
RTVSPropertyOp30
 70
     1
102
RTVSPropertyOp31
 70
     1
102
RTVSPropertyOp32
 70
     1
102
RTVSPropertyOp33
 70
     1
102
RTVSPropertyOp34
 70
     1
102
RTVSPropertyOp35
 70
     1
102
RTVSPropertyOp36
 70
     1
102
RTVSPropertyOp37
 70
     1
102
RTVSPropertyOp38
 70
     1
102
RTVSPropertyOp39
 70
     1
102
RTVSPropertyOp40
 70
     1
102
RTVSPropertyOp41
 70
     1
102
RTVSPropertyOp42
 70
     1
102
RTVSPropertyOp43
 70
     1
102
RTVSPropertyOp44
 70
     1
102
RTVSPropertyOp45
 70
     1
102
RTVSPropertyOp46
 70
     1
102
RTVSPropertyOp47
 70
     1
102
RTVSPropertyOp48
 70
     1
102
RTVSPropertyOp49
 70
     1
102
RTVSPropertyOp50
 70
     1
102
RTVSPropertyOp51
 70
     0
102
RTVSPropertyOp52
 70
     0
102
RTVSPropertyOp53
 70
     1
102
RTVSPropertyOp54
 70
     1
102
RTVSPropertyOp55
 70
     1
102
RTVSPropertyOp56
 70
     1
102
RTVSPropertyOp57
 70
     1
102
RTVSPost2010Prop28
280
     0
102
RTVSPost2010PropOp28
 70
     1
102
RTVSPost2010Prop29
280
     1
102
RTVSPost2010PropOp29
 70
     1
102
RTVSPost2010Prop30
280
     1
102
RTVSPost2010PropOp30
 70
     1
102
RTVSPost2010Prop31
280
     0
102
RTVSPost2010PropOp31
 70
     1
102
RTVSPost2010Prop32
280
     0
102
RTVSPost2010PropOp32
 70
     1
102
RTVSPost2010Prop33
280
     0
102
RTVSPost2010PropOp33
 70
     1
102
RTVSPost2010Prop34
280
     0
102
RTVSPost2010PropOp34
 70
     1
102
RTVSPost2010Prop35
280
     0
102
RTVSPost2010PropOp35
 70
     1
102
RTVSPost2010Prop36
280
     0
102
RTVSPost2010PropOp36
 70
     1
102
RTVSPost2010Prop37
 90
       50
102
RTVSPost2010PropOp37
 70
     1
102
RTVSPost2010Prop38
140
0.0
102
RTVSPost2010PropOp38
 70
     1
102
RTVSPost2010Prop39
140
1.0
102
RTVSPost2010PropOp39
 70
     1
102
RTVSPost2010Prop40
 90
        0
102
RTVSPost2010PropOp40
 70
     1
102
RTVSPost2010Prop41ColorIndex
 90
       18
102
RTVSPost2010Prop41ColorRGB
 90
        0
102
RTVSPost2010PropOp41
 70
     1
102
RTVSPost2010Prop42
 90
       50
102
RTVSPost2010PropOp42
 70
     1
102
RTVSPost2010Prop43
 90
        3
102
RTVSPost2010PropOp43
 70
     1
102
RTVSPost2010Prop44ColorIndex
 90
        5
102
RTVSPost2010Prop44ColorRGB
 90
      255
102
RTVSPost2010PropOp44
 70
     1
102
RTVSPost2010Prop45
280
     0
102
RTVSPost2010PropOp45
 70
     1
102
RTVSPost2010Prop46
 90
       50
102
RTVSPost2010PropOp46
 70
     1
102
RTVSPost2010Prop47
 90
       50
102
RTVSPost2010PropOp47
 70
     1
102
RTVSPost2010Prop48
 90
       50
102
RTVSPost2010PropOp48
 70
     1
102
RTVSPost2010Prop49
280
     0
102
RTVSPost2010PropOp49
 70
     1
102
RTVSPost2010Prop50
 90
       50
102
RTVSPost2010PropOp50
 70
     1
102
RTVSPost2010Prop51ColorIndex
 90
      256
102
RTVSPost2010Prop51ColorRGB
 90
-16777216
102
RTVSPost2010PropOp51
 70
     0
102
RTVSPost2010Prop52
140
1.0
102
RTVSPost2010PropOp52
 70
     0
102
RTVSPost2010Prop53
 90
        2
102
RTVSPost2010PropOp53
 70
     1
102
RTVSPost2010Prop54
  1
strokes_ogs.tif
102
RTVSPost2010PropOp54
 70
     1
102
RTVSPost2010Prop55
280
     0
102
RTVSPost2010PropOp55
 70
     1
102
RTVSPost2010Prop56
140
1.0
102
RTVSPost2010PropOp56
 70
     1
102
RTVSPost2010Prop57
140
1.0
102
RTVSPost2010PropOp57
 70
     1
  0
XRECORD
  5
3A8
102
{ACAD_REACTORS
330
3A7
102
}
330
3A7
100
AcDbXrecord
280
     1
102
RTVSPropertyOp0
 70
     1
102
RTVSPropertyOp1
 70
     1
102
RTVSPropertyOp2
 70
     1
102
RTVSPropertyOp3
 70
     1
102
RTVSPropertyOp4
 70
     1
102
RTVSPropertyOp5
 70
     1
102
RTVSPropertyOp6
 70
     1
102
RTVSPropertyOp7
 70
     1
102
RTVSPropertyOp8
 70
     1
102
RTVSPropertyOp9
 70
     1
102
RTVSPropertyOp10
 70
     1
102
RTVSPropertyOp11
 70
     1
102
RTVSPropertyOp12
 70
     1
102
RTVSPropertyOp13
 70
     1
102
RTVSPropertyOp14
 70
     1
102
RTVSPropertyOp15
 70
     1
102
RTVSPropertyOp16
 70
     1
102
RTVSPropertyOp17
 70
     1
102
RTVSPropertyOp18
 70
     1
102
RTVSPropertyOp19
 70
     1
102
RTVSPropertyOp20
 70
     1
102
RTVSPropertyOp21
 70
     1
102
RTVSPropertyOp22
 70
     1
102
RTVSPropertyOp23
 70
     1
102
RTVSPropertyOp24
 70
     1
102
RTVSPropertyOp25
 70
     1
102
RTVSPropertyOp26
 70
     1
102
RTVSPropertyOp27
 70
     1
102
RTVSPropertyOp28
 70
     1
102
RTVSPropertyOp29
 70
     1
102
RTVSPropertyOp30
 70
     1
102
RTVSPropertyOp31
 70
     1
102
RTVSPropertyOp32
 70
     1
102
RTVSPropertyOp33
 70
     1
102
RTVSPropertyOp34
 70
     1
102
RTVSPropertyOp35
 70
     1
102
RTVSPropertyOp36
 70
     1
102
RTVSPropertyOp37
 70
     1
102
RTVSPropertyOp38
 70
     1
102
RTVSPropertyOp39
 70
     1
102
RTVSPropertyOp40
 70
     1
102
RTVSPropertyOp41
 70
     1
102
RTVSPropertyOp42
 70
     1
102
RTVSPropertyOp43
 70
     1
102
RTVSPropertyOp44
 70
     1
102
RTVSPropertyOp45
 70
     1
102
RTVSPropertyOp46
 70
     1
102
RTVSPropertyOp47
 70
     1
102
RTVSPropertyOp48
 70
     1
102
RTVSPropertyOp49
 70
     1
102
RTVSPropertyOp50
 70
     1
102
RTVSPropertyOp51
 70
     0
102
RTVSPropertyOp52
 70
     0
102
RTVSPropertyOp53
 70
     1
102
RTVSPropertyOp54
 70
     1
102
RTVSPropertyOp55
 70
     1
102
RTVSPropertyOp56
 70
     1
102
RTVSPropertyOp57
 70
     1
102
RTVSPost2010Prop28
280
     0
102
RTVSPost2010PropOp28
 70
     1
102
RTVSPost2010Prop29
280
     1
102
RTVSPost2010PropOp29
 70
     1
102
RTVSPost2010Prop30
280
     1
102
RTVSPost2010PropOp30
 70
     1
102
RTVSPost2010Prop31
280
     0
102
RTVSPost2010PropOp31
 70
     1
102
RTVSPost2010Prop32
280
     0
102
RTVSPost2010PropOp32
 70
     1
102
RTVSPost2010Prop33
280
     0
102
RTVSPost2010PropOp33
 70
     1
102
RTVSPost2010Prop34
280
     0
102
RTVSPost2010PropOp34
 70
     1
102
RTVSPost2010Prop35
280
     0
102
RTVSPost2010PropOp35
 70
     1
102
RTVSPost2010Prop36
280
     0
102
RTVSPost2010PropOp36
 70
     1
102
RTVSPost2010Prop37
 90
       50
102
RTVSPost2010PropOp37
 70
     1
102
RTVSPost2010Prop38
140
0.0
102
RTVSPost2010PropOp38
 70
     1
102
RTVSPost2010Prop39
140
1.0
102
RTVSPost2010PropOp39
 70
     1
102
RTVSPost2010Prop40
 90
        0
102
RTVSPost2010PropOp40
 70
     1
102
RTVSPost2010Prop41ColorIndex
 90
       18
102
RTVSPost2010Prop41ColorRGB
 90
        0
102
RTVSPost2010PropOp41
 70
     1
102
RTVSPost2010Prop42
 90
       50
102
RTVSPost2010PropOp42
 70
     1
102
RTVSPost2010Prop43
 90
        3
102
RTVSPost2010PropOp43
 70
     1
102
RTVSPost2010Prop44ColorIndex
 90
        5
102
RTVSPost2010Prop44ColorRGB
 90
      255
102
RTVSPost2010PropOp44
 70
     1
102
RTVSPost2010Prop45
280
     0
102
RTVSPost2010PropOp45
 70
     1
102
RTVSPost2010Prop46
 90
       50
102
RTVSPost2010PropOp46
 70
     1
102
RTVSPost2010Prop47
 90
       50
102
RTVSPost2010PropOp47
 70
     1
102
RTVSPost2010Prop48
 90
       50
102
RTVSPost2010PropOp48
 70
     1
102
RTVSPost2010Prop49
280
     0
102
RTVSPost2010PropOp49
 70
     1
102
RTVSPost2010Prop50
 90
       50
102
RTVSPost2010PropOp50
 70
     1
102
RTVSPost2010Prop51ColorIndex
 90
      256
102
RTVSPost2010Prop51ColorRGB
 90
-16777216
102
RTVSPost2010PropOp51
 70
     0
102
RTVSPost2010Prop52
140
1.0
102
RTVSPost2010PropOp52
 70
     0
102
RTVSPost2010Prop53
 90
        2
102
RTVSPost2010PropOp53
 70
     1
102
RTVSPost2010Prop54
  1
strokes_ogs.tif
102
RTVSPost2010PropOp54
 70
     1
102
RTVSPost2010Prop55
280
     0
102
RTVSPost2010PropOp55
 70
     1
102
RTVSPost2010Prop56
140
1.0
102
RTVSPost2010PropOp56
 70
     1
102
RTVSPost2010Prop57
140
1.0
102
RTVSPost2010PropOp57
 70
     1
  0
XRECORD
  5
3A2
102
{ACAD_REACTORS
330
3A1
102
}
330
3A1
100
AcDbXrecord
280
     1
102
RTVSPropertyOp0
 70
     1
102
RTVSPropertyOp1
 70
     1
102
RTVSPropertyOp2
 70
     1
102
RTVSPropertyOp3
 70
     1
102
RTVSPropertyOp4
 70
     1
102
RTVSPropertyOp5
 70
     1
102
RTVSPropertyOp6
 70
     1
102
RTVSPropertyOp7
 70
     1
102
RTVSPropertyOp8
 70
     1
102
RTVSPropertyOp9
 70
     1
102
RTVSPropertyOp10
 70
     1
102
RTVSPropertyOp11
 70
     1
102
RTVSPropertyOp12
 70
     1
102
RTVSPropertyOp13
 70
     1
102
RTVSPropertyOp14
 70
     1
102
RTVSPropertyOp15
 70
     1
102
RTVSPropertyOp16
 70
     1
102
RTVSPropertyOp17
 70
     1
102
RTVSPropertyOp18
 70
     1
102
RTVSPropertyOp19
 70
     1
102
RTVSPropertyOp20
 70
     1
102
RTVSPropertyOp21
 70
     1
102
RTVSPropertyOp22
 70
     1
102
RTVSPropertyOp23
 70
     1
102
RTVSPropertyOp24
 70
     1
102
RTVSPropertyOp25
 70
     1
102
RTVSPropertyOp26
 70
     1
102
RTVSPropertyOp27
 70
     1
102
RTVSPropertyOp28
 70
     1
102
RTVSPropertyOp29
 70
     1
102
RTVSPropertyOp30
 70
     1
102
RTVSPropertyOp31
 70
     1
102
RTVSPropertyOp32
 70
     1
102
RTVSPropertyOp33
 70
     1
102
RTVSPropertyOp34
 70
     1
102
RTVSPropertyOp35
 70
     1
102
RTVSPropertyOp36
 70
     1
102
RTVSPropertyOp37
 70
     1
102
RTVSPropertyOp38
 70
     1
102
RTVSPropertyOp39
 70
     1
102
RTVSPropertyOp40
 70
     1
102
RTVSPropertyOp41
 70
     1
102
RTVSPropertyOp42
 70
     1
102
RTVSPropertyOp43
 70
     1
102
RTVSPropertyOp44
 70
     1
102
RTVSPropertyOp45
 70
     1
102
RTVSPropertyOp46
 70
     1
102
RTVSPropertyOp47
 70
     1
102
RTVSPropertyOp48
 70
     1
102
RTVSPropertyOp49
 70
     1
102
RTVSPropertyOp50
 70
     1
102
RTVSPropertyOp51
 70
     0
102
RTVSPropertyOp52
 70
     0
102
RTVSPropertyOp53
 70
     1
102
RTVSPropertyOp54
 70
     1
102
RTVSPropertyOp55
 70
     1
102
RTVSPropertyOp56
 70
     1
102
RTVSPropertyOp57
 70
     1
102
RTVSPost2010Prop28
280
     0
102
RTVSPost2010PropOp28
 70
     1
102
RTVSPost2010Prop29
280
     1
102
RTVSPost2010PropOp29
 70
     1
102
RTVSPost2010Prop30
280
     1
102
RTVSPost2010PropOp30
 70
     1
102
RTVSPost2010Prop31
280
     0
102
RTVSPost2010PropOp31
 70
     1
102
RTVSPost2010Prop32
280
     0
102
RTVSPost2010PropOp32
 70
     1
102
RTVSPost2010Prop33
280
     0
102
RTVSPost2010PropOp33
 70
     1
102
RTVSPost2010Prop34
280
     0
102
RTVSPost2010PropOp34
 70
     1
102
RTVSPost2010Prop35
280
     0
102
RTVSPost2010PropOp35
 70
     1
102
RTVSPost2010Prop36
280
     0
102
RTVSPost2010PropOp36
 70
     1
102
RTVSPost2010Prop37
 90
       50
102
RTVSPost2010PropOp37
 70
     1
102
RTVSPost2010Prop38
140
0.0
102
RTVSPost2010PropOp38
 70
     1
102
RTVSPost2010Prop39
140
1.0
102
RTVSPost2010PropOp39
 70
     1
102
RTVSPost2010Prop40
 90
        0
102
RTVSPost2010PropOp40
 70
     1
102
RTVSPost2010Prop41ColorIndex
 90
       18
102
RTVSPost2010Prop41ColorRGB
 90
        0
102
RTVSPost2010PropOp41
 70
     1
102
RTVSPost2010Prop42
 90
       50
102
RTVSPost2010PropOp42
 70
     1
102
RTVSPost2010Prop43
 90
        3
102
RTVSPost2010PropOp43
 70
     1
102
RTVSPost2010Prop44ColorIndex
 90
        5
102
RTVSPost2010Prop44ColorRGB
 90
      255
102
RTVSPost2010PropOp44
 70
     1
102
RTVSPost2010Prop45
280
     0
102
RTVSPost2010PropOp45
 70
     1
102
RTVSPost2010Prop46
 90
       50
102
RTVSPost2010PropOp46
 70
     1
102
RTVSPost2010Prop47
 90
       50
102
RTVSPost2010PropOp47
 70
     1
102
RTVSPost2010Prop48
 90
       50
102
RTVSPost2010PropOp48
 70
     1
102
RTVSPost2010Prop49
280
     0
102
RTVSPost2010PropOp49
 70
     1
102
RTVSPost2010Prop50
 90
       50
102
RTVSPost2010PropOp50
 70
     1
102
RTVSPost2010Prop51ColorIndex
 90
      256
102
RTVSPost2010Prop51ColorRGB
 90
-16777216
102
RTVSPost2010PropOp51
 70
     0
102
RTVSPost2010Prop52
140
1.0
102
RTVSPost2010PropOp52
 70
     0
102
RTVSPost2010Prop53
 90
        2
102
RTVSPost2010PropOp53
 70
     1
102
RTVSPost2010Prop54
  1
strokes_ogs.tif
102
RTVSPost2010PropOp54
 70
     1
102
RTVSPost2010Prop55
280
     0
102
RTVSPost2010PropOp55
 70
     1
102
RTVSPost2010Prop56
140
1.0
102
RTVSPost2010PropOp56
 70
     1
102
RTVSPost2010Prop57
140
1.0
102
RTVSPost2010PropOp57
 70
     1
  0
XRECORD
  5
3A4
102
{ACAD_REACTORS
330
3A3
102
}
330
3A3
100
AcDbXrecord
280
     1
102
RTVSPropertyOp0
 70
     1
102
RTVSPropertyOp1
 70
     1
102
RTVSPropertyOp2
 70
     1
102
RTVSPropertyOp3
 70
     1
102
RTVSPropertyOp4
 70
     1
102
RTVSPropertyOp5
 70
     1
102
RTVSPropertyOp6
 70
     1
102
RTVSPropertyOp7
 70
     1
102
RTVSPropertyOp8
 70
     1
102
RTVSPropertyOp9
 70
     1
102
RTVSPropertyOp10
 70
     1
102
RTVSPropertyOp11
 70
     1
102
RTVSPropertyOp12
 70
     1
102
RTVSPropertyOp13
 70
     1
102
RTVSPropertyOp14
 70
     1
102
RTVSPropertyOp15
 70
     1
102
RTVSPropertyOp16
 70
     1
102
RTVSPropertyOp17
 70
     1
102
RTVSPropertyOp18
 70
     1
102
RTVSPropertyOp19
 70
     1
102
RTVSPropertyOp20
 70
     1
102
RTVSPropertyOp21
 70
     1
102
RTVSPropertyOp22
 70
     1
102
RTVSPropertyOp23
 70
     1
102
RTVSPropertyOp24
 70
     1
102
RTVSPropertyOp25
 70
     1
102
RTVSPropertyOp26
 70
     1
102
RTVSPropertyOp27
 70
     1
102
RTVSPropertyOp28
 70
     1
102
RTVSPropertyOp29
 70
     1
102
RTVSPropertyOp30
 70
     1
102
RTVSPropertyOp31
 70
     1
102
RTVSPropertyOp32
 70
     1
102
RTVSPropertyOp33
 70
     1
102
RTVSPropertyOp34
 70
     1
102
RTVSPropertyOp35
 70
     1
102
RTVSPropertyOp36
 70
     1
102
RTVSPropertyOp37
 70
     1
102
RTVSPropertyOp38
 70
     1
102
RTVSPropertyOp39
 70
     1
102
RTVSPropertyOp40
 70
     1
102
RTVSPropertyOp41
 70
     1
102
RTVSPropertyOp42
 70
     1
102
RTVSPropertyOp43
 70
     1
102
RTVSPropertyOp44
 70
     1
102
RTVSPropertyOp45
 70
     1
102
RTVSPropertyOp46
 70
     1
102
RTVSPropertyOp47
 70
     1
102
RTVSPropertyOp48
 70
     1
102
RTVSPropertyOp49
 70
     1
102
RTVSPropertyOp50
 70
     1
102
RTVSPropertyOp51
 70
     0
102
RTVSPropertyOp52
 70
     0
102
RTVSPropertyOp53
 70
     1
102
RTVSPropertyOp54
 70
     1
102
RTVSPropertyOp55
 70
     1
102
RTVSPropertyOp56
 70
     1
102
RTVSPropertyOp57
 70
     1
102
RTVSPost2010Prop28
280
     0
102
RTVSPost2010PropOp28
 70
     1
102
RTVSPost2010Prop29
280
     1
102
RTVSPost2010PropOp29
 70
     1
102
RTVSPost2010Prop30
280
     1
102
RTVSPost2010PropOp30
 70
     1
102
RTVSPost2010Prop31
280
     0
102
RTVSPost2010PropOp31
 70
     1
102
RTVSPost2010Prop32
280
     0
102
RTVSPost2010PropOp32
 70
     1
102
RTVSPost2010Prop33
280
     0
102
RTVSPost2010PropOp33
 70
     1
102
RTVSPost2010Prop34
280
     0
102
RTVSPost2010PropOp34
 70
     1
102
RTVSPost2010Prop35
280
     0
102
RTVSPost2010PropOp35
 70
     1
102
RTVSPost2010Prop36
280
     0
102
RTVSPost2010PropOp36
 70
     1
102
RTVSPost2010Prop37
 90
       50
102
RTVSPost2010PropOp37
 70
     1
102
RTVSPost2010Prop38
140
0.0
102
RTVSPost2010PropOp38
 70
     1
102
RTVSPost2010Prop39
140
1.0
102
RTVSPost2010PropOp39
 70
     1
102
RTVSPost2010Prop40
 90
        0
102
RTVSPost2010PropOp40
 70
     1
102
RTVSPost2010Prop41ColorIndex
 90
       18
102
RTVSPost2010Prop41ColorRGB
 90
        0
102
RTVSPost2010PropOp41
 70
     1
102
RTVSPost2010Prop42
 90
       50
102
RTVSPost2010PropOp42
 70
     1
102
RTVSPost2010Prop43
 90
        3
102
RTVSPost2010PropOp43
 70
     1
102
RTVSPost2010Prop44ColorIndex
 90
        5
102
RTVSPost2010Prop44ColorRGB
 90
      255
102
RTVSPost2010PropOp44
 70
     1
102
RTVSPost2010Prop45
280
     0
102
RTVSPost2010PropOp45
 70
     1
102
RTVSPost2010Prop46
 90
       50
102
RTVSPost2010PropOp46
 70
     1
102
RTVSPost2010Prop47
 90
       50
102
RTVSPost2010PropOp47
 70
     1
102
RTVSPost2010Prop48
 90
       50
102
RTVSPost2010PropOp48
 70
     1
102
RTVSPost2010Prop49
280
     0
102
RTVSPost2010PropOp49
 70
     1
102
RTVSPost2010Prop50
 90
       50
102
RTVSPost2010PropOp50
 70
     1
102
RTVSPost2010Prop51ColorIndex
 90
      256
102
RTVSPost2010Prop51ColorRGB
 90
-16777216
102
RTVSPost2010PropOp51
 70
     0
102
RTVSPost2010Prop52
140
1.0
102
RTVSPost2010PropOp52
 70
     0
102
RTVSPost2010Prop53
 90
        2
102
RTVSPost2010PropOp53
 70
     1
102
RTVSPost2010Prop54
  1
strokes_ogs.tif
102
RTVSPost2010PropOp54
 70
     1
102
RTVSPost2010Prop55
280
     0
102
RTVSPost2010PropOp55
 70
     1
102
RTVSPost2010Prop56
140
1.0
102
RTVSPost2010PropOp56
 70
     1
102
RTVSPost2010Prop57
140
1.0
102
RTVSPost2010PropOp57
 70
     1
  0
XRECORD
  5
394
102
{ACAD_REACTORS
330
393
102
}
330
393
100
AcDbXrecord
280
     1
102
RTVSPropertyOp0
 70
     1
102
RTVSPropertyOp1
 70
     1
102
RTVSPropertyOp2
 70
     1
102
RTVSPropertyOp3
 70
     1
102
RTVSPropertyOp4
 70
     1
102
RTVSPropertyOp5
 70
     1
102
RTVSPropertyOp6
 70
     1
102
RTVSPropertyOp7
 70
     1
102
RTVSPropertyOp8
 70
     1
102
RTVSPropertyOp9
 70
     1
102
RTVSPropertyOp10
 70
     1
102
RTVSPropertyOp11
 70
     1
102
RTVSPropertyOp12
 70
     1
102
RTVSPropertyOp13
 70
     1
102
RTVSPropertyOp14
 70
     1
102
RTVSPropertyOp15
 70
     1
102
RTVSPropertyOp16
 70
     1
102
RTVSPropertyOp17
 70
     1
102
RTVSPropertyOp18
 70
     1
102
RTVSPropertyOp19
 70
     1
102
RTVSPropertyOp20
 70
     1
102
RTVSPropertyOp21
 70
     1
102
RTVSPropertyOp22
 70
     1
102
RTVSPropertyOp23
 70
     1
102
RTVSPropertyOp24
 70
     1
102
RTVSPropertyOp25
 70
     1
102
RTVSPropertyOp26
 70
     1
102
RTVSPropertyOp27
 70
     1
102
RTVSPropertyOp28
 70
     1
102
RTVSPropertyOp29
 70
     1
102
RTVSPropertyOp30
 70
     1
102
RTVSPropertyOp31
 70
     1
102
RTVSPropertyOp32
 70
     1
102
RTVSPropertyOp33
 70
     1
102
RTVSPropertyOp34
 70
     1
102
RTVSPropertyOp35
 70
     1
102
RTVSPropertyOp36
 70
     1
102
RTVSPropertyOp37
 70
     1
102
RTVSPropertyOp38
 70
     1
102
RTVSPropertyOp39
 70
     1
102
RTVSPropertyOp40
 70
     1
102
RTVSPropertyOp41
 70
     1
102
RTVSPropertyOp42
 70
     1
102
RTVSPropertyOp43
 70
     1
102
RTVSPropertyOp44
 70
     1
102
RTVSPropertyOp45
 70
     1
102
RTVSPropertyOp46
 70
     1
102
RTVSPropertyOp47
 70
     1
102
RTVSPropertyOp48
 70
     1
102
RTVSPropertyOp49
 70
     1
102
RTVSPropertyOp50
 70
     1
102
RTVSPropertyOp51
 70
     0
102
RTVSPropertyOp52
 70
     0
102
RTVSPropertyOp53
 70
     1
102
RTVSPropertyOp54
 70
     1
102
RTVSPropertyOp55
 70
     1
102
RTVSPropertyOp56
 70
     1
102
RTVSPropertyOp57
 70
     1
102
RTVSPost2010Prop28
280
     0
102
RTVSPost2010PropOp28
 70
     1
102
RTVSPost2010Prop29
280
     1
102
RTVSPost2010PropOp29
 70
     1
102
RTVSPost2010Prop30
280
     1
102
RTVSPost2010PropOp30
 70
     1
102
RTVSPost2010Prop31
280
     0
102
RTVSPost2010PropOp31
 70
     1
102
RTVSPost2010Prop32
280
     0
102
RTVSPost2010PropOp32
 70
     1
102
RTVSPost2010Prop33
280
     0
102
RTVSPost2010PropOp33
 70
     1
102
RTVSPost2010Prop34
280
     0
102
RTVSPost2010PropOp34
 70
     1
102
RTVSPost2010Prop35
280
     0
102
RTVSPost2010PropOp35
 70
     1
102
RTVSPost2010Prop36
280
     0
102
RTVSPost2010PropOp36
 70
     1
102
RTVSPost2010Prop37
 90
       50
102
RTVSPost2010PropOp37
 70
     1
102
RTVSPost2010Prop38
140
0.0
102
RTVSPost2010PropOp38
 70
     1
102
RTVSPost2010Prop39
140
1.0
102
RTVSPost2010PropOp39
 70
     1
102
RTVSPost2010Prop40
 90
        0
102
RTVSPost2010PropOp40
 70
     1
102
RTVSPost2010Prop41ColorIndex
 90
       18
102
RTVSPost2010Prop41ColorRGB
 90
        0
102
RTVSPost2010PropOp41
 70
     1
102
RTVSPost2010Prop42
 90
       50
102
RTVSPost2010PropOp42
 70
     1
102
RTVSPost2010Prop43
 90
        3
102
RTVSPost2010PropOp43
 70
     1
102
RTVSPost2010Prop44ColorIndex
 90
        5
102
RTVSPost2010Prop44ColorRGB
 90
      255
102
RTVSPost2010PropOp44
 70
     1
102
RTVSPost2010Prop45
280
     0
102
RTVSPost2010PropOp45
 70
     1
102
RTVSPost2010Prop46
 90
       50
102
RTVSPost2010PropOp46
 70
     1
102
RTVSPost2010Prop47
 90
       50
102
RTVSPost2010PropOp47
 70
     1
102
RTVSPost2010Prop48
 90
       50
102
RTVSPost2010PropOp48
 70
     1
102
RTVSPost2010Prop49
280
     0
102
RTVSPost2010PropOp49
 70
     1
102
RTVSPost2010Prop50
 90
       50
102
RTVSPost2010PropOp50
 70
     1
102
RTVSPost2010Prop51ColorIndex
 90
      256
102
RTVSPost2010Prop51ColorRGB
 90
-16777216
102
RTVSPost2010PropOp51
 70
     0
102
RTVSPost2010Prop52
140
1.0
102
RTVSPost2010PropOp52
 70
     0
102
RTVSPost2010Prop53
 90
        2
102
RTVSPost2010PropOp53
 70
     1
102
RTVSPost2010Prop54
  1
strokes_ogs.tif
102
RTVSPost2010PropOp54
 70
     1
102
RTVSPost2010Prop55
280
     0
102
RTVSPost2010PropOp55
 70
     1
102
RTVSPost2010Prop56
140
1.0
102
RTVSPost2010PropOp56
 70
     1
102
RTVSPost2010Prop57
140
1.0
102
RTVSPost2010PropOp57
 70
     1
  0
XRECORD
  5
386
102
{ACAD_REACTORS
330
385
102
}
330
385
100
AcDbXrecord
280
     1
102
RTVSPropertyOp0
 70
     1
102
RTVSPropertyOp1
 70
     1
102
RTVSPropertyOp2
 70
     1
102
RTVSPropertyOp3
 70
     1
102
RTVSPropertyOp4
 70
     1
102
RTVSPropertyOp5
 70
     1
102
RTVSPropertyOp6
 70
     1
102
RTVSPropertyOp7
 70
     1
102
RTVSPropertyOp8
 70
     1
102
RTVSPropertyOp9
 70
     1
102
RTVSPropertyOp10
 70
     1
102
RTVSPropertyOp11
 70
     1
102
RTVSPropertyOp12
 70
     1
102
RTVSPropertyOp13
 70
     1
102
RTVSPropertyOp14
 70
     1
102
RTVSPropertyOp15
 70
     1
102
RTVSPropertyOp16
 70
     1
102
RTVSPropertyOp17
 70
     1
102
RTVSPropertyOp18
 70
     1
102
RTVSPropertyOp19
 70
     1
102
RTVSPropertyOp20
 70
     1
102
RTVSPropertyOp21
 70
     1
102
RTVSPropertyOp22
 70
     1
102
RTVSPropertyOp23
 70
     1
102
RTVSPropertyOp24
 70
     1
102
RTVSPropertyOp25
 70
     1
102
RTVSPropertyOp26
 70
     1
102
RTVSPropertyOp27
 70
     1
102
RTVSPropertyOp28
 70
     1
102
RTVSPropertyOp29
 70
     1
102
RTVSPropertyOp30
 70
     1
102
RTVSPropertyOp31
 70
     1
102
RTVSPropertyOp32
 70
     1
102
RTVSPropertyOp33
 70
     1
102
RTVSPropertyOp34
 70
     1
102
RTVSPropertyOp35
 70
     1
102
RTVSPropertyOp36
 70
     1
102
RTVSPropertyOp37
 70
     1
102
RTVSPropertyOp38
 70
     1
102
RTVSPropertyOp39
 70
     1
102
RTVSPropertyOp40
 70
     1
102
RTVSPropertyOp41
 70
     1
102
RTVSPropertyOp42
 70
     1
102
RTVSPropertyOp43
 70
     1
102
RTVSPropertyOp44
 70
     1
102
RTVSPropertyOp45
 70
     1
102
RTVSPropertyOp46
 70
     1
102
RTVSPropertyOp47
 70
     1
102
RTVSPropertyOp48
 70
     1
102
RTVSPropertyOp49
 70
     1
102
RTVSPropertyOp50
 70
     1
102
RTVSPropertyOp51
 70
     0
102
RTVSPropertyOp52
 70
     0
102
RTVSPropertyOp53
 70
     1
102
RTVSPropertyOp54
 70
     1
102
RTVSPropertyOp55
 70
     1
102
RTVSPropertyOp56
 70
     1
102
RTVSPropertyOp57
 70
     1
102
RTVSPost2010Prop28
280
     0
102
RTVSPost2010PropOp28
 70
     1
102
RTVSPost2010Prop29
280
     1
102
RTVSPost2010PropOp29
 70
     1
102
RTVSPost2010Prop30
280
     1
102
RTVSPost2010PropOp30
 70
     1
102
RTVSPost2010Prop31
280
     0
102
RTVSPost2010PropOp31
 70
     1
102
RTVSPost2010Prop32
280
     0
102
RTVSPost2010PropOp32
 70
     1
102
RTVSPost2010Prop33
280
     0
102
RTVSPost2010PropOp33
 70
     1
102
RTVSPost2010Prop34
280
     0
102
RTVSPost2010PropOp34
 70
     1
102
RTVSPost2010Prop35
280
     0
102
RTVSPost2010PropOp35
 70
     1
102
RTVSPost2010Prop36
280
     0
102
RTVSPost2010PropOp36
 70
     1
102
RTVSPost2010Prop37
 90
       50
102
RTVSPost2010PropOp37
 70
     1
102
RTVSPost2010Prop38
140
0.0
102
RTVSPost2010PropOp38
 70
     1
102
RTVSPost2010Prop39
140
1.0
102
RTVSPost2010PropOp39
 70
     1
102
RTVSPost2010Prop40
 90
        0
102
RTVSPost2010PropOp40
 70
     1
102
RTVSPost2010Prop41ColorIndex
 90
       18
102
RTVSPost2010Prop41ColorRGB
 90
        0
102
RTVSPost2010PropOp41
 70
     1
102
RTVSPost2010Prop42
 90
       50
102
RTVSPost2010PropOp42
 70
     1
102
RTVSPost2010Prop43
 90
        3
102
RTVSPost2010PropOp43
 70
     1
102
RTVSPost2010Prop44ColorIndex
 90
        5
102
RTVSPost2010Prop44ColorRGB
 90
      255
102
RTVSPost2010PropOp44
 70
     1
102
RTVSPost2010Prop45
280
     0
102
RTVSPost2010PropOp45
 70
     1
102
RTVSPost2010Prop46
 90
       50
102
RTVSPost2010PropOp46
 70
     1
102
RTVSPost2010Prop47
 90
       50
102
RTVSPost2010PropOp47
 70
     1
102
RTVSPost2010Prop48
 90
       50
102
RTVSPost2010PropOp48
 70
     1
102
RTVSPost2010Prop49
280
     0
102
RTVSPost2010PropOp49
 70
     1
102
RTVSPost2010Prop50
 90
       50
102
RTVSPost2010PropOp50
 70
     1
102
RTVSPost2010Prop51ColorIndex
 90
      256
102
RTVSPost2010Prop51ColorRGB
 90
-16777216
102
RTVSPost2010PropOp51
 70
     0
102
RTVSPost2010Prop52
140
1.0
102
RTVSPost2010PropOp52
 70
     0
102
RTVSPost2010Prop53
 90
        2
102
RTVSPost2010PropOp53
 70
     1
102
RTVSPost2010Prop54
  1
strokes_ogs.tif
102
RTVSPost2010PropOp54
 70
     1
102
RTVSPost2010Prop55
280
     0
102
RTVSPost2010PropOp55
 70
     1
102
RTVSPost2010Prop56
140
1.0
102
RTVSPost2010PropOp56
 70
     1
102
RTVSPost2010Prop57
140
1.0
102
RTVSPost2010PropOp57
 70
     1
  0
XRECORD
  5
3A6
102
{ACAD_REACTORS
330
3A5
102
}
330
3A5
100
AcDbXrecord
280
     1
102
RTVSPropertyOp0
 70
     1
102
RTVSPropertyOp1
 70
     1
102
RTVSPropertyOp2
 70
     1
102
RTVSPropertyOp3
 70
     1
102
RTVSPropertyOp4
 70
     1
102
RTVSPropertyOp5
 70
     1
102
RTVSPropertyOp6
 70
     1
102
RTVSPropertyOp7
 70
     1
102
RTVSPropertyOp8
 70
     1
102
RTVSPropertyOp9
 70
     1
102
RTVSPropertyOp10
 70
     1
102
RTVSPropertyOp11
 70
     1
102
RTVSPropertyOp12
 70
     1
102
RTVSPropertyOp13
 70
     1
102
RTVSPropertyOp14
 70
     1
102
RTVSPropertyOp15
 70
     1
102
RTVSPropertyOp16
 70
     1
102
RTVSPropertyOp17
 70
     1
102
RTVSPropertyOp18
 70
     1
102
RTVSPropertyOp19
 70
     1
102
RTVSPropertyOp20
 70
     1
102
RTVSPropertyOp21
 70
     1
102
RTVSPropertyOp22
 70
     1
102
RTVSPropertyOp23
 70
     1
102
RTVSPropertyOp24
 70
     1
102
RTVSPropertyOp25
 70
     1
102
RTVSPropertyOp26
 70
     1
102
RTVSPropertyOp27
 70
     1
102
RTVSPropertyOp28
 70
     1
102
RTVSPropertyOp29
 70
     1
102
RTVSPropertyOp30
 70
     1
102
RTVSPropertyOp31
 70
     1
102
RTVSPropertyOp32
 70
     1
102
RTVSPropertyOp33
 70
     1
102
RTVSPropertyOp34
 70
     1
102
RTVSPropertyOp35
 70
     1
102
RTVSPropertyOp36
 70
     1
102
RTVSPropertyOp37
 70
     1
102
RTVSPropertyOp38
 70
     1
102
RTVSPropertyOp39
 70
     1
102
RTVSPropertyOp40
 70
     1
102
RTVSPropertyOp41
 70
     1
102
RTVSPropertyOp42
 70
     1
102
RTVSPropertyOp43
 70
     1
102
RTVSPropertyOp44
 70
     1
102
RTVSPropertyOp45
 70
     1
102
RTVSPropertyOp46
 70
     1
102
RTVSPropertyOp47
 70
     1
102
RTVSPropertyOp48
 70
     1
102
RTVSPropertyOp49
 70
     1
102
RTVSPropertyOp50
 70
     1
102
RTVSPropertyOp51
 70
     0
102
RTVSPropertyOp52
 70
     0
102
RTVSPropertyOp53
 70
     1
102
RTVSPropertyOp54
 70
     1
102
RTVSPropertyOp55
 70
     1
102
RTVSPropertyOp56
 70
     1
102
RTVSPropertyOp57
 70
     1
102
RTVSPost2010Prop28
280
     0
102
RTVSPost2010PropOp28
 70
     1
102
RTVSPost2010Prop29
280
     1
102
RTVSPost2010PropOp29
 70
     1
102
RTVSPost2010Prop30
280
     1
102
RTVSPost2010PropOp30
 70
     1
102
RTVSPost2010Prop31
280
     0
102
RTVSPost2010PropOp31
 70
     1
102
RTVSPost2010Prop32
280
     0
102
RTVSPost2010PropOp32
 70
     1
102
RTVSPost2010Prop33
280
     0
102
RTVSPost2010PropOp33
 70
     1
102
RTVSPost2010Prop34
280
     0
102
RTVSPost2010PropOp34
 70
     1
102
RTVSPost2010Prop35
280
     0
102
RTVSPost2010PropOp35
 70
     1
102
RTVSPost2010Prop36
280
     0
102
RTVSPost2010PropOp36
 70
     1
102
RTVSPost2010Prop37
 90
       50
102
RTVSPost2010PropOp37
 70
     1
102
RTVSPost2010Prop38
140
0.0
102
RTVSPost2010PropOp38
 70
     1
102
RTVSPost2010Prop39
140
1.0
102
RTVSPost2010PropOp39
 70
     1
102
RTVSPost2010Prop40
 90
        0
102
RTVSPost2010PropOp40
 70
     1
102
RTVSPost2010Prop41ColorIndex
 90
       18
102
RTVSPost2010Prop41ColorRGB
 90
        0
102
RTVSPost2010PropOp41
 70
     1
102
RTVSPost2010Prop42
 90
       50
102
RTVSPost2010PropOp42
 70
     1
102
RTVSPost2010Prop43
 90
        3
102
RTVSPost2010PropOp43
 70
     1
102
RTVSPost2010Prop44ColorIndex
 90
        5
102
RTVSPost2010Prop44ColorRGB
 90
      255
102
RTVSPost2010PropOp44
 70
     1
102
RTVSPost2010Prop45
280
     0
102
RTVSPost2010PropOp45
 70
     1
102
RTVSPost2010Prop46
 90
       50
102
RTVSPost2010PropOp46
 70
     1
102
RTVSPost2010Prop47
 90
       50
102
RTVSPost2010PropOp47
 70
     1
102
RTVSPost2010Prop48
 90
       50
102
RTVSPost2010PropOp48
 70
     1
102
RTVSPost2010Prop49
280
     0
102
RTVSPost2010PropOp49
 70
     1
102
RTVSPost2010Prop50
 90
       50
102
RTVSPost2010PropOp50
 70
     1
102
RTVSPost2010Prop51ColorIndex
 90
      256
102
RTVSPost2010Prop51ColorRGB
 90
-16777216
102
RTVSPost2010PropOp51
 70
     0
102
RTVSPost2010Prop52
140
1.0
102
RTVSPost2010PropOp52
 70
     0
102
RTVSPost2010Prop53
 90
        2
102
RTVSPost2010PropOp53
 70
     1
102
RTVSPost2010Prop54
  1
strokes_ogs.tif
102
RTVSPost2010PropOp54
 70
     1
102
RTVSPost2010Prop55
280
     0
102
RTVSPost2010PropOp55
 70
     1
102
RTVSPost2010Prop56
140
1.0
102
RTVSPost2010PropOp56
 70
     1
102
RTVSPost2010Prop57
140
1.0
102
RTVSPost2010PropOp57
 70
     1
  0
ENDSEC
  0
EOF
