  0
SECTION
  2
HEADER
  9
$ACADVER
  1
AC1015
  9
$ACADMAINTVER
 70
     6
  9
$DWGCODEPAGE
  3
ANSI_932
  9
$INSBASE
 10
0.0
 20
0.0
 30
0.0
  9
$EXTMIN
 10
-2100.0
 20
-1485.0
 30
0.0
  9
$EXTMAX
 10
2100.0
 20
1485.0
 30
0.0
  9
$LIMMIN
 10
-2100.0
 20
-1485.0
  9
$LIMMAX
 10
2100.0
 20
1485.0
  9
$ORTHOMODE
 70
     0
  9
$REGENMODE
 70
     1
  9
$FILLMODE
 70
     1
  9
$QTEXTMODE
 70
     0
  9
$MIRRTEXT
 70
     1
  9
$LTSCALE
 40
10.0
  9
$ATTMODE
 70
     1
  9
$TEXTSIZE
 40
2.5
  9
$TRACEWID
 40
1.0
  9
$TEXTSTYLE
  7
Standard
  9
$CLAYER
  8
0
  9
$CELTYPE
  6
ByLayer
  9
$CECOLOR
 62
   256
  9
$CELTSCALE
 40
1.0
  9
$DISPSILH
 70
     0
  9
$DIMSCALE
 40
1.0
  9
$DIMASZ
 40
2.5
  9
$DIMEXO
 40
0.625
  9
$DIMDLI
 40
3.75
  9
$DIMRND
 40
0.0
  9
$DIMDLE
 40
0.0
  9
$DIMEXE
 40
1.25
  9
$DIMTP
 40
0.0
  9
$DIMTM
 40
0.0
  9
$DIMTXT
 40
2.5
  9
$DIMCEN
 40
2.5
  9
$DIMTSZ
 40
0.0
  9
$DIMTOL
 70
     0
  9
$DIMLIM
 70
     0
  9
$DIMTIH
 70
     0
  9
$DIMTOH
 70
     0
  9
$DIMSE1
 70
     0
  9
$DIMSE2
 70
     0
  9
$DIMTAD
 70
     1
  9
$DIMZIN
 70
     8
  9
$DIMBLK
  1

  9
$DIMASO
 70
     1
  9
$DIMSHO
 70
     1
  9
$DIMPOST
  1

  9
$DIMAPOST
  1

  9
$DIMALT
 70
     0
  9
$DIMALTD
 70
     3
  9
$DIMALTF
 40
0.03937007874016
  9
$DIMLFAC
 40
1.0
  9
$DIMTOFL
 70
     1
  9
$DIMTVP
 40
0.0
  9
$DIMTIX
 70
     0
  9
$DIMSOXD
 70
     0
  9
$DIMSAH
 70
     0
  9
$DIMBLK1
  1

  9
$DIMBLK2
  1

  9
$DIMSTYLE
  2
ISO-25
  9
$DIMCLRD
 70
     0
  9
$DIMCLRE
 70
     0
  9
$DIMCLRT
 70
     0
  9
$DIMTFAC
 40
1.0
  9
$DIMGAP
 40
0.625
  9
$DIMJUST
 70
     0
  9
$DIMSD1
 70
     0
  9
$DIMSD2
 70
     0
  9
$DIMTOLJ
 70
     0
  9
$DIMTZIN
 70
     8
  9
$DIMALTZ
 70
     0
  9
$DIMALTTZ
 70
     0
  9
$DIMUPT
 70
     0
  9
$DIMDEC
 70
     2
  9
$DIMTDEC
 70
     2
  9
$DIMALTU
 70
     2
  9
$DIMALTTD
 70
     3
  9
$DIMTXSTY
  7
Standard
  9
$DIMAUNIT
 70
     0
  9
$DIMADEC
 70
     0
  9
$DIMALTRND
 40
0.0
  9
$DIMAZIN
 70
     0
  9
$DIMDSEP
 70
    44
  9
$DIMATFIT
 70
     3
  9
$DIMFRAC
 70
     0
  9
$DIMLDRBLK
  1

  9
$DIMLUNIT
 70
     2
  9
$DIMLWD
 70
    -2
  9
$DIMLWE
 70
    -2
  9
$DIMTMOVE
 70
     0
  9
$LUNITS
 70
     2
  9
$LUPREC
 70
     4
  9
$SKETCHINC
 40
1.0
  9
$FILLETRAD
 40
10.0
  9
$AUNITS
 70
     0
  9
$AUPREC
 70
     0
  9
$MENU
  1
.
  9
$ELEVATION
 40
0.0
  9
$PELEVATION
 40
0.0
  9
$THICKNESS
 40
0.0
  9
$LIMCHECK
 70
     0
  9
$CHAMFERA
 40
10.0
  9
$CHAMFERB
 40
10.0
  9
$CHAMFERC
 40
20.0
  9
$CHAMFERD
 40
0.0
  9
$SKPOLY
 70
     0
  9
$TDCREATE
 40
2456904.666283102
  9
$TDUCREATE
 40
2456904.291283102
  9
$TDUPDATE
 40
2456904.666283113
  9
$TDUUPDATE
 40
2456904.291283113
  9
$TDINDWG
 40
0.0000000116
  9
$TDUSRTIMER
 40
0.0000000116
  9
$USRTIMER
 70
     1
  9
$ANGBASE
 50
0.0
  9
$ANGDIR
 70
     0
  9
$PDMODE
 70
     0
  9
$PDSIZE
 40
0.0
  9
$PLINEWID
 40
0.0
  9
$SPLFRAME
 70
     0
  9
$SPLINETYPE
 70
     6
  9
$SPLINESEGS
 70
     8
  9
$HANDSEED
  5
249
  9
$SURFTAB1
 70
     6
  9
$SURFTAB2
 70
     6
  9
$SURFTYPE
 70
     6
  9
$SURFU
 70
     6
  9
$SURFV
 70
     6
  9
$UCSBASE
  2

  9
$UCSNAME
  2

  9
$UCSORG
 10
0.0
 20
0.0
 30
0.0
  9
$UCSXDIR
 10
1.0
 20
0.0
 30
0.0
  9
$UCSYDIR
 10
0.0
 20
1.0
 30
0.0
  9
$UCSORTHOREF
  2

  9
$UCSORTHOVIEW
 70
     0
  9
$UCSORGTOP
 10
0.0
 20
0.0
 30
0.0
  9
$UCSORGBOTTOM
 10
0.0
 20
0.0
 30
0.0
  9
$UCSORGLEFT
 10
0.0
 20
0.0
 30
0.0
  9
$UCSORGRIGHT
 10
0.0
 20
0.0
 30
0.0
  9
$UCSORGFRONT
 10
0.0
 20
0.0
 30
0.0
  9
$UCSORGBACK
 10
0.0
 20
0.0
 30
0.0
  9
$PUCSBASE
  2

  9
$PUCSNAME
  2

  9
$PUCSORG
 10
0.0
 20
0.0
 30
0.0
  9
$PUCSXDIR
 10
1.0
 20
0.0
 30
0.0
  9
$PUCSYDIR
 10
0.0
 20
1.0
 30
0.0
  9
$PUCSORTHOREF
  2

  9
$PUCSORTHOVIEW
 70
     0
  9
$PUCSORGTOP
 10
0.0
 20
0.0
 30
0.0
  9
$PUCSORGBOTTOM
 10
0.0
 20
0.0
 30
0.0
  9
$PUCSORGLEFT
 10
0.0
 20
0.0
 30
0.0
  9
$PUCSORGRIGHT
 10
0.0
 20
0.0
 30
0.0
  9
$PUCSORGFRONT
 10
0.0
 20
0.0
 30
0.0
  9
$PUCSORGBACK
 10
0.0
 20
0.0
 30
0.0
  9
$USERI1
 70
     0
  9
$USERI2
 70
     0
  9
$USERI3
 70
     0
  9
$USERI4
 70
     0
  9
$USERI5
 70
     0
  9
$USERR1
 40
0.0
  9
$USERR2
 40
0.0
  9
$USERR3
 40
0.0
  9
$USERR4
 40
0.0
  9
$USERR5
 40
0.0
  9
$WORLDVIEW
 70
     1
  9
$SHADEDGE
 70
     3
  9
$SHADEDIF
 70
    70
  9
$TILEMODE
 70
     1
  9
$MAXACTVP
 70
    64
  9
$PINSBASE
 10
0.0
 20
0.0
 30
0.0
  9
$PLIMCHECK
 70
     0
  9
$PEXTMIN
 10
1.000000000000000E+20
 20
1.000000000000000E+20
 30
1.000000000000000E+20
  9
$PEXTMAX
 10
-1.000000000000000E+20
 20
-1.000000000000000E+20
 30
-1.000000000000000E+20
  9
$PLIMMIN
 10
0.0
 20
0.0
  9
$PLIMMAX
 10
420.0
 20
297.0
  9
$UNITMODE
 70
     0
  9
$VISRETAIN
 70
     1
  9
$PLINEGEN
 70
     0
  9
$PSLTSCALE
 70
     1
  9
$TREEDEPTH
 70
  3020
  9
$CMLSTYLE
  2
Standard
  9
$CMLJUST
 70
     0
  9
$CMLSCALE
 40
20.0
  9
$PROXYGRAPHICS
 70
     1
  9
$MEASUREMENT
 70
     1
  9
$CELWEIGHT
370
    -1
  9
$ENDCAPS
280
     0
  9
$JOINSTYLE
280
     0
  9
$LWDISPLAY
290
     0
  9
$INSUNITS
 70
     4
  9
$HYPERLINKBASE
  1

  9
$STYLESHEET
  1

  9
$XEDIT
290
     1
  9
$CEPSNTYPE
380
     0
  9
$PSTYLEMODE
290
     1
  9
$FINGERPRINTGUID
  2
{97558E87-E0AD-4652-A385-EFC92E729266}
  9
$VERSIONGUID
  2
{FAEB1C32-E019-11D5-929B-00C0DF256EC4}
  9
$EXTNAMES
290
     1
  9
$PSVPSCALE
 40
0.0
  9
$OLESTARTUP
290
     0
  0
ENDSEC
  0
SECTION
  2
CLASSES
  0
CLASS
  1
ACDBDICTIONARYWDFLT
  2
AcDbDictionaryWithDefault
  3
ObjectDBX Classes
 90
        0
280
     0
281
     0
  0
CLASS
  1
VISUALSTYLE
  2
AcDbVisualStyle
  3
ObjectDBX Classes
 90
     4095
280
     0
281
     0
  0
CLASS
  1
DICTIONARYVAR
  2
AcDbDictionaryVar
  3
ObjectDBX Classes
 90
        0
280
     0
281
     0
  0
CLASS
  1
ACDBPLACEHOLDER
  2
AcDbPlaceHolder
  3
ObjectDBX Classes
 90
        0
280
     0
281
     0
  0
CLASS
  1
LAYOUT
  2
AcDbLayout
  3
ObjectDBX Classes
 90
        0
280
     0
281
     0
  0
ENDSEC
  0
SECTION
  2
TABLES
  0
TABLE
  2
VPORT
  5
8
330
0
100
AcDbSymbolTable
 70
     1
  0
VPORT
  5
29
330
8
100
AcDbSymbolTableRecord
100
AcDbViewportTableRecord
  2
*Active
 70
     0
 10
0.0
 20
0.0
 11
1.0
 21
1.0
 12
0.0
 22
0.0
 13
0.0
 23
0.0
 14
10.0
 24
10.0
 15
10.0
 25
10.0
 16
0.0
 26
0.0
 36
1.0
 17
0.0
 27
0.0
 37
0.0
 40
3267.0
 41
1.414141414141414
 42
50.0
 43
0.0
 44
0.0
 50
0.0
 51
0.0
 71
     0
 72
 10000
 73
     1
 74
     3
 75
     0
 76
     0
 77
     0
 78
     0
281
     0
 65
     1
110
0.0
120
0.0
130
0.0
111
1.0
121
0.0
131
0.0
112
0.0
122
1.0
132
0.0
 79
     0
146
0.0
  0
ENDTAB
  0
TABLE
  2
LTYPE
  5
5
330
0
100
AcDbSymbolTable
 70
     3
  0
LTYPE
  5
14
330
5
100
AcDbSymbolTableRecord
100
AcDbLinetypeTableRecord
  2
ByBlock
 70
     0
  3

 72
    65
 73
     0
 40
0.0
  0
LTYPE
  5
15
330
5
100
AcDbSymbolTableRecord
100
AcDbLinetypeTableRecord
  2
ByLayer
 70
     0
  3

 72
    65
 73
     0
 40
0.0
  0
LTYPE
  5
16
330
5
100
AcDbSymbolTableRecord
100
AcDbLinetypeTableRecord
  2
Continuous
 70
     0
  3
Solid line
 72
    65
 73
     0
 40
0.0
  0
LTYPE
  5
3C
330
5
100
AcDbSymbolTableRecord
100
AcDbLinetypeTableRecord
  2
JWW_CENTER1
 70
     0
  3
-----  --  ----------  --  -----
 72
    65
 73
     4
 40
6.773333333333333
 49
4.233333333333333
 74
     0
 49
-0.8466666666666667
 74
     0
 49
0.8466666666666667
 74
     0
 49
-0.8466666666666667
 74
     0
  0
LTYPE
  5
3D
330
5
100
AcDbSymbolTableRecord
100
AcDbLinetypeTableRecord
  2
JWW_DASHED1
 70
     0
  3
-  --  --  --  --  --  --  --  -
 72
    65
 73
     2
 40
1.693333333333333
 49
0.8466666666666667
 74
     0
 49
-0.8466666666666667
 74
     0
  0
ENDTAB
  0
TABLE
  2
LAYER
  5
2
330
0
100
AcDbSymbolTable
 70
     8
  0
LAYER
  5
10
330
2
100
AcDbSymbolTableRecord
100
AcDbLayerTableRecord
  2
0
 70
     0
 62
     7
  6
Continuous
370
    -3
390
F
  0
LAYER
  5
3E
330
2
100
AcDbSymbolTableRecord
100
AcDbLayerTableRecord
  2
0-6
 70
     0
 62
     7
  6
Continuous
370
    -3
390
F
  0
LAYER
  5
3F
330
2
100
AcDbSymbolTableRecord
100
AcDbLayerTableRecord
  2
0-1
 70
     0
 62
     7
  6
Continuous
370
    -3
390
F
  0
LAYER
  5
40
330
2
100
AcDbSymbolTableRecord
100
AcDbLayerTableRecord
  2
0-0
 70
     0
 62
     7
  6
Continuous
370
    -3
390
F
  0
LAYER
  5
41
330
2
100
AcDbSymbolTableRecord
100
AcDbLayerTableRecord
  2
0-3
 70
     0
 62
     7
  6
Continuous
370
    -3
390
F
  0
LAYER
  5
42
330
2
100
AcDbSymbolTableRecord
100
AcDbLayerTableRecord
  2
0-4
 70
     0
 62
     7
  6
Continuous
370
    -3
390
F
  0
LAYER
  5
43
330
2
100
AcDbSymbolTableRecord
100
AcDbLayerTableRecord
  2
0-E
 70
     0
 62
     7
  6
Continuous
370
    -3
390
F
  0
LAYER
  5
44
330
2
100
AcDbSymbolTableRecord
100
AcDbLayerTableRecord
  2
F-5
 70
     0
 62
     7
  6
Continuous
370
    -3
390
F
  0
ENDTAB
  0
TABLE
  2
STYLE
  5
3
330
0
100
AcDbSymbolTable
 70
     2
  0
STYLE
  5
11
330
3
100
AcDbSymbolTableRecord
100
AcDbTextStyleTableRecord
  2
Standard
 70
     0
 40
0.0
 41
1.0
 50
0.0
 71
     0
 42
2.5
  3
txt
  4

1001
ACAD
1000

1071
        0
  0
STYLE
  5
3B
330
3
100
AcDbSymbolTableRecord
100
AcDbTextStyleTableRecord
  2
ＭＳ ゴシック
 70
     0
 40
1.0
 41
1.0
 50
0.0
 71
     0
 42
10.0
  3

  4

1001
ACAD
1000
MS Gothic
1071
    32817
  0
ENDTAB
  0
TABLE
  2
VIEW
  5
6
330
0
100
AcDbSymbolTable
 70
     0
  0
ENDTAB
  0
TABLE
  2
UCS
  5
7
330
0
100
AcDbSymbolTable
 70
     0
  0
ENDTAB
  0
TABLE
  2
APPID
  5
9
330
0
100
AcDbSymbolTable
 70
     1
  0
APPID
  5
12
330
9
100
AcDbSymbolTableRecord
100
AcDbRegAppTableRecord
  2
ACAD
 70
     0
  0
ENDTAB
  0
TABLE
  2
DIMSTYLE
  5
A
330
0
100
AcDbSymbolTable
 70
     1
100
AcDbDimStyleTable
  0
DIMSTYLE
105
27
330
A
100
AcDbSymbolTableRecord
100
AcDbDimStyleTableRecord
  2
ISO-25
 70
     0
 41
2.5
 42
0.625
 43
3.75
 44
1.25
 73
     0
 74
     0
 77
     1
 78
     8
140
2.5
141
2.5
143
0.03937007874016
147
0.625
171
     3
172
     1
271
     2
272
     2
274
     3
278
    44
283
     0
284
     8
340
11
  0
ENDTAB
  0
TABLE
  2
BLOCK_RECORD
  5
1
330
0
100
AcDbSymbolTable
 70
     1
  0
BLOCK_RECORD
  5
1F
330
1
100
AcDbSymbolTableRecord
100
AcDbBlockTableRecord
  2
*Model_Space
340
22
  0
BLOCK_RECORD
  5
1B
330
1
100
AcDbSymbolTableRecord
100
AcDbBlockTableRecord
  2
*Paper_Space
340
1E
  0
BLOCK_RECORD
  5
23
330
1
100
AcDbSymbolTableRecord
100
AcDbBlockTableRecord
  2
*Paper_Space0
340
26
  0
ENDTAB
  0
ENDSEC
  0
SECTION
  2
BLOCKS
  0
BLOCK
  5
20
330
1F
100
AcDbEntity
  8
0
100
AcDbBlockBegin
  2
*Model_Space
 70
     0
 10
0.0
 20
0.0
 30
0.0
  3
*Model_Space
  1

  0
ENDBLK
  5
21
330
1F
100
AcDbEntity
  8
0
100
AcDbBlockEnd
  0
BLOCK
  5
1C
330
1B
100
AcDbEntity
 67
     1
  8
0
100
AcDbBlockBegin
  2
*Paper_Space
 70
     0
 10
0.0
 20
0.0
 30
0.0
  3
*Paper_Space
  1

  0
ENDBLK
  5
1D
330
1B
100
AcDbEntity
 67
     1
  8
0
100
AcDbBlockEnd
  0
BLOCK
  5
24
330
23
100
AcDbEntity
  8
0
100
AcDbBlockBegin
  2
*Paper_Space0
 70
     0
 10
0.0
 20
0.0
 30
0.0
  3
*Paper_Space0
  1

  0
ENDBLK
  5
25
330
23
100
AcDbEntity
  8
0
100
AcDbBlockEnd
  0
ENDSEC
  0
SECTION
  2
ENTITIES
  0
LINE
  5
45
330
1F
100
AcDbEntity
  8
0-6
  6
Continuous
 62
     6
370
     9
100
AcDbLine
 10
-336.3142683699323
 20
37.35754889410913
 30
0.0
 11
-331.422135636613
 21
43.42031942831511
 31
0.0
  0
LINE
  5
46
330
1F
100
AcDbEntity
  8
0-1
  6
Continuous
 62
     2
370
     9
100
AcDbLine
 10
-948.8466005067567
 20
385.0570183831294
 30
0.0
 11
-484.8464553420607
 21
385.0570183831294
 31
0.0
  0
LINE
  5
47
330
1F
100
AcDbEntity
  8
0-0
  6
Continuous
 62
     3
370
     9
100
AcDbLine
 10
-911.8464289484797
 20
-643.2764084274704
 30
0.0
 11
-843.5132000897381
 21
-643.2764084274704
 31
0.0
  0
LINE
  5
48
330
1F
100
AcDbEntity
  8
0-0
  6
Continuous
 62
     3
370
     9
100
AcDbLine
 10
-942.5131308065877
 20
-609.9431713207348
 30
0.0
 11
-491.1799250422297
 21
-609.9431713207348
 31
0.0
  0
LINE
  5
49
330
1F
100
AcDbEntity
  8
0-0
  6
Continuous
 62
     3
370
     9
100
AcDbLine
 10
-945.1797897751267
 20
-609.9431713207348
 30
0.0
 11
-945.1797897751267
 21
201.7235338365711
 31
0.0
  0
LINE
  5
4A
330
1F
100
AcDbEntity
  8
0-0
  6
Continuous
 62
     3
370
     9
100
AcDbLine
 10
-946.116102063978
 20
218.3903379698057
 30
0.0
 11
-487.5767063450169
 21
218.3903379698057
 31
0.0
  0
LINE
  5
4B
330
1F
100
AcDbEntity
  8
0-0
  6
Continuous
 62
     3
370
     9
100
AcDbLine
 10
-942.4495387721706
 20
201.7235338365711
 30
0.0
 11
-491.2435170766469
 21
201.7235338365711
 31
0.0
  0
LINE
  5
4C
330
1F
100
AcDbEntity
  8
0-0
  6
Continuous
 62
     3
370
     9
100
AcDbLine
 10
-946.1796940983952
 20
218.3903379698057
 30
0.0
 11
-946.1796940983952
 21
385.0570183831294
 31
0.0
  0
LINE
  5
4D
330
1F
100
AcDbEntity
  8
0-0
  6
Continuous
 62
     3
370
     9
100
AcDbLine
 10
-843.5132000897381
 20
-843.2764496674408
 30
0.0
 11
-843.5132000897381
 21
-643.2764084274704
 31
0.0
  0
LINE
  5
4E
330
1F
100
AcDbEntity
  8
0-0
  6
Continuous
 62
     3
370
     9
100
AcDbLine
 10
-942.5131308065877
 20
-608.8385999524916
 30
0.0
 11
-942.5131308065877
 21
201.7235338365711
 31
0.0
  0
LINE
  5
4F
330
1F
100
AcDbEntity
  8
0-0
  6
Continuous
 62
     3
370
     9
100
AcDbLine
 10
-911.8464289484797
 20
-643.2764084274704
 30
0.0
 11
-945.1797897751267
 21
-609.9431713207348
 31
0.0
  0
LINE
  5
50
330
1F
100
AcDbEntity
  8
0-0
  6
Continuous
 62
     3
370
     9
100
AcDbLine
 10
-843.5132000897381
 20
-843.2764496674408
 30
0.0
 11
-590.1798557590794
 21
-843.2764496674408
 31
0.0
  0
LINE
  5
51
330
1F
100
AcDbEntity
  8
0-0
  6
Continuous
 62
     3
370
     9
100
AcDbLine
 10
-840.8465411211992
 20
-843.2764496674408
 30
0.0
 11
-840.8465411211992
 21
-640.6097494589314
 31
0.0
  0
LINE
  5
52
330
1F
100
AcDbEntity
  8
0-1
  6
Continuous
 62
     2
370
     9
100
AcDbLine
 10
-948.8466005067567
 20
390.0569111592063
 30
0.0
 11
-484.8464553420607
 21
390.0569111592063
 31
0.0
  0
LINE
  5
53
330
1F
100
AcDbEntity
  8
0-1
  6
Continuous
 62
     2
370
     9
100
AcDbLine
 10
-945.1797897751267
 20
251.7235750765414
 30
0.0
 11
-945.1797897751267
 21
385.0570183831294
 31
0.0
  0
LINE
  5
54
330
1F
100
AcDbEntity
  8
0-1
  6
Continuous
 62
     2
370
     9
100
AcDbLine
 10
-942.5131308065877
 20
251.7235750765414
 30
0.0
 11
-942.5131308065877
 21
385.0570183831294
 31
0.0
  0
LINE
  5
55
330
1F
100
AcDbEntity
  8
0-1
  6
Continuous
 62
     2
370
     9
100
AcDbLine
 10
-945.1797897751267
 20
251.7235750765414
 30
0.0
 11
-488.5130186338682
 21
251.7235750765414
 31
0.0
  0
LINE
  5
56
330
1F
100
AcDbEntity
  8
0-1
  6
JWW_CENTER1
 62
     2
370
     9
100
AcDbLine
 10
-783.5132495777026
 20
368.6735328468117
 30
0.0
 11
-783.5132495777026
 21
408.5733279666385
 31
0.0
  0
LINE
  5
57
330
1F
100
AcDbEntity
  8
0-1
  6
Continuous
 62
     2
370
     9
100
AcDbLine
 10
-750.1796413112331
 20
385.0570183831294
 30
0.0
 11
-750.1796413112331
 21
390.0569111592063
 31
0.0
  0
LINE
  5
58
330
1F
100
AcDbEntity
  8
0-1
  6
Continuous
 62
     2
370
     9
100
AcDbLine
 10
-816.8463629645271
 20
385.0570183831294
 30
0.0
 11
-816.8463629645271
 21
390.0569111592063
 31
0.0
  0
LINE
  5
59
330
1F
100
AcDbEntity
  8
0-1
  6
Continuous
 62
     2
370
     9
100
AcDbLine
 10
-616.8464454444677
 20
385.0570183831294
 30
0.0
 11
-616.8464454444677
 21
390.0569111592063
 31
0.0
  0
LINE
  5
5A
330
1F
100
AcDbEntity
  8
0-1
  6
Continuous
 62
     2
370
     9
100
AcDbLine
 10
-683.5131670977617
 20
385.0570183831294
 30
0.0
 11
-683.5131670977617
 21
390.0569111592063
 31
0.0
  0
LINE
  5
5B
330
1F
100
AcDbEntity
  8
0-1
  6
JWW_CENTER1
 62
     2
370
     9
100
AcDbLine
 10
-650.1798062711148
 20
368.6735328468117
 30
0.0
 11
-650.1798062711148
 21
408.5733279666385
 31
0.0
  0
LINE
  5
5C
330
1F
100
AcDbEntity
  8
0-1
  6
Continuous
 62
     2
370
     9
100
AcDbLine
 10
-491.1799250422297
 20
251.7235750765414
 30
0.0
 11
-491.1799250422297
 21
385.0570183831294
 31
0.0
  0
LINE
  5
5D
330
1F
100
AcDbEntity
  8
0-1
  6
Continuous
 62
     2
370
     9
100
AcDbLine
 10
-488.5130186338682
 20
251.7235750765414
 30
0.0
 11
-488.5130186338682
 21
385.0570183831294
 31
0.0
  0
LINE
  5
5E
330
1F
100
AcDbEntity
  8
0-0
  6
Continuous
 62
     3
370
     9
100
AcDbLine
 10
-592.8465147276182
 20
-843.2764496674408
 30
0.0
 11
-592.8465147276182
 21
-640.6097494589314
 31
0.0
  0
LINE
  5
5F
330
1F
100
AcDbEntity
  8
0-0
  6
Continuous
 62
     3
370
     9
100
AcDbLine
 10
-521.8466269003377
 20
-643.2764084274704
 30
0.0
 11
-488.5130186338682
 21
-609.9431713207348
 31
0.0
  0
LINE
  5
60
330
1F
100
AcDbEntity
  8
0-0
  6
Continuous
 62
     3
370
     9
100
AcDbLine
 10
-491.1799250422297
 20
58.68240768845027
 30
0.0
 11
-491.1799250422297
 21
201.7235338365711
 31
0.0
  0
LINE
  5
61
330
1F
100
AcDbEntity
  8
0-0
  6
Continuous
 62
     3
370
     9
100
AcDbLine
 10
-590.1798557590794
 20
-843.2764496674408
 30
0.0
 11
-590.1798557590794
 21
-643.2764084274704
 31
0.0
  0
LINE
  5
62
330
1F
100
AcDbEntity
  8
0-0
  6
Continuous
 62
     3
370
     9
100
AcDbLine
 10
-487.5131143105995
 20
218.3903379698057
 30
0.0
 11
-487.5131143105995
 21
385.0570183831294
 31
0.0
  0
LINE
  5
63
330
1F
100
AcDbEntity
  8
0-0
  6
Continuous
 62
     3
370
     9
100
AcDbLine
 10
-488.5130186338682
 20
61.40065786000861
 30
0.0
 11
-488.5130186338682
 21
201.7235338365711
 31
0.0
  0
LINE
  5
64
330
1F
100
AcDbEntity
  8
0-0
  6
Continuous
 62
     3
370
     9
100
AcDbLine
 10
-521.8466269003377
 20
-643.2764084274704
 30
0.0
 11
-590.1798557590794
 21
-643.2764084274704
 31
0.0
  0
LINE
  5
65
330
1F
100
AcDbEntity
  8
0-3
  6
JWW_CENTER1
 62
     4
370
     9
100
AcDbLine
 10
-443.00537109375
 20
2.688755344700269
 30
0.0
 11
-444.918699522276
 21
102.3388341955237
 31
0.0
  0
LINE
  5
66
330
1F
100
AcDbEntity
  8
0-0
  6
Continuous
 62
     3
370
     9
100
AcDbLine
 10
-456.6803803315034
 20
55.08797310494089
 30
0.0
 11
-431.3516977671028
 21
55.57443979624168
 31
0.0
  0
LINE
  5
67
330
1F
100
AcDbEntity
  8
0-0
  6
Continuous
 62
     3
370
     9
100
AcDbLine
 10
-433.9026786185599
 20
49.52416497307865
 30
0.0
 11
-434.0178618559966
 21
55.52309603304479
 31
0.0
  0
LINE
  5
68
330
1F
100
AcDbEntity
  8
0-0
  6
Continuous
 62
     3
370
     9
100
AcDbLine
 10
-453.8989092852617
 20
49.14026208826016
 30
0.0
 11
-454.0142162426096
 21
55.13906942831511
 31
0.0
  0
LINE
  5
69
330
1F
100
AcDbEntity
  8
0-0
  6
Continuous
 62
     3
370
     9
100
AcDbLine
 10
-456.6162934174409
 20
51.75520613386823
 30
0.0
 11
-456.6803803315034
 21
55.08797310494089
 31
0.0
  0
LINE
  5
6A
330
1F
100
AcDbEntity
  8
0-0
  6
Continuous
 62
     3
370
     9
100
AcDbLine
 10
-431.2877345729518
 20
52.24154910525755
 30
0.0
 11
-431.3516977671028
 21
55.57443979624168
 31
0.0
  0
LINE
  5
6B
330
1F
100
AcDbEntity
  8
0-0
  6
Continuous
 62
     3
370
     9
100
AcDbLine
 10
-427.8910044077278
 20
48.97286904824767
 30
0.0
 11
-423.5979234850083
 21
49.0551427892737
 31
0.0
  0
LINE
  5
6C
330
1F
100
AcDbEntity
  8
0-0
  6
Continuous
 62
     3
370
     9
100
AcDbLine
 10
-430.5059484533359
 20
46.2554849160685
 30
0.0
 11
-425.5867210594383
 21
46.35000692831511
 31
0.0
  0
LINE
  5
6D
330
1F
100
AcDbEntity
  8
0-0
  6
Continuous
 62
     3
370
     9
100
AcDbLine
 10
-488.5130186338682
 20
-609.9431713207348
 30
0.0
 11
-488.5130186338682
 21
-338.6730379671662
 31
0.0
  0
LINE
  5
6E
330
1F
100
AcDbEntity
  8
0-0
  6
Continuous
 62
     3
370
     9
100
AcDbLine
 10
-491.1799250422297
 20
-609.9431713207348
 30
0.0
 11
-491.1799250422297
 21
-336.0572278821791
 31
0.0
  0
LINE
  5
6F
330
1F
100
AcDbEntity
  8
0-0
  6
Continuous
 62
     3
370
     9
100
AcDbLine
 10
-313.6663488439609
 20
-308.9002124683276
 30
0.0
 11
-320.3214903135557
 21
37.70248000686252
 31
0.0
  0
LINE
  5
70
330
1F
100
AcDbEntity
  8
0-0
  6
Continuous
 62
     3
370
     9
100
AcDbLine
 10
-474.9238710145693
 20
48.06983741554063
 30
0.0
 11
-459.8852209142734
 21
48.35859968855573
 31
0.0
  0
LINE
  5
71
330
1F
100
AcDbEntity
  8
0-0
  6
Continuous
 62
     3
370
     9
100
AcDbLine
 10
-316.3827432168495
 20
-304.6832192910683
 30
0.0
 11
-322.9411357157937
 21
36.90918793549429
 31
0.0
  0
LINE
  5
72
330
1F
100
AcDbEntity
  8
0-0
  6
Continuous
 62
     3
370
     9
100
AcDbLine
 10
-397.4237390466638
 20
49.55781678895704
 30
0.0
 11
-333.9082872545396
 21
50.77757139463699
 31
0.0
  0
LINE
  5
73
330
1F
100
AcDbEntity
  8
0-0
  6
Continuous
 62
     3
370
     9
100
AcDbLine
 10
-475.4358240076013
 20
-325.3422175226984
 30
0.0
 11
-416.430952742293
 21
-324.2091905748521
 31
0.0
  0
LINE
  5
74
330
1F
100
AcDbEntity
  8
0-0
  6
Continuous
 62
     3
370
     9
100
AcDbLine
 10
-477.5905299831081
 20
45.35146352407111
 30
0.0
 11
-457.1678367820945
 21
45.74365564294766
 31
0.0
  0
LINE
  5
75
330
1F
100
AcDbEntity
  8
0-0
  6
Continuous
 62
     3
370
     9
100
AcDbLine
 10
-478.1024829761401
 20
-322.7262837177997
 30
0.0
 11
-418.5219429634711
 21
-321.5822456978462
 31
0.0
  0
LINE
  5
76
330
1F
100
AcDbEntity
  8
0-6
  6
Continuous
 62
     6
370
     9
100
AcDbLine
 10
-316.3824957770268
 20
-306.3496027766047
 30
0.0
 11
-322.9413831556164
 21
35.24292816986929
 31
0.0
  0
LINE
  5
77
330
1F
100
AcDbEntity
  8
0-0
  6
Continuous
 62
     3
370
     9
100
AcDbLine
 10
-395.3327488254857
 20
46.93087191195104
 30
0.0
 11
-336.5233550200591
 21
48.06018726245782
 31
0.0
  0
LINE
  5
78
330
1F
100
AcDbEntity
  8
0-6
  6
Continuous
 62
     6
370
     9
100
AcDbLine
 10
-399.5901984137456
 20
33.7676919473185
 30
0.0
 11
-391.4183745513091
 21
42.2594555004224
 31
0.0
  0
LINE
  5
79
330
1F
100
AcDbEntity
  8
0-0
  6
Continuous
 62
     3
370
     9
100
AcDbLine
 10
-388.2682181693411
 20
-321.001256994299
 30
0.0
 11
-329.4587006440034
 21
-319.8721890836148
 31
0.0
  0
LINE
  5
7A
330
1F
100
AcDbEntity
  8
0-0
  6
Continuous
 62
     3
370
     9
100
AcDbLine
 10
-390.2567683039484
 20
-323.7067640149916
 30
0.0
 11
-326.7413165118242
 21
-322.4871331292229
 31
0.0
  0
LINE
  5
7B
330
1F
100
AcDbEntity
  8
0-6
  6
Continuous
 62
     6
370
     9
100
AcDbLine
 10
-322.9377952781883
 20
35.23934029244089
 30
0.0
 11
-331.4294351113807
 21
43.4112878747888
 31
0.0
  0
LINE
  5
7C
330
1F
100
AcDbEntity
  8
0-6
  6
Continuous
 62
     6
370
     9
100
AcDbLine
 10
-391.4183745513091
 20
42.2594555004224
 30
0.0
 11
-386.3050306165539
 21
36.39785354201877
 31
0.0
  0
LINE
  5
7D
330
1F
100
AcDbEntity
  8
0-6
  6
Continuous
 62
     6
370
     9
100
AcDbLine
 10
-386.3050306165539
 20
36.39785354201877
 30
0.0
 11
-381.4128978832346
 21
42.46062407622475
 31
0.0
  0
LINE
  5
7E
330
1F
100
AcDbEntity
  8
0-6
  6
Continuous
 62
     6
370
     9
100
AcDbLine
 10
-376.3067297033359
 20
36.58961940456095
 30
0.0
 11
-371.4147206899281
 21
42.65263737858959
 31
0.0
  0
LINE
  5
7F
330
1F
100
AcDbEntity
  8
0-6
  6
Continuous
 62
     6
370
     9
100
AcDbLine
 10
-381.4279917124153
 20
42.4602529164909
 30
0.0
 11
-376.3067297033359
 21
36.58961940456095
 31
0.0
  0
LINE
  5
80
330
1F
100
AcDbEntity
  8
0-6
  6
Continuous
 62
     6
370
     9
100
AcDbLine
 10
-371.4299382390203
 20
42.65226621885574
 30
0.0
 11
-366.3086762299409
 21
36.78163270692579
 31
0.0
  0
LINE
  5
81
330
1F
100
AcDbEntity
  8
0-6
  6
Continuous
 62
     6
370
     9
100
AcDbLine
 10
-366.3086762299409
 20
36.78163270692579
 30
0.0
 11
-361.4166672165328
 21
42.84440324113177
 31
0.0
  0
LINE
  5
82
330
1F
100
AcDbEntity
  8
0-6
  6
Continuous
 62
     6
370
     9
100
AcDbLine
 10
-356.3104990366341
 20
36.97364600929063
 30
0.0
 11
-351.4184900232263
 21
43.03641654349661
 31
0.0
  0
LINE
  5
83
330
1F
100
AcDbEntity
  8
0-6
  6
Continuous
 62
     6
370
     9
100
AcDbLine
 10
-361.4316373258023
 20
42.84427952122059
 30
0.0
 11
-356.3104990366341
 21
36.97364600929063
 31
0.0
  0
LINE
  5
84
330
1F
100
AcDbEntity
  8
0-6
  6
Continuous
 62
     6
370
     9
100
AcDbLine
 10
-351.4334601324956
 20
43.03616910367396
 30
0.0
 11
-346.3123218433276
 21
37.16553559174429
 31
0.0
  0
LINE
  5
85
330
1F
100
AcDbEntity
  8
0-6
  6
Continuous
 62
     6
370
     9
100
AcDbLine
 10
-346.3123218433276
 20
37.16553559174429
 30
0.0
 11
-341.4201891100083
 21
43.22842984586146
 31
0.0
  0
LINE
  5
86
330
1F
100
AcDbEntity
  8
0-6
  6
Continuous
 62
     6
370
     9
100
AcDbLine
 10
-341.4354066591005
 20
43.2281824060388
 30
0.0
 11
-336.3142683699323
 21
37.35754889410913
 31
0.0
  0
LINE
  5
87
330
1F
100
AcDbEntity
  8
0-6
  6
Continuous
 62
     6
370
     9
100
AcDbLine
 10
-349.1025770032726
 20
8.672468855574493
 30
0.0
 11
-336.0277330553208
 21
22.49866382495782
 31
0.0
  0
LINE
  5
88
330
1F
100
AcDbEntity
  8
0-6
  6
Continuous
 62
     6
370
     9
100
AcDbLine
 10
-398.704363848712
 20
-12.54685685441302
 30
0.0
 11
-360.9910707216005
 21
20.35249452333204
 31
0.0
  0
LINE
  5
89
330
1F
100
AcDbEntity
  8
0-6
  6
Continuous
 62
     6
370
     9
100
AcDbLine
 10
-348.9015321473818
 20
-1.799308158255712
 30
0.0
 11
-322.6691993507177
 21
21.08442151868672
 31
0.0
  0
LINE
  5
8A
330
1F
100
AcDbEntity
  8
0-6
  6
Continuous
 62
     6
370
     9
100
AcDbLine
 10
-398.8655708931586
 20
-4.157285948057279
 30
0.0
 11
-374.3539346230995
 21
21.76290151235236
 31
0.0
  0
LINE
  5
8B
330
1F
100
AcDbEntity
  8
0-6
  6
Continuous
 62
     6
370
     9
100
AcDbLine
 10
-360.9910707216005
 20
20.35249452333204
 30
0.0
 11
-336.0277330553208
 21
22.49866382495782
 31
0.0
  0
LINE
  5
8C
330
1F
100
AcDbEntity
  8
0-6
  6
Continuous
 62
     6
370
     9
100
AcDbLine
 10
-343.5449548669763
 20
-280.8031731682854
 30
0.0
 11
-349.1025770032726
 21
8.672468855574493
 31
0.0
  0
LINE
  5
8D
330
1F
100
AcDbEntity
  8
0-6
  6
Continuous
 62
     6
370
     9
100
AcDbLine
 10
-399.3173960092903
 20
19.61660849081511
 30
0.0
 11
-374.3539346230995
 21
21.76290151235236
 31
0.0
  0
LINE
  5
8E
330
1F
100
AcDbEntity
  8
0-6
  6
Continuous
 62
     6
370
     9
100
AcDbLine
 10
-360.9910707216005
 20
20.35249452333204
 30
0.0
 11
-354.9764272328969
 21
-292.9309411951013
 31
0.0
  0
LINE
  5
8F
330
1F
100
AcDbEntity
  8
0-6
  6
Continuous
 62
     6
370
     9
100
AcDbLine
 10
-393.3022576409417
 20
-293.6668272276182
 30
0.0
 11
-368.2748330605995
 21
-294.8533011771536
 31
0.0
  0
LINE
  5
90
330
1F
100
AcDbEntity
  8
0-6
  6
Continuous
 62
     6
370
     9
100
AcDbLine
 10
-354.9761797930742
 20
-292.9309411951013
 30
0.0
 11
-329.9487552127323
 21
-294.1174151446367
 31
0.0
  0
LINE
  5
91
330
1F
100
AcDbEntity
  8
0-6
  6
Continuous
 62
     6
370
     9
100
AcDbLine
 10
-393.7633617504221
 20
-269.8931802285683
 30
0.0
 11
-368.2748330605995
 21
-294.8533011771536
 31
0.0
  0
LINE
  5
92
330
1F
100
AcDbEntity
  8
0-6
  6
Continuous
 62
     6
370
     9
100
AcDbLine
 10
-343.7456285631333
 20
-270.3315198743666
 30
0.0
 11
-316.6543084221917
 21
-292.1913435652449
 31
0.0
  0
LINE
  5
93
330
1F
100
AcDbEntity
  8
0-6
  6
Continuous
 62
     6
370
     9
100
AcDbLine
 10
-393.9243213550463
 20
-261.5036093222128
 30
0.0
 11
-354.9761797930742
 21
-292.9309411951013
 31
0.0
  0
LINE
  5
94
330
1F
100
AcDbEntity
  8
0-6
  6
Continuous
 62
     6
370
     9
100
AcDbLine
 10
-343.5445837072422
 20
-280.8031731682854
 30
0.0
 11
-329.9487552127323
 21
-294.1174151446367
 31
0.0
  0
LINE
  5
95
330
1F
100
AcDbEntity
  8
0-6
  6
Continuous
 62
     6
370
     9
100
AcDbLine
 10
-334.5565795898438
 20
-315.039070747994
 30
0.0
 11
-329.6645705764357
 21
-308.9764239336992
 31
0.0
  0
LINE
  5
96
330
1F
100
AcDbEntity
  8
0-6
  6
Continuous
 62
     6
370
     9
100
AcDbLine
 10
-339.6627477697422
 20
-309.1683135161529
 30
0.0
 11
-334.5416094805742
 21
-315.0389470280827
 31
0.0
  0
LINE
  5
97
330
1F
100
AcDbEntity
  8
0-6
  6
Continuous
 62
     6
370
     9
100
AcDbLine
 10
-344.5547567831503
 20
-315.2310840503588
 30
0.0
 11
-339.6627477697422
 21
-309.1683135161529
 31
0.0
  0
LINE
  5
98
330
1F
100
AcDbEntity
  8
0-6
  6
Continuous
 62
     6
370
     9
100
AcDbLine
 10
-354.5528102565456
 20
-315.4230973527237
 30
0.0
 11
-349.6608012431375
 21
-309.3602030986063
 31
0.0
  0
LINE
  5
99
330
1F
100
AcDbEntity
  8
0-6
  6
Continuous
 62
     6
370
     9
100
AcDbLine
 10
-349.6608012431375
 20
-309.3602030986063
 30
0.0
 11
-344.5396629539695
 21
-315.2308366105362
 31
0.0
  0
LINE
  5
9A
330
1F
100
AcDbEntity
  8
0-6
  6
Continuous
 62
     6
370
     9
100
AcDbLine
 10
-359.6589784364443
 20
-309.5522164009712
 30
0.0
 11
-354.537840147276
 21
-315.4227261929898
 31
0.0
  0
LINE
  5
9B
330
1F
100
AcDbEntity
  8
0-6
  6
Continuous
 62
     6
370
     9
100
AcDbLine
 10
-364.5511111697635
 20
-315.6149869351773
 30
0.0
 11
-359.6589784364443
 21
-309.5522164009712
 31
0.0
  0
LINE
  5
9C
330
1F
100
AcDbEntity
  8
0-6
  6
Continuous
 62
     6
370
     9
100
AcDbLine
 10
-374.54928836307
 20
-315.8070002375422
 30
0.0
 11
-369.657279349662
 21
-309.744229703336
 31
0.0
  0
LINE
  5
9D
330
1F
100
AcDbEntity
  8
0-6
  6
Continuous
 62
     6
370
     9
100
AcDbLine
 10
-369.657279349662
 20
-309.744229703336
 30
0.0
 11
-364.5360173405825
 21
-315.6147394953547
 31
0.0
  0
LINE
  5
9E
330
1F
100
AcDbEntity
  8
0-6
  6
Continuous
 62
     6
370
     9
100
AcDbLine
 10
-379.6553328230573
 20
-309.9362430057009
 30
0.0
 11
-374.5343182538005
 21
-315.8067527977195
 31
0.0
  0
LINE
  5
9F
330
1F
100
AcDbEntity
  8
0-6
  6
Continuous
 62
     6
370
     9
100
AcDbLine
 10
-384.5473418364654
 20
-315.999013539907
 30
0.0
 11
-379.6553328230573
 21
-309.9362430057009
 31
0.0
  0
LINE
  5
A0
330
1F
100
AcDbEntity
  8
0-6
  6
Continuous
 62
     6
370
     9
100
AcDbLine
 10
-316.3792790593325
 20
-306.3462623389991
 30
0.0
 11
-324.5511029217693
 21
-314.838025892103
 31
0.0
  0
LINE
  5
A1
330
1F
100
AcDbEntity
  8
0-6
  6
Continuous
 62
     6
370
     9
100
AcDbLine
 10
-393.0319296347128
 20
-307.8180344040329
 30
0.0
 11
-384.5399186417862
 21
-315.9898582664695
 31
0.0
  0
LINE
  5
A2
330
1F
100
AcDbEntity
  8
0-3
  6
Continuous
 62
     4
370
     9
100
AcDbLine
 10
-436.7012230125633
 20
21.91965463999168
 30
0.0
 11
-433.3678374419341
 21
25.25291649070965
 31
0.0
  0
LINE
  5
A3
330
1F
100
AcDbEntity
  8
0-3
  6
Continuous
 62
     4
370
     9
100
AcDbLine
 10
-453.4510432062922
 20
24.8394445470862
 30
0.0
 11
-450.1177813555742
 21
21.50605897645704
 31
0.0
  0
LINE
  5
A4
330
1F
100
AcDbEntity
  8
0-3
  6
Continuous
 62
     4
370
     9
100
AcDbLine
 10
-450.2371710699956
 20
21.62544869087839
 30
0.0
 11
-436.7359883076435
 21
21.884765625
 31
0.0
  0
LINE
  5
A5
330
1F
100
AcDbEntity
  8
0-6
  6
Continuous
 62
     6
370
     9
100
AcDbLine
 10
-399.593786291174
 20
33.76410406989038
 30
0.0
 11
-393.035146352407
 21
-307.81494140625
 31
0.0
  0
LINE
  5
A6
330
1F
100
AcDbEntity
  8
0-6
  6
Continuous
 62
     6
370
     9
100
AcDbLine
 10
-329.6645705764357
 20
-308.9764239336992
 30
0.0
 11
-324.5433085673562
 21
-314.8468100058065
 31
0.0
  0
LINE
  5
A7
330
1F
100
AcDbEntity
  8
0-0
  6
JWW_CENTER1
 62
     3
370
     9
100
AcDbLine
 10
-978.2679377375422
 20
956.2425273173565
 30
0.0
 11
-283.4935368718325
 21
956.2425273173565
 31
0.0
  0
LINE
  5
A8
330
1F
100
AcDbEntity
  8
0-0
  6
JWW_CENTER1
 62
     3
370
     9
100
AcDbLine
 10
-716.8465279244085
 20
699.8589922930745
 30
0.0
 11
-716.8465279244085
 21
1211.440083271748
 31
0.0
  0
LINE
  5
A9
330
1F
100
AcDbEntity
  8
0-0
  6
Continuous
 62
     3
370
     9
100
AcDbLine
 10
-463.638635583826
 20
-311.7799171241553
 30
0.0
 11
-470.2937770534206
 21
34.82289907094611
 31
0.0
  0
LINE
  5
AA
330
1F
100
AcDbEntity
  8
0-0
  6
Continuous
 62
     3
370
     9
100
AcDbLine
 10
-694.1795555320946
 20
-124.3071355046453
 30
0.0
 11
-508.1473685599661
 21
31.37754698057449
 31
0.0
  0
LINE
  5
AB
330
1F
100
AcDbEntity
  8
0-0
  6
Continuous
 62
     3
370
     9
100
AcDbLine
 10
-696.8890215899492
 20
-159.2117392050253
 30
0.0
 11
-513.2609599345437
 21
-305.8330721468537
 31
0.0
  0
LINE
  5
AC
330
1F
100
AcDbEntity
  8
0-1
  6
JWW_CENTER1
 62
     2
370
     9
100
AcDbLine
 10
-829.0862212309967
 20
1022.909248970651
 30
0.0
 11
-741.8290421769425
 21
1022.909248970651
 31
0.0
  0
LINE
  5
AD
330
1F
100
AcDbEntity
  8
0-1
  6
JWW_CENTER1
 62
     2
370
     9
100
AcDbLine
 10
-783.5132495777026
 20
983.2104987067146
 30
0.0
 11
-783.5132495777026
 21
1066.011039115287
 31
0.0
  0
LINE
  5
AE
330
1F
100
AcDbEntity
  8
0-1
  6
JWW_CENTER1
 62
     2
370
     9
100
AcDbLine
 10
-650.1798062711148
 20
983.2104987067146
 30
0.0
 11
-650.1798062711148
 21
1066.011039115287
 31
0.0
  0
LINE
  5
AF
330
1F
100
AcDbEntity
  8
0-1
  6
JWW_CENTER1
 62
     2
370
     9
100
AcDbLine
 10
-604.6068346178208
 20
1022.909248970651
 30
0.0
 11
-691.864013671875
 21
1022.909248970651
 31
0.0
  0
LINE
  5
B0
330
1F
100
AcDbEntity
  8
0-1
  6
JWW_CENTER1
 62
     2
370
     9
100
AcDbLine
 10
-604.6068346178208
 20
889.5758056640625
 30
0.0
 11
-691.864013671875
 21
889.5758056640625
 31
0.0
  0
LINE
  5
B1
330
1F
100
AcDbEntity
  8
0-1
  6
JWW_CENTER1
 62
     2
370
     9
100
AcDbLine
 10
-650.1798062711148
 20
929.274803367821
 30
0.0
 11
-650.1798062711148
 21
846.4740155194258
 31
0.0
  0
LINE
  5
B2
330
1F
100
AcDbEntity
  8
0-1
  6
JWW_CENTER1
 62
     2
370
     9
100
AcDbLine
 10
-783.5132495777026
 20
929.274803367821
 30
0.0
 11
-783.5132495777026
 21
846.4740155194258
 31
0.0
  0
LINE
  5
B3
330
1F
100
AcDbEntity
  8
0-1
  6
JWW_CENTER1
 62
     2
370
     9
100
AcDbLine
 10
-829.0862212309967
 20
889.5758056640625
 30
0.0
 11
-741.8290421769425
 21
889.5758056640625
 31
0.0
  0
LINE
  5
B4
330
1F
100
AcDbEntity
  8
0-0
  6
Continuous
 62
     3
370
     9
100
AcDbLine
 10
-575.538346574113
 20
772.2425636085304
 30
0.0
 11
-419.0666817330023
 21
772.2425636085304
 31
0.0
  0
LINE
  5
B5
330
1F
100
AcDbEntity
  8
0-0
  6
Continuous
 62
     3
370
     9
100
AcDbLine
 10
-575.538346574113
 20
1140.242491026183
 30
0.0
 11
-419.0666817330023
 21
1140.242491026183
 31
0.0
  0
LINE
  5
B6
330
1F
100
AcDbEntity
  8
0-0
  6
Continuous
 62
     3
370
     9
100
AcDbLine
 10
-393.7806825380068
 20
1142.918800147804
 30
0.0
 11
-332.0946770745354
 21
1142.918800147804
 31
0.0
  0
LINE
  5
B7
330
1F
100
AcDbEntity
  8
0-0
  6
Continuous
 62
     3
370
     9
100
AcDbLine
 10
-394.2827379381333
 20
769.5855547930745
 30
0.0
 11
-332.0965328732052
 21
769.5855547930745
 31
0.0
  0
LINE
  5
B8
330
1F
100
AcDbEntity
  8
0-0
  6
Continuous
 62
     3
370
     9
100
AcDbLine
 10
-315.4456886085302
 20
785.526123046875
 30
0.0
 11
-315.4438328098607
 21
1126.978231894004
 31
0.0
  0
LINE
  5
B9
330
1F
100
AcDbEntity
  8
0-3
  6
JWW_CENTER1
 62
     4
370
     9
100
AcDbLine
 10
1043.273595861486
 20
-426.6098104940878
 30
0.0
 11
1096.249719568201
 21
-426.6098104940878
 31
0.0
  0
LINE
  5
BA
330
1F
100
AcDbEntity
  8
0-3
  6
Continuous
 62
     4
370
     9
100
AcDbLine
 10
-310.179921743032
 20
-476.6098517340582
 30
0.0
 11
-310.179921743032
 21
190.0569936391472
 31
0.0
  0
LINE
  5
BB
330
1F
100
AcDbEntity
  8
0-3
  6
JWW_CENTER1
 62
     4
370
     9
100
AcDbLine
 10
1043.273595861486
 20
140.0569523991766
 30
0.0
 11
1096.249719568201
 21
140.0569523991766
 31
0.0
  0
LINE
  5
BC
330
1F
100
AcDbEntity
  8
0-3
  6
Continuous
 62
     4
370
     9
100
AcDbLine
 10
-312.8465807115708
 20
-476.6098517340582
 30
0.0
 11
-310.179921743032
 21
-476.6098517340582
 31
0.0
  0
LINE
  5
BD
330
1F
100
AcDbEntity
  8
0-3
  6
Continuous
 62
     4
370
     9
100
AcDbLine
 10
-312.8465807115708
 20
-476.6098517340582
 30
0.0
 11
-312.8465807115708
 21
-474.7165659311655
 31
0.0
  0
LINE
  5
BE
330
1F
100
AcDbEntity
  8
0-3
  6
Continuous
 62
     4
370
     9
100
AcDbLine
 10
-357.5131802945523
 20
-456.470477129962
 30
0.0
 11
-357.5131802945523
 21
-449.7823024440456
 31
0.0
  0
LINE
  5
BF
330
1F
100
AcDbEntity
  8
0-3
  6
Continuous
 62
     4
370
     9
100
AcDbLine
 10
-352.7681505357896
 20
-339.0896029085725
 30
0.0
 11
-343.5132825696789
 21
-336.6097610061233
 31
0.0
  0
LINE
  5
C0
330
1F
100
AcDbEntity
  8
0-3
  6
Continuous
 62
     4
370
     9
100
AcDbLine
 10
-343.5132825696789
 20
-339.3705708271747
 30
0.0
 11
-343.5132825696789
 21
-322.6170390361063
 31
0.0
  0
LINE
  5
C1
330
1F
100
AcDbEntity
  8
0-3
  6
Continuous
 62
     4
370
     9
100
AcDbLine
 10
-350.882287927576
 20
-468.9311754381333
 30
0.0
 11
-315.9456407701646
 21
-471.3914695945945
 31
0.0
  0
LINE
  5
C2
330
1F
100
AcDbEntity
  8
0-3
  6
Continuous
 62
     4
370
     9
100
AcDbLine
 10
-348.215628959037
 20
-466.4457661396747
 30
0.0
 11
-313.279105521537
 21
-468.9060602961359
 31
0.0
  0
LINE
  5
C3
330
1F
100
AcDbEntity
  8
0-3
  6
Continuous
 62
     4
370
     9
100
AcDbLine
 10
-350.1013678473393
 20
-341.1358065218537
 30
0.0
 11
-343.5132825696789
 21
-339.3705708271747
 31
0.0
  0
LINE
  5
C4
330
1F
100
AcDbEntity
  8
0-3
  6
Continuous
 62
     4
370
     9
100
AcDbLine
 10
-373.144819929793
 20
-426.6098104940878
 30
0.0
 11
-337.3872911607896
 21
-426.6098104940878
 31
0.0
  0
LINE
  5
C5
330
1F
100
AcDbEntity
  8
0-3
  6
Continuous
 62
     4
370
     9
100
AcDbLine
 10
-353.5133155616552
 20
-441.7823255384291
 30
0.0
 11
-353.5133155616552
 21
-411.4374191696579
 31
0.0
  0
LINE
  5
C6
330
1F
100
AcDbEntity
  8
0-3
  6
Continuous
 62
     4
370
     9
100
AcDbLine
 10
-360.1799629830023
 20
-458.9558864284206
 30
0.0
 11
-360.1799629830023
 21
-322.9371024466849
 31
0.0
  0
LINE
  5
C7
330
1F
100
AcDbEntity
  8
0-3
  6
Continuous
 62
     4
370
     9
100
AcDbLine
 10
-357.5131802945523
 20
-403.4374422640412
 30
0.0
 11
-357.5131802945523
 21
-350.7951148780616
 31
0.0
  0
LINE
  5
C8
330
1F
100
AcDbEntity
  8
0-3
  6
Continuous
 62
     4
370
     9
100
AcDbLine
 10
-357.5131802945523
 20
116.8843367293076
 30
0.0
 11
-357.5131802945523
 21
64.24225678315054
 31
0.0
  0
LINE
  5
C9
330
1F
100
AcDbEntity
  8
0-3
  6
Continuous
 62
     4
370
     9
100
AcDbLine
 10
-360.1799629830023
 20
172.4031520534206
 30
0.0
 11
-360.1799629830023
 21
50.46493117873752
 31
0.0
  0
LINE
  5
CA
330
1F
100
AcDbEntity
  8
0-3
  6
Continuous
 62
     4
370
     9
100
AcDbLine
 10
-353.5133155616552
 20
155.2293437236065
 30
0.0
 11
-353.5133155616552
 21
124.8844373548354
 31
0.0
  0
LINE
  5
CB
330
1F
100
AcDbEntity
  8
0-3
  6
Continuous
 62
     4
370
     9
100
AcDbLine
 10
-373.144819929793
 20
140.0569523991766
 30
0.0
 11
-337.3872911607896
 21
140.0569523991766
 31
0.0
  0
LINE
  5
CC
330
1F
100
AcDbEntity
  8
0-3
  6
Continuous
 62
     4
370
     9
100
AcDbLine
 10
-350.1013678473393
 20
54.58282470703125
 30
0.0
 11
-343.5132825696789
 21
52.81758901235236
 31
0.0
  0
LINE
  5
CD
330
1F
100
AcDbEntity
  8
0-3
  6
Continuous
 62
     4
370
     9
100
AcDbLine
 10
-348.215628959037
 20
179.8927843248524
 30
0.0
 11
-313.279105521537
 21
182.3532022012247
 31
0.0
  0
LINE
  5
CE
330
1F
100
AcDbEntity
  8
0-3
  6
Continuous
 62
     4
370
     9
100
AcDbLine
 10
-350.882287927576
 20
182.3781936233109
 30
0.0
 11
-315.9456407701646
 21
184.8386114996833
 31
0.0
  0
LINE
  5
CF
330
1F
100
AcDbEntity
  8
0-3
  6
Continuous
 62
     4
370
     9
100
AcDbLine
 10
-343.5132825696789
 20
52.81758901235236
 30
0.0
 11
-343.5132825696789
 21
50.77917975348413
 31
0.0
  0
LINE
  5
D0
330
1F
100
AcDbEntity
  8
0-3
  6
Continuous
 62
     4
370
     9
100
AcDbLine
 10
-352.7681505357896
 20
52.53662109375
 30
0.0
 11
-346.0487984322211
 21
50.73624894425677
 31
0.0
  0
LINE
  5
D1
330
1F
100
AcDbEntity
  8
0-3
  6
Continuous
 62
     4
370
     9
100
AcDbLine
 10
-357.5131802945523
 20
169.9176190350508
 30
0.0
 11
-357.5131802945523
 21
163.2293206292232
 31
0.0
  0
LINE
  5
D2
330
1F
100
AcDbEntity
  8
0-3
  6
Continuous
 62
     4
370
     9
100
AcDbLine
 10
-312.8465807115708
 20
190.0569936391472
 30
0.0
 11
-312.8465807115708
 21
188.1637078362544
 31
0.0
  0
LINE
  5
D3
330
1F
100
AcDbEntity
  8
0-3
  6
Continuous
 62
     4
370
     9
100
AcDbLine
 10
-312.8465807115708
 20
190.0569936391472
 30
0.0
 11
-310.179921743032
 21
190.0569936391472
 31
0.0
  0
LINE
  5
D4
330
1F
100
AcDbEntity
  8
0-3
  6
Continuous
 62
     4
370
     9
100
AcDbLine
 10
-357.5131802945523
 20
696.0818234005492
 30
0.0
 11
-357.5131802945523
 21
748.7239033467063
 31
0.0
  0
LINE
  5
D5
330
1F
100
AcDbEntity
  8
0-3
  6
Continuous
 62
     4
370
     9
100
AcDbLine
 10
-360.1799629830023
 20
640.5632555162586
 30
0.0
 11
-360.1799629830023
 21
769.5855547930745
 31
0.0
  0
LINE
  5
D6
330
1F
100
AcDbEntity
  8
0-3
  6
Continuous
 62
     4
370
     9
100
AcDbLine
 10
-353.5133155616552
 20
657.73681640625
 30
0.0
 11
-353.5133155616552
 21
688.0818464949325
 31
0.0
  0
LINE
  5
D7
330
1F
100
AcDbEntity
  8
0-3
  6
Continuous
 62
     4
370
     9
100
AcDbLine
 10
-373.144819929793
 20
672.9093314505915
 30
0.0
 11
-337.3872911607896
 21
672.9093314505915
 31
0.0
  0
LINE
  5
D8
330
1F
100
AcDbEntity
  8
0-3
  6
Continuous
 62
     4
370
     9
100
AcDbLine
 10
-350.1013678473393
 20
758.3832117029141
 30
0.0
 11
-343.5132825696789
 21
760.1486948374156
 31
0.0
  0
LINE
  5
D9
330
1F
100
AcDbEntity
  8
0-3
  6
Continuous
 62
     4
370
     9
100
AcDbLine
 10
-348.215628959037
 20
633.0734995249156
 30
0.0
 11
-313.279105521537
 21
630.6129579286318
 31
0.0
  0
LINE
  5
DA
330
1F
100
AcDbEntity
  8
0-3
  6
Continuous
 62
     4
370
     9
100
AcDbLine
 10
-350.882287927576
 20
630.5877190667231
 30
0.0
 11
-315.9456407701646
 21
628.127424910262
 31
0.0
  0
LINE
  5
DB
330
1F
100
AcDbEntity
  8
0-3
  6
Continuous
 62
     4
370
     9
100
AcDbLine
 10
-343.5132825696789
 20
760.1486948374156
 30
0.0
 11
-343.5132825696789
 21
769.5855547930745
 31
0.0
  0
LINE
  5
DC
330
1F
100
AcDbEntity
  8
0-3
  6
Continuous
 62
     4
370
     9
100
AcDbLine
 10
-352.7681505357896
 20
760.4295390361065
 30
0.0
 11
-343.5132825696789
 21
762.9091334987334
 31
0.0
  0
LINE
  5
DD
330
1F
100
AcDbEntity
  8
0-3
  6
Continuous
 62
     4
370
     9
100
AcDbLine
 10
-357.5131802945523
 20
643.0485410948057
 30
0.0
 11
-357.5131802945523
 21
649.7368395006336
 31
0.0
  0
LINE
  5
DE
330
1F
100
AcDbEntity
  8
0-3
  6
Continuous
 62
     4
370
     9
100
AcDbLine
 10
-312.8465807115708
 20
622.9091664907096
 30
0.0
 11
-312.8465807115708
 21
624.8025760135135
 31
0.0
  0
LINE
  5
DF
330
1F
100
AcDbEntity
  8
0-3
  6
Continuous
 62
     4
370
     9
100
AcDbLine
 10
-312.8465807115708
 20
622.9091664907096
 30
0.0
 11
-310.179921743032
 21
622.9091664907096
 31
0.0
  0
LINE
  5
E0
330
1F
100
AcDbEntity
  8
0-3
  6
Continuous
 62
     4
370
     9
100
AcDbLine
 10
-310.179921743032
 20
622.9091664907096
 30
0.0
 11
-310.179921743032
 21
1289.575888144004
 31
0.0
  0
LINE
  5
E1
330
1F
100
AcDbEntity
  8
0-3
  6
Continuous
 62
     4
370
     9
100
AcDbLine
 10
-312.8465807115708
 20
1289.575888144004
 30
0.0
 11
-310.179921743032
 21
1289.575888144004
 31
0.0
  0
LINE
  5
E2
330
1F
100
AcDbEntity
  8
0-3
  6
Continuous
 62
     4
370
     9
100
AcDbLine
 10
-312.8465807115708
 20
1289.575888144004
 30
0.0
 11
-312.8465807115708
 21
1287.682726061022
 31
0.0
  0
LINE
  5
E3
330
1F
100
AcDbEntity
  8
0-3
  6
Continuous
 62
     4
370
     9
100
AcDbLine
 10
-357.5131802945523
 20
1269.43676097973
 30
0.0
 11
-357.5131802945523
 21
1262.748462573902
 31
0.0
  0
LINE
  5
E4
330
1F
100
AcDbEntity
  8
0-3
  6
Continuous
 62
     4
370
     9
100
AcDbLine
 10
-352.7681505357896
 20
1152.055763038429
 30
0.0
 11
-343.5132825696789
 21
1149.57592113598
 31
0.0
  0
LINE
  5
E5
330
1F
100
AcDbEntity
  8
0-3
  6
Continuous
 62
     4
370
     9
100
AcDbLine
 10
-343.5132825696789
 20
1152.33660723712
 30
0.0
 11
-343.5132825696789
 21
1142.918800147804
 31
0.0
  0
LINE
  5
E6
330
1F
100
AcDbEntity
  8
0-3
  6
Continuous
 62
     4
370
     9
100
AcDbLine
 10
-350.882287927576
 20
1281.89733556799
 30
0.0
 11
-315.9456407701646
 21
1284.357877164274
 31
0.0
  0
LINE
  5
E7
330
1F
100
AcDbEntity
  8
0-3
  6
Continuous
 62
     4
370
     9
100
AcDbLine
 10
-348.215628959037
 20
1279.41180254962
 30
0.0
 11
-313.279105521537
 21
1281.872096706081
 31
0.0
  0
LINE
  5
E8
330
1F
100
AcDbEntity
  8
0-3
  6
Continuous
 62
     4
370
     9
100
AcDbLine
 10
-350.1013678473393
 20
1154.102090371622
 30
0.0
 11
-343.5132825696789
 21
1152.33660723712
 31
0.0
  0
LINE
  5
E9
330
1F
100
AcDbEntity
  8
0-3
  6
Continuous
 62
     4
370
     9
100
AcDbLine
 10
-373.144819929793
 20
1239.575723184122
 30
0.0
 11
-337.3872911607896
 21
1239.575723184122
 31
0.0
  0
LINE
  5
EA
330
1F
100
AcDbEntity
  8
0-3
  6
Continuous
 62
     4
370
     9
100
AcDbLine
 10
-353.5133155616552
 20
1254.748238228463
 30
0.0
 11
-353.5133155616552
 21
1224.403455579603
 31
0.0
  0
LINE
  5
EB
330
1F
100
AcDbEntity
  8
0-3
  6
Continuous
 62
     4
370
     9
100
AcDbLine
 10
-360.1799629830023
 20
1271.922046558277
 30
0.0
 11
-360.1799629830023
 21
1142.918800147804
 31
0.0
  0
LINE
  5
EC
330
1F
100
AcDbEntity
  8
0-3
  6
Continuous
 62
     4
370
     9
100
AcDbLine
 10
-357.5131802945523
 20
1216.403478673986
 30
0.0
 11
-357.5131802945523
 21
1163.761151288007
 31
0.0
  0
LINE
  5
ED
330
1F
100
AcDbEntity
  8
0-0
  6
Continuous
 62
     3
370
     9
100
AcDbLine
 10
-946.1796940983952
 20
218.3903379698057
 30
0.0
 11
-942.5131308065877
 21
201.7235338365711
 31
0.0
  0
LINE
  5
EE
330
1F
100
AcDbEntity
  8
0-0
  6
Continuous
 62
     3
370
     9
100
AcDbLine
 10
-948.8466005067567
 20
218.3903379698057
 30
0.0
 11
-945.1797897751267
 21
201.7235338365711
 31
0.0
  0
LINE
  5
EF
330
1F
100
AcDbEntity
  8
0-0
  6
Continuous
 62
     3
370
     9
100
AcDbLine
 10
-487.5131143105995
 20
218.3903379698057
 30
0.0
 11
-491.1799250422297
 21
201.7235338365711
 31
0.0
  0
LINE
  5
F0
330
1F
100
AcDbEntity
  8
0-0
  6
Continuous
 62
     3
370
     9
100
AcDbLine
 10
-484.8464553420607
 20
218.3903379698057
 30
0.0
 11
-488.5130186338682
 21
201.7235338365711
 31
0.0
  0
LINE
  5
F1
330
1F
100
AcDbEntity
  8
0-1
  6
Continuous
 62
     2
370
     9
100
AcDbLine
 10
1303.310579866977
 20
385.0570183831294
 30
0.0
 11
839.3104347022808
 21
385.0570183831294
 31
0.0
  0
LINE
  5
F2
330
1F
100
AcDbEntity
  8
0-0
  6
JWW_DASHED1
 62
     3
370
     9
100
AcDbLine
 10
1300.64416833826
 20
218.3903379698057
 30
0.0
 11
1300.64416833826
 21
385.0570183831294
 31
0.0
  0
LINE
  5
F3
330
1F
100
AcDbEntity
  8
0-0
  6
Continuous
 62
     3
370
     9
100
AcDbLine
 10
1197.976932010135
 20
-843.2764496674408
 30
0.0
 11
1197.976932010135
 21
-643.2764084274704
 31
0.0
  0
LINE
  5
F4
330
1F
100
AcDbEntity
  8
0-0
  6
Continuous
 62
     3
370
     9
100
AcDbLine
 10
1266.3104083087
 20
-643.2764084274704
 30
0.0
 11
1299.643769135346
 21
-609.9431713207348
 31
0.0
  0
LINE
  5
F5
330
1F
100
AcDbEntity
  8
0-0
  6
Continuous
 62
     3
370
     9
100
AcDbLine
 10
1197.976932010135
 20
-843.2764496674408
 30
0.0
 11
944.643835119299
 21
-843.2764496674408
 31
0.0
  0
LINE
  5
F6
330
1F
100
AcDbEntity
  8
0-0
  6
JWW_DASHED1
 62
     3
370
     9
100
AcDbLine
 10
1195.310520481419
 20
-843.2764496674408
 30
0.0
 11
1195.310520481419
 21
-640.6097494589314
 31
0.0
  0
LINE
  5
F7
330
1F
100
AcDbEntity
  8
0-1
  6
Continuous
 62
     2
370
     9
100
AcDbLine
 10
1303.310579866977
 20
390.0569111592063
 30
0.0
 11
839.3104347022808
 21
390.0569111592063
 31
0.0
  0
LINE
  5
F8
330
1F
100
AcDbEntity
  8
0-1
  6
JWW_DASHED1
 62
     2
370
     9
100
AcDbLine
 10
1299.643769135346
 20
251.7235750765414
 30
0.0
 11
1299.643769135346
 21
385.0570183831294
 31
0.0
  0
LINE
  5
F9
330
1F
100
AcDbEntity
  8
0-1
  6
JWW_DASHED1
 62
     2
370
     9
100
AcDbLine
 10
1296.977110166808
 20
251.7235750765414
 30
0.0
 11
1296.977110166808
 21
385.0570183831294
 31
0.0
  0
LINE
  5
FA
330
1F
100
AcDbEntity
  8
0-1
  6
JWW_DASHED1
 62
     2
370
     9
100
AcDbLine
 10
1299.643769135346
 20
251.7235750765414
 30
0.0
 11
842.976997994088
 21
251.7235750765414
 31
0.0
  0
LINE
  5
FB
330
1F
100
AcDbEntity
  8
0-1
  6
Continuous
 62
     2
370
     9
100
AcDbLine
 10
1104.643620671453
 20
385.0570183831294
 30
0.0
 11
1104.643620671453
 21
390.0569111592063
 31
0.0
  0
LINE
  5
FC
330
1F
100
AcDbEntity
  8
0-1
  6
Continuous
 62
     2
370
     9
100
AcDbLine
 10
1171.310589764569
 20
385.0570183831294
 30
0.0
 11
1171.310589764569
 21
390.0569111592063
 31
0.0
  0
LINE
  5
FD
330
1F
100
AcDbEntity
  8
0-1
  6
Continuous
 62
     2
370
     9
100
AcDbLine
 10
971.3104248046875
 20
385.0570183831294
 30
0.0
 11
971.3104248046875
 21
390.0569111592063
 31
0.0
  0
LINE
  5
FE
330
1F
100
AcDbEntity
  8
0-1
  6
Continuous
 62
     2
370
     9
100
AcDbLine
 10
1037.977146457982
 20
385.0570183831294
 30
0.0
 11
1037.977146457982
 21
390.0569111592063
 31
0.0
  0
LINE
  5
FF
330
1F
100
AcDbEntity
  8
0-1
  6
JWW_DASHED1
 62
     2
370
     9
100
AcDbLine
 10
845.6439044024495
 20
251.7235750765414
 30
0.0
 11
845.6439044024495
 21
385.0570183831294
 31
0.0
  0
LINE
  5
100
330
1F
100
AcDbEntity
  8
0-1
  6
JWW_DASHED1
 62
     2
370
     9
100
AcDbLine
 10
842.976997994088
 20
251.7235750765414
 30
0.0
 11
842.976997994088
 21
385.0570183831294
 31
0.0
  0
LINE
  5
101
330
1F
100
AcDbEntity
  8
0-0
  6
JWW_DASHED1
 62
     3
370
     9
100
AcDbLine
 10
947.310494087838
 20
-843.2764496674408
 30
0.0
 11
947.310494087838
 21
-640.6097494589314
 31
0.0
  0
LINE
  5
102
330
1F
100
AcDbEntity
  8
0-0
  6
Continuous
 62
     3
370
     9
100
AcDbLine
 10
876.3103588207349
 20
-643.2764084274704
 30
0.0
 11
842.976997994088
 21
-609.9431713207348
 31
0.0
  0
LINE
  5
103
330
1F
100
AcDbEntity
  8
0-0
  6
Continuous
 62
     3
370
     9
100
AcDbLine
 10
944.643835119299
 20
-843.2764496674408
 30
0.0
 11
944.643835119299
 21
-643.2764084274704
 31
0.0
  0
LINE
  5
104
330
1F
100
AcDbEntity
  8
0-0
  6
JWW_DASHED1
 62
     3
370
     9
100
AcDbLine
 10
841.9770936708193
 20
218.3903379698057
 30
0.0
 11
841.9770936708193
 21
385.0570183831294
 31
0.0
  0
LINE
  5
105
330
1F
100
AcDbEntity
  8
0-0
  6
JWW_DASHED1
 62
     3
370
     9
100
AcDbLine
 10
1300.64416833826
 20
218.3903379698057
 30
0.0
 11
1296.977110166808
 21
201.7235338365711
 31
0.0
  0
LINE
  5
106
330
1F
100
AcDbEntity
  8
0-0
  6
Continuous
 62
     3
370
     9
100
AcDbLine
 10
1303.310579866977
 20
218.3903379698057
 30
0.0
 11
1299.643769135346
 21
201.7235338365711
 31
0.0
  0
LINE
  5
107
330
1F
100
AcDbEntity
  8
0-0
  6
JWW_DASHED1
 62
     3
370
     9
100
AcDbLine
 10
841.9770936708193
 20
218.3903379698057
 30
0.0
 11
845.6439044024495
 21
201.7235338365711
 31
0.0
  0
LINE
  5
108
330
1F
100
AcDbEntity
  8
0-0
  6
Continuous
 62
     3
370
     9
100
AcDbLine
 10
839.3104347022808
 20
218.3903379698057
 30
0.0
 11
842.976997994088
 21
201.7235338365711
 31
0.0
  0
LINE
  5
109
330
1F
100
AcDbEntity
  8
0-0
  6
Continuous
 62
     3
370
     9
100
AcDbLine
 10
-948.8466005067567
 20
218.3903379698057
 30
0.0
 11
-948.8466005067567
 21
385.0570183831294
 31
0.0
  0
LINE
  5
10A
330
1F
100
AcDbEntity
  8
0-1
  6
Continuous
 62
     2
370
     9
100
AcDbLine
 10
-948.8466005067567
 20
385.0570183831294
 30
0.0
 11
-948.8466005067567
 21
390.0569111592063
 31
0.0
  0
LINE
  5
10B
330
1F
100
AcDbEntity
  8
0-1
  6
Continuous
 62
     2
370
     9
100
AcDbLine
 10
-484.8464553420607
 20
385.0570183831294
 30
0.0
 11
-484.8464553420607
 21
390.0569111592063
 31
0.0
  0
LINE
  5
10C
330
1F
100
AcDbEntity
  8
0-0
  6
Continuous
 62
     3
370
     9
100
AcDbLine
 10
-484.8464553420607
 20
218.3903379698057
 30
0.0
 11
-484.8464553420607
 21
385.0570183831294
 31
0.0
  0
LINE
  5
10D
330
1F
100
AcDbEntity
  8
0-0
  6
JWW_CENTER1
 62
     3
370
     9
100
AcDbLine
 10
1071.310507284629
 20
-854.4145821236275
 30
0.0
 11
1071.310507284629
 21
409.4771019188136
 31
0.0
  0
LINE
  5
10E
330
1F
100
AcDbEntity
  8
0-0
  6
JWW_CENTER1
 62
     3
370
     9
100
AcDbLine
 10
-716.8465279244085
 20
-867.3736242345863
 30
0.0
 11
-716.8465279244085
 21
415.029280379012
 31
0.0
  0
LINE
  5
10F
330
1F
100
AcDbEntity
  8
0-0
  6
JWW_CENTER1
 62
     3
370
     9
100
AcDbLine
 10
713.6458938186234
 20
-143.2763671875
 30
0.0
 11
1434.34209050359
 21
-143.2763671875
 31
0.0
  0
LINE
  5
110
330
1F
100
AcDbEntity
  8
0-1
  6
JWW_CENTER1
 62
     2
370
     9
100
AcDbLine
 10
1004.643785631334
 20
375.6441600902662
 30
0.0
 11
1004.643785631334
 21
404.9574898384714
 31
0.0
  0
LINE
  5
111
330
1F
100
AcDbEntity
  8
0-1
  6
JWW_CENTER1
 62
     2
370
     9
100
AcDbLine
 10
1137.977228937923
 20
371.2471544420399
 30
0.0
 11
1137.977228937923
 21
404.9574898384714
 31
0.0
  0
LINE
  5
112
330
1F
100
AcDbEntity
  8
0-1
  6
Continuous
 62
     2
370
     9
100
AcDbLine
 10
839.3104347022808
 20
385.0570183831294
 30
0.0
 11
839.3104347022808
 21
390.0569111592063
 31
0.0
  0
LINE
  5
113
330
1F
100
AcDbEntity
  8
0-0
  6
Continuous
 62
     3
370
     9
100
AcDbLine
 10
1303.310579866977
 20
218.3903379698057
 30
0.0
 11
1303.310579866977
 21
385.0570183831294
 31
0.0
  0
LINE
  5
114
330
1F
100
AcDbEntity
  8
0-1
  6
Continuous
 62
     2
370
     9
100
AcDbLine
 10
1303.310579866977
 20
385.0570183831294
 30
0.0
 11
1303.310579866977
 21
390.0569111592063
 31
0.0
  0
LINE
  5
115
330
1F
100
AcDbEntity
  8
0-0
  6
JWW_CENTER1
 62
     3
370
     9
100
AcDbLine
 10
-716.8465279244085
 20
-143.2763671875
 30
0.0
 11
-190.345929120038
 21
-133.1670895138302
 31
0.0
  0
LINE
  5
116
330
1F
100
AcDbEntity
  8
0-0
  6
JWW_CENTER1
 62
     3
370
     9
100
AcDbLine
 10
-1001.364218222128
 20
-143.2763671875
 30
0.0
 11
-190.345929120038
 21
-143.2763671875
 31
0.0
  0
LINE
  5
117
330
1F
100
AcDbEntity
  8
0-0
  6
Continuous
 62
     3
370
     9
100
AcDbLine
 10
-910.7418575802365
 20
-640.6097494589314
 30
0.0
 11
-522.951198268581
 21
-640.6097494589314
 31
0.0
  0
LINE
  5
118
330
1F
100
AcDbEntity
  8
0-0
  6
Continuous
 62
     3
370
     9
100
AcDbLine
 10
-910.7418575802365
 20
-640.6097494589314
 30
0.0
 11
-942.5131308065877
 21
-608.8385999524916
 31
0.0
  0
LINE
  5
119
330
1F
100
AcDbEntity
  8
0-0
  6
Continuous
 62
     3
370
     9
100
AcDbLine
 10
-522.951198268581
 20
-640.6097494589314
 30
0.0
 11
-491.1799250422297
 21
-608.8385999524916
 31
0.0
  0
LINE
  5
11A
330
1F
100
AcDbEntity
  8
0-0
  6
Continuous
 62
     3
370
     9
100
AcDbLine
 10
-413.3785350902659
 20
1131.982207427154
 30
0.0
 11
-413.3785350902659
 21
782.2762484163852
 31
0.0
  0
LINE
  5
11B
330
1F
100
AcDbEntity
  8
0-0
  6
Continuous
 62
     3
370
     9
100
AcDbLine
 10
-401.5203527502109
 20
1131.982207427154
 30
0.0
 11
-401.5203527502109
 21
782.2762484163852
 31
0.0
  0
LINE
  5
11C
330
1F
100
AcDbEntity
  8
0-0
  6
JWW_DASHED1
 62
     3
370
     9
100
AcDbLine
 10
877.4151776288011
 20
-640.6097494589314
 30
0.0
 11
845.6439044024495
 21
-608.8385999524916
 31
0.0
  0
LINE
  5
11D
330
1F
100
AcDbEntity
  8
0-0
  6
Continuous
 62
     3
370
     9
100
AcDbLine
 10
876.3103588207349
 20
-643.2764084274704
 30
0.0
 11
1266.3104083087
 21
-643.2764084274704
 31
0.0
  0
LINE
  5
11E
330
1F
100
AcDbEntity
  8
0-0
  6
JWW_DASHED1
 62
     3
370
     9
100
AcDbLine
 10
877.4151776288011
 20
-640.6097494589314
 30
0.0
 11
1265.206084380279
 21
-640.6097494589314
 31
0.0
  0
LINE
  5
11F
330
1F
100
AcDbEntity
  8
0-0
  6
JWW_DASHED1
 62
     3
370
     9
100
AcDbLine
 10
1265.206084380279
 20
-640.6097494589314
 30
0.0
 11
1296.977110166808
 21
-608.8385999524916
 31
0.0
  0
LINE
  5
120
330
1F
100
AcDbEntity
  8
0-0
  6
Continuous
 62
     3
370
     9
100
AcDbLine
 10
842.976997994088
 20
-609.9431713207348
 30
0.0
 11
1299.643769135346
 21
-609.9431713207348
 31
0.0
  0
LINE
  5
121
330
1F
100
AcDbEntity
  8
0-0
  6
Continuous
 62
     3
370
     9
100
AcDbLine
 10
839.3104347022808
 20
218.3903379698057
 30
0.0
 11
839.3104347022808
 21
385.0570183831294
 31
0.0
  0
LINE
  5
122
330
1F
100
AcDbEntity
  8
0-0
  6
Continuous
 62
     3
370
     9
100
AcDbLine
 10
842.976997994088
 20
201.7235338365711
 30
0.0
 11
1299.643769135346
 21
201.7235338365711
 31
0.0
  0
LINE
  5
123
330
1F
100
AcDbEntity
  8
0-0
  6
Continuous
 62
     3
370
     9
100
AcDbLine
 10
839.3104347022808
 20
218.3903379698057
 30
0.0
 11
1303.310579866977
 21
218.3903379698057
 31
0.0
  0
LINE
  5
124
330
1F
100
AcDbEntity
  8
0-0
  6
JWW_DASHED1
 62
     3
370
     9
100
AcDbLine
 10
845.6439044024495
 20
102.0514328415331
 30
0.0
 11
845.6439044024495
 21
201.7235338365711
 31
0.0
  0
LINE
  5
125
330
1F
100
AcDbEntity
  8
0-0
  6
Continuous
 62
     3
370
     9
100
AcDbLine
 10
842.976997994088
 20
99.57121977934975
 30
0.0
 11
842.976997994088
 21
201.7235338365711
 31
0.0
  0
LINE
  5
126
330
1F
100
AcDbEntity
  8
0-0
  6
Continuous
 62
     3
370
     9
100
AcDbLine
 10
1299.643769135346
 20
99.5714672191724
 30
0.0
 11
1299.643769135346
 21
201.7235338365711
 31
0.0
  0
LINE
  5
127
330
1F
100
AcDbEntity
  8
0-0
  6
JWW_DASHED1
 62
     3
370
     9
100
AcDbLine
 10
1296.977110166808
 20
102.0514328415331
 30
0.0
 11
1296.977110166808
 21
201.7235338365711
 31
0.0
  0
LINE
  5
128
330
1F
100
AcDbEntity
  8
0-0
  6
Continuous
 62
     3
370
     9
100
AcDbLine
 10
1299.643769135346
 20
-609.9431713207348
 30
0.0
 11
1299.643769135346
 21
-386.1242015941723
 31
0.0
  0
LINE
  5
129
330
1F
100
AcDbEntity
  8
0-0
  6
JWW_DASHED1
 62
     3
370
     9
100
AcDbLine
 10
1296.977110166808
 20
-608.8385999524916
 30
0.0
 11
1296.977110166808
 21
-388.6041672165329
 31
0.0
  0
LINE
  5
12A
330
1F
100
AcDbEntity
  8
0-0
  6
JWW_DASHED1
 62
     3
370
     9
100
AcDbLine
 10
845.6439044024495
 20
-608.8385999524916
 30
0.0
 11
845.6439044024495
 21
-388.6041672165329
 31
0.0
  0
LINE
  5
12B
330
1F
100
AcDbEntity
  8
0-0
  6
Continuous
 62
     3
370
     9
100
AcDbLine
 10
842.976997994088
 20
-609.9431713207348
 30
0.0
 11
842.976997994088
 21
-386.1239541543496
 31
0.0
  0
LINE
  5
12C
330
1F
100
AcDbEntity
  8
0-6
  6
Continuous
 62
     6
370
     9
100
AcDbLine
 10
-322.8155600058065
 20
28.68886586782111
 30
0.0
 11
-334.1573354360219
 21
40.03064129803647
 31
0.0
  0
LINE
  5
12D
330
1F
100
AcDbEntity
  8
0-6
  6
Continuous
 62
     6
370
     9
100
AcDbLine
 10
-322.6771174250422
 20
21.47933547561252
 30
0.0
 11
-342.7625501478039
 21
41.56476819837422
 31
0.0
  0
LINE
  5
12E
330
1F
100
AcDbEntity
  8
0-6
  6
Continuous
 62
     6
370
     9
100
AcDbLine
 10
-326.2391373917862
 20
17.97026763091225
 30
0.0
 11
-345.9202534443622
 21
37.65138368348829
 31
0.0
  0
LINE
  5
12F
330
1F
100
AcDbEntity
  8
0-6
  6
Continuous
 62
     6
370
     9
100
AcDbLine
 10
-330.0156876847549
 20
14.67573011243672
 30
0.0
 11
-336.9078765044341
 21
21.5679189321159
 31
0.0
  0
LINE
  5
130
330
1F
100
AcDbEntity
  8
0-6
  6
Continuous
 62
     6
370
     9
100
AcDbLine
 10
-337.6952300200591
 20
22.3552724477409
 30
0.0
 11
-354.5255918760557
 21
39.18563430373752
 31
0.0
  0
LINE
  5
131
330
1F
100
AcDbEntity
  8
0-6
  6
Continuous
 62
     6
370
     9
100
AcDbLine
 10
-333.7922379777237
 20
11.3811925939612
 30
0.0
 11
-340.3446919209247
 21
17.93364653716225
 31
0.0
  0
LINE
  5
132
330
1F
100
AcDbEntity
  8
0-6
  6
Continuous
 62
     6
370
     9
100
AcDbLine
 10
-344.2066089527026
 20
21.79556356894011
 30
0.0
 11
-363.1309303077489
 21
40.71988492398646
 31
0.0
  0
LINE
  5
133
330
1F
100
AcDbEntity
  8
0-6
  6
Continuous
 62
     6
370
     9
100
AcDbLine
 10
-337.5689119906039
 20
8.086778795397151
 30
0.0
 11
-343.7815073374153
 21
14.29937414220859
 31
0.0
  0
LINE
  5
134
330
1F
100
AcDbEntity
  8
0-6
  6
Continuous
 62
     6
370
     9
100
AcDbLine
 10
-350.7178641654349
 20
21.23573097022813
 30
0.0
 11
-366.2886336043073
 21
36.80650040910052
 31
0.0
  0
LINE
  5
135
330
1F
100
AcDbEntity
  8
0-6
  6
Continuous
 62
     6
370
     9
100
AcDbLine
 10
-366.6156253299198
 20
37.13349213471304
 30
0.0
 11
-371.7362687394424
 21
42.25413554423568
 31
0.0
  0
LINE
  5
136
330
1F
100
AcDbEntity
  8
0-6
  6
Continuous
 62
     6
370
     9
100
AcDbLine
 10
-341.3454622835727
 20
4.792241276921629
 30
0.0
 11
-347.2183227539062
 21
10.66510174725522
 31
0.0
  0
LINE
  5
137
330
1F
100
AcDbEntity
  8
0-6
  6
Continuous
 62
     6
370
     9
100
AcDbLine
 10
-357.2291193781672
 20
20.67589837151615
 30
0.0
 11
-374.8938483160893
 21
38.34062730943856
 31
0.0
  0
LINE
  5
138
330
1F
100
AcDbEntity
  8
0-6
  6
Continuous
 62
     6
370
     9
100
AcDbLine
 10
-345.1220125765414
 20
1.497703758446107
 30
0.0
 11
-349.0400984480573
 21
5.415789629961978
 31
0.0
  0
LINE
  5
139
330
1F
100
AcDbEntity
  8
0-6
  6
Continuous
 62
     6
370
     9
100
AcDbLine
 10
-362.5856966585727
 20
18.96138784047736
 30
0.0
 11
-383.4993104676943
 21
39.87500164959897
 31
0.0
  0
LINE
  5
13A
330
1F
100
AcDbEntity
  8
0-6
  6
Continuous
 62
     6
370
     9
100
AcDbLine
 10
-366.3622469515414
 20
15.66685032200184
 30
0.0
 11
-392.1718288112331
 21
41.4764321816935
 31
0.0
  0
LINE
  5
13B
330
1F
100
AcDbEntity
  8
0-6
  6
Continuous
 62
     6
370
     9
100
AcDbLine
 10
-370.1387972445102
 20
12.3724365234375
 30
0.0
 11
-376.8694078600083
 21
19.10292341902448
 31
0.0
  0
LINE
  5
13C
330
1F
100
AcDbEntity
  8
0-6
  6
Continuous
 62
     6
370
     9
100
AcDbLine
 10
-379.1196256070523
 20
21.3531411660685
 30
0.0
 11
-395.6395742055531
 21
37.87308976456927
 31
0.0
  0
LINE
  5
13D
330
1F
100
AcDbEntity
  8
0-6
  6
Continuous
 62
     6
370
     9
100
AcDbLine
 10
-373.9154712573901
 20
9.077899004961978
 30
0.0
 11
-380.3062232764989
 21
15.46865102407111
 31
0.0
  0
LINE
  5
13E
330
1F
100
AcDbEntity
  8
0-6
  6
Continuous
 62
     6
370
     9
100
AcDbLine
 10
-385.6308808197846
 20
20.79330856735652
 30
0.0
 11
-399.107195879962
 21
34.26962362753386
 31
0.0
  0
LINE
  5
13F
330
1F
100
AcDbEntity
  8
0-6
  6
Continuous
 62
     6
370
     9
100
AcDbLine
 10
-377.6920215503588
 20
5.783361486486456
 30
0.0
 11
-383.7430386929898
 21
11.83437862911745
 31
0.0
  0
LINE
  5
140
330
1F
100
AcDbEntity
  8
0-6
  6
Continuous
 62
     6
370
     9
100
AcDbLine
 10
-392.1422597524281
 20
20.23347596864454
 30
0.0
 11
-399.4747677364865
 21
27.56610767261407
 31
0.0
  0
LINE
  5
141
330
1F
100
AcDbEntity
  8
0-6
  6
Continuous
 62
     6
370
     9
100
AcDbLine
 10
-381.4685718433276
 20
2.488823968010934
 30
0.0
 11
-387.1797303895693
 21
8.19998251425261
 31
0.0
  0
LINE
  5
142
330
1F
100
AcDbEntity
  8
0-6
  6
Continuous
 62
     6
370
     9
100
AcDbLine
 10
-398.6535149651604
 20
19.67376708984375
 30
0.0
 11
-399.3363251557221
 21
20.35657728040547
 31
0.0
  0
LINE
  5
143
330
1F
100
AcDbEntity
  8
0-6
  6
Continuous
 62
     6
370
     9
100
AcDbLine
 10
-385.2451221362963
 20
-0.8057135504643043
 30
0.0
 11
-390.6165458060599
 21
4.565710119298956
 31
0.0
  0
LINE
  5
144
330
1F
100
AcDbEntity
  8
0-6
  6
Continuous
 62
     6
370
     9
100
AcDbLine
 10
-389.0217961491766
 20
-4.100251068939826
 30
0.0
 11
-394.0533612225505
 21
0.9314377243455851
 31
0.0
  0
LINE
  5
145
330
1F
100
AcDbEntity
  8
0-6
  6
Continuous
 62
     6
370
     9
100
AcDbLine
 10
-392.7983464421453
 20
-7.394664867504162
 30
0.0
 11
-397.4901766390414
 21
-2.70283467060807
 31
0.0
  0
LINE
  5
146
330
1F
100
AcDbEntity
  8
0-6
  6
Continuous
 62
     6
370
     9
100
AcDbLine
 10
-396.5748967351141
 20
-10.68920238597968
 30
0.0
 11
-398.782678552576
 21
-8.481420568517706
 31
0.0
  0
LINE
  5
147
330
1F
100
AcDbEntity
  8
0-6
  6
Continuous
 62
     6
370
     9
100
AcDbLine
 10
-316.5861387510557
 20
-295.7396306218327
 30
0.0
 11
-334.6759693042651
 21
-277.6498000686233
 31
0.0
  0
LINE
  5
148
330
1F
100
AcDbEntity
  8
0-6
  6
Continuous
 62
     6
370
     9
100
AcDbLine
 10
-316.4478198902026
 20
-302.9490372941299
 30
0.0
 11
-343.641827557538
 21
-275.7550296267947
 31
0.0
  0
LINE
  5
149
330
1F
100
AcDbEntity
  8
0-6
  6
Continuous
 62
     6
370
     9
100
AcDbLine
 10
-318.2145402238174
 20
-308.2534047719594
 30
0.0
 11
-332.4700432854729
 21
-293.9979017103041
 31
0.0
  0
LINE
  5
14A
330
1F
100
AcDbEntity
  8
0-6
  6
Continuous
 62
     6
370
     9
100
AcDbLine
 10
-321.6822856181375
 20
-311.8568709089949
 30
0.0
 11
-339.8931142446156
 21
-293.6460422825168
 31
0.0
  0
LINE
  5
14B
330
1F
100
AcDbEntity
  8
0-6
  6
Continuous
 62
     6
370
     9
100
AcDbLine
 10
-330.543971706081
 20
-310.0662726324957
 30
0.0
 11
-347.3160614838471
 21
-293.2940591348183
 31
0.0
  0
LINE
  5
14C
330
1F
100
AcDbEntity
  8
0-6
  6
Continuous
 62
     6
370
     9
100
AcDbLine
 10
-333.7016750026393
 20
-313.9795334274704
 30
0.0
 11
-354.7390087230784
 21
-292.9421997070312
 31
0.0
  0
LINE
  5
14D
330
1F
100
AcDbEntity
  8
0-6
  6
Continuous
 62
     6
370
     9
100
AcDbLine
 10
-342.3070134343325
 20
-312.4452828072212
 30
0.0
 11
-390.4256459828969
 21
-264.3267739785683
 31
0.0
  0
LINE
  5
14E
330
1F
100
AcDbEntity
  8
0-6
  6
Continuous
 62
     6
370
     9
100
AcDbLine
 10
-350.9122281461148
 20
-310.9111559068833
 30
0.0
 11
-393.799116804793
 21
-268.0242672482052
 31
0.0
  0
LINE
  5
14F
330
1F
100
AcDbEntity
  8
0-6
  6
Continuous
 62
     6
370
     9
100
AcDbLine
 10
-354.0699314426732
 20
-314.8245404217694
 30
0.0
 11
-374.3282008815456
 21
-294.5662709828969
 31
0.0
  0
LINE
  5
150
330
1F
100
AcDbEntity
  8
0-6
  6
Continuous
 62
     6
370
     9
100
AcDbLine
 10
-362.6752698743664
 20
-313.2902898015202
 30
0.0
 11
-381.7511481207768
 21
-294.2144115551098
 31
0.0
  0
LINE
  5
151
330
1F
100
AcDbEntity
  8
0-6
  6
Continuous
 62
     6
370
     9
100
AcDbLine
 10
-371.2806083060599
 20
-311.7560391812711
 30
0.0
 11
-389.1742190799198
 21
-293.8625521273225
 31
0.0
  0
LINE
  5
152
330
1F
100
AcDbEntity
  8
0-6
  6
Continuous
 62
     6
370
     9
100
AcDbLine
 10
-374.4383116026182
 20
-315.669423696157
 30
0.0
 11
-376.1284493111273
 21
-313.9792859876478
 31
0.0
  0
LINE
  5
153
330
1F
100
AcDbEntity
  8
0-6
  6
Continuous
 62
     6
370
     9
100
AcDbLine
 10
-379.8858230178419
 20
-310.2219122809332
 30
0.0
 11
-393.2454702016469
 21
-296.8622650971282
 31
0.0
  0
LINE
  5
154
330
1F
100
AcDbEntity
  8
0-6
  6
Continuous
 62
     6
370
     9
100
AcDbLine
 10
-383.0435263144003
 20
-314.1352967958192
 30
0.0
 11
-393.1070276208825
 21
-304.071795489337
 31
0.0
  0
LINE
  5
155
330
1F
100
AcDbEntity
  8
0-4
  6
Continuous
 62
     7
370
     9
100
AcDbLine
 10
-948.8466005067567
 20
415.0568699192357
 30
0.0
 11
-948.8466005067567
 21
493.0568303288641
 31
0.0
  0
LINE
  5
156
330
1F
100
AcDbEntity
  8
0-4
  6
Continuous
 62
     7
370
     9
100
AcDbLine
 10
-484.8464553420607
 20
415.0568699192357
 30
0.0
 11
-484.8464553420607
 21
493.0568303288641
 31
0.0
  0
LINE
  5
157
330
1F
100
AcDbEntity
  8
0-4
  6
Continuous
 62
     7
370
     9
100
AcDbLine
 10
-948.8466005067567
 20
490.0568699192357
 30
0.0
 11
-924.0605534733952
 21
493.3199825802365
 31
0.0
  0
LINE
  5
158
330
1F
100
AcDbEntity
  8
0-4
  6
Continuous
 62
     7
370
     9
100
AcDbLine
 10
-948.8466005067567
 20
490.0568699192357
 30
0.0
 11
-924.0605534733952
 21
486.7937572582349
 31
0.0
  0
LINE
  5
159
330
1F
100
AcDbEntity
  8
0-4
  6
Continuous
 62
     7
370
     9
100
AcDbLine
 10
-484.8464553420607
 20
490.0568699192357
 30
0.0
 11
-509.6325023754221
 21
493.3199825802365
 31
0.0
  0
LINE
  5
15A
330
1F
100
AcDbEntity
  8
0-4
  6
Continuous
 62
     7
370
     9
100
AcDbLine
 10
-484.8464553420607
 20
490.0568699192357
 30
0.0
 11
-509.6325023754221
 21
486.7937572582349
 31
0.0
  0
LINE
  5
15B
330
1F
100
AcDbEntity
  8
0-4
  6
Continuous
 62
     7
370
     9
100
AcDbLine
 10
-1048.846682986697
 20
146.6314284865922
 30
0.0
 11
-1048.846682986697
 21
390.0569111592063
 31
0.0
  0
LINE
  5
15C
330
1F
100
AcDbEntity
  8
0-4
  6
Continuous
 62
     7
370
     9
100
AcDbLine
 10
-973.8466829866975
 20
218.3903379698057
 30
0.0
 11
-1051.846643396326
 21
218.3903379698057
 31
0.0
  0
LINE
  5
15D
330
1F
100
AcDbEntity
  8
0-4
  6
Continuous
 62
     7
370
     9
100
AcDbLine
 10
-973.8466829866975
 20
390.0569111592063
 30
0.0
 11
-1211.846676388302
 21
390.0569111592063
 31
0.0
  0
LINE
  5
15E
330
1F
100
AcDbEntity
  8
0-4
  6
Continuous
 62
     7
370
     9
100
AcDbLine
 10
-1048.846682986697
 20
218.3903379698057
 30
0.0
 11
-1052.109671927787
 21
243.1765087230787
 31
0.0
  0
LINE
  5
15F
330
1F
100
AcDbEntity
  8
0-4
  6
Continuous
 62
     7
370
     9
100
AcDbLine
 10
-1048.846682986697
 20
218.3903379698057
 30
0.0
 11
-1045.583446605785
 21
243.1765087230787
 31
0.0
  0
LINE
  5
160
330
1F
100
AcDbEntity
  8
0-4
  6
Continuous
 62
     7
370
     9
100
AcDbLine
 10
-1048.846682986697
 20
390.0569111592063
 30
0.0
 11
-1052.109671927787
 21
365.2707404059333
 31
0.0
  0
LINE
  5
161
330
1F
100
AcDbEntity
  8
0-4
  6
Continuous
 62
     7
370
     9
100
AcDbLine
 10
-1048.846682986697
 20
390.0569111592063
 30
0.0
 11
-1045.583446605785
 21
365.2707404059333
 31
0.0
  0
LINE
  5
162
330
1F
100
AcDbEntity
  8
0-4
  6
Continuous
 62
     7
370
     9
100
AcDbLine
 10
-970.1798722550675
 20
201.7235338365711
 30
0.0
 11
-1051.846643396326
 21
201.7235338365711
 31
0.0
  0
LINE
  5
163
330
1F
100
AcDbEntity
  8
0-4
  6
Continuous
 62
     7
370
     9
100
AcDbLine
 10
-1048.846682986697
 20
201.7235338365711
 30
0.0
 11
-1052.109671927787
 21
176.9373630832982
 31
0.0
  0
LINE
  5
164
330
1F
100
AcDbEntity
  8
0-4
  6
Continuous
 62
     7
370
     9
100
AcDbLine
 10
-1048.846682986697
 20
201.7235338365711
 30
0.0
 11
-1045.583446605785
 21
176.9373630832982
 31
0.0
  0
LINE
  5
165
330
1F
100
AcDbEntity
  8
0-4
  6
Continuous
 62
     7
370
     9
100
AcDbLine
 10
-1128.846699482686
 20
-143.2763671875
 30
0.0
 11
-1128.846699482686
 21
390.0569111592063
 31
0.0
  0
LINE
  5
166
330
1F
100
AcDbEntity
  8
0-4
  6
Continuous
 62
     7
370
     9
100
AcDbLine
 10
-1026.364300702069
 20
-143.2763671875
 30
0.0
 11
-1131.846659892314
 21
-143.2763671875
 31
0.0
  0
LINE
  5
167
330
1F
100
AcDbEntity
  8
0-4
  6
Continuous
 62
     7
370
     9
100
AcDbLine
 10
-1128.846699482686
 20
-143.2763671875
 30
0.0
 11
-1132.109935863598
 21
-118.4901964342271
 31
0.0
  0
LINE
  5
168
330
1F
100
AcDbEntity
  8
0-4
  6
Continuous
 62
     7
370
     9
100
AcDbLine
 10
-1128.846699482686
 20
-143.2763671875
 30
0.0
 11
-1125.583463101774
 21
-118.4901964342271
 31
0.0
  0
LINE
  5
169
330
1F
100
AcDbEntity
  8
0-4
  6
Continuous
 62
     7
370
     9
100
AcDbLine
 10
-1128.846699482686
 20
390.0569111592063
 30
0.0
 11
-1132.109935863598
 21
365.2707404059333
 31
0.0
  0
LINE
  5
16A
330
1F
100
AcDbEntity
  8
0-4
  6
Continuous
 62
     7
370
     9
100
AcDbLine
 10
-1128.846699482686
 20
390.0569111592063
 30
0.0
 11
-1125.583463101774
 21
365.2707404059333
 31
0.0
  0
LINE
  5
16B
330
1F
100
AcDbEntity
  8
0-4
  6
Continuous
 62
     7
370
     9
100
AcDbLine
 10
-1128.846699482686
 20
-843.2764496674408
 30
0.0
 11
-1128.846699482686
 21
-643.2764084274704
 31
0.0
  0
LINE
  5
16C
330
1F
100
AcDbEntity
  8
0-4
  6
Continuous
 62
     7
370
     9
100
AcDbLine
 10
-868.5132825696791
 20
-843.2764496674408
 30
0.0
 11
-1211.846676388302
 21
-843.2764496674408
 31
0.0
  0
LINE
  5
16D
330
1F
100
AcDbEntity
  8
0-4
  6
Continuous
 62
     7
370
     9
100
AcDbLine
 10
-936.8465114284206
 20
-643.2764084274704
 30
0.0
 11
-1131.846659892314
 21
-643.2764084274704
 31
0.0
  0
LINE
  5
16E
330
1F
100
AcDbEntity
  8
0-4
  6
Continuous
 62
     7
370
     9
100
AcDbLine
 10
-1128.846699482686
 20
-843.2764496674408
 30
0.0
 11
-1132.109935863598
 21
-818.4904026340793
 31
0.0
  0
LINE
  5
16F
330
1F
100
AcDbEntity
  8
0-4
  6
Continuous
 62
     7
370
     9
100
AcDbLine
 10
-1128.846699482686
 20
-843.2764496674408
 30
0.0
 11
-1125.583463101774
 21
-818.4904026340793
 31
0.0
  0
LINE
  5
170
330
1F
100
AcDbEntity
  8
0-4
  6
Continuous
 62
     7
370
     9
100
AcDbLine
 10
-1128.846699482686
 20
-643.2764084274704
 30
0.0
 11
-1132.109935863598
 21
-668.0625173207875
 31
0.0
  0
LINE
  5
171
330
1F
100
AcDbEntity
  8
0-4
  6
Continuous
 62
     7
370
     9
100
AcDbLine
 10
-1128.846699482686
 20
-643.2764084274704
 30
0.0
 11
-1125.583463101774
 21
-668.0625173207875
 31
0.0
  0
LINE
  5
172
330
1F
100
AcDbEntity
  8
0-4
  6
Continuous
 62
     7
370
     9
100
AcDbLine
 10
-1208.846715978674
 20
-843.2764496674408
 30
0.0
 11
-1208.846715978674
 21
390.0569111592063
 31
0.0
  0
LINE
  5
173
330
1F
100
AcDbEntity
  8
0-4
  6
Continuous
 62
     7
370
     9
100
AcDbLine
 10
-1208.846715978674
 20
-843.2764496674408
 30
0.0
 11
-1212.109704919763
 21
-818.4904026340793
 31
0.0
  0
LINE
  5
174
330
1F
100
AcDbEntity
  8
0-4
  6
Continuous
 62
     7
370
     9
100
AcDbLine
 10
-1208.846715978674
 20
-843.2764496674408
 30
0.0
 11
-1205.583479597762
 21
-818.4904026340793
 31
0.0
  0
LINE
  5
175
330
1F
100
AcDbEntity
  8
0-4
  6
Continuous
 62
     7
370
     9
100
AcDbLine
 10
-1208.846715978674
 20
390.0569111592063
 30
0.0
 11
-1212.109704919763
 21
365.2707404059333
 31
0.0
  0
LINE
  5
176
330
1F
100
AcDbEntity
  8
0-4
  6
Continuous
 62
     7
370
     9
100
AcDbLine
 10
-1208.846715978674
 20
390.0569111592063
 30
0.0
 11
-1205.583479597762
 21
365.2707404059333
 31
0.0
  0
LINE
  5
177
330
1F
100
AcDbEntity
  8
0-4
  6
Continuous
 62
     7
370
     9
100
AcDbLine
 10
-843.5132000897381
 20
-943.2764084274704
 30
0.0
 11
-590.1798557590794
 21
-943.2764084274704
 31
0.0
  0
LINE
  5
178
330
1F
100
AcDbEntity
  8
0-4
  6
Continuous
 62
     7
370
     9
100
AcDbLine
 10
-843.5132000897381
 20
-868.2765321473818
 30
0.0
 11
-843.5132000897381
 21
-946.2764925570102
 31
0.0
  0
LINE
  5
179
330
1F
100
AcDbEntity
  8
0-4
  6
Continuous
 62
     7
370
     9
100
AcDbLine
 10
-590.1798557590794
 20
-868.2765321473818
 30
0.0
 11
-590.1798557590794
 21
-946.2764925570102
 31
0.0
  0
LINE
  5
17A
330
1F
100
AcDbEntity
  8
0-4
  6
Continuous
 62
     7
370
     9
100
AcDbLine
 10
-843.5132000897381
 20
-943.2764084274704
 30
0.0
 11
-818.726905616554
 21
-940.0132957664696
 31
0.0
  0
LINE
  5
17B
330
1F
100
AcDbEntity
  8
0-4
  6
Continuous
 62
     7
370
     9
100
AcDbLine
 10
-843.5132000897381
 20
-943.2764084274704
 30
0.0
 11
-818.726905616554
 21
-946.5395210884712
 31
0.0
  0
LINE
  5
17C
330
1F
100
AcDbEntity
  8
0-4
  6
Continuous
 62
     7
370
     9
100
AcDbLine
 10
-590.1798557590794
 20
-943.2764084274704
 30
0.0
 11
-614.9661502322635
 21
-940.0132957664696
 31
0.0
  0
LINE
  5
17D
330
1F
100
AcDbEntity
  8
0-4
  6
Continuous
 62
     7
370
     9
100
AcDbLine
 10
-590.1798557590794
 20
-943.2764084274704
 30
0.0
 11
-614.9661502322635
 21
-946.5395210884712
 31
0.0
  0
LINE
  5
17E
330
1F
100
AcDbEntity
  8
0-4
  6
Continuous
 62
     7
370
     9
100
AcDbLine
 10
-716.8465279244085
 20
-1043.2763671875
 30
0.0
 11
-316.8464454444677
 21
-1043.2763671875
 31
0.0
  0
LINE
  5
17F
330
1F
100
AcDbEntity
  8
0-4
  6
Continuous
 62
     7
370
     9
100
AcDbLine
 10
-716.8465279244085
 20
-892.3737067145271
 30
0.0
 11
-716.8465279244085
 21
-1046.276327597128
 31
0.0
  0
LINE
  5
180
330
1F
100
AcDbEntity
  8
0-4
  6
Continuous
 62
     7
370
     9
100
AcDbLine
 10
-316.8464454444677
 20
-180.0117781355573
 30
0.0
 11
-316.8464454444677
 21
-1046.276327597128
 31
0.0
  0
LINE
  5
181
330
1F
100
AcDbEntity
  8
0-4
  6
Continuous
 62
     7
370
     9
100
AcDbLine
 10
-716.8465279244085
 20
-1043.2763671875
 30
0.0
 11
-692.0604808910471
 21
-1040.013254526499
 31
0.0
  0
LINE
  5
182
330
1F
100
AcDbEntity
  8
0-4
  6
Continuous
 62
     7
370
     9
100
AcDbLine
 10
-716.8465279244085
 20
-1043.2763671875
 30
0.0
 11
-692.0604808910471
 21
-1046.539479848501
 31
0.0
  0
LINE
  5
183
330
1F
100
AcDbEntity
  8
0-4
  6
Continuous
 62
     7
370
     9
100
AcDbLine
 10
-316.8464454444677
 20
-1043.2763671875
 30
0.0
 11
-341.6326161977406
 21
-1040.013254526499
 31
0.0
  0
LINE
  5
184
330
1F
100
AcDbEntity
  8
0-4
  6
Continuous
 62
     7
370
     9
100
AcDbLine
 10
-316.8464454444677
 20
-1043.2763671875
 30
0.0
 11
-341.6326161977406
 21
-1046.539479848501
 31
0.0
  0
LINE
  5
185
330
1F
100
AcDbEntity
  8
0-4
  6
Continuous
 62
     7
370
     9
100
AcDbLine
 10
-200.0846656593114
 20
-143.2763671875
 30
0.0
 11
-203.3477783203125
 21
-168.0625379407726
 31
0.0
  0
LINE
  5
186
330
1F
100
AcDbEntity
  8
0-4
  6
Continuous
 62
     7
370
     9
100
AcDbLine
 10
-200.0846656593114
 20
-143.2763671875
 30
0.0
 11
-196.8215529983107
 21
-168.0625379407726
 31
0.0
  0
LINE
  5
187
330
1F
100
AcDbEntity
  8
0-4
  6
Continuous
 62
     7
370
     9
100
AcDbLine
 10
-200.179929991026
 20
-133.3558860985008
 30
0.0
 11
-203.9182508313976
 21
-108.6370189769846
 31
0.0
  0
LINE
  5
188
330
1F
100
AcDbEntity
  8
0-4
  6
Continuous
 62
     7
370
     9
100
AcDbLine
 10
-200.179929991026
 20
-133.3558860985008
 30
0.0
 11
-197.3932627085091
 21
-108.5118144267312
 31
0.0
  0
LINE
  5
189
330
1F
100
AcDbEntity
  8
0-4
  6
Continuous
 62
     7
370
     9
100
AcDbLine
 10
-96.59642399968305
 20
-318.0679816168707
 30
0.0
 11
-103.7635184623099
 21
55.19659918707788
 31
0.0
  0
LINE
  5
18A
330
1F
100
AcDbEntity
  8
0-4
  6
Continuous
 62
     7
370
     9
100
AcDbLine
 10
-301.7459353885135
 20
-322.0070998733108
 30
0.0
 11
-93.59695846969998
 21
-318.0103281381968
 31
0.0
  0
LINE
  5
18B
330
1F
100
AcDbEntity
  8
0-4
  6
Continuous
 62
     7
370
     9
100
AcDbLine
 10
-311.0541266364018
 20
51.21640592008021
 30
0.0
 11
-100.7640529323268
 21
55.25425266575184
 31
0.0
  0
LINE
  5
18C
330
1F
100
AcDbEntity
  8
0-4
  6
Continuous
 62
     7
370
     9
100
AcDbLine
 10
-96.59642399968305
 20
-318.0678578969594
 30
0.0
 11
-93.80963299725494
 21
-293.2236625052786
 31
0.0
  0
LINE
  5
18D
330
1F
100
AcDbEntity
  8
0-4
  6
Continuous
 62
     7
370
     9
100
AcDbLine
 10
-96.59642399968305
 20
-318.0678578969594
 30
0.0
 11
-100.3347448400547
 21
-293.3489907754433
 31
0.0
  0
LINE
  5
18E
330
1F
100
AcDbEntity
  8
0-4
  6
Continuous
 62
     7
370
     9
100
AcDbLine
 10
-103.7635184623099
 20
55.19672290698907
 30
0.0
 11
-100.0251976219383
 21
30.4778557854732
 31
0.0
  0
LINE
  5
18F
330
1F
100
AcDbEntity
  8
0-4
  6
Continuous
 62
     7
370
     9
100
AcDbLine
 10
-103.7635184623099
 20
55.19672290698907
 30
0.0
 11
-106.550309464738
 21
30.35252751530834
 31
0.0
  0
LINE
  5
190
330
1F
100
AcDbEntity
  8
0-4
  6
Continuous
 62
     7
370
     9
100
AcDbLine
 10
-0.1801361908783861
 20
-476.6098517340582
 30
0.0
 11
-0.1801361908783861
 21
190.0569936391472
 31
0.0
  0
LINE
  5
191
330
1F
100
AcDbEntity
  8
0-4
  6
Continuous
 62
     7
370
     9
100
AcDbLine
 10
-275.179929991026
 20
-476.6098517340582
 30
0.0
 11
2.81982421875
 21
-476.6098517340582
 31
0.0
  0
LINE
  5
192
330
1F
100
AcDbEntity
  8
0-4
  6
Continuous
 62
     7
370
     9
100
AcDbLine
 10
-275.179929991026
 20
190.0569936391472
 30
0.0
 11
2.81982421875
 21
190.0569936391472
 31
0.0
  0
LINE
  5
193
330
1F
100
AcDbEntity
  8
0-4
  6
Continuous
 62
     7
370
     9
100
AcDbLine
 10
-0.1801361908783861
 20
-476.6098517340582
 30
0.0
 11
-3.44312513196769
 21
-451.823742840741
 31
0.0
  0
LINE
  5
194
330
1F
100
AcDbEntity
  8
0-4
  6
Continuous
 62
     7
370
     9
100
AcDbLine
 10
-0.1801361908783861
 20
-476.6098517340582
 30
0.0
 11
3.083100190033861
 21
-451.823742840741
 31
0.0
  0
LINE
  5
195
330
1F
100
AcDbEntity
  8
0-4
  6
Continuous
 62
     7
370
     9
100
AcDbLine
 10
-0.1801361908783861
 20
190.0569936391472
 30
0.0
 11
-3.44312513196769
 21
165.2708228858742
 31
0.0
  0
LINE
  5
196
330
1F
100
AcDbEntity
  8
0-4
  6
Continuous
 62
     7
370
     9
100
AcDbLine
 10
-0.1801361908783861
 20
190.0569936391472
 30
0.0
 11
3.083100190033861
 21
165.2708228858742
 31
0.0
  0
LINE
  5
197
330
1F
100
AcDbEntity
  8
0-4
  6
Continuous
 62
     7
370
     9
100
AcDbLine
 10
1504.643950591216
 20
-843.2764496674408
 30
0.0
 11
1504.643950591216
 21
390.0569111592063
 31
0.0
  0
LINE
  5
198
330
1F
100
AcDbEntity
  8
0-4
  6
Continuous
 62
     7
370
     9
100
AcDbLine
 10
1222.977014490076
 20
-843.2764496674408
 30
0.0
 11
1507.643911000845
 21
-843.2764496674408
 31
0.0
  0
LINE
  5
199
330
1F
100
AcDbEntity
  8
0-4
  6
Continuous
 62
     7
370
     9
100
AcDbLine
 10
1291.310490788641
 20
-643.2764084274704
 30
0.0
 11
1507.643911000845
 21
-643.2764084274704
 31
0.0
  0
LINE
  5
19A
330
1F
100
AcDbEntity
  8
0-4
  6
Continuous
 62
     7
370
     9
100
AcDbLine
 10
1504.643950591216
 20
-843.2764496674408
 30
0.0
 11
1501.380714210304
 21
-818.4904026340793
 31
0.0
  0
LINE
  5
19B
330
1F
100
AcDbEntity
  8
0-4
  6
Continuous
 62
     7
370
     9
100
AcDbLine
 10
1504.643950591216
 20
-843.2764496674408
 30
0.0
 11
1507.907186972129
 21
-818.4904026340793
 31
0.0
  0
LINE
  5
19C
330
1F
100
AcDbEntity
  8
0-4
  6
Continuous
 62
     7
370
     9
100
AcDbLine
 10
1504.643950591216
 20
-643.2764084274704
 30
0.0
 11
1501.380714210304
 21
-668.0625173207875
 31
0.0
  0
LINE
  5
19D
330
1F
100
AcDbEntity
  8
0-4
  6
Continuous
 62
     7
370
     9
100
AcDbLine
 10
1504.643950591216
 20
-643.2764084274704
 30
0.0
 11
1507.907186972129
 21
-668.0625173207875
 31
0.0
  0
LINE
  5
19E
330
1F
100
AcDbEntity
  8
0-4
  6
Continuous
 62
     7
370
     9
100
AcDbLine
 10
1324.643851615288
 20
-609.9431713207348
 30
0.0
 11
1507.643911000845
 21
-609.9431713207348
 31
0.0
  0
LINE
  5
19F
330
1F
100
AcDbEntity
  8
0-4
  6
Continuous
 62
     7
370
     9
100
AcDbLine
 10
1328.310662346917
 20
390.0569111592063
 30
0.0
 11
1507.643911000845
 21
390.0569111592063
 31
0.0
  0
LINE
  5
1A0
330
1F
100
AcDbEntity
  8
0-4
  6
Continuous
 62
     7
370
     9
100
AcDbLine
 10
1504.643950591216
 20
-609.9431713207348
 30
0.0
 11
1501.380714210304
 21
-585.1570624274176
 31
0.0
  0
LINE
  5
1A1
330
1F
100
AcDbEntity
  8
0-4
  6
Continuous
 62
     7
370
     9
100
AcDbLine
 10
1504.643950591216
 20
-609.9431713207348
 30
0.0
 11
1507.907186972129
 21
-585.1570624274176
 31
0.0
  0
LINE
  5
1A2
330
1F
100
AcDbEntity
  8
0-4
  6
Continuous
 62
     7
370
     9
100
AcDbLine
 10
1504.643950591216
 20
390.0569111592063
 30
0.0
 11
1501.380714210304
 21
365.2707404059333
 31
0.0
  0
LINE
  5
1A3
330
1F
100
AcDbEntity
  8
0-4
  6
Continuous
 62
     7
370
     9
100
AcDbLine
 10
1504.643950591216
 20
390.0569111592063
 30
0.0
 11
1507.907186972129
 21
365.2707404059333
 31
0.0
  0
LINE
  5
1A4
330
1F
100
AcDbEntity
  8
0-E
  6
Continuous
 62
     7
370
     9
100
AcDbLine
 10
-310.179921743032
 20
190.0569936391472
 30
0.0
 11
-300.6127847207557
 21
213.154016443201
 31
0.0
  0
LINE
  5
1A5
330
1F
100
AcDbEntity
  8
0-E
  6
Continuous
 62
     7
370
     9
100
AcDbLine
 10
-310.179921743032
 20
190.0569936391472
 30
0.0
 11
-294.9608880120354
 21
209.8907800622891
 31
0.0
  0
LINE
  5
1A6
330
1F
100
AcDbEntity
  8
0-E
  6
Continuous
 62
     7
370
     9
100
AcDbLine
 10
-444.5872538798562
 20
85.07891680743256
 30
0.0
 11
-441.3241412188555
 21
109.8650875607052
 31
0.0
  0
LINE
  5
1A7
330
1F
100
AcDbEntity
  8
0-E
  6
Continuous
 62
     7
370
     9
100
AcDbLine
 10
-444.5872538798562
 20
85.07891680743256
 30
0.0
 11
-435.0201168575802
 21
108.1759396114865
 31
0.0
  0
LINE
  5
1A8
330
1F
100
AcDbEntity
  8
0-E
  6
Continuous
 62
     7
370
     9
100
AcDbLine
 10
-882.8464817356418
 20
390.0569111592063
 30
0.0
 11
-898.0655154666384
 21
409.8906975823482
 31
0.0
  0
LINE
  5
1A9
330
1F
100
AcDbEntity
  8
0-E
  6
Continuous
 62
     7
370
     9
100
AcDbLine
 10
-882.8464817356418
 20
390.0569111592063
 30
0.0
 11
-892.4134950380067
 21
413.1539339632602
 31
0.0
  0
LINE
  5
1AA
330
1F
100
AcDbEntity
  8
0-E
  6
Continuous
 62
     7
370
     9
100
AcDbLine
 10
-843.5132000897381
 20
-843.2764496674408
 30
0.0
 11
-853.080213392103
 21
-866.3734724714949
 31
0.0
  0
LINE
  5
1AB
330
1F
100
AcDbEntity
  8
0-E
  6
Continuous
 62
     7
370
     9
100
AcDbLine
 10
-843.5132000897381
 20
-843.2764496674408
 30
0.0
 11
-858.7322338207348
 21
-863.1102360905828
 31
0.0
  0
LINE
  5
1AC
330
1F
100
AcDbEntity
  8
0-E
  6
Continuous
 62
     7
370
     9
100
AcDbLine
 10
-342.3070134343325
 20
-312.4452828072212
 30
0.0
 11
-327.0879797033359
 21
-332.2790692303631
 31
0.0
  0
LINE
  5
1AD
330
1F
100
AcDbEntity
  8
0-E
  6
Continuous
 62
     7
370
     9
100
AcDbLine
 10
-342.3070134343325
 20
-312.4452828072212
 30
0.0
 11
-332.7398764120565
 21
-335.5423056112753
 31
0.0
  0
LINE
  5
1AE
330
1F
100
AcDbEntity
  8
0-E
  6
Continuous
 62
     7
370
     9
100
AcDbLine
 10
-310.179921743032
 20
190.0569936391472
 30
0.0
 11
-223.5773447397591
 21
340.0569936391472
 31
0.0
  0
LINE
  5
1AF
330
1F
100
AcDbEntity
  8
0-E
  6
Continuous
 62
     7
370
     9
100
AcDbLine
 10
-444.5872538798562
 20
85.07891680743256
 30
0.0
 11
-336.0736331424198
 21
490.0569936391472
 31
0.0
  0
LINE
  5
1B0
330
1F
100
AcDbEntity
  8
0-4
  6
Continuous
 62
     7
370
     9
100
AcDbLine
 10
-948.8466005067567
 20
490.0568699192357
 30
0.0
 11
-484.8464553420607
 21
490.0568699192357
 31
0.0
  0
LINE
  5
1B1
330
1F
100
AcDbEntity
  8
0-E
  6
Continuous
 62
     7
370
     9
100
AcDbLine
 10
-882.8464817356418
 20
390.0569111592063
 30
0.0
 11
-998.3165019267313
 21
590.0568286792654
 31
0.0
  0
LINE
  5
1B2
330
1F
100
AcDbEntity
  8
0-E
  6
Continuous
 62
     7
370
     9
100
AcDbLine
 10
-342.3070134343325
 20
-312.4452828072212
 30
0.0
 11
-160.9239732896958
 21
-626.6098517340582
 31
0.0
  0
LINE
  5
1B3
330
1F
100
AcDbEntity
  8
0-E
  6
Continuous
 62
     7
370
     9
100
AcDbLine
 10
-843.5132000897381
 20
-843.2764496674408
 30
0.0
 11
-930.1159008129223
 21
-993.2764496674408
 31
0.0
  0
LINE
  5
1B4
330
1F
100
AcDbEntity
  8
0-E
  6
Continuous
 62
     7
370
     9
100
AcDbLine
 10
-930.1159008129223
 20
-993.2764496674408
 30
0.0
 11
-1508.108108108108
 21
-993.2764496674408
 31
0.0
  0
LINE
  5
1B5
330
1F
100
AcDbEntity
  8
0-E
  6
Continuous
 62
     7
370
     9
100
AcDbLine
 10
-336.0736331424198
 20
490.0569936391472
 30
0.0
 11
93.77202214421459
 21
490.0569936391472
 31
0.0
  0
LINE
  5
1B6
330
1F
100
AcDbEntity
  8
0-E
  6
Continuous
 62
     7
370
     9
100
AcDbLine
 10
-223.5773447397591
 20
340.0569936391472
 30
0.0
 11
447.8435619457349
 21
340.0569936391472
 31
0.0
  0
LINE
  5
1B7
330
1F
100
AcDbEntity
  8
0-E
  6
Continuous
 62
     7
370
     9
100
AcDbLine
 10
-1556.756756756757
 20
590.0568286792654
 30
0.0
 11
-998.3165019267313
 21
590.0568286792654
 31
0.0
  0
LINE
  5
1B8
330
1F
100
AcDbEntity
  8
0-E
  6
Continuous
 62
     7
370
     9
100
AcDbLine
 10
-160.9239732896958
 20
-626.6098517340582
 30
0.0
 11
89.65882997255079
 21
-626.6098517340582
 31
0.0
  0
LINE
  5
1B9
330
1F
100
AcDbEntity
  8
0-4
  6
Continuous
 62
     7
370
     9
100
AcDbLine
 10
-942.5131308065877
 20
-509.9431507007495
 30
0.0
 11
-917.726960053315
 21
-506.679976179793
 31
0.0
  0
LINE
  5
1BA
330
1F
100
AcDbEntity
  8
0-4
  6
Continuous
 62
     7
370
     9
100
AcDbLine
 10
-942.5131308065877
 20
-509.9431507007495
 30
0.0
 11
-917.726960053315
 21
-513.206325221706
 31
0.0
  0
LINE
  5
1BB
330
1F
100
AcDbEntity
  8
0-4
  6
Continuous
 62
     7
370
     9
100
AcDbLine
 10
-945.1795423353041
 20
-509.9431507007495
 30
0.0
 11
-969.9657130885769
 21
-506.679976179793
 31
0.0
  0
LINE
  5
1BC
330
1F
100
AcDbEntity
  8
0-4
  6
Continuous
 62
     7
370
     9
100
AcDbLine
 10
-945.1795423353041
 20
-509.9431507007495
 30
0.0
 11
-969.9657130885769
 21
-513.206325221706
 31
0.0
  0
LINE
  5
1BD
330
1F
100
AcDbEntity
  8
0-4
  6
Continuous
 62
     7
370
     9
100
AcDbLine
 10
-845.2467634871199
 20
-509.9431507007495
 30
0.0
 11
-1002.601912214949
 21
-509.9431507007495
 31
0.0
  0
LINE
  5
1BE
330
1F
100
AcDbEntity
  8
0-3
  6
Continuous
 62
     4
370
     9
100
AcDbLine
 10
-461.8601618586359
 20
73.07820912953986
 30
0.0
 11
-426.8666035420185
 21
73.75000824799429
 31
0.0
  0
LINE
  5
1BF
330
1F
100
AcDbEntity
  8
0-3
  6
Continuous
 62
     4
370
     9
100
AcDbLine
 10
-454.3614980336781
 20
73.22221910631356
 30
0.0
 11
-453.4319903399492
 21
24.82039168074323
 31
0.0
  0
LINE
  5
1C0
330
1F
100
AcDbEntity
  8
0-3
  6
Continuous
 62
     4
370
     9
100
AcDbLine
 10
-434.3651436470648
 20
73.60599827122059
 30
0.0
 11
-433.4353885135135
 21
25.18548913904141
 31
0.0
  0
LINE
  5
1C1
330
1F
100
AcDbEntity
  8
0-3
  6
Continuous
 62
     4
370
     9
100
AcDbLine
 10
-442.4596425649281
 20
78.4514885979732
 30
0.0
 11
-446.4590124181797
 21
78.3746585330448
 31
0.0
  0
LINE
  5
1C2
330
1F
100
AcDbEntity
  8
0-3
  6
Continuous
 62
     4
370
     9
100
AcDbLine
 10
-446.4590124181797
 20
78.3746585330448
 30
0.0
 11
-446.6168790250211
 21
86.5960940799198
 31
0.0
  0
LINE
  5
1C3
330
1F
100
AcDbEntity
  8
0-3
  6
Continuous
 62
     4
370
     9
100
AcDbLine
 10
-442.4596425649281
 20
78.4514885979732
 30
0.0
 11
-442.6175091717693
 21
86.67280042493672
 31
0.0
  0
LINE
  5
1C4
330
1F
100
AcDbEntity
  8
0-3
  6
Continuous
 62
     4
370
     9
100
AcDbLine
 10
-447.0267630912161
 20
970.03680254962
 30
0.0
 11
-441.6934451541385
 21
970.03680254962
 31
0.0
  0
LINE
  5
1C5
330
1F
100
AcDbEntity
  8
0-3
  6
Continuous
 62
     4
370
     9
100
AcDbLine
 10
-447.0267630912161
 20
942.4482520850929
 30
0.0
 11
-447.0267630912161
 21
970.03680254962
 31
0.0
  0
LINE
  5
1C6
330
1F
100
AcDbEntity
  8
0-3
  6
Continuous
 62
     4
370
     9
100
AcDbLine
 10
-447.0267630912161
 20
942.4482520850929
 30
0.0
 11
-441.6934451541385
 21
942.4482520850929
 31
0.0
  0
LINE
  5
1C7
330
1F
100
AcDbEntity
  8
0-3
  6
Continuous
 62
     4
370
     9
100
AcDbLine
 10
-441.6934451541385
 20
942.4482520850929
 30
0.0
 11
-441.6934451541385
 21
970.03680254962
 31
0.0
  0
ARC
  5
1C8
330
1F
100
AcDbEntity
  8
0-0
  6
Continuous
 62
     3
370
     9
100
AcDbCircle
 10
-410.4316505225927
 20
45.17899796769427
 30
0.0
 40
9.333333453616582
100
AcDbArc
 50
200.0839691162109
 51
342.1160125732422
  0
ARC
  5
1C9
330
1F
100
AcDbEntity
  8
0-0
  6
Continuous
 62
     3
370
     9
100
AcDbCircle
 10
-425.4586709512245
 20
39.68447298616979
 30
0.0
 40
6.666666752583272
100
AcDbArc
 50
20.08396911621094
 51
91.09999084472656
  0
ARC
  5
1CA
330
1F
100
AcDbEntity
  8
0-0
  6
Continuous
 62
     3
370
     9
100
AcDbCircle
 10
-410.4316505225927
 20
45.17899796769427
 30
0.0
 40
6.666666752583272
100
AcDbArc
 50
192.0740356445312
 51
350.1259460449219
  0
ARC
  5
1CB
330
1F
100
AcDbEntity
  8
0-0
  6
Continuous
 62
     3
370
     9
100
AcDbCircle
 10
-459.9490603885135
 20
51.6912429397172
 30
0.0
 40
3.333333376291636
100
AcDbArc
 50
271.0999908447266
 51
1.099990844726565
  0
ARC
  5
1CC
330
1F
100
AcDbEntity
  8
0-0
  6
Continuous
 62
     3
370
     9
100
AcDbCircle
 10
-457.2316762563344
 20
49.07629889410913
 30
0.0
 40
3.333333376291636
100
AcDbArc
 50
271.0999908447266
 51
1.099990844726565
  0
ARC
  5
1CD
330
1F
100
AcDbEntity
  8
0-0
  6
Continuous
 62
     3
370
     9
100
AcDbCircle
 10
-423.4701208166172
 20
42.38998000686252
 30
0.0
 40
6.666666752583272
100
AcDbArc
 50
12.07403564453125
 51
91.10003662109375
  0
ARC
  5
1CE
330
1F
100
AcDbEntity
  8
0-0
  6
Continuous
 62
     3
370
     9
100
AcDbCircle
 10
-475.1799712309966
 20
61.40065786000861
 30
0.0
 40
13.33333350516654
100
AcDbArc
 50
180.0
 51
271.0999908447266
  0
ARC
  5
1CF
330
1F
100
AcDbEntity
  8
0-0
  6
Continuous
 62
     3
370
     9
100
AcDbCircle
 10
-477.8463827597128
 20
58.68240768845027
 30
0.0
 40
13.33333350516654
100
AcDbArc
 50
180.0
 51
271.0999908447266
  0
ARC
  5
1D0
330
1F
100
AcDbEntity
  8
0-0
  6
Continuous
 62
     3
370
     9
100
AcDbCircle
 10
-397.2958126583615
 20
42.8924065667232
 30
0.0
 40
6.666666752583272
100
AcDbArc
 50
91.0999755859375
 51
170.1259460449219
  0
ARC
  5
1D1
330
1F
100
AcDbEntity
  8
0-0
  6
Continuous
 62
     3
370
     9
100
AcDbCircle
 10
-427.9550913217903
 20
52.30551229940886
 30
0.0
 40
3.333333376291636
100
AcDbArc
 50
181.0999908447266
 51
271.0999908447266
  0
ARC
  5
1D2
330
1F
100
AcDbEntity
  8
0-0
  6
Continuous
 62
     3
370
     9
100
AcDbCircle
 10
-430.5700353673984
 20
49.58812816722968
 30
0.0
 40
3.333333376291636
100
AcDbArc
 50
181.0999908447266
 51
271.0999908447266
  0
ARC
  5
1D3
330
1F
100
AcDbEntity
  8
0-0
  6
Continuous
 62
     3
370
     9
100
AcDbCircle
 10
-336.267378523543
 20
34.72924309807865
 30
0.0
 40
13.33333350516654
100
AcDbArc
 50
1.099990844726563
 51
91.09999084472656
  0
ARC
  5
1D4
330
1F
100
AcDbEntity
  8
0-0
  6
Continuous
 62
     3
370
     9
100
AcDbCircle
 10
-333.6523107580234
 20
37.44662723025755
 30
0.0
 40
13.33333350516654
100
AcDbArc
 50
1.099990844726563
 51
91.09999084472656
  0
ARC
  5
1D5
330
1F
100
AcDbEntity
  8
0-0
  6
Continuous
 62
     3
370
     9
100
AcDbCircle
 10
-395.2046987172719
 20
40.26533796980573
 30
0.0
 40
6.666666752583272
100
AcDbArc
 50
91.09999084472655
 51
162.1160125732422
  0
ARC
  5
1D6
330
1F
100
AcDbEntity
  8
0-0
  6
Continuous
 62
     3
370
     9
100
AcDbCircle
 10
-329.7146771405193
 20
-306.5412449192355
 30
0.0
 40
13.33333350516654
100
AcDbArc
 50
271.0999908447266
 51
1.099990844726565
  0
ARC
  5
1D7
330
1F
100
AcDbEntity
  8
0-0
  6
Continuous
 62
     3
370
     9
100
AcDbCircle
 10
-326.9972930083404
 20
-309.1561889648438
 30
0.0
 40
13.33333350516654
100
AcDbArc
 50
271.0999908447266
 51
1.099990844726565
  0
ARC
  5
1D8
330
1F
100
AcDbEntity
  8
0-0
  6
Continuous
 62
     3
370
     9
100
AcDbCircle
 10
-475.1799712309966
 20
-338.6730379671662
 30
0.0
 40
13.33333350516654
100
AcDbArc
 50
91.09999084472655
 51
180.0
  0
ARC
  5
1D9
330
1F
100
AcDbEntity
  8
0-0
  6
Continuous
 62
     3
370
     9
100
AcDbCircle
 10
-388.3960208377323
 20
-314.335846772065
 30
0.0
 40
6.666666752583272
100
AcDbArc
 50
200.0839691162109
 51
271.0999908447266
  0
ARC
  5
1DA
330
1F
100
AcDbEntity
  8
0-0
  6
Continuous
 62
     3
370
     9
100
AcDbCircle
 10
-390.384818412162
 20
-317.0412300728462
 30
0.0
 40
6.666666752583272
100
AcDbArc
 50
192.0740356445312
 51
271.1000061035156
  0
ARC
  5
1DB
330
1F
100
AcDbEntity
  8
0-0
  6
Continuous
 62
     3
370
     9
100
AcDbCircle
 10
-416.5590028505068
 20
-317.5437803526182
 30
0.0
 40
6.666666752583272
100
AcDbArc
 50
271.0999603271485
 51
350.1259460449219
  0
ARC
  5
1DC
330
1F
100
AcDbEntity
  8
0-0
  6
Continuous
 62
     3
370
     9
100
AcDbCircle
 10
-403.4231649862753
 20
-319.8302480336781
 30
0.0
 40
6.666666752583272
100
AcDbArc
 50
12.07403564453125
 51
170.1259460449219
  0
ARC
  5
1DD
330
1F
100
AcDbEntity
  8
0-0
  6
Continuous
 62
     3
370
     9
100
AcDbCircle
 10
-418.6499930716849
 20
-314.9168354756122
 30
0.0
 40
6.666666752583272
100
AcDbArc
 50
271.0999908447266
 51
342.1160125732422
  0
ARC
  5
1DE
330
1F
100
AcDbEntity
  8
0-0
  6
Continuous
 62
     3
370
     9
100
AcDbCircle
 10
-403.4231649862753
 20
-319.8302480336781
 30
0.0
 40
9.333333453616582
100
AcDbArc
 50
20.08396911621094
 51
162.1160125732422
  0
ARC
  5
1DF
330
1F
100
AcDbEntity
  8
0-0
  6
Continuous
 62
     3
370
     9
100
AcDbCircle
 10
-477.8463827597128
 20
-336.0572278821791
 30
0.0
 40
13.33333350516654
100
AcDbArc
 50
91.09999084472655
 51
180.0
  0
CIRCLE
  5
1E0
330
1F
100
AcDbEntity
  8
0-1
  6
Continuous
 62
     2
370
     9
100
AcDbCircle
 10
-650.1798062711148
 20
1022.909248970651
 30
0.0
 40
33.33333376291636
  0
CIRCLE
  5
1E1
330
1F
100
AcDbEntity
  8
0-1
  6
Continuous
 62
     2
370
     9
100
AcDbCircle
 10
-716.8465279244085
 20
956.2425273173565
 30
0.0
 40
231.9999952574034
  0
CIRCLE
  5
1E2
330
1F
100
AcDbEntity
  8
0-1
  6
JWW_DASHED1
 62
     2
370
     9
100
AcDbCircle
 10
-716.8465279244085
 20
956.2425273173565
 30
0.0
 40
228.3333546406514
  0
CIRCLE
  5
1E3
330
1F
100
AcDbEntity
  8
0-1
  6
Continuous
 62
     2
370
     9
100
AcDbCircle
 10
-783.5132495777026
 20
1022.909248970651
 30
0.0
 40
33.33333376291636
  0
CIRCLE
  5
1E4
330
1F
100
AcDbEntity
  8
0-1
  6
Continuous
 62
     2
370
     9
100
AcDbCircle
 10
-650.1798062711148
 20
889.5758056640625
 30
0.0
 40
33.33333376291636
  0
ARC
  5
1E5
330
1F
100
AcDbEntity
  8
0-0
  6
Continuous
 62
     3
370
     9
100
AcDbCircle
 10
-419.0666817330023
 20
1133.575967324747
 30
0.0
 40
6.666666752583272
100
AcDbArc
 50
23.57817077636718
 51
90.0
  0
ARC
  5
1E6
330
1F
100
AcDbEntity
  8
0-3
  6
Continuous
 62
     4
370
     9
100
AcDbCircle
 10
1071.310507284629
 20
-426.6098104940878
 30
0.0
 40
16.66666688145818
100
AcDbArc
 50
3.492355346679688
 51
0.0
  0
ARC
  5
1E7
330
1F
100
AcDbEntity
  8
0-0
  6
Continuous
 62
     3
370
     9
100
AcDbCircle
 10
-393.7806825380068
 20
1136.252029006546
 30
0.0
 40
6.666666752583272
100
AcDbArc
 50
89.99996948242188
 51
168.5045471191406
  0
ARC
  5
1E8
330
1F
100
AcDbEntity
  8
0-3
  6
Continuous
 62
     4
370
     9
100
AcDbCircle
 10
1071.310507284629
 20
-426.6098104940878
 30
0.0
 40
11.66666681702073
100
AcDbArc
 50
3.492355346679688
 51
0.0
  0
ARC
  5
1E9
330
1F
100
AcDbEntity
  8
0-0
  6
Continuous
 62
     3
370
     9
100
AcDbCircle
 10
-332.0965328732052
 20
786.2523589263092
 30
0.0
 40
16.66666688145818
100
AcDbArc
 50
269.9999542236328
 51
357.5028381347656
  0
ARC
  5
1EA
330
1F
100
AcDbEntity
  8
0-0
  6
Continuous
 62
     3
370
     9
100
AcDbCircle
 10
-332.0946770745354
 20
1126.252490894215
 30
0.0
 40
16.66666688145818
100
AcDbArc
 50
2.495681762695312
 51
89.99993896484375
  0
CIRCLE
  5
1EB
330
1F
100
AcDbEntity
  8
0-0
  6
Continuous
 62
     3
370
     9
100
AcDbCircle
 10
1071.310507284629
 20
-143.2763671875
 30
0.0
 40
186.6666690723316
  0
ARC
  5
1EC
330
1F
100
AcDbEntity
  8
0-0
  6
Continuous
 62
     3
370
     9
100
AcDbCircle
 10
-406.8464949324323
 20
1138.909285261825
 30
0.0
 40
6.666666752583272
100
AcDbArc
 50
203.5781707763672
 51
348.5045471191406
  0
ARC
  5
1ED
330
1F
100
AcDbEntity
  8
0-0
  6
Continuous
 62
     3
370
     9
100
AcDbCircle
 10
-406.8464949324323
 20
773.5757693728885
 30
0.0
 40
6.666666752583272
100
AcDbArc
 50
11.49543762207031
 51
156.4218139648438
  0
ARC
  5
1EE
330
1F
100
AcDbEntity
  8
0-0
  6
Continuous
 62
     3
370
     9
100
AcDbCircle
 10
-393.7806825380068
 20
776.2332730679901
 30
0.0
 40
6.666666752583272
100
AcDbArc
 50
191.4954376220703
 51
270.0000152587891
  0
ARC
  5
1EF
330
1F
100
AcDbEntity
  8
0-0
  6
Continuous
 62
     3
370
     9
100
AcDbCircle
 10
-419.0666817330023
 20
778.9093347497891
 30
0.0
 40
6.666666752583272
100
AcDbArc
 50
269.9999847412109
 51
336.4218139648437
  0
CIRCLE
  5
1F0
330
1F
100
AcDbEntity
  8
0-0
  6
Continuous
 62
     3
370
     9
100
AcDbCircle
 10
1071.310507284629
 20
-143.2763671875
 30
0.0
 40
170.6666688661318
  0
CIRCLE
  5
1F1
330
1F
100
AcDbEntity
  8
0-3
  6
Continuous
 62
     4
370
     9
100
AcDbCircle
 10
1071.310507284629
 20
-143.2763671875
 30
0.0
 40
333.333360826647
  0
CIRCLE
  5
1F2
330
1F
100
AcDbEntity
  8
0-3
  6
Continuous
 62
     4
370
     9
100
AcDbCircle
 10
1071.310507284629
 20
-143.2763671875
 30
0.0
 40
325.0000206199852
  0
CIRCLE
  5
1F3
330
1F
100
AcDbEntity
  8
0-3
  6
Continuous
 62
     4
370
     9
100
AcDbCircle
 10
1071.310507284629
 20
-143.2763671875
 30
0.0
 40
193.3333319586677
  0
ARC
  5
1F4
330
1F
100
AcDbEntity
  8
0-3
  6
Continuous
 62
     4
370
     9
100
AcDbCircle
 10
-347.513147302576
 20
116.8843367293076
 30
0.0
 40
10.00000012887491
100
AcDbArc
 50
126.8698883056641
 51
180.0
  0
CIRCLE
  5
1F5
330
1F
100
AcDbEntity
  8
0-3
  6
Continuous
 62
     4
370
     9
100
AcDbCircle
 10
1071.310507284629
 20
140.0569523991766
 30
0.0
 40
11.66666681702073
  0
CIRCLE
  5
1F6
330
1F
100
AcDbEntity
  8
0-3
  6
Continuous
 62
     4
370
     9
100
AcDbCircle
 10
1071.310507284629
 20
140.0569523991766
 30
0.0
 40
16.66666688145818
  0
ARC
  5
1F7
330
1F
100
AcDbEntity
  8
0-3
  6
Continuous
 62
     4
370
     9
100
AcDbCircle
 10
-347.513147302576
 20
696.0818234005492
 30
0.0
 40
10.00000012887491
100
AcDbArc
 50
180.0
 51
233.1300964355469
  0
ARC
  5
1F8
330
1F
100
AcDbEntity
  8
0-3
  6
Continuous
 62
     4
370
     9
100
AcDbCircle
 10
-313.51318359375
 20
-472.2311566327069
 30
0.0
 40
3.333333376291636
100
AcDbArc
 50
0.0
 51
85.97172546386719
  0
ARC
  5
1F9
330
1F
100
AcDbEntity
  8
0-3
  6
Continuous
 62
     4
370
     9
100
AcDbCircle
 10
-316.1798425622888
 20
-474.7165659311655
 30
0.0
 40
3.333333376291636
100
AcDbArc
 50
0.0
 51
85.97172546386719
  0
ARC
  5
1FA
330
1F
100
AcDbEntity
  8
0-3
  6
Continuous
 62
     4
370
     9
100
AcDbCircle
 10
-347.513147302576
 20
-456.470477129962
 30
0.0
 40
10.00000012887491
100
AcDbArc
 50
180.0
 51
265.9717254638672
  0
ARC
  5
1FB
330
1F
100
AcDbEntity
  8
0-3
  6
Continuous
 62
     4
370
     9
100
AcDbCircle
 10
-350.179929991026
 20
-458.9558864284206
 30
0.0
 40
10.00000012887491
100
AcDbArc
 50
180.0
 51
265.9717254638672
  0
ARC
  5
1FC
330
1F
100
AcDbEntity
  8
0-3
  6
Continuous
 62
     4
370
     9
100
AcDbCircle
 10
-350.179929991026
 20
118.9306640625
 30
0.0
 40
10.00000012887491
100
AcDbArc
 50
109.4712066650391
 51
180.0
  0
ARC
  5
1FD
330
1F
100
AcDbEntity
  8
0-3
  6
Continuous
 62
     4
370
     9
100
AcDbCircle
 10
-347.513147302576
 20
-350.7951148780616
 30
0.0
 40
10.00000012887491
100
AcDbArc
 50
104.9999847412109
 51
180.0
  0
ARC
  5
1FE
330
1F
100
AcDbEntity
  8
0-3
  6
Continuous
 62
     4
370
     9
100
AcDbCircle
 10
-350.179929991026
 20
-348.7489112647803
 30
0.0
 40
10.00000012887491
100
AcDbArc
 50
104.9999847412109
 51
180.0
  0
ARC
  5
1FF
330
1F
100
AcDbEntity
  8
0-3
  6
Continuous
 62
     4
370
     9
100
AcDbCircle
 10
-347.513147302576
 20
-449.7823024440456
 30
0.0
 40
10.00000012887491
100
AcDbArc
 50
126.8698883056641
 51
180.0
  0
ARC
  5
200
330
1F
100
AcDbEntity
  8
0-3
  6
Continuous
 62
     4
370
     9
100
AcDbCircle
 10
-350.179929991026
 20
161.1832407358531
 30
0.0
 40
10.00000012887491
100
AcDbArc
 50
180.0
 51
250.5287780761719
  0
ARC
  5
201
330
1F
100
AcDbEntity
  8
0-3
  6
Continuous
 62
     4
370
     9
100
AcDbCircle
 10
-350.179929991026
 20
-447.735975110853
 30
0.0
 40
10.00000012887491
100
AcDbArc
 50
109.4712066650391
 51
180.0
  0
ARC
  5
202
330
1F
100
AcDbEntity
  8
0-3
  6
Continuous
 62
     4
370
     9
100
AcDbCircle
 10
-350.179929991026
 20
-405.4835221574112
 30
0.0
 40
10.00000012887491
100
AcDbArc
 50
180.0
 51
250.5287780761719
  0
ARC
  5
203
330
1F
100
AcDbEntity
  8
0-3
  6
Continuous
 62
     4
370
     9
100
AcDbCircle
 10
-347.513147302576
 20
-403.4374422640412
 30
0.0
 40
10.00000012887491
100
AcDbArc
 50
180.0
 51
233.1300964355469
  0
ARC
  5
204
330
1F
100
AcDbEntity
  8
0-3
  6
Continuous
 62
     4
370
     9
100
AcDbCircle
 10
-347.513147302576
 20
163.2293206292232
 30
0.0
 40
10.00000012887491
100
AcDbArc
 50
180.0
 51
233.1300964355469
  0
ARC
  5
205
330
1F
100
AcDbEntity
  8
0-3
  6
Continuous
 62
     4
370
     9
100
AcDbCircle
 10
-350.179929991026
 20
62.19605316986929
 30
0.0
 40
10.00000012887491
100
AcDbArc
 50
180.0
 51
255.0
  0
ARC
  5
206
330
1F
100
AcDbEntity
  8
0-3
  6
Continuous
 62
     4
370
     9
100
AcDbCircle
 10
-347.513147302576
 20
64.24225678315054
 30
0.0
 40
10.00000012887491
100
AcDbArc
 50
180.0
 51
255.0
  0
ARC
  5
207
330
1F
100
AcDbEntity
  8
0-3
  6
Continuous
 62
     4
370
     9
100
AcDbCircle
 10
-350.179929991026
 20
172.4031520534206
 30
0.0
 40
10.00000012887491
100
AcDbArc
 50
94.02825927734375
 51
180.0
  0
ARC
  5
208
330
1F
100
AcDbEntity
  8
0-3
  6
Continuous
 62
     4
370
     9
100
AcDbCircle
 10
-347.513147302576
 20
169.9176190350508
 30
0.0
 40
10.00000012887491
100
AcDbArc
 50
94.02825927734375
 51
180.0
  0
ARC
  5
209
330
1F
100
AcDbEntity
  8
0-3
  6
Continuous
 62
     4
370
     9
100
AcDbCircle
 10
-316.1798425622888
 20
188.1637078362544
 30
0.0
 40
3.333333376291636
100
AcDbArc
 50
274.0282592773438
 51
0.0000000000000127
  0
ARC
  5
20A
330
1F
100
AcDbEntity
  8
0-3
  6
Continuous
 62
     4
370
     9
100
AcDbCircle
 10
-313.51318359375
 20
185.6782985377956
 30
0.0
 40
3.333333376291636
100
AcDbArc
 50
274.0282592773438
 51
0.0000000000000127
  0
ARC
  5
20B
330
1F
100
AcDbEntity
  8
0-3
  6
Continuous
 62
     4
370
     9
100
AcDbCircle
 10
-350.179929991026
 20
694.0354960673565
 30
0.0
 40
10.00000012887491
100
AcDbArc
 50
180.0
 51
250.5287780761719
  0
ARC
  5
20C
330
1F
100
AcDbEntity
  8
0-3
  6
Continuous
 62
     4
370
     9
100
AcDbCircle
 10
-350.179929991026
 20
651.7829193940033
 30
0.0
 40
10.00000012887491
100
AcDbArc
 50
109.4712066650391
 51
180.0
  0
ARC
  5
20D
330
1F
100
AcDbEntity
  8
0-3
  6
Continuous
 62
     4
370
     9
100
AcDbCircle
 10
-347.513147302576
 20
649.7368395006336
 30
0.0
 40
10.00000012887491
100
AcDbArc
 50
126.8698883056641
 51
180.0
  0
ARC
  5
20E
330
1F
100
AcDbEntity
  8
0-3
  6
Continuous
 62
     4
370
     9
100
AcDbCircle
 10
-350.179929991026
 20
750.7702306798988
 30
0.0
 40
10.00000012887491
100
AcDbArc
 50
104.9999847412109
 51
180.0
  0
ARC
  5
20F
330
1F
100
AcDbEntity
  8
0-3
  6
Continuous
 62
     4
370
     9
100
AcDbCircle
 10
-347.513147302576
 20
748.7239033467063
 30
0.0
 40
10.00000012887491
100
AcDbArc
 50
104.9999847412109
 51
180.0
  0
ARC
  5
210
330
1F
100
AcDbEntity
  8
0-3
  6
Continuous
 62
     4
370
     9
100
AcDbCircle
 10
-350.179929991026
 20
640.5632555162586
 30
0.0
 40
10.00000012887491
100
AcDbArc
 50
180.0
 51
265.9717254638672
  0
ARC
  5
211
330
1F
100
AcDbEntity
  8
0-3
  6
Continuous
 62
     4
370
     9
100
AcDbCircle
 10
-347.513147302576
 20
643.0485410948057
 30
0.0
 40
10.00000012887491
100
AcDbArc
 50
180.0
 51
265.9717254638672
  0
ARC
  5
212
330
1F
100
AcDbEntity
  8
0-3
  6
Continuous
 62
     4
370
     9
100
AcDbCircle
 10
-316.1798425622888
 20
624.8025760135135
 30
0.0
 40
3.333333376291636
100
AcDbArc
 50
0.0
 51
85.97172546386719
  0
ARC
  5
213
330
1F
100
AcDbEntity
  8
0-3
  6
Continuous
 62
     4
370
     9
100
AcDbCircle
 10
-313.51318359375
 20
627.287861592061
 30
0.0
 40
3.333333376291636
100
AcDbArc
 50
0.0
 51
85.97172546386719
  0
ARC
  5
214
330
1F
100
AcDbEntity
  8
0-3
  6
Continuous
 62
     4
370
     9
100
AcDbCircle
 10
-313.51318359375
 20
1285.197440482475
 30
0.0
 40
3.333333376291636
100
AcDbArc
 50
274.0282592773438
 51
0.0000000000000127
  0
ARC
  5
215
330
1F
100
AcDbEntity
  8
0-3
  6
Continuous
 62
     4
370
     9
100
AcDbCircle
 10
-316.1798425622888
 20
1287.682726061022
 30
0.0
 40
3.333333376291636
100
AcDbArc
 50
274.0282592773438
 51
0.0000000000000127
  0
ARC
  5
216
330
1F
100
AcDbEntity
  8
0-3
  6
Continuous
 62
     4
370
     9
100
AcDbCircle
 10
-347.513147302576
 20
1269.43676097973
 30
0.0
 40
10.00000012887491
100
AcDbArc
 50
94.02825927734375
 51
180.0
  0
ARC
  5
217
330
1F
100
AcDbEntity
  8
0-3
  6
Continuous
 62
     4
370
     9
100
AcDbCircle
 10
-350.179929991026
 20
1271.922046558277
 30
0.0
 40
10.00000012887491
100
AcDbArc
 50
94.02825927734375
 51
180.0
  0
ARC
  5
218
330
1F
100
AcDbEntity
  8
0-3
  6
Continuous
 62
     4
370
     9
100
AcDbCircle
 10
-347.513147302576
 20
1163.761151288007
 30
0.0
 40
10.00000012887491
100
AcDbArc
 50
180.0
 51
255.0
  0
ARC
  5
219
330
1F
100
AcDbEntity
  8
0-3
  6
Continuous
 62
     4
370
     9
100
AcDbCircle
 10
-350.179929991026
 20
1161.715071394637
 30
0.0
 40
10.00000012887491
100
AcDbArc
 50
180.0
 51
255.0
  0
ARC
  5
21A
330
1F
100
AcDbEntity
  8
0-3
  6
Continuous
 62
     4
370
     9
100
AcDbCircle
 10
-347.513147302576
 20
1262.748462573902
 30
0.0
 40
10.00000012887491
100
AcDbArc
 50
180.0
 51
233.1300964355469
  0
ARC
  5
21B
330
1F
100
AcDbEntity
  8
0-3
  6
Continuous
 62
     4
370
     9
100
AcDbCircle
 10
-350.179929991026
 20
1260.702135240709
 30
0.0
 40
10.00000012887491
100
AcDbArc
 50
180.0
 51
250.5287780761719
  0
ARC
  5
21C
330
1F
100
AcDbEntity
  8
0-3
  6
Continuous
 62
     4
370
     9
100
AcDbCircle
 10
-350.179929991026
 20
1218.449806007179
 30
0.0
 40
10.00000012887491
100
AcDbArc
 50
109.4712066650391
 51
180.0
  0
ARC
  5
21D
330
1F
100
AcDbEntity
  8
0-3
  6
Continuous
 62
     4
370
     9
100
AcDbCircle
 10
-347.513147302576
 20
1216.403478673986
 30
0.0
 40
10.00000012887491
100
AcDbArc
 50
126.8698883056641
 51
180.0
  0
CIRCLE
  5
21E
330
1F
100
AcDbEntity
  8
0-1
  6
Continuous
 62
     2
370
     9
100
AcDbCircle
 10
-783.5132495777026
 20
889.5758056640625
 30
0.0
 40
33.33333376291636
  0
CIRCLE
  5
21F
330
1F
100
AcDbEntity
  8
0-0
  6
JWW_DASHED1
 62
     3
370
     9
100
AcDbCircle
 10
-716.8465279244085
 20
956.2425273173565
 30
0.0
 40
124.0000131967905
  0
CIRCLE
  5
220
330
1F
100
AcDbEntity
  8
0-0
  6
JWW_DASHED1
 62
     3
370
     9
100
AcDbCircle
 10
-716.8465279244085
 20
956.2425273173565
 30
0.0
 40
193.895453375739
  0
ARC
  5
221
330
1F
100
AcDbEntity
  8
0-4
  6
Continuous
 62
     7
370
     9
100
AcDbCircle
 10
-716.8465279244085
 20
-143.2763671875
 30
0.0
 40
516.7618313351194
100
AcDbArc
 50
354.6968078613281
 51
7.983383178710958
  0
ARC
  5
222
330
1F
100
AcDbEntity
  8
0-3
  6
Continuous
 62
     4
370
     9
100
AcDbCircle
 10
-444.2709020666172
 20
68.59732138144011
 30
0.0
 40
18.15098491874901
100
AcDbArc
 50
97.42611694335939
 51
165.7078247070313
  0
ARC
  5
223
330
1F
100
AcDbEntity
  8
0-3
  6
Continuous
 62
     4
370
     9
100
AcDbCircle
 10
-444.2709020666172
 20
68.59732138144011
 30
0.0
 40
18.15098491874901
100
AcDbArc
 50
16.4918212890625
 51
84.7736053466797
  0
CIRCLE
  5
224
330
1F
100
AcDbEntity
  8
0-3
  6
Continuous
 62
     4
370
     9
100
AcDbCircle
 10
-444.3601041226773
 20
956.2425273173565
 30
0.0
 40
17.49999974225019
  0
TEXT
  5
225
330
1F
100
AcDbEntity
  8
0-4
  6
Continuous
 62
     2
370
     9
100
AcDbText
 10
-1064.486466626478
 20
260.4736861779296
 30
0.0
 40
30.48
  1
51.5
 50
90.00000250447816
 41
1.09375
  7
ＭＳ ゴシック
100
AcDbText
  0
TEXT
  5
226
330
1F
100
AcDbEntity
  8
0-4
  6
Continuous
 62
     2
370
     9
100
AcDbText
 10
-1064.486468101738
 20
151.6342614260291
 30
0.0
 40
30.48
  1
5
 50
90.00000250447816
 41
0.9999999999999998
  7
ＭＳ ゴシック
100
AcDbText
  0
TEXT
  5
227
330
1F
100
AcDbEntity
  8
0-4
  6
Continuous
 62
     2
370
     9
100
AcDbText
 10
-1144.486731054042
 20
90.89027173932092
 30
0.0
 40
30.48
  1
160
 50
90.00000250447816
 41
1.083333333333333
  7
ＭＳ ゴシック
100
AcDbText
  0
TEXT
  5
228
330
1F
100
AcDbEntity
  8
0-4
  6
Continuous
 62
     2
370
     9
100
AcDbText
 10
-1144.486731545795
 20
-764.526429293988
 30
0.0
 40
30.48
  1
60
 50
90.00000250447816
 41
1.062500000000001
  7
ＭＳ ゴシック
100
AcDbText
  0
TEXT
  5
229
330
1F
100
AcDbEntity
  8
0-4
  6
Continuous
 62
     2
370
     9
100
AcDbText
 10
-1224.486500110208
 20
-259.1097695006495
 30
0.0
 40
30.48
  1
370
 50
90.00000250447816
 41
1.083333333333333
  7
ＭＳ ゴシック
100
AcDbText
  0
TEXT
  5
22A
330
1F
100
AcDbEntity
  8
0-4
  6
Continuous
 62
     2
370
     9
100
AcDbText
 10
-827.2962209340687
 20
-927.6364991554054
 30
0.0
 40
30.48
  1
φ76
 41
1.09375
  7
ＭＳ ゴシック
100
AcDbText
  0
TEXT
  5
22B
330
1F
100
AcDbEntity
  8
0-4
  6
Continuous
 62
     2
370
     9
100
AcDbText
 10
-221.2315846708716
 20
-110.4685209158909
 30
0.0
 40
30.48
  1
1ﾟ10'
 50
90.54995567606926
 41
1.1
  7
ＭＳ ゴシック
100
AcDbText
  0
TEXT
  5
22C
330
1F
100
AcDbEntity
  8
0-4
  6
Continuous
 62
     2
370
     9
100
AcDbText
 10
1489.003918528107
 20
-764.526429293988
 30
0.0
 40
30.48
  1
60
 50
90.00000250447816
 41
1.062500000000001
  7
ＭＳ ゴシック
100
AcDbText
  0
TEXT
  5
22D
330
1F
100
AcDbEntity
  8
0-4
  6
Continuous
 62
     2
370
     9
100
AcDbText
 10
1489.00391901986
 20
-142.4431303272964
 30
0.0
 40
30.48
  1
300
 50
90.00000250447816
 41
1.083333333333333
  7
ＭＳ ゴシック
100
AcDbText
  0
TEXT
  5
22E
330
1F
100
AcDbEntity
  8
0-4
  6
Continuous
 62
     2
370
     9
100
AcDbText
 10
1547.11911991113
 20
-647.8597901206348
 30
0.0
 40
30.48
  1
10
 50
90.00000250447816
 41
1.062499999999999
  7
ＭＳ ゴシック
100
AcDbText
  0
TEXT
  5
22F
330
1F
100
AcDbEntity
  8
0-4
  6
Continuous
 62
     2
370
     9
100
AcDbText
 10
-794.34665164432
 20
505.696902911212
 30
0.0
 40
30.48
  1
φ139.2
 41
1.107142857142857
  7
ＭＳ ゴシック
100
AcDbText
  0
TEXT
  5
230
330
1F
100
AcDbEntity
  8
0-4
  6
Continuous
 62
     2
370
     9
100
AcDbText
 10
-114.7612809969566
 20
-186.7262159617854
 30
0.0
 40
30.48
  1
φ112
 50
91.10003179106539
 41
1.1
  7
ＭＳ ゴシック
100
AcDbText
  0
TEXT
  5
231
330
1F
100
AcDbEntity
  8
0-4
  6
Continuous
 62
     2
370
     9
100
AcDbText
 10
-15.82016677872823
 20
-198.2765530138991
 30
0.0
 40
30.48
  1
φ200
 50
90.00000250447816
 41
1.1
  7
ＭＳ ゴシック
100
AcDbText
  0
TEXT
  5
232
330
1F
100
AcDbEntity
  8
0-E
  6
Continuous
 62
     7
370
     9
100
AcDbText
 10
-217.3737438305002
 20
358.9773721890836
 30
0.0
 40
22.86
  1
化粧プレート：ＳＵＳ３０４，ｔ＝０．８
 41
1.157894736842105
  7
ＭＳ ゴシック
100
AcDbText
  0
TEXT
  5
233
330
1F
100
AcDbEntity
  8
0-E
  6
Continuous
 62
     7
370
     9
100
AcDbText
 10
-156.6951772328969
 20
305.040810810811
 30
0.0
 40
22.86
  1
ヘアライン仕上＋セラミック系塗装
 41
1.15625
  7
ＭＳ ゴシック
100
AcDbText
  0
TEXT
  5
234
330
1F
100
AcDbEntity
  8
0-E
  6
Continuous
 62
     7
370
     9
100
AcDbText
 10
-156.1827541042018
 20
-608.4127397856842
 30
0.0
 40
22.86
  1
パッキン：ＣＲ
 41
1.142857142857143
  7
ＭＳ ゴシック
100
AcDbText
  0
TEXT
  5
235
330
1F
100
AcDbEntity
  8
0-E
  6
Continuous
 62
     7
370
     9
100
AcDbText
 10
-1534.842995308541
 20
609.9322012246623
 30
0.0
 40
22.86
  1
蓋：ＳＵＳ３０４，ｔ＝１．５
 41
1.154761904761905
  7
ＭＳ ゴシック
100
AcDbText
  0
TEXT
  5
236
330
1F
100
AcDbEntity
  8
0-E
  6
Continuous
 62
     7
370
     9
100
AcDbText
 10
-1560.388195965741
 20
550.3266697899073
 30
0.0
 40
22.86
  1
ヘアライン仕上＋セラミック系塗装
 41
1.15625
  7
ＭＳ ゴシック
100
AcDbText
  0
TEXT
  5
237
330
1F
100
AcDbEntity
  8
0-E
  6
Continuous
 62
     7
370
     9
100
AcDbText
 10
-1397.224368533573
 20
-977.1907417256123
 30
0.0
 40
22.86
  1
本体：ＳＵＳ３０４
 41
1.148148148148148
  7
ＭＳ ゴシック
100
AcDbText
  0
TEXT
  5
238
330
1F
100
AcDbEntity
  8
0-E
  6
Continuous
 62
     7
370
     9
100
AcDbText
 10
-1495.83634247651
 20
-1032.413495301942
 30
0.0
 40
22.86
  1
ヘアライン仕上＋セラミック系塗装
 41
1.15625
  7
ＭＳ ゴシック
100
AcDbText
  0
TEXT
  5
239
330
1F
100
AcDbEntity
  8
0-4
  6
Continuous
 62
     2
370
     9
100
AcDbText
 10
-541.0133320576435
 20
-1027.636334195524
 30
0.0
 40
30.48
  1
120
 41
1.083333333333333
  7
ＭＳ ゴシック
100
AcDbText
  0
TEXT
  5
23A
330
1F
100
AcDbEntity
  8
0-4
  6
Continuous
 62
     2
370
     9
100
AcDbText
 10
-914.1186853357262
 20
-494.3031795687288
 30
0.0
 40
30.48
  1
0.8
 41
1.083333333333333
  7
ＭＳ ゴシック
100
AcDbText
  0
TEXT
  5
23B
330
1F
100
AcDbEntity
  8
0-E
  6
Continuous
 62
     7
370
     9
100
AcDbText
 10
-311.2310378615919
 20
507.3028231894006
 30
0.0
 40
22.86
  1
丸小ネジ：ＳＵＳ３０４
 41
1.151515151515152
  7
ＭＳ ゴシック
100
AcDbText
  0
TEXT
  5
23C
330
1F
100
AcDbEntity
  8
0-E
  6
Continuous
 62
     7
370
     9
100
AcDbText
 10
-207.3739005423879
 20
451.118889622044
 30
0.0
 40
22.86
  1
Ｍ６×１６
 41
1.133333333333333
  7
ＭＳ ゴシック
100
AcDbText
  0
TEXT
  5
23D
330
1F
100
AcDbEntity
  8
F-5
  6
Continuous
 62
     2
370
     9
100
AcDbText
 10
-763.2932673273859
 20
-1345.468239663614
 30
0.0
 40
30.48
  1
ステンレスパイプ型かざり桝　ＸＳ－２－７５
 41
1.119047619047619
  7
ＭＳ ゴシック
100
AcDbText
  0
ENDSEC
  0
SECTION
  2
OBJECTS
  0
DICTIONARY
  5
C
330
0
100
AcDbDictionary
281
     1
  3
ACAD_GROUP
350
D
  3
ACAD_LAYOUT
350
1A
  3
ACAD_MLEADERSTYLE
350
23F
  3
ACAD_MLINESTYLE
350
17
  3
ACAD_PLOTSETTINGS
350
19
  3
ACAD_PLOTSTYLENAME
350
E
  3
ACAD_TABLESTYLE
350
23E
  3
ACAD_VISUALSTYLE
350
2A
  3
AcDbVariableDictionary
350
240
  0
DICTIONARY
  5
D
102
{ACAD_REACTORS
330
C
102
}
330
C
100
AcDbDictionary
281
     1
  0
DICTIONARY
  5
1A
102
{ACAD_REACTORS
330
C
102
}
330
C
100
AcDbDictionary
281
     1
  3
Layout1
350
1E
  3
Layout2
350
26
  3
Model
350
22
  0
DICTIONARY
  5
23F
102
{ACAD_REACTORS
330
C
102
}
330
C
100
AcDbDictionary
281
     1
  0
DICTIONARY
  5
17
102
{ACAD_REACTORS
330
C
102
}
330
C
100
AcDbDictionary
281
     1
  3
Standard
350
18
  0
DICTIONARY
  5
19
102
{ACAD_REACTORS
330
C
102
}
330
C
100
AcDbDictionary
281
     1
  0
ACDBDICTIONARYWDFLT
  5
E
102
{ACAD_REACTORS
330
C
102
}
330
C
100
AcDbDictionary
281
     1
  3
Normal
350
F
100
AcDbDictionaryWithDefault
340
F
  0
DICTIONARY
  5
23E
102
{ACAD_REACTORS
330
C
102
}
330
C
100
AcDbDictionary
281
     1
  0
DICTIONARY
  5
2A
102
{ACAD_REACTORS
330
C
102
}
330
C
100
AcDbDictionary
281
     1
  3
2dWireframe
350
2F
  3
3D Hidden
350
31
  3
3dWireframe
350
30
  3
Basic
350
32
  3
Brighten
350
36
  3
ColorChange
350
3A
  3
Conceptual
350
34
  3
Dim
350
35
  3
Facepattern
350
39
  3
Flat
350
2B
  3
FlatWithEdges
350
2C
  3
Gouraud
350
2D
  3
GouraudWithEdges
350
2E
  3
Linepattern
350
38
  3
Realistic
350
33
  3
Thicken
350
37
  0
DICTIONARY
  5
240
102
{ACAD_REACTORS
330
C
102
}
330
C
100
AcDbDictionary
281
     1
  3
PSOLHEIGHT
350
242
  3
PSOLWIDTH
350
241
  0
LAYOUT
  5
1E
102
{ACAD_REACTORS
330
1A
102
}
102
{ACAD_XDICTIONARY
360
243
102
}
330
1A
100
AcDbPlotSettings
  1

  2
none_device
  4

  6

 40
0.0
 41
0.0
 42
0.0
 43
0.0
 44
0.0
 45
0.0
 46
0.0
 47
0.0
 48
0.0
 49
0.0
140
0.0
141
0.0
142
1.0
143
1.0
 70
   688
 72
     0
 73
     0
 74
     5
  7

 75
    16
147
1.0
148
0.0
149
0.0
100
AcDbLayout
  1
Layout1
 70
     1
 71
     1
 10
0.0
 20
0.0
 11
420.0
 21
297.0
 12
0.0
 22
0.0
 32
0.0
 14
1.000000000000000E+20
 24
1.000000000000000E+20
 34
1.000000000000000E+20
 15
-1.000000000000000E+20
 25
-1.000000000000000E+20
 35
-1.000000000000000E+20
146
0.0
 13
0.0
 23
0.0
 33
0.0
 16
1.0
 26
0.0
 36
0.0
 17
0.0
 27
1.0
 37
0.0
 76
     0
330
1B
  0
LAYOUT
  5
26
102
{ACAD_REACTORS
330
1A
102
}
102
{ACAD_XDICTIONARY
360
247
102
}
330
1A
100
AcDbPlotSettings
  1

  2
none_device
  4

  6

 40
0.0
 41
0.0
 42
0.0
 43
0.0
 44
0.0
 45
0.0
 46
0.0
 47
0.0
 48
0.0
 49
0.0
140
0.0
141
0.0
142
1.0
143
1.0
 70
   688
 72
     0
 73
     0
 74
     5
  7

 75
    16
147
1.0
148
0.0
149
0.0
100
AcDbLayout
  1
Layout2
 70
     1
 71
     2
 10
0.0
 20
0.0
 11
0.0
 21
0.0
 12
0.0
 22
0.0
 32
0.0
 14
0.0
 24
0.0
 34
0.0
 15
0.0
 25
0.0
 35
0.0
146
0.0
 13
0.0
 23
0.0
 33
0.0
 16
1.0
 26
0.0
 36
0.0
 17
0.0
 27
1.0
 37
0.0
 76
     0
330
23
  0
LAYOUT
  5
22
102
{ACAD_REACTORS
330
1A
102
}
102
{ACAD_XDICTIONARY
360
245
102
}
330
1A
100
AcDbPlotSettings
  1

  2
none_device
  4

  6

 40
0.0
 41
0.0
 42
0.0
 43
0.0
 44
0.0
 45
0.0
 46
0.0
 47
0.0
 48
0.0
 49
0.0
140
0.0
141
0.0
142
1.0
143
1.0
 70
  1712
 72
     0
 73
     0
 74
     0
  7

 75
     0
147
1.0
148
0.0
149
0.0
100
AcDbLayout
  1
Model
 70
     1
 71
     0
 10
-2100.0
 20
-1485.0
 11
2100.0
 21
1485.0
 12
0.0
 22
0.0
 32
0.0
 14
-2100.0
 24
-1485.0
 34
0.0
 15
2100.0
 25
1485.0
 35
0.0
146
0.0
 13
0.0
 23
0.0
 33
0.0
 16
1.0
 26
0.0
 36
0.0
 17
0.0
 27
1.0
 37
0.0
 76
     0
330
1F
331
29
  0
MLINESTYLE
  5
18
102
{ACAD_REACTORS
330
17
102
}
330
17
100
AcDbMlineStyle
  2
Standard
 70
     0
  3

 62
   256
 51
90.0
 52
90.0
 71
     2
 49
0.5
 62
   256
  6
BYLAYER
 49
-0.5
 62
   256
  6
BYLAYER
  0
ACDBPLACEHOLDER
  5
F
102
{ACAD_REACTORS
330
E
102
}
330
E
  0
VISUALSTYLE
  5
2F
102
{ACAD_REACTORS
330
2A
102
}
330
2A
100
AcDbVisualStyle
  2
2dWireframe
 70
     4
 71
     0
 72
     2
 73
     0
 90
        0
 40
-0.6
 41
-30.0
 62
     5
 63
     7
 74
     1
 91
        4
 64
     7
 65
   257
 75
     1
175
     1
 42
1.0
 92
        0
 66
   257
 43
1.0
 76
     1
 77
     6
 78
     2
 67
     7
 79
     5
170
     0
171
     0
290
     0
174
     0
 93
        1
 44
0.0
173
     0
291
     0
 45
0.0
1001
ACAD
1000
AcDbSavedByObjectVersion
1070
     0
  0
VISUALSTYLE
  5
31
102
{ACAD_REACTORS
330
2A
102
}
330
2A
100
AcDbVisualStyle
  2
3D Hidden
 70
     6
 71
     1
 72
     2
 73
     2
 90
        0
 40
-0.6
 41
-30.0
 62
     5
 63
     7
 74
     2
 91
        2
 64
     7
 65
   257
 75
     2
175
     1
 42
40.0
 92
        0
 66
   257
 43
1.0
 76
     1
 77
     6
 78
     2
 67
     7
 79
     3
170
     0
171
     0
290
     0
174
     0
 93
        1
 44
0.0
173
     0
291
     0
 45
0.0
1001
ACAD
1000
AcDbSavedByObjectVersion
1070
     0
  0
VISUALSTYLE
  5
30
102
{ACAD_REACTORS
330
2A
102
}
330
2A
100
AcDbVisualStyle
  2
3dWireframe
 70
     5
 71
     0
 72
     2
 73
     0
 90
        0
 40
-0.6
 41
-30.0
 62
     5
 63
     7
 74
     1
 91
        4
 64
     7
 65
   257
 75
     1
175
     1
 42
1.0
 92
        0
 66
   257
 43
1.0
 76
     1
 77
     6
 78
     2
 67
     7
 79
     5
170
     0
171
     0
290
     0
174
     0
 93
        1
 44
0.0
173
     0
291
     0
 45
0.0
1001
ACAD
1000
AcDbSavedByObjectVersion
1070
     0
  0
VISUALSTYLE
  5
32
102
{ACAD_REACTORS
330
2A
102
}
330
2A
100
AcDbVisualStyle
  2
Basic
 70
     7
 71
     1
 72
     0
 73
     1
 90
        0
 40
-0.6
 41
-30.0
 62
     5
 63
     7
 74
     0
 91
        4
 64
     7
 65
   257
 75
     1
175
     1
 42
1.0
 92
        8
 66
     7
 43
1.0
 76
     1
 77
     6
 78
     2
 67
     7
 79
     5
170
     0
171
     0
290
     0
174
     0
 93
        1
 44
0.0
173
     0
291
     1
 45
0.0
1001
ACAD
1000
AcDbSavedByObjectVersion
1070
     0
  0
VISUALSTYLE
  5
36
102
{ACAD_REACTORS
330
2A
102
}
330
2A
100
AcDbVisualStyle
  2
Brighten
 70
    12
 71
     2
 72
     2
 73
     0
 90
        0
 40
-0.6
 41
-30.0
 62
     5
 63
     7
 74
     1
 91
        4
 64
     7
 65
   257
 75
     1
175
     1
 42
1.0
 92
        8
 66
     7
 43
1.0
 76
     1
 77
     6
 78
     2
 67
     7
 79
     5
170
     0
171
     0
290
     0
174
     0
 93
        1
 44
50.0
173
     0
291
     1
 45
0.0
1001
ACAD
1000
AcDbSavedByObjectVersion
1070
     0
  0
VISUALSTYLE
  5
3A
102
{ACAD_REACTORS
330
2A
102
}
330
2A
100
AcDbVisualStyle
  2
ColorChange
 70
    16
 71
     2
 72
     2
 73
     3
 90
        0
 40
-0.6
 41
-30.0
 62
     5
 63
     8
 74
     1
 91
        4
 64
     7
 65
   257
 75
     1
175
     1
 42
1.0
 92
        8
 66
     8
 43
1.0
 76
     1
 77
     6
 78
     2
 67
     7
 79
     5
170
     0
171
     0
290
     0
174
     0
 93
        1
 44
0.0
173
     0
291
     1
 45
0.0
1001
ACAD
1000
AcDbSavedByObjectVersion
1070
     0
  0
VISUALSTYLE
  5
34
102
{ACAD_REACTORS
330
2A
102
}
330
2A
100
AcDbVisualStyle
  2
Conceptual
 70
     9
 71
     3
 72
     2
 73
     0
 90
        0
 40
-0.6
 41
-30.0
 62
     5
 63
     7
 74
     2
 91
        2
 64
     7
 65
   257
 75
     1
175
     1
 42
40.0
 92
        8
 66
     7
 43
1.0
 76
     1
 77
     6
 78
     2
 67
     7
 79
     3
170
     0
171
     0
290
     0
174
     0
 93
        1
 44
0.0
173
     0
291
     0
 45
0.0
1001
ACAD
1000
AcDbSavedByObjectVersion
1070
     0
  0
VISUALSTYLE
  5
35
102
{ACAD_REACTORS
330
2A
102
}
330
2A
100
AcDbVisualStyle
  2
Dim
 70
    11
 71
     2
 72
     2
 73
     0
 90
        0
 40
-0.6
 41
-30.0
 62
     5
 63
     7
 74
     1
 91
        4
 64
     7
 65
   257
 75
     1
175
     1
 42
1.0
 92
        8
 66
     7
 43
1.0
 76
     1
 77
     6
 78
     2
 67
     7
 79
     5
170
     0
171
     0
290
     0
174
     0
 93
        1
 44
-50.0
173
     0
291
     1
 45
0.0
1001
ACAD
1000
AcDbSavedByObjectVersion
1070
     0
  0
VISUALSTYLE
  5
39
102
{ACAD_REACTORS
330
2A
102
}
330
2A
100
AcDbVisualStyle
  2
Facepattern
 70
    15
 71
     2
 72
     2
 73
     0
 90
        0
 40
-0.6
 41
-30.0
 62
     5
 63
     7
 74
     1
 91
        4
 64
     7
 65
   257
 75
     1
175
     1
 42
1.0
 92
        8
 66
     7
 43
1.0
 76
     1
 77
     6
 78
     2
 67
     7
 79
     5
170
     0
171
     0
290
     0
174
     0
 93
        1
 44
0.0
173
     0
291
     1
 45
0.0
1001
ACAD
1000
AcDbSavedByObjectVersion
1070
     0
  0
VISUALSTYLE
  5
2B
102
{ACAD_REACTORS
330
2A
102
}
330
2A
100
AcDbVisualStyle
  2
Flat
 70
     0
 71
     2
 72
     1
 73
     1
 90
        2
 40
-0.6
 41
30.0
 62
     5
 63
     7
 74
     0
 91
        4
 64
     7
 65
   257
 75
     1
175
     1
 42
1.0
 92
        8
 66
     7
 43
1.0
 76
     1
 77
     6
 78
     2
 67
     7
 79
     5
170
     0
171
     0
290
     0
174
     0
 93
       13
 44
0.0
173
     0
291
     1
 45
0.0
1001
ACAD
1000
AcDbSavedByObjectVersion
1070
     0
  0
VISUALSTYLE
  5
2C
102
{ACAD_REACTORS
330
2A
102
}
330
2A
100
AcDbVisualStyle
  2
FlatWithEdges
 70
     1
 71
     2
 72
     1
 73
     1
 90
        2
 40
-0.6
 41
30.0
 62
     5
 63
     7
 74
     1
 91
        4
 64
     7
 65
   257
 75
     1
175
     1
 42
1.0
 92
        0
 66
   257
 43
1.0
 76
     1
 77
     6
 78
     2
 67
     7
 79
     5
170
     0
171
     0
290
     0
174
     0
 93
       13
 44
0.0
173
     0
291
     1
 45
0.0
1001
ACAD
1000
AcDbSavedByObjectVersion
1070
     0
  0
VISUALSTYLE
  5
2D
102
{ACAD_REACTORS
330
2A
102
}
330
2A
100
AcDbVisualStyle
  2
Gouraud
 70
     2
 71
     2
 72
     2
 73
     1
 90
        2
 40
-0.6
 41
30.0
 62
     5
 63
     7
 74
     0
 91
        4
 64
     7
 65
   257
 75
     1
175
     1
 42
1.0
 92
        0
 66
     7
 43
1.0
 76
     1
 77
     6
 78
     2
 67
     7
 79
     5
170
     0
171
     0
290
     0
174
     0
 93
       13
 44
0.0
173
     0
291
     1
 45
0.0
1001
ACAD
1000
AcDbSavedByObjectVersion
1070
     0
  0
VISUALSTYLE
  5
2E
102
{ACAD_REACTORS
330
2A
102
}
330
2A
100
AcDbVisualStyle
  2
GouraudWithEdges
 70
     3
 71
     2
 72
     2
 73
     1
 90
        2
 40
-0.6
 41
30.0
 62
     5
 63
     7
 74
     1
 91
        4
 64
     7
 65
   257
 75
     1
175
     1
 42
1.0
 92
        0
 66
   257
 43
1.0
 76
     1
 77
     6
 78
     2
 67
     7
 79
     5
170
     0
171
     0
290
     0
174
     0
 93
       13
 44
0.0
173
     0
291
     1
 45
0.0
1001
ACAD
1000
AcDbSavedByObjectVersion
1070
     0
  0
VISUALSTYLE
  5
38
102
{ACAD_REACTORS
330
2A
102
}
330
2A
100
AcDbVisualStyle
  2
Linepattern
 70
    14
 71
     2
 72
     2
 73
     0
 90
        0
 40
-0.6
 41
-30.0
 62
     5
 63
     7
 74
     1
 91
        4
 64
     7
 65
   257
 75
     7
175
     7
 42
1.0
 92
        8
 66
     7
 43
1.0
 76
     1
 77
     6
 78
     2
 67
     7
 79
     5
170
     0
171
     0
290
     0
174
     0
 93
        1
 44
0.0
173
     0
291
     1
 45
0.0
1001
ACAD
1000
AcDbSavedByObjectVersion
1070
     0
  0
VISUALSTYLE
  5
33
102
{ACAD_REACTORS
330
2A
102
}
330
2A
100
AcDbVisualStyle
  2
Realistic
 70
     8
 71
     2
 72
     2
 73
     0
 90
        0
 40
-0.6
 41
-30.0
 62
     5
 63
     7
 74
     1
 91
        0
 64
     7
 65
   257
 75
     1
175
     1
 42
1.0
 92
        8
 66
     8
 43
1.0
 76
     1
 77
     6
 78
     2
 67
     7
 79
     5
170
     0
171
     0
290
     0
174
     0
 93
       13
 44
0.0
173
     0
291
     0
 45
0.0
1001
ACAD
1000
AcDbSavedByObjectVersion
1070
     0
  0
VISUALSTYLE
  5
37
102
{ACAD_REACTORS
330
2A
102
}
330
2A
100
AcDbVisualStyle
  2
Thicken
 70
    13
 71
     2
 72
     2
 73
     0
 90
        0
 40
-0.6
 41
-30.0
 62
     5
 63
     7
 74
     1
 91
        4
 64
     7
 65
   257
 75
     1
175
     1
 42
1.0
 92
       12
 66
     7
 43
1.0
 76
     1
 77
     6
 78
     2
 67
     7
 79
     5
170
     0
171
     0
290
     0
174
     0
 93
        1
 44
0.0
173
     0
291
     1
 45
0.0
1001
ACAD
1000
AcDbSavedByObjectVersion
1070
     0
  0
DICTIONARYVAR
  5
242
102
{ACAD_REACTORS
330
240
102
}
330
240
100
DictionaryVariables
280
     0
  1
80.000000
  0
DICTIONARYVAR
  5
241
102
{ACAD_REACTORS
330
240
102
}
330
240
100
DictionaryVariables
280
     0
  1
5.000000
  0
DICTIONARY
  5
243
330
1E
100
AcDbDictionary
280
     1
281
     1
  3
ACAD_XREC_ROUNDTRIP
360
244
  0
DICTIONARY
  5
247
330
26
100
AcDbDictionary
280
     1
281
     1
  3
ACAD_XREC_ROUNDTRIP
360
248
  0
DICTIONARY
  5
245
330
22
100
AcDbDictionary
280
     1
281
     1
  3
ACAD_XREC_ROUNDTRIP
360
246
  0
XRECORD
  5
244
102
{ACAD_REACTORS
330
243
102
}
330
243
100
AcDbXrecord
280
     1
102
SHADEPLOT
 70
     0
102
SHADEPLOTRESLEVEL
 70
     5
102
SHADEPLOTCUSTOMDPI
 70
   300
  0
XRECORD
  5
248
102
{ACAD_REACTORS
330
247
102
}
330
247
100
AcDbXrecord
280
     1
102
SHADEPLOT
 70
     0
102
SHADEPLOTRESLEVEL
 70
     5
102
SHADEPLOTCUSTOMDPI
 70
   300
  0
XRECORD
  5
246
102
{ACAD_REACTORS
330
245
102
}
330
245
100
AcDbXrecord
280
     1
102
SHADEPLOT
 70
     0
102
SHADEPLOTRESLEVEL
 70
     5
102
SHADEPLOTCUSTOMDPI
 70
   300
  0
ENDSEC
  0
EOF
